  0
SECTION
  2
HEADER
  9
$ACADVER
  1
AC1009
  9
$EXTMIN
 10
64.00000000
 20
60.00000000
 30
0.0
  9
$EXTMAX
 10
508.00000000
 20
506.00000000
 30
0.0
  0
ENDSEC
  0
SECTION
  2
TABLES
  0
TABLE
  2
LAYER
 70
1
 0
LAYER
 2
Calque_par_d_faut
 70
0
 62
18
 6
CONTINUOUS
 0
ENDTAB
 0
ENDSEC
  0
SECTION
  2
ENTITIES
  0
POLYLINE
  8
Calque_par_d_faut
 62
256
 66
   1
 39
0.000000
 70
    1
  0
VERTEX
  8
0
 10
64.65421106
 20
68.25000000
  0
VERTEX
  8
0
 10
64.62128359
 20
68.95159750
  0
VERTEX
  8
0
 10
64.58875815
 20
70.19615016
  0
VERTEX
  8
0
 10
64.52507957
 20
74.25736943
  0
VERTEX
  8
0
 10
64.46350766
 20
80.32015476
  0
VERTEX
  8
0
 10
64.40437476
 20
88.27100312
  0
VERTEX
  8
0
 10
64.29475534
 20
109.38287672
  0
VERTEX
  8
0
 10
64.19888002
 20
136.68496583
  0
VERTEX
  8
0
 10
64.11940749
 20
169.26924610
  0
VERTEX
  8
0
 10
64.05899647
 20
206.22769314
  0
VERTEX
  8
0
 10
64.02030566
 20
246.65228259
  0
VERTEX
  8
0
 10
64.00599376
 20
289.63499007
  0
VERTEX
  8
0
 10
64.00000000
 20
502.76998013
  0
VERTEX
  8
0
 10
66.46481671
 20
504.38499007
  0
VERTEX
  8
0
 10
66.58316455
 20
504.45311448
  0
VERTEX
  8
0
 10
66.72975369
 20
504.51931341
  0
VERTEX
  8
0
 10
67.12238023
 20
504.64604392
  0
VERTEX
  8
0
 10
67.67214503
 20
504.76539989
  0
VERTEX
  8
0
 10
68.40849678
 20
504.87759961
  0
VERTEX
  8
0
 10
69.36088418
 20
504.98286136
  0
VERTEX
  8
0
 10
70.55875594
 20
505.08140344
  0
VERTEX
  8
0
 10
72.03156076
 20
505.17344412
  0
VERTEX
  8
0
 10
73.80874733
 20
505.25920170
  0
VERTEX
  8
0
 10
75.91976436
 20
505.33889446
  0
VERTEX
  8
0
 10
78.39406054
 20
505.41274070
  0
VERTEX
  8
0
 10
84.55028517
 20
505.54376673
  0
VERTEX
  8
0
 10
92.51301083
 20
505.65402610
  0
VERTEX
  8
0
 10
102.51782712
 20
505.74526511
  0
VERTEX
  8
0
 10
114.80032363
 20
505.81923005
  0
VERTEX
  8
0
 10
129.59608996
 20
505.87766722
  0
VERTEX
  8
0
 10
147.14071573
 20
505.92232293
  0
VERTEX
  8
0
 10
167.66979052
 20
505.95494347
  0
VERTEX
  8
0
 10
218.62364559
 20
505.99106427
  0
VERTEX
  8
0
 10
284.34237199
 20
506.00000000
  0
VERTEX
  8
0
 10
348.23164868
 20
505.98988595
  0
VERTEX
  8
0
 10
398.30561682
 20
505.95193039
  0
VERTEX
  8
0
 10
418.67732924
 20
505.91894327
  0
VERTEX
  8
0
 10
436.21377737
 20
505.87471324
  0
VERTEX
  8
0
 10
451.12114885
 20
505.81781278
  0
VERTEX
  8
0
 10
463.60563130
 20
505.74681438
  0
VERTEX
  8
0
 10
473.87341233
 20
505.66029054
  0
VERTEX
  8
0
 10
482.13067956
 20
505.55681373
  0
VERTEX
  8
0
 10
488.58362062
 20
505.43495645
  0
VERTEX
  8
0
 10
491.19790247
 20
505.36668903
  0
VERTEX
  8
0
 10
493.43842312
 20
505.29329118
  0
VERTEX
  8
0
 10
495.33095605
 20
505.21458446
  0
VERTEX
  8
0
 10
496.90127469
 20
505.13039041
  0
VERTEX
  8
0
 10
498.17515251
 20
505.04053062
  0
VERTEX
  8
0
 10
499.17836295
 20
504.94482664
  0
VERTEX
  8
0
 10
499.93667947
 20
504.84310002
  0
VERTEX
  8
0
 10
500.47587551
 20
504.73517234
  0
VERTEX
  8
0
 10
500.67135756
 20
504.67882733
  0
VERTEX
  8
0
 10
500.82172454
 20
504.62086514
  0
VERTEX
  8
0
 10
500.93019812
 20
504.56126347
  0
VERTEX
  8
0
 10
501.00000000
 20
504.50000000
  0
VERTEX
  8
0
 10
501.14174272
 20
504.34719849
  0
VERTEX
  8
0
 10
501.30880338
 20
504.19868164
  0
VERTEX
  8
0
 10
501.49906843
 20
504.05521851
  0
VERTEX
  8
0
 10
501.71042432
 20
503.91757812
  0
VERTEX
  8
0
 10
502.18795436
 20
503.66284180
  0
VERTEX
  8
0
 10
502.72448503
 20
503.44062500
  0
VERTEX
  8
0
 10
503.30310786
 20
503.25708008
  0
VERTEX
  8
0
 10
503.90691440
 20
503.11835938
  0
VERTEX
  8
0
 10
504.51899617
 20
503.03061523
  0
VERTEX
  8
0
 10
504.82285637
 20
503.00778198
  0
VERTEX
  8
0
 10
505.12244472
 20
503.00000000
  0
VERTEX
  8
0
 10
508.00000000
 20
503.00000000
  0
VERTEX
  8
0
 10
508.00000000
 20
281.50000000
  0
VERTEX
  8
0
 10
508.00000000
 20
60.00000000
  0
VERTEX
  8
0
 10
286.64821731
 20
60.00000000
  0
VERTEX
  8
0
 10
65.29643462
 20
60.00000000
  0
VERTEX
  8
0
 10
64.65421106
 20
68.25000000
  0
SEQEND
  0
POLYLINE
  8
Calque_par_d_faut
 62
256
 66
   1
 39
0.000000
 70
    1
  0
VERTEX
  8
0
 10
448.88641283
 20
73.87916488
  0
VERTEX
  8
0
 10
452.98301964
 20
73.90557135
  0
VERTEX
  8
0
 10
456.29188431
 20
73.96535102
  0
VERTEX
  8
0
 10
457.68174617
 20
74.01105227
  0
VERTEX
  8
0
 10
458.91167188
 20
74.06905257
  0
VERTEX
  8
0
 10
459.99399456
 20
74.14067053
  0
VERTEX
  8
0
 10
460.94104736
 20
74.22722472
  0
VERTEX
  8
0
 10
461.76516339
 20
74.33003372
  0
VERTEX
  8
0
 10
462.47867578
 20
74.45041614
  0
VERTEX
  8
0
 10
463.09391766
 20
74.58969055
  0
VERTEX
  8
0
 10
463.62322217
 20
74.74917555
  0
VERTEX
  8
0
 10
464.07892242
 20
74.93018971
  0
VERTEX
  8
0
 10
464.47335154
 20
75.13405163
  0
VERTEX
  8
0
 10
464.81884267
 20
75.36207990
  0
VERTEX
  8
0
 10
465.12772893
 20
75.61559309
  0
VERTEX
  8
0
 10
465.50382870
 20
75.98173232
  0
VERTEX
  8
0
 10
465.85469668
 20
76.37313142
  0
VERTEX
  8
0
 10
466.17265365
 20
76.77766139
  0
VERTEX
  8
0
 10
466.45002037
 20
77.18319323
  0
VERTEX
  8
0
 10
466.67911760
 20
77.57759793
  0
VERTEX
  8
0
 10
466.85226611
 20
77.94874650
  0
VERTEX
  8
0
 10
466.96178665
 20
78.28450992
  0
VERTEX
  8
0
 10
466.99028668
 20
78.43533190
  0
VERTEX
  8
0
 10
467.00000000
 20
78.57275921
  0
VERTEX
  8
0
 10
466.97393640
 20
78.83268141
  0
VERTEX
  8
0
 10
466.89785696
 20
79.24611395
  0
VERTEX
  8
0
 10
466.60831876
 20
80.49178390
  0
VERTEX
  8
0
 10
466.15672182
 20
82.22631662
  0
VERTEX
  8
0
 10
465.56840252
 20
84.36625968
  0
VERTEX
  8
0
 10
464.86869727
 20
86.82816066
  0
VERTEX
  8
0
 10
464.08294248
 20
89.52856713
  0
VERTEX
  8
0
 10
462.35462984
 20
95.31108683
  0
VERTEX
  8
0
 10
460.58615580
 20
101.04619932
  0
VERTEX
  8
0
 10
459.75019926
 20
103.68734681
  0
VERTEX
  8
0
 10
458.98021157
 20
106.06628520
  0
VERTEX
  8
0
 10
458.30152914
 20
108.09956208
  0
VERTEX
  8
0
 10
457.73948836
 20
109.70372502
  0
VERTEX
  8
0
 10
457.31942563
 20
110.79532159
  0
VERTEX
  8
0
 10
457.17055366
 20
111.12282861
  0
VERTEX
  8
0
 10
457.06667736
 20
111.29089937
  0
VERTEX
  8
0
 10
457.03069490
 20
111.31782050
  0
VERTEX
  8
0
 10
456.98700855
 20
111.33090639
  0
VERTEX
  8
0
 10
456.87703004
 20
111.31639270
  0
VERTEX
  8
0
 10
456.73775354
 20
111.24899887
  0
VERTEX
  8
0
 10
456.57019076
 20
111.13036544
  0
VERTEX
  8
0
 10
456.37535340
 20
110.96213298
  0
VERTEX
  8
0
 10
456.15425318
 20
110.74594204
  0
VERTEX
  8
0
 10
455.63731096
 20
110.17624699
  0
VERTEX
  8
0
 10
455.02745775
 20
109.43440474
  0
VERTEX
  8
0
 10
454.33278724
 20
108.53353976
  0
VERTEX
  8
0
 10
453.56139307
 20
107.48677654
  0
VERTEX
  8
0
 10
452.72136891
 20
106.30723953
  0
VERTEX
  8
0
 10
451.82080842
 20
105.00805321
  0
VERTEX
  8
0
 10
450.86780526
 20
103.60234205
  0
VERTEX
  8
0
 10
448.83684558
 20
100.52384307
  0
VERTEX
  8
0
 10
446.69323919
 20
97.17673836
  0
VERTEX
  8
0
 10
444.50173536
 20
93.66602368
  0
VERTEX
  8
0
 10
442.32708339
 20
90.09669477
  0
VERTEX
  8
0
 10
440.23403259
 20
86.57374741
  0
VERTEX
  8
0
 10
438.28733225
 20
83.20217735
  0
VERTEX
  8
0
 10
437.38909766
 20
81.60596998
  0
VERTEX
  8
0
 10
436.55173166
 20
80.08698034
  0
VERTEX
  8
0
 10
435.78332793
 20
78.65833291
  0
VERTEX
  8
0
 10
435.09198012
 20
77.33315215
  0
VERTEX
  8
0
 10
434.48578190
 20
76.12456254
  0
VERTEX
  8
0
 10
433.97282693
 20
75.04568854
  0
VERTEX
  8
0
 10
433.56120887
 20
74.10965462
  0
VERTEX
  8
0
 10
433.25902138
 20
73.32958526
  0
VERTEX
  8
0
 10
433.15149337
 20
73.00213868
  0
VERTEX
  8
0
 10
433.07435813
 20
72.71860492
  0
VERTEX
  8
0
 10
433.02862736
 20
72.48062453
  0
VERTEX
  8
0
 10
433.01531277
 20
72.28983807
  0
VERTEX
  8
0
 10
433.03356111
 20
72.15502674
  0
VERTEX
  8
0
 10
433.07991507
 20
72.07536539
  0
VERTEX
  8
0
 10
433.15126286
 20
72.04930067
  0
VERTEX
  8
0
 10
433.24449269
 20
72.07527924
  0
VERTEX
  8
0
 10
433.35649278
 20
72.15174774
  0
VERTEX
  8
0
 10
433.48415133
 20
72.27715282
  0
VERTEX
  8
0
 10
433.62435656
 20
72.44994114
  0
VERTEX
  8
0
 10
433.77399668
 20
72.66855935
  0
VERTEX
  8
0
 10
433.83419150
 20
72.74227849
  0
VERTEX
  8
0
 10
433.91952899
 20
72.81356675
  0
VERTEX
  8
0
 10
434.16620887
 20
72.94889685
  0
VERTEX
  8
0
 10
434.51519024
 20
73.07464208
  0
VERTEX
  8
0
 10
434.96762700
 20
73.19089487
  0
VERTEX
  8
0
 10
435.52467307
 20
73.29774765
  0
VERTEX
  8
0
 10
436.18748236
 20
73.39529287
  0
VERTEX
  8
0
 10
436.95720878
 20
73.48362296
  0
VERTEX
  8
0
 10
437.83500624
 20
73.56283036
  0
VERTEX
  8
0
 10
438.82202865
 20
73.63300750
  0
VERTEX
  8
0
 10
439.91942993
 20
73.69424681
  0
VERTEX
  8
0
 10
442.44998473
 20
73.79028173
  0
VERTEX
  8
0
 10
445.43590194
 20
73.85167459
  0
VERTEX
  8
0
 10
448.88641283
 20
73.87916488
  0
SEQEND
  0
POLYLINE
  8
Calque_par_d_faut
 62
256
 66
   1
 39
0.000000
 70
    1
  0
VERTEX
  8
0
 10
109.42917630
 20
76.05466512
  0
VERTEX
  8
0
 10
109.76320944
 20
76.38205036
  0
VERTEX
  8
0
 10
110.05033744
 20
76.68821630
  0
VERTEX
  8
0
 10
110.28868319
 20
76.99094945
  0
VERTEX
  8
0
 10
110.47636956
 20
77.30803631
  0
VERTEX
  8
0
 10
110.55062888
 20
77.47752066
  0
VERTEX
  8
0
 10
110.61151944
 20
77.65726337
  0
VERTEX
  8
0
 10
110.65880660
 20
77.84948776
  0
VERTEX
  8
0
 10
110.69225572
 20
78.05641714
  0
VERTEX
  8
0
 10
110.71163216
 20
78.28027483
  0
VERTEX
  8
0
 10
110.71670129
 20
78.52328413
  0
VERTEX
  8
0
 10
110.68297902
 20
79.07565082
  0
VERTEX
  8
0
 10
110.58921180
 20
79.73130373
  0
VERTEX
  8
0
 10
110.43352252
 20
80.50802935
  0
VERTEX
  8
0
 10
110.21403406
 20
81.42361418
  0
VERTEX
  8
0
 10
109.92886931
 20
82.49584473
  0
VERTEX
  8
0
 10
109.15400246
 20
85.18138897
  0
VERTEX
  8
0
 10
108.09390506
 20
88.70695408
  0
VERTEX
  8
0
 10
106.70841508
 20
93.33167581
  0
VERTEX
  8
0
 10
105.34922764
 20
97.94516776
  0
VERTEX
  8
0
 10
104.17251268
 20
102.01281435
  0
VERTEX
  8
0
 10
103.33444016
 20
105.00000000
  0
VERTEX
  8
0
 10
103.01790836
 20
106.12166652
  0
VERTEX
  8
0
 10
102.69126785
 20
107.20062193
  0
VERTEX
  8
0
 10
102.36390889
 20
108.21092504
  0
VERTEX
  8
0
 10
102.04522180
 20
109.12663462
  0
VERTEX
  8
0
 10
101.74459685
 20
109.92180948
  0
VERTEX
  8
0
 10
101.47142434
 20
110.57050840
  0
VERTEX
  8
0
 10
101.23509456
 20
111.04679017
  0
VERTEX
  8
0
 10
101.13368016
 20
111.21216800
  0
VERTEX
  8
0
 10
101.04499780
 20
111.32471360
  0
VERTEX
  8
0
 10
100.99603882
 20
111.35675526
  0
VERTEX
  8
0
 10
100.93139007
 20
111.36813073
  0
VERTEX
  8
0
 10
100.85150616
 20
111.35928862
  0
VERTEX
  8
0
 10
100.75684171
 20
111.33067754
  0
VERTEX
  8
0
 10
100.52498972
 20
111.21594287
  0
VERTEX
  8
0
 10
100.23947109
 20
111.02751562
  0
VERTEX
  8
0
 10
99.90392283
 20
110.76898463
  0
VERTEX
  8
0
 10
99.52198194
 20
110.44393878
  0
VERTEX
  8
0
 10
99.09728540
 20
110.05596693
  0
VERTEX
  8
0
 10
98.63347023
 20
109.60865796
  0
VERTEX
  8
0
 10
97.60303197
 20
108.55038409
  0
VERTEX
  8
0
 10
96.45976314
 20
107.29782812
  0
VERTEX
  8
0
 10
95.23275975
 20
105.87970097
  0
VERTEX
  8
0
 10
93.95111777
 20
104.32471360
  0
VERTEX
  8
0
 10
89.12623648
 20
98.34975120
  0
VERTEX
  8
0
 10
86.37203320
 20
94.97231178
  0
VERTEX
  8
0
 10
86.19210114
 20
94.72498888
  0
VERTEX
  8
0
 10
86.05832686
 20
94.45939549
  0
VERTEX
  8
0
 10
85.97428510
 20
94.16726721
  0
VERTEX
  8
0
 10
85.94355065
 20
93.84033968
  0
VERTEX
  8
0
 10
85.96969824
 20
93.47034850
  0
VERTEX
  8
0
 10
86.05630263
 20
93.04902929
  0
VERTEX
  8
0
 10
86.20693860
 20
92.56811768
  0
VERTEX
  8
0
 10
86.42518088
 20
92.01934927
  0
VERTEX
  8
0
 10
86.71460425
 20
91.39445970
  0
VERTEX
  8
0
 10
87.07878345
 20
90.68518457
  0
VERTEX
  8
0
 10
87.52129325
 20
89.88325950
  0
VERTEX
  8
0
 10
88.04570840
 20
88.98042012
  0
VERTEX
  8
0
 10
88.65560366
 20
87.96840204
  0
VERTEX
  8
0
 10
89.35455379
 20
86.83894088
  0
VERTEX
  8
0
 10
91.03391768
 20
84.19463178
  0
VERTEX
  8
0
 10
92.27361609
 20
82.31772389
  0
VERTEX
  8
0
 10
93.51940453
 20
80.53043070
  0
VERTEX
  8
0
 10
94.73763460
 20
78.87446555
  0
VERTEX
  8
0
 10
95.89465792
 20
77.39154174
  0
VERTEX
  8
0
 10
96.43970193
 20
76.72800576
  0
VERTEX
  8
0
 10
96.95682610
 20
76.12337261
  0
VERTEX
  8
0
 10
97.44182439
 20
75.58285646
  0
VERTEX
  8
0
 10
97.89049074
 20
75.11167148
  0
VERTEX
  8
0
 10
98.29861911
 20
74.71503183
  0
VERTEX
  8
0
 10
98.66200345
 20
74.39815167
  0
VERTEX
  8
0
 10
98.97643771
 20
74.16624517
  0
VERTEX
  8
0
 10
99.23771585
 20
74.02452649
  0
VERTEX
  8
0
 10
99.52497867
 20
73.91612835
  0
VERTEX
  8
0
 10
99.82194305
 20
73.82034797
  0
VERTEX
  8
0
 10
100.44190150
 20
73.66602798
  0
VERTEX
  8
0
 10
101.09144134
 20
73.56034148
  0
VERTEX
  8
0
 10
101.76441270
 20
73.50206342
  0
VERTEX
  8
0
 10
102.45466571
 20
73.48996873
  0
VERTEX
  8
0
 10
103.15605051
 20
73.52283238
  0
VERTEX
  8
0
 10
103.86241723
 20
73.59942929
  0
VERTEX
  8
0
 10
104.56761601
 20
73.71853443
  0
VERTEX
  8
0
 10
105.26549697
 20
73.87892274
  0
VERTEX
  8
0
 10
105.94991027
 20
74.07936916
  0
VERTEX
  8
0
 10
106.61470601
 20
74.31864864
  0
VERTEX
  8
0
 10
107.25373435
 20
74.59553613
  0
VERTEX
  8
0
 10
107.86084542
 20
74.90880658
  0
VERTEX
  8
0
 10
108.42988934
 20
75.25723493
  0
VERTEX
  8
0
 10
108.95471625
 20
75.63959612
  0
VERTEX
  8
0
 10
109.42917630
 20
76.05466512
  0
SEQEND
  0
POLYLINE
  8
Calque_par_d_faut
 62
256
 66
   1
 39
0.000000
 70
    1
  0
VERTEX
  8
0
 10
158.03515488
 20
74.51115772
  0
VERTEX
  8
0
 10
158.20946291
 20
74.57698863
  0
VERTEX
  8
0
 10
158.39217530
 20
74.66581008
  0
VERTEX
  8
0
 10
158.77676259
 20
74.90635059
  0
VERTEX
  8
0
 10
159.17681561
 20
75.22063127
  0
VERTEX
  8
0
 10
159.58023323
 20
75.59650409
  0
VERTEX
  8
0
 10
159.97491431
 20
76.02182107
  0
VERTEX
  8
0
 10
160.34875771
 20
76.48443419
  0
VERTEX
  8
0
 10
160.68966230
 20
76.97219545
  0
VERTEX
  8
0
 10
160.98552694
 20
77.47295685
  0
VERTEX
  8
0
 10
161.17781023
 20
77.87553975
  0
VERTEX
  8
0
 10
161.33831672
 20
78.31747287
  0
VERTEX
  8
0
 10
161.46597757
 20
78.81495277
  0
VERTEX
  8
0
 10
161.55972395
 20
79.38417602
  0
VERTEX
  8
0
 10
161.61848702
 20
80.04133919
  0
VERTEX
  8
0
 10
161.64119797
 20
80.80263883
  0
VERTEX
  8
0
 10
161.62678794
 20
81.68427153
  0
VERTEX
  8
0
 10
161.57418812
 20
82.70243384
  0
VERTEX
  8
0
 10
161.48232967
 20
83.87332234
  0
VERTEX
  8
0
 10
161.35014375
 20
85.21313358
  0
VERTEX
  8
0
 10
161.17656154
 20
86.73806415
  0
VERTEX
  8
0
 10
160.96051420
 20
88.46431060
  0
VERTEX
  8
0
 10
160.39674881
 20
92.58553744
  0
VERTEX
  8
0
 10
159.65029692
 20
97.70638662
  0
VERTEX
  8
0
 10
159.27452027
 20
100.31079684
  0
VERTEX
  8
0
 10
158.91348171
 20
102.95969386
  0
VERTEX
  8
0
 10
158.56731978
 20
105.64998039
  0
VERTEX
  8
0
 10
158.23617302
 20
108.37855916
  0
VERTEX
  8
0
 10
157.92017997
 20
111.14233288
  0
VERTEX
  8
0
 10
157.61947916
 20
113.93820427
  0
VERTEX
  8
0
 10
157.33420914
 20
116.76307604
  0
VERTEX
  8
0
 10
157.06450844
 20
119.61385092
  0
VERTEX
  8
0
 10
156.81051561
 20
122.48743161
  0
VERTEX
  8
0
 10
156.57236918
 20
125.38072084
  0
VERTEX
  8
0
 10
156.35020769
 20
128.29062133
  0
VERTEX
  8
0
 10
156.14416968
 20
131.21403579
  0
VERTEX
  8
0
 10
155.95439370
 20
134.14786693
  0
VERTEX
  8
0
 10
155.78101828
 20
137.08901748
  0
VERTEX
  8
0
 10
155.62418195
 20
140.03439016
  0
VERTEX
  8
0
 10
155.48402327
 20
142.98088768
  0
VERTEX
  8
0
 10
155.36068076
 20
145.92541275
  0
VERTEX
  8
0
 10
155.25429297
 20
148.86486810
  0
VERTEX
  8
0
 10
155.16499843
 20
151.79615645
  0
VERTEX
  8
0
 10
155.09293570
 20
154.71618050
  0
VERTEX
  8
0
 10
155.03824329
 20
157.62184298
  0
VERTEX
  8
0
 10
155.00105976
 20
160.51004660
  0
VERTEX
  8
0
 10
154.98152365
 20
163.37769409
  0
VERTEX
  8
0
 10
154.97977349
 20
166.22168815
  0
VERTEX
  8
0
 10
154.99594781
 20
169.03893151
  0
VERTEX
  8
0
 10
155.03018517
 20
171.82632689
  0
VERTEX
  8
0
 10
155.08262410
 20
174.58077699
  0
VERTEX
  8
0
 10
155.15340314
 20
177.29918455
  0
VERTEX
  8
0
 10
155.24266083
 20
179.97845227
  0
VERTEX
  8
0
 10
155.35053571
 20
182.61548287
  0
VERTEX
  8
0
 10
155.47716631
 20
185.20717907
  0
VERTEX
  8
0
 10
155.62269118
 20
187.75044359
  0
VERTEX
  8
0
 10
155.78659188
 20
190.61304806
  0
VERTEX
  8
0
 10
155.91565735
 20
193.28358864
  0
VERTEX
  8
0
 10
156.00876748
 20
195.70361807
  0
VERTEX
  8
0
 10
156.06480217
 20
197.81468907
  0
VERTEX
  8
0
 10
156.08264130
 20
199.55835439
  0
VERTEX
  8
0
 10
156.06116477
 20
200.87616676
  0
VERTEX
  8
0
 10
156.03533309
 20
201.35711332
  0
VERTEX
  8
0
 10
155.99925247
 20
201.70967892
  0
VERTEX
  8
0
 10
155.95278287
 20
201.92655764
  0
VERTEX
  8
0
 10
155.92560845
 20
201.98183133
  0
VERTEX
  8
0
 10
155.89578428
 20
202.00044359
  0
VERTEX
  8
0
 10
155.85591628
 20
201.98374796
  0
VERTEX
  8
0
 10
155.79893850
 20
201.93425155
  0
VERTEX
  8
0
 10
155.63555253
 20
201.74012499
  0
VERTEX
  8
0
 10
155.40942421
 20
201.42460100
  0
VERTEX
  8
0
 10
155.12435135
 20
200.99421667
  0
VERTEX
  8
0
 10
154.39256334
 20
199.81501536
  0
VERTEX
  8
0
 10
153.47057114
 20
198.25481780
  0
VERTEX
  8
0
 10
152.38875735
 20
196.36592075
  0
VERTEX
  8
0
 10
151.17750459
 20
194.20062094
  0
VERTEX
  8
0
 10
149.86719549
 20
191.81121511
  0
VERTEX
  8
0
 10
148.48821266
 20
189.25000000
  0
VERTEX
  8
0
 10
146.92970397
 20
186.36741046
  0
VERTEX
  8
0
 10
145.10486859
 20
183.05693628
  0
VERTEX
  8
0
 10
143.08016612
 20
179.43545663
  0
VERTEX
  8
0
 10
140.92205613
 20
175.61985067
  0
VERTEX
  8
0
 10
138.69699822
 20
171.72699755
  0
VERTEX
  8
0
 10
136.47145196
 20
167.87377645
  0
VERTEX
  8
0
 10
134.31187695
 20
164.17706653
  0
VERTEX
  8
0
 10
132.28473277
 20
160.75374695
  0
VERTEX
  8
0
 10
122.88460879
 20
145.00749390
  0
VERTEX
  8
0
 10
127.01006406
 20
131.25374695
  0
VERTEX
  8
0
 10
130.36070471
 20
120.15570237
  0
VERTEX
  8
0
 10
133.54887531
 20
109.73483825
  0
VERTEX
  8
0
 10
136.50124552
 20
100.22121280
  0
VERTEX
  8
0
 10
139.14448498
 20
91.84488426
  0
VERTEX
  8
0
 10
141.40526335
 20
84.83591082
  0
VERTEX
  8
0
 10
142.36931389
 20
81.91607547
  0
VERTEX
  8
0
 10
143.21025027
 20
79.42435072
  0
VERTEX
  8
0
 10
143.91890620
 20
77.38949386
  0
VERTEX
  8
0
 10
144.48611539
 20
75.84026216
  0
VERTEX
  8
0
 10
144.90271154
 20
74.80541290
  0
VERTEX
  8
0
 10
145.05166526
 20
74.48986833
  0
VERTEX
  8
0
 10
145.15952836
 20
74.31370336
  0
VERTEX
  8
0
 10
145.26847177
 20
74.21048510
  0
VERTEX
  8
0
 10
145.41732083
 20
74.11464584
  0
VERTEX
  8
0
 10
145.60397800
 20
74.02615342
  0
VERTEX
  8
0
 10
145.82634576
 20
73.94497567
  0
VERTEX
  8
0
 10
146.08232657
 20
73.87108043
  0
VERTEX
  8
0
 10
146.36982289
 20
73.80443552
  0
VERTEX
  8
0
 10
147.03097197
 20
73.69276804
  0
VERTEX
  8
0
 10
147.79301271
 20
73.60971591
  0
VERTEX
  8
0
 10
148.63916486
 20
73.55502179
  0
VERTEX
  8
0
 10
149.55264814
 20
73.52842835
  0
VERTEX
  8
0
 10
150.51668230
 20
73.52967825
  0
VERTEX
  8
0
 10
151.51448706
 20
73.55851416
  0
VERTEX
  8
0
 10
152.52928215
 20
73.61467875
  0
VERTEX
  8
0
 10
153.54428732
 20
73.69791467
  0
VERTEX
  8
0
 10
154.54272229
 20
73.80796461
  0
VERTEX
  8
0
 10
155.50780680
 20
73.94457121
  0
VERTEX
  8
0
 10
156.42276058
 20
74.10747716
  0
VERTEX
  8
0
 10
157.27080336
 20
74.29642510
  0
VERTEX
  8
0
 10
158.03515488
 20
74.51115772
  0
SEQEND
  0
POLYLINE
  8
Calque_par_d_faut
 62
256
 66
   1
 39
0.000000
 70
    1
  0
VERTEX
  8
0
 10
270.20869659
 20
75.72592678
  0
VERTEX
  8
0
 10
270.36824669
 20
75.87889911
  0
VERTEX
  8
0
 10
270.53143432
 20
76.05878447
  0
VERTEX
  8
0
 10
270.86741169
 20
76.49583432
  0
VERTEX
  8
0
 10
271.21400786
 20
77.03015652
  0
VERTEX
  8
0
 10
271.56860199
 20
77.65483125
  0
VERTEX
  8
0
 10
271.92857323
 20
78.36293871
  0
VERTEX
  8
0
 10
272.29130073
 20
79.14755908
  0
VERTEX
  8
0
 10
272.65416366
 20
80.00177255
  0
VERTEX
  8
0
 10
273.01454118
 20
80.91865931
  0
VERTEX
  8
0
 10
273.36981243
 20
81.89129955
  0
VERTEX
  8
0
 10
273.71735657
 20
82.91277345
  0
VERTEX
  8
0
 10
274.05455276
 20
83.97616121
  0
VERTEX
  8
0
 10
274.37878017
 20
85.07454301
  0
VERTEX
  8
0
 10
274.68741793
 20
86.20099904
  0
VERTEX
  8
0
 10
274.97784522
 20
87.34860949
  0
VERTEX
  8
0
 10
275.24744118
 20
88.51045455
  0
VERTEX
  8
0
 10
275.49358497
 20
89.67961441
  0
VERTEX
  8
0
 10
275.58814916
 20
90.20436389
  0
VERTEX
  8
0
 10
275.64899500
 20
90.69372081
  0
VERTEX
  8
0
 10
275.66890321
 20
91.15950910
  0
VERTEX
  8
0
 10
275.64065449
 20
91.61355266
  0
VERTEX
  8
0
 10
275.55702953
 20
92.06767540
  0
VERTEX
  8
0
 10
275.41080906
 20
92.53370124
  0
VERTEX
  8
0
 10
275.19477376
 20
93.02345408
  0
VERTEX
  8
0
 10
274.90170435
 20
93.54875785
  0
VERTEX
  8
0
 10
274.52438153
 20
94.12143645
  0
VERTEX
  8
0
 10
274.05558601
 20
94.75331379
  0
VERTEX
  8
0
 10
273.48809849
 20
95.45621380
  0
VERTEX
  8
0
 10
272.81469967
 20
96.24196037
  0
VERTEX
  8
0
 10
272.02817026
 20
97.12237743
  0
VERTEX
  8
0
 10
271.12129097
 20
98.10928888
  0
VERTEX
  8
0
 10
268.91760554
 20
100.44989061
  0
VERTEX
  8
0
 10
267.46154814
 20
101.96705160
  0
VERTEX
  8
0
 10
266.08840019
 20
103.36765479
  0
VERTEX
  8
0
 10
264.82927143
 20
104.62210248
  0
VERTEX
  8
0
 10
263.71527157
 20
105.70079698
  0
VERTEX
  8
0
 10
262.77751037
 20
106.57414061
  0
VERTEX
  8
0
 10
262.04709755
 20
107.21253567
  0
VERTEX
  8
0
 10
261.76936858
 20
107.43437821
  0
VERTEX
  8
0
 10
261.55514285
 20
107.58638448
  0
VERTEX
  8
0
 10
261.40830909
 20
107.66485476
  0
VERTEX
  8
0
 10
261.36137942
 20
107.67535774
  0
VERTEX
  8
0
 10
261.33275600
 20
107.66608934
  0
VERTEX
  8
0
 10
261.27006910
 20
107.54497603
  0
VERTEX
  8
0
 10
261.17945430
 20
107.28364214
  0
VERTEX
  8
0
 10
260.92197823
 20
106.37521077
  0
VERTEX
  8
0
 10
260.57540227
 20
105.01059144
  0
VERTEX
  8
0
 10
260.15480090
 20
103.25958037
  0
VERTEX
  8
0
 10
259.15181980
 20
98.87756784
  0
VERTEX
  8
0
 10
258.03363073
 20
93.78754293
  0
VERTEX
  8
0
 10
256.92082949
 20
88.54787536
  0
VERTEX
  8
0
 10
255.93401185
 20
83.71693486
  0
VERTEX
  8
0
 10
255.52553308
 20
81.62922781
  0
VERTEX
  8
0
 10
255.19377363
 20
79.85309117
  0
VERTEX
  8
0
 10
254.95380798
 20
78.45832116
  0
VERTEX
  8
0
 10
254.82071061
 20
77.51471400
  0
VERTEX
  8
0
 10
254.74647973
 20
76.62915919
  0
VERTEX
  8
0
 10
254.73672672
 20
76.25561295
  0
VERTEX
  8
0
 10
254.74852064
 20
75.92385274
  0
VERTEX
  8
0
 10
254.78434047
 20
75.63060252
  0
VERTEX
  8
0
 10
254.84666520
 20
75.37258625
  0
VERTEX
  8
0
 10
254.93797381
 20
75.14652788
  0
VERTEX
  8
0
 10
255.06074528
 20
74.94915136
  0
VERTEX
  8
0
 10
255.21745859
 20
74.77718064
  0
VERTEX
  8
0
 10
255.41059272
 20
74.62733967
  0
VERTEX
  8
0
 10
255.64262667
 20
74.49635242
  0
VERTEX
  8
0
 10
255.91603940
 20
74.38094283
  0
VERTEX
  8
0
 10
256.23330991
 20
74.27783485
  0
VERTEX
  8
0
 10
256.59691717
 20
74.18375243
  0
VERTEX
  8
0
 10
257.47305790
 20
74.00956012
  0
VERTEX
  8
0
 10
258.35009872
 20
73.87846014
  0
VERTEX
  8
0
 10
259.25766106
 20
73.78471321
  0
VERTEX
  8
0
 10
260.18688850
 20
73.72712575
  0
VERTEX
  8
0
 10
261.12892461
 20
73.70450419
  0
VERTEX
  8
0
 10
262.07491297
 20
73.71565497
  0
VERTEX
  8
0
 10
263.01599715
 20
73.75938451
  0
VERTEX
  8
0
 10
263.94332075
 20
73.83449925
  0
VERTEX
  8
0
 10
264.84802732
 20
73.93980561
  0
VERTEX
  8
0
 10
265.72126045
 20
74.07411004
  0
VERTEX
  8
0
 10
266.55416373
 20
74.23621895
  0
VERTEX
  8
0
 10
267.33788071
 20
74.42493878
  0
VERTEX
  8
0
 10
268.06355499
 20
74.63907596
  0
VERTEX
  8
0
 10
268.72233014
 20
74.87743692
  0
VERTEX
  8
0
 10
269.30534974
 20
75.13882808
  0
VERTEX
  8
0
 10
269.56568357
 20
75.27778701
  0
VERTEX
  8
0
 10
269.80375736
 20
75.42205589
  0
VERTEX
  8
0
 10
270.01846405
 20
75.57148555
  0
VERTEX
  8
0
 10
270.20869659
 20
75.72592678
  0
SEQEND
  0
POLYLINE
  8
Calque_par_d_faut
 62
256
 66
   1
 39
0.000000
 70
    1
  0
VERTEX
  8
0
 10
491.73181136
 20
74.52489553
  0
VERTEX
  8
0
 10
492.21301663
 20
74.63593737
  0
VERTEX
  8
0
 10
492.66415198
 20
74.75303532
  0
VERTEX
  8
0
 10
493.08613312
 20
74.88859825
  0
VERTEX
  8
0
 10
493.47987577
 20
75.05503508
  0
VERTEX
  8
0
 10
493.84629563
 20
75.26475469
  0
VERTEX
  8
0
 10
494.01954568
 20
75.38972332
  0
VERTEX
  8
0
 10
494.18630842
 20
75.53016598
  0
VERTEX
  8
0
 10
494.34669833
 20
75.68763379
  0
VERTEX
  8
0
 10
494.50082986
 20
75.86367785
  0
VERTEX
  8
0
 10
494.64881749
 20
76.05984929
  0
VERTEX
  8
0
 10
494.79077567
 20
76.27769920
  0
VERTEX
  8
0
 10
494.92681886
 20
76.51877870
  0
VERTEX
  8
0
 10
495.05706154
 20
76.78463891
  0
VERTEX
  8
0
 10
495.18161817
 20
77.07683094
  0
VERTEX
  8
0
 10
495.30060321
 20
77.39690589
  0
VERTEX
  8
0
 10
495.52231639
 20
78.12690904
  0
VERTEX
  8
0
 10
495.72311678
 20
78.98705724
  0
VERTEX
  8
0
 10
495.90392011
 20
79.98975939
  0
VERTEX
  8
0
 10
496.06564208
 20
81.14742439
  0
VERTEX
  8
0
 10
496.20919842
 20
82.47246114
  0
VERTEX
  8
0
 10
496.33550484
 20
83.97727853
  0
VERTEX
  8
0
 10
496.44547705
 20
85.67428546
  0
VERTEX
  8
0
 10
496.54003076
 20
87.57589082
  0
VERTEX
  8
0
 10
496.62008169
 20
89.69450351
  0
VERTEX
  8
0
 10
496.68654556
 20
92.04253243
  0
VERTEX
  8
0
 10
496.74033808
 20
94.63238646
  0
VERTEX
  8
0
 10
496.78237497
 20
97.47647452
  0
VERTEX
  8
0
 10
496.83484469
 20
103.97698826
  0
VERTEX
  8
0
 10
496.85128043
 20
111.64334483
  0
VERTEX
  8
0
 10
496.83900793
 20
120.57481539
  0
VERTEX
  8
0
 10
496.75764102
 20
142.63018315
  0
VERTEX
  8
0
 10
496.50000000
 20
204.33013396
  0
VERTEX
  8
0
 10
491.36905950
 20
194.41506698
  0
VERTEX
  8
0
 10
490.42573628
 20
192.53671746
  0
VERTEX
  8
0
 10
489.47047339
 20
190.52496723
  0
VERTEX
  8
0
 10
488.50432580
 20
188.38275666
  0
VERTEX
  8
0
 10
487.52834843
 20
186.11302612
  0
VERTEX
  8
0
 10
486.54359623
 20
183.71871600
  0
VERTEX
  8
0
 10
485.55112415
 20
181.20276667
  0
VERTEX
  8
0
 10
484.55198713
 20
178.56811851
  0
VERTEX
  8
0
 10
483.54724012
 20
175.81771189
  0
VERTEX
  8
0
 10
482.53793805
 20
172.95448720
  0
VERTEX
  8
0
 10
481.52513587
 20
169.98138482
  0
VERTEX
  8
0
 10
480.50988852
 20
166.90134511
  0
VERTEX
  8
0
 10
479.49325095
 20
163.71730847
  0
VERTEX
  8
0
 10
478.47627811
 20
160.43221525
  0
VERTEX
  8
0
 10
477.46002493
 20
157.04900585
  0
VERTEX
  8
0
 10
476.44554635
 20
153.57062064
  0
VERTEX
  8
0
 10
475.43389733
 20
150.00000000
  0
VERTEX
  8
0
 10
474.61670178
 20
147.00085384
  0
VERTEX
  8
0
 10
474.28378211
 20
145.69176422
  0
VERTEX
  8
0
 10
473.99826457
 20
144.47606580
  0
VERTEX
  8
0
 10
473.75786174
 20
143.32856022
  0
VERTEX
  8
0
 10
473.56028616
 20
142.22404914
  0
VERTEX
  8
0
 10
473.40325040
 20
141.13733422
  0
VERTEX
  8
0
 10
473.28446700
 20
140.04321710
  0
VERTEX
  8
0
 10
473.20164853
 20
138.91649945
  0
VERTEX
  8
0
 10
473.15250755
 20
137.73198292
  0
VERTEX
  8
0
 10
473.13475661
 20
136.46446917
  0
VERTEX
  8
0
 10
473.14610826
 20
135.08875985
  0
VERTEX
  8
0
 10
473.18427507
 20
133.57965662
  0
VERTEX
  8
0
 10
473.24696959
 20
131.91196113
  0
VERTEX
  8
0
 10
473.43679200
 20
128.00000000
  0
VERTEX
  8
0
 10
473.53588640
 20
126.30350414
  0
VERTEX
  8
0
 10
473.65685986
 20
124.56451870
  0
VERTEX
  8
0
 10
473.79885798
 20
122.78763535
  0
VERTEX
  8
0
 10
473.96102637
 20
120.97744577
  0
VERTEX
  8
0
 10
474.14251065
 20
119.13854163
  0
VERTEX
  8
0
 10
474.34245642
 20
117.27551462
  0
VERTEX
  8
0
 10
474.79431487
 20
113.49545864
  0
VERTEX
  8
0
 10
475.30976659
 20
109.67401125
  0
VERTEX
  8
0
 10
475.88197645
 20
105.84790584
  0
VERTEX
  8
0
 10
476.50410934
 20
102.05387582
  0
VERTEX
  8
0
 10
477.16933011
 20
98.32865458
  0
VERTEX
  8
0
 10
477.87080365
 20
94.70897554
  0
VERTEX
  8
0
 10
478.60169482
 20
91.23157209
  0
VERTEX
  8
0
 10
478.97603604
 20
89.55770290
  0
VERTEX
  8
0
 10
479.35516850
 20
87.93317763
  0
VERTEX
  8
0
 10
479.73823780
 20
86.36258797
  0
VERTEX
  8
0
 10
480.12438956
 20
84.85052558
  0
VERTEX
  8
0
 10
480.51276938
 20
83.40158214
  0
VERTEX
  8
0
 10
480.90252287
 20
82.02034932
  0
VERTEX
  8
0
 10
481.29279564
 20
80.71141881
  0
VERTEX
  8
0
 10
481.68273330
 20
79.47938227
  0
VERTEX
  8
0
 10
482.07148146
 20
78.32883138
  0
VERTEX
  8
0
 10
482.45818572
 20
77.26435782
  0
VERTEX
  8
0
 10
482.84199171
 20
76.29055327
  0
VERTEX
  8
0
 10
483.22204502
 20
75.41200939
  0
VERTEX
  8
0
 10
483.41527930
 20
75.01495530
  0
VERTEX
  8
0
 10
483.61576598
 20
74.66739985
  0
VERTEX
  8
0
 10
483.83162601
 20
74.36849647
  0
VERTEX
  8
0
 10
484.07098032
 20
74.11739856
  0
VERTEX
  8
0
 10
484.34194987
 20
73.91325954
  0
VERTEX
  8
0
 10
484.49182816
 20
73.82853507
  0
VERTEX
  8
0
 10
484.65265561
 20
73.75523285
  0
VERTEX
  8
0
 10
485.01121847
 20
73.64247189
  0
VERTEX
  8
0
 10
485.42575941
 20
73.57413008
  0
VERTEX
  8
0
 10
485.90439938
 20
73.54936085
  0
VERTEX
  8
0
 10
486.45525932
 20
73.56731761
  0
VERTEX
  8
0
 10
487.08646017
 20
73.62715379
  0
VERTEX
  8
0
 10
487.80612289
 20
73.72802280
  0
VERTEX
  8
0
 10
488.62236842
 20
73.86907805
  0
VERTEX
  8
0
 10
489.54331771
 20
74.04947298
  0
VERTEX
  8
0
 10
491.73181136
 20
74.52489553
  0
SEQEND
  0
POLYLINE
  8
Calque_par_d_faut
 62
256
 66
   1
 39
0.000000
 70
    1
  0
VERTEX
  8
0
 10
220.58349831
 20
76.81574804
  0
VERTEX
  8
0
 10
220.91836418
 20
77.25451819
  0
VERTEX
  8
0
 10
221.28400126
 20
77.66385212
  0
VERTEX
  8
0
 10
221.66860030
 20
78.03479100
  0
VERTEX
  8
0
 10
222.06035208
 20
78.35837599
  0
VERTEX
  8
0
 10
222.44744735
 20
78.62564822
  0
VERTEX
  8
0
 10
222.81807690
 20
78.82764887
  0
VERTEX
  8
0
 10
222.99352664
 20
78.90137271
  0
VERTEX
  8
0
 10
223.16043148
 20
78.95541908
  0
VERTEX
  8
0
 10
223.31731527
 20
78.98866813
  0
VERTEX
  8
0
 10
223.46270186
 20
79.00000000
  0
VERTEX
  8
0
 10
223.66048725
 20
79.02440060
  0
VERTEX
  8
0
 10
223.85938805
 20
79.09677542
  0
VERTEX
  8
0
 10
224.05905688
 20
79.21588396
  0
VERTEX
  8
0
 10
224.25914633
 20
79.38048573
  0
VERTEX
  8
0
 10
224.45930903
 20
79.58934026
  0
VERTEX
  8
0
 10
224.65919758
 20
79.84120705
  0
VERTEX
  8
0
 10
224.85846459
 20
80.13484561
  0
VERTEX
  8
0
 10
225.05676266
 20
80.46901546
  0
VERTEX
  8
0
 10
225.25374440
 20
80.84247611
  0
VERTEX
  8
0
 10
225.44906243
 20
81.25398707
  0
VERTEX
  8
0
 10
225.64236935
 20
81.70230785
  0
VERTEX
  8
0
 10
225.83331777
 20
82.18619797
  0
VERTEX
  8
0
 10
226.20674954
 20
83.25572426
  0
VERTEX
  8
0
 10
226.56657861
 20
84.45264204
  0
VERTEX
  8
0
 10
226.91002585
 20
85.76702741
  0
VERTEX
  8
0
 10
227.23431212
 20
87.18895647
  0
VERTEX
  8
0
 10
227.53665829
 20
88.70850532
  0
VERTEX
  8
0
 10
227.81428523
 20
90.31575004
  0
VERTEX
  8
0
 10
228.06441381
 20
92.00076675
  0
VERTEX
  8
0
 10
228.28426489
 20
93.75363154
  0
VERTEX
  8
0
 10
228.47105933
 20
95.56442051
  0
VERTEX
  8
0
 10
228.62201802
 20
97.42320976
  0
VERTEX
  8
0
 10
228.80845633
 20
100.27481014
  0
VERTEX
  8
0
 10
228.87049041
 20
101.47795305
  0
VERTEX
  8
0
 10
228.90879413
 20
102.55439532
  0
VERTEX
  8
0
 10
228.92116224
 20
103.52044012
  0
VERTEX
  8
0
 10
228.90538952
 20
104.39239058
  0
VERTEX
  8
0
 10
228.85927072
 20
105.18654989
  0
VERTEX
  8
0
 10
228.78060061
 20
105.91922119
  0
VERTEX
  8
0
 10
228.66717395
 20
106.60670765
  0
VERTEX
  8
0
 10
228.51678551
 20
107.26531241
  0
VERTEX
  8
0
 10
228.32723004
 20
107.91133865
  0
VERTEX
  8
0
 10
228.09630231
 20
108.56108952
  0
VERTEX
  8
0
 10
227.82179709
 20
109.23086817
  0
VERTEX
  8
0
 10
227.50150913
 20
109.93697777
  0
VERTEX
  8
0
 10
227.13323321
 20
110.69572148
  0
VERTEX
  8
0
 10
226.71476407
 20
111.52340245
  0
VERTEX
  8
0
 10
226.08084317
 20
112.69940644
  0
VERTEX
  8
0
 10
225.36895924
 20
113.90022883
  0
VERTEX
  8
0
 10
224.57243063
 20
115.13333808
  0
VERTEX
  8
0
 10
223.68457567
 20
116.40620261
  0
VERTEX
  8
0
 10
222.69871273
 20
117.72629086
  0
VERTEX
  8
0
 10
221.60816014
 20
119.10107126
  0
VERTEX
  8
0
 10
220.40623624
 20
120.53801226
  0
VERTEX
  8
0
 10
219.08625940
 20
122.04458229
  0
VERTEX
  8
0
 10
217.64154794
 20
123.62824979
  0
VERTEX
  8
0
 10
216.06542021
 20
125.29648319
  0
VERTEX
  8
0
 10
214.35119457
 20
127.05675093
  0
VERTEX
  8
0
 10
212.49218936
 20
128.91652145
  0
VERTEX
  8
0
 10
210.48172292
 20
130.88326317
  0
VERTEX
  8
0
 10
208.31311360
 20
132.96444455
  0
VERTEX
  8
0
 10
205.97967974
 20
135.16753402
  0
VERTEX
  8
0
 10
203.47473969
 20
137.50000000
  0
VERTEX
  8
0
 10
192.66930080
 20
147.50000000
  0
VERTEX
  8
0
 10
193.32111093
 20
127.99346320
  0
VERTEX
  8
0
 10
193.54346256
 20
121.60263567
  0
VERTEX
  8
0
 10
193.65014890
 20
118.95980383
  0
VERTEX
  8
0
 10
193.76233622
 20
116.62730272
  0
VERTEX
  8
0
 10
193.88639498
 20
114.56158942
  0
VERTEX
  8
0
 10
194.02869565
 20
112.71912100
  0
VERTEX
  8
0
 10
194.19560871
 20
111.05635455
  0
VERTEX
  8
0
 10
194.39350462
 20
109.52974714
  0
VERTEX
  8
0
 10
194.62875386
 20
108.09575587
  0
VERTEX
  8
0
 10
194.90772689
 20
106.71083780
  0
VERTEX
  8
0
 10
195.23679418
 20
105.33145001
  0
VERTEX
  8
0
 10
195.62232620
 20
103.91404959
  0
VERTEX
  8
0
 10
196.07069343
 20
102.41509362
  0
VERTEX
  8
0
 10
196.58826633
 20
100.79103918
  0
VERTEX
  8
0
 10
197.85651104
 20
96.99346320
  0
VERTEX
  8
0
 10
198.69375335
 20
94.56510571
  0
VERTEX
  8
0
 10
199.58522900
 20
92.06853229
  0
VERTEX
  8
0
 10
200.50353235
 20
89.57491115
  0
VERTEX
  8
0
 10
201.42125775
 20
87.15541049
  0
VERTEX
  8
0
 10
202.31099957
 20
84.88119852
  0
VERTEX
  8
0
 10
203.14535217
 20
82.82344344
  0
VERTEX
  8
0
 10
203.89690990
 20
81.05331346
  0
VERTEX
  8
0
 10
204.53826712
 20
79.64197679
  0
VERTEX
  8
0
 10
207.33643322
 20
73.78395357
  0
VERTEX
  8
0
 10
213.19501095
 20
74.20772483
  0
VERTEX
  8
0
 10
214.78323291
 20
74.34496330
  0
VERTEX
  8
0
 10
215.48120890
 20
74.42501046
  0
VERTEX
  8
0
 10
216.12020696
 20
74.51448071
  0
VERTEX
  8
0
 10
216.70406114
 20
74.61472741
  0
VERTEX
  8
0
 10
217.23660548
 20
74.72710392
  0
VERTEX
  8
0
 10
217.72167403
 20
74.85296361
  0
VERTEX
  8
0
 10
218.16310084
 20
74.99365983
  0
VERTEX
  8
0
 10
218.56471995
 20
75.15054595
  0
VERTEX
  8
0
 10
218.93036542
 20
75.32497532
  0
VERTEX
  8
0
 10
219.26387129
 20
75.51830130
  0
VERTEX
  8
0
 10
219.56907161
 20
75.73187726
  0
VERTEX
  8
0
 10
219.84980043
 20
75.96705656
  0
VERTEX
  8
0
 10
220.10989178
 20
76.22519254
  0
VERTEX
  8
0
 10
220.35317973
 20
76.50763858
  0
VERTEX
  8
0
 10
220.58349831
 20
76.81574804
  0
SEQEND
  0
POLYLINE
  8
Calque_par_d_faut
 62
256
 66
   1
 39
0.000000
 70
    1
  0
VERTEX
  8
0
 10
376.91604562
 20
76.14026044
  0
VERTEX
  8
0
 10
377.33466810
 20
76.62316898
  0
VERTEX
  8
0
 10
377.72520603
 20
77.13857497
  0
VERTEX
  8
0
 10
378.07911196
 20
77.67055767
  0
VERTEX
  8
0
 10
378.38783840
 20
78.20319629
  0
VERTEX
  8
0
 10
378.64283790
 20
78.72057008
  0
VERTEX
  8
0
 10
378.83556297
 20
79.20675827
  0
VERTEX
  8
0
 10
378.95746617
 20
79.64584009
  0
VERTEX
  8
0
 10
378.98918847
 20
79.84274087
  0
VERTEX
  8
0
 10
379.00000000
 20
80.02189478
  0
VERTEX
  8
0
 10
379.01375439
 20
80.36604915
  0
VERTEX
  8
0
 10
379.05317486
 20
80.71370373
  0
VERTEX
  8
0
 10
379.11549739
 20
81.05534835
  0
VERTEX
  8
0
 10
379.19795791
 20
81.38147284
  0
VERTEX
  8
0
 10
379.29779241
 20
81.68256702
  0
VERTEX
  8
0
 10
379.41223682
 20
81.94912071
  0
VERTEX
  8
0
 10
379.53852713
 20
82.17162374
  0
VERTEX
  8
0
 10
379.67389928
 20
82.34056594
  0
VERTEX
  8
0
 10
379.81275296
 20
82.52171333
  0
VERTEX
  8
0
 10
379.94902144
 20
82.77919676
  0
VERTEX
  8
0
 10
380.07924104
 20
83.10105336
  0
VERTEX
  8
0
 10
380.19994809
 20
83.47532023
  0
VERTEX
  8
0
 10
380.30767889
 20
83.89003448
  0
VERTEX
  8
0
 10
380.39896978
 20
84.33323322
  0
VERTEX
  8
0
 10
380.47035707
 20
84.79295356
  0
VERTEX
  8
0
 10
380.51837709
 20
85.25723261
  0
VERTEX
  8
0
 10
380.59295761
 20
86.07098582
  0
VERTEX
  8
0
 10
380.70781716
 20
87.10181859
  0
VERTEX
  8
0
 10
381.03933055
 20
89.69127459
  0
VERTEX
  8
0
 10
381.47483169
 20
92.77870417
  0
VERTEX
  8
0
 10
381.97623498
 20
96.11721092
  0
VERTEX
  8
0
 10
382.50545484
 20
99.45989839
  0
VERTEX
  8
0
 10
383.02440570
 20
102.55987017
  0
VERTEX
  8
0
 10
383.49500197
 20
105.17022983
  0
VERTEX
  8
0
 10
383.70026538
 20
106.21464997
  0
VERTEX
  8
0
 10
383.87915806
 20
107.04408093
  0
VERTEX
  8
0
 10
384.02499004
 20
107.78590086
  0
VERTEX
  8
0
 10
384.12442431
 20
108.53272284
  0
VERTEX
  8
0
 10
384.17979659
 20
109.27554214
  0
VERTEX
  8
0
 10
384.19344262
 20
110.00535403
  0
VERTEX
  8
0
 10
384.16769811
 20
110.71315378
  0
VERTEX
  8
0
 10
384.10489878
 20
111.38993668
  0
VERTEX
  8
0
 10
384.00738038
 20
112.02669799
  0
VERTEX
  8
0
 10
383.87747862
 20
112.61443298
  0
VERTEX
  8
0
 10
383.71752922
 20
113.14413693
  0
VERTEX
  8
0
 10
383.52986792
 20
113.60680511
  0
VERTEX
  8
0
 10
383.42637522
 20
113.81018681
  0
VERTEX
  8
0
 10
383.31683044
 20
113.99343279
  0
VERTEX
  8
0
 10
383.20152554
 20
114.15541747
  0
VERTEX
  8
0
 10
383.08075249
 20
114.29501525
  0
VERTEX
  8
0
 10
382.95480327
 20
114.41110054
  0
VERTEX
  8
0
 10
382.82396982
 20
114.50254776
  0
VERTEX
  8
0
 10
382.68854413
 20
114.56823130
  0
VERTEX
  8
0
 10
382.54881814
 20
114.60702559
  0
VERTEX
  8
0
 10
382.40508384
 20
114.61780502
  0
VERTEX
  8
0
 10
382.25763318
 20
114.59944401
  0
VERTEX
  8
0
 10
382.10675814
 20
114.55081697
  0
VERTEX
  8
0
 10
381.95275067
 20
114.47079831
  0
VERTEX
  8
0
 10
381.72230894
 20
114.31381876
  0
VERTEX
  8
0
 10
381.46566807
 20
114.11209823
  0
VERTEX
  8
0
 10
380.87772904
 20
113.58028011
  0
VERTEX
  8
0
 10
380.19681393
 20
112.88703569
  0
VERTEX
  8
0
 10
379.43080306
 20
112.04405668
  0
VERTEX
  8
0
 10
378.58757678
 20
111.06303483
  0
VERTEX
  8
0
 10
377.67501543
 20
109.95566185
  0
VERTEX
  8
0
 10
376.70099935
 20
108.73362948
  0
VERTEX
  8
0
 10
375.67340886
 20
107.40862946
  0
VERTEX
  8
0
 10
374.60012432
 20
105.99235350
  0
VERTEX
  8
0
 10
373.48902605
 20
104.49649334
  0
VERTEX
  8
0
 10
372.34799440
 20
102.93274070
  0
VERTEX
  8
0
 10
371.18490971
 20
101.31278733
  0
VERTEX
  8
0
 10
368.82410253
 20
97.95104526
  0
VERTEX
  8
0
 10
366.46964722
 20
94.50480099
  0
VERTEX
  8
0
 10
364.18458649
 20
91.06758833
  0
VERTEX
  8
0
 10
362.03196304
 20
87.73294114
  0
VERTEX
  8
0
 10
361.02501614
 20
86.13330891
  0
VERTEX
  8
0
 10
360.07481958
 20
84.59439324
  0
VERTEX
  8
0
 10
359.18925369
 20
83.12788585
  0
VERTEX
  8
0
 10
358.37619880
 20
81.74547847
  0
VERTEX
  8
0
 10
357.64353526
 20
80.45886284
  0
VERTEX
  8
0
 10
356.99914341
 20
79.27973068
  0
VERTEX
  8
0
 10
356.45090359
 20
78.21977372
  0
VERTEX
  8
0
 10
356.00669612
 20
77.29068369
  0
VERTEX
  8
0
 10
355.67440136
 20
76.50415232
  0
VERTEX
  8
0
 10
355.55268384
 20
76.16799980
  0
VERTEX
  8
0
 10
355.46189963
 20
75.87187135
  0
VERTEX
  8
0
 10
355.40303376
 20
75.61722842
  0
VERTEX
  8
0
 10
355.37707128
 20
75.40553249
  0
VERTEX
  8
0
 10
355.38499723
 20
75.23824502
  0
VERTEX
  8
0
 10
355.42779664
 20
75.11682748
  0
VERTEX
  8
0
 10
355.46743260
 20
75.07243023
  0
VERTEX
  8
0
 10
355.53099746
 20
75.02814056
  0
VERTEX
  8
0
 10
355.72735847
 20
74.94015000
  0
VERTEX
  8
0
 10
356.01176893
 20
74.85338773
  0
VERTEX
  8
0
 10
356.37911806
 20
74.76838571
  0
VERTEX
  8
0
 10
357.34218934
 20
74.60579015
  0
VERTEX
  8
0
 10
358.57568625
 20
74.45661886
  0
VERTEX
  8
0
 10
360.03872271
 20
74.32512737
  0
VERTEX
  8
0
 10
361.69041268
 20
74.21557123
  0
VERTEX
  8
0
 10
363.48987007
 20
74.13220596
  0
VERTEX
  8
0
 10
365.39620882
 20
74.07928711
  0
VERTEX
  8
0
 10
368.28318770
 20
74.03815918
  0
VERTEX
  8
0
 10
369.49101148
 20
74.03517887
  0
VERTEX
  8
0
 10
370.55826431
 20
74.04688001
  0
VERTEX
  8
0
 10
371.49735082
 20
74.07548188
  0
VERTEX
  8
0
 10
372.32067561
 20
74.12320374
  0
VERTEX
  8
0
 10
373.04064331
 20
74.19226486
  0
VERTEX
  8
0
 10
373.66965854
 20
74.28488450
  0
VERTEX
  8
0
 10
374.22012592
 20
74.40328192
  0
VERTEX
  8
0
 10
374.70445006
 20
74.54967641
  0
VERTEX
  8
0
 10
375.13503558
 20
74.72628722
  0
VERTEX
  8
0
 10
375.52428711
 20
74.93533362
  0
VERTEX
  8
0
 10
375.88460926
 20
75.17903487
  0
VERTEX
  8
0
 10
376.22840665
 20
75.45961025
  0
VERTEX
  8
0
 10
376.56808390
 20
75.77927902
  0
VERTEX
  8
0
 10
376.91604562
 20
76.14026044
  0
SEQEND
  0
POLYLINE
  8
Calque_par_d_faut
 62
256
 66
   1
 39
0.000000
 70
    1
  0
VERTEX
  8
0
 10
402.00000000
 20
75.36851709
  0
VERTEX
  8
0
 10
402.01183591
 20
75.23936605
  0
VERTEX
  8
0
 10
402.04575796
 20
75.14175969
  0
VERTEX
  8
0
 10
402.09938764
 20
75.07619817
  0
VERTEX
  8
0
 10
402.17034646
 20
75.04318169
  0
VERTEX
  8
0
 10
402.25625589
 20
75.04321040
  0
VERTEX
  8
0
 10
402.35473743
 20
75.07678449
  0
VERTEX
  8
0
 10
402.46341258
 20
75.14440413
  0
VERTEX
  8
0
 10
402.57990283
 20
75.24656950
  0
VERTEX
  8
0
 10
402.62998017
 20
75.31937251
  0
VERTEX
  8
0
 10
402.66100168
 20
75.41707383
  0
VERTEX
  8
0
 10
402.67355909
 20
75.53801935
  0
VERTEX
  8
0
 10
402.66824409
 20
75.68055492
  0
VERTEX
  8
0
 10
402.60636368
 20
76.02377974
  0
VERTEX
  8
0
 10
402.48009410
 20
76.43351528
  0
VERTEX
  8
0
 10
402.29416898
 20
76.89652852
  0
VERTEX
  8
0
 10
402.05332197
 20
77.39958646
  0
VERTEX
  8
0
 10
401.76228669
 20
77.92945608
  0
VERTEX
  8
0
 10
401.42579679
 20
78.47290436
  0
VERTEX
  8
0
 10
401.07262680
 20
78.97475270
  0
VERTEX
  8
0
 10
400.73129760
 20
79.38634980
  0
VERTEX
  8
0
 10
400.40327229
 20
79.70866439
  0
VERTEX
  8
0
 10
400.24470582
 20
79.83664347
  0
VERTEX
  8
0
 10
400.09001399
 20
79.94266519
  0
VERTEX
  8
0
 10
399.93937969
 20
80.02685065
  0
VERTEX
  8
0
 10
399.79298580
 20
80.08932093
  0
VERTEX
  8
0
 10
399.65101523
 20
80.13019713
  0
VERTEX
  8
0
 10
399.51365085
 20
80.14960034
  0
VERTEX
  8
0
 10
399.38107555
 20
80.14765164
  0
VERTEX
  8
0
 10
399.25347222
 20
80.12447214
  0
VERTEX
  8
0
 10
399.13102376
 20
80.08018292
  0
VERTEX
  8
0
 10
399.01391305
 20
80.01490507
  0
VERTEX
  8
0
 10
398.90232297
 20
79.92875968
  0
VERTEX
  8
0
 10
398.79643642
 20
79.82186785
  0
VERTEX
  8
0
 10
398.69643629
 20
79.69435066
  0
VERTEX
  8
0
 10
398.60250546
 20
79.54632921
  0
VERTEX
  8
0
 10
398.43358328
 20
79.18925787
  0
VERTEX
  8
0
 10
398.29113297
 20
78.75162257
  0
VERTEX
  8
0
 10
398.17661766
 20
78.23439202
  0
VERTEX
  8
0
 10
398.09150045
 20
77.63853497
  0
VERTEX
  8
0
 10
398.03724445
 20
76.96502013
  0
VERTEX
  8
0
 10
398.01531277
 20
76.21481624
  0
VERTEX
  8
0
 10
398.02583658
 20
75.55715184
  0
VERTEX
  8
0
 10
398.04531053
 20
75.28939440
  0
VERTEX
  8
0
 10
398.07656502
 20
75.06094206
  0
VERTEX
  8
0
 10
398.12132946
 20
74.87073629
  0
VERTEX
  8
0
 10
398.18133323
 20
74.71771851
  0
VERTEX
  8
0
 10
398.25830571
 20
74.60083020
  0
VERTEX
  8
0
 10
398.35397631
 20
74.51901279
  0
VERTEX
  8
0
 10
398.47007441
 20
74.47120773
  0
VERTEX
  8
0
 10
398.60832940
 20
74.45635648
  0
VERTEX
  8
0
 10
398.77047068
 20
74.47340048
  0
VERTEX
  8
0
 10
398.95822763
 20
74.52128118
  0
VERTEX
  8
0
 10
399.17332965
 20
74.59894003
  0
VERTEX
  8
0
 10
399.41750612
 20
74.70531849
  0
VERTEX
  8
0
 10
400.00000000
 20
75.00000000
  0
VERTEX
  8
0
 10
400.40175781
 20
75.20068938
  0
VERTEX
  8
0
 10
400.77656250
 20
75.36022325
  0
VERTEX
  8
0
 10
401.11621094
 20
75.47709012
  0
VERTEX
  8
0
 10
401.41250000
 20
75.54977850
  0
VERTEX
  8
0
 10
401.65722656
 20
75.57677688
  0
VERTEX
  8
0
 10
401.84218750
 20
75.55657377
  0
VERTEX
  8
0
 10
401.90969238
 20
75.52829931
  0
VERTEX
  8
0
 10
401.95917969
 20
75.48765767
  0
VERTEX
  8
0
 10
401.98962402
 20
75.43445991
  0
VERTEX
  8
0
 10
402.00000000
 20
75.36851709
  0
SEQEND
  0
POLYLINE
  8
Calque_par_d_faut
 62
256
 66
   1
 39
0.000000
 70
    1
  0
VERTEX
  8
0
 10
234.31558512
 20
76.79622386
  0
VERTEX
  8
0
 10
234.59729784
 20
77.12358325
  0
VERTEX
  8
0
 10
234.85834129
 20
77.46960535
  0
VERTEX
  8
0
 10
235.10415031
 20
77.85433745
  0
VERTEX
  8
0
 10
235.34015975
 20
78.29782691
  0
VERTEX
  8
0
 10
235.57180444
 20
78.82012103
  0
VERTEX
  8
0
 10
235.80451922
 20
79.44126715
  0
VERTEX
  8
0
 10
236.04373892
 20
80.18131260
  0
VERTEX
  8
0
 10
236.29489839
 20
81.06030469
  0
VERTEX
  8
0
 10
236.56343246
 20
82.09829076
  0
VERTEX
  8
0
 10
236.85477597
 20
83.31531814
  0
VERTEX
  8
0
 10
237.52763067
 20
86.36668609
  0
VERTEX
  8
0
 10
238.35694119
 20
90.37478718
  0
VERTEX
  8
0
 10
239.38618623
 20
95.50000000
  0
VERTEX
  8
0
 10
239.74994977
 20
97.22825473
  0
VERTEX
  8
0
 10
240.25062737
 20
99.46322583
  0
VERTEX
  8
0
 10
240.86572575
 20
102.11147364
  0
VERTEX
  8
0
 10
241.57275162
 20
105.07955853
  0
VERTEX
  8
0
 10
243.17261269
 20
111.60148093
  0
VERTEX
  8
0
 10
244.02046131
 20
114.96843915
  0
VERTEX
  8
0
 10
244.87026426
 20
118.28147585
  0
VERTEX
  8
0
 10
248.95890599
 20
134.06295169
  0
VERTEX
  8
0
 10
245.09347703
 20
143.78147585
  0
VERTEX
  8
0
 10
243.64875166
 20
147.45511286
  0
VERTEX
  8
0
 10
242.33891189
 20
150.88024651
  0
VERTEX
  8
0
 10
241.15669733
 20
154.08721808
  0
VERTEX
  8
0
 10
240.09484758
 20
157.10636887
  0
VERTEX
  8
0
 10
239.14610225
 20
159.96804015
  0
VERTEX
  8
0
 10
238.71187487
 20
161.34930262
  0
VERTEX
  8
0
 10
238.30320095
 20
162.70257321
  0
VERTEX
  8
0
 10
237.91917294
 20
164.03164455
  0
VERTEX
  8
0
 10
237.55888329
 20
165.34030933
  0
VERTEX
  8
0
 10
237.22142445
 20
166.63236019
  0
VERTEX
  8
0
 10
236.90588888
 20
167.91158980
  0
VERTEX
  8
0
 10
236.61136902
 20
169.18179081
  0
VERTEX
  8
0
 10
236.33695732
 20
170.44675590
  0
VERTEX
  8
0
 10
236.08174624
 20
171.71027771
  0
VERTEX
  8
0
 10
235.84482822
 20
172.97614892
  0
VERTEX
  8
0
 10
235.62529573
 20
174.24816217
  0
VERTEX
  8
0
 10
235.42224120
 20
175.53011014
  0
VERTEX
  8
0
 10
235.23475709
 20
176.82578548
  0
VERTEX
  8
0
 10
235.06193585
 20
178.13898085
  0
VERTEX
  8
0
 10
234.90286993
 20
179.47348891
  0
VERTEX
  8
0
 10
234.75665179
 20
180.83310233
  0
VERTEX
  8
0
 10
234.49912862
 20
183.64281586
  0
VERTEX
  8
0
 10
234.28210595
 20
186.59846274
  0
VERTEX
  8
0
 10
234.09832340
 20
189.73038424
  0
VERTEX
  8
0
 10
233.94846759
 20
192.94226526
  0
VERTEX
  8
0
 10
233.84046781
 20
196.02391394
  0
VERTEX
  8
0
 10
233.77441371
 20
198.90178842
  0
VERTEX
  8
0
 10
233.75039492
 20
201.50234690
  0
VERTEX
  8
0
 10
233.76850111
 20
203.75204752
  0
VERTEX
  8
0
 10
233.82882191
 20
205.57734845
  0
VERTEX
  8
0
 10
233.87484082
 20
206.30786721
  0
VERTEX
  8
0
 10
233.93144699
 20
206.90470786
  0
VERTEX
  8
0
 10
233.99865165
 20
207.35867767
  0
VERTEX
  8
0
 10
234.07646599
 20
207.66058391
  0
VERTEX
  8
0
 10
234.15663348
 20
207.90189342
  0
VERTEX
  8
0
 10
234.23074255
 20
208.17806527
  0
VERTEX
  8
0
 10
234.35990005
 20
208.82217863
  0
VERTEX
  8
0
 10
234.46216779
 20
209.56728922
  0
VERTEX
  8
0
 10
234.53577503
 20
210.38776228
  0
VERTEX
  8
0
 10
234.57895105
 20
211.25796305
  0
VERTEX
  8
0
 10
234.58992514
 20
212.15225675
  0
VERTEX
  8
0
 10
234.56692658
 20
213.04500863
  0
VERTEX
  8
0
 10
234.50818464
 20
213.91058391
  0
VERTEX
  8
0
 10
234.44987624
 20
214.73206134
  0
VERTEX
  8
0
 10
234.42812021
 20
215.49842750
  0
VERTEX
  8
0
 10
234.44105872
 20
216.19290940
  0
VERTEX
  8
0
 10
234.48683392
 20
216.79873402
  0
VERTEX
  8
0
 10
234.56358796
 20
217.29912840
  0
VERTEX
  8
0
 10
234.61300147
 20
217.50454767
  0
VERTEX
  8
0
 10
234.66946300
 20
217.67731951
  0
VERTEX
  8
0
 10
234.73274032
 20
217.81534729
  0
VERTEX
  8
0
 10
234.80260120
 20
217.91653438
  0
VERTEX
  8
0
 10
234.87881341
 20
217.97878416
  0
VERTEX
  8
0
 10
234.96114471
 20
218.00000000
  0
VERTEX
  8
0
 10
235.04523790
 20
218.01167297
  0
VERTEX
  8
0
 10
235.12661966
 20
218.04592285
  0
VERTEX
  8
0
 10
235.20488365
 20
218.10159607
  0
VERTEX
  8
0
 10
235.27962354
 20
218.17753906
  0
VERTEX
  8
0
 10
235.41690560
 20
218.38562012
  0
VERTEX
  8
0
 10
235.53521507
 20
218.66093750
  0
VERTEX
  8
0
 10
235.63130118
 20
218.99426270
  0
VERTEX
  8
0
 10
235.70191318
 20
219.37636719
  0
VERTEX
  8
0
 10
235.74380031
 20
219.79802246
  0
VERTEX
  8
0
 10
235.75371179
 20
220.25000000
  0
VERTEX
  8
0
 10
235.75094327
 20
221.01818111
  0
VERTEX
  8
0
 10
235.76535992
 20
221.79311651
  0
VERTEX
  8
0
 10
235.79576492
 20
222.56703581
  0
VERTEX
  8
0
 10
235.84096145
 20
223.33216864
  0
VERTEX
  8
0
 10
235.97094183
 20
224.80499338
  0
VERTEX
  8
0
 10
236.05333204
 20
225.49714452
  0
VERTEX
  8
0
 10
236.14572649
 20
226.14942768
  0
VERTEX
  8
0
 10
236.24692837
 20
226.75407248
  0
VERTEX
  8
0
 10
236.35574087
 20
227.30330853
  0
VERTEX
  8
0
 10
236.47096715
 20
227.78936545
  0
VERTEX
  8
0
 10
236.59141040
 20
228.20447288
  0
VERTEX
  8
0
 10
236.71587379
 20
228.54086043
  0
VERTEX
  8
0
 10
236.84316052
 20
228.79075772
  0
VERTEX
  8
0
 10
236.90748862
 20
228.88084427
  0
VERTEX
  8
0
 10
236.97207375
 20
228.94639437
  0
VERTEX
  8
0
 10
237.03676631
 20
228.98643671
  0
VERTEX
  8
0
 10
237.10141668
 20
229.00000000
  0
VERTEX
  8
0
 10
237.15901031
 20
229.01489409
  0
VERTEX
  8
0
 10
237.22057617
 20
229.05856940
  0
VERTEX
  8
0
 10
237.35406285
 20
229.22622211
  0
VERTEX
  8
0
 10
237.49875337
 20
229.49087484
  0
VERTEX
  8
0
 10
237.65152437
 20
229.84044435
  0
VERTEX
  8
0
 10
237.80925248
 20
230.26284735
  0
VERTEX
  8
0
 10
237.96881436
 20
230.74600060
  0
VERTEX
  8
0
 10
238.28094595
 20
231.84622474
  0
VERTEX
  8
0
 10
238.56293227
 20
233.04445065
  0
VERTEX
  8
0
 10
238.78978645
 20
234.24401222
  0
VERTEX
  8
0
 10
238.87473059
 20
234.81408570
  0
VERTEX
  8
0
 10
238.93652162
 20
235.34824331
  0
VERTEX
  8
0
 10
238.97203619
 20
235.83440177
  0
VERTEX
  8
0
 10
238.97815092
 20
236.26047781
  0
VERTEX
  8
0
 10
239.00595250
 20
236.47425838
  0
VERTEX
  8
0
 10
239.09288439
 20
236.79164908
  0
VERTEX
  8
0
 10
239.23268243
 20
237.19726904
  0
VERTEX
  8
0
 10
239.41908242
 20
237.67573741
  0
VERTEX
  8
0
 10
239.90663154
 20
238.78969595
  0
VERTEX
  8
0
 10
240.50541829
 20
240.01047781
  0
VERTEX
  8
0
 10
240.79955687
 20
240.61100976
  0
VERTEX
  8
0
 10
241.04224263
 20
241.17125323
  0
VERTEX
  8
0
 10
241.23043220
 20
241.67894649
  0
VERTEX
  8
0
 10
241.36108222
 20
242.12182786
  0
VERTEX
  8
0
 10
241.43114932
 20
242.48763560
  0
VERTEX
  8
0
 10
241.44251323
 20
242.63780508
  0
VERTEX
  8
0
 10
241.43759015
 20
242.76410802
  0
VERTEX
  8
0
 10
241.41599965
 20
242.86501169
  0
VERTEX
  8
0
 10
241.37736133
 20
242.93898339
  0
VERTEX
  8
0
 10
241.32129475
 20
242.98449039
  0
VERTEX
  8
0
 10
241.24741950
 20
243.00000000
  0
VERTEX
  8
0
 10
241.19916301
 20
242.98669160
  0
VERTEX
  8
0
 10
241.13756454
 20
242.94720121
  0
VERTEX
  8
0
 10
240.97592926
 20
242.79228334
  0
VERTEX
  8
0
 10
240.76568889
 20
242.54046416
  0
VERTEX
  8
0
 10
240.51001865
 20
242.19696143
  0
VERTEX
  8
0
 10
239.87508942
 20
241.25577637
  0
VERTEX
  8
0
 10
239.09654335
 20
240.01047026
  0
VERTEX
  8
0
 10
238.19978222
 20
238.50278522
  0
VERTEX
  8
0
 10
237.21020778
 20
236.77446334
  0
VERTEX
  8
0
 10
236.15322181
 20
234.86724673
  0
VERTEX
  8
0
 10
235.05422608
 20
232.82287749
  0
VERTEX
  8
0
 10
233.78968804
 20
230.50361415
  0
VERTEX
  8
0
 10
232.25825305
 20
227.80854313
  0
VERTEX
  8
0
 10
230.51858975
 20
224.83464843
  0
VERTEX
  8
0
 10
228.62936681
 20
221.67891402
  0
VERTEX
  8
0
 10
226.64925285
 20
218.43832388
  0
VERTEX
  8
0
 10
224.63691653
 20
215.20986201
  0
VERTEX
  8
0
 10
222.65102649
 20
212.09051238
  0
VERTEX
  8
0
 10
220.75025138
 20
209.17725897
  0
VERTEX
  8
0
 10
219.13304716
 20
206.70193333
  0
VERTEX
  8
0
 10
217.56077002
 20
204.23041841
  0
VERTEX
  8
0
 10
216.03339252
 20
201.76266182
  0
VERTEX
  8
0
 10
214.55088726
 20
199.29861119
  0
VERTEX
  8
0
 10
213.11322684
 20
196.83821412
  0
VERTEX
  8
0
 10
211.72038385
 20
194.38141824
  0
VERTEX
  8
0
 10
210.37233086
 20
191.92817116
  0
VERTEX
  8
0
 10
209.06904049
 20
189.47842049
  0
VERTEX
  8
0
 10
207.81048530
 20
187.03211385
  0
VERTEX
  8
0
 10
206.59663790
 20
184.58919886
  0
VERTEX
  8
0
 10
205.42747088
 20
182.14962313
  0
VERTEX
  8
0
 10
204.30295682
 20
179.71333428
  0
VERTEX
  8
0
 10
203.22306831
 20
177.28027993
  0
VERTEX
  8
0
 10
202.18777795
 20
174.85040769
  0
VERTEX
  8
0
 10
201.19705833
 20
172.42366517
  0
VERTEX
  8
0
 10
200.25088203
 20
170.00000000
  0
VERTEX
  8
0
 10
198.82323428
 20
166.22297108
  0
VERTEX
  8
0
 10
198.25155347
 20
164.66354423
  0
VERTEX
  8
0
 10
197.77100227
 20
163.29812920
  0
VERTEX
  8
0
 10
197.37885636
 20
162.10769103
  0
VERTEX
  8
0
 10
197.07239141
 20
161.07319479
  0
VERTEX
  8
0
 10
196.84888309
 20
160.17560553
  0
VERTEX
  8
0
 10
196.70560710
 20
159.39588830
  0
VERTEX
  8
0
 10
196.66320486
 20
159.04428327
  0
VERTEX
  8
0
 10
196.63983909
 20
158.71500815
  0
VERTEX
  8
0
 10
196.63516923
 20
158.40568357
  0
VERTEX
  8
0
 10
196.64885474
 20
158.11393015
  0
VERTEX
  8
0
 10
196.68055509
 20
157.83736854
  0
VERTEX
  8
0
 10
196.72992974
 20
157.57361935
  0
VERTEX
  8
0
 10
196.79663813
 20
157.32030323
  0
VERTEX
  8
0
 10
196.88033975
 20
157.07504080
  0
VERTEX
  8
0
 10
196.98069403
 20
156.83545270
  0
VERTEX
  8
0
 10
197.09736045
 20
156.59915955
  0
VERTEX
  8
0
 10
197.37826751
 20
156.12694067
  0
VERTEX
  8
0
 10
197.72033662
 20
155.63934920
  0
VERTEX
  8
0
 10
198.12084345
 20
155.11735020
  0
VERTEX
  8
0
 10
198.70599218
 20
154.39956394
  0
VERTEX
  8
0
 10
199.44595121
 20
153.53707455
  0
VERTEX
  8
0
 10
200.33416360
 20
152.53665238
  0
VERTEX
  8
0
 10
201.36407242
 20
151.40506775
  0
VERTEX
  8
0
 10
203.82275163
 20
148.77549248
  0
VERTEX
  8
0
 10
206.76953338
 20
145.70251145
  0
VERTEX
  8
0
 10
210.15196224
 20
142.24028735
  0
VERTEX
  8
0
 10
213.91758276
 20
138.44298288
  0
VERTEX
  8
0
 10
218.01393948
 20
134.36476074
  0
VERTEX
  8
0
 10
222.38857695
 20
130.05978362
  0
VERTEX
  8
0
 10
224.60476017
 20
127.86054045
  0
VERTEX
  8
0
 10
226.60271408
 20
125.80780065
  0
VERTEX
  8
0
 10
227.52307326
 20
124.83025773
  0
VERTEX
  8
0
 10
228.39273697
 20
123.88200653
  0
VERTEX
  8
0
 10
229.21299251
 20
122.96060233
  0
VERTEX
  8
0
 10
229.98512716
 20
122.06360043
  0
VERTEX
  8
0
 10
230.71042821
 20
121.18855611
  0
VERTEX
  8
0
 10
231.39018295
 20
120.33302467
  0
VERTEX
  8
0
 10
232.02567866
 20
119.49456140
  0
VERTEX
  8
0
 10
232.61820264
 20
118.67072159
  0
VERTEX
  8
0
 10
233.16904216
 20
117.85906053
  0
VERTEX
  8
0
 10
233.67948453
 20
117.05713351
  0
VERTEX
  8
0
 10
234.15081703
 20
116.26249582
  0
VERTEX
  8
0
 10
234.58432694
 20
115.47270276
  0
VERTEX
  8
0
 10
234.98130155
 20
114.68530961
  0
VERTEX
  8
0
 10
235.34302816
 20
113.89787167
  0
VERTEX
  8
0
 10
235.67079404
 20
113.10794422
  0
VERTEX
  8
0
 10
235.96588650
 20
112.31308256
  0
VERTEX
  8
0
 10
236.22959281
 20
111.51084198
  0
VERTEX
  8
0
 10
236.46320026
 20
110.69877777
  0
VERTEX
  8
0
 10
236.66799615
 20
109.87444522
  0
VERTEX
  8
0
 10
236.84526776
 20
109.03539962
  0
VERTEX
  8
0
 10
236.99630237
 20
108.17919626
  0
VERTEX
  8
0
 10
237.12238728
 20
107.30339044
  0
VERTEX
  8
0
 10
237.22480978
 20
106.40553744
  0
VERTEX
  8
0
 10
237.30485715
 20
105.48319255
  0
VERTEX
  8
0
 10
237.36381668
 20
104.53391108
  0
VERTEX
  8
0
 10
237.40297565
 20
103.55524830
  0
VERTEX
  8
0
 10
237.42362137
 20
102.54475951
  0
VERTEX
  8
0
 10
237.42704111
 20
101.50000000
  0
VERTEX
  8
0
 10
237.41370279
 20
100.36169361
  0
VERTEX
  8
0
 10
237.38312451
 20
99.27020363
  0
VERTEX
  8
0
 10
237.33380002
 20
98.21721745
  0
VERTEX
  8
0
 10
237.26422305
 20
97.19442243
  0
VERTEX
  8
0
 10
237.17288737
 20
96.19350597
  0
VERTEX
  8
0
 10
237.05828671
 20
95.20615545
  0
VERTEX
  8
0
 10
236.91891484
 20
94.22405823
  0
VERTEX
  8
0
 10
236.75326549
 20
93.23890171
  0
VERTEX
  8
0
 10
236.55983241
 20
92.24237326
  0
VERTEX
  8
0
 10
236.33710935
 20
91.22616026
  0
VERTEX
  8
0
 10
236.08359007
 20
90.18195009
  0
VERTEX
  8
0
 10
235.79776831
 20
89.10143013
  0
VERTEX
  8
0
 10
235.47813782
 20
87.97628776
  0
VERTEX
  8
0
 10
235.12319234
 20
86.79821037
  0
VERTEX
  8
0
 10
234.73142563
 20
85.55888532
  0
VERTEX
  8
0
 10
234.30133143
 20
84.25000000
  0
VERTEX
  8
0
 10
233.76032652
 20
82.61031389
  0
VERTEX
  8
0
 10
233.29154175
 20
81.14419661
  0
VERTEX
  8
0
 10
232.89498412
 20
79.84799270
  0
VERTEX
  8
0
 10
232.57066062
 20
78.71804671
  0
VERTEX
  8
0
 10
232.31857824
 20
77.75070316
  0
VERTEX
  8
0
 10
232.13874396
 20
76.94230660
  0
VERTEX
  8
0
 10
232.03116479
 20
76.28920157
  0
VERTEX
  8
0
 10
232.00447305
 20
76.01974105
  0
VERTEX
  8
0
 10
231.99584771
 20
75.78773261
  0
VERTEX
  8
0
 10
232.00528964
 20
75.59271932
  0
VERTEX
  8
0
 10
232.03279971
 20
75.43424424
  0
VERTEX
  8
0
 10
232.07837880
 20
75.31185046
  0
VERTEX
  8
0
 10
232.14202778
 20
75.22508102
  0
VERTEX
  8
0
 10
232.22374752
 20
75.17347901
  0
VERTEX
  8
0
 10
232.32353891
 20
75.15658748
  0
VERTEX
  8
0
 10
232.44140280
 20
75.17394951
  0
VERTEX
  8
0
 10
232.57734009
 20
75.22510817
  0
VERTEX
  8
0
 10
232.73135163
 20
75.30960651
  0
VERTEX
  8
0
 10
232.90343831
 20
75.42698760
  0
VERTEX
  8
0
 10
233.30184056
 20
75.75857034
  0
VERTEX
  8
0
 10
233.77255384
 20
76.21620091
  0
VERTEX
  8
0
 10
234.31558512
 20
76.79622386
  0
SEQEND
  0
POLYLINE
  8
Calque_par_d_faut
 62
256
 66
   1
 39
0.000000
 70
    1
  0
VERTEX
  8
0
 10
333.41797312
 20
87.30084859
  0
VERTEX
  8
0
 10
333.53967153
 20
87.55340413
  0
VERTEX
  8
0
 10
333.62649917
 20
87.87341380
  0
VERTEX
  8
0
 10
333.67770942
 20
88.26492720
  0
VERTEX
  8
0
 10
333.69255570
 20
88.73199395
  0
VERTEX
  8
0
 10
333.67029139
 20
89.27866367
  0
VERTEX
  8
0
 10
333.61016990
 20
89.90898599
  0
VERTEX
  8
0
 10
333.51144463
 20
90.62701050
  0
VERTEX
  8
0
 10
333.37336897
 20
91.43678684
  0
VERTEX
  8
0
 10
333.19519633
 20
92.34236461
  0
VERTEX
  8
0
 10
332.97618011
 20
93.34779344
  0
VERTEX
  8
0
 10
332.71557370
 20
94.45712294
  0
VERTEX
  8
0
 10
332.41263051
 20
95.67440273
  0
VERTEX
  8
0
 10
331.67674737
 20
98.44901163
  0
VERTEX
  8
0
 10
330.76255788
 20
101.70401707
  0
VERTEX
  8
0
 10
329.96929343
 20
104.54849247
  0
VERTEX
  8
0
 10
329.12060792
 20
107.73187423
  0
VERTEX
  8
0
 10
328.24284440
 20
111.14661013
  0
VERTEX
  8
0
 10
327.36234597
 20
114.68514794
  0
VERTEX
  8
0
 10
326.50545570
 20
118.23993543
  0
VERTEX
  8
0
 10
325.69851667
 20
121.70342038
  0
VERTEX
  8
0
 10
324.96787195
 20
124.96805057
  0
VERTEX
  8
0
 10
324.33986463
 20
127.92627377
  0
VERTEX
  8
0
 10
321.58637324
 20
141.35254754
  0
VERTEX
  8
0
 10
320.16050818
 20
137.92627377
  0
VERTEX
  8
0
 10
319.28036351
 20
135.74131407
  0
VERTEX
  8
0
 10
318.27187396
 20
133.11773401
  0
VERTEX
  8
0
 10
317.16099484
 20
130.13264483
  0
VERTEX
  8
0
 10
315.97368148
 20
126.86315778
  0
VERTEX
  8
0
 10
314.73588918
 20
123.38638411
  0
VERTEX
  8
0
 10
313.47357327
 20
119.77943505
  0
VERTEX
  8
0
 10
312.21268907
 20
116.11942186
  0
VERTEX
  8
0
 10
310.97919189
 20
112.48345577
  0
VERTEX
  8
0
 10
309.79903705
 20
108.94864804
  0
VERTEX
  8
0
 10
308.69817987
 20
105.59210990
  0
VERTEX
  8
0
 10
307.70257567
 20
102.49095261
  0
VERTEX
  8
0
 10
306.83817975
 20
99.72228740
  0
VERTEX
  8
0
 10
306.13094744
 20
97.36322552
  0
VERTEX
  8
0
 10
305.60683407
 20
95.49087821
  0
VERTEX
  8
0
 10
305.42155801
 20
94.76131979
  0
VERTEX
  8
0
 10
305.29179493
 20
94.18235672
  0
VERTEX
  8
0
 10
305.22078925
 20
93.76362793
  0
VERTEX
  8
0
 10
305.21178536
 20
93.51477230
  0
VERTEX
  8
0
 10
305.25379149
 20
93.31666674
  0
VERTEX
  8
0
 10
305.32300695
 20
93.11413656
  0
VERTEX
  8
0
 10
305.41854929
 20
92.90768921
  0
VERTEX
  8
0
 10
305.53953607
 20
92.69783216
  0
VERTEX
  8
0
 10
305.68508486
 20
92.48507288
  0
VERTEX
  8
0
 10
305.85431320
 20
92.26991882
  0
VERTEX
  8
0
 10
306.04633866
 20
92.05287745
  0
VERTEX
  8
0
 10
306.26027880
 20
91.83445623
  0
VERTEX
  8
0
 10
306.75037335
 20
91.39550408
  0
VERTEX
  8
0
 10
307.31753729
 20
90.95712208
  0
VERTEX
  8
0
 10
307.95471111
 20
90.52336991
  0
VERTEX
  8
0
 10
308.65483527
 20
90.09830728
  0
VERTEX
  8
0
 10
309.41085023
 20
89.68599388
  0
VERTEX
  8
0
 10
310.21569647
 20
89.29048942
  0
VERTEX
  8
0
 10
311.06231444
 20
88.91585359
  0
VERTEX
  8
0
 10
311.94364462
 20
88.56614608
  0
VERTEX
  8
0
 10
312.85262747
 20
88.24542659
  0
VERTEX
  8
0
 10
313.78220346
 20
87.95775482
  0
VERTEX
  8
0
 10
314.72531305
 20
87.70719048
  0
VERTEX
  8
0
 10
315.67489672
 20
87.49779324
  0
VERTEX
  8
0
 10
317.16636260
 20
87.17586565
  0
VERTEX
  8
0
 10
319.13887591
 20
86.71122636
  0
VERTEX
  8
0
 10
321.33567544
 20
86.16606267
  0
VERTEX
  8
0
 10
323.50000000
 20
85.60256184
  0
VERTEX
  8
0
 10
324.46905326
 20
85.35854210
  0
VERTEX
  8
0
 10
325.38433715
 20
85.15997578
  0
VERTEX
  8
0
 10
326.24739710
 20
85.00712749
  0
VERTEX
  8
0
 10
327.05977855
 20
84.90026188
  0
VERTEX
  8
0
 10
327.82302694
 20
84.83964357
  0
VERTEX
  8
0
 10
328.53868772
 20
84.82553720
  0
VERTEX
  8
0
 10
329.20830632
 20
84.85820739
  0
VERTEX
  8
0
 10
329.83342818
 20
84.93791878
  0
VERTEX
  8
0
 10
330.41559874
 20
85.06493599
  0
VERTEX
  8
0
 10
330.95636343
 20
85.23952366
  0
VERTEX
  8
0
 10
331.45726771
 20
85.46194642
  0
VERTEX
  8
0
 10
331.69325514
 20
85.59117865
  0
VERTEX
  8
0
 10
331.91985700
 20
85.73246890
  0
VERTEX
  8
0
 10
332.13726648
 20
85.88585022
  0
VERTEX
  8
0
 10
332.34567675
 20
86.05135572
  0
VERTEX
  8
0
 10
332.73627239
 20
86.41887152
  0
VERTEX
  8
0
 10
333.09318937
 20
86.83528094
  0
VERTEX
  8
0
 10
333.41797312
 20
87.30084859
  0
SEQEND
  0
POLYLINE
  8
Calque_par_d_faut
 62
256
 66
   1
 39
0.000000
 70
    1
  0
VERTEX
  8
0
 10
425.79664126
 20
94.06404296
  0
VERTEX
  8
0
 10
426.09260377
 20
94.57081555
  0
VERTEX
  8
0
 10
426.55716191
 20
95.41588750
  0
VERTEX
  8
0
 10
427.89749330
 20
97.94046067
  0
VERTEX
  8
0
 10
429.62849194
 20
101.27682500
  0
VERTEX
  8
0
 10
431.56101433
 20
105.06404296
  0
VERTEX
  8
0
 10
433.46144438
 20
108.76730128
  0
VERTEX
  8
0
 10
435.10506287
 20
111.87506262
  0
VERTEX
  8
0
 10
435.77563085
 20
113.10374955
  0
VERTEX
  8
0
 10
436.31607164
 20
114.06130339
  0
VERTEX
  8
0
 10
436.70441046
 20
114.70697119
  0
VERTEX
  8
0
 10
436.83467452
 20
114.90011253
  0
VERTEX
  8
0
 10
436.91867254
 20
115.00000000
  0
VERTEX
  8
0
 10
437.00804852
 20
115.11318970
  0
VERTEX
  8
0
 10
437.15409214
 20
115.34536133
  0
VERTEX
  8
0
 10
437.60306900
 20
116.14101562
  0
VERTEX
  8
0
 10
438.23937661
 20
117.33569336
  0
VERTEX
  8
0
 10
439.03678846
 20
118.87812500
  0
VERTEX
  8
0
 10
441.01001875
 20
122.80117187
  0
VERTEX
  8
0
 10
443.31294773
 20
127.50000000
  0
VERTEX
  8
0
 10
445.65681863
 20
132.31700323
  0
VERTEX
  8
0
 10
447.74152444
 20
136.56181400
  0
VERTEX
  8
0
 10
449.34022765
 20
139.77513394
  0
VERTEX
  8
0
 10
450.22609076
 20
141.49766467
  0
VERTEX
  8
0
 10
450.37206435
 20
141.80763770
  0
VERTEX
  8
0
 10
450.50487213
 20
142.18172442
  0
VERTEX
  8
0
 10
450.62462713
 20
142.61738861
  0
VERTEX
  8
0
 10
450.73144237
 20
143.11209406
  0
VERTEX
  8
0
 10
450.82543086
 20
143.66330452
  0
VERTEX
  8
0
 10
450.90670562
 20
144.26848379
  0
VERTEX
  8
0
 10
450.97537968
 20
144.92509564
  0
VERTEX
  8
0
 10
451.03156603
 20
145.63060383
  0
VERTEX
  8
0
 10
451.10692774
 20
147.17816439
  0
VERTEX
  8
0
 10
451.13369489
 20
148.89087565
  0
VERTEX
  8
0
 10
451.11277163
 20
150.74844785
  0
VERTEX
  8
0
 10
451.04506209
 20
152.73059116
  0
VERTEX
  8
0
 10
450.93147041
 20
154.81701581
  0
VERTEX
  8
0
 10
450.77290075
 20
156.98743201
  0
VERTEX
  8
0
 10
450.57025724
 20
159.22154994
  0
VERTEX
  8
0
 10
450.32444402
 20
161.49907983
  0
VERTEX
  8
0
 10
450.03636524
 20
163.79973187
  0
VERTEX
  8
0
 10
449.70692504
 20
166.10321627
  0
VERTEX
  8
0
 10
449.33702757
 20
168.38924325
  0
VERTEX
  8
0
 10
448.92757695
 20
170.63752299
  0
VERTEX
  8
0
 10
447.90027884
 20
175.96984310
  0
VERTEX
  8
0
 10
447.47357014
 20
178.07314263
  0
VERTEX
  8
0
 10
447.08284304
 20
179.80924115
  0
VERTEX
  8
0
 10
446.89582135
 20
180.54147424
  0
VERTEX
  8
0
 10
446.71161356
 20
181.18416814
  0
VERTEX
  8
0
 10
446.52815919
 20
181.73807653
  0
VERTEX
  8
0
 10
446.34339773
 20
182.20395310
  0
VERTEX
  8
0
 10
446.15526869
 20
182.58255154
  0
VERTEX
  8
0
 10
445.96171157
 20
182.87462554
  0
VERTEX
  8
0
 10
445.86225358
 20
182.98845140
  0
VERTEX
  8
0
 10
445.76066588
 20
183.08092878
  0
VERTEX
  8
0
 10
445.65669091
 20
183.15215190
  0
VERTEX
  8
0
 10
445.55007111
 20
183.20221495
  0
VERTEX
  8
0
 10
445.44054891
 20
183.23121217
  0
VERTEX
  8
0
 10
445.32786677
 20
183.23923774
  0
VERTEX
  8
0
 10
445.21176710
 20
183.22638590
  0
VERTEX
  8
0
 10
445.09199236
 20
183.19275084
  0
VERTEX
  8
0
 10
444.96828497
 20
183.13842677
  0
VERTEX
  8
0
 10
444.84038738
 20
183.06350792
  0
VERTEX
  8
0
 10
444.57099134
 20
182.85226268
  0
VERTEX
  8
0
 10
444.28174375
 20
182.55976881
  0
VERTEX
  8
0
 10
443.97058409
 20
182.18677999
  0
VERTEX
  8
0
 10
443.63545189
 20
181.73404992
  0
VERTEX
  8
0
 10
443.27428663
 20
181.20233227
  0
VERTEX
  8
0
 10
442.88502782
 20
180.59238073
  0
VERTEX
  8
0
 10
442.46561497
 20
179.90494900
  0
VERTEX
  8
0
 10
441.52808514
 20
178.30065969
  0
VERTEX
  8
0
 10
439.20051507
 20
174.19548094
  0
VERTEX
  8
0
 10
437.07036831
 20
170.39591186
  0
VERTEX
  8
0
 10
435.01088209
 20
166.62920546
  0
VERTEX
  8
0
 10
433.02467675
 20
162.90118005
  0
VERTEX
  8
0
 10
431.11437266
 20
159.21765390
  0
VERTEX
  8
0
 10
429.28259016
 20
155.58444531
  0
VERTEX
  8
0
 10
427.53194962
 20
152.00737255
  0
VERTEX
  8
0
 10
425.86507139
 20
148.49225393
  0
VERTEX
  8
0
 10
424.28457583
 20
145.04490772
  0
VERTEX
  8
0
 10
422.79308329
 20
141.67115222
  0
VERTEX
  8
0
 10
421.39321413
 20
138.37680571
  0
VERTEX
  8
0
 10
420.08758869
 20
135.16768648
  0
VERTEX
  8
0
 10
418.87882735
 20
132.04961282
  0
VERTEX
  8
0
 10
418.31158957
 20
130.52653629
  0
VERTEX
  8
0
 10
417.76955044
 20
129.02840301
  0
VERTEX
  8
0
 10
417.25303752
 20
127.55594027
  0
VERTEX
  8
0
 10
416.76237834
 20
126.10987535
  0
VERTEX
  8
0
 10
416.29790045
 20
124.69093554
  0
VERTEX
  8
0
 10
415.85993139
 20
123.29984812
  0
VERTEX
  8
0
 10
415.44879871
 20
121.93734038
  0
VERTEX
  8
0
 10
415.06482995
 20
120.60413961
  0
VERTEX
  8
0
 10
411.35001207
 20
107.37821873
  0
VERTEX
  8
0
 10
415.72908308
 20
98.18321478
  0
VERTEX
  8
0
 10
420.10815410
 20
88.98821082
  0
VERTEX
  8
0
 10
422.45837652
 20
90.74410541
  0
VERTEX
  8
0
 10
422.95065272
 20
91.12874996
  0
VERTEX
  8
0
 10
423.44888653
 20
91.54929912
  0
VERTEX
  8
0
 10
423.93938583
 20
91.99213597
  0
VERTEX
  8
0
 10
424.40845853
 20
92.44364358
  0
VERTEX
  8
0
 10
424.84241253
 20
92.89020502
  0
VERTEX
  8
0
 10
425.22755571
 20
93.31820334
  0
VERTEX
  8
0
 10
425.55019599
 20
93.71402163
  0
VERTEX
  8
0
 10
425.79664126
 20
94.06404296
  0
SEQEND
  0
POLYLINE
  8
Calque_par_d_faut
 62
256
 66
   1
 39
0.000000
 70
    1
  0
VERTEX
  8
0
 10
352.27215780
 20
102.00000000
  0
VERTEX
  8
0
 10
352.62855117
 20
102.31584841
  0
VERTEX
  8
0
 10
353.06401632
 20
102.76332161
  0
VERTEX
  8
0
 10
353.56984918
 20
103.33047380
  0
VERTEX
  8
0
 10
354.13734567
 20
104.00535919
  0
VERTEX
  8
0
 10
354.75780170
 20
104.77603198
  0
VERTEX
  8
0
 10
355.42251320
 20
105.63054638
  0
VERTEX
  8
0
 10
356.84988625
 20
107.54331683
  0
VERTEX
  8
0
 10
358.34983218
 20
109.64810418
  0
VERTEX
  8
0
 10
359.85271832
 20
111.84934206
  0
VERTEX
  8
0
 10
360.58350377
 20
112.95626547
  0
VERTEX
  8
0
 10
361.28891202
 20
114.05146412
  0
VERTEX
  8
0
 10
361.96023901
 20
115.12299223
  0
VERTEX
  8
0
 10
362.58878063
 20
116.15890401
  0
VERTEX
  8
0
 10
362.84139944
 20
116.56344025
  0
VERTEX
  8
0
 10
363.14261433
 20
117.01326202
  0
VERTEX
  8
0
 10
363.84571514
 20
117.98866684
  0
VERTEX
  8
0
 10
364.60784870
 20
118.96492789
  0
VERTEX
  8
0
 10
365.33878063
 20
119.82185460
  0
VERTEX
  8
0
 10
365.67248456
 20
120.21094110
  0
VERTEX
  8
0
 10
365.98380096
 20
120.61325926
  0
VERTEX
  8
0
 10
366.26591625
 20
121.01719111
  0
VERTEX
  8
0
 10
366.51201681
 20
121.41111867
  0
VERTEX
  8
0
 10
366.71528906
 20
121.78342398
  0
VERTEX
  8
0
 10
366.86891941
 20
122.12248905
  0
VERTEX
  8
0
 10
366.96609425
 20
122.41669593
  0
VERTEX
  8
0
 10
367.00000000
 20
122.65442664
  0
VERTEX
  8
0
 10
367.01267768
 20
122.76789320
  0
VERTEX
  8
0
 10
367.04987547
 20
122.90154750
  0
VERTEX
  8
0
 10
367.19282000
 20
123.22266680
  0
VERTEX
  8
0
 10
367.41881077
 20
123.60427956
  0
VERTEX
  8
0
 10
367.71782495
 20
124.03288079
  0
VERTEX
  8
0
 10
368.07983973
 20
124.49496552
  0
VERTEX
  8
0
 10
368.49483228
 20
124.97702874
  0
VERTEX
  8
0
 10
368.95277978
 20
125.46556549
  0
VERTEX
  8
0
 10
369.44365941
 20
125.94707077
  0
VERTEX
  8
0
 10
369.96747134
 20
126.47762790
  0
VERTEX
  8
0
 10
370.51980376
 20
127.10674869
  0
VERTEX
  8
0
 10
371.08401587
 20
127.81107082
  0
VERTEX
  8
0
 10
371.64346687
 20
128.56723200
  0
VERTEX
  8
0
 10
372.18151597
 20
129.35186994
  0
VERTEX
  8
0
 10
372.68152238
 20
130.14162234
  0
VERTEX
  8
0
 10
373.12684529
 20
130.91312689
  0
VERTEX
  8
0
 10
373.50084392
 20
131.64302131
  0
VERTEX
  8
0
 10
373.77299655
 20
132.22985589
  0
VERTEX
  8
0
 10
374.00439636
 20
132.77559173
  0
VERTEX
  8
0
 10
374.19243181
 20
133.30195122
  0
VERTEX
  8
0
 10
374.33449136
 20
133.83065674
  0
VERTEX
  8
0
 10
374.42796345
 20
134.38343066
  0
VERTEX
  8
0
 10
374.47023657
 20
134.98199536
  0
VERTEX
  8
0
 10
374.45869915
 20
135.64807324
  0
VERTEX
  8
0
 10
374.39073968
 20
136.40338666
  0
VERTEX
  8
0
 10
374.26374659
 20
137.26965801
  0
VERTEX
  8
0
 10
374.07510836
 20
138.26860967
  0
VERTEX
  8
0
 10
373.82221345
 20
139.42196403
  0
VERTEX
  8
0
 10
373.50245031
 20
140.75144345
  0
VERTEX
  8
0
 10
373.11320740
 20
142.27877032
  0
VERTEX
  8
0
 10
372.65187318
 20
144.02566702
  0
VERTEX
  8
0
 10
371.50248468
 20
148.26505944
  0
VERTEX
  8
0
 10
370.65368781
 20
151.46937795
  0
VERTEX
  8
0
 10
369.82683656
 20
154.78272667
  0
VERTEX
  8
0
 10
369.02531448
 20
158.18521565
  0
VERTEX
  8
0
 10
368.25250512
 20
161.65695495
  0
VERTEX
  8
0
 10
367.51179203
 20
165.17805461
  0
VERTEX
  8
0
 10
366.80655877
 20
168.72862467
  0
VERTEX
  8
0
 10
366.14018889
 20
172.28877519
  0
VERTEX
  8
0
 10
365.51606593
 20
175.83861621
  0
VERTEX
  8
0
 10
364.93757346
 20
179.35825779
  0
VERTEX
  8
0
 10
364.40809501
 20
182.82780997
  0
VERTEX
  8
0
 10
363.93101416
 20
186.22738280
  0
VERTEX
  8
0
 10
363.50971444
 20
189.53708633
  0
VERTEX
  8
0
 10
363.14757941
 20
192.73703060
  0
VERTEX
  8
0
 10
362.84799263
 20
195.80732567
  0
VERTEX
  8
0
 10
362.61433764
 20
198.72808158
  0
VERTEX
  8
0
 10
362.52329192
 20
200.12616674
  0
VERTEX
  8
0
 10
362.44999799
 20
201.47940838
  0
VERTEX
  8
0
 10
362.06933574
 20
209.65157900
  0
VERTEX
  8
0
 10
361.79204435
 20
216.40131380
  0
VERTEX
  8
0
 10
361.69176812
 20
219.30957263
  0
VERTEX
  8
0
 10
361.61686109
 20
221.94238832
  0
VERTEX
  8
0
 10
361.56716541
 20
224.32648282
  0
VERTEX
  8
0
 10
361.54252324
 20
226.48857807
  0
VERTEX
  8
0
 10
361.54277674
 20
228.45539601
  0
VERTEX
  8
0
 10
361.56776807
 20
230.25365858
  0
VERTEX
  8
0
 10
361.61733938
 20
231.91008773
  0
VERTEX
  8
0
 10
361.69133283
 20
233.45140539
  0
VERTEX
  8
0
 10
361.78959060
 20
234.90433351
  0
VERTEX
  8
0
 10
361.91195482
 20
236.29559402
  0
VERTEX
  8
0
 10
362.05826766
 20
237.65190887
  0
VERTEX
  8
0
 10
362.22837129
 20
239.00000000
  0
VERTEX
  8
0
 10
363.49089077
 20
248.50000000
  0
VERTEX
  8
0
 10
363.60614845
 20
249.27656250
  0
VERTEX
  8
0
 10
363.73230516
 20
249.91250000
  0
VERTEX
  8
0
 10
363.85409165
 20
250.34218750
  0
VERTEX
  8
0
 10
363.90857444
 20
250.45917969
  0
VERTEX
  8
0
 10
363.95623872
 20
250.50000000
  0
VERTEX
  8
0
 10
363.97909195
 20
250.52593994
  0
VERTEX
  8
0
 10
364.00387427
 20
250.60205078
  0
VERTEX
  8
0
 10
364.05827475
 20
250.89453125
  0
VERTEX
  8
0
 10
364.17975894
 20
251.96875000
  0
VERTEX
  8
0
 10
364.30546824
 20
253.55859375
  0
VERTEX
  8
0
 10
364.42017957
 20
255.50000000
  0
VERTEX
  8
0
 10
364.51446053
 20
256.70849609
  0
VERTEX
  8
0
 10
364.68663825
 20
258.23046875
  0
VERTEX
  8
0
 10
364.92692199
 20
260.00439453
  0
VERTEX
  8
0
 10
365.22552101
 20
261.96875000
  0
VERTEX
  8
0
 10
365.57264456
 20
264.06201172
  0
VERTEX
  8
0
 10
365.95850192
 20
266.22265625
  0
VERTEX
  8
0
 10
366.37330234
 20
268.38916016
  0
VERTEX
  8
0
 10
366.80725508
 20
270.50000000
  0
VERTEX
  8
0
 10
367.68420220
 20
274.69843750
  0
VERTEX
  8
0
 10
368.49394884
 20
278.73750000
  0
VERTEX
  8
0
 10
369.14644487
 20
282.15781250
  0
VERTEX
  8
0
 10
369.38558324
 20
283.49238281
  0
VERTEX
  8
0
 10
369.55164016
 20
284.50000000
  0
VERTEX
  8
0
 10
369.63900683
 20
284.97232056
  0
VERTEX
  8
0
 10
369.77347070
 20
285.55864258
  0
VERTEX
  8
0
 10
370.17245786
 20
287.03945313
  0
VERTEX
  8
0
 10
370.72613728
 20
288.87475586
  0
VERTEX
  8
0
 10
371.41204460
 20
290.99687500
  0
VERTEX
  8
0
 10
372.20771547
 20
293.33813477
  0
VERTEX
  8
0
 10
373.09068550
 20
295.83085937
  0
VERTEX
  8
0
 10
374.03849036
 20
298.40737305
  0
VERTEX
  8
0
 10
375.02866566
 20
301.00000000
  0
VERTEX
  8
0
 10
376.96752770
 20
306.05808843
  0
VERTEX
  8
0
 10
378.64856977
 20
310.58970297
  0
VERTEX
  8
0
 10
379.33613281
 20
312.50332436
  0
VERTEX
  8
0
 10
379.89171025
 20
314.09961749
  0
VERTEX
  8
0
 10
380.29279189
 20
315.31667907
  0
VERTEX
  8
0
 10
380.51686752
 20
316.09260585
  0
VERTEX
  8
0
 10
380.58742369
 20
316.49945534
  0
VERTEX
  8
0
 10
380.60624933
 20
316.93588622
  0
VERTEX
  8
0
 10
380.56821394
 20
317.41206036
  0
VERTEX
  8
0
 10
380.46818699
 20
317.93813962
  0
VERTEX
  8
0
 10
380.30103798
 20
318.52428585
  0
VERTEX
  8
0
 10
380.06163640
 20
319.18066090
  0
VERTEX
  8
0
 10
379.74485172
 20
319.91742665
  0
VERTEX
  8
0
 10
379.34555345
 20
320.74474494
  0
VERTEX
  8
0
 10
378.85861105
 20
321.67277764
  0
VERTEX
  8
0
 10
378.27889403
 20
322.71168659
  0
VERTEX
  8
0
 10
377.60127186
 20
323.87163367
  0
VERTEX
  8
0
 10
376.82061403
 20
325.16278072
  0
VERTEX
  8
0
 10
375.93179003
 20
326.59528961
  0
VERTEX
  8
0
 10
374.92966935
 20
328.17932218
  0
VERTEX
  8
0
 10
372.56501588
 20
331.84260585
  0
VERTEX
  8
0
 10
370.82477540
 20
334.48564880
  0
VERTEX
  8
0
 10
369.16620365
 20
336.95137530
  0
VERTEX
  8
0
 10
367.62810925
 20
339.18581948
  0
VERTEX
  8
0
 10
366.24930086
 20
341.13501547
  0
VERTEX
  8
0
 10
365.06858711
 20
342.74499739
  0
VERTEX
  8
0
 10
364.12477663
 20
343.96179937
  0
VERTEX
  8
0
 10
363.75383782
 20
344.40589354
  0
VERTEX
  8
0
 10
363.45667807
 20
344.73145553
  0
VERTEX
  8
0
 10
363.23814846
 20
344.93173959
  0
VERTEX
  8
0
 10
363.15988592
 20
344.98279436
  0
VERTEX
  8
0
 10
363.10310007
 20
345.00000000
  0
VERTEX
  8
0
 10
362.91421516
 20
344.97448730
  0
VERTEX
  8
0
 10
362.71813172
 20
344.90136719
  0
VERTEX
  8
0
 10
362.52056218
 20
344.78576660
  0
VERTEX
  8
0
 10
362.32721895
 20
344.63281250
  0
VERTEX
  8
0
 10
362.14381446
 20
344.44763184
  0
VERTEX
  8
0
 10
361.97606112
 20
344.23535156
  0
VERTEX
  8
0
 10
361.82967135
 20
344.00109863
  0
VERTEX
  8
0
 10
361.71035758
 20
343.75000000
  0
VERTEX
  8
0
 10
360.30229340
 20
340.23198681
  0
VERTEX
  8
0
 10
358.93980181
 20
336.78001720
  0
VERTEX
  8
0
 10
357.62182348
 20
333.39032552
  0
VERTEX
  8
0
 10
356.34729908
 20
330.05914608
  0
VERTEX
  8
0
 10
355.11516927
 20
326.78271324
  0
VERTEX
  8
0
 10
353.92437474
 20
323.55726131
  0
VERTEX
  8
0
 10
352.77385615
 20
320.37902464
  0
VERTEX
  8
0
 10
351.66255416
 20
317.24423755
  0
VERTEX
  8
0
 10
350.58940945
 20
314.14913439
  0
VERTEX
  8
0
 10
349.55336270
 20
311.08994949
  0
VERTEX
  8
0
 10
348.55335456
 20
308.06291718
  0
VERTEX
  8
0
 10
347.58832572
 20
305.06427179
  0
VERTEX
  8
0
 10
346.65721683
 20
302.09024766
  0
VERTEX
  8
0
 10
345.75896857
 20
299.13707913
  0
VERTEX
  8
0
 10
344.89252161
 20
296.20100052
  0
VERTEX
  8
0
 10
344.05681663
 20
293.27824617
  0
VERTEX
  8
0
 10
343.25079428
 20
290.36505042
  0
VERTEX
  8
0
 10
342.47339524
 20
287.45764760
  0
VERTEX
  8
0
 10
341.72356019
 20
284.55227204
  0
VERTEX
  8
0
 10
341.00022978
 20
281.64515809
  0
VERTEX
  8
0
 10
340.30234469
 20
278.73254006
  0
VERTEX
  8
0
 10
339.62884560
 20
275.81065230
  0
VERTEX
  8
0
 10
338.97867316
 20
272.87572914
  0
VERTEX
  8
0
 10
338.35076805
 20
269.92400491
  0
VERTEX
  8
0
 10
337.74407095
 20
266.95171395
  0
VERTEX
  8
0
 10
337.15752252
 20
263.95509059
  0
VERTEX
  8
0
 10
336.59006342
 20
260.93036917
  0
VERTEX
  8
0
 10
336.04063434
 20
257.87378402
  0
VERTEX
  8
0
 10
335.50817594
 20
254.78156948
  0
VERTEX
  8
0
 10
334.99162888
 20
251.64995987
  0
VERTEX
  8
0
 10
334.48993385
 20
248.47518954
  0
VERTEX
  8
0
 10
334.00203151
 20
245.25349281
  0
VERTEX
  8
0
 10
333.13239636
 20
239.23016996
  0
VERTEX
  8
0
 10
332.76706689
 20
236.54243342
  0
VERTEX
  8
0
 10
332.44467437
 20
234.02466593
  0
VERTEX
  8
0
 10
332.16267748
 20
231.64238182
  0
VERTEX
  8
0
 10
331.91853486
 20
229.36109545
  0
VERTEX
  8
0
 10
331.70970519
 20
227.14632115
  0
VERTEX
  8
0
 10
331.53364712
 20
224.96357327
  0
VERTEX
  8
0
 10
331.38781932
 20
222.77836615
  0
VERTEX
  8
0
 10
331.26968046
 20
220.55621413
  0
VERTEX
  8
0
 10
331.17668919
 20
218.26263155
  0
VERTEX
  8
0
 10
331.10630419
 20
215.86313276
  0
VERTEX
  8
0
 10
331.05598410
 20
213.32323209
  0
VERTEX
  8
0
 10
331.02318760
 20
210.60844389
  0
VERTEX
  8
0
 10
331.00000000
 20
204.51626228
  0
VERTEX
  8
0
 10
331.02007170
 20
198.15553133
  0
VERTEX
  8
0
 10
331.05087824
 20
195.38149442
  0
VERTEX
  8
0
 10
331.10061362
 20
192.81733540
  0
VERTEX
  8
0
 10
331.17308909
 20
190.41729842
  0
VERTEX
  8
0
 10
331.27211595
 20
188.13562761
  0
VERTEX
  8
0
 10
331.40150547
 20
185.92656711
  0
VERTEX
  8
0
 10
331.56506893
 20
183.74436106
  0
VERTEX
  8
0
 10
331.76661759
 20
181.54325360
  0
VERTEX
  8
0
 10
332.00996275
 20
179.27748887
  0
VERTEX
  8
0
 10
332.29891567
 20
176.90131100
  0
VERTEX
  8
0
 10
332.63728762
 20
174.36896413
  0
VERTEX
  8
0
 10
333.02888990
 20
171.63469240
  0
VERTEX
  8
0
 10
333.47753377
 20
168.65273996
  0
VERTEX
  8
0
 10
334.56119140
 20
161.76276946
  0
VERTEX
  8
0
 10
334.94958417
 20
159.39502815
  0
VERTEX
  8
0
 10
335.37736149
 20
156.89769040
  0
VERTEX
  8
0
 10
336.33363812
 20
151.59936550
  0
VERTEX
  8
0
 10
337.39515800
 20
146.03807460
  0
VERTEX
  8
0
 10
338.52705786
 20
140.38409754
  0
VERTEX
  8
0
 10
339.69447441
 20
134.80771414
  0
VERTEX
  8
0
 10
340.86254437
 20
129.47920424
  0
VERTEX
  8
0
 10
341.43592960
 20
126.96111430
  0
VERTEX
  8
0
 10
341.99640446
 20
124.56884767
  0
VERTEX
  8
0
 10
342.53961103
 20
122.32368934
  0
VERTEX
  8
0
 10
343.06119140
 20
120.24692428
  0
VERTEX
  8
0
 10
344.97883818
 20
112.73210554
  0
VERTEX
  8
0
 10
346.54922497
 20
106.50346804
  0
VERTEX
  8
0
 10
347.61029713
 20
102.20905866
  0
VERTEX
  8
0
 10
347.89919814
 20
100.98970416
  0
VERTEX
  8
0
 10
348.00000000
 20
100.49692428
  0
VERTEX
  8
0
 10
348.02610168
 20
100.35493448
  0
VERTEX
  8
0
 10
348.05802277
 20
100.29813738
  0
VERTEX
  8
0
 10
348.10189645
 20
100.25058466
  0
VERTEX
  8
0
 10
348.22361887
 20
100.18255001
  0
VERTEX
  8
0
 10
348.38750352
 20
100.14950575
  0
VERTEX
  8
0
 10
348.58978498
 20
100.15012707
  0
VERTEX
  8
0
 10
348.82669780
 20
100.18308919
  0
VERTEX
  8
0
 10
349.09447658
 20
100.24706732
  0
VERTEX
  8
0
 10
349.38935588
 20
100.34073666
  0
VERTEX
  8
0
 10
349.70757027
 20
100.46277243
  0
VERTEX
  8
0
 10
350.04535433
 20
100.61184982
  0
VERTEX
  8
0
 10
350.39894263
 20
100.78664405
  0
VERTEX
  8
0
 10
350.76456975
 20
100.98583032
  0
VERTEX
  8
0
 10
351.13847025
 20
101.20808384
  0
VERTEX
  8
0
 10
351.51687871
 20
101.45207982
  0
VERTEX
  8
0
 10
351.89602970
 20
101.71649347
  0
VERTEX
  8
0
 10
352.27215780
 20
102.00000000
  0
SEQEND
  0
POLYLINE
  8
Calque_par_d_faut
 62
256
 66
   1
 39
0.000000
 70
    1
  0
VERTEX
  8
0
 10
283.20022555
 20
114.20939272
  0
VERTEX
  8
0
 10
283.39849624
 20
114.54746801
  0
VERTEX
  8
0
 10
283.63686711
 20
115.00928861
  0
VERTEX
  8
0
 10
284.22385093
 20
116.27648519
  0
VERTEX
  8
0
 10
284.94106006
 20
117.95562129
  0
VERTEX
  8
0
 10
285.76837755
 20
119.99133576
  0
VERTEX
  8
0
 10
286.68568648
 20
122.32826742
  0
VERTEX
  8
0
 10
287.67286990
 20
124.91105512
  0
VERTEX
  8
0
 10
288.70981088
 20
127.68433768
  0
VERTEX
  8
0
 10
289.77639247
 20
130.59275394
  0
VERTEX
  8
0
 10
290.85249774
 20
133.58094274
  0
VERTEX
  8
0
 10
291.91800976
 20
136.59354292
  0
VERTEX
  8
0
 10
292.95281157
 20
139.57519330
  0
VERTEX
  8
0
 10
293.93678625
 20
142.47053272
  0
VERTEX
  8
0
 10
294.84981685
 20
145.22420002
  0
VERTEX
  8
0
 10
295.67178644
 20
147.78083404
  0
VERTEX
  8
0
 10
296.38257807
 20
150.08507360
  0
VERTEX
  8
0
 10
296.96207482
 20
152.08155755
  0
VERTEX
  8
0
 10
297.51432216
 20
154.16450854
  0
VERTEX
  8
0
 10
298.02220407
 20
156.27696770
  0
VERTEX
  8
0
 10
298.48484190
 20
158.40971139
  0
VERTEX
  8
0
 10
298.90135699
 20
160.55351596
  0
VERTEX
  8
0
 10
299.27087070
 20
162.69915778
  0
VERTEX
  8
0
 10
299.59250435
 20
164.83741319
  0
VERTEX
  8
0
 10
299.86537931
 20
166.95905855
  0
VERTEX
  8
0
 10
300.08861691
 20
169.05487022
  0
VERTEX
  8
0
 10
300.26133850
 20
171.11562456
  0
VERTEX
  8
0
 10
300.38266542
 20
173.13209791
  0
VERTEX
  8
0
 10
300.45171903
 20
175.09506665
  0
VERTEX
  8
0
 10
300.46762066
 20
176.99530711
  0
VERTEX
  8
0
 10
300.42949166
 20
178.82359567
  0
VERTEX
  8
0
 10
300.38989109
 20
179.70787559
  0
VERTEX
  8
0
 10
300.33645337
 20
180.57070867
  0
VERTEX
  8
0
 10
300.26906867
 20
181.41094194
  0
VERTEX
  8
0
 10
300.18762715
 20
182.22742247
  0
VERTEX
  8
0
 10
300.09201898
 20
183.01899728
  0
VERTEX
  8
0
 10
299.98213434
 20
183.78451342
  0
VERTEX
  8
0
 10
299.75754780
 20
185.10684237
  0
VERTEX
  8
0
 10
299.48094448
 20
186.53591676
  0
VERTEX
  8
0
 10
299.15929083
 20
188.04767775
  0
VERTEX
  8
0
 10
298.79955334
 20
189.61806651
  0
VERTEX
  8
0
 10
298.40869849
 20
191.22302418
  0
VERTEX
  8
0
 10
297.99369275
 20
192.83849193
  0
VERTEX
  8
0
 10
297.56150260
 20
194.44041091
  0
VERTEX
  8
0
 10
297.11909451
 20
196.00472228
  0
VERTEX
  8
0
 10
296.67343496
 20
197.50736719
  0
VERTEX
  8
0
 10
296.23149044
 20
198.92428680
  0
VERTEX
  8
0
 10
295.80022741
 20
200.23142227
  0
VERTEX
  8
0
 10
295.38661235
 20
201.40471476
  0
VERTEX
  8
0
 10
294.99761174
 20
202.42010541
  0
VERTEX
  8
0
 10
294.64019206
 20
203.25353540
  0
VERTEX
  8
0
 10
294.47550209
 20
203.59449675
  0
VERTEX
  8
0
 10
294.32131978
 20
203.88094587
  0
VERTEX
  8
0
 10
294.17851595
 20
204.10987540
  0
VERTEX
  8
0
 10
294.04796139
 20
204.27827798
  0
VERTEX
  8
0
 10
294.02686560
 20
204.28965895
  0
VERTEX
  8
0
 10
293.99995726
 20
204.28380808
  0
VERTEX
  8
0
 10
293.92901685
 20
204.22122795
  0
VERTEX
  8
0
 10
293.83576808
 20
204.09217180
  0
VERTEX
  8
0
 10
293.72083887
 20
203.89827385
  0
VERTEX
  8
0
 10
293.42845086
 20
203.32248941
  0
VERTEX
  8
0
 10
293.05687620
 20
202.50694835
  0
VERTEX
  8
0
 10
292.61113830
 20
201.46472442
  0
VERTEX
  8
0
 10
292.09626057
 20
200.20889134
  0
VERTEX
  8
0
 10
290.87917917
 20
197.10869265
  0
VERTEX
  8
0
 10
289.44581921
 20
193.31094212
  0
VERTEX
  8
0
 10
287.83636788
 20
188.92022960
  0
VERTEX
  8
0
 10
286.09101238
 20
184.04114494
  0
VERTEX
  8
0
 10
284.24993991
 20
178.77827798
  0
VERTEX
  8
0
 10
276.45709827
 20
156.34390344
  0
VERTEX
  8
0
 10
273.01986356
 20
146.50332947
  0
VERTEX
  8
0
 10
270.49071885
 20
139.30735076
  0
VERTEX
  8
0
 10
265.82500192
 20
126.11470153
  0
VERTEX
  8
0
 10
269.05746907
 20
121.30735076
  0
VERTEX
  8
0
 10
269.76816977
 20
120.27626046
  0
VERTEX
  8
0
 10
270.54981907
 20
119.18792788
  0
VERTEX
  8
0
 10
271.37682685
 20
118.07521224
  0
VERTEX
  8
0
 10
272.22360295
 20
116.97097275
  0
VERTEX
  8
0
 10
273.06455726
 20
115.90806865
  0
VERTEX
  8
0
 10
273.87409962
 20
114.91935913
  0
VERTEX
  8
0
 10
274.62663991
 20
114.03770342
  0
VERTEX
  8
0
 10
275.29658799
 20
113.29596074
  0
VERTEX
  8
0
 10
275.90013733
 20
112.67925547
  0
VERTEX
  8
0
 10
276.47327216
 20
112.15056291
  0
VERTEX
  8
0
 10
277.01937925
 20
111.71027448
  0
VERTEX
  8
0
 10
277.28335576
 20
111.52340412
  0
VERTEX
  8
0
 10
277.54184538
 20
111.35878158
  0
VERTEX
  8
0
 10
277.79527144
 20
111.21645578
  0
VERTEX
  8
0
 10
278.04405729
 20
111.09647564
  0
VERTEX
  8
0
 10
278.28862629
 20
110.99889008
  0
VERTEX
  8
0
 10
278.52940177
 20
110.92374805
  0
VERTEX
  8
0
 10
278.76680708
 20
110.87109846
  0
VERTEX
  8
0
 10
279.00126556
 20
110.84099024
  0
VERTEX
  8
0
 10
279.23320057
 20
110.83347231
  0
VERTEX
  8
0
 10
279.46303545
 20
110.84859361
  0
VERTEX
  8
0
 10
279.69119354
 20
110.88640306
  0
VERTEX
  8
0
 10
279.91809819
 20
110.94694958
  0
VERTEX
  8
0
 10
280.14417274
 20
111.03028211
  0
VERTEX
  8
0
 10
280.36984055
 20
111.13644956
  0
VERTEX
  8
0
 10
280.59552495
 20
111.26550087
  0
VERTEX
  8
0
 10
280.82164929
 20
111.41748496
  0
VERTEX
  8
0
 10
281.04863692
 20
111.59245076
  0
VERTEX
  8
0
 10
281.27691118
 20
111.79044720
  0
VERTEX
  8
0
 10
281.73901299
 20
112.25572768
  0
VERTEX
  8
0
 10
282.21134148
 20
112.81371782
  0
VERTEX
  8
0
 10
282.69728341
 20
113.46480903
  0
VERTEX
  8
0
 10
283.20022555
 20
114.20939272
  0
SEQEND
  0
POLYLINE
  8
Calque_par_d_faut
 62
256
 66
   1
 39
0.000000
 70
    1
  0
VERTEX
  8
0
 10
85.76949587
 20
133.50000000
  0
VERTEX
  8
0
 10
87.29629860
 20
135.70748495
  0
VERTEX
  8
0
 10
87.94917587
 20
136.68635076
  0
VERTEX
  8
0
 10
88.53250216
 20
137.59065843
  0
VERTEX
  8
0
 10
89.04937627
 20
138.42692770
  0
VERTEX
  8
0
 10
89.50289702
 20
139.20167831
  0
VERTEX
  8
0
 10
89.89616322
 20
139.92143000
  0
VERTEX
  8
0
 10
90.23227367
 20
140.59270249
  0
VERTEX
  8
0
 10
90.51432718
 20
141.22201554
  0
VERTEX
  8
0
 10
90.74542256
 20
141.81588887
  0
VERTEX
  8
0
 10
90.92865862
 20
142.38084221
  0
VERTEX
  8
0
 10
91.06713418
 20
142.92339531
  0
VERTEX
  8
0
 10
91.16394802
 20
143.45006791
  0
VERTEX
  8
0
 10
91.22219898
 20
143.96737973
  0
VERTEX
  8
0
 10
91.24498585
 20
144.48185051
  0
VERTEX
  8
0
 10
91.23540744
 20
145.00000000
  0
VERTEX
  8
0
 10
91.19384721
 20
145.41212648
  0
VERTEX
  8
0
 10
91.10028810
 20
146.02893127
  0
VERTEX
  8
0
 10
90.77053048
 20
147.82008215
  0
VERTEX
  8
0
 10
90.27284899
 20
150.26046532
  0
VERTEX
  8
0
 10
89.63395806
 20
153.23709347
  0
VERTEX
  8
0
 10
88.88057211
 20
156.63697926
  0
VERTEX
  8
0
 10
88.03940555
 20
160.34713539
  0
VERTEX
  8
0
 10
86.20058828
 20
168.24630937
  0
VERTEX
  8
0
 10
84.33122162
 20
176.03071683
  0
VERTEX
  8
0
 10
83.45186831
 20
179.59741483
  0
VERTEX
  8
0
 10
82.64502090
 20
182.79645923
  0
VERTEX
  8
0
 10
81.93739382
 20
185.51486273
  0
VERTEX
  8
0
 10
81.35570149
 20
187.63963801
  0
VERTEX
  8
0
 10
81.12042911
 20
188.44410652
  0
VERTEX
  8
0
 10
80.92665832
 20
189.05779774
  0
VERTEX
  8
0
 10
80.77772843
 20
189.46658824
  0
VERTEX
  8
0
 10
80.72112235
 20
189.58973215
  0
VERTEX
  8
0
 10
80.67697873
 20
189.65635460
  0
VERTEX
  8
0
 10
80.62616623
 20
189.68061022
  0
VERTEX
  8
0
 10
80.54973388
 20
189.67912154
  0
VERTEX
  8
0
 10
80.44923016
 20
189.65296455
  0
VERTEX
  8
0
 10
80.32620351
 20
189.60321522
  0
VERTEX
  8
0
 10
80.01877532
 20
189.43724349
  0
VERTEX
  8
0
 10
79.63983703
 20
189.18981421
  0
VERTEX
  8
0
 10
79.20177634
 20
188.86953523
  0
VERTEX
  8
0
 10
78.71698097
 20
188.48501439
  0
VERTEX
  8
0
 10
78.19783862
 20
188.04485955
  0
VERTEX
  8
0
 10
77.65673701
 20
187.55767856
  0
VERTEX
  8
0
 10
75.00000000
 20
185.09549780
  0
VERTEX
  8
0
 10
75.00000000
 20
155.12953637
  0
VERTEX
  8
0
 10
75.01179100
 20
149.07927995
  0
VERTEX
  8
0
 10
75.04558435
 20
143.37552450
  0
VERTEX
  8
0
 10
75.09901056
 20
138.14735204
  0
VERTEX
  8
0
 10
75.16970015
 20
133.52384461
  0
VERTEX
  8
0
 10
75.25528363
 20
129.63408426
  0
VERTEX
  8
0
 10
75.35339153
 20
126.60715301
  0
VERTEX
  8
0
 10
75.40640167
 20
125.45758644
  0
VERTEX
  8
0
 10
75.46165436
 20
124.57213292
  0
VERTEX
  8
0
 10
75.51885341
 20
123.96692769
  0
VERTEX
  8
0
 10
75.57770263
 20
123.65810601
  0
VERTEX
  8
0
 10
75.66335968
 20
123.46225044
  0
VERTEX
  8
0
 10
75.75960294
 20
123.29459001
  0
VERTEX
  8
0
 10
75.86687595
 20
123.15555306
  0
VERTEX
  8
0
 10
75.98562228
 20
123.04556790
  0
VERTEX
  8
0
 10
76.11628546
 20
122.96506285
  0
VERTEX
  8
0
 10
76.25930905
 20
122.91446625
  0
VERTEX
  8
0
 10
76.41513660
 20
122.89420640
  0
VERTEX
  8
0
 10
76.58421166
 20
122.90471163
  0
VERTEX
  8
0
 10
76.76697778
 20
122.94641027
  0
VERTEX
  8
0
 10
76.96387850
 20
123.01973064
  0
VERTEX
  8
0
 10
77.17535739
 20
123.12510105
  0
VERTEX
  8
0
 10
77.40185799
 20
123.26294984
  0
VERTEX
  8
0
 10
77.64382384
 20
123.43370532
  0
VERTEX
  8
0
 10
77.90169850
 20
123.63779582
  0
VERTEX
  8
0
 10
78.46694846
 20
124.14769515
  0
VERTEX
  8
0
 10
79.10115625
 20
124.79607442
  0
VERTEX
  8
0
 10
79.80787028
 20
125.58636019
  0
VERTEX
  8
0
 10
80.59063895
 20
126.52197906
  0
VERTEX
  8
0
 10
81.45301065
 20
127.60635759
  0
VERTEX
  8
0
 10
82.39853380
 20
128.84292238
  0
VERTEX
  8
0
 10
83.43075678
 20
130.23509999
  0
VERTEX
  8
0
 10
84.55322801
 20
131.78631700
  0
VERTEX
  8
0
 10
85.76949587
 20
133.50000000
  0
SEQEND
  0
POLYLINE
  8
Calque_par_d_faut
 62
256
 66
   1
 39
0.000000
 70
    1
  0
VERTEX
  8
0
 10
395.63997519
 20
147.88383091
  0
VERTEX
  8
0
 10
395.93035656
 20
147.65704381
  0
VERTEX
  8
0
 10
396.19064824
 20
147.48174150
  0
VERTEX
  8
0
 10
396.41591199
 20
147.35916718
  0
VERTEX
  8
0
 10
396.60120953
 20
147.29056404
  0
VERTEX
  8
0
 10
396.74160260
 20
147.27717529
  0
VERTEX
  8
0
 10
396.79341674
 20
147.29157481
  0
VERTEX
  8
0
 10
396.83215291
 20
147.32024413
  0
VERTEX
  8
0
 10
396.85719383
 20
147.36333864
  0
VERTEX
  8
0
 10
396.86792221
 20
147.42101375
  0
VERTEX
  8
0
 10
396.84397222
 20
147.58072734
  0
VERTEX
  8
0
 10
396.82267291
 20
147.68533028
  0
VERTEX
  8
0
 10
396.81392136
 20
147.80850291
  0
VERTEX
  8
0
 10
396.83220537
 20
148.10434010
  0
VERTEX
  8
0
 10
396.89511201
 20
148.45580458
  0
VERTEX
  8
0
 10
396.99892902
 20
148.85046201
  0
VERTEX
  8
0
 10
397.13994414
 20
149.27587809
  0
VERTEX
  8
0
 10
397.31444511
 20
149.71961847
  0
VERTEX
  8
0
 10
397.51871968
 20
150.16924882
  0
VERTEX
  8
0
 10
397.74905560
 20
150.61233483
  0
VERTEX
  8
0
 10
397.95790387
 20
151.02584095
  0
VERTEX
  8
0
 10
398.24484305
 20
151.65245741
  0
VERTEX
  8
0
 10
399.03219291
 20
153.49054781
  0
VERTEX
  8
0
 10
400.06950284
 20
156.01765883
  0
VERTEX
  8
0
 10
401.31517052
 20
159.12484325
  0
VERTEX
  8
0
 10
402.72759359
 20
162.70315388
  0
VERTEX
  8
0
 10
404.26516973
 20
166.64364351
  0
VERTEX
  8
0
 10
407.54937184
 20
175.17537096
  0
VERTEX
  8
0
 10
410.83495815
 20
183.84844797
  0
VERTEX
  8
0
 10
412.37426454
 20
187.96562455
  0
VERTEX
  8
0
 10
413.78910997
 20
191.79129690
  0
VERTEX
  8
0
 10
415.03789209
 20
195.21651783
  0
VERTEX
  8
0
 10
416.07900858
 20
198.13234012
  0
VERTEX
  8
0
 10
416.87085710
 20
200.42981658
  0
VERTEX
  8
0
 10
417.16030513
 20
201.31262912
  0
VERTEX
  8
0
 10
417.37183530
 20
202.00000000
  0
VERTEX
  8
0
 10
418.93582665
 20
207.27968750
  0
VERTEX
  8
0
 10
420.44101838
 20
212.25000000
  0
VERTEX
  8
0
 10
420.72655162
 20
213.20417480
  0
VERTEX
  8
0
 10
420.97665845
 20
214.09433594
  0
VERTEX
  8
0
 10
421.18702839
 20
214.90100098
  0
VERTEX
  8
0
 10
421.35335094
 20
215.60468750
  0
VERTEX
  8
0
 10
421.47131562
 20
216.18591309
  0
VERTEX
  8
0
 10
421.53661192
 20
216.62519531
  0
VERTEX
  8
0
 10
421.54492936
 20
216.90305176
  0
VERTEX
  8
0
 10
421.52637398
 20
216.97535706
  0
VERTEX
  8
0
 10
421.49195745
 20
217.00000000
  0
VERTEX
  8
0
 10
421.41545826
 20
216.95728066
  0
VERTEX
  8
0
 10
421.27342740
 20
216.83193711
  0
VERTEX
  8
0
 10
420.80725048
 20
216.35026404
  0
VERTEX
  8
0
 10
420.12238624
 20
215.58875419
  0
VERTEX
  8
0
 10
419.24779425
 20
214.58118097
  0
VERTEX
  8
0
 10
417.04526527
 20
211.96293803
  0
VERTEX
  8
0
 10
414.43134005
 20
208.76572245
  0
VERTEX
  8
0
 10
413.21667273
 20
207.22743425
  0
VERTEX
  8
0
 10
412.02987498
 20
205.65666515
  0
VERTEX
  8
0
 10
410.87169897
 20
204.05537726
  0
VERTEX
  8
0
 10
409.74289686
 20
202.42553267
  0
VERTEX
  8
0
 10
408.64422080
 20
200.76909349
  0
VERTEX
  8
0
 10
407.57642296
 20
199.08802181
  0
VERTEX
  8
0
 10
406.54025548
 20
197.38427973
  0
VERTEX
  8
0
 10
405.53647053
 20
195.65982935
  0
VERTEX
  8
0
 10
404.56582027
 20
193.91663277
  0
VERTEX
  8
0
 10
403.62905686
 20
192.15665209
  0
VERTEX
  8
0
 10
402.72693244
 20
190.38184940
  0
VERTEX
  8
0
 10
401.86019919
 20
188.59418681
  0
VERTEX
  8
0
 10
401.02960926
 20
186.79562641
  0
VERTEX
  8
0
 10
400.23591480
 20
184.98813030
  0
VERTEX
  8
0
 10
399.47986798
 20
183.17366059
  0
VERTEX
  8
0
 10
398.76222095
 20
181.35417936
  0
VERTEX
  8
0
 10
398.08372587
 20
179.53164872
  0
VERTEX
  8
0
 10
397.44513491
 20
177.70803077
  0
VERTEX
  8
0
 10
396.84720020
 20
175.88528761
  0
VERTEX
  8
0
 10
396.29067393
 20
174.06538133
  0
VERTEX
  8
0
 10
395.77630824
 20
172.25027404
  0
VERTEX
  8
0
 10
395.30485529
 20
170.44192782
  0
VERTEX
  8
0
 10
394.87706724
 20
168.64230479
  0
VERTEX
  8
0
 10
394.49369624
 20
166.85336704
  0
VERTEX
  8
0
 10
394.15549447
 20
165.07707666
  0
VERTEX
  8
0
 10
393.86321406
 20
163.31539576
  0
VERTEX
  8
0
 10
393.61760719
 20
161.57028644
  0
VERTEX
  8
0
 10
393.41942601
 20
159.84371079
  0
VERTEX
  8
0
 10
393.26942268
 20
158.13763092
  0
VERTEX
  8
0
 10
393.16834935
 20
156.45400892
  0
VERTEX
  8
0
 10
393.11695819
 20
154.79480689
  0
VERTEX
  8
0
 10
393.11600135
 20
153.16198692
  0
VERTEX
  8
0
 10
393.14884634
 20
151.65965700
  0
VERTEX
  8
0
 10
393.19793509
 20
150.32925720
  0
VERTEX
  8
0
 10
393.26087413
 20
149.19481812
  0
VERTEX
  8
0
 10
393.33527001
 20
148.28037033
  0
VERTEX
  8
0
 10
393.41872923
 20
147.60994440
  0
VERTEX
  8
0
 10
393.46310964
 20
147.37374919
  0
VERTEX
  8
0
 10
393.50885834
 20
147.20757091
  0
VERTEX
  8
0
 10
393.55567614
 20
147.11441339
  0
VERTEX
  8
0
 10
393.57939246
 20
147.09615611
  0
VERTEX
  8
0
 10
393.60326386
 20
147.09728044
  0
VERTEX
  8
0
 10
393.65132232
 20
147.15917589
  0
VERTEX
  8
0
 10
393.69955233
 20
147.30310356
  0
VERTEX
  8
0
 10
393.84291665
 20
147.78943169
  0
VERTEX
  8
0
 10
393.91714132
 20
147.98584714
  0
VERTEX
  8
0
 10
393.99471941
 20
148.15159319
  0
VERTEX
  8
0
 10
394.07689476
 20
148.28704208
  0
VERTEX
  8
0
 10
394.16491118
 20
148.39256607
  0
VERTEX
  8
0
 10
394.26001249
 20
148.46853739
  0
VERTEX
  8
0
 10
394.36344252
 20
148.51532831
  0
VERTEX
  8
0
 10
394.47644509
 20
148.53331107
  0
VERTEX
  8
0
 10
394.60026402
 20
148.52285793
  0
VERTEX
  8
0
 10
394.73614314
 20
148.48434112
  0
VERTEX
  8
0
 10
394.88532625
 20
148.41813290
  0
VERTEX
  8
0
 10
395.22857979
 20
148.20413123
  0
VERTEX
  8
0
 10
395.63997519
 20
147.88383091
  0
SEQEND
  0
POLYLINE
  8
Calque_par_d_faut
 62
256
 66
   1
 39
0.000000
 70
    1
  0
VERTEX
  8
0
 10
255.32142857
 20
155.28866873
  0
VERTEX
  8
0
 10
255.58692443
 20
155.59756866
  0
VERTEX
  8
0
 10
255.89017752
 20
155.98246583
  0
VERTEX
  8
0
 10
256.56751289
 20
156.91889131
  0
VERTEX
  8
0
 10
257.26854960
 20
157.97522398
  0
VERTEX
  8
0
 10
257.90840255
 20
159.02874269
  0
VERTEX
  8
0
 10
258.06216257
 20
159.32029358
  0
VERTEX
  8
0
 10
258.25289482
 20
159.72237211
  0
VERTEX
  8
0
 10
258.73542845
 20
160.83095076
  0
VERTEX
  8
0
 10
259.33630835
 20
162.30015593
  0
VERTEX
  8
0
 10
260.03583940
 20
164.07566490
  0
VERTEX
  8
0
 10
260.81432651
 20
166.10315495
  0
VERTEX
  8
0
 10
261.65207455
 20
168.32830337
  0
VERTEX
  8
0
 10
263.42657307
 20
173.15428444
  0
VERTEX
  8
0
 10
265.20177409
 20
178.11902636
  0
VERTEX
  8
0
 10
266.82011679
 20
182.78794742
  0
VERTEX
  8
0
 10
267.52122850
 20
184.87566833
  0
VERTEX
  8
0
 10
268.12404032
 20
186.72646588
  0
VERTEX
  8
0
 10
268.60885713
 20
188.28601734
  0
VERTEX
  8
0
 10
268.95598383
 20
189.50000000
  0
VERTEX
  8
0
 10
269.22162608
 20
190.40878906
  0
VERTEX
  8
0
 10
269.67356765
 20
191.84843750
  0
VERTEX
  8
0
 10
271.03839967
 20
196.02500000
  0
VERTEX
  8
0
 10
272.85458167
 20
201.43906250
  0
VERTEX
  8
0
 10
274.92621541
 20
207.50000000
  0
VERTEX
  8
0
 10
276.95077372
 20
213.40007814
  0
VERTEX
  8
0
 10
278.63878001
 20
218.37615725
  0
VERTEX
  8
0
 10
279.81391199
 20
221.90450433
  0
VERTEX
  8
0
 10
280.15404940
 20
222.96211180
  0
VERTEX
  8
0
 10
280.29984736
 20
223.46138638
  0
VERTEX
  8
0
 10
280.30226089
 20
223.51306321
  0
VERTEX
  8
0
 10
280.28910852
 20
223.56883133
  0
VERTEX
  8
0
 10
280.21759287
 20
223.69192505
  0
VERTEX
  8
0
 10
280.08827397
 20
223.82923475
  0
VERTEX
  8
0
 10
279.90412538
 20
223.97932765
  0
VERTEX
  8
0
 10
279.66812065
 20
224.14077096
  0
VERTEX
  8
0
 10
279.38323333
 20
224.31213190
  0
VERTEX
  8
0
 10
278.67870516
 20
224.67887553
  0
VERTEX
  8
0
 10
277.81432931
 20
225.06809626
  0
VERTEX
  8
0
 10
276.81389421
 20
225.46833182
  0
VERTEX
  8
0
 10
275.70118829
 20
225.86811993
  0
VERTEX
  8
0
 10
274.50000000
 20
226.25599832
  0
VERTEX
  8
0
 10
273.15732287
 20
226.68834116
  0
VERTEX
  8
0
 10
271.63910589
 20
227.21556564
  0
VERTEX
  8
0
 10
269.99757065
 20
227.81727407
  0
VERTEX
  8
0
 10
268.28493876
 20
228.47306871
  0
VERTEX
  8
0
 10
266.55343181
 20
229.16255186
  0
VERTEX
  8
0
 10
264.85527141
 20
229.86532581
  0
VERTEX
  8
0
 10
263.24267915
 20
230.56099284
  0
VERTEX
  8
0
 10
261.76787663
 20
231.22915524
  0
VERTEX
  8
0
 10
260.40779157
 20
231.85103212
  0
VERTEX
  8
0
 10
259.12398281
 20
232.41404353
  0
VERTEX
  8
0
 10
257.94561871
 20
232.90709315
  0
VERTEX
  8
0
 10
256.90186758
 20
233.31908467
  0
VERTEX
  8
0
 10
256.02189775
 20
233.63892176
  0
VERTEX
  8
0
 10
255.33487757
 20
233.85550811
  0
VERTEX
  8
0
 10
255.07283870
 20
233.92161465
  0
VERTEX
  8
0
 10
254.86997537
 20
233.95774739
  0
VERTEX
  8
0
 10
254.72993361
 20
233.96251929
  0
VERTEX
  8
0
 10
254.65635946
 20
233.93454330
  0
VERTEX
  8
0
 10
254.60189720
 20
233.83580351
  0
VERTEX
  8
0
 10
254.51793194
 20
233.63294608
  0
VERTEX
  8
0
 10
254.26852177
 20
232.93730266
  0
VERTEX
  8
0
 10
253.92218768
 20
231.89246176
  0
VERTEX
  8
0
 10
253.49298836
 20
230.54327209
  0
VERTEX
  8
0
 10
252.44222886
 20
227.11124131
  0
VERTEX
  8
0
 10
251.22871294
 20
223.00000000
  0
VERTEX
  8
0
 10
250.68877251
 20
221.07633616
  0
VERTEX
  8
0
 10
250.18130372
 20
219.13785550
  0
VERTEX
  8
0
 10
249.70633112
 20
217.18600085
  0
VERTEX
  8
0
 10
249.26387925
 20
215.22221502
  0
VERTEX
  8
0
 10
248.85397265
 20
213.24794083
  0
VERTEX
  8
0
 10
248.47663588
 20
211.26462111
  0
VERTEX
  8
0
 10
248.13189346
 20
209.27369866
  0
VERTEX
  8
0
 10
247.81976996
 20
207.27661631
  0
VERTEX
  8
0
 10
247.54028990
 20
205.27481689
  0
VERTEX
  8
0
 10
247.29347784
 20
203.26974320
  0
VERTEX
  8
0
 10
247.07935832
 20
201.26283807
  0
VERTEX
  8
0
 10
246.89795587
 20
199.25554431
  0
VERTEX
  8
0
 10
246.74929506
 20
197.24930475
  0
VERTEX
  8
0
 10
246.63340041
 20
195.24556221
  0
VERTEX
  8
0
 10
246.55029647
 20
193.24575950
  0
VERTEX
  8
0
 10
246.50000779
 20
191.25133945
  0
VERTEX
  8
0
 10
246.48255890
 20
189.26374487
  0
VERTEX
  8
0
 10
246.49797436
 20
187.28441858
  0
VERTEX
  8
0
 10
246.54627871
 20
185.31480340
  0
VERTEX
  8
0
 10
246.62749649
 20
183.35634215
  0
VERTEX
  8
0
 10
246.74165224
 20
181.41047766
  0
VERTEX
  8
0
 10
246.88877050
 20
179.47865273
  0
VERTEX
  8
0
 10
247.06887583
 20
177.56231019
  0
VERTEX
  8
0
 10
247.28199276
 20
175.66289286
  0
VERTEX
  8
0
 10
247.52814584
 20
173.78184355
  0
VERTEX
  8
0
 10
247.80735962
 20
171.92060510
  0
VERTEX
  8
0
 10
248.11965863
 20
170.08062030
  0
VERTEX
  8
0
 10
248.46506741
 20
168.26333200
  0
VERTEX
  8
0
 10
248.84361052
 20
166.47018299
  0
VERTEX
  8
0
 10
249.25531250
 20
164.70261611
  0
VERTEX
  8
0
 10
249.70019788
 20
162.96207418
  0
VERTEX
  8
0
 10
250.17829122
 20
161.25000000
  0
VERTEX
  8
0
 10
250.56377169
 20
159.95173289
  0
VERTEX
  8
0
 10
250.92320659
 20
158.79718314
  0
VERTEX
  8
0
 10
251.26034756
 20
157.78200228
  0
VERTEX
  8
0
 10
251.57894626
 20
156.90184186
  0
VERTEX
  8
0
 10
251.88275430
 20
156.15235340
  0
VERTEX
  8
0
 10
252.17552334
 20
155.52918843
  0
VERTEX
  8
0
 10
252.46100500
 20
155.02799851
  0
VERTEX
  8
0
 10
252.60218546
 20
154.82178528
  0
VERTEX
  8
0
 10
252.74295093
 20
154.64443514
  0
VERTEX
  8
0
 10
252.88377039
 20
154.49540453
  0
VERTEX
  8
0
 10
253.02511277
 20
154.37414988
  0
VERTEX
  8
0
 10
253.16744704
 20
154.28012764
  0
VERTEX
  8
0
 10
253.31124215
 20
154.21279425
  0
VERTEX
  8
0
 10
253.45696706
 20
154.17160616
  0
VERTEX
  8
0
 10
253.60509071
 20
154.15601979
  0
VERTEX
  8
0
 10
253.75608207
 20
154.16549161
  0
VERTEX
  8
0
 10
253.91041010
 20
154.19947804
  0
VERTEX
  8
0
 10
254.06854373
 20
154.25743553
  0
VERTEX
  8
0
 10
254.23095193
 20
154.33882052
  0
VERTEX
  8
0
 10
254.39810366
 20
154.44308945
  0
VERTEX
  8
0
 10
254.57046787
 20
154.56969877
  0
VERTEX
  8
0
 10
254.93270953
 20
154.88776433
  0
VERTEX
  8
0
 10
255.32142857
 20
155.28866873
  0
SEQEND
  0
POLYLINE
  8
Calque_par_d_faut
 62
256
 66
   1
 39
0.000000
 70
    1
  0
VERTEX
  8
0
 10
410.14154729
 20
160.52511938
  0
VERTEX
  8
0
 10
410.20208221
 20
160.48619280
  0
VERTEX
  8
0
 10
410.27533998
 20
160.47633647
  0
VERTEX
  8
0
 10
410.36032663
 20
160.49440892
  0
VERTEX
  8
0
 10
410.45604821
 20
160.53926870
  0
VERTEX
  8
0
 10
410.67572035
 20
160.70478441
  0
VERTEX
  8
0
 10
410.92640477
 20
160.96375192
  0
VERTEX
  8
0
 10
411.20014982
 20
161.30703956
  0
VERTEX
  8
0
 10
411.48900386
 20
161.72551569
  0
VERTEX
  8
0
 10
411.78501526
 20
162.21004861
  0
VERTEX
  8
0
 10
412.08023238
 20
162.75150668
  0
VERTEX
  8
0
 10
412.67008903
 20
163.85814823
  0
VERTEX
  8
0
 10
413.22895283
 20
164.83950509
  0
VERTEX
  8
0
 10
413.69378115
 20
165.58898607
  0
VERTEX
  8
0
 10
413.87123119
 20
165.84346337
  0
VERTEX
  8
0
 10
414.00153138
 20
166.00000000
  0
VERTEX
  8
0
 10
414.26581615
 20
166.30959502
  0
VERTEX
  8
0
 10
414.62338292
 20
166.80160186
  0
VERTEX
  8
0
 10
415.06310718
 20
167.45665812
  0
VERTEX
  8
0
 10
415.57386442
 20
168.25540143
  0
VERTEX
  8
0
 10
416.76397982
 20
170.20649959
  0
VERTEX
  8
0
 10
418.10473307
 20
172.49999723
  0
VERTEX
  8
0
 10
419.50712811
 20
174.98099521
  0
VERTEX
  8
0
 10
420.88216890
 20
177.49459441
  0
VERTEX
  8
0
 10
422.14085937
 20
179.88589572
  0
VERTEX
  8
0
 10
422.69876197
 20
180.98727868
  0
VERTEX
  8
0
 10
423.19420348
 20
182.00000000
  0
VERTEX
  8
0
 10
426.43984146
 20
188.81268788
  0
VERTEX
  8
0
 10
429.15568064
 20
194.58852423
  0
VERTEX
  8
0
 10
431.37163280
 20
199.39595398
  0
VERTEX
  8
0
 10
432.30149868
 20
201.45790542
  0
VERTEX
  8
0
 10
433.11760970
 20
203.30342206
  0
VERTEX
  8
0
 10
433.82370486
 20
204.94105951
  0
VERTEX
  8
0
 10
434.42352311
 20
206.37937338
  0
VERTEX
  8
0
 10
434.92080342
 20
207.62691930
  0
VERTEX
  8
0
 10
435.31928478
 20
208.69225288
  0
VERTEX
  8
0
 10
435.62270614
 20
209.58392973
  0
VERTEX
  8
0
 10
435.83480649
 20
210.31050547
  0
VERTEX
  8
0
 10
435.95932478
 20
210.88053572
  0
VERTEX
  8
0
 10
435.98990909
 20
211.10951992
  0
VERTEX
  8
0
 10
436.00000000
 20
211.30257609
  0
VERTEX
  8
0
 10
435.99131393
 20
211.56960767
  0
VERTEX
  8
0
 10
435.96586885
 20
211.86539778
  0
VERTEX
  8
0
 10
435.86838031
 20
212.53348597
  0
VERTEX
  8
0
 10
435.71489171
 20
213.28730549
  0
VERTEX
  8
0
 10
435.51276043
 20
214.10732115
  0
VERTEX
  8
0
 10
435.26934380
 20
214.97399776
  0
VERTEX
  8
0
 10
434.99199918
 20
215.86780014
  0
VERTEX
  8
0
 10
434.68808393
 20
216.76919310
  0
VERTEX
  8
0
 10
434.36495539
 20
217.65864144
  0
VERTEX
  8
0
 10
434.02997091
 20
218.51661000
  0
VERTEX
  8
0
 10
433.69048784
 20
219.32356357
  0
VERTEX
  8
0
 10
433.35386355
 20
220.05996698
  0
VERTEX
  8
0
 10
433.02745537
 20
220.70628504
  0
VERTEX
  8
0
 10
432.71862067
 20
221.24298255
  0
VERTEX
  8
0
 10
432.43471679
 20
221.65052434
  0
VERTEX
  8
0
 10
432.30441308
 20
221.79975710
  0
VERTEX
  8
0
 10
432.18310108
 20
221.90937522
  0
VERTEX
  8
0
 10
432.07170046
 20
221.97693682
  0
VERTEX
  8
0
 10
431.97113090
 20
222.00000000
  0
VERTEX
  8
0
 10
431.80842906
 20
221.99362213
  0
VERTEX
  8
0
 10
431.65595367
 20
221.95952263
  0
VERTEX
  8
0
 10
431.50469508
 20
221.87525263
  0
VERTEX
  8
0
 10
431.34564364
 20
221.71836329
  0
VERTEX
  8
0
 10
431.16978968
 20
221.46640575
  0
VERTEX
  8
0
 10
430.96812357
 20
221.09693116
  0
VERTEX
  8
0
 10
430.73163566
 20
220.58749067
  0
VERTEX
  8
0
 10
430.45131628
 20
219.91563543
  0
VERTEX
  8
0
 10
430.11815580
 20
219.05891658
  0
VERTEX
  8
0
 10
429.72314455
 20
217.99488527
  0
VERTEX
  8
0
 10
428.71153117
 20
215.15508986
  0
VERTEX
  8
0
 10
427.34439894
 20
211.21665838
  0
VERTEX
  8
0
 10
425.54967065
 20
206.00000000
  0
VERTEX
  8
0
 10
424.61050846
 20
203.30532227
  0
VERTEX
  8
0
 10
423.58663779
 20
200.43632812
  0
VERTEX
  8
0
 10
422.51103001
 20
197.48120117
  0
VERTEX
  8
0
 10
421.41665651
 20
194.52812500
  0
VERTEX
  8
0
 10
420.33648869
 20
191.66528320
  0
VERTEX
  8
0
 10
419.30349791
 20
188.98085937
  0
VERTEX
  8
0
 10
418.35065557
 20
186.56303711
  0
VERTEX
  8
0
 10
417.51093305
 20
184.50000000
  0
VERTEX
  8
0
 10
416.67731512
 20
182.47414532
  0
VERTEX
  8
0
 10
415.81190991
 20
180.33056625
  0
VERTEX
  8
0
 10
414.03375656
 20
175.82052772
  0
VERTEX
  8
0
 10
412.27251079
 20
171.23046996
  0
VERTEX
  8
0
 10
410.62421041
 20
166.82097850
  0
VERTEX
  8
0
 10
409.18489323
 20
162.85263891
  0
VERTEX
  8
0
 10
408.57361514
 20
161.11533404
  0
VERTEX
  8
0
 10
408.05059704
 20
159.58603671
  0
VERTEX
  8
0
 10
407.62784363
 20
158.29732013
  0
VERTEX
  8
0
 10
407.31735965
 20
157.28175747
  0
VERTEX
  8
0
 10
407.13114983
 20
156.57192193
  0
VERTEX
  8
0
 10
407.08839920
 20
156.34183096
  0
VERTEX
  8
0
 10
407.08121888
 20
156.20038671
  0
VERTEX
  8
0
 10
407.09586591
 20
156.14342941
  0
VERTEX
  8
0
 10
407.12260795
 20
156.11630366
  0
VERTEX
  8
0
 10
407.16077352
 20
156.11794652
  0
VERTEX
  8
0
 10
407.20969112
 20
156.14729506
  0
VERTEX
  8
0
 10
407.33709647
 20
156.28485744
  0
VERTEX
  8
0
 10
407.49945211
 20
156.52048733
  0
VERTEX
  8
0
 10
407.69138613
 20
156.84568126
  0
VERTEX
  8
0
 10
407.90752664
 20
157.25193578
  0
VERTEX
  8
0
 10
408.14250174
 20
157.73074741
  0
VERTEX
  8
0
 10
408.39093952
 20
158.27361270
  0
VERTEX
  8
0
 10
408.64837587
 20
158.82011672
  0
VERTEX
  8
0
 10
408.90914114
 20
159.30935707
  0
VERTEX
  8
0
 10
409.16605510
 20
159.73209907
  0
VERTEX
  8
0
 10
409.41193753
 20
160.07910802
  0
VERTEX
  8
0
 10
409.63960818
 20
160.34114922
  0
VERTEX
  8
0
 10
409.84188685
 20
160.50898798
  0
VERTEX
  8
0
 10
409.93126036
 20
160.55469560
  0
VERTEX
  8
0
 10
410.01159329
 20
160.57338959
  0
VERTEX
  8
0
 10
410.08198811
 20
160.56391563
  0
VERTEX
  8
0
 10
410.14154729
 20
160.52511938
  0
SEQEND
  0
POLYLINE
  8
Calque_par_d_faut
 62
256
 66
   1
 39
0.000000
 70
    1
  0
VERTEX
  8
0
 10
465.92741985
 20
176.63485869
  0
VERTEX
  8
0
 10
466.34375748
 20
177.18059704
  0
VERTEX
  8
0
 10
466.73216386
 20
177.72152423
  0
VERTEX
  8
0
 10
467.08413817
 20
178.24352733
  0
VERTEX
  8
0
 10
467.39117958
 20
178.73249339
  0
VERTEX
  8
0
 10
467.64478729
 20
179.17430947
  0
VERTEX
  8
0
 10
467.83646047
 20
179.55486264
  0
VERTEX
  8
0
 10
467.95769832
 20
179.86003994
  0
VERTEX
  8
0
 10
467.98924748
 20
179.97995235
  0
VERTEX
  8
0
 10
468.00000000
 20
180.07572843
  0
VERTEX
  8
0
 10
468.01993303
 20
180.20094258
  0
VERTEX
  8
0
 10
468.07841889
 20
180.40722970
  0
VERTEX
  8
0
 10
468.30316970
 20
181.04432972
  0
VERTEX
  8
0
 10
468.65849359
 20
181.94964218
  0
VERTEX
  8
0
 10
469.12863175
 20
183.08578075
  0
VERTEX
  8
0
 10
470.35031558
 20
185.90099095
  0
VERTEX
  8
0
 10
471.84215063
 20
189.19086974
  0
VERTEX
  8
0
 10
473.59371968
 20
193.04839923
  0
VERTEX
  8
0
 10
475.52260004
 20
197.40919299
  0
VERTEX
  8
0
 10
477.39471295
 20
201.73810769
  0
VERTEX
  8
0
 10
478.97597965
 20
205.50000000
  0
VERTEX
  8
0
 10
481.55260459
 20
211.73750000
  0
VERTEX
  8
0
 10
483.12511194
 20
215.50000000
  0
VERTEX
  8
0
 10
483.73398346
 20
217.04193829
  0
VERTEX
  8
0
 10
484.72715062
 20
219.69428353
  0
VERTEX
  8
0
 10
486.00545594
 20
223.18155534
  0
VERTEX
  8
0
 10
487.46974192
 20
227.22827336
  0
VERTEX
  8
0
 10
490.55962590
 20
235.89812650
  0
VERTEX
  8
0
 10
491.98690891
 20
239.97030090
  0
VERTEX
  8
0
 10
493.20354260
 20
243.50000000
  0
VERTEX
  8
0
 10
493.63183867
 20
244.72466309
  0
VERTEX
  8
0
 10
494.06599209
 20
245.90464844
  0
VERTEX
  8
0
 10
494.49402733
 20
247.01145020
  0
VERTEX
  8
0
 10
494.90396888
 20
248.01656250
  0
VERTEX
  8
0
 10
495.28384122
 20
248.89147949
  0
VERTEX
  8
0
 10
495.62166883
 20
249.60769531
  0
VERTEX
  8
0
 10
495.90547620
 20
250.13670410
  0
VERTEX
  8
0
 10
496.02337995
 20
250.32209778
  0
VERTEX
  8
0
 10
496.12328781
 20
250.45000000
  0
VERTEX
  8
0
 10
496.16822707
 20
250.51778851
  0
VERTEX
  8
0
 10
496.21259645
 20
250.62252091
  0
VERTEX
  8
0
 10
496.29940080
 20
250.93883105
  0
VERTEX
  8
0
 10
496.38325138
 20
251.39095783
  0
VERTEX
  8
0
 10
496.46369872
 20
251.97092863
  0
VERTEX
  8
0
 10
496.54029331
 20
252.67077085
  0
VERTEX
  8
0
 10
496.61258568
 20
253.48251187
  0
VERTEX
  8
0
 10
496.74246579
 20
255.40979990
  0
VERTEX
  8
0
 10
496.84974317
 20
257.68901186
  0
VERTEX
  8
0
 10
496.93082193
 20
260.25636688
  0
VERTEX
  8
0
 10
496.98210617
 20
263.04808409
  0
VERTEX
  8
0
 10
497.00000000
 20
266.00038264
  0
VERTEX
  8
0
 10
497.00000000
 20
280.60076527
  0
VERTEX
  8
0
 10
491.92001350
 20
286.30038264
  0
VERTEX
  8
0
 10
490.88403301
 20
287.44531554
  0
VERTEX
  8
0
 10
489.88755557
 20
288.51343719
  0
VERTEX
  8
0
 10
488.95453560
 20
289.48137026
  0
VERTEX
  8
0
 10
488.10892749
 20
290.32573740
  0
VERTEX
  8
0
 10
487.37468564
 20
291.02316128
  0
VERTEX
  8
0
 10
486.77576447
 20
291.55026457
  0
VERTEX
  8
0
 10
486.53453488
 20
291.74264057
  0
VERTEX
  8
0
 10
486.33611837
 20
291.88366992
  0
VERTEX
  8
0
 10
486.18350922
 20
291.97043045
  0
VERTEX
  8
0
 10
486.07970175
 20
292.00000000
  0
VERTEX
  8
0
 10
486.03254277
 20
291.96795678
  0
VERTEX
  8
0
 10
485.96977431
 20
291.87287402
  0
VERTEX
  8
0
 10
485.79920849
 20
291.49987145
  0
VERTEX
  8
0
 10
485.57160337
 20
290.89355532
  0
VERTEX
  8
0
 10
485.29055806
 20
290.06648866
  0
VERTEX
  8
0
 10
484.58254322
 20
287.80035595
  0
VERTEX
  8
0
 10
483.70395675
 20
284.80197760
  0
VERTEX
  8
0
 10
482.68359142
 20
281.17185792
  0
VERTEX
  8
0
 10
481.55024000
 20
277.01050122
  0
VERTEX
  8
0
 10
480.33269526
 20
272.41841180
  0
VERTEX
  8
0
 10
479.05974997
 20
267.49609395
  0
VERTEX
  8
0
 10
478.23725834
 20
264.31424038
  0
VERTEX
  8
0
 10
477.40863476
 20
261.18512198
  0
VERTEX
  8
0
 10
476.57175049
 20
258.10190916
  0
VERTEX
  8
0
 10
475.72447679
 20
255.05777233
  0
VERTEX
  8
0
 10
474.86468494
 20
252.04588188
  0
VERTEX
  8
0
 10
473.99024620
 20
249.05940823
  0
VERTEX
  8
0
 10
473.09903183
 20
246.09152176
  0
VERTEX
  8
0
 10
472.18891309
 20
243.13539290
  0
VERTEX
  8
0
 10
471.25776127
 20
240.18419203
  0
VERTEX
  8
0
 10
470.30344761
 20
237.23108956
  0
VERTEX
  8
0
 10
469.32384339
 20
234.26925590
  0
VERTEX
  8
0
 10
468.31681987
 20
231.29186145
  0
VERTEX
  8
0
 10
467.28024832
 20
228.29207661
  0
VERTEX
  8
0
 10
466.21200000
 20
225.26307179
  0
VERTEX
  8
0
 10
465.10994618
 20
222.19801738
  0
VERTEX
  8
0
 10
463.97195813
 20
219.09008380
  0
VERTEX
  8
0
 10
455.14379282
 20
195.18797969
  0
VERTEX
  8
0
 10
457.99584125
 20
186.01337807
  0
VERTEX
  8
0
 10
459.43978931
 20
181.39655144
  0
VERTEX
  8
0
 10
460.03660247
 20
179.54785991
  0
VERTEX
  8
0
 10
460.56570402
 20
177.98705123
  0
VERTEX
  8
0
 10
461.03889065
 20
176.70017662
  0
VERTEX
  8
0
 10
461.25820235
 20
176.15510560
  0
VERTEX
  8
0
 10
461.46795909
 20
175.67328732
  0
VERTEX
  8
0
 10
461.66963545
 20
175.25297818
  0
VERTEX
  8
0
 10
461.86470604
 20
174.89243458
  0
VERTEX
  8
0
 10
462.05464544
 20
174.58991292
  0
VERTEX
  8
0
 10
462.24092823
 20
174.34366962
  0
VERTEX
  8
0
 10
462.42502901
 20
174.15196107
  0
VERTEX
  8
0
 10
462.60842237
 20
174.01304369
  0
VERTEX
  8
0
 10
462.79258289
 20
173.92517386
  0
VERTEX
  8
0
 10
462.97898517
 20
173.88660801
  0
VERTEX
  8
0
 10
463.16910379
 20
173.89560253
  0
VERTEX
  8
0
 10
463.36441334
 20
173.95041384
  0
VERTEX
  8
0
 10
463.56638842
 20
174.04929832
  0
VERTEX
  8
0
 10
463.77650361
 20
174.19051239
  0
VERTEX
  8
0
 10
463.99623349
 20
174.37231246
  0
VERTEX
  8
0
 10
464.22705267
 20
174.59295492
  0
VERTEX
  8
0
 10
464.72785726
 20
175.14379266
  0
VERTEX
  8
0
 10
465.29071408
 20
175.82907683
  0
VERTEX
  8
0
 10
465.92741985
 20
176.63485869
  0
SEQEND
  0
POLYLINE
  8
Calque_par_d_faut
 62
256
 66
   1
 39
0.000000
 70
    1
  0
VERTEX
  8
0
 10
125.05622184
 20
199.00000000
  0
VERTEX
  8
0
 10
127.52559583
 20
203.93242187
  0
VERTEX
  8
0
 10
129.58127774
 20
208.12187500
  0
VERTEX
  8
0
 10
130.38695111
 20
209.79956055
  0
VERTEX
  8
0
 10
131.00876177
 20
211.12539062
  0
VERTEX
  8
0
 10
131.41989650
 20
212.04399414
  0
VERTEX
  8
0
 10
131.53808126
 20
212.33328247
  0
VERTEX
  8
0
 10
131.59354208
 20
212.50000000
  0
VERTEX
  8
0
 10
131.67465978
 20
212.78251953
  0
VERTEX
  8
0
 10
131.82060696
 20
213.20390625
  0
VERTEX
  8
0
 10
132.27411332
 20
214.38125000
  0
VERTEX
  8
0
 10
132.88830830
 20
215.86796875
  0
VERTEX
  8
0
 10
133.59743902
 20
217.50000000
  0
VERTEX
  8
0
 10
134.29857370
 20
219.09257813
  0
VERTEX
  8
0
 10
134.89099727
 20
220.47187500
  0
VERTEX
  8
0
 10
135.31228197
 20
221.49023438
  0
VERTEX
  8
0
 10
135.50000000
 20
222.00000000
  0
VERTEX
  8
0
 10
135.68234508
 20
222.50415302
  0
VERTEX
  8
0
 10
136.08900045
 20
223.50723056
  0
VERTEX
  8
0
 10
137.33446811
 20
226.42886998
  0
VERTEX
  8
0
 10
137.67230886
 20
227.23686256
  0
VERTEX
  8
0
 10
137.97539260
 20
228.02692438
  0
VERTEX
  8
0
 10
138.23795057
 20
228.77916990
  0
VERTEX
  8
0
 10
138.45421401
 20
229.47371354
  0
VERTEX
  8
0
 10
138.61841416
 20
230.09066976
  0
VERTEX
  8
0
 10
138.72478226
 20
230.61015300
  0
VERTEX
  8
0
 10
138.76754954
 20
231.01227769
  0
VERTEX
  8
0
 10
138.76328013
 20
231.16311635
  0
VERTEX
  8
0
 10
138.74094724
 20
231.27715829
  0
VERTEX
  8
0
 10
138.70141840
 20
231.31522323
  0
VERTEX
  8
0
 10
138.61935251
 20
231.32322515
  0
VERTEX
  8
0
 10
138.49613070
 20
231.30207409
  0
VERTEX
  8
0
 10
138.33313410
 20
231.25268006
  0
VERTEX
  8
0
 10
137.89334110
 20
231.07280328
  0
VERTEX
  8
0
 10
137.31102257
 20
230.79087507
  0
VERTEX
  8
0
 10
136.59722760
 20
230.41417569
  0
VERTEX
  8
0
 10
135.76300527
 20
229.94998541
  0
VERTEX
  8
0
 10
133.77747483
 20
228.78825319
  0
VERTEX
  8
0
 10
131.44282388
 20
227.36392053
  0
VERTEX
  8
0
 10
128.84744503
 20
225.73522954
  0
VERTEX
  8
0
 10
126.07973091
 20
223.96042233
  0
VERTEX
  8
0
 10
123.22807415
 20
222.09774100
  0
VERTEX
  8
0
 10
120.38086738
 20
220.20542767
  0
VERTEX
  8
0
 10
117.62650321
 20
218.34172444
  0
VERTEX
  8
0
 10
115.05337428
 20
216.56487343
  0
VERTEX
  8
0
 10
112.74987321
 20
214.93311674
  0
VERTEX
  8
0
 10
110.80439262
 20
213.50469649
  0
VERTEX
  8
0
 10
109.99353270
 20
212.88493819
  0
VERTEX
  8
0
 10
109.30532514
 20
212.33785478
  0
VERTEX
  8
0
 10
108.75081901
 20
211.87072654
  0
VERTEX
  8
0
 10
108.34106339
 20
211.49083373
  0
VERTEX
  8
0
 10
108.08710736
 20
211.20545661
  0
VERTEX
  8
0
 10
108.02200703
 20
211.10048652
  0
VERTEX
  8
0
 10
108.00000000
 20
211.02187544
  0
VERTEX
  8
0
 10
108.01522771
 20
210.75300995
  0
VERTEX
  8
0
 10
108.05972489
 20
210.36775793
  0
VERTEX
  8
0
 10
108.22941182
 20
209.27955070
  0
VERTEX
  8
0
 10
108.49482919
 20
207.82016649
  0
VERTEX
  8
0
 10
108.84174542
 20
206.05251803
  0
VERTEX
  8
0
 10
109.72314805
 20
201.84407936
  0
VERTEX
  8
0
 10
110.75976693
 20
197.15753661
  0
VERTEX
  8
0
 10
111.83774929
 20
192.49619170
  0
VERTEX
  8
0
 10
112.35667280
 20
190.33225029
  0
VERTEX
  8
0
 10
112.84324238
 20
188.36334657
  0
VERTEX
  8
0
 10
113.28322645
 20
186.65239327
  0
VERTEX
  8
0
 10
113.66239342
 20
185.26230313
  0
VERTEX
  8
0
 10
113.96651168
 20
184.25598890
  0
VERTEX
  8
0
 10
114.08598017
 20
183.91640798
  0
VERTEX
  8
0
 10
114.18134964
 20
183.69636332
  0
VERTEX
  8
0
 10
114.48434740
 20
183.14557709
  0
VERTEX
  8
0
 10
114.61918664
 20
182.93206675
  0
VERTEX
  8
0
 10
114.74724185
 20
182.76059651
  0
VERTEX
  8
0
 10
114.87175484
 20
182.63175505
  0
VERTEX
  8
0
 10
114.99596741
 20
182.54613106
  0
VERTEX
  8
0
 10
115.12312135
 20
182.50431323
  0
VERTEX
  8
0
 10
115.25645847
 20
182.50689025
  0
VERTEX
  8
0
 10
115.39922058
 20
182.55445081
  0
VERTEX
  8
0
 10
115.55464947
 20
182.64758358
  0
VERTEX
  8
0
 10
115.72598694
 20
182.78687726
  0
VERTEX
  8
0
 10
115.91647480
 20
182.97292053
  0
VERTEX
  8
0
 10
116.36786888
 20
183.48761061
  0
VERTEX
  8
0
 10
116.93476612
 20
184.19636332
  0
VERTEX
  8
0
 10
117.15159913
 20
184.49587928
  0
VERTEX
  8
0
 10
117.42663110
 20
184.91424229
  0
VERTEX
  8
0
 10
118.13463653
 20
186.07715037
  0
VERTEX
  8
0
 10
119.02547176
 20
187.62436953
  0
VERTEX
  8
0
 10
120.06582613
 20
189.49518172
  0
VERTEX
  8
0
 10
121.22238899
 20
191.62886891
  0
VERTEX
  8
0
 10
122.46184966
 20
193.96471304
  0
VERTEX
  8
0
 10
123.75089749
 20
196.44199609
  0
VERTEX
  8
0
 10
125.05622184
 20
199.00000000
  0
SEQEND
  0
POLYLINE
  8
Calque_par_d_faut
 62
256
 66
   1
 39
0.000000
 70
    1
  0
VERTEX
  8
0
 10
384.43681046
 20
192.39046001
  0
VERTEX
  8
0
 10
384.74332421
 20
193.09674163
  0
VERTEX
  8
0
 10
385.07918314
 20
193.91346108
  0
VERTEX
  8
0
 10
385.79525845
 20
195.76157263
  0
VERTEX
  8
0
 10
386.49768025
 20
197.70151286
  0
VERTEX
  8
0
 10
387.09909243
 20
199.50000000
  0
VERTEX
  8
0
 10
387.47646710
 20
200.65614223
  0
VERTEX
  8
0
 10
387.88184595
 20
201.83019418
  0
VERTEX
  8
0
 10
388.30941925
 20
203.00939257
  0
VERTEX
  8
0
 10
388.75337729
 20
204.18097410
  0
VERTEX
  8
0
 10
389.20791036
 20
205.33217549
  0
VERTEX
  8
0
 10
389.66720875
 20
206.45023344
  0
VERTEX
  8
0
 10
390.12546274
 20
207.52238466
  0
VERTEX
  8
0
 10
390.57686262
 20
208.53586587
  0
VERTEX
  8
0
 10
391.01559867
 20
209.47791377
  0
VERTEX
  8
0
 10
391.43586119
 20
210.33576506
  0
VERTEX
  8
0
 10
391.83184046
 20
211.09665647
  0
VERTEX
  8
0
 10
392.19772676
 20
211.74782470
  0
VERTEX
  8
0
 10
392.52771038
 20
212.27650646
  0
VERTEX
  8
0
 10
392.81598161
 20
212.66993845
  0
VERTEX
  8
0
 10
392.94265954
 20
212.81194726
  0
VERTEX
  8
0
 10
393.05673074
 20
212.91535740
  0
VERTEX
  8
0
 10
393.15746898
 20
212.97857345
  0
VERTEX
  8
0
 10
393.24414805
 20
213.00000000
  0
VERTEX
  8
0
 10
393.39598276
 20
213.02257559
  0
VERTEX
  8
0
 10
393.53763119
 20
213.08727786
  0
VERTEX
  8
0
 10
393.66599315
 20
213.18957011
  0
VERTEX
  8
0
 10
393.77796849
 20
213.32491560
  0
VERTEX
  8
0
 10
393.87045701
 20
213.48877762
  0
VERTEX
  8
0
 10
393.94035856
 20
213.67661945
  0
VERTEX
  8
0
 10
393.98457294
 20
213.88390437
  0
VERTEX
  8
0
 10
394.00000000
 20
214.10609566
  0
VERTEX
  8
0
 10
394.01686126
 20
214.24584835
  0
VERTEX
  8
0
 10
394.06624256
 20
214.42094355
  0
VERTEX
  8
0
 10
394.25535038
 20
214.86763860
  0
VERTEX
  8
0
 10
394.55289370
 20
215.42713506
  0
VERTEX
  8
0
 10
394.94444274
 20
216.08038715
  0
VERTEX
  8
0
 10
395.41556772
 20
216.80834909
  0
VERTEX
  8
0
 10
395.95183888
 20
217.59197511
  0
VERTEX
  8
0
 10
396.53882644
 20
218.41221945
  0
VERTEX
  8
0
 10
397.16210063
 20
219.25003632
  0
VERTEX
  8
0
 10
397.80723167
 20
220.08637996
  0
VERTEX
  8
0
 10
398.45978979
 20
220.90220460
  0
VERTEX
  8
0
 10
399.10534522
 20
221.67846446
  0
VERTEX
  8
0
 10
399.72946818
 20
222.39611378
  0
VERTEX
  8
0
 10
400.31772890
 20
223.03610677
  0
VERTEX
  8
0
 10
400.85569762
 20
223.57939767
  0
VERTEX
  8
0
 10
401.32894454
 20
224.00694071
  0
VERTEX
  8
0
 10
401.53678803
 20
224.17135498
  0
VERTEX
  8
0
 10
401.72303991
 20
224.29969011
  0
VERTEX
  8
0
 10
401.97955425
 20
224.49333373
  0
VERTEX
  8
0
 10
402.21885957
 20
224.73778435
  0
VERTEX
  8
0
 10
402.43571832
 20
225.02312984
  0
VERTEX
  8
0
 10
402.62489297
 20
225.33945812
  0
VERTEX
  8
0
 10
402.78114600
 20
225.67685706
  0
VERTEX
  8
0
 10
402.89923987
 20
226.02541455
  0
VERTEX
  8
0
 10
402.97393705
 20
226.37521850
  0
VERTEX
  8
0
 10
403.00000000
 20
226.71635678
  0
VERTEX
  8
0
 10
403.01347693
 20
227.02769633
  0
VERTEX
  8
0
 10
403.05210221
 20
227.29209625
  0
VERTEX
  8
0
 10
403.11316754
 20
227.50563270
  0
VERTEX
  8
0
 10
403.19396465
 20
227.66438182
  0
VERTEX
  8
0
 10
403.29178525
 20
227.76441977
  0
VERTEX
  8
0
 10
403.34623303
 20
227.79119586
  0
VERTEX
  8
0
 10
403.40392107
 20
227.80182271
  0
VERTEX
  8
0
 10
403.46451084
 20
227.79580985
  0
VERTEX
  8
0
 10
403.52766381
 20
227.77266678
  0
VERTEX
  8
0
 10
403.66030519
 20
227.67302814
  0
VERTEX
  8
0
 10
403.73488618
 20
227.61621121
  0
VERTEX
  8
0
 10
403.82173345
 20
227.58148577
  0
VERTEX
  8
0
 10
403.91978533
 20
227.56815798
  0
VERTEX
  8
0
 10
404.02798018
 20
227.57553399
  0
VERTEX
  8
0
 10
404.14525635
 20
227.60291992
  0
VERTEX
  8
0
 10
404.27055219
 20
227.64962193
  0
VERTEX
  8
0
 10
404.54095628
 20
227.79819877
  0
VERTEX
  8
0
 10
404.83069923
 20
228.01571364
  0
VERTEX
  8
0
 10
405.13128785
 20
228.29661570
  0
VERTEX
  8
0
 10
405.43422893
 20
228.63535410
  0
VERTEX
  8
0
 10
405.73102927
 20
229.02637798
  0
VERTEX
  8
0
 10
405.90890826
 20
229.25739661
  0
VERTEX
  8
0
 10
406.14891088
 20
229.53274201
  0
VERTEX
  8
0
 10
406.79887437
 20
230.20204856
  0
VERTEX
  8
0
 10
407.64809442
 20
231.00556838
  0
VERTEX
  8
0
 10
408.66374570
 20
231.91457223
  0
VERTEX
  8
0
 10
409.81300288
 20
232.90033084
  0
VERTEX
  8
0
 10
411.06304063
 20
233.93411497
  0
VERTEX
  8
0
 10
412.38103363
 20
234.98719538
  0
VERTEX
  8
0
 10
413.73415655
 20
236.03084280
  0
VERTEX
  8
0
 10
415.45960688
 20
237.33581019
  0
VERTEX
  8
0
 10
416.96011458
 20
238.48323508
  0
VERTEX
  8
0
 10
418.24496015
 20
239.50295554
  0
VERTEX
  8
0
 10
418.80940979
 20
239.97425099
  0
VERTEX
  8
0
 10
419.32342408
 20
240.42480960
  0
VERTEX
  8
0
 10
419.78816308
 20
240.85836111
  0
VERTEX
  8
0
 10
420.20478686
 20
241.27863530
  0
VERTEX
  8
0
 10
420.57445548
 20
241.68936190
  0
VERTEX
  8
0
 10
420.89832900
 20
242.09427068
  0
VERTEX
  8
0
 10
421.17756749
 20
242.49709139
  0
VERTEX
  8
0
 10
421.41333100
 20
242.90155380
  0
VERTEX
  8
0
 10
421.60677960
 20
243.31138764
  0
VERTEX
  8
0
 10
421.75907334
 20
243.73032268
  0
VERTEX
  8
0
 10
421.87137230
 20
244.16208867
  0
VERTEX
  8
0
 10
421.94483654
 20
244.61041538
  0
VERTEX
  8
0
 10
421.98062611
 20
245.07903255
  0
VERTEX
  8
0
 10
421.97990107
 20
245.57166993
  0
VERTEX
  8
0
 10
421.94382150
 20
246.09205729
  0
VERTEX
  8
0
 10
421.87354745
 20
246.64392438
  0
VERTEX
  8
0
 10
421.77023899
 20
247.23100096
  0
VERTEX
  8
0
 10
421.63505617
 20
247.85701678
  0
VERTEX
  8
0
 10
421.46915906
 20
248.52570159
  0
VERTEX
  8
0
 10
421.27370772
 20
249.24078516
  0
VERTEX
  8
0
 10
420.79878260
 20
250.82506756
  0
VERTEX
  8
0
 10
420.21956131
 20
252.63970203
  0
VERTEX
  8
0
 10
419.54532435
 20
254.71452662
  0
VERTEX
  8
0
 10
419.18346650
 20
255.79648521
  0
VERTEX
  8
0
 10
418.77809208
 20
256.94819641
  0
VERTEX
  8
0
 10
418.33358740
 20
258.15943043
  0
VERTEX
  8
0
 10
417.85433877
 20
259.41995746
  0
VERTEX
  8
0
 10
416.80915485
 20
262.04797141
  0
VERTEX
  8
0
 10
415.67763076
 20
264.75039993
  0
VERTEX
  8
0
 10
414.49485694
 20
267.44540469
  0
VERTEX
  8
0
 10
413.29592383
 20
270.05114733
  0
VERTEX
  8
0
 10
412.70136331
 20
271.29497089
  0
VERTEX
  8
0
 10
412.11592187
 20
272.48578953
  0
VERTEX
  8
0
 10
411.54398583
 20
273.61337349
  0
VERTEX
  8
0
 10
410.98994149
 20
274.66749295
  0
VERTEX
  8
0
 10
409.96875214
 20
276.51657313
  0
VERTEX
  8
0
 10
408.79265200
 20
278.55056917
  0
VERTEX
  8
0
 10
407.48990718
 20
280.72758145
  0
VERTEX
  8
0
 10
406.08878378
 20
283.00571040
  0
VERTEX
  8
0
 10
404.61754790
 20
285.34305640
  0
VERTEX
  8
0
 10
403.10446564
 20
287.69771986
  0
VERTEX
  8
0
 10
401.57780312
 20
290.02780118
  0
VERTEX
  8
0
 10
400.06582643
 20
292.29140076
  0
VERTEX
  8
0
 10
398.59680168
 20
294.44661900
  0
VERTEX
  8
0
 10
397.19899497
 20
296.45155630
  0
VERTEX
  8
0
 10
395.90067241
 20
298.26431307
  0
VERTEX
  8
0
 10
394.73010010
 20
299.84298970
  0
VERTEX
  8
0
 10
393.71554414
 20
301.14568660
  0
VERTEX
  8
0
 10
393.27560545
 20
301.68044902
  0
VERTEX
  8
0
 10
392.88527065
 20
302.13050416
  0
VERTEX
  8
0
 10
392.54807298
 20
302.49061457
  0
VERTEX
  8
0
 10
392.26754571
 20
302.75554280
  0
VERTEX
  8
0
 10
392.04722212
 20
302.92005139
  0
VERTEX
  8
0
 10
391.96074084
 20
302.96301162
  0
VERTEX
  8
0
 10
391.89063545
 20
302.97890290
  0
VERTEX
  8
0
 10
391.83191432
 20
302.95874676
  0
VERTEX
  8
0
 10
391.76340793
 20
302.89533623
  0
VERTEX
  8
0
 10
391.59827820
 20
302.64341987
  0
VERTEX
  8
0
 10
391.39772394
 20
302.23248965
  0
VERTEX
  8
0
 10
391.16422287
 20
301.67188134
  0
VERTEX
  8
0
 10
390.90025268
 20
300.97093074
  0
VERTEX
  8
0
 10
390.60829106
 20
300.13897366
  0
VERTEX
  8
0
 10
389.95030432
 20
298.11938323
  0
VERTEX
  8
0
 10
389.21008425
 20
295.68779642
  0
VERTEX
  8
0
 10
388.40745241
 20
292.91889962
  0
VERTEX
  8
0
 10
387.56223037
 20
289.88737919
  0
VERTEX
  8
0
 10
386.69423973
 20
286.66792152
  0
VERTEX
  8
0
 10
385.82330204
 20
283.33521299
  0
VERTEX
  8
0
 10
384.96923889
 20
279.96393997
  0
VERTEX
  8
0
 10
384.15187186
 20
276.62878885
  0
VERTEX
  8
0
 10
383.39102251
 20
273.40444600
  0
VERTEX
  8
0
 10
382.70651243
 20
270.36559780
  0
VERTEX
  8
0
 10
382.11816319
 20
267.58693064
  0
VERTEX
  8
0
 10
381.64579637
 20
265.14313088
  0
VERTEX
  8
0
 10
381.45930061
 20
264.07014577
  0
VERTEX
  8
0
 10
381.30923354
 20
263.10888491
  0
VERTEX
  8
0
 10
381.11733561
 20
261.68486067
  0
VERTEX
  8
0
 10
380.93340395
 20
260.11634426
  0
VERTEX
  8
0
 10
380.75762420
 20
258.41327516
  0
VERTEX
  8
0
 10
380.59018197
 20
256.58559290
  0
VERTEX
  8
0
 10
380.43126289
 20
254.64323696
  0
VERTEX
  8
0
 10
380.28105259
 20
252.59614687
  0
VERTEX
  8
0
 10
380.00750082
 20
248.22752220
  0
VERTEX
  8
0
 10
379.77101167
 20
243.55923494
  0
VERTEX
  8
0
 10
379.57307014
 20
238.67080111
  0
VERTEX
  8
0
 10
379.41516123
 20
233.64173677
  0
VERTEX
  8
0
 10
379.29876995
 20
228.55155794
  0
VERTEX
  8
0
 10
379.22538131
 20
223.47978065
  0
VERTEX
  8
0
 10
379.19648030
 20
218.50592096
  0
VERTEX
  8
0
 10
379.21355194
 20
213.70949490
  0
VERTEX
  8
0
 10
379.27808122
 20
209.17001850
  0
VERTEX
  8
0
 10
379.32860654
 20
207.02148518
  0
VERTEX
  8
0
 10
379.39155314
 20
204.96700780
  0
VERTEX
  8
0
 10
379.46710667
 20
203.01652585
  0
VERTEX
  8
0
 10
379.55545273
 20
201.17997883
  0
VERTEX
  8
0
 10
379.65677695
 20
199.46730627
  0
VERTEX
  8
0
 10
379.77126497
 20
197.88844765
  0
VERTEX
  8
0
 10
379.89910240
 20
196.45334248
  0
VERTEX
  8
0
 10
380.04047487
 20
195.17193027
  0
VERTEX
  8
0
 10
380.38716166
 20
192.47228104
  0
VERTEX
  8
0
 10
380.69810113
 20
190.30235413
  0
VERTEX
  8
0
 10
380.97998008
 20
188.63662948
  0
VERTEX
  8
0
 10
381.11211150
 20
187.98486800
  0
VERTEX
  8
0
 10
381.23948533
 20
187.44958706
  0
VERTEX
  8
0
 10
381.36293745
 20
187.02759668
  0
VERTEX
  8
0
 10
381.48330369
 20
186.71570683
  0
VERTEX
  8
0
 10
381.60141991
 20
186.51072752
  0
VERTEX
  8
0
 10
381.65989546
 20
186.44733243
  0
VERTEX
  8
0
 10
381.71812196
 20
186.40946873
  0
VERTEX
  8
0
 10
381.77620387
 20
186.39673766
  0
VERTEX
  8
0
 10
381.83424569
 20
186.40874047
  0
VERTEX
  8
0
 10
381.89235189
 20
186.44507841
  0
VERTEX
  8
0
 10
381.95062695
 20
186.50535273
  0
VERTEX
  8
0
 10
382.06810159
 20
186.69611549
  0
VERTEX
  8
0
 10
382.18750547
 20
186.97783877
  0
VERTEX
  8
0
 10
382.62856642
 20
188.11744417
  0
VERTEX
  8
0
 10
383.19967445
 20
189.51781727
  0
VERTEX
  8
0
 10
383.82702424
 20
191.00135643
  0
VERTEX
  8
0
 10
384.43681046
 20
192.39046001
  0
SEQEND
  0
POLYLINE
  8
Calque_par_d_faut
 62
256
 66
   1
 39
0.000000
 70
    1
  0
VERTEX
  8
0
 10
193.02652664
 20
209.00000000
  0
VERTEX
  8
0
 10
197.17169533
 20
214.18467996
  0
VERTEX
  8
0
 10
198.82161167
 20
216.22419722
  0
VERTEX
  8
0
 10
199.88949451
 20
217.52231475
  0
VERTEX
  8
0
 10
200.31126562
 20
218.05056061
  0
VERTEX
  8
0
 10
200.85940570
 20
218.77921837
  0
VERTEX
  8
0
 10
202.24256756
 20
220.70651958
  0
VERTEX
  8
0
 10
203.85452964
 20
223.04171837
  0
VERTEX
  8
0
 10
205.51084151
 20
225.52231475
  0
VERTEX
  8
0
 10
207.07630662
 20
227.88279097
  0
VERTEX
  8
0
 10
208.44091370
 20
229.89092996
  0
VERTEX
  8
0
 10
209.45799015
 20
231.33418265
  0
VERTEX
  8
0
 10
209.79036921
 20
231.77755506
  0
VERTEX
  8
0
 10
209.98086338
 20
232.00000000
  0
VERTEX
  8
0
 10
210.23212219
 20
232.25542295
  0
VERTEX
  8
0
 10
210.52709152
 20
232.60310573
  0
VERTEX
  8
0
 10
210.86328813
 20
233.03854197
  0
VERTEX
  8
0
 10
211.23822876
 20
233.55722529
  0
VERTEX
  8
0
 10
212.09440905
 20
234.82630761
  0
VERTEX
  8
0
 10
213.07576637
 20
236.37430164
  0
VERTEX
  8
0
 10
214.16243469
 20
238.16515632
  0
VERTEX
  8
0
 10
215.33454796
 20
240.16282057
  0
VERTEX
  8
0
 10
216.57224016
 20
242.33124335
  0
VERTEX
  8
0
 10
217.85564525
 20
244.63437358
  0
VERTEX
  8
0
 10
219.16489720
 20
247.03616022
  0
VERTEX
  8
0
 10
220.48012997
 20
249.50055220
  0
VERTEX
  8
0
 10
221.78147753
 20
251.99149845
  0
VERTEX
  8
0
 10
223.04907385
 20
254.47294792
  0
VERTEX
  8
0
 10
224.26305289
 20
256.90884954
  0
VERTEX
  8
0
 10
225.40354862
 20
259.26315226
  0
VERTEX
  8
0
 10
226.45069501
 20
261.49980501
  0
VERTEX
  8
0
 10
227.38462602
 20
263.58275674
  0
VERTEX
  8
0
 10
228.35559770
 20
265.84964789
  0
VERTEX
  8
0
 10
229.32252418
 20
268.19018609
  0
VERTEX
  8
0
 10
230.27814229
 20
270.58260229
  0
VERTEX
  8
0
 10
231.21518886
 20
273.00512745
  0
VERTEX
  8
0
 10
232.12640069
 20
275.43599254
  0
VERTEX
  8
0
 10
233.00451463
 20
277.85342853
  0
VERTEX
  8
0
 10
233.84226749
 20
280.23566639
  0
VERTEX
  8
0
 10
234.63239609
 20
282.56093706
  0
VERTEX
  8
0
 10
235.36763727
 20
284.80747153
  0
VERTEX
  8
0
 10
236.04072783
 20
286.95350076
  0
VERTEX
  8
0
 10
236.64440461
 20
288.97725570
  0
VERTEX
  8
0
 10
237.17140443
 20
290.85696733
  0
VERTEX
  8
0
 10
237.61446411
 20
292.57086661
  0
VERTEX
  8
0
 10
237.96632048
 20
294.09718450
  0
VERTEX
  8
0
 10
238.21971035
 20
295.41415198
  0
VERTEX
  8
0
 10
238.30721061
 20
295.98732649
  0
VERTEX
  8
0
 10
238.36737056
 20
296.50000000
  0
VERTEX
  8
0
 10
238.42492381
 20
296.93237305
  0
VERTEX
  8
0
 10
238.51537709
 20
297.39492187
  0
VERTEX
  8
0
 10
238.63412204
 20
297.87329102
  0
VERTEX
  8
0
 10
238.77655031
 20
298.35312500
  0
VERTEX
  8
0
 10
238.93805356
 20
298.82006836
  0
VERTEX
  8
0
 10
239.11402345
 20
299.25976563
  0
VERTEX
  8
0
 10
239.29985161
 20
299.65786133
  0
VERTEX
  8
0
 10
239.49092971
 20
300.00000000
  0
VERTEX
  8
0
 10
239.66857985
 20
300.32520831
  0
VERTEX
  8
0
 10
239.71411960
 20
300.44906985
  0
VERTEX
  8
0
 10
239.72937084
 20
300.54616742
  0
VERTEX
  8
0
 10
239.71325987
 20
300.61579935
  0
VERTEX
  8
0
 10
239.66471298
 20
300.65726396
  0
VERTEX
  8
0
 10
239.58265644
 20
300.66985960
  0
VERTEX
  8
0
 10
239.46601656
 20
300.65288458
  0
VERTEX
  8
0
 10
239.31371960
 20
300.60563723
  0
VERTEX
  8
0
 10
239.12469187
 20
300.52741590
  0
VERTEX
  8
0
 10
238.63214923
 20
300.27524457
  0
VERTEX
  8
0
 10
237.97979891
 20
299.89075723
  0
VERTEX
  8
0
 10
237.15905123
 20
299.36834052
  0
VERTEX
  8
0
 10
236.16131647
 20
298.70238107
  0
VERTEX
  8
0
 10
234.97800493
 20
297.88726553
  0
VERTEX
  8
0
 10
232.02029271
 20
295.78711271
  0
VERTEX
  8
0
 10
228.21719694
 20
293.02297518
  0
VERTEX
  8
0
 10
223.50000000
 20
289.54994605
  0
VERTEX
  8
0
 10
218.43984375
 20
285.84720384
  0
VERTEX
  8
0
 10
212.79375000
 20
281.77743663
  0
VERTEX
  8
0
 10
207.25078125
 20
277.83411886
  0
VERTEX
  8
0
 10
204.73330078
 20
276.06408928
  0
VERTEX
  8
0
 10
202.50000000
 20
274.51072497
  0
VERTEX
  8
0
 10
194.23280808
 20
268.78416401
  0
VERTEX
  8
0
 10
188.39892114
 20
264.71457012
  0
VERTEX
  8
0
 10
184.29784227
 20
261.82493764
  0
VERTEX
  8
0
 10
183.60372794
 20
243.85499146
  0
VERTEX
  8
0
 10
183.47830903
 20
239.99297999
  0
VERTEX
  8
0
 10
183.38839495
 20
235.90247633
  0
VERTEX
  8
0
 10
183.33401645
 20
231.70787235
  0
VERTEX
  8
0
 10
183.31520426
 20
227.53355995
  0
VERTEX
  8
0
 10
183.33198912
 20
223.50393103
  0
VERTEX
  8
0
 10
183.38440178
 20
219.74337746
  0
VERTEX
  8
0
 10
183.47247296
 20
216.37629114
  0
VERTEX
  8
0
 10
183.52989011
 20
214.87917066
  0
VERTEX
  8
0
 10
183.59623342
 20
213.52706395
  0
VERTEX
  8
0
 10
183.74623226
 20
210.94734623
  0
VERTEX
  8
0
 10
183.89884164
 20
208.70073663
  0
VERTEX
  8
0
 10
184.06605630
 20
206.78147701
  0
VERTEX
  8
0
 10
184.15888895
 20
205.94280404
  0
VERTEX
  8
0
 10
184.25987095
 20
205.18380925
  0
VERTEX
  8
0
 10
184.37050162
 20
204.50377290
  0
VERTEX
  8
0
 10
184.49228032
 20
203.90197521
  0
VERTEX
  8
0
 10
184.62670638
 20
203.37769642
  0
VERTEX
  8
0
 10
184.77527914
 20
202.93021676
  0
VERTEX
  8
0
 10
184.93949795
 20
202.55881646
  0
VERTEX
  8
0
 10
185.12086213
 20
202.26277576
  0
VERTEX
  8
0
 10
185.21844229
 20
202.14279033
  0
VERTEX
  8
0
 10
185.32087105
 20
202.04137488
  0
VERTEX
  8
0
 10
185.42833582
 20
201.95843946
  0
VERTEX
  8
0
 10
185.54102403
 20
201.89389407
  0
VERTEX
  8
0
 10
185.65912309
 20
201.84764876
  0
VERTEX
  8
0
 10
185.78282041
 20
201.81961356
  0
VERTEX
  8
0
 10
185.91230343
 20
201.80969848
  0
VERTEX
  8
0
 10
186.04775955
 20
201.81781357
  0
VERTEX
  8
0
 10
186.18937619
 20
201.84386885
  0
VERTEX
  8
0
 10
186.33734077
 20
201.88777435
  0
VERTEX
  8
0
 10
186.65306342
 20
202.02877612
  0
VERTEX
  8
0
 10
186.99642683
 20
202.24009913
  0
VERTEX
  8
0
 10
187.36893036
 20
202.52102359
  0
VERTEX
  8
0
 10
187.77207334
 20
202.87082975
  0
VERTEX
  8
0
 10
188.20735511
 20
203.28879784
  0
VERTEX
  8
0
 10
188.67627501
 20
203.77420810
  0
VERTEX
  8
0
 10
189.18033238
 20
204.32634074
  0
VERTEX
  8
0
 10
190.29985691
 20
205.62789416
  0
VERTEX
  8
0
 10
191.57792342
 20
207.18769996
  0
VERTEX
  8
0
 10
193.02652664
 20
209.00000000
  0
SEQEND
  0
POLYLINE
  8
Calque_par_d_faut
 62
256
 66
   1
 39
0.000000
 70
    1
  0
VERTEX
  8
0
 10
315.06037748
 20
224.65880481
  0
VERTEX
  8
0
 10
315.16864076
 20
224.98549602
  0
VERTEX
  8
0
 10
315.29348478
 20
225.43690935
  0
VERTEX
  8
0
 10
315.58698485
 20
226.68172727
  0
VERTEX
  8
0
 10
315.92901730
 20
228.32890835
  0
VERTEX
  8
0
 10
316.30772176
 20
230.31410235
  0
VERTEX
  8
0
 10
316.71123782
 20
232.57295905
  0
VERTEX
  8
0
 10
317.12770512
 20
235.04112822
  0
VERTEX
  8
0
 10
317.54526327
 20
237.65425964
  0
VERTEX
  8
0
 10
317.95205188
 20
240.34800307
  0
VERTEX
  8
0
 10
318.73927855
 20
245.65194250
  0
VERTEX
  8
0
 10
319.45819235
 20
250.37097590
  0
VERTEX
  8
0
 10
320.02934629
 20
253.99152212
  0
VERTEX
  8
0
 10
320.37329339
 20
256.00000000
  0
VERTEX
  8
0
 10
320.65504760
 20
257.60195313
  0
VERTEX
  8
0
 10
321.05686446
 20
260.11562500
  0
VERTEX
  8
0
 10
321.52515938
 20
263.19648438
  0
VERTEX
  8
0
 10
322.00634776
 20
266.50000000
  0
VERTEX
  8
0
 10
322.26146400
 20
268.21928711
  0
VERTEX
  8
0
 10
322.55039548
 20
270.04023438
  0
VERTEX
  8
0
 10
322.86317667
 20
271.90747070
  0
VERTEX
  8
0
 10
323.18984207
 20
273.76562500
  0
VERTEX
  8
0
 10
323.52042616
 20
275.55932617
  0
VERTEX
  8
0
 10
323.84496341
 20
277.23320312
  0
VERTEX
  8
0
 10
324.15348832
 20
278.73188477
  0
VERTEX
  8
0
 10
324.43603537
 20
280.00000000
  0
VERTEX
  8
0
 10
325.03361954
 20
282.68789063
  0
VERTEX
  8
0
 10
325.70647214
 20
285.94062500
  0
VERTEX
  8
0
 10
326.37216099
 20
289.34804688
  0
VERTEX
  8
0
 10
326.94825393
 20
292.50000000
  0
VERTEX
  8
0
 10
327.90230525
 20
297.85483487
  0
VERTEX
  8
0
 10
328.79444446
 20
302.59104255
  0
VERTEX
  8
0
 10
329.22985981
 20
304.78150481
  0
VERTEX
  8
0
 10
329.66487248
 20
306.88252262
  0
VERTEX
  8
0
 10
330.10450758
 20
308.91583344
  0
VERTEX
  8
0
 10
330.55379022
 20
310.90317471
  0
VERTEX
  8
0
 10
331.01774552
 20
312.86628388
  0
VERTEX
  8
0
 10
331.50139859
 20
314.82689840
  0
VERTEX
  8
0
 10
332.00977454
 20
316.80675574
  0
VERTEX
  8
0
 10
332.54789850
 20
318.82759332
  0
VERTEX
  8
0
 10
333.12079557
 20
320.91114862
  0
VERTEX
  8
0
 10
333.73349087
 20
323.07915907
  0
VERTEX
  8
0
 10
335.09837662
 20
327.75549524
  0
VERTEX
  8
0
 10
341.08657270
 20
348.00000000
  0
VERTEX
  8
0
 10
342.01064319
 20
351.04399549
  0
VERTEX
  8
0
 10
343.11510770
 20
354.52708965
  0
VERTEX
  8
0
 10
344.26135910
 20
358.01969400
  0
VERTEX
  8
0
 10
345.31079023
 20
361.09222007
  0
VERTEX
  8
0
 10
347.62550207
 20
367.68444014
  0
VERTEX
  8
0
 10
343.29994337
 20
373.09222007
  0
VERTEX
  8
0
 10
342.35959913
 20
374.31629754
  0
VERTEX
  8
0
 10
341.34425677
 20
375.72457681
  0
VERTEX
  8
0
 10
340.28601232
 20
377.26719197
  0
VERTEX
  8
0
 10
339.21696184
 20
378.89427715
  0
VERTEX
  8
0
 10
338.16920138
 20
380.55596643
  0
VERTEX
  8
0
 10
337.17482698
 20
382.20239393
  0
VERTEX
  8
0
 10
336.26593470
 20
383.78369375
  0
VERTEX
  8
0
 10
335.47462060
 20
385.25000000
  0
VERTEX
  8
0
 10
334.76226757
 20
386.60593262
  0
VERTEX
  8
0
 10
334.07968002
 20
387.87089844
  0
VERTEX
  8
0
 10
333.44308622
 20
389.01721191
  0
VERTEX
  8
0
 10
332.86871444
 20
390.01718750
  0
VERTEX
  8
0
 10
332.37279295
 20
390.84313965
  0
VERTEX
  8
0
 10
331.97155004
 20
391.46738281
  0
VERTEX
  8
0
 10
331.68121396
 20
391.86223145
  0
VERTEX
  8
0
 10
331.58270732
 20
391.96498108
  0
VERTEX
  8
0
 10
331.51801300
 20
392.00000000
  0
VERTEX
  8
0
 10
331.42462485
 20
391.93395319
  0
VERTEX
  8
0
 10
331.24192713
 20
391.74016408
  0
VERTEX
  8
0
 10
330.62805965
 20
390.99546686
  0
VERTEX
  8
0
 10
329.71532384
 20
389.81812418
  0
VERTEX
  8
0
 10
328.54263299
 20
388.26035188
  0
VERTEX
  8
0
 10
327.14890038
 20
386.37436577
  0
VERTEX
  8
0
 10
325.57303928
 20
384.21238170
  0
VERTEX
  8
0
 10
323.85396297
 20
381.82661549
  0
VERTEX
  8
0
 10
322.03058474
 20
379.26928298
  0
VERTEX
  8
0
 10
313.00000000
 20
366.53856597
  0
VERTEX
  8
0
 10
313.00263400
 20
341.01928298
  0
VERTEX
  8
0
 10
312.97895271
 20
334.71469834
  0
VERTEX
  8
0
 10
312.90515746
 20
328.64424815
  0
VERTEX
  8
0
 10
312.77911217
 20
322.78361377
  0
VERTEX
  8
0
 10
312.69582823
 20
319.92437793
  0
VERTEX
  8
0
 10
312.59868074
 20
317.10847657
  0
VERTEX
  8
0
 10
312.48740270
 20
314.33286985
  0
VERTEX
  8
0
 10
312.36172709
 20
311.59451793
  0
VERTEX
  8
0
 10
312.22138691
 20
308.89038100
  0
VERTEX
  8
0
 10
312.06611513
 20
306.21741922
  0
VERTEX
  8
0
 10
311.89564476
 20
303.57259277
  0
VERTEX
  8
0
 10
311.70970877
 20
300.95286181
  0
VERTEX
  8
0
 10
311.50804016
 20
298.35518652
  0
VERTEX
  8
0
 10
311.29037191
 20
295.77652707
  0
VERTEX
  8
0
 10
311.05643702
 20
293.21384363
  0
VERTEX
  8
0
 10
310.80596848
 20
290.66409637
  0
VERTEX
  8
0
 10
310.53869926
 20
288.12424546
  0
VERTEX
  8
0
 10
310.25436237
 20
285.59125108
  0
VERTEX
  8
0
 10
309.95269079
 20
283.06207339
  0
VERTEX
  8
0
 10
309.63341750
 20
280.53367257
  0
VERTEX
  8
0
 10
309.29627550
 20
278.00300879
  0
VERTEX
  8
0
 10
308.94099778
 20
275.46704221
  0
VERTEX
  8
0
 10
308.56731732
 20
272.92273302
  0
VERTEX
  8
0
 10
308.17496712
 20
270.36704138
  0
VERTEX
  8
0
 10
307.76368016
 20
267.79692747
  0
VERTEX
  8
0
 10
307.33318943
 20
265.20935144
  0
VERTEX
  8
0
 10
306.88322792
 20
262.60127349
  0
VERTEX
  8
0
 10
306.41352862
 20
259.96965377
  0
VERTEX
  8
0
 10
305.41384861
 20
254.62362974
  0
VERTEX
  8
0
 10
301.01227253
 20
231.74725947
  0
VERTEX
  8
0
 10
305.70787422
 20
225.94641286
  0
VERTEX
  8
0
 10
307.05798868
 20
224.30632583
  0
VERTEX
  8
0
 10
307.64358726
 20
223.62139724
  0
VERTEX
  8
0
 10
308.17619617
 20
223.02165321
  0
VERTEX
  8
0
 10
308.66080248
 20
222.50342467
  0
VERTEX
  8
0
 10
309.10239329
 20
222.06304258
  0
VERTEX
  8
0
 10
309.50595567
 20
221.69683788
  0
VERTEX
  8
0
 10
309.87647669
 20
221.40114153
  0
VERTEX
  8
0
 10
310.21894344
 20
221.17228447
  0
VERTEX
  8
0
 10
310.53834299
 20
221.00659765
  0
VERTEX
  8
0
 10
310.83966243
 20
220.90041202
  0
VERTEX
  8
0
 10
311.12788882
 20
220.85005852
  0
VERTEX
  8
0
 10
311.40800926
 20
220.85186811
  0
VERTEX
  8
0
 10
311.68501081
 20
220.90217172
  0
VERTEX
  8
0
 10
311.96388056
 20
220.99730032
  0
VERTEX
  8
0
 10
312.24960558
 20
221.13358485
  0
VERTEX
  8
0
 10
312.44267107
 20
221.24739498
  0
VERTEX
  8
0
 10
312.64014259
 20
221.38384163
  0
VERTEX
  8
0
 10
313.04253942
 20
221.71741500
  0
VERTEX
  8
0
 10
313.44526751
 20
222.11984606
  0
VERTEX
  8
0
 10
313.83679831
 20
222.57667589
  0
VERTEX
  8
0
 10
314.20560327
 20
223.07344560
  0
VERTEX
  8
0
 10
314.54015382
 20
223.59569626
  0
VERTEX
  8
0
 10
314.82892141
 20
224.12896896
  0
VERTEX
  8
0
 10
315.06037748
 20
224.65880481
  0
SEQEND
  0
POLYLINE
  8
Calque_par_d_faut
 62
256
 66
   1
 39
0.000000
 70
    1
  0
VERTEX
  8
0
 10
108.46139367
 20
229.98532190
  0
VERTEX
  8
0
 10
109.00696200
 20
230.20417323
  0
VERTEX
  8
0
 10
109.56420296
 20
230.44878488
  0
VERTEX
  8
0
 10
110.11746869
 20
230.71091129
  0
VERTEX
  8
0
 10
110.65111131
 20
230.98230689
  0
VERTEX
  8
0
 10
111.14948295
 20
231.25472611
  0
VERTEX
  8
0
 10
111.59693575
 20
231.51992339
  0
VERTEX
  8
0
 10
111.97782183
 20
231.76965315
  0
VERTEX
  8
0
 10
112.27649333
 20
231.99566984
  0
VERTEX
  8
0
 10
113.02639039
 20
232.58823497
  0
VERTEX
  8
0
 10
113.97281009
 20
233.27932801
  0
VERTEX
  8
0
 10
115.08281281
 20
234.04922617
  0
VERTEX
  8
0
 10
116.32345893
 20
234.87820663
  0
VERTEX
  8
0
 10
117.66180884
 20
235.74654658
  0
VERTEX
  8
0
 10
119.06492292
 20
236.63452323
  0
VERTEX
  8
0
 10
120.49986154
 20
237.52241376
  0
VERTEX
  8
0
 10
121.93368508
 20
238.39049537
  0
VERTEX
  8
0
 10
123.33345393
 20
239.21904524
  0
VERTEX
  8
0
 10
124.66622847
 20
239.98834059
  0
VERTEX
  8
0
 10
125.89906908
 20
240.67865858
  0
VERTEX
  8
0
 10
126.99903614
 20
241.27027643
  0
VERTEX
  8
0
 10
127.93319003
 20
241.74347132
  0
VERTEX
  8
0
 10
128.66859112
 20
242.07852045
  0
VERTEX
  8
0
 10
128.95146575
 20
242.18807698
  0
VERTEX
  8
0
 10
129.17229981
 20
242.25570101
  0
VERTEX
  8
0
 10
129.32697588
 20
242.27892720
  0
VERTEX
  8
0
 10
129.37821795
 20
242.27312068
  0
VERTEX
  8
0
 10
129.41137648
 20
242.25529019
  0
VERTEX
  8
0
 10
129.52961853
 20
242.15884396
  0
VERTEX
  8
0
 10
129.63992795
 20
242.11100197
  0
VERTEX
  8
0
 10
129.73989048
 20
242.10979848
  0
VERTEX
  8
0
 10
129.82709184
 20
242.15326775
  0
VERTEX
  8
0
 10
129.89911775
 20
242.23944402
  0
VERTEX
  8
0
 10
129.95355393
 20
242.36636156
  0
VERTEX
  8
0
 10
129.98798610
 20
242.53205463
  0
VERTEX
  8
0
 10
130.00000000
 20
242.73455746
  0
VERTEX
  8
0
 10
130.01823774
 20
242.85410155
  0
VERTEX
  8
0
 10
130.07174942
 20
242.99140739
  0
VERTEX
  8
0
 10
130.15873271
 20
243.14486410
  0
VERTEX
  8
0
 10
130.27738531
 20
243.31286077
  0
VERTEX
  8
0
 10
130.60248913
 20
243.68603044
  0
VERTEX
  8
0
 10
131.03264234
 20
244.09802923
  0
VERTEX
  8
0
 10
131.55342639
 20
244.53596996
  0
VERTEX
  8
0
 10
132.15042275
 20
244.98696547
  0
VERTEX
  8
0
 10
132.80921286
 20
245.43812859
  0
VERTEX
  8
0
 10
133.51537818
 20
245.87657214
  0
VERTEX
  8
0
 10
134.48005901
 20
246.47547400
  0
VERTEX
  8
0
 10
134.92005419
 20
246.77469459
  0
VERTEX
  8
0
 10
135.33230978
 20
247.07623711
  0
VERTEX
  8
0
 10
135.71719374
 20
247.38195818
  0
VERTEX
  8
0
 10
136.07507401
 20
247.69371441
  0
VERTEX
  8
0
 10
136.40631852
 20
248.01336244
  0
VERTEX
  8
0
 10
136.71129521
 20
248.34275886
  0
VERTEX
  8
0
 10
136.99037203
 20
248.68376030
  0
VERTEX
  8
0
 10
137.24391691
 20
249.03822339
  0
VERTEX
  8
0
 10
137.47229779
 20
249.40800472
  0
VERTEX
  8
0
 10
137.67588262
 20
249.79496094
  0
VERTEX
  8
0
 10
137.85503933
 20
250.20094864
  0
VERTEX
  8
0
 10
138.01013587
 20
250.62782445
  0
VERTEX
  8
0
 10
138.14154017
 20
251.07744499
  0
VERTEX
  8
0
 10
138.24962018
 20
251.55166687
  0
VERTEX
  8
0
 10
138.33474383
 20
252.05234672
  0
VERTEX
  8
0
 10
138.39727906
 20
252.58134115
  0
VERTEX
  8
0
 10
138.43759382
 20
253.14050677
  0
VERTEX
  8
0
 10
138.45605604
 20
253.73170021
  0
VERTEX
  8
0
 10
138.45303366
 20
254.35677809
  0
VERTEX
  8
0
 10
138.42889463
 20
255.01759701
  0
VERTEX
  8
0
 10
138.38400688
 20
255.71601361
  0
VERTEX
  8
0
 10
138.31873836
 20
256.45388449
  0
VERTEX
  8
0
 10
138.12853074
 20
258.05541558
  0
VERTEX
  8
0
 10
137.86121530
 20
259.83704324
  0
VERTEX
  8
0
 10
137.51973556
 20
261.81362040
  0
VERTEX
  8
0
 10
137.10703503
 20
264.00000000
  0
VERTEX
  8
0
 10
136.57692395
 20
266.79464170
  0
VERTEX
  8
0
 10
136.08822787
 20
269.53101024
  0
VERTEX
  8
0
 10
135.63897690
 20
272.23026396
  0
VERTEX
  8
0
 10
135.22720114
 20
274.91356119
  0
VERTEX
  8
0
 10
134.85093068
 20
277.60206026
  0
VERTEX
  8
0
 10
134.50819563
 20
280.31691950
  0
VERTEX
  8
0
 10
134.19702608
 20
283.07929725
  0
VERTEX
  8
0
 10
133.91545214
 20
285.91035182
  0
VERTEX
  8
0
 10
133.66150391
 20
288.83124156
  0
VERTEX
  8
0
 10
133.43321148
 20
291.86312479
  0
VERTEX
  8
0
 10
133.22860495
 20
295.02715985
  0
VERTEX
  8
0
 10
133.04571443
 20
298.34450507
  0
VERTEX
  8
0
 10
132.88257002
 20
301.83631878
  0
VERTEX
  8
0
 10
132.73720182
 20
305.52375931
  0
VERTEX
  8
0
 10
132.60763991
 20
309.42798498
  0
VERTEX
  8
0
 10
132.49191442
 20
313.57015414
  0
VERTEX
  8
0
 10
132.35218420
 20
319.71646970
  0
VERTEX
  8
0
 10
132.31085835
 20
322.37699668
  0
VERTEX
  8
0
 10
132.29130831
 20
324.81226955
  0
VERTEX
  8
0
 10
132.29559631
 20
327.05966311
  0
VERTEX
  8
0
 10
132.32578457
 20
329.15655218
  0
VERTEX
  8
0
 10
132.38393532
 20
331.14031157
  0
VERTEX
  8
0
 10
132.47211078
 20
333.04831609
  0
VERTEX
  8
0
 10
132.59237319
 20
334.91794054
  0
VERTEX
  8
0
 10
132.74678476
 20
336.78655975
  0
VERTEX
  8
0
 10
132.93740773
 20
338.69154851
  0
VERTEX
  8
0
 10
133.16630432
 20
340.67028165
  0
VERTEX
  8
0
 10
133.43553676
 20
342.76013397
  0
VERTEX
  8
0
 10
133.74716727
 20
344.99848029
  0
VERTEX
  8
0
 10
134.50587141
 20
350.07015414
  0
VERTEX
  8
0
 10
135.52911875
 20
356.58133774
  0
VERTEX
  8
0
 10
136.44590183
 20
362.16432905
  0
VERTEX
  8
0
 10
136.83305959
 20
364.42215730
  0
VERTEX
  8
0
 10
137.15602966
 20
366.22522311
  0
VERTEX
  8
0
 10
137.40228817
 20
367.49928837
  0
VERTEX
  8
0
 10
137.55931124
 20
368.17011496
  0
VERTEX
  8
0
 10
137.79770501
 20
368.96297865
  0
VERTEX
  8
0
 10
138.05888090
 20
369.88716238
  0
VERTEX
  8
0
 10
138.52308385
 20
371.67011496
  0
VERTEX
  8
0
 10
139.28293240
 20
374.79210055
  0
VERTEX
  8
0
 10
140.04524322
 20
377.83306877
  0
VERTEX
  8
0
 10
140.81153150
 20
380.79791447
  0
VERTEX
  8
0
 10
141.58331246
 20
383.69153252
  0
VERTEX
  8
0
 10
142.36210129
 20
386.51881776
  0
VERTEX
  8
0
 10
143.14941318
 20
389.28466507
  0
VERTEX
  8
0
 10
143.94676333
 20
391.99396929
  0
VERTEX
  8
0
 10
144.75566694
 20
394.65162530
  0
VERTEX
  8
0
 10
145.57763921
 20
397.26252794
  0
VERTEX
  8
0
 10
146.41419534
 20
399.83157208
  0
VERTEX
  8
0
 10
147.26685052
 20
402.36365258
  0
VERTEX
  8
0
 10
148.13711994
 20
404.86366430
  0
VERTEX
  8
0
 10
149.02651882
 20
407.33650209
  0
VERTEX
  8
0
 10
149.93656235
 20
409.78706081
  0
VERTEX
  8
0
 10
150.86876571
 20
412.22023533
  0
VERTEX
  8
0
 10
151.82464412
 20
414.64092050
  0
VERTEX
  8
0
 10
152.22605973
 20
415.68605440
  0
VERTEX
  8
0
 10
152.57651381
 20
416.68510372
  0
VERTEX
  8
0
 10
152.87005457
 20
417.61448449
  0
VERTEX
  8
0
 10
153.10073023
 20
418.45061271
  0
VERTEX
  8
0
 10
153.26258901
 20
419.16990441
  0
VERTEX
  8
0
 10
153.34967911
 20
419.74877560
  0
VERTEX
  8
0
 10
153.36332598
 20
419.97818350
  0
VERTEX
  8
0
 10
153.35604876
 20
420.16364229
  0
VERTEX
  8
0
 10
153.32710348
 20
420.30220396
  0
VERTEX
  8
0
 10
153.27574616
 20
420.39092050
  0
VERTEX
  8
0
 10
153.17720679
 20
420.51327173
  0
VERTEX
  8
0
 10
153.13130931
 20
420.62741465
  0
VERTEX
  8
0
 10
153.13576674
 20
420.73085110
  0
VERTEX
  8
0
 10
153.18829210
 20
420.82108290
  0
VERTEX
  8
0
 10
153.28659842
 20
420.89561186
  0
VERTEX
  8
0
 10
153.42839872
 20
420.95193982
  0
VERTEX
  8
0
 10
153.61140602
 20
420.98756859
  0
VERTEX
  8
0
 10
153.83333333
 20
421.00000000
  0
VERTEX
  8
0
 10
154.06769206
 20
421.02695143
  0
VERTEX
  8
0
 10
154.28632813
 20
421.10419501
  0
VERTEX
  8
0
 10
154.48445638
 20
421.22631465
  0
VERTEX
  8
0
 10
154.65729167
 20
421.38789428
  0
VERTEX
  8
0
 10
154.80004883
 20
421.58351783
  0
VERTEX
  8
0
 10
154.90794271
 20
421.80776921
  0
VERTEX
  8
0
 10
154.97618815
 20
422.05523235
  0
VERTEX
  8
0
 10
155.00000000
 20
422.32049117
  0
VERTEX
  8
0
 10
155.03891672
 20
422.53334342
  0
VERTEX
  8
0
 10
155.15310295
 20
422.89393649
  0
VERTEX
  8
0
 10
155.33871280
 20
423.39385186
  0
VERTEX
  8
0
 10
155.59190038
 20
424.02467097
  0
VERTEX
  8
0
 10
156.28562521
 20
425.64534633
  0
VERTEX
  8
0
 10
157.20351033
 20
427.68861427
  0
VERTEX
  8
0
 10
158.31478864
 20
430.08712650
  0
VERTEX
  8
0
 10
159.58869305
 20
432.77353473
  0
VERTEX
  8
0
 10
160.99445646
 20
435.68049066
  0
VERTEX
  8
0
 10
162.50131176
 20
438.74064602
  0
VERTEX
  8
0
 10
165.57713876
 20
444.98431182
  0
VERTEX
  8
0
 10
168.40670052
 20
450.82222722
  0
VERTEX
  8
0
 10
170.67599143
 20
455.60060304
  0
VERTEX
  8
0
 10
171.50240858
 20
457.38815448
  0
VERTEX
  8
0
 10
172.07100592
 20
458.66565008
  0
VERTEX
  8
0
 10
172.45787117
 20
459.57544662
  0
VERTEX
  8
0
 10
172.79278549
 20
460.40440814
  0
VERTEX
  8
0
 10
173.07540334
 20
461.19044144
  0
VERTEX
  8
0
 10
173.30537920
 20
461.97145333
  0
VERTEX
  8
0
 10
173.40051841
 20
462.37192211
  0
VERTEX
  8
0
 10
173.48236754
 20
462.78535060
  0
VERTEX
  8
0
 10
173.55088341
 20
463.21647712
  0
VERTEX
  8
0
 10
173.60602283
 20
463.67004004
  0
VERTEX
  8
0
 10
173.64774261
 20
464.15077771
  0
VERTEX
  8
0
 10
173.67599955
 20
464.66342847
  0
VERTEX
  8
0
 10
173.69195217
 20
465.80342267
  0
VERTEX
  8
0
 10
173.65353515
 20
467.12792944
  0
VERTEX
  8
0
 10
173.56040297
 20
468.67485559
  0
VERTEX
  8
0
 10
173.41221011
 20
470.48210791
  0
VERTEX
  8
0
 10
173.20861104
 20
472.58759319
  0
VERTEX
  8
0
 10
172.94926022
 20
475.02921825
  0
VERTEX
  8
0
 10
172.63381213
 20
477.84488987
  0
VERTEX
  8
0
 10
171.83324203
 20
484.75000000
  0
VERTEX
  8
0
 10
170.75305322
 20
494.00000000
  0
VERTEX
  8
0
 10
154.80913894
 20
494.00000000
  0
VERTEX
  8
0
 10
149.90126254
 20
493.99105972
  0
VERTEX
  8
0
 10
146.12289562
 20
493.95372260
  0
VERTEX
  8
0
 10
144.61383964
 20
493.91947573
  0
VERTEX
  8
0
 10
143.33503472
 20
493.87221425
  0
VERTEX
  8
0
 10
142.26910543
 20
493.80996637
  0
VERTEX
  8
0
 10
141.39867634
 20
493.73076027
  0
VERTEX
  8
0
 10
140.70637201
 20
493.63262417
  0
VERTEX
  8
0
 10
140.17481701
 20
493.51358626
  0
VERTEX
  8
0
 10
139.96389068
 20
493.44561294
  0
VERTEX
  8
0
 10
139.78663590
 20
493.37167474
  0
VERTEX
  8
0
 10
139.64088073
 20
493.29152519
  0
VERTEX
  8
0
 10
139.52445324
 20
493.20491781
  0
VERTEX
  8
0
 10
139.43518151
 20
493.11160613
  0
VERTEX
  8
0
 10
139.37089361
 20
493.01134367
  0
VERTEX
  8
0
 10
139.32941760
 20
492.90388396
  0
VERTEX
  8
0
 10
139.30858156
 20
492.78898052
  0
VERTEX
  8
0
 10
139.30621355
 20
492.66638688
  0
VERTEX
  8
0
 10
139.32014166
 20
492.53585657
  0
VERTEX
  8
0
 10
139.38819847
 20
492.25000000
  0
VERTEX
  8
0
 10
139.99049540
 20
490.16157333
  0
VERTEX
  8
0
 10
140.61421160
 20
487.86278748
  0
VERTEX
  8
0
 10
141.25184325
 20
485.38970009
  0
VERTEX
  8
0
 10
141.89588655
 20
482.77836879
  0
VERTEX
  8
0
 10
142.53883769
 20
480.06485122
  0
VERTEX
  8
0
 10
143.17319286
 20
477.28520502
  0
VERTEX
  8
0
 10
143.79144826
 20
474.47548783
  0
VERTEX
  8
0
 10
144.38610007
 20
471.67175727
  0
VERTEX
  8
0
 10
144.94964449
 20
468.91007099
  0
VERTEX
  8
0
 10
145.47457772
 20
466.22648663
  0
VERTEX
  8
0
 10
145.95339594
 20
463.65706181
  0
VERTEX
  8
0
 10
146.37859534
 20
461.23785418
  0
VERTEX
  8
0
 10
146.74267212
 20
459.00492137
  0
VERTEX
  8
0
 10
147.03812247
 20
456.99432102
  0
VERTEX
  8
0
 10
147.25744258
 20
455.24211076
  0
VERTEX
  8
0
 10
147.39312864
 20
453.78434824
  0
VERTEX
  8
0
 10
147.45889181
 20
452.71277627
  0
VERTEX
  8
0
 10
147.50726315
 20
451.61802515
  0
VERTEX
  8
0
 10
147.53849269
 20
450.50185010
  0
VERTEX
  8
0
 10
147.55283044
 20
449.36600637
  0
VERTEX
  8
0
 10
147.55052641
 20
448.21224916
  0
VERTEX
  8
0
 10
147.53183062
 20
447.04233371
  0
VERTEX
  8
0
 10
147.49699308
 20
445.85801525
  0
VERTEX
  8
0
 10
147.44626381
 20
444.66104900
  0
VERTEX
  8
0
 10
147.29813012
 20
442.23619405
  0
VERTEX
  8
0
 10
147.08942968
 20
439.78181068
  0
VERTEX
  8
0
 10
146.82216259
 20
437.31194070
  0
VERTEX
  8
0
 10
146.49832898
 20
434.84062592
  0
VERTEX
  8
0
 10
146.11992895
 20
432.38190818
  0
VERTEX
  8
0
 10
145.68896263
 20
429.94982928
  0
VERTEX
  8
0
 10
145.20743013
 20
427.55843103
  0
VERTEX
  8
0
 10
144.94832660
 20
426.38237522
  0
VERTEX
  8
0
 10
144.67733157
 20
425.22175526
  0
VERTEX
  8
0
 10
144.39469505
 20
424.07832637
  0
VERTEX
  8
0
 10
144.10066705
 20
422.95384378
  0
VERTEX
  8
0
 10
143.79549760
 20
421.85006272
  0
VERTEX
  8
0
 10
143.47943671
 20
420.76873842
  0
VERTEX
  8
0
 10
143.15273438
 20
419.71162609
  0
VERTEX
  8
0
 10
142.81564065
 20
418.68048097
  0
VERTEX
  8
0
 10
142.46840551
 20
417.67705829
  0
VERTEX
  8
0
 10
142.11127898
 20
416.70311327
  0
VERTEX
  8
0
 10
141.06323461
 20
413.94698882
  0
VERTEX
  8
0
 10
140.61259709
 20
412.80023862
  0
VERTEX
  8
0
 10
140.19096244
 20
411.77493431
  0
VERTEX
  8
0
 10
139.78339048
 20
410.84650429
  0
VERTEX
  8
0
 10
139.37494103
 20
409.99037696
  0
VERTEX
  8
0
 10
138.95067391
 20
409.18198072
  0
VERTEX
  8
0
 10
138.49564893
 20
408.39674398
  0
VERTEX
  8
0
 10
137.99492591
 20
407.61009513
  0
VERTEX
  8
0
 10
137.43356468
 20
406.79746258
  0
VERTEX
  8
0
 10
136.79662504
 20
405.93427472
  0
VERTEX
  8
0
 10
136.06916683
 20
404.99595997
  0
VERTEX
  8
0
 10
135.23624986
 20
403.95794672
  0
VERTEX
  8
0
 10
134.28293394
 20
402.79566337
  0
VERTEX
  8
0
 10
131.95534454
 20
400.00000000
  0
VERTEX
  8
0
 10
129.82847015
 20
397.42775371
  0
VERTEX
  8
0
 10
127.62198352
 20
394.71053233
  0
VERTEX
  8
0
 10
125.35032160
 20
391.86773144
  0
VERTEX
  8
0
 10
123.02792131
 20
388.91874656
  0
VERTEX
  8
0
 10
120.66921960
 20
385.88297326
  0
VERTEX
  8
0
 10
118.28865340
 20
382.77980709
  0
VERTEX
  8
0
 10
115.90065964
 20
379.62864360
  0
VERTEX
  8
0
 10
113.51967527
 20
376.44887833
  0
VERTEX
  8
0
 10
111.16013721
 20
373.25990684
  0
VERTEX
  8
0
 10
108.83648240
 20
370.08112469
  0
VERTEX
  8
0
 10
106.56314779
 20
366.93192741
  0
VERTEX
  8
0
 10
104.35457030
 20
363.83171056
  0
VERTEX
  8
0
 10
102.22518687
 20
360.79986970
  0
VERTEX
  8
0
 10
100.18943443
 20
357.85580037
  0
VERTEX
  8
0
 10
98.26174993
 20
355.01889812
  0
VERTEX
  8
0
 10
96.45657030
 20
352.30855851
  0
VERTEX
  8
0
 10
86.41314060
 20
337.05907069
  0
VERTEX
  8
0
 10
90.21052929
 20
308.77953534
  0
VERTEX
  8
0
 10
90.90062762
 20
303.84618193
  0
VERTEX
  8
0
 10
91.71158593
 20
298.39857864
  0
VERTEX
  8
0
 10
92.62335371
 20
292.54711905
  0
VERTEX
  8
0
 10
93.61588043
 20
286.40219676
  0
VERTEX
  8
0
 10
94.66911556
 20
280.07420534
  0
VERTEX
  8
0
 10
95.76300858
 20
273.67353837
  0
VERTEX
  8
0
 10
96.87750896
 20
267.31058944
  0
VERTEX
  8
0
 10
97.99256618
 20
261.09575213
  0
VERTEX
  8
0
 10
99.08812971
 20
255.13942002
  0
VERTEX
  8
0
 10
100.14414902
 20
249.55198670
  0
VERTEX
  8
0
 10
101.14057359
 20
244.44384574
  0
VERTEX
  8
0
 10
102.05735290
 20
239.92539073
  0
VERTEX
  8
0
 10
102.87443641
 20
236.10701525
  0
VERTEX
  8
0
 10
103.23932646
 20
234.49485533
  0
VERTEX
  8
0
 10
103.57177361
 20
233.09911289
  0
VERTEX
  8
0
 10
103.86927155
 20
231.93358712
  0
VERTEX
  8
0
 10
104.12931397
 20
231.01207722
  0
VERTEX
  8
0
 10
104.34939454
 20
230.34838239
  0
VERTEX
  8
0
 10
104.44366591
 20
230.11752788
  0
VERTEX
  8
0
 10
104.52700695
 20
229.95630183
  0
VERTEX
  8
0
 10
104.77502367
 20
229.56924919
  0
VERTEX
  8
0
 10
104.88844293
 20
229.41731070
  0
VERTEX
  8
0
 10
105.00233276
 20
229.29315296
  0
VERTEX
  8
0
 10
105.12234061
 20
229.19681763
  0
VERTEX
  8
0
 10
105.25411397
 20
229.12834638
  0
VERTEX
  8
0
 10
105.40330031
 20
229.08778085
  0
VERTEX
  8
0
 10
105.57554709
 20
229.07516270
  0
VERTEX
  8
0
 10
105.77650178
 20
229.09053359
  0
VERTEX
  8
0
 10
106.01181185
 20
229.13393516
  0
VERTEX
  8
0
 10
106.60808803
 20
229.30499702
  0
VERTEX
  8
0
 10
107.40955538
 20
229.58868152
  0
VERTEX
  8
0
 10
108.46139367
 20
229.98532190
  0
SEQEND
  0
POLYLINE
  8
Calque_par_d_faut
 62
256
 66
   1
 39
0.000000
 70
    1
  0
VERTEX
  8
0
 10
444.06574145
 20
230.03518376
  0
VERTEX
  8
0
 10
444.38239014
 20
230.23263857
  0
VERTEX
  8
0
 10
444.68036465
 20
230.47198164
  0
VERTEX
  8
0
 10
444.95706326
 20
230.74567536
  0
VERTEX
  8
0
 10
445.20988426
 20
231.04618216
  0
VERTEX
  8
0
 10
445.43622594
 20
231.36596443
  0
VERTEX
  8
0
 10
445.63348658
 20
231.69748459
  0
VERTEX
  8
0
 10
445.79906447
 20
232.03320504
  0
VERTEX
  8
0
 10
445.93035788
 20
232.36558820
  0
VERTEX
  8
0
 10
446.02476512
 20
232.68709648
  0
VERTEX
  8
0
 10
446.07968445
 20
232.99019227
  0
VERTEX
  8
0
 10
446.09251417
 20
233.26733801
  0
VERTEX
  8
0
 10
446.06065256
 20
233.51099608
  0
VERTEX
  8
0
 10
446.02714948
 20
233.61791175
  0
VERTEX
  8
0
 10
445.98149791
 20
233.71362891
  0
VERTEX
  8
0
 10
445.92337266
 20
233.79720536
  0
VERTEX
  8
0
 10
445.85244850
 20
233.86769890
  0
VERTEX
  8
0
 10
445.76840023
 20
233.92416733
  0
VERTEX
  8
0
 10
445.67090262
 20
233.96566846
  0
VERTEX
  8
0
 10
445.55963046
 20
233.99126008
  0
VERTEX
  8
0
 10
445.43425855
 20
234.00000000
  0
VERTEX
  8
0
 10
445.11990257
 20
233.97435933
  0
VERTEX
  8
0
 10
444.78280660
 20
233.90059234
  0
VERTEX
  8
0
 10
444.42890680
 20
233.78343159
  0
VERTEX
  8
0
 10
444.06413927
 20
233.62760961
  0
VERTEX
  8
0
 10
443.69444017
 20
233.43785894
  0
VERTEX
  8
0
 10
443.32574562
 20
233.21891214
  0
VERTEX
  8
0
 10
442.96399176
 20
232.97550175
  0
VERTEX
  8
0
 10
442.61511472
 20
232.71236031
  0
VERTEX
  8
0
 10
442.28505063
 20
232.43422036
  0
VERTEX
  8
0
 10
441.97973563
 20
232.14581445
  0
VERTEX
  8
0
 10
441.70510586
 20
231.85187512
  0
VERTEX
  8
0
 10
441.46709744
 20
231.55713491
  0
VERTEX
  8
0
 10
441.27164651
 20
231.26632638
  0
VERTEX
  8
0
 10
441.12468920
 20
230.98418206
  0
VERTEX
  8
0
 10
441.03216166
 20
230.71543450
  0
VERTEX
  8
0
 10
441.00816408
 20
230.58756342
  0
VERTEX
  8
0
 10
441.00000000
 20
230.46481624
  0
VERTEX
  8
0
 10
441.00614970
 20
230.15838381
  0
VERTEX
  8
0
 10
441.02615234
 20
229.89075279
  0
VERTEX
  8
0
 10
441.06233829
 20
229.66159658
  0
VERTEX
  8
0
 10
441.11703787
 20
229.47058862
  0
VERTEX
  8
0
 10
441.19258144
 20
229.31740234
  0
VERTEX
  8
0
 10
441.29129933
 20
229.20171117
  0
VERTEX
  8
0
 10
441.41552189
 20
229.12318852
  0
VERTEX
  8
0
 10
441.56757945
 20
229.08150782
  0
VERTEX
  8
0
 10
441.74980237
 20
229.07634251
  0
VERTEX
  8
0
 10
441.96452098
 20
229.10736600
  0
VERTEX
  8
0
 10
442.21406564
 20
229.17425172
  0
VERTEX
  8
0
 10
442.50076667
 20
229.27667311
  0
VERTEX
  8
0
 10
442.82695442
 20
229.41430358
  0
VERTEX
  8
0
 10
443.19495924
 20
229.58681656
  0
VERTEX
  8
0
 10
444.06574145
 20
230.03518376
  0
SEQEND
  0
POLYLINE
  8
Calque_par_d_faut
 62
256
 66
   1
 39
0.000000
 70
    1
  0
VERTEX
  8
0
 10
285.10095702
 20
249.00000000
  0
VERTEX
  8
0
 10
285.39930216
 20
249.45616185
  0
VERTEX
  8
0
 10
285.68630889
 20
249.98968216
  0
VERTEX
  8
0
 10
285.96635776
 20
250.62184377
  0
VERTEX
  8
0
 10
286.24382932
 20
251.37392953
  0
VERTEX
  8
0
 10
286.52310410
 20
252.26722229
  0
VERTEX
  8
0
 10
286.80856267
 20
253.32300491
  0
VERTEX
  8
0
 10
287.10458557
 20
254.56256023
  0
VERTEX
  8
0
 10
287.41555335
 20
256.00717110
  0
VERTEX
  8
0
 10
287.74584655
 20
257.67812038
  0
VERTEX
  8
0
 10
288.09984572
 20
259.59669091
  0
VERTEX
  8
0
 10
288.48193142
 20
261.78416554
  0
VERTEX
  8
0
 10
288.89648418
 20
264.26182713
  0
VERTEX
  8
0
 10
289.84051312
 20
270.17284256
  0
VERTEX
  8
0
 10
290.96697691
 20
277.50000000
  0
VERTEX
  8
0
 10
291.45714213
 20
280.91220122
  0
VERTEX
  8
0
 10
291.89730674
 20
284.32953546
  0
VERTEX
  8
0
 10
292.27444131
 20
287.61019319
  0
VERTEX
  8
0
 10
292.57551640
 20
290.61236486
  0
VERTEX
  8
0
 10
292.78750258
 20
293.19424091
  0
VERTEX
  8
0
 10
292.85601563
 20
294.28325261
  0
VERTEX
  8
0
 10
292.89737042
 20
295.21401182
  0
VERTEX
  8
0
 10
292.90993825
 20
295.96879236
  0
VERTEX
  8
0
 10
292.89209047
 20
296.52986803
  0
VERTEX
  8
0
 10
292.87125175
 20
296.73222711
  0
VERTEX
  8
0
 10
292.84219837
 20
296.87951264
  0
VERTEX
  8
0
 10
292.80472675
 20
296.96950886
  0
VERTEX
  8
0
 10
292.75863330
 20
297.00000000
  0
VERTEX
  8
0
 10
292.69053547
 20
296.96757507
  0
VERTEX
  8
0
 10
292.58554388
 20
296.87243652
  0
VERTEX
  8
0
 10
292.27366950
 20
296.50683594
  0
VERTEX
  8
0
 10
291.84059030
 20
295.92883301
  0
VERTEX
  8
0
 10
291.30388643
 20
295.16406250
  0
VERTEX
  8
0
 10
290.68113803
 20
294.23815918
  0
VERTEX
  8
0
 10
289.98992524
 20
293.17675781
  0
VERTEX
  8
0
 10
289.24782820
 20
292.00549316
  0
VERTEX
  8
0
 10
288.47242706
 20
290.75000000
  0
VERTEX
  8
0
 10
287.57099168
 20
289.31081543
  0
VERTEX
  8
0
 10
286.46767687
 20
287.61308594
  0
VERTEX
  8
0
 10
285.20539023
 20
285.71936035
  0
VERTEX
  8
0
 10
283.82703938
 20
283.69218750
  0
VERTEX
  8
0
 10
282.37553190
 20
281.59411621
  0
VERTEX
  8
0
 10
280.89377540
 20
279.48769531
  0
VERTEX
  8
0
 10
279.42467747
 20
277.43547363
  0
VERTEX
  8
0
 10
278.01114572
 20
275.50000000
  0
VERTEX
  8
0
 10
275.29083381
 20
271.78949540
  0
VERTEX
  8
0
 10
272.83604566
 20
268.38096133
  0
VERTEX
  8
0
 10
270.64348914
 20
265.26951998
  0
VERTEX
  8
0
 10
268.70987208
 20
262.45029355
  0
VERTEX
  8
0
 10
267.03190236
 20
259.91840420
  0
VERTEX
  8
0
 10
266.28775646
 20
258.75868663
  0
VERTEX
  8
0
 10
265.60628783
 20
257.66897415
  0
VERTEX
  8
0
 10
264.98708496
 20
256.64865703
  0
VERTEX
  8
0
 10
264.42973633
 20
255.69712556
  0
VERTEX
  8
0
 10
263.93383043
 20
254.81376999
  0
VERTEX
  8
0
 10
263.49895574
 20
253.99798062
  0
VERTEX
  8
0
 10
262.97485240
 20
252.94004060
  0
VERTEX
  8
0
 10
262.55880288
 20
252.00968744
  0
VERTEX
  8
0
 10
262.25579713
 20
251.22782915
  0
VERTEX
  8
0
 10
262.14824504
 20
250.89911932
  0
VERTEX
  8
0
 10
262.07082512
 20
250.61537370
  0
VERTEX
  8
0
 10
262.02416112
 20
250.37920579
  0
VERTEX
  8
0
 10
262.00887679
 20
250.19322909
  0
VERTEX
  8
0
 10
262.02559587
 20
250.06005709
  0
VERTEX
  8
0
 10
262.07494211
 20
249.98230330
  0
VERTEX
  8
0
 10
262.11204533
 20
249.96502495
  0
VERTEX
  8
0
 10
262.15753924
 20
249.96258121
  0
VERTEX
  8
0
 10
262.27401102
 20
250.00350432
  0
VERTEX
  8
0
 10
262.42498119
 20
250.10768614
  0
VERTEX
  8
0
 10
262.61107349
 20
250.27774015
  0
VERTEX
  8
0
 10
262.69998281
 20
250.33028481
  0
VERTEX
  8
0
 10
262.83871155
 20
250.36231534
  0
VERTEX
  8
0
 10
263.02431171
 20
250.37447743
  0
VERTEX
  8
0
 10
263.25383528
 20
250.36741677
  0
VERTEX
  8
0
 10
263.83286069
 20
250.29820991
  0
VERTEX
  8
0
 10
264.55220380
 20
250.15986028
  0
VERTEX
  8
0
 10
265.38828061
 20
249.95753336
  0
VERTEX
  8
0
 10
266.31750716
 20
249.69639464
  0
VERTEX
  8
0
 10
267.31629944
 20
249.38160961
  0
VERTEX
  8
0
 10
268.36107349
 20
249.01834378
  0
VERTEX
  8
0
 10
270.19445433
 20
248.36817114
  0
VERTEX
  8
0
 10
271.88900232
 20
247.80457245
  0
VERTEX
  8
0
 10
273.45197770
 20
247.32753975
  0
VERTEX
  8
0
 10
274.89064070
 20
246.93706509
  0
VERTEX
  8
0
 10
276.21225156
 20
246.63314050
  0
VERTEX
  8
0
 10
276.83143125
 20
246.51363201
  0
VERTEX
  8
0
 10
277.42407051
 20
246.41575805
  0
VERTEX
  8
0
 10
277.99107684
 20
246.33951763
  0
VERTEX
  8
0
 10
278.53335779
 20
246.28490976
  0
VERTEX
  8
0
 10
279.05182087
 20
246.25193344
  0
VERTEX
  8
0
 10
279.54737363
 20
246.24058768
  0
VERTEX
  8
0
 10
280.02092359
 20
246.25087148
  0
VERTEX
  8
0
 10
280.47337828
 20
246.28278386
  0
VERTEX
  8
0
 10
280.90564523
 20
246.33632381
  0
VERTEX
  8
0
 10
281.31863196
 20
246.41149034
  0
VERTEX
  8
0
 10
281.71324601
 20
246.50828245
  0
VERTEX
  8
0
 10
282.09039492
 20
246.62669916
  0
VERTEX
  8
0
 10
282.45098619
 20
246.76673947
  0
VERTEX
  8
0
 10
282.79592738
 20
246.92840237
  0
VERTEX
  8
0
 10
283.12612600
 20
247.11168689
  0
VERTEX
  8
0
 10
283.44248958
 20
247.31659202
  0
VERTEX
  8
0
 10
283.74592566
 20
247.54311677
  0
VERTEX
  8
0
 10
284.03734177
 20
247.79126014
  0
VERTEX
  8
0
 10
284.31764543
 20
248.06102115
  0
VERTEX
  8
0
 10
284.58774417
 20
248.35239879
  0
VERTEX
  8
0
 10
284.84854552
 20
248.66539207
  0
VERTEX
  8
0
 10
285.10095702
 20
249.00000000
  0
SEQEND
  0
POLYLINE
  8
Calque_par_d_faut
 62
256
 66
   1
 39
0.000000
 70
    1
  0
VERTEX
  8
0
 10
447.02545336
 20
257.09425042
  0
VERTEX
  8
0
 10
447.97660830
 20
257.61580548
  0
VERTEX
  8
0
 10
448.91943315
 20
258.16183916
  0
VERTEX
  8
0
 10
449.85320586
 20
258.73156005
  0
VERTEX
  8
0
 10
450.77720433
 20
259.32417672
  0
VERTEX
  8
0
 10
451.69070651
 20
259.93889777
  0
VERTEX
  8
0
 10
452.59299030
 20
260.57493178
  0
VERTEX
  8
0
 10
453.48333363
 20
261.23148734
  0
VERTEX
  8
0
 10
454.36101443
 20
261.90777305
  0
VERTEX
  8
0
 10
455.22531063
 20
262.60299748
  0
VERTEX
  8
0
 10
456.07550013
 20
263.31636923
  0
VERTEX
  8
0
 10
456.91086088
 20
264.04709689
  0
VERTEX
  8
0
 10
457.73067078
 20
264.79438903
  0
VERTEX
  8
0
 10
458.53420777
 20
265.55745425
  0
VERTEX
  8
0
 10
459.32074977
 20
266.33550114
  0
VERTEX
  8
0
 10
460.08957471
 20
267.12773828
  0
VERTEX
  8
0
 10
460.83996050
 20
267.93337427
  0
VERTEX
  8
0
 10
461.57118507
 20
268.75161768
  0
VERTEX
  8
0
 10
462.28252635
 20
269.58167711
  0
VERTEX
  8
0
 10
462.97326225
 20
270.42276115
  0
VERTEX
  8
0
 10
463.64267071
 20
271.27407837
  0
VERTEX
  8
0
 10
464.29002964
 20
272.13483738
  0
VERTEX
  8
0
 10
464.91461697
 20
273.00424676
  0
VERTEX
  8
0
 10
465.51571062
 20
273.88151508
  0
VERTEX
  8
0
 10
466.09258852
 20
274.76585096
  0
VERTEX
  8
0
 10
466.64452860
 20
275.65646296
  0
VERTEX
  8
0
 10
467.17080876
 20
276.55255968
  0
VERTEX
  8
0
 10
467.67070695
 20
277.45334971
  0
VERTEX
  8
0
 10
468.14350108
 20
278.35804163
  0
VERTEX
  8
0
 10
468.58846907
 20
279.26584403
  0
VERTEX
  8
0
 10
469.00488885
 20
280.17596550
  0
VERTEX
  8
0
 10
469.39203835
 20
281.08761463
  0
VERTEX
  8
0
 10
469.74919548
 20
282.00000000
  0
VERTEX
  8
0
 10
472.56381255
 20
289.50000000
  0
VERTEX
  8
0
 10
472.71192392
 20
289.91722051
  0
VERTEX
  8
0
 10
472.84373501
 20
290.33634174
  0
VERTEX
  8
0
 10
472.95681600
 20
290.74605323
  0
VERTEX
  8
0
 10
473.04873707
 20
291.13504450
  0
VERTEX
  8
0
 10
473.11706840
 20
291.49200511
  0
VERTEX
  8
0
 10
473.15938018
 20
291.80562459
  0
VERTEX
  8
0
 10
473.17324258
 20
292.06459248
  0
VERTEX
  8
0
 10
473.15622578
 20
292.25759831
  0
VERTEX
  8
0
 10
473.14470808
 20
292.50296491
  0
VERTEX
  8
0
 10
473.17433104
 20
292.91200028
  0
VERTEX
  8
0
 10
473.24155975
 20
293.46287169
  0
VERTEX
  8
0
 10
473.34285933
 20
294.13374642
  0
VERTEX
  8
0
 10
473.63353146
 20
295.74817493
  0
VERTEX
  8
0
 10
474.01806823
 20
297.58062404
  0
VERTEX
  8
0
 10
474.23573305
 20
298.51756367
  0
VERTEX
  8
0
 10
474.42071480
 20
299.33375199
  0
VERTEX
  8
0
 10
474.49310653
 20
299.70550610
  0
VERTEX
  8
0
 10
474.54791590
 20
300.05780240
  0
VERTEX
  8
0
 10
474.58200573
 20
300.39421756
  0
VERTEX
  8
0
 10
474.59223882
 20
300.71832827
  0
VERTEX
  8
0
 10
474.57547797
 20
301.03371120
  0
VERTEX
  8
0
 10
474.52858598
 20
301.34394301
  0
VERTEX
  8
0
 10
474.44842567
 20
301.65260039
  0
VERTEX
  8
0
 10
474.33185984
 20
301.96326001
  0
VERTEX
  8
0
 10
474.17575130
 20
302.27949853
  0
VERTEX
  8
0
 10
473.97696284
 20
302.60489264
  0
VERTEX
  8
0
 10
473.73235728
 20
302.94301902
  0
VERTEX
  8
0
 10
473.43879742
 20
303.29745432
  0
VERTEX
  8
0
 10
473.09314606
 20
303.67177523
  0
VERTEX
  8
0
 10
472.69226602
 20
304.06955842
  0
VERTEX
  8
0
 10
472.23302009
 20
304.49438056
  0
VERTEX
  8
0
 10
471.71227109
 20
304.94981834
  0
VERTEX
  8
0
 10
470.47371507
 20
305.96684746
  0
VERTEX
  8
0
 10
468.95150040
 20
307.14925919
  0
VERTEX
  8
0
 10
467.12052953
 20
308.52566690
  0
VERTEX
  8
0
 10
464.95570491
 20
310.12468399
  0
VERTEX
  8
0
 10
459.52410416
 20
314.10499988
  0
VERTEX
  8
0
 10
456.29732286
 20
316.45452090
  0
VERTEX
  8
0
 10
453.74390046
 20
318.26486436
  0
VERTEX
  8
0
 10
452.69320701
 20
318.98192434
  0
VERTEX
  8
0
 10
451.77906308
 20
319.58108572
  0
VERTEX
  8
0
 10
450.99087195
 20
320.06798045
  0
VERTEX
  8
0
 10
450.31803687
 20
320.44824046
  0
VERTEX
  8
0
 10
449.74996112
 20
320.72749768
  0
VERTEX
  8
0
 10
449.27604797
 20
320.91138404
  0
VERTEX
  8
0
 10
449.07109089
 20
320.96932314
  0
VERTEX
  8
0
 10
448.88570068
 20
321.00553149
  0
VERTEX
  8
0
 10
448.71855275
 20
321.02071310
  0
VERTEX
  8
0
 10
448.56832251
 20
321.01557195
  0
VERTEX
  8
0
 10
448.43368537
 20
320.99081204
  0
VERTEX
  8
0
 10
448.31331674
 20
320.94713735
  0
VERTEX
  8
0
 10
448.20589203
 20
320.88525189
  0
VERTEX
  8
0
 10
448.11008664
 20
320.80585964
  0
VERTEX
  8
0
 10
448.02457598
 20
320.70966459
  0
VERTEX
  8
0
 10
447.94803547
 20
320.59737074
  0
VERTEX
  8
0
 10
447.81656649
 20
320.32730259
  0
VERTEX
  8
0
 10
447.71942015
 20
319.97564906
  0
VERTEX
  8
0
 10
447.58296499
 20
319.31656215
  0
VERTEX
  8
0
 10
447.20324862
 20
317.15663596
  0
VERTEX
  8
0
 10
446.69965817
 20
314.00861963
  0
VERTEX
  8
0
 10
446.09443442
 20
310.03360875
  0
VERTEX
  8
0
 10
445.40981817
 20
305.39269894
  0
VERTEX
  8
0
 10
444.66805021
 20
300.24698581
  0
VERTEX
  8
0
 10
443.10202231
 20
289.08553195
  0
VERTEX
  8
0
 10
441.57427702
 20
277.83801204
  0
VERTEX
  8
0
 10
440.88036233
 20
272.58471631
  0
VERTEX
  8
0
 10
440.26274066
 20
267.79319089
  0
VERTEX
  8
0
 10
439.74365281
 20
263.62453136
  0
VERTEX
  8
0
 10
439.34533955
 20
260.23983334
  0
VERTEX
  8
0
 10
439.09004169
 20
257.80019243
  0
VERTEX
  8
0
 10
439.02297377
 20
256.98511077
  0
VERTEX
  8
0
 10
439.00000000
 20
256.46670424
  0
VERTEX
  8
0
 10
439.01308005
 20
255.90705292
  0
VERTEX
  8
0
 10
439.05719205
 20
255.42458467
  0
VERTEX
  8
0
 10
439.13964374
 20
255.01987092
  0
VERTEX
  8
0
 10
439.19753064
 20
254.84685055
  0
VERTEX
  8
0
 10
439.26774287
 20
254.69348310
  0
VERTEX
  8
0
 10
439.35119389
 20
254.55983998
  0
VERTEX
  8
0
 10
439.44879719
 20
254.44599263
  0
VERTEX
  8
0
 10
439.56146621
 20
254.35201247
  0
VERTEX
  8
0
 10
439.69011444
 20
254.27797093
  0
VERTEX
  8
0
 10
439.83565534
 20
254.22393945
  0
VERTEX
  8
0
 10
439.99900238
 20
254.18998945
  0
VERTEX
  8
0
 10
440.18106903
 20
254.17619235
  0
VERTEX
  8
0
 10
440.38276876
 20
254.18261959
  0
VERTEX
  8
0
 10
440.60501504
 20
254.20934259
  0
VERTEX
  8
0
 10
440.84872132
 20
254.25643278
  0
VERTEX
  8
0
 10
441.40416782
 20
254.41200045
  0
VERTEX
  8
0
 10
442.05641600
 20
254.64989403
  0
VERTEX
  8
0
 10
442.81277361
 20
254.97068495
  0
VERTEX
  8
0
 10
443.68054841
 20
255.37494461
  0
VERTEX
  8
0
 10
444.66704813
 20
255.86324447
  0
VERTEX
  8
0
 10
447.02545336
 20
257.09425042
  0
SEQEND
  0
POLYLINE
  8
Calque_par_d_faut
 62
256
 66
   1
 39
0.000000
 70
    1
  0
VERTEX
  8
0
 10
251.00000000
 20
263.05901699
  0
VERTEX
  8
0
 10
251.02039377
 20
263.25914713
  0
VERTEX
  8
0
 10
251.07884290
 20
263.42148584
  0
VERTEX
  8
0
 10
251.17124913
 20
263.54422239
  0
VERTEX
  8
0
 10
251.29351418
 20
263.62554601
  0
VERTEX
  8
0
 10
251.44153978
 20
263.66364595
  0
VERTEX
  8
0
 10
251.61122766
 20
263.65671146
  0
VERTEX
  8
0
 10
251.79847956
 20
263.60293178
  0
VERTEX
  8
0
 10
251.99919720
 20
263.50049616
  0
VERTEX
  8
0
 10
252.11187568
 20
263.45605058
  0
VERTEX
  8
0
 10
252.24276756
 20
263.44907580
  0
VERTEX
  8
0
 10
252.39028412
 20
263.47806400
  0
VERTEX
  8
0
 10
252.55283661
 20
263.54150734
  0
VERTEX
  8
0
 10
252.72883632
 20
263.63789799
  0
VERTEX
  8
0
 10
252.91669451
 20
263.76572813
  0
VERTEX
  8
0
 10
253.11482247
 20
263.92348993
  0
VERTEX
  8
0
 10
253.32163145
 20
264.10967556
  0
VERTEX
  8
0
 10
253.75493760
 20
264.56128701
  0
VERTEX
  8
0
 10
254.20390313
 20
265.10849984
  0
VERTEX
  8
0
 10
254.65581823
 20
265.73925144
  0
VERTEX
  8
0
 10
255.09797307
 20
266.44147917
  0
VERTEX
  8
0
 10
255.54152995
 20
267.15631094
  0
VERTEX
  8
0
 10
255.99746336
 20
267.82318608
  0
VERTEX
  8
0
 10
256.45278171
 20
268.42750910
  0
VERTEX
  8
0
 10
256.89449343
 20
268.95468451
  0
VERTEX
  8
0
 10
257.30960694
 20
269.39011679
  0
VERTEX
  8
0
 10
257.68513068
 20
269.71921047
  0
VERTEX
  8
0
 10
257.85398652
 20
269.83931923
  0
VERTEX
  8
0
 10
258.00807307
 20
269.92737003
  0
VERTEX
  8
0
 10
258.14576639
 20
269.98153844
  0
VERTEX
  8
0
 10
258.26544254
 20
270.00000000
  0
VERTEX
  8
0
 10
258.46757938
 20
270.01237989
  0
VERTEX
  8
0
 10
258.63222349
 20
270.04786102
  0
VERTEX
  8
0
 10
258.75748267
 20
270.10395556
  0
VERTEX
  8
0
 10
258.84146473
 20
270.17817568
  0
VERTEX
  8
0
 10
258.88227747
 20
270.26803356
  0
VERTEX
  8
0
 10
258.87802870
 20
270.37104137
  0
VERTEX
  8
0
 10
258.82682622
 20
270.48471130
  0
VERTEX
  8
0
 10
258.72677783
 20
270.60655550
  0
VERTEX
  8
0
 10
258.67010510
 20
270.67427608
  0
VERTEX
  8
0
 10
258.62505927
 20
270.75173759
  0
VERTEX
  8
0
 10
258.56907002
 20
270.93229455
  0
VERTEX
  8
0
 10
258.55725351
 20
271.14104865
  0
VERTEX
  8
0
 10
258.58805319
 20
271.37082215
  0
VERTEX
  8
0
 10
258.65991250
 20
271.61443732
  0
VERTEX
  8
0
 10
258.77127487
 20
271.86471642
  0
VERTEX
  8
0
 10
258.92058374
 20
272.11448173
  0
VERTEX
  8
0
 10
259.10628254
 20
272.35655550
  0
VERTEX
  8
0
 10
259.46623846
 20
272.83117126
  0
VERTEX
  8
0
 10
260.11497321
 20
273.74740856
  0
VERTEX
  8
0
 10
262.13248028
 20
276.68911318
  0
VERTEX
  8
0
 10
264.86620585
 20
280.75040008
  0
VERTEX
  8
0
 10
268.02355201
 20
285.50000000
  0
VERTEX
  8
0
 10
271.18378291
 20
290.25467747
  0
VERTEX
  8
0
 10
273.92536299
 20
294.32978940
  0
VERTEX
  8
0
 10
275.95449473
 20
297.29195506
  0
VERTEX
  8
0
 10
276.61008075
 20
298.22025156
  0
VERTEX
  8
0
 10
276.97738063
 20
298.70779371
  0
VERTEX
  8
0
 10
277.18280329
 20
298.96959102
  0
VERTEX
  8
0
 10
277.37444456
 20
299.25089630
  0
VERTEX
  8
0
 10
277.54811009
 20
299.54290196
  0
VERTEX
  8
0
 10
277.69960556
 20
299.83680040
  0
VERTEX
  8
0
 10
277.82473662
 20
300.12378402
  0
VERTEX
  8
0
 10
277.91930894
 20
300.39504522
  0
VERTEX
  8
0
 10
277.97912818
 20
300.64177641
  0
VERTEX
  8
0
 10
278.00000000
 20
300.85516999
  0
VERTEX
  8
0
 10
278.01722046
 20
300.99100734
  0
VERTEX
  8
0
 10
278.06752770
 20
301.18831363
  0
VERTEX
  8
0
 10
278.25927781
 20
301.75064705
  0
VERTEX
  8
0
 10
278.55900084
 20
302.50879840
  0
VERTEX
  8
0
 10
278.95044733
 20
303.42939582
  0
VERTEX
  8
0
 10
279.94351272
 20
305.62444140
  0
VERTEX
  8
0
 10
281.10847814
 20
308.06880890
  0
VERTEX
  8
0
 10
282.31534775
 20
310.49552340
  0
VERTEX
  8
0
 10
283.43412569
 20
312.63761002
  0
VERTEX
  8
0
 10
283.91985659
 20
313.51848822
  0
VERTEX
  8
0
 10
284.33481613
 20
314.22809385
  0
VERTEX
  8
0
 10
284.66275483
 20
314.73305507
  0
VERTEX
  8
0
 10
284.78901341
 20
314.89836531
  0
VERTEX
  8
0
 10
284.88742322
 20
315.00000000
  0
VERTEX
  8
0
 10
285.03744440
 20
315.15651118
  0
VERTEX
  8
0
 10
285.20858782
 20
315.40119722
  0
VERTEX
  8
0
 10
285.40315327
 20
315.74015603
  0
VERTEX
  8
0
 10
285.62344057
 20
316.17948554
  0
VERTEX
  8
0
 10
285.87174951
 20
316.72528369
  0
VERTEX
  8
0
 10
286.15037990
 20
317.38364839
  0
VERTEX
  8
0
 10
286.80780425
 20
319.06246917
  0
VERTEX
  8
0
 10
287.61411205
 20
321.26473130
  0
VERTEX
  8
0
 10
288.58770175
 20
324.03921821
  0
VERTEX
  8
0
 10
289.74697178
 20
327.43471330
  0
VERTEX
  8
0
 10
291.11032056
 20
331.50000000
  0
VERTEX
  8
0
 10
293.39786976
 20
338.29687500
  0
VERTEX
  8
0
 10
294.22581933
 20
340.70742188
  0
VERTEX
  8
0
 10
294.68675008
 20
342.00000000
  0
VERTEX
  8
0
 10
294.80899916
 20
342.34804803
  0
VERTEX
  8
0
 10
294.93503197
 20
342.76308013
  0
VERTEX
  8
0
 10
295.18398710
 20
343.73192456
  0
VERTEX
  8
0
 10
295.40469212
 20
344.78218930
  0
VERTEX
  8
0
 10
295.56822367
 20
345.78953041
  0
VERTEX
  8
0
 10
295.61169262
 20
346.15491483
  0
VERTEX
  8
0
 10
295.63496424
 20
346.46621118
  0
VERTEX
  8
0
 10
295.63329915
 20
346.72165221
  0
VERTEX
  8
0
 10
295.60195798
 20
346.91947063
  0
VERTEX
  8
0
 10
295.53620134
 20
347.05789920
  0
VERTEX
  8
0
 10
295.48893617
 20
347.10429002
  0
VERTEX
  8
0
 10
295.43128986
 20
347.13517065
  0
VERTEX
  8
0
 10
295.36267000
 20
347.15032018
  0
VERTEX
  8
0
 10
295.28248415
 20
347.14951772
  0
VERTEX
  8
0
 10
295.08504484
 20
347.09917314
  0
VERTEX
  8
0
 10
294.83423255
 20
346.98236966
  0
VERTEX
  8
0
 10
294.52530790
 20
346.79734001
  0
VERTEX
  8
0
 10
294.15353150
 20
346.54231693
  0
VERTEX
  8
0
 10
293.71416398
 20
346.21553316
  0
VERTEX
  8
0
 10
292.61369806
 20
345.33961450
  0
VERTEX
  8
0
 10
291.18599511
 20
344.15544593
  0
VERTEX
  8
0
 10
287.42543440
 20
340.96556333
  0
VERTEX
  8
0
 10
283.25930921
 20
337.36400681
  0
VERTEX
  8
0
 10
278.95737163
 20
333.59192374
  0
VERTEX
  8
0
 10
274.78937375
 20
329.89046148
  0
VERTEX
  8
0
 10
271.02506766
 20
326.50076741
  0
VERTEX
  8
0
 10
267.93420545
 20
323.66398889
  0
VERTEX
  8
0
 10
266.72561333
 20
322.52830152
  0
VERTEX
  8
0
 10
265.78653921
 20
321.62127331
  0
VERTEX
  8
0
 10
265.15070211
 20
320.97304767
  0
VERTEX
  8
0
 10
264.95703463
 20
320.75540563
  0
VERTEX
  8
0
 10
264.85182104
 20
320.61376802
  0
VERTEX
  8
0
 10
264.77176653
 20
320.43027322
  0
VERTEX
  8
0
 10
264.66643553
 20
320.11449841
  0
VERTEX
  8
0
 10
264.38681772
 20
319.11607841
  0
VERTEX
  8
0
 10
264.02671498
 20
317.67844729
  0
VERTEX
  8
0
 10
263.59987466
 20
315.86154436
  0
VERTEX
  8
0
 10
263.12004412
 20
313.72530887
  0
VERTEX
  8
0
 10
262.60097070
 20
311.32968013
  0
VERTEX
  8
0
 10
262.05640178
 20
308.73459741
  0
VERTEX
  8
0
 10
261.50008470
 20
306.00000000
  0
VERTEX
  8
0
 10
261.05748144
 20
303.82916150
  0
VERTEX
  8
0
 10
260.61649840
 20
301.75249881
  0
VERTEX
  8
0
 10
260.17001447
 20
299.74578392
  0
VERTEX
  8
0
 10
259.71090855
 20
297.78478883
  0
VERTEX
  8
0
 10
259.23205956
 20
295.84528554
  0
VERTEX
  8
0
 10
258.72634640
 20
293.90304605
  0
VERTEX
  8
0
 10
258.18664797
 20
291.93384235
  0
VERTEX
  8
0
 10
257.60584319
 20
289.91344646
  0
VERTEX
  8
0
 10
256.97681096
 20
287.81763036
  0
VERTEX
  8
0
 10
256.29243018
 20
285.62216607
  0
VERTEX
  8
0
 10
255.54557977
 20
283.30282557
  0
VERTEX
  8
0
 10
254.72913862
 20
280.83538086
  0
VERTEX
  8
0
 10
253.83598564
 20
278.19560395
  0
VERTEX
  8
0
 10
252.85899974
 20
275.35926684
  0
VERTEX
  8
0
 10
250.62504481
 20
269.00000000
  0
VERTEX
  8
0
 10
250.00799640
 20
267.19578347
  0
VERTEX
  8
0
 10
249.75866668
 20
266.40950980
  0
VERTEX
  8
0
 10
249.54850183
 20
265.69712060
  0
VERTEX
  8
0
 10
249.37727828
 20
265.05611192
  0
VERTEX
  8
0
 10
249.24477245
 20
264.48397980
  0
VERTEX
  8
0
 10
249.15076074
 20
263.97822028
  0
VERTEX
  8
0
 10
249.09501958
 20
263.53632943
  0
VERTEX
  8
0
 10
249.07732539
 20
263.15580327
  0
VERTEX
  8
0
 10
249.09745457
 20
262.83413788
  0
VERTEX
  8
0
 10
249.15518355
 20
262.56882928
  0
VERTEX
  8
0
 10
249.25028875
 20
262.35737353
  0
VERTEX
  8
0
 10
249.31178756
 20
262.27105799
  0
VERTEX
  8
0
 10
249.38254657
 20
262.19726669
  0
VERTEX
  8
0
 10
249.46253785
 20
262.13568661
  0
VERTEX
  8
0
 10
249.55173345
 20
262.08600478
  0
VERTEX
  8
0
 10
249.75762578
 20
262.02108387
  0
VERTEX
  8
0
 10
250.00000000
 20
262.00000000
  0
VERTEX
  8
0
 10
250.20087891
 20
262.02161470
  0
VERTEX
  8
0
 10
250.38828125
 20
262.08356306
  0
VERTEX
  8
0
 10
250.55810547
 20
262.18150145
  0
VERTEX
  8
0
 10
250.70625000
 20
262.31108624
  0
VERTEX
  8
0
 10
250.82861328
 20
262.46797382
  0
VERTEX
  8
0
 10
250.92109375
 20
262.64782055
  0
VERTEX
  8
0
 10
250.97958984
 20
262.84628282
  0
VERTEX
  8
0
 10
251.00000000
 20
263.05901699
  0
SEQEND
  0
POLYLINE
  8
Calque_par_d_faut
 62
256
 66
   1
 39
0.000000
 70
    1
  0
VERTEX
  8
0
 10
155.96353915
 20
279.13566614
  0
VERTEX
  8
0
 10
157.70102893
 20
284.97162283
  0
VERTEX
  8
0
 10
159.09207204
 20
289.71723182
  0
VERTEX
  8
0
 10
160.21188302
 20
293.66189341
  0
VERTEX
  8
0
 10
161.13567644
 20
297.09500787
  0
VERTEX
  8
0
 10
161.54757113
 20
298.71017251
  0
VERTEX
  8
0
 10
161.93866688
 20
300.30597548
  0
VERTEX
  8
0
 10
162.69606889
 20
303.58419652
  0
VERTEX
  8
0
 10
163.48309703
 20
307.21907126
  0
VERTEX
  8
0
 10
164.37496586
 20
311.50000000
  0
VERTEX
  8
0
 10
165.30273935
 20
316.12213797
  0
VERTEX
  8
0
 10
166.35566301
 20
321.56898202
  0
VERTEX
  8
0
 10
167.46692556
 20
327.47323083
  0
VERTEX
  8
0
 10
168.56971572
 20
333.46758307
  0
VERTEX
  8
0
 10
169.59722220
 20
339.18473744
  0
VERTEX
  8
0
 10
170.48263373
 20
344.25739259
  0
VERTEX
  8
0
 10
171.15913902
 20
348.31824722
  0
VERTEX
  8
0
 10
171.39817330
 20
349.85446768
  0
VERTEX
  8
0
 10
171.55992679
 20
351.00000000
  0
VERTEX
  8
0
 10
172.28807180
 20
356.79619355
  0
VERTEX
  8
0
 10
172.57063795
 20
359.18721796
  0
VERTEX
  8
0
 10
172.81106269
 20
361.35447358
  0
VERTEX
  8
0
 10
173.01849317
 20
363.38367000
  0
VERTEX
  8
0
 10
173.20207650
 20
365.36051682
  0
VERTEX
  8
0
 10
173.37095982
 20
367.37072362
  0
VERTEX
  8
0
 10
173.53429026
 20
369.50000000
  0
VERTEX
  8
0
 10
173.74722153
 20
372.18476562
  0
VERTEX
  8
0
 10
173.99973207
 20
375.05937500
  0
VERTEX
  8
0
 10
174.26022902
 20
377.77929688
  0
VERTEX
  8
0
 10
174.49711956
 20
380.00000000
  0
VERTEX
  8
0
 10
174.58444537
 20
380.83966228
  0
VERTEX
  8
0
 10
174.66996625
 20
381.82619134
  0
VERTEX
  8
0
 10
174.83479540
 20
384.19795997
  0
VERTEX
  8
0
 10
174.99001132
 20
387.03152621
  0
VERTEX
  8
0
 10
175.13401835
 20
390.24311037
  0
VERTEX
  8
0
 10
175.26522080
 20
393.74893277
  0
VERTEX
  8
0
 10
175.38202301
 20
397.46521371
  0
VERTEX
  8
0
 10
175.48282930
 20
401.30817353
  0
VERTEX
  8
0
 10
175.56604399
 20
405.19403253
  0
VERTEX
  8
0
 10
175.63007142
 20
409.03901103
  0
VERTEX
  8
0
 10
175.67331590
 20
412.75932935
  0
VERTEX
  8
0
 10
175.69418177
 20
416.27120779
  0
VERTEX
  8
0
 10
175.69107334
 20
419.49086668
  0
VERTEX
  8
0
 10
175.66239495
 20
422.33452633
  0
VERTEX
  8
0
 10
175.60655092
 20
424.71840705
  0
VERTEX
  8
0
 10
175.52194558
 20
426.55872917
  0
VERTEX
  8
0
 10
175.46835876
 20
427.24887460
  0
VERTEX
  8
0
 10
175.40698324
 20
427.77171299
  0
VERTEX
  8
0
 10
174.72462056
 20
432.32203340
  0
VERTEX
  8
0
 10
173.25036764
 20
429.50832096
  0
VERTEX
  8
0
 10
172.54092299
 20
428.12198681
  0
VERTEX
  8
0
 10
171.81075852
 20
426.63302578
  0
VERTEX
  8
0
 10
171.06223032
 20
425.04824378
  0
VERTEX
  8
0
 10
170.29769446
 20
423.37444672
  0
VERTEX
  8
0
 10
169.51950704
 20
421.61844050
  0
VERTEX
  8
0
 10
168.73002414
 20
419.78703104
  0
VERTEX
  8
0
 10
167.93160184
 20
417.88702423
  0
VERTEX
  8
0
 10
167.12659622
 20
415.92522600
  0
VERTEX
  8
0
 10
166.31736336
 20
413.90844224
  0
VERTEX
  8
0
 10
165.50625936
 20
411.84347887
  0
VERTEX
  8
0
 10
164.69564030
 20
409.73714180
  0
VERTEX
  8
0
 10
163.88786226
 20
407.59623692
  0
VERTEX
  8
0
 10
162.29025356
 20
403.23794741
  0
VERTEX
  8
0
 10
160.73228196
 20
398.82305760
  0
VERTEX
  8
0
 10
159.23279610
 20
394.40601475
  0
VERTEX
  8
0
 10
157.81064468
 20
390.04126613
  0
VERTEX
  8
0
 10
157.13445959
 20
387.89551693
  0
VERTEX
  8
0
 10
156.48467635
 20
385.78325900
  0
VERTEX
  8
0
 10
155.86365106
 20
383.71129827
  0
VERTEX
  8
0
 10
155.27373980
 20
381.68644063
  0
VERTEX
  8
0
 10
154.71729864
 20
379.71549200
  0
VERTEX
  8
0
 10
154.19668368
 20
377.80525829
  0
VERTEX
  8
0
 10
153.71425100
 20
375.96254539
  0
VERTEX
  8
0
 10
153.27235668
 20
374.19415922
  0
VERTEX
  8
0
 10
152.87335680
 20
372.50690569
  0
VERTEX
  8
0
 10
152.51960745
 20
370.90759070
  0
VERTEX
  8
0
 10
152.21346472
 20
369.40302017
  0
VERTEX
  8
0
 10
151.95728468
 20
368.00000000
  0
VERTEX
  8
0
 10
151.39954742
 20
364.61062855
  0
VERTEX
  8
0
 10
150.87424890
 20
361.17220855
  0
VERTEX
  8
0
 10
150.38147839
 20
357.69148330
  0
VERTEX
  8
0
 10
149.92132518
 20
354.17519608
  0
VERTEX
  8
0
 10
149.49387853
 20
350.63009020
  0
VERTEX
  8
0
 10
149.09922773
 20
347.06290893
  0
VERTEX
  8
0
 10
148.73746203
 20
343.48039558
  0
VERTEX
  8
0
 10
148.40867073
 20
339.88929343
  0
VERTEX
  8
0
 10
148.11294309
 20
336.29634577
  0
VERTEX
  8
0
 10
147.85036839
 20
332.70829590
  0
VERTEX
  8
0
 10
147.62103589
 20
329.13188711
  0
VERTEX
  8
0
 10
147.42503489
 20
325.57386269
  0
VERTEX
  8
0
 10
147.26245464
 20
322.04096593
  0
VERTEX
  8
0
 10
147.13338443
 20
318.53994012
  0
VERTEX
  8
0
 10
147.03791352
 20
315.07752855
  0
VERTEX
  8
0
 10
146.97613120
 20
311.66047453
  0
VERTEX
  8
0
 10
146.94812673
 20
308.29552133
  0
VERTEX
  8
0
 10
146.95398940
 20
304.98941224
  0
VERTEX
  8
0
 10
146.99380847
 20
301.74889057
  0
VERTEX
  8
0
 10
147.06767322
 20
298.58069961
  0
VERTEX
  8
0
 10
147.17567292
 20
295.49158263
  0
VERTEX
  8
0
 10
147.31789685
 20
292.48828294
  0
VERTEX
  8
0
 10
147.49443429
 20
289.57754383
  0
VERTEX
  8
0
 10
147.70537450
 20
286.76610858
  0
VERTEX
  8
0
 10
147.95080676
 20
284.06072050
  0
VERTEX
  8
0
 10
148.23082034
 20
281.46812287
  0
VERTEX
  8
0
 10
148.54550452
 20
278.99505898
  0
VERTEX
  8
0
 10
148.89494858
 20
276.64827212
  0
VERTEX
  8
0
 10
149.27924179
 20
274.43450559
  0
VERTEX
  8
0
 10
149.48448472
 20
273.37961223
  0
VERTEX
  8
0
 10
149.69847341
 20
272.36050268
  0
VERTEX
  8
0
 10
149.92121903
 20
271.37801986
  0
VERTEX
  8
0
 10
150.15273274
 20
270.43300668
  0
VERTEX
  8
0
 10
150.39302568
 20
269.52630605
  0
VERTEX
  8
0
 10
150.64210903
 20
268.65876088
  0
VERTEX
  8
0
 10
150.81493344
 20
268.12415363
  0
VERTEX
  8
0
 10
150.89561813
 20
267.91855826
  0
VERTEX
  8
0
 10
150.97490392
 20
267.75493957
  0
VERTEX
  8
0
 10
151.05460538
 20
267.63392594
  0
VERTEX
  8
0
 10
151.13653709
 20
267.55614575
  0
VERTEX
  8
0
 10
151.22251364
 20
267.52222739
  0
VERTEX
  8
0
 10
151.31434960
 20
267.53279923
  0
VERTEX
  8
0
 10
151.41385954
 20
267.58848966
  0
VERTEX
  8
0
 10
151.52285806
 20
267.68992705
  0
VERTEX
  8
0
 10
151.64315973
 20
267.83773979
  0
VERTEX
  8
0
 10
151.77657913
 20
268.03255625
  0
VERTEX
  8
0
 10
152.09002942
 20
268.56571390
  0
VERTEX
  8
0
 10
152.47772558
 20
269.29442702
  0
VERTEX
  8
0
 10
152.78078004
 20
269.94229225
  0
VERTEX
  8
0
 10
153.15033542
 20
270.83725486
  0
VERTEX
  8
0
 10
153.57209443
 20
271.93895041
  0
VERTEX
  8
0
 10
154.03175980
 20
273.20701444
  0
VERTEX
  8
0
 10
154.51503424
 20
274.60108248
  0
VERTEX
  8
0
 10
155.00762046
 20
276.08079008
  0
VERTEX
  8
0
 10
155.49522119
 20
277.60577279
  0
VERTEX
  8
0
 10
155.96353915
 20
279.13566614
  0
SEQEND
  0
POLYLINE
  8
Calque_par_d_faut
 62
256
 66
   1
 39
0.000000
 70
    1
  0
VERTEX
  8
0
 10
427.97404690
 20
279.33017485
  0
VERTEX
  8
0
 10
428.08794718
 20
279.69145556
  0
VERTEX
  8
0
 10
428.21633743
 20
280.16577736
  0
VERTEX
  8
0
 10
428.51226601
 20
281.42656077
  0
VERTEX
  8
0
 10
428.85318905
 20
283.05855807
  0
VERTEX
  8
0
 10
429.23046294
 20
285.00780225
  0
VERTEX
  8
0
 10
429.63544407
 20
287.22032632
  0
VERTEX
  8
0
 10
430.05948884
 20
289.64216326
  0
VERTEX
  8
0
 10
430.93019489
 20
294.89790777
  0
VERTEX
  8
0
 10
431.77343224
 20
300.34329973
  0
VERTEX
  8
0
 10
432.16314115
 20
303.00219600
  0
VERTEX
  8
0
 10
432.52005207
 20
305.54660311
  0
VERTEX
  8
0
 10
432.83552140
 20
307.92255408
  0
VERTEX
  8
0
 10
433.10090553
 20
310.07608188
  0
VERTEX
  8
0
 10
433.30756086
 20
311.95321953
  0
VERTEX
  8
0
 10
433.44684379
 20
313.50000000
  0
VERTEX
  8
0
 10
433.62150351
 20
315.64492188
  0
VERTEX
  8
0
 10
433.87432837
 20
318.52812500
  0
VERTEX
  8
0
 10
434.47900264
 20
325.00000000
  0
VERTEX
  8
0
 10
435.20985744
 20
332.50000000
  0
VERTEX
  8
0
 10
424.68090544
 20
342.75000000
  0
VERTEX
  8
0
 10
422.54715507
 20
344.80900879
  0
VERTEX
  8
0
 10
420.52039286
 20
346.72988281
  0
VERTEX
  8
0
 10
418.64756306
 20
348.47058105
  0
VERTEX
  8
0
 10
416.97560991
 20
349.98906250
  0
VERTEX
  8
0
 10
415.55147767
 20
351.24328613
  0
VERTEX
  8
0
 10
414.42211061
 20
352.19121094
  0
VERTEX
  8
0
 10
413.98263409
 20
352.53717346
  0
VERTEX
  8
0
 10
413.63445297
 20
352.79079590
  0
VERTEX
  8
0
 10
413.38343526
 20
352.94682312
  0
VERTEX
  8
0
 10
413.29619645
 20
352.98659630
  0
VERTEX
  8
0
 10
413.23544901
 20
353.00000000
  0
VERTEX
  8
0
 10
413.17787997
 20
352.97809639
  0
VERTEX
  8
0
 10
413.10007254
 20
352.91310120
  0
VERTEX
  8
0
 10
412.88605342
 20
352.65812988
  0
VERTEX
  8
0
 10
412.59801356
 20
352.24367371
  0
VERTEX
  8
0
 10
412.24057483
 20
351.67832031
  0
VERTEX
  8
0
 10
411.81835912
 20
350.97065735
  0
VERTEX
  8
0
 10
411.33598832
 20
350.12927246
  0
VERTEX
  8
0
 10
410.20926901
 20
348.07968750
  0
VERTEX
  8
0
 10
408.89739200
 20
345.59826660
  0
VERTEX
  8
0
 10
407.43733240
 20
342.75371094
  0
VERTEX
  8
0
 10
405.86606532
 20
339.61472168
  0
VERTEX
  8
0
 10
404.22056586
 20
336.25000000
  0
VERTEX
  8
0
 10
401.79421948
 20
331.20190606
  0
VERTEX
  8
0
 10
400.79519567
 20
329.09122962
  0
VERTEX
  8
0
 10
399.92982570
 20
327.23077572
  0
VERTEX
  8
0
 10
399.19127527
 20
325.60152598
  0
VERTEX
  8
0
 10
398.57271008
 20
324.18446203
  0
VERTEX
  8
0
 10
398.06729580
 20
322.96056550
  0
VERTEX
  8
0
 10
397.66819815
 20
321.91081803
  0
VERTEX
  8
0
 10
397.36858280
 20
321.01620125
  0
VERTEX
  8
0
 10
397.16161546
 20
320.25769678
  0
VERTEX
  8
0
 10
397.09073907
 20
319.92354343
  0
VERTEX
  8
0
 10
397.04046181
 20
319.61628626
  0
VERTEX
  8
0
 10
397.00992941
 20
319.33354799
  0
VERTEX
  8
0
 10
396.99828756
 20
319.07295133
  0
VERTEX
  8
0
 10
397.00468198
 20
318.83211896
  0
VERTEX
  8
0
 10
397.02825839
 20
318.60867360
  0
VERTEX
  8
0
 10
397.06816249
 20
318.40023795
  0
VERTEX
  8
0
 10
397.12354000
 20
318.20443472
  0
VERTEX
  8
0
 10
397.19353662
 20
318.01888660
  0
VERTEX
  8
0
 10
397.27729808
 20
317.84121631
  0
VERTEX
  8
0
 10
397.48269832
 20
317.50000000
  0
VERTEX
  8
0
 10
398.27092183
 20
316.32143617
  0
VERTEX
  8
0
 10
399.27076856
 20
314.79476014
  0
VERTEX
  8
0
 10
401.77713819
 20
310.90157494
  0
VERTEX
  8
0
 10
404.74542026
 20
306.22945135
  0
VERTEX
  8
0
 10
407.91922780
 20
301.18739629
  0
VERTEX
  8
0
 10
411.04217386
 20
296.18441669
  0
VERTEX
  8
0
 10
413.85787149
 20
291.62951949
  0
VERTEX
  8
0
 10
416.10993371
 20
287.93171161
  0
VERTEX
  8
0
 10
416.94448063
 20
286.53203084
  0
VERTEX
  8
0
 10
417.54197359
 20
285.50000000
  0
VERTEX
  8
0
 10
418.68398857
 20
283.50041760
  0
VERTEX
  8
0
 10
419.72781802
 20
281.73545988
  0
VERTEX
  8
0
 10
420.68050142
 20
280.20096350
  0
VERTEX
  8
0
 10
421.54907821
 20
278.89276513
  0
VERTEX
  8
0
 10
421.95402645
 20
278.32222665
  0
VERTEX
  8
0
 10
422.34058785
 20
277.80670142
  0
VERTEX
  8
0
 10
422.70964232
 20
277.34566902
  0
VERTEX
  8
0
 10
423.06206980
 20
276.93860904
  0
VERTEX
  8
0
 10
423.39875022
 20
276.58500107
  0
VERTEX
  8
0
 10
423.72056351
 20
276.28432467
  0
VERTEX
  8
0
 10
424.02838961
 20
276.03605944
  0
VERTEX
  8
0
 10
424.32310845
 20
275.83968496
  0
VERTEX
  8
0
 10
424.60559996
 20
275.69468081
  0
VERTEX
  8
0
 10
424.87674407
 20
275.60052657
  0
VERTEX
  8
0
 10
425.13742072
 20
275.55670183
  0
VERTEX
  8
0
 10
425.38850983
 20
275.56268618
  0
VERTEX
  8
0
 10
425.63089135
 20
275.61795918
  0
VERTEX
  8
0
 10
425.86544519
 20
275.72200044
  0
VERTEX
  8
0
 10
426.09305129
 20
275.87428952
  0
VERTEX
  8
0
 10
426.31458960
 20
276.07430602
  0
VERTEX
  8
0
 10
426.53094003
 20
276.32152952
  0
VERTEX
  8
0
 10
426.74298251
 20
276.61543959
  0
VERTEX
  8
0
 10
426.95159699
 20
276.95551583
  0
VERTEX
  8
0
 10
427.15766340
 20
277.34123781
  0
VERTEX
  8
0
 10
427.36206166
 20
277.77208512
  0
VERTEX
  8
0
 10
427.56567171
 20
278.24753734
  0
VERTEX
  8
0
 10
427.97404690
 20
279.33017485
  0
SEQEND
  0
POLYLINE
  8
Calque_par_d_faut
 62
256
 66
   1
 39
0.000000
 70
    1
  0
VERTEX
  8
0
 10
189.00000000
 20
282.07560401
  0
VERTEX
  8
0
 10
189.00907898
 20
282.16011812
  0
VERTEX
  8
0
 10
189.03571777
 20
282.23587013
  0
VERTEX
  8
0
 10
189.07901917
 20
282.30274023
  0
VERTEX
  8
0
 10
189.13808594
 20
282.36060863
  0
VERTEX
  8
0
 10
189.29992676
 20
282.44886104
  0
VERTEX
  8
0
 10
189.51406250
 20
282.49966892
  0
VERTEX
  8
0
 10
189.77331543
 20
282.51207379
  0
VERTEX
  8
0
 10
190.07050781
 20
282.48511720
  0
VERTEX
  8
0
 10
190.39846191
 20
282.41784068
  0
VERTEX
  8
0
 10
190.75000000
 20
282.30928578
  0
VERTEX
  8
0
 10
191.08730455
 20
282.19892958
  0
VERTEX
  8
0
 10
191.37446494
 20
282.12649047
  0
VERTEX
  8
0
 10
191.60716376
 20
282.09137199
  0
VERTEX
  8
0
 10
191.78108359
 20
282.09297765
  0
VERTEX
  8
0
 10
191.89190704
 20
282.13071098
  0
VERTEX
  8
0
 10
191.92230843
 20
282.16293913
  0
VERTEX
  8
0
 10
191.93531669
 20
282.20397551
  0
VERTEX
  8
0
 10
191.93039216
 20
282.25374558
  0
VERTEX
  8
0
 10
191.90699514
 20
282.31217476
  0
VERTEX
  8
0
 10
191.80262499
 20
282.45471226
  0
VERTEX
  8
0
 10
191.77498252
 20
282.50037642
  0
VERTEX
  8
0
 10
191.76373693
 20
282.55738520
  0
VERTEX
  8
0
 10
191.78902645
 20
282.70405790
  0
VERTEX
  8
0
 10
191.87567374
 20
282.89197280
  0
VERTEX
  8
0
 10
192.02085897
 20
283.11837237
  0
VERTEX
  8
0
 10
192.22176231
 20
283.38049907
  0
VERTEX
  8
0
 10
192.47556395
 20
283.67559536
  0
VERTEX
  8
0
 10
193.13058280
 20
284.35366655
  0
VERTEX
  8
0
 10
193.96335692
 20
285.13052563
  0
VERTEX
  8
0
 10
194.95132772
 20
285.98411228
  0
VERTEX
  8
0
 10
196.07193661
 20
286.89236619
  0
VERTEX
  8
0
 10
197.30262499
 20
287.83322704
  0
VERTEX
  8
0
 10
199.74840263
 20
289.66871909
  0
VERTEX
  8
0
 10
201.82639609
 20
291.26207330
  0
VERTEX
  8
0
 10
203.31684775
 20
292.44247203
  0
VERTEX
  8
0
 10
203.77307115
 20
292.82443258
  0
VERTEX
  8
0
 10
204.00000000
 20
293.03909766
  0
VERTEX
  8
0
 10
204.21671113
 20
293.24492828
  0
VERTEX
  8
0
 10
204.64365026
 20
293.60156905
  0
VERTEX
  8
0
 10
206.02654699
 20
294.68897358
  0
VERTEX
  8
0
 10
207.94535916
 20
296.14469638
  0
VERTEX
  8
0
 10
210.19675571
 20
297.81212256
  0
VERTEX
  8
0
 10
211.38902443
 20
298.69633105
  0
VERTEX
  8
0
 10
212.59392313
 20
299.61030135
  0
VERTEX
  8
0
 10
214.90963616
 20
301.42203373
  0
VERTEX
  8
0
 10
215.95446333
 20
302.26704900
  0
VERTEX
  8
0
 10
216.87994616
 20
303.03633245
  0
VERTEX
  8
0
 10
217.65309109
 20
303.70351067
  0
VERTEX
  8
0
 10
218.24090452
 20
304.24221026
  0
VERTEX
  8
0
 10
219.62230712
 20
305.54495391
  0
VERTEX
  8
0
 10
221.64828218
 20
307.42299625
  0
VERTEX
  8
0
 10
226.54414880
 20
311.89990463
  0
VERTEX
  8
0
 10
229.85990972
 20
314.91499654
  0
VERTEX
  8
0
 10
232.79107638
 20
317.60679463
  0
VERTEX
  8
0
 10
235.36270956
 20
320.00960321
  0
VERTEX
  8
0
 10
237.59986999
 20
322.15772653
  0
VERTEX
  8
0
 10
238.60085441
 20
323.14700132
  0
VERTEX
  8
0
 10
239.52761843
 20
324.08546890
  0
VERTEX
  8
0
 10
240.38329464
 20
324.97741731
  0
VERTEX
  8
0
 10
241.17101564
 20
325.82713458
  0
VERTEX
  8
0
 10
241.89391402
 20
326.63890876
  0
VERTEX
  8
0
 10
242.55512237
 20
327.41702787
  0
VERTEX
  8
0
 10
243.15777329
 20
328.16577996
  0
VERTEX
  8
0
 10
243.70499937
 20
328.88945305
  0
VERTEX
  8
0
 10
244.19993320
 20
329.59233518
  0
VERTEX
  8
0
 10
244.64570739
 20
330.27871439
  0
VERTEX
  8
0
 10
245.04545452
 20
330.95287872
  0
VERTEX
  8
0
 10
245.40230720
 20
331.61911619
  0
VERTEX
  8
0
 10
245.71939800
 20
332.28171485
  0
VERTEX
  8
0
 10
245.99985953
 20
332.94496273
  0
VERTEX
  8
0
 10
246.24682438
 20
333.61314786
  0
VERTEX
  8
0
 10
246.46342515
 20
334.29055828
  0
VERTEX
  8
0
 10
246.65279443
 20
334.98148203
  0
VERTEX
  8
0
 10
246.81806481
 20
335.69020713
  0
VERTEX
  8
0
 10
246.96236889
 20
336.42102164
  0
VERTEX
  8
0
 10
247.08883926
 20
337.17821357
  0
VERTEX
  8
0
 10
247.20060852
 20
337.96607097
  0
VERTEX
  8
0
 10
247.30080926
 20
338.78888187
  0
VERTEX
  8
0
 10
247.47903555
 20
340.55651633
  0
VERTEX
  8
0
 10
247.65793104
 20
342.70612673
  0
VERTEX
  8
0
 10
247.80752487
 20
344.91357630
  0
VERTEX
  8
0
 10
247.92811892
 20
347.17552474
  0
VERTEX
  8
0
 10
248.02001504
 20
349.48863179
  0
VERTEX
  8
0
 10
248.08351511
 20
351.84955717
  0
VERTEX
  8
0
 10
248.11892098
 20
354.25496058
  0
VERTEX
  8
0
 10
248.12653451
 20
356.70150175
  0
VERTEX
  8
0
 10
248.10665758
 20
359.18584040
  0
VERTEX
  8
0
 10
248.05959205
 20
361.70463625
  0
VERTEX
  8
0
 10
247.98563978
 20
364.25454902
  0
VERTEX
  8
0
 10
247.88510263
 20
366.83223843
  0
VERTEX
  8
0
 10
247.75828247
 20
369.43436420
  0
VERTEX
  8
0
 10
247.60548116
 20
372.05758604
  0
VERTEX
  8
0
 10
247.42700057
 20
374.69856367
  0
VERTEX
  8
0
 10
247.22314255
 20
377.35395683
  0
VERTEX
  8
0
 10
246.99420898
 20
380.02042521
  0
VERTEX
  8
0
 10
246.74050172
 20
382.69462856
  0
VERTEX
  8
0
 10
246.46232263
 20
385.37322657
  0
VERTEX
  8
0
 10
246.15997357
 20
388.05287898
  0
VERTEX
  8
0
 10
245.83375641
 20
390.73024550
  0
VERTEX
  8
0
 10
245.48397302
 20
393.40198585
  0
VERTEX
  8
0
 10
245.11092525
 20
396.06475976
  0
VERTEX
  8
0
 10
244.71491497
 20
398.71522693
  0
VERTEX
  8
0
 10
244.29624404
 20
401.35004710
  0
VERTEX
  8
0
 10
243.85521434
 20
403.96587997
  0
VERTEX
  8
0
 10
243.39212771
 20
406.55938528
  0
VERTEX
  8
0
 10
242.90728604
 20
409.12722273
  0
VERTEX
  8
0
 10
242.40099117
 20
411.66605205
  0
VERTEX
  8
0
 10
241.87354497
 20
414.17253295
  0
VERTEX
  8
0
 10
241.32524932
 20
416.64332517
  0
VERTEX
  8
0
 10
240.75640606
 20
419.07508840
  0
VERTEX
  8
0
 10
240.16731707
 20
421.46448239
  0
VERTEX
  8
0
 10
237.39221002
 20
432.42896478
  0
VERTEX
  8
0
 10
234.30314882
 20
426.96448239
  0
VERTEX
  8
0
 10
232.11858534
 20
423.06180039
  0
VERTEX
  8
0
 10
229.99800946
 20
419.19483087
  0
VERTEX
  8
0
 10
227.93996693
 20
415.35949039
  0
VERTEX
  8
0
 10
225.94300347
 20
411.55169550
  0
VERTEX
  8
0
 10
224.00566479
 20
407.76736273
  0
VERTEX
  8
0
 10
222.12649664
 20
404.00240863
  0
VERTEX
  8
0
 10
220.30404474
 20
400.25274975
  0
VERTEX
  8
0
 10
218.53685481
 20
396.51430264
  0
VERTEX
  8
0
 10
216.82347258
 20
392.78298383
  0
VERTEX
  8
0
 10
215.16244378
 20
389.05470987
  0
VERTEX
  8
0
 10
213.55231413
 20
385.32539732
  0
VERTEX
  8
0
 10
211.99162936
 20
381.59096270
  0
VERTEX
  8
0
 10
210.47893520
 20
377.84732258
  0
VERTEX
  8
0
 10
209.01277737
 20
374.09039349
  0
VERTEX
  8
0
 10
207.59170161
 20
370.31609198
  0
VERTEX
  8
0
 10
206.21425363
 20
366.52033460
  0
VERTEX
  8
0
 10
204.87897916
 20
362.69903789
  0
VERTEX
  8
0
 10
203.58442393
 20
358.84811840
  0
VERTEX
  8
0
 10
202.32913367
 20
354.96349266
  0
VERTEX
  8
0
 10
201.11165410
 20
351.04107724
  0
VERTEX
  8
0
 10
199.93053095
 20
347.07678866
  0
VERTEX
  8
0
 10
198.78430995
 20
343.06654349
  0
VERTEX
  8
0
 10
197.67153682
 20
339.00625825
  0
VERTEX
  8
0
 10
196.59075729
 20
334.89184951
  0
VERTEX
  8
0
 10
195.54051709
 20
330.71923379
  0
VERTEX
  8
0
 10
194.51936194
 20
326.48432766
  0
VERTEX
  8
0
 10
193.52583757
 20
322.18304765
  0
VERTEX
  8
0
 10
192.55848970
 20
317.81131031
  0
VERTEX
  8
0
 10
191.61586407
 20
313.36503219
  0
VERTEX
  8
0
 10
190.69650639
 20
308.84012983
  0
VERTEX
  8
0
 10
189.79896241
 20
304.23251977
  0
VERTEX
  8
0
 10
188.92177783
 20
299.53811856
  0
VERTEX
  8
0
 10
187.80228399
 20
293.37256969
  0
VERTEX
  8
0
 10
186.97907553
 20
288.65528933
  0
VERTEX
  8
0
 10
186.67432710
 20
286.78323828
  0
VERTEX
  8
0
 10
186.43854856
 20
285.20544048
  0
VERTEX
  8
0
 10
186.27003943
 20
283.89929130
  0
VERTEX
  8
0
 10
186.16709920
 20
282.84218613
  0
VERTEX
  8
0
 10
186.12802741
 20
282.01152033
  0
VERTEX
  8
0
 10
186.13191077
 20
281.67403824
  0
VERTEX
  8
0
 10
186.15112356
 20
281.38468927
  0
VERTEX
  8
0
 10
186.18545321
 20
281.14064783
  0
VERTEX
  8
0
 10
186.23468716
 20
280.93908834
  0
VERTEX
  8
0
 10
186.29861286
 20
280.77718522
  0
VERTEX
  8
0
 10
186.37701773
 20
280.65211290
  0
VERTEX
  8
0
 10
186.46968923
 20
280.56104580
  0
VERTEX
  8
0
 10
186.57641479
 20
280.50115834
  0
VERTEX
  8
0
 10
186.69698185
 20
280.46962493
  0
VERTEX
  8
0
 10
186.83117784
 20
280.46362002
  0
VERTEX
  8
0
 10
186.97879022
 20
280.48031800
  0
VERTEX
  8
0
 10
187.13960641
 20
280.51689331
  0
VERTEX
  8
0
 10
187.50000000
 20
280.63837360
  0
VERTEX
  8
0
 10
187.80131836
 20
280.77158623
  0
VERTEX
  8
0
 10
188.08242187
 20
280.92985755
  0
VERTEX
  8
0
 10
188.33715820
 20
281.10729267
  0
VERTEX
  8
0
 10
188.55937500
 20
281.29799669
  0
VERTEX
  8
0
 10
188.74291992
 20
281.49607472
  0
VERTEX
  8
0
 10
188.88164062
 20
281.69563188
  0
VERTEX
  8
0
 10
188.96938477
 20
281.89077327
  0
VERTEX
  8
0
 10
189.00000000
 20
282.07560401
  0
SEQEND
  0
POLYLINE
  8
Calque_par_d_faut
 62
256
 66
   1
 39
0.000000
 70
    1
  0
VERTEX
  8
0
 10
495.54004796
 20
320.07744421
  0
VERTEX
  8
0
 10
495.82237165
 20
320.68824036
  0
VERTEX
  8
0
 10
496.07329042
 20
321.36893837
  0
VERTEX
  8
0
 10
496.29286795
 20
322.12108269
  0
VERTEX
  8
0
 10
496.48116789
 20
322.94621782
  0
VERTEX
  8
0
 10
496.63825391
 20
323.84588821
  0
VERTEX
  8
0
 10
496.76418967
 20
324.82163834
  0
VERTEX
  8
0
 10
496.85903884
 20
325.87501268
  0
VERTEX
  8
0
 10
496.92286506
 20
327.00755569
  0
VERTEX
  8
0
 10
496.95573202
 20
328.22081186
  0
VERTEX
  8
0
 10
496.95770337
 20
329.51632565
  0
VERTEX
  8
0
 10
496.92884277
 20
330.89564153
  0
VERTEX
  8
0
 10
496.86921388
 20
332.36030398
  0
VERTEX
  8
0
 10
496.77888037
 20
333.91185746
  0
VERTEX
  8
0
 10
496.65790591
 20
335.55184645
  0
VERTEX
  8
0
 10
496.50635415
 20
337.28181541
  0
VERTEX
  8
0
 10
496.32428875
 20
339.10330883
  0
VERTEX
  8
0
 10
495.64857751
 20
345.50000000
  0
VERTEX
  8
0
 10
492.85828485
 20
332.50000000
  0
VERTEX
  8
0
 10
491.77218402
 20
327.32164499
  0
VERTEX
  8
0
 10
490.87765430
 20
322.83218826
  0
VERTEX
  8
0
 10
490.53118860
 20
320.99608191
  0
VERTEX
  8
0
 10
490.26736767
 20
319.51254231
  0
VERTEX
  8
0
 10
490.09777550
 20
318.44168353
  0
VERTEX
  8
0
 10
490.03399609
 20
317.84361962
  0
VERTEX
  8
0
 10
490.04024873
 20
317.61054582
  0
VERTEX
  8
0
 10
490.06833177
 20
317.40152937
  0
VERTEX
  8
0
 10
490.11713191
 20
317.21611860
  0
VERTEX
  8
0
 10
490.18553587
 20
317.05386185
  0
VERTEX
  8
0
 10
490.27243037
 20
316.91430745
  0
VERTEX
  8
0
 10
490.37670210
 20
316.79700373
  0
VERTEX
  8
0
 10
490.49723779
 20
316.70149904
  0
VERTEX
  8
0
 10
490.63292415
 20
316.62734171
  0
VERTEX
  8
0
 10
490.78264789
 20
316.57408006
  0
VERTEX
  8
0
 10
490.94529572
 20
316.54126245
  0
VERTEX
  8
0
 10
491.11975435
 20
316.52843720
  0
VERTEX
  8
0
 10
491.30491050
 20
316.53515265
  0
VERTEX
  8
0
 10
491.49965087
 20
316.56095713
  0
VERTEX
  8
0
 10
491.70286218
 20
316.60539897
  0
VERTEX
  8
0
 10
492.13024447
 20
316.74838811
  0
VERTEX
  8
0
 10
492.57815105
 20
316.96050675
  0
VERTEX
  8
0
 10
493.03767564
 20
317.23814155
  0
VERTEX
  8
0
 10
493.49991191
 20
317.57767922
  0
VERTEX
  8
0
 10
493.95595356
 20
317.97550642
  0
VERTEX
  8
0
 10
494.39689430
 20
318.42800984
  0
VERTEX
  8
0
 10
494.81382782
 20
318.93157616
  0
VERTEX
  8
0
 10
495.19784780
 20
319.48259205
  0
VERTEX
  8
0
 10
495.37473200
 20
319.77476443
  0
VERTEX
  8
0
 10
495.54004796
 20
320.07744421
  0
SEQEND
  0
POLYLINE
  8
Calque_par_d_faut
 62
256
 66
   1
 39
0.000000
 70
    1
  0
VERTEX
  8
0
 10
475.99451346
 20
324.79447384
  0
VERTEX
  8
0
 10
476.33959999
 20
325.09442949
  0
VERTEX
  8
0
 10
476.65391306
 20
325.41783277
  0
VERTEX
  8
0
 10
476.94072827
 20
325.77832117
  0
VERTEX
  8
0
 10
477.20332121
 20
326.18953216
  0
VERTEX
  8
0
 10
477.44496748
 20
326.66510326
  0
VERTEX
  8
0
 10
477.66894265
 20
327.21867194
  0
VERTEX
  8
0
 10
477.87852233
 20
327.86387569
  0
VERTEX
  8
0
 10
478.07698211
 20
328.61435201
  0
VERTEX
  8
0
 10
478.26759758
 20
329.48373839
  0
VERTEX
  8
0
 10
478.45364434
 20
330.48567232
  0
VERTEX
  8
0
 10
478.63839797
 20
331.63379128
  0
VERTEX
  8
0
 10
478.82513407
 20
332.94173277
  0
VERTEX
  8
0
 10
479.01712823
 20
334.42313428
  0
VERTEX
  8
0
 10
479.21765605
 20
336.09163330
  0
VERTEX
  8
0
 10
479.65741501
 20
340.04447384
  0
VERTEX
  8
0
 10
480.97588756
 20
352.44081887
  0
VERTEX
  8
0
 10
481.51281351
 20
357.67878885
  0
VERTEX
  8
0
 10
481.97491819
 20
362.40706307
  0
VERTEX
  8
0
 10
482.36724081
 20
366.72347095
  0
VERTEX
  8
0
 10
482.69482059
 20
370.72584195
  0
VERTEX
  8
0
 10
482.96269674
 20
374.51200551
  0
VERTEX
  8
0
 10
483.17590848
 20
378.17979106
  0
VERTEX
  8
0
 10
483.33949502
 20
381.82702804
  0
VERTEX
  8
0
 10
483.45849557
 20
385.55154589
  0
VERTEX
  8
0
 10
483.53794936
 20
389.45117406
  0
VERTEX
  8
0
 10
483.58289558
 20
393.62374198
  0
VERTEX
  8
0
 10
483.59837347
 20
398.16707909
  0
VERTEX
  8
0
 10
483.58942222
 20
403.17901484
  0
VERTEX
  8
0
 10
483.51838921
 20
415.00000000
  0
VERTEX
  8
0
 10
483.42430126
 20
425.86568629
  0
VERTEX
  8
0
 10
483.36797858
 20
430.49616862
  0
VERTEX
  8
0
 10
483.30135659
 20
434.66862319
  0
VERTEX
  8
0
 10
483.22135015
 20
438.44070957
  0
VERTEX
  8
0
 10
483.12487412
 20
441.87008735
  0
VERTEX
  8
0
 10
483.00884336
 20
445.01441611
  0
VERTEX
  8
0
 10
482.87017274
 20
447.93135543
  0
VERTEX
  8
0
 10
482.70577712
 20
450.67856490
  0
VERTEX
  8
0
 10
482.51257136
 20
453.31370409
  0
VERTEX
  8
0
 10
482.28747033
 20
455.89443258
  0
VERTEX
  8
0
 10
482.02738890
 20
458.47840996
  0
VERTEX
  8
0
 10
481.72924192
 20
461.12329581
  0
VERTEX
  8
0
 10
481.38994425
 20
463.88674972
  0
VERTEX
  8
0
 10
481.00641077
 20
466.82643125
  0
VERTEX
  8
0
 10
480.57555633
 20
470.00000000
  0
VERTEX
  8
0
 10
479.49675538
 20
477.74902344
  0
VERTEX
  8
0
 10
478.54347584
 20
484.43281250
  0
VERTEX
  8
0
 10
477.81903757
 20
489.33769531
  0
VERTEX
  8
0
 10
477.57492137
 20
490.90002441
  0
VERTEX
  8
0
 10
477.42676044
 20
491.75000000
  0
VERTEX
  8
0
 10
477.34373406
 20
492.11424199
  0
VERTEX
  8
0
 10
477.24893553
 20
492.43724674
  0
VERTEX
  8
0
 10
477.13473607
 20
492.72146174
  0
VERTEX
  8
0
 10
476.99350689
 20
492.96933449
  0
VERTEX
  8
0
 10
476.81761921
 20
493.18331249
  0
VERTEX
  8
0
 10
476.59944423
 20
493.36584322
  0
VERTEX
  8
0
 10
476.33135318
 20
493.51937419
  0
VERTEX
  8
0
 10
476.00571726
 20
493.64635288
  0
VERTEX
  8
0
 10
475.61490768
 20
493.74922680
  0
VERTEX
  8
0
 10
475.15129567
 20
493.83044343
  0
VERTEX
  8
0
 10
474.60725243
 20
493.89245028
  0
VERTEX
  8
0
 10
473.97514918
 20
493.93769483
  0
VERTEX
  8
0
 10
473.24735712
 20
493.96862458
  0
VERTEX
  8
0
 10
472.41624748
 20
493.98768703
  0
VERTEX
  8
0
 10
470.41356030
 20
494.00000000
  0
VERTEX
  8
0
 10
468.48292656
 20
493.98789864
  0
VERTEX
  8
0
 10
466.97797208
 20
493.94288463
  0
VERTEX
  8
0
 10
466.37098807
 20
493.90395260
  0
VERTEX
  8
0
 10
465.85346010
 20
493.85189306
  0
VERTEX
  8
0
 10
465.41973357
 20
493.78507291
  0
VERTEX
  8
0
 10
465.06415388
 20
493.70185902
  0
VERTEX
  8
0
 10
464.78106645
 20
493.60061829
  0
VERTEX
  8
0
 10
464.56481667
 20
493.47971761
  0
VERTEX
  8
0
 10
464.40974996
 20
493.33752385
  0
VERTEX
  8
0
 10
464.31021172
 20
493.17240390
  0
VERTEX
  8
0
 10
464.26054736
 20
492.98272466
  0
VERTEX
  8
0
 10
464.25510227
 20
492.76685300
  0
VERTEX
  8
0
 10
464.28822188
 20
492.52315582
  0
VERTEX
  8
0
 10
464.35425158
 20
492.25000000
  0
VERTEX
  8
0
 10
465.07621838
 20
489.62307770
  0
VERTEX
  8
0
 10
465.72935970
 20
487.14828090
  0
VERTEX
  8
0
 10
466.31676023
 20
484.80333406
  0
VERTEX
  8
0
 10
466.84150463
 20
482.56596164
  0
VERTEX
  8
0
 10
467.30667759
 20
480.41388810
  0
VERTEX
  8
0
 10
467.71536377
 20
478.32483790
  0
VERTEX
  8
0
 10
468.07064784
 20
476.27653549
  0
VERTEX
  8
0
 10
468.37561449
 20
474.24670533
  0
VERTEX
  8
0
 10
468.63334838
 20
472.21307188
  0
VERTEX
  8
0
 10
468.84693420
 20
470.15335960
  0
VERTEX
  8
0
 10
469.01945660
 20
468.04529293
  0
VERTEX
  8
0
 10
469.15400028
 20
465.86659635
  0
VERTEX
  8
0
 10
469.25364989
 20
463.59499431
  0
VERTEX
  8
0
 10
469.32149012
 20
461.20821127
  0
VERTEX
  8
0
 10
469.36060564
 20
458.68397168
  0
VERTEX
  8
0
 10
469.37408112
 20
456.00000000
  0
VERTEX
  8
0
 10
469.35946635
 20
451.42704291
  0
VERTEX
  8
0
 10
469.33587809
 20
449.45300328
  0
VERTEX
  8
0
 10
469.29874440
 20
447.66048397
  0
VERTEX
  8
0
 10
469.24604666
 20
446.02940575
  0
VERTEX
  8
0
 10
469.17576624
 20
444.53968940
  0
VERTEX
  8
0
 10
469.08588450
 20
443.17125569
  0
VERTEX
  8
0
 10
468.97438281
 20
441.90402542
  0
VERTEX
  8
0
 10
468.83924256
 20
440.71791935
  0
VERTEX
  8
0
 10
468.67844509
 20
439.59285826
  0
VERTEX
  8
0
 10
468.48997180
 20
438.50876294
  0
VERTEX
  8
0
 10
468.27180404
 20
437.44555416
  0
VERTEX
  8
0
 10
468.02192319
 20
436.38315270
  0
VERTEX
  8
0
 10
467.73831061
 20
435.30147933
  0
VERTEX
  8
0
 10
467.41894768
 20
434.18045484
  0
VERTEX
  8
0
 10
467.06181577
 20
433.00000000
  0
VERTEX
  8
0
 10
466.39552362
 20
430.94355346
  0
VERTEX
  8
0
 10
465.67390443
 20
428.89829696
  0
VERTEX
  8
0
 10
464.89908013
 20
426.86810157
  0
VERTEX
  8
0
 10
464.07317267
 20
424.85683835
  0
VERTEX
  8
0
 10
463.19830399
 20
422.86837839
  0
VERTEX
  8
0
 10
462.27659602
 20
420.90659274
  0
VERTEX
  8
0
 10
461.31017072
 20
418.97535247
  0
VERTEX
  8
0
 10
460.30115002
 20
417.07852867
  0
VERTEX
  8
0
 10
459.25165587
 20
415.21999239
  0
VERTEX
  8
0
 10
458.16381020
 20
413.40361470
  0
VERTEX
  8
0
 10
457.03973496
 20
411.63326668
  0
VERTEX
  8
0
 10
455.88155208
 20
409.91281940
  0
VERTEX
  8
0
 10
454.69138352
 20
408.24614392
  0
VERTEX
  8
0
 10
453.47135121
 20
406.63711131
  0
VERTEX
  8
0
 10
452.85079925
 20
405.85542080
  0
VERTEX
  8
0
 10
452.22357709
 20
405.08959265
  0
VERTEX
  8
0
 10
451.58994996
 20
404.34011076
  0
VERTEX
  8
0
 10
450.95018310
 20
403.60745901
  0
VERTEX
  8
0
 10
449.04285007
 20
401.43995025
  0
VERTEX
  8
0
 10
448.26448884
 20
400.53065021
  0
VERTEX
  8
0
 10
447.59382114
 20
399.71940237
  0
VERTEX
  8
0
 10
447.02396445
 20
398.99251869
  0
VERTEX
  8
0
 10
446.54803629
 20
398.33631115
  0
VERTEX
  8
0
 10
446.15915415
 20
397.73709171
  0
VERTEX
  8
0
 10
445.85043552
 20
397.18117235
  0
VERTEX
  8
0
 10
445.61499791
 20
396.65486504
  0
VERTEX
  8
0
 10
445.44595883
 20
396.14448176
  0
VERTEX
  8
0
 10
445.33643575
 20
395.63633447
  0
VERTEX
  8
0
 10
445.27954620
 20
395.11673514
  0
VERTEX
  8
0
 10
445.26840766
 20
394.57199575
  0
VERTEX
  8
0
 10
445.29613763
 20
393.98842827
  0
VERTEX
  8
0
 10
445.35585362
 20
393.35234466
  0
VERTEX
  8
0
 10
445.44067312
 20
392.65005691
  0
VERTEX
  8
0
 10
445.59439197
 20
391.34381481
  0
VERTEX
  8
0
 10
445.76525363
 20
389.69426100
  0
VERTEX
  8
0
 10
446.14844214
 20
385.50219903
  0
VERTEX
  8
0
 10
446.57031207
 20
380.34783245
  0
VERTEX
  8
0
 10
447.01093688
 20
374.50512272
  0
VERTEX
  8
0
 10
447.45038999
 20
368.24803129
  0
VERTEX
  8
0
 10
447.86874485
 20
361.85051962
  0
VERTEX
  8
0
 10
448.24607490
 20
355.58654916
  0
VERTEX
  8
0
 10
448.56245357
 20
349.73008136
  0
VERTEX
  8
0
 10
449.20368424
 20
336.96016273
  0
VERTEX
  8
0
 10
455.02588576
 20
332.48008136
  0
VERTEX
  8
0
 10
457.32847985
 20
330.74054977
  0
VERTEX
  8
0
 10
459.29395761
 20
329.31602390
  0
VERTEX
  8
0
 10
460.08512711
 20
328.76782644
  0
VERTEX
  8
0
 10
460.71383665
 20
328.35350642
  0
VERTEX
  8
0
 10
461.15402590
 20
328.09143916
  0
VERTEX
  8
0
 10
461.29528158
 20
328.02324261
  0
VERTEX
  8
0
 10
461.37963458
 20
328.00000000
  0
VERTEX
  8
0
 10
461.56160134
 20
327.94897461
  0
VERTEX
  8
0
 10
461.87671158
 20
327.80273438
  0
VERTEX
  8
0
 10
462.30767515
 20
327.57153320
  0
VERTEX
  8
0
 10
462.83720191
 20
327.26562500
  0
VERTEX
  8
0
 10
464.12278438
 20
326.47070313
  0
VERTEX
  8
0
 10
465.59513778
 20
325.50000000
  0
VERTEX
  8
0
 10
466.39668303
 20
324.97780120
  0
VERTEX
  8
0
 10
467.16864435
 20
324.51998539
  0
VERTEX
  8
0
 10
467.91303016
 20
324.12641632
  0
VERTEX
  8
0
 10
468.63184891
 20
323.79695773
  0
VERTEX
  8
0
 10
469.32710902
 20
323.53147336
  0
VERTEX
  8
0
 10
470.00081895
 20
323.32982695
  0
VERTEX
  8
0
 10
470.65498712
 20
323.19188224
  0
VERTEX
  8
0
 10
470.97537068
 20
323.14675544
  0
VERTEX
  8
0
 10
471.29162196
 20
323.11750298
  0
VERTEX
  8
0
 10
471.60399203
 20
323.10410781
  0
VERTEX
  8
0
 10
471.91273192
 20
323.10655290
  0
VERTEX
  8
0
 10
472.21809271
 20
323.12482122
  0
VERTEX
  8
0
 10
472.52032543
 20
323.15889575
  0
VERTEX
  8
0
 10
472.81968116
 20
323.20875944
  0
VERTEX
  8
0
 10
473.11641093
 20
323.27439527
  0
VERTEX
  8
0
 10
473.41076581
 20
323.35578620
  0
VERTEX
  8
0
 10
473.70299685
 20
323.45291520
  0
VERTEX
  8
0
 10
473.99335510
 20
323.56576523
  0
VERTEX
  8
0
 10
474.28209162
 20
323.69431927
  0
VERTEX
  8
0
 10
474.85570369
 20
323.99847125
  0
VERTEX
  8
0
 10
475.42584149
 20
324.36523485
  0
VERTEX
  8
0
 10
475.99451346
 20
324.79447384
  0
SEQEND
  0
POLYLINE
  8
Calque_par_d_faut
 62
256
 66
   1
 39
0.000000
 70
    1
  0
VERTEX
  8
0
 10
387.94189658
 20
335.53590989
  0
VERTEX
  8
0
 10
388.04273437
 20
335.50303556
  0
VERTEX
  8
0
 10
388.16913447
 20
335.51116503
  0
VERTEX
  8
0
 10
388.31938302
 20
335.55822021
  0
VERTEX
  8
0
 10
388.49176614
 20
335.64212300
  0
VERTEX
  8
0
 10
388.68456998
 20
335.76079531
  0
VERTEX
  8
0
 10
388.89608066
 20
335.91215907
  0
VERTEX
  8
0
 10
389.36836708
 20
336.30464854
  0
VERTEX
  8
0
 10
389.89491446
 20
336.80296670
  0
VERTEX
  8
0
 10
390.46201187
 20
337.39048886
  0
VERTEX
  8
0
 10
391.05594836
 20
338.05059030
  0
VERTEX
  8
0
 10
391.66301299
 20
338.76664633
  0
VERTEX
  8
0
 10
392.26949482
 20
339.52203222
  0
VERTEX
  8
0
 10
392.86168292
 20
340.30012328
  0
VERTEX
  8
0
 10
393.42586633
 20
341.08429481
  0
VERTEX
  8
0
 10
393.94833412
 20
341.85792209
  0
VERTEX
  8
0
 10
394.41537535
 20
342.60438042
  0
VERTEX
  8
0
 10
394.81327908
 20
343.30704510
  0
VERTEX
  8
0
 10
395.12833437
 20
343.94929142
  0
VERTEX
  8
0
 10
395.25050917
 20
344.24256247
  0
VERTEX
  8
0
 10
395.34683027
 20
344.51449467
  0
VERTEX
  8
0
 10
395.52364722
 20
344.96727511
  0
VERTEX
  8
0
 10
395.78534000
 20
345.49394073
  0
VERTEX
  8
0
 10
396.11926370
 20
346.07550937
  0
VERTEX
  8
0
 10
396.51277343
 20
346.69299889
  0
VERTEX
  8
0
 10
396.95322432
 20
347.32742714
  0
VERTEX
  8
0
 10
397.42797146
 20
347.95981197
  0
VERTEX
  8
0
 10
397.92436996
 20
348.57117125
  0
VERTEX
  8
0
 10
398.42977495
 20
349.14252281
  0
VERTEX
  8
0
 10
398.90819956
 20
349.68900055
  0
VERTEX
  8
0
 10
399.32727154
 20
350.22907071
  0
VERTEX
  8
0
 10
399.67976791
 20
350.74874972
  0
VERTEX
  8
0
 10
399.95846566
 20
351.23405399
  0
VERTEX
  8
0
 10
400.15614179
 20
351.67099996
  0
VERTEX
  8
0
 10
400.22233956
 20
351.86696871
  0
VERTEX
  8
0
 10
400.26557331
 20
352.04560404
  0
VERTEX
  8
0
 10
400.28494015
 20
352.20515801
  0
VERTEX
  8
0
 10
400.27953722
 20
352.34388266
  0
VERTEX
  8
0
 10
400.24846163
 20
352.46003005
  0
VERTEX
  8
0
 10
400.19081052
 20
352.55185224
  0
VERTEX
  8
0
 10
400.08636041
 20
352.69360776
  0
VERTEX
  8
0
 10
400.05526056
 20
352.80211502
  0
VERTEX
  8
0
 10
400.06594722
 20
352.84368885
  0
VERTEX
  8
0
 10
400.09344772
 20
352.87669659
  0
VERTEX
  8
0
 10
400.19685861
 20
352.91667507
  0
VERTEX
  8
0
 10
400.36142997
 20
352.92137307
  0
VERTEX
  8
0
 10
400.58309852
 20
352.89011317
  0
VERTEX
  8
0
 10
400.85780099
 20
352.82221797
  0
VERTEX
  8
0
 10
401.18147413
 20
352.71701006
  0
VERTEX
  8
0
 10
401.61773393
 20
352.58298485
  0
VERTEX
  8
0
 10
401.80282911
 20
352.54555561
  0
VERTEX
  8
0
 10
401.96663263
 20
352.52866102
  0
VERTEX
  8
0
 10
402.10969313
 20
352.53291038
  0
VERTEX
  8
0
 10
402.23255923
 20
352.55891300
  0
VERTEX
  8
0
 10
402.33577954
 20
352.60727819
  0
VERTEX
  8
0
 10
402.41990270
 20
352.67861524
  0
VERTEX
  8
0
 10
402.48547732
 20
352.77353346
  0
VERTEX
  8
0
 10
402.53305204
 20
352.89264217
  0
VERTEX
  8
0
 10
402.56317547
 20
353.03655066
  0
VERTEX
  8
0
 10
402.57639624
 20
353.20586823
  0
VERTEX
  8
0
 10
402.55432430
 20
353.62316787
  0
VERTEX
  8
0
 10
402.47122520
 20
354.14941553
  0
VERTEX
  8
0
 10
402.39184045
 20
354.65610161
  0
VERTEX
  8
0
 10
402.37009565
 20
355.06337815
  0
VERTEX
  8
0
 10
402.38162854
 20
355.23076324
  0
VERTEX
  8
0
 10
402.40851978
 20
355.37452643
  0
VERTEX
  8
0
 10
402.45108550
 20
355.49507788
  0
VERTEX
  8
0
 10
402.50964183
 20
355.59282775
  0
VERTEX
  8
0
 10
402.58450488
 20
355.66818620
  0
VERTEX
  8
0
 10
402.67599078
 20
355.72156340
  0
VERTEX
  8
0
 10
402.78441564
 20
355.75336951
  0
VERTEX
  8
0
 10
402.91009561
 20
355.76401468
  0
VERTEX
  8
0
 10
403.05334679
 20
355.75390908
  0
VERTEX
  8
0
 10
403.21448531
 20
355.72346287
  0
VERTEX
  8
0
 10
403.59168886
 20
355.60318928
  0
VERTEX
  8
0
 10
403.93655707
 20
355.48522005
  0
VERTEX
  8
0
 10
404.20969172
 20
355.42362092
  0
VERTEX
  8
0
 10
404.41122107
 20
355.41850038
  0
VERTEX
  8
0
 10
404.48517386
 20
355.43715348
  0
VERTEX
  8
0
 10
404.54127342
 20
355.46996691
  0
VERTEX
  8
0
 10
404.57953579
 20
355.51695422
  0
VERTEX
  8
0
 10
404.59997701
 20
355.57812898
  0
VERTEX
  8
0
 10
404.60261311
 20
355.65350475
  0
VERTEX
  8
0
 10
404.58746013
 20
355.74309508
  0
VERTEX
  8
0
 10
404.50385105
 20
355.96497367
  0
VERTEX
  8
0
 10
404.34927805
 20
356.24387324
  0
VERTEX
  8
0
 10
404.16277183
 20
356.57796172
  0
VERTEX
  8
0
 10
403.99815475
 20
356.93666802
  0
VERTEX
  8
0
 10
403.85574586
 20
357.31258354
  0
VERTEX
  8
0
 10
403.73586418
 20
357.69829965
  0
VERTEX
  8
0
 10
403.63882875
 20
358.08640775
  0
VERTEX
  8
0
 10
403.56495860
 20
358.46949921
  0
VERTEX
  8
0
 10
403.51457278
 20
358.84016541
  0
VERTEX
  8
0
 10
403.48799032
 20
359.19099775
  0
VERTEX
  8
0
 10
403.48553025
 20
359.51458759
  0
VERTEX
  8
0
 10
403.50751162
 20
359.80352634
  0
VERTEX
  8
0
 10
403.55425345
 20
360.05040536
  0
VERTEX
  8
0
 10
403.62607478
 20
360.24781604
  0
VERTEX
  8
0
 10
403.72329466
 20
360.38834976
  0
VERTEX
  8
0
 10
403.78152874
 20
360.43497257
  0
VERTEX
  8
0
 10
403.84623210
 20
360.46459792
  0
VERTEX
  8
0
 10
403.91744462
 20
360.47629971
  0
VERTEX
  8
0
 10
403.99520616
 20
360.46915188
  0
VERTEX
  8
0
 10
404.07955662
 20
360.44222835
  0
VERTEX
  8
0
 10
404.17053587
 20
360.39460304
  0
VERTEX
  8
0
 10
404.55798251
 20
360.17841661
  0
VERTEX
  8
0
 10
404.71295511
 20
360.11133488
  0
VERTEX
  8
0
 10
404.84246187
 20
360.07102063
  0
VERTEX
  8
0
 10
404.94677877
 20
360.05704374
  0
VERTEX
  8
0
 10
405.02618180
 20
360.06897408
  0
VERTEX
  8
0
 10
405.08094693
 20
360.10638152
  0
VERTEX
  8
0
 10
405.11135014
 20
360.16883593
  0
VERTEX
  8
0
 10
405.11766741
 20
360.25590719
  0
VERTEX
  8
0
 10
405.10017473
 20
360.36716516
  0
VERTEX
  8
0
 10
404.99486340
 20
360.66052072
  0
VERTEX
  8
0
 10
404.79762401
 20
361.04546161
  0
VERTEX
  8
0
 10
404.51066439
 20
361.51854678
  0
VERTEX
  8
0
 10
404.13619238
 20
362.07633521
  0
VERTEX
  8
0
 10
403.67641582
 20
362.71538588
  0
VERTEX
  8
0
 10
403.13354255
 20
363.43225776
  0
VERTEX
  8
0
 10
402.50978041
 20
364.22350981
  0
VERTEX
  8
0
 10
401.80733725
 20
365.08570102
  0
VERTEX
  8
0
 10
401.02842090
 20
366.01539035
  0
VERTEX
  8
0
 10
399.25000000
 20
368.06349928
  0
VERTEX
  8
0
 10
397.97547376
 20
369.52541055
  0
VERTEX
  8
0
 10
396.55549858
 20
371.19653041
  0
VERTEX
  8
0
 10
395.03766728
 20
373.01831125
  0
VERTEX
  8
0
 10
393.46957268
 20
374.93220546
  0
VERTEX
  8
0
 10
391.89880759
 20
376.87966544
  0
VERTEX
  8
0
 10
390.37296484
 20
378.80214357
  0
VERTEX
  8
0
 10
388.93963724
 20
380.64109225
  0
VERTEX
  8
0
 10
387.64641762
 20
382.33796387
  0
VERTEX
  8
0
 10
386.46444751
 20
383.89605982
  0
VERTEX
  8
0
 10
385.34996421
 20
385.33727342
  0
VERTEX
  8
0
 10
384.32820418
 20
386.63094502
  0
VERTEX
  8
0
 10
383.42440388
 20
387.74641493
  0
VERTEX
  8
0
 10
382.66379976
 20
388.65302349
  0
VERTEX
  8
0
 10
382.07162828
 20
389.32011102
  0
VERTEX
  8
0
 10
381.67312590
 20
389.71701784
  0
VERTEX
  8
0
 10
381.55438701
 20
389.80457234
  0
VERTEX
  8
0
 10
381.51652577
 20
389.81894816
  0
VERTEX
  8
0
 10
381.49352907
 20
389.81308429
  0
VERTEX
  8
0
 10
381.38304158
 20
389.65475545
  0
VERTEX
  8
0
 10
381.20754436
 20
389.34643313
  0
VERTEX
  8
0
 10
380.67949410
 20
388.31972416
  0
VERTEX
  8
0
 10
379.94532486
 20
386.81278973
  0
VERTEX
  8
0
 10
379.04098326
 20
384.90546220
  0
VERTEX
  8
0
 10
376.86556933
 20
380.20895723
  0
VERTEX
  8
0
 10
374.44082508
 20
374.86886809
  0
VERTEX
  8
0
 10
372.05432325
 20
369.52385360
  0
VERTEX
  8
0
 10
369.99363662
 20
364.81257258
  0
VERTEX
  8
0
 10
369.17534049
 20
362.89416300
  0
VERTEX
  8
0
 10
368.54633795
 20
361.37368386
  0
VERTEX
  8
0
 10
368.14257559
 20
360.33096749
  0
VERTEX
  8
0
 10
368.03639278
 20
360.01371796
  0
VERTEX
  8
0
 10
368.00000000
 20
359.84584626
  0
VERTEX
  8
0
 10
368.03698303
 20
359.68571628
  0
VERTEX
  8
0
 10
368.14522431
 20
359.42957192
  0
VERTEX
  8
0
 10
368.32066209
 20
359.08327849
  0
VERTEX
  8
0
 10
368.55923463
 20
358.65270132
  0
VERTEX
  8
0
 10
369.20953706
 20
357.56215701
  0
VERTEX
  8
0
 10
370.06363768
 20
356.20486156
  0
VERTEX
  8
0
 10
371.08904260
 20
354.62773750
  0
VERTEX
  8
0
 10
372.25325791
 20
352.87770739
  0
VERTEX
  8
0
 10
373.52378969
 20
351.00169379
  0
VERTEX
  8
0
 10
374.86814405
 20
349.04661925
  0
VERTEX
  8
0
 10
376.25382708
 20
347.05940631
  0
VERTEX
  8
0
 10
377.64834486
 20
345.08697753
  0
VERTEX
  8
0
 10
379.01920350
 20
343.17625546
  0
VERTEX
  8
0
 10
380.33390909
 20
341.37416266
  0
VERTEX
  8
0
 10
381.55996771
 20
339.72762167
  0
VERTEX
  8
0
 10
382.66488548
 20
338.28355505
  0
VERTEX
  8
0
 10
383.61616846
 20
337.08888535
  0
VERTEX
  8
0
 10
384.38132277
 20
336.19053513
  0
VERTEX
  8
0
 10
384.80620718
 20
335.74836336
  0
VERTEX
  8
0
 10
385.21660269
 20
335.37790325
  0
VERTEX
  8
0
 10
385.60252502
 20
335.08425620
  0
VERTEX
  8
0
 10
385.95398987
 20
334.87252360
  0
VERTEX
  8
0
 10
386.11368064
 20
334.79896941
  0
VERTEX
  8
0
 10
386.26101294
 20
334.74780686
  0
VERTEX
  8
0
 10
386.39473872
 20
334.71967362
  0
VERTEX
  8
0
 10
386.51360994
 20
334.71520736
  0
VERTEX
  8
0
 10
386.61637858
 20
334.73504577
  0
VERTEX
  8
0
 10
386.70179658
 20
334.77982652
  0
VERTEX
  8
0
 10
386.76861593
 20
334.85018727
  0
VERTEX
  8
0
 10
386.81558857
 20
334.94676572
  0
VERTEX
  8
0
 10
386.90268494
 20
335.15111497
  0
VERTEX
  8
0
 10
387.01436116
 20
335.32295241
  0
VERTEX
  8
0
 10
387.14599761
 20
335.45986162
  0
VERTEX
  8
0
 10
387.29297468
 20
335.55942619
  0
VERTEX
  8
0
 10
387.45067273
 20
335.61922972
  0
VERTEX
  8
0
 10
387.61447215
 20
335.63685579
  0
VERTEX
  8
0
 10
387.77975331
 20
335.60988798
  0
VERTEX
  8
0
 10
387.94189658
 20
335.53590989
  0
SEQEND
  0
POLYLINE
  8
Calque_par_d_faut
 62
256
 66
   1
 39
0.000000
 70
    1
  0
VERTEX
  8
0
 10
293.57652674
 20
380.16970599
  0
VERTEX
  8
0
 10
293.86489608
 20
380.82510231
  0
VERTEX
  8
0
 10
294.11672194
 20
381.44046527
  0
VERTEX
  8
0
 10
294.33261351
 20
382.03093230
  0
VERTEX
  8
0
 10
294.51318003
 20
382.61164081
  0
VERTEX
  8
0
 10
294.65903071
 20
383.19772823
  0
VERTEX
  8
0
 10
294.77077476
 20
383.80433197
  0
VERTEX
  8
0
 10
294.84902141
 20
384.44658945
  0
VERTEX
  8
0
 10
294.89437987
 20
385.13963808
  0
VERTEX
  8
0
 10
294.90745936
 20
385.89861529
  0
VERTEX
  8
0
 10
294.88886910
 20
386.73865850
  0
VERTEX
  8
0
 10
294.83921831
 20
387.67490512
  0
VERTEX
  8
0
 10
294.75911619
 20
388.72249257
  0
VERTEX
  8
0
 10
294.64917198
 20
389.89655826
  0
VERTEX
  8
0
 10
294.50999488
 20
391.21223963
  0
VERTEX
  8
0
 10
294.14637891
 20
394.32899903
  0
VERTEX
  8
0
 10
293.77139931
 20
397.28076589
  0
VERTEX
  8
0
 10
293.32752791
 20
400.51226804
  0
VERTEX
  8
0
 10
292.82300159
 20
403.97685771
  0
VERTEX
  8
0
 10
292.26605718
 20
407.62788716
  0
VERTEX
  8
0
 10
291.66493154
 20
411.41870863
  0
VERTEX
  8
0
 10
291.02786152
 20
415.30267438
  0
VERTEX
  8
0
 10
290.36308399
 20
419.23313666
  0
VERTEX
  8
0
 10
289.67883578
 20
423.16344770
  0
VERTEX
  8
0
 10
288.98335376
 20
427.04695976
  0
VERTEX
  8
0
 10
288.28487478
 20
430.83702508
  0
VERTEX
  8
0
 10
287.59163568
 20
434.48699592
  0
VERTEX
  8
0
 10
286.91187333
 20
437.95022452
  0
VERTEX
  8
0
 10
286.25382458
 20
441.18006313
  0
VERTEX
  8
0
 10
285.62572627
 20
444.12986400
  0
VERTEX
  8
0
 10
285.03581527
 20
446.75297938
  0
VERTEX
  8
0
 10
284.49232842
 20
449.00276151
  0
VERTEX
  8
0
 10
283.95947156
 20
451.05015293
  0
VERTEX
  8
0
 10
283.40431938
 20
453.05983248
  0
VERTEX
  8
0
 10
282.82239453
 20
455.04308549
  0
VERTEX
  8
0
 10
282.20921965
 20
457.01119725
  0
VERTEX
  8
0
 10
281.56031740
 20
458.97545308
  0
VERTEX
  8
0
 10
280.87121041
 20
460.94713830
  0
VERTEX
  8
0
 10
280.13742133
 20
462.93753820
  0
VERTEX
  8
0
 10
279.35447281
 20
464.95793810
  0
VERTEX
  8
0
 10
278.51788749
 20
467.01962332
  0
VERTEX
  8
0
 10
277.62318803
 20
469.13387916
  0
VERTEX
  8
0
 10
276.66589705
 20
471.31199092
  0
VERTEX
  8
0
 10
275.64153722
 20
473.56524393
  0
VERTEX
  8
0
 10
274.54563117
 20
475.90492349
  0
VERTEX
  8
0
 10
273.37370155
 20
478.34231492
  0
VERTEX
  8
0
 10
272.12127100
 20
480.88870352
  0
VERTEX
  8
0
 10
270.78386218
 20
483.55537460
  0
VERTEX
  8
0
 10
269.12396746
 20
486.80914153
  0
VERTEX
  8
0
 10
268.42451020
 20
488.14707969
  0
VERTEX
  8
0
 10
267.79900248
 20
489.30882410
  0
VERTEX
  8
0
 10
267.23766140
 20
490.30670210
  0
VERTEX
  8
0
 10
266.73070408
 20
491.15304103
  0
VERTEX
  8
0
 10
266.26834761
 20
491.86016823
  0
VERTEX
  8
0
 10
265.84080909
 20
492.44041104
  0
VERTEX
  8
0
 10
265.43830564
 20
492.90609681
  0
VERTEX
  8
0
 10
265.24338491
 20
493.09983309
  0
VERTEX
  8
0
 10
265.05105436
 20
493.26955287
  0
VERTEX
  8
0
 10
264.86009112
 20
493.41679705
  0
VERTEX
  8
0
 10
264.66927234
 20
493.54310656
  0
VERTEX
  8
0
 10
264.47737516
 20
493.65002231
  0
VERTEX
  8
0
 10
264.28317670
 20
493.73908523
  0
VERTEX
  8
0
 10
264.08545412
 20
493.81183622
  0
VERTEX
  8
0
 10
263.88298455
 20
493.86981621
  0
VERTEX
  8
0
 10
263.45891297
 20
493.94762685
  0
VERTEX
  8
0
 10
263.00117909
 20
493.98484449
  0
VERTEX
  8
0
 10
262.50000000
 20
493.99379646
  0
VERTEX
  8
0
 10
261.99998221
 20
493.98551753
  0
VERTEX
  8
0
 10
261.54973056
 20
493.95663524
  0
VERTEX
  8
0
 10
261.14201073
 20
493.89785903
  0
VERTEX
  8
0
 10
260.76958842
 20
493.79989839
  0
VERTEX
  8
0
 10
260.42522929
 20
493.65346276
  0
VERTEX
  8
0
 10
260.26131271
 20
493.55916354
  0
VERTEX
  8
0
 10
260.10169905
 20
493.44926162
  0
VERTEX
  8
0
 10
259.94548403
 20
493.32259569
  0
VERTEX
  8
0
 10
259.79176336
 20
493.17800444
  0
VERTEX
  8
0
 10
259.48818791
 20
492.83040066
  0
VERTEX
  8
0
 10
259.18373839
 20
492.39715977
  0
VERTEX
  8
0
 10
258.87118048
 20
491.86899122
  0
VERTEX
  8
0
 10
258.54327987
 20
491.23660448
  0
VERTEX
  8
0
 10
258.19280222
 20
490.49070901
  0
VERTEX
  8
0
 10
257.81251324
 20
489.62201428
  0
VERTEX
  8
0
 10
257.39517860
 20
488.62122976
  0
VERTEX
  8
0
 10
256.42043508
 20
486.18622916
  0
VERTEX
  8
0
 10
253.34087016
 20
478.38477258
  0
VERTEX
  8
0
 10
257.15332559
 20
464.94238629
  0
VERTEX
  8
0
 10
257.94264551
 20
462.09102746
  0
VERTEX
  8
0
 10
258.75052122
 20
459.04296815
  0
VERTEX
  8
0
 10
259.56994630
 20
455.83085731
  0
VERTEX
  8
0
 10
260.39391428
 20
452.48734389
  0
VERTEX
  8
0
 10
261.21541873
 20
449.04507683
  0
VERTEX
  8
0
 10
262.02745319
 20
445.53670511
  0
VERTEX
  8
0
 10
262.82301123
 20
441.99487765
  0
VERTEX
  8
0
 10
263.59508640
 20
438.45224343
  0
VERTEX
  8
0
 10
264.33667226
 20
434.94145138
  0
VERTEX
  8
0
 10
265.04076235
 20
431.49515046
  0
VERTEX
  8
0
 10
265.70035023
 20
428.14598963
  0
VERTEX
  8
0
 10
266.30842946
 20
424.92661783
  0
VERTEX
  8
0
 10
266.85799360
 20
421.86968401
  0
VERTEX
  8
0
 10
267.34203619
 20
419.00783714
  0
VERTEX
  8
0
 10
267.75355079
 20
416.37372615
  0
VERTEX
  8
0
 10
268.08553096
 20
414.00000000
  0
VERTEX
  8
0
 10
268.18476580
 20
413.09918365
  0
VERTEX
  8
0
 10
268.28129552
 20
411.95518637
  0
VERTEX
  8
0
 10
268.37461695
 20
410.58537330
  0
VERTEX
  8
0
 10
268.46422696
 20
409.00710958
  0
VERTEX
  8
0
 10
268.63030011
 20
405.29469074
  0
VERTEX
  8
0
 10
268.77548977
 20
400.95685100
  0
VERTEX
  8
0
 10
268.89577075
 20
396.13251147
  0
VERTEX
  8
0
 10
268.98711788
 20
390.96059330
  0
VERTEX
  8
0
 10
269.04550596
 20
385.58001760
  0
VERTEX
  8
0
 10
269.06690980
 20
380.12970552
  0
VERTEX
  8
0
 10
269.07452191
 20
353.75941104
  0
VERTEX
  8
0
 10
280.42628975
 20
364.97041248
  0
VERTEX
  8
0
 10
281.64882892
 20
366.18852197
  0
VERTEX
  8
0
 10
282.84113099
 20
367.39767277
  0
VERTEX
  8
0
 10
285.11515282
 20
369.76613106
  0
VERTEX
  8
0
 10
286.18693711
 20
370.91395491
  0
VERTEX
  8
0
 10
287.20861330
 20
372.02985282
  0
VERTEX
  8
0
 10
288.17521367
 20
373.10808298
  0
VERTEX
  8
0
 10
289.08177046
 20
374.14290356
  0
VERTEX
  8
0
 10
289.92331594
 20
375.12857276
  0
VERTEX
  8
0
 10
290.69488235
 20
376.05934876
  0
VERTEX
  8
0
 10
291.39150195
 20
376.92948974
  0
VERTEX
  8
0
 10
292.00820699
 20
377.73325390
  0
VERTEX
  8
0
 10
292.54002974
 20
378.46489942
  0
VERTEX
  8
0
 10
292.98200244
 20
379.11868448
  0
VERTEX
  8
0
 10
293.32915736
 20
379.68886728
  0
VERTEX
  8
0
 10
293.57652674
 20
380.16970599
  0
SEQEND
  0
POLYLINE
  8
Calque_par_d_faut
 62
256
 66
   1
 39
0.000000
 70
    1
  0
VERTEX
  8
0
 10
434.92090975
 20
366.00000000
  0
VERTEX
  8
0
 10
434.89286336
 20
367.39755859
  0
VERTEX
  8
0
 10
434.83933638
 20
368.87890625
  0
VERTEX
  8
0
 10
434.76345690
 20
370.39892578
  0
VERTEX
  8
0
 10
434.66835300
 20
371.91250000
  0
VERTEX
  8
0
 10
434.55715276
 20
373.37451172
  0
VERTEX
  8
0
 10
434.43298424
 20
374.73984375
  0
VERTEX
  8
0
 10
434.29897553
 20
375.96337891
  0
VERTEX
  8
0
 10
434.15825471
 20
377.00000000
  0
VERTEX
  8
0
 10
433.46475563
 20
381.50000000
  0
VERTEX
  8
0
 10
426.73446909
 20
373.02932773
  0
VERTEX
  8
0
 10
420.00418255
 20
364.55865545
  0
VERTEX
  8
0
 10
425.25209127
 20
359.23559397
  0
VERTEX
  8
0
 10
430.50000000
 20
353.91253249
  0
VERTEX
  8
0
 10
432.74503286
 20
356.70626625
  0
VERTEX
  8
0
 10
433.07205570
 20
357.12812327
  0
VERTEX
  8
0
 10
433.36693561
 20
357.54268181
  0
VERTEX
  8
0
 10
433.63110234
 20
357.95604870
  0
VERTEX
  8
0
 10
433.86598565
 20
358.37433081
  0
VERTEX
  8
0
 10
434.07301529
 20
358.80363500
  0
VERTEX
  8
0
 10
434.25362103
 20
359.25006813
  0
VERTEX
  8
0
 10
434.40923261
 20
359.71973706
  0
VERTEX
  8
0
 10
434.54127980
 20
360.21874864
  0
VERTEX
  8
0
 10
434.65119235
 20
360.75320974
  0
VERTEX
  8
0
 10
434.74040001
 20
361.32922721
  0
VERTEX
  8
0
 10
434.81033254
 20
361.95290792
  0
VERTEX
  8
0
 10
434.86241970
 20
362.63035871
  0
VERTEX
  8
0
 10
434.89809125
 20
363.36768646
  0
VERTEX
  8
0
 10
434.91877693
 20
364.17099802
  0
VERTEX
  8
0
 10
434.92090975
 20
366.00000000
  0
SEQEND
  0
POLYLINE
  8
Calque_par_d_faut
 62
256
 66
   1
 39
0.000000
 70
    1
  0
VERTEX
  8
0
 10
88.47571460
 20
379.17471391
  0
VERTEX
  8
0
 10
89.89650063
 20
380.90609452
  0
VERTEX
  8
0
 10
92.30446466
 20
383.90132221
  0
VERTEX
  8
0
 10
95.36296240
 20
387.73956727
  0
VERTEX
  8
0
 10
98.73534960
 20
392.00000000
  0
VERTEX
  8
0
 10
107.90866504
 20
403.59970502
  0
VERTEX
  8
0
 10
108.15988168
 20
403.93018839
  0
VERTEX
  8
0
 10
108.43388470
 20
404.32736222
  0
VERTEX
  8
0
 10
109.04313552
 20
405.30572350
  0
VERTEX
  8
0
 10
109.72218866
 20
406.50267342
  0
VERTEX
  8
0
 10
110.45681529
 20
407.88609653
  0
VERTEX
  8
0
 10
111.23278659
 20
409.42387737
  0
VERTEX
  8
0
 10
112.03587373
 20
411.08390050
  0
VERTEX
  8
0
 10
112.85184788
 20
412.83405047
  0
VERTEX
  8
0
 10
113.66648021
 20
414.64221183
  0
VERTEX
  8
0
 10
114.46554189
 20
416.47626913
  0
VERTEX
  8
0
 10
115.23480409
 20
418.30410693
  0
VERTEX
  8
0
 10
115.96003798
 20
420.09360977
  0
VERTEX
  8
0
 10
116.62701473
 20
421.81266221
  0
VERTEX
  8
0
 10
117.22150552
 20
423.42914879
  0
VERTEX
  8
0
 10
117.72928151
 20
424.91095408
  0
VERTEX
  8
0
 10
118.13611388
 20
426.22596261
  0
VERTEX
  8
0
 10
118.29722970
 20
426.81088202
  0
VERTEX
  8
0
 10
118.42777380
 20
427.34205895
  0
VERTEX
  8
0
 10
119.52396038
 20
432.21669849
  0
VERTEX
  8
0
 10
119.96507440
 20
434.26659465
  0
VERTEX
  8
0
 10
120.33822563
 20
436.10144793
  0
VERTEX
  8
0
 10
120.64593163
 20
437.75368798
  0
VERTEX
  8
0
 10
120.89070995
 20
439.25574445
  0
VERTEX
  8
0
 10
121.07507815
 20
440.64004700
  0
VERTEX
  8
0
 10
121.20155379
 20
441.93902526
  0
VERTEX
  8
0
 10
121.27265440
 20
443.18510889
  0
VERTEX
  8
0
 10
121.29089756
 20
444.41072754
  0
VERTEX
  8
0
 10
121.25880080
 20
445.64831085
  0
VERTEX
  8
0
 10
121.17888169
 20
446.93028848
  0
VERTEX
  8
0
 10
121.05365777
 20
448.28909008
  0
VERTEX
  8
0
 10
120.88564660
 20
449.75714529
  0
VERTEX
  8
0
 10
120.67736573
 20
451.36688377
  0
VERTEX
  8
0
 10
120.43133272
 20
453.15073516
  0
VERTEX
  8
0
 10
120.12296209
 20
455.25565030
  0
VERTEX
  8
0
 10
119.77265134
 20
457.48684925
  0
VERTEX
  8
0
 10
119.39254581
 20
459.77637129
  0
VERTEX
  8
0
 10
118.99479085
 20
462.05625572
  0
VERTEX
  8
0
 10
118.59153179
 20
464.25854183
  0
VERTEX
  8
0
 10
118.19491396
 20
466.31526891
  0
VERTEX
  8
0
 10
117.81708272
 20
468.15847625
  0
VERTEX
  8
0
 10
117.47018340
 20
469.72020314
  0
VERTEX
  8
0
 10
116.77923506
 20
472.74002074
  0
VERTEX
  8
0
 10
116.07133946
 20
475.95044902
  0
VERTEX
  8
0
 10
115.42961127
 20
478.96794983
  0
VERTEX
  8
0
 10
114.93716515
 20
481.40898501
  0
VERTEX
  8
0
 10
114.48728561
 20
483.62211289
  0
VERTEX
  8
0
 10
113.96145653
 20
486.01907402
  0
VERTEX
  8
0
 10
113.42509160
 20
488.31110357
  0
VERTEX
  8
0
 10
112.94360455
 20
490.20943672
  0
VERTEX
  8
0
 10
111.89574138
 20
494.10090342
  0
VERTEX
  8
0
 10
106.69787069
 20
493.80045171
  0
VERTEX
  8
0
 10
101.50000000
 20
493.50000000
  0
VERTEX
  8
0
 10
100.87338085
 20
478.50000000
  0
VERTEX
  8
0
 10
100.72328765
 20
475.36435547
  0
VERTEX
  8
0
 10
100.53644647
 20
472.20234375
  0
VERTEX
  8
0
 10
100.32029432
 20
469.10009766
  0
VERTEX
  8
0
 10
100.08226822
 20
466.14375000
  0
VERTEX
  8
0
 10
99.82980519
 20
463.41943359
  0
VERTEX
  8
0
 10
99.57034226
 20
461.01328125
  0
VERTEX
  8
0
 10
99.31131644
 20
459.01142578
  0
VERTEX
  8
0
 10
99.18429151
 20
458.18902588
  0
VERTEX
  8
0
 10
99.06016474
 20
457.50000000
  0
VERTEX
  8
0
 10
98.87800779
 20
456.62083508
  0
VERTEX
  8
0
 10
98.67341568
 20
455.71089720
  0
VERTEX
  8
0
 10
98.19967690
 20
453.80574293
  0
VERTEX
  8
0
 10
97.64445030
 20
451.79861783
  0
VERTEX
  8
0
 10
97.01323777
 20
449.70360257
  0
VERTEX
  8
0
 10
96.31154120
 20
447.53477782
  0
VERTEX
  8
0
 10
95.54486249
 20
445.30622422
  0
VERTEX
  8
0
 10
94.71870354
 20
443.03202243
  0
VERTEX
  8
0
 10
93.83856623
 20
440.72625313
  0
VERTEX
  8
0
 10
92.90995246
 20
438.40299696
  0
VERTEX
  8
0
 10
91.93836413
 20
436.07633459
  0
VERTEX
  8
0
 10
90.92930312
 20
433.76034667
  0
VERTEX
  8
0
 10
89.88827134
 20
431.46911387
  0
VERTEX
  8
0
 10
88.82077068
 20
429.21671685
  0
VERTEX
  8
0
 10
87.73230302
 20
427.01723625
  0
VERTEX
  8
0
 10
86.62837028
 20
424.88475275
  0
VERTEX
  8
0
 10
85.51447433
 20
422.83334700
  0
VERTEX
  8
0
 10
80.13205168
 20
413.16669401
  0
VERTEX
  8
0
 10
81.07549343
 20
396.33334700
  0
VERTEX
  8
0
 10
81.46801915
 20
389.53449208
  0
VERTEX
  8
0
 10
81.64309119
 20
386.74826978
  0
VERTEX
  8
0
 10
81.80991824
 20
384.33836244
  0
VERTEX
  8
0
 10
81.97291197
 20
382.28040369
  0
VERTEX
  8
0
 10
82.13648404
 20
380.55002718
  0
VERTEX
  8
0
 10
82.30504613
 20
379.12286655
  0
VERTEX
  8
0
 10
82.48300990
 20
377.97455542
  0
VERTEX
  8
0
 10
82.57689606
 20
377.49735394
  0
VERTEX
  8
0
 10
82.67478702
 20
377.08072745
  0
VERTEX
  8
0
 10
82.77723423
 20
376.72163015
  0
VERTEX
  8
0
 10
82.88478916
 20
376.41701626
  0
VERTEX
  8
0
 10
82.99800326
 20
376.16383997
  0
VERTEX
  8
0
 10
83.11742799
 20
375.95905550
  0
VERTEX
  8
0
 10
83.24361480
 20
375.79961704
  0
VERTEX
  8
0
 10
83.37711517
 20
375.68247880
  0
VERTEX
  8
0
 10
83.51848054
 20
375.60459498
  0
VERTEX
  8
0
 10
83.66826238
 20
375.56291980
  0
VERTEX
  8
0
 10
83.82701214
 20
375.55440745
  0
VERTEX
  8
0
 10
83.99528128
 20
375.57601215
  0
VERTEX
  8
0
 10
84.17362126
 20
375.62468808
  0
VERTEX
  8
0
 10
84.36258354
 20
375.69738947
  0
VERTEX
  8
0
 10
84.77458083
 20
375.90268541
  0
VERTEX
  8
0
 10
85.16150579
 20
376.14032544
  0
VERTEX
  8
0
 10
85.60042497
 20
376.45376734
  0
VERTEX
  8
0
 10
86.07615795
 20
376.82959068
  0
VERTEX
  8
0
 10
86.57352428
 20
377.25437502
  0
VERTEX
  8
0
 10
87.07734355
 20
377.71469995
  0
VERTEX
  8
0
 10
87.57243531
 20
378.19714502
  0
VERTEX
  8
0
 10
88.04361914
 20
378.68828982
  0
VERTEX
  8
0
 10
88.47571460
 20
379.17471391
  0
SEQEND
  0
POLYLINE
  8
Calque_par_d_faut
 62
256
 66
   1
 39
0.000000
 70
    1
  0
VERTEX
  8
0
 10
416.27793379
 20
378.26253968
  0
VERTEX
  8
0
 10
416.80877277
 20
378.64732199
  0
VERTEX
  8
0
 10
417.33203668
 20
379.09611540
  0
VERTEX
  8
0
 10
417.83426827
 20
379.59267437
  0
VERTEX
  8
0
 10
418.30201029
 20
380.12075336
  0
VERTEX
  8
0
 10
418.72180551
 20
380.66410681
  0
VERTEX
  8
0
 10
419.08019668
 20
381.20648918
  0
VERTEX
  8
0
 10
419.23216036
 20
381.47223948
  0
VERTEX
  8
0
 10
419.36372656
 20
381.73165493
  0
VERTEX
  8
0
 10
419.47321312
 20
381.98270484
  0
VERTEX
  8
0
 10
419.55893790
 20
382.22335851
  0
VERTEX
  8
0
 10
419.71424410
 20
382.69089284
  0
VERTEX
  8
0
 10
419.88340471
 20
383.14678884
  0
VERTEX
  8
0
 10
420.06098169
 20
383.57965793
  0
VERTEX
  8
0
 10
420.24153703
 20
383.97811156
  0
VERTEX
  8
0
 10
420.41963268
 20
384.33076115
  0
VERTEX
  8
0
 10
420.58983062
 20
384.62621813
  0
VERTEX
  8
0
 10
420.74669282
 20
384.85309394
  0
VERTEX
  8
0
 10
420.88478125
 20
385.00000000
  0
VERTEX
  8
0
 10
420.96453185
 20
385.08113823
  0
VERTEX
  8
0
 10
421.06568155
 20
385.21108244
  0
VERTEX
  8
0
 10
421.32613353
 20
385.60508251
  0
VERTEX
  8
0
 10
421.65404771
 20
386.15738763
  0
VERTEX
  8
0
 10
422.03733460
 20
386.84338521
  0
VERTEX
  8
0
 10
422.92166862
 20
388.51800739
  0
VERTEX
  8
0
 10
423.88241975
 20
390.43204834
  0
VERTEX
  8
0
 10
424.82287214
 20
392.38860734
  0
VERTEX
  8
0
 10
425.64630997
 20
394.19078369
  0
VERTEX
  8
0
 10
425.98392472
 20
394.97244689
  0
VERTEX
  8
0
 10
426.25601738
 20
395.64167667
  0
VERTEX
  8
0
 10
426.45049848
 20
396.17386043
  0
VERTEX
  8
0
 10
426.55527854
 20
396.54438558
  0
VERTEX
  8
0
 10
426.64126874
 20
396.85148721
  0
VERTEX
  8
0
 10
426.80718176
 20
397.32609102
  0
VERTEX
  8
0
 10
427.33974136
 20
398.68245299
  0
VERTEX
  8
0
 10
428.07488748
 20
400.42276710
  0
VERTEX
  8
0
 10
428.93455027
 20
402.35632894
  0
VERTEX
  8
0
 10
429.36309801
 20
403.31001288
  0
VERTEX
  8
0
 10
429.72805423
 20
404.19067517
  0
VERTEX
  8
0
 10
429.88488581
 20
404.61872430
  0
VERTEX
  8
0
 10
430.02365984
 20
405.04663933
  0
VERTEX
  8
0
 10
430.14365645
 20
405.48046072
  0
VERTEX
  8
0
 10
430.24415576
 20
405.92622889
  0
VERTEX
  8
0
 10
430.32443786
 20
406.38998430
  0
VERTEX
  8
0
 10
430.38378289
 20
406.87776738
  0
VERTEX
  8
0
 10
430.42147096
 20
407.39561857
  0
VERTEX
  8
0
 10
430.43678217
 20
407.94957831
  0
VERTEX
  8
0
 10
430.42899664
 20
408.54568704
  0
VERTEX
  8
0
 10
430.39739449
 20
409.18998521
  0
VERTEX
  8
0
 10
430.34125584
 20
409.88851325
  0
VERTEX
  8
0
 10
430.25986079
 20
410.64731160
  0
VERTEX
  8
0
 10
430.15248946
 20
411.47242071
  0
VERTEX
  8
0
 10
430.01842197
 20
412.36988101
  0
VERTEX
  8
0
 10
429.66731896
 20
414.40601696
  0
VERTEX
  8
0
 10
429.20079266
 20
416.80404298
  0
VERTEX
  8
0
 10
428.61308399
 20
419.61228258
  0
VERTEX
  8
0
 10
427.89843387
 20
422.87905930
  0
VERTEX
  8
0
 10
427.05108321
 20
426.65269665
  0
VERTEX
  8
0
 10
424.93524395
 20
435.91384736
  0
VERTEX
  8
0
 10
424.36325632
 20
438.27079690
  0
VERTEX
  8
0
 10
423.69397724
 20
440.79448509
  0
VERTEX
  8
0
 10
422.94327896
 20
443.44092324
  0
VERTEX
  8
0
 10
422.12703372
 20
446.16612263
  0
VERTEX
  8
0
 10
421.26111376
 20
448.92609454
  0
VERTEX
  8
0
 10
420.36139131
 20
451.67685026
  0
VERTEX
  8
0
 10
419.44373863
 20
454.37440107
  0
VERTEX
  8
0
 10
418.52402794
 20
456.97475827
  0
VERTEX
  8
0
 10
417.61813149
 20
459.43393314
  0
VERTEX
  8
0
 10
416.74192153
 20
461.70793696
  0
VERTEX
  8
0
 10
415.91127028
 20
463.75278103
  0
VERTEX
  8
0
 10
415.14205000
 20
465.52447662
  0
VERTEX
  8
0
 10
414.78543654
 20
466.29414727
  0
VERTEX
  8
0
 10
414.45013291
 20
466.97903503
  0
VERTEX
  8
0
 10
414.13812315
 20
467.57364132
  0
VERTEX
  8
0
 10
413.85139127
 20
468.07246754
  0
VERTEX
  8
0
 10
413.59192132
 20
468.47001511
  0
VERTEX
  8
0
 10
413.36169731
 20
468.76078543
  0
VERTEX
  8
0
 10
413.25817255
 20
468.86441082
  0
VERTEX
  8
0
 10
413.16270329
 20
468.93927993
  0
VERTEX
  8
0
 10
413.07553753
 20
468.98470543
  0
VERTEX
  8
0
 10
412.99692328
 20
469.00000000
  0
VERTEX
  8
0
 10
412.92205288
 20
468.98391360
  0
VERTEX
  8
0
 10
412.83793634
 20
468.93229838
  0
VERTEX
  8
0
 10
412.74263578
 20
468.84012032
  0
VERTEX
  8
0
 10
412.63421333
 20
468.70234538
  0
VERTEX
  8
0
 10
412.37025129
 20
468.26986882
  0
VERTEX
  8
0
 10
412.03054727
 20
467.59459649
  0
VERTEX
  8
0
 10
411.59959830
 20
466.63625620
  0
VERTEX
  8
0
 10
411.06190142
 20
465.35457576
  0
VERTEX
  8
0
 10
410.40195367
 20
463.70928296
  0
VERTEX
  8
0
 10
409.60425210
 20
461.66010561
  0
VERTEX
  8
0
 10
407.53357560
 20
456.18900847
  0
VERTEX
  8
0
 10
404.72584826
 20
448.61910679
  0
VERTEX
  8
0
 10
401.05704639
 20
438.62822299
  0
VERTEX
  8
0
 10
396.40314629
 20
425.89417950
  0
VERTEX
  8
0
 10
389.97697269
 20
408.28835899
  0
VERTEX
  8
0
 10
395.73848635
 20
398.15630798
  0
VERTEX
  8
0
 10
397.18908935
 20
395.63528851
  0
VERTEX
  8
0
 10
398.59845330
 20
393.24574385
  0
VERTEX
  8
0
 10
399.96296994
 20
390.99252680
  0
VERTEX
  8
0
 10
401.27903100
 20
388.88049016
  0
VERTEX
  8
0
 10
402.54302820
 20
386.91448672
  0
VERTEX
  8
0
 10
403.75135329
 20
385.09936926
  0
VERTEX
  8
0
 10
404.90039798
 20
383.43999058
  0
VERTEX
  8
0
 10
405.98655402
 20
381.94120348
  0
VERTEX
  8
0
 10
407.00621313
 20
380.60786075
  0
VERTEX
  8
0
 10
407.95576706
 20
379.44481517
  0
VERTEX
  8
0
 10
408.40312699
 20
378.92867031
  0
VERTEX
  8
0
 10
408.83160752
 20
378.45691954
  0
VERTEX
  8
0
 10
409.24075762
 20
378.03016945
  0
VERTEX
  8
0
 10
409.63012625
 20
377.64902665
  0
VERTEX
  8
0
 10
409.99926239
 20
377.31409773
  0
VERTEX
  8
0
 10
410.34771499
 20
377.02598930
  0
VERTEX
  8
0
 10
410.67503303
 20
376.78530795
  0
VERTEX
  8
0
 10
410.98076546
 20
376.59266028
  0
VERTEX
  8
0
 10
411.26446126
 20
376.44865289
  0
VERTEX
  8
0
 10
411.52566940
 20
376.35389237
  0
VERTEX
  8
0
 10
411.76393884
 20
376.30898534
  0
VERTEX
  8
0
 10
411.97881854
 20
376.31453838
  0
VERTEX
  8
0
 10
412.37854693
 20
376.40190937
  0
VERTEX
  8
0
 10
412.85287322
 20
376.54986840
  0
VERTEX
  8
0
 10
413.38416432
 20
376.75042560
  0
VERTEX
  8
0
 10
413.95478714
 20
376.99559114
  0
VERTEX
  8
0
 10
414.54710858
 20
377.27737517
  0
VERTEX
  8
0
 10
415.14349557
 20
377.58778784
  0
VERTEX
  8
0
 10
415.72631500
 20
377.91883929
  0
VERTEX
  8
0
 10
416.27793379
 20
378.26253968
  0
SEQEND
  0
POLYLINE
  8
Calque_par_d_faut
 62
256
 66
   1
 39
0.000000
 70
    1
  0
VERTEX
  8
0
 10
356.40462106
 20
392.27611793
  0
VERTEX
  8
0
 10
357.14847159
 20
393.88893633
  0
VERTEX
  8
0
 10
357.87832695
 20
395.50892170
  0
VERTEX
  8
0
 10
359.27728924
 20
398.72144923
  0
VERTEX
  8
0
 10
360.56398207
 20
401.81581233
  0
VERTEX
  8
0
 10
361.70087962
 20
404.69412282
  0
VERTEX
  8
0
 10
362.20142832
 20
406.02166828
  0
VERTEX
  8
0
 10
362.65045602
 20
407.25849250
  0
VERTEX
  8
0
 10
363.04327197
 20
408.39235949
  0
VERTEX
  8
0
 10
363.37518545
 20
409.41103319
  0
VERTEX
  8
0
 10
363.64150572
 20
410.30227761
  0
VERTEX
  8
0
 10
363.83754205
 20
411.05385670
  0
VERTEX
  8
0
 10
363.95860373
 20
411.65353445
  0
VERTEX
  8
0
 10
363.98955321
 20
411.89258657
  0
VERTEX
  8
0
 10
364.00000000
 20
412.08907483
  0
VERTEX
  8
0
 10
364.01884330
 20
412.44626296
  0
VERTEX
  8
0
 10
364.07284874
 20
412.79263979
  0
VERTEX
  8
0
 10
364.15822963
 20
413.11968395
  0
VERTEX
  8
0
 10
364.27119927
 20
413.41887407
  0
VERTEX
  8
0
 10
364.40797098
 20
413.68168877
  0
VERTEX
  8
0
 10
364.56475806
 20
413.89960669
  0
VERTEX
  8
0
 10
364.73777382
 20
414.06410644
  0
VERTEX
  8
0
 10
364.82918412
 20
414.12366158
  0
VERTEX
  8
0
 10
364.92323157
 20
414.16666667
  0
VERTEX
  8
0
 10
364.96323852
 20
414.20167165
  0
VERTEX
  8
0
 10
364.98825073
 20
414.27171190
  0
VERTEX
  8
0
 10
364.99856761
 20
414.37588790
  0
VERTEX
  8
0
 10
364.99448859
 20
414.51330013
  0
VERTEX
  8
0
 10
364.94434049
 20
414.88423516
  0
VERTEX
  8
0
 10
364.84020177
 20
415.37732080
  0
VERTEX
  8
0
 10
364.68446779
 20
415.98536084
  0
VERTEX
  8
0
 10
364.47953387
 20
416.70115908
  0
VERTEX
  8
0
 10
363.93164760
 20
418.42724541
  0
VERTEX
  8
0
 10
363.21570572
 20
420.49801018
  0
VERTEX
  8
0
 10
362.35087095
 20
422.85588383
  0
VERTEX
  8
0
 10
361.35630604
 20
425.44329676
  0
VERTEX
  8
0
 10
360.25117372
 20
428.20267940
  0
VERTEX
  8
0
 10
359.11188995
 20
430.94579768
  0
VERTEX
  8
0
 10
358.01944598
 20
433.48659653
  0
VERTEX
  8
0
 10
356.99986752
 20
435.77077479
  0
VERTEX
  8
0
 10
356.07918030
 20
437.74403130
  0
VERTEX
  8
0
 10
355.28341001
 20
439.35206493
  0
VERTEX
  8
0
 10
354.94050175
 20
440.00215404
  0
VERTEX
  8
0
 10
354.63858236
 20
440.54057451
  0
VERTEX
  8
0
 10
354.38090506
 20
440.96053867
  0
VERTEX
  8
0
 10
354.17072307
 20
441.25525890
  0
VERTEX
  8
0
 10
354.01128959
 20
441.41794754
  0
VERTEX
  8
0
 10
353.95162018
 20
441.44765887
  0
VERTEX
  8
0
 10
353.90585784
 20
441.44181695
  0
VERTEX
  8
0
 10
353.81825643
 20
441.35963445
  0
VERTEX
  8
0
 10
353.71113927
 20
441.21115432
  0
VERTEX
  8
0
 10
353.44432230
 20
440.73007227
  0
VERTEX
  8
0
 10
353.11733620
 20
440.02811304
  0
VERTEX
  8
0
 10
352.74211020
 20
439.13481886
  0
VERTEX
  8
0
 10
352.33057357
 20
438.07973199
  0
VERTEX
  8
0
 10
351.89465555
 20
436.89239465
  0
VERTEX
  8
0
 10
351.44628541
 20
435.60234909
  0
VERTEX
  8
0
 10
350.99739238
 20
434.23913755
  0
VERTEX
  8
0
 10
350.45968670
 20
432.66583796
  0
VERTEX
  8
0
 10
349.75677692
 20
430.77367401
  0
VERTEX
  8
0
 10
348.91843982
 20
428.63440660
  0
VERTEX
  8
0
 10
347.97445216
 20
426.31979662
  0
VERTEX
  8
0
 10
346.95459073
 20
423.90160496
  0
VERTEX
  8
0
 10
345.88863229
 20
421.45159251
  0
VERTEX
  8
0
 10
344.80635362
 20
419.04152017
  0
VERTEX
  8
0
 10
343.73753150
 20
416.74314881
  0
VERTEX
  8
0
 10
338.63610961
 20
405.98629763
  0
VERTEX
  8
0
 10
340.42054798
 20
402.24314881
  0
VERTEX
  8
0
 10
340.85955816
 20
401.35328060
  0
VERTEX
  8
0
 10
341.42483660
 20
400.25644118
  0
VERTEX
  8
0
 10
342.84017068
 20
397.61414660
  0
VERTEX
  8
0
 10
344.47849500
 20
394.66086093
  0
VERTEX
  8
0
 10
346.15175437
 20
391.74118003
  0
VERTEX
  8
0
 10
347.33430481
 20
389.74552945
  0
VERTEX
  8
0
 10
347.84140383
 20
388.92013131
  0
VERTEX
  8
0
 10
348.29981759
 20
388.20245042
  0
VERTEX
  8
0
 10
348.71512023
 20
387.58706117
  0
VERTEX
  8
0
 10
349.09288589
 20
387.06853793
  0
VERTEX
  8
0
 10
349.43868873
 20
386.64145506
  0
VERTEX
  8
0
 10
349.75810290
 20
386.30038695
  0
VERTEX
  8
0
 10
350.05670253
 20
386.03990797
  0
VERTEX
  8
0
 10
350.34006178
 20
385.85459249
  0
VERTEX
  8
0
 10
350.61375480
 20
385.73901488
  0
VERTEX
  8
0
 10
350.74871839
 20
385.70568226
  0
VERTEX
  8
0
 10
350.88335573
 20
385.68774951
  0
VERTEX
  8
0
 10
351.15443872
 20
385.69537076
  0
VERTEX
  8
0
 10
351.43257792
 20
385.75645301
  0
VERTEX
  8
0
 10
351.72334748
 20
385.86557062
  0
VERTEX
  8
0
 10
352.03232154
 20
386.01729796
  0
VERTEX
  8
0
 10
352.24196408
 20
386.14982612
  0
VERTEX
  8
0
 10
352.47055117
 20
386.33181541
  0
VERTEX
  8
0
 10
352.71584117
 20
386.56005695
  0
VERTEX
  8
0
 10
352.97559241
 20
386.83134189
  0
VERTEX
  8
0
 10
353.24756324
 20
387.14246135
  0
VERTEX
  8
0
 10
353.52951200
 20
387.49020647
  0
VERTEX
  8
0
 10
354.11437667
 20
388.28273821
  0
VERTEX
  8
0
 10
354.71225318
 20
389.18326617
  0
VERTEX
  8
0
 10
355.30520825
 20
390.16611940
  0
VERTEX
  8
0
 10
355.87530863
 20
391.20562697
  0
VERTEX
  8
0
 10
356.40462106
 20
392.27611793
  0
SEQEND
  0
POLYLINE
  8
Calque_par_d_faut
 62
256
 66
   1
 39
0.000000
 70
    1
  0
VERTEX
  8
0
 10
316.24636220
 20
418.06095625
  0
VERTEX
  8
0
 10
316.80566254
 20
419.35073334
  0
VERTEX
  8
0
 10
317.01679057
 20
419.89253243
  0
VERTEX
  8
0
 10
317.10062769
 20
420.15642599
  0
VERTEX
  8
0
 10
317.16822923
 20
420.42279800
  0
VERTEX
  8
0
 10
317.21828193
 20
420.69701027
  0
VERTEX
  8
0
 10
317.24947256
 20
420.98442462
  0
VERTEX
  8
0
 10
317.26048787
 20
421.29040290
  0
VERTEX
  8
0
 10
317.25001461
 20
421.62030691
  0
VERTEX
  8
0
 10
317.21673953
 20
421.97949848
  0
VERTEX
  8
0
 10
317.15934940
 20
422.37333943
  0
VERTEX
  8
0
 10
317.07653097
 20
422.80719159
  0
VERTEX
  8
0
 10
316.96697099
 20
423.28641678
  0
VERTEX
  8
0
 10
316.66237341
 20
424.40243355
  0
VERTEX
  8
0
 10
316.23505071
 20
425.76428433
  0
VERTEX
  8
0
 10
315.67449692
 20
427.41486370
  0
VERTEX
  8
0
 10
314.97020608
 20
429.39706624
  0
VERTEX
  8
0
 10
313.08838944
 20
434.52791923
  0
VERTEX
  8
0
 10
310.50555311
 20
441.50000000
  0
VERTEX
  8
0
 10
309.84246240
 20
443.32371498
  0
VERTEX
  8
0
 10
309.15359100
 20
445.27674054
  0
VERTEX
  8
0
 10
308.44439729
 20
447.34127261
  0
VERTEX
  8
0
 10
307.72033964
 20
449.49950710
  0
VERTEX
  8
0
 10
306.24946606
 20
454.02586707
  0
VERTEX
  8
0
 10
304.78463732
 20
458.71338783
  0
VERTEX
  8
0
 10
303.36952045
 20
463.41963678
  0
VERTEX
  8
0
 10
302.04778252
 20
468.00218130
  0
VERTEX
  8
0
 10
301.43557659
 20
470.20255422
  0
VERTEX
  8
0
 10
300.86309055
 20
472.31858880
  0
VERTEX
  8
0
 10
300.33578275
 20
474.33248097
  0
VERTEX
  8
0
 10
299.85911159
 20
476.22642665
  0
VERTEX
  8
0
 10
295.50000000
 20
493.95285330
  0
VERTEX
  8
0
 10
288.69557224
 20
493.97642665
  0
VERTEX
  8
0
 10
281.89114449
 20
494.00000000
  0
VERTEX
  8
0
 10
287.36766154
 20
483.75000000
  0
VERTEX
  8
0
 10
288.26887849
 20
482.04484739
  0
VERTEX
  8
0
 10
289.14543961
 20
480.34863198
  0
VERTEX
  8
0
 10
289.99785375
 20
478.65981790
  0
VERTEX
  8
0
 10
290.82662979
 20
476.97686927
  0
VERTEX
  8
0
 10
291.63227659
 20
475.29825019
  0
VERTEX
  8
0
 10
292.41530302
 20
473.62242480
  0
VERTEX
  8
0
 10
293.17621794
 20
471.94785721
  0
VERTEX
  8
0
 10
293.91553021
 20
470.27301154
  0
VERTEX
  8
0
 10
294.63374871
 20
468.59635191
  0
VERTEX
  8
0
 10
295.33138229
 20
466.91634243
  0
VERTEX
  8
0
 10
296.00893983
 20
465.23144723
  0
VERTEX
  8
0
 10
296.66693018
 20
463.54013042
  0
VERTEX
  8
0
 10
297.30586222
 20
461.84085613
  0
VERTEX
  8
0
 10
297.92624480
 20
460.13208847
  0
VERTEX
  8
0
 10
298.52858680
 20
458.41229155
  0
VERTEX
  8
0
 10
299.11339707
 20
456.67992951
  0
VERTEX
  8
0
 10
299.68118449
 20
454.93346646
  0
VERTEX
  8
0
 10
300.23245792
 20
453.17136651
  0
VERTEX
  8
0
 10
300.76772622
 20
451.39209379
  0
VERTEX
  8
0
 10
301.28749826
 20
449.59411241
  0
VERTEX
  8
0
 10
301.79228291
 20
447.77588650
  0
VERTEX
  8
0
 10
302.28258903
 20
445.93588017
  0
VERTEX
  8
0
 10
302.75892548
 20
444.07255754
  0
VERTEX
  8
0
 10
303.22180113
 20
442.18438273
  0
VERTEX
  8
0
 10
303.67172485
 20
440.26981985
  0
VERTEX
  8
0
 10
304.10920549
 20
438.32733304
  0
VERTEX
  8
0
 10
304.53475194
 20
436.35538640
  0
VERTEX
  8
0
 10
304.94887304
 20
434.35244405
  0
VERTEX
  8
0
 10
305.35207767
 20
432.31697012
  0
VERTEX
  8
0
 10
305.74487470
 20
430.24742873
  0
VERTEX
  8
0
 10
306.12777298
 20
428.14228398
  0
VERTEX
  8
0
 10
306.50128138
 20
426.00000000
  0
VERTEX
  8
0
 10
307.21525204
 20
421.97267021
  0
VERTEX
  8
0
 10
307.96033146
 20
418.02987869
  0
VERTEX
  8
0
 10
308.64826932
 20
414.62417225
  0
VERTEX
  8
0
 10
308.94323194
 20
413.26414680
  0
VERTEX
  8
0
 10
309.19081528
 20
412.20809767
  0
VERTEX
  8
0
 10
310.25853223
 20
407.91619534
  0
VERTEX
  8
0
 10
312.53685857
 20
411.26905392
  0
VERTEX
  8
0
 10
313.02373683
 20
412.01276391
  0
VERTEX
  8
0
 10
313.53441880
 20
412.84226809
  0
VERTEX
  8
0
 10
314.05368974
 20
413.72970906
  0
VERTEX
  8
0
 10
314.56633488
 20
414.64722940
  0
VERTEX
  8
0
 10
315.05713945
 20
415.56697170
  0
VERTEX
  8
0
 10
315.51088871
 20
416.46107855
  0
VERTEX
  8
0
 10
315.91236787
 20
417.30169254
  0
VERTEX
  8
0
 10
316.24636220
 20
418.06095625
  0
SEQEND
  0
POLYLINE
  8
Calque_par_d_faut
 62
256
 66
   1
 39
0.000000
 70
    1
  0
VERTEX
  8
0
 10
443.26525165
 20
424.25000000
  0
VERTEX
  8
0
 10
443.78874392
 20
424.88482448
  0
VERTEX
  8
0
 10
444.32353730
 20
425.62260040
  0
VERTEX
  8
0
 10
444.86778609
 20
426.45905849
  0
VERTEX
  8
0
 10
445.41964463
 20
427.38992947
  0
VERTEX
  8
0
 10
445.97726724
 20
428.41094406
  0
VERTEX
  8
0
 10
446.53880825
 20
429.51783297
  0
VERTEX
  8
0
 10
447.10242197
 20
430.70632692
  0
VERTEX
  8
0
 10
447.66626274
 20
431.97215664
  0
VERTEX
  8
0
 10
448.22848487
 20
433.31105285
  0
VERTEX
  8
0
 10
448.78724270
 20
434.71874625
  0
VERTEX
  8
0
 10
449.34069054
 20
436.19096758
  0
VERTEX
  8
0
 10
449.88698273
 20
437.72344754
  0
VERTEX
  8
0
 10
450.42427358
 20
439.31191687
  0
VERTEX
  8
0
 10
450.95071742
 20
440.95210628
  0
VERTEX
  8
0
 10
451.46446858
 20
442.63974648
  0
VERTEX
  8
0
 10
451.96368138
 20
444.37056820
  0
VERTEX
  8
0
 10
452.43091999
 20
446.10609443
  0
VERTEX
  8
0
 10
452.82530276
 20
447.75008924
  0
VERTEX
  8
0
 10
452.99441106
 20
448.54785989
  0
VERTEX
  8
0
 10
453.14439083
 20
449.33486474
  0
VERTEX
  8
0
 10
453.27493720
 20
450.11514279
  0
VERTEX
  8
0
 10
453.38574531
 20
450.89273305
  0
VERTEX
  8
0
 10
453.47651032
 20
451.67167454
  0
VERTEX
  8
0
 10
453.54692735
 20
452.45600627
  0
VERTEX
  8
0
 10
453.59669155
 20
453.24976726
  0
VERTEX
  8
0
 10
453.62549805
 20
454.05699653
  0
VERTEX
  8
0
 10
453.63304201
 20
454.88173307
  0
VERTEX
  8
0
 10
453.61901856
 20
455.72801592
  0
VERTEX
  8
0
 10
453.58312284
 20
456.59988408
  0
VERTEX
  8
0
 10
453.52504999
 20
457.50137656
  0
VERTEX
  8
0
 10
453.44449515
 20
458.43653239
  0
VERTEX
  8
0
 10
453.34115347
 20
459.40939056
  0
VERTEX
  8
0
 10
453.21472008
 20
460.42399011
  0
VERTEX
  8
0
 10
453.06489013
 20
461.48437004
  0
VERTEX
  8
0
 10
452.89135875
 20
462.59456936
  0
VERTEX
  8
0
 10
452.69382109
 20
463.75862709
  0
VERTEX
  8
0
 10
452.22550749
 20
466.26447385
  0
VERTEX
  8
0
 10
451.65751044
 20
469.03422240
  0
VERTEX
  8
0
 10
450.98739108
 20
472.10018487
  0
VERTEX
  8
0
 10
450.21271052
 20
475.49467337
  0
VERTEX
  8
0
 10
449.33102991
 20
479.25000000
  0
VERTEX
  8
0
 10
445.83277872
 20
494.00000000
  0
VERTEX
  8
0
 10
434.11393377
 20
494.00000000
  0
VERTEX
  8
0
 10
422.39508883
 20
494.00000000
  0
VERTEX
  8
0
 10
420.67825385
 20
489.22564252
  0
VERTEX
  8
0
 10
418.96141887
 20
484.45128505
  0
VERTEX
  8
0
 10
423.87303179
 20
473.47564252
  0
VERTEX
  8
0
 10
424.82055269
 20
471.29887208
  0
VERTEX
  8
0
 10
425.79816644
 20
468.93989399
  0
VERTEX
  8
0
 10
426.79850143
 20
466.42097183
  0
VERTEX
  8
0
 10
427.81418606
 20
463.76436918
  0
VERTEX
  8
0
 10
428.83784873
 20
460.99234961
  0
VERTEX
  8
0
 10
429.86211783
 20
458.12717669
  0
VERTEX
  8
0
 10
430.87962176
 20
455.19111400
  0
VERTEX
  8
0
 10
431.88298891
 20
452.20642512
  0
VERTEX
  8
0
 10
432.86484768
 20
449.19537362
  0
VERTEX
  8
0
 10
433.81782646
 20
446.18022307
  0
VERTEX
  8
0
 10
434.73455365
 20
443.18323705
  0
VERTEX
  8
0
 10
435.60765765
 20
440.22667913
  0
VERTEX
  8
0
 10
436.42976685
 20
437.33281290
  0
VERTEX
  8
0
 10
437.19350965
 20
434.52390191
  0
VERTEX
  8
0
 10
437.89151444
 20
431.82220975
  0
VERTEX
  8
0
 10
438.51640962
 20
429.25000000
  0
VERTEX
  8
0
 10
438.86842375
 20
427.79362793
  0
VERTEX
  8
0
 10
439.21753535
 20
426.43496094
  0
VERTEX
  8
0
 10
439.55462251
 20
425.20373535
  0
VERTEX
  8
0
 10
439.87056329
 20
424.12968750
  0
VERTEX
  8
0
 10
440.15623575
 20
423.24255371
  0
VERTEX
  8
0
 10
440.40251797
 20
422.57207031
  0
VERTEX
  8
0
 10
440.50803713
 20
422.32736511
  0
VERTEX
  8
0
 10
440.60028800
 20
422.14797363
  0
VERTEX
  8
0
 10
440.67813034
 20
422.03761292
  0
VERTEX
  8
0
 10
440.74042392
 20
422.00000000
  0
VERTEX
  8
0
 10
440.80427811
 20
422.01167297
  0
VERTEX
  8
0
 10
440.88669948
 20
422.04592285
  0
VERTEX
  8
0
 10
441.10206593
 20
422.17753906
  0
VERTEX
  8
0
 10
441.37616751
 20
422.38562012
  0
VERTEX
  8
0
 10
441.69864849
 20
422.66093750
  0
VERTEX
  8
0
 10
442.05915313
 20
422.99426270
  0
VERTEX
  8
0
 10
442.44732570
 20
423.37636719
  0
VERTEX
  8
0
 10
442.85281045
 20
423.79802246
  0
VERTEX
  8
0
 10
443.26525165
 20
424.25000000
  0
SEQEND
  0
POLYLINE
  8
Calque_par_d_faut
 62
256
 66
   1
 39
0.000000
 70
    1
  0
VERTEX
  8
0
 10
89.51447974
 20
451.43794303
  0
VERTEX
  8
0
 10
89.76861413
 20
452.89152651
  0
VERTEX
  8
0
 10
89.99470677
 20
454.28113952
  0
VERTEX
  8
0
 10
90.19342991
 20
455.62172074
  0
VERTEX
  8
0
 10
90.36545578
 20
456.92820884
  0
VERTEX
  8
0
 10
90.51145663
 20
458.21554248
  0
VERTEX
  8
0
 10
90.63210469
 20
459.49866035
  0
VERTEX
  8
0
 10
90.72807222
 20
460.79250111
  0
VERTEX
  8
0
 10
90.80003144
 20
462.11200343
  0
VERTEX
  8
0
 10
90.84865460
 20
463.47210599
  0
VERTEX
  8
0
 10
90.87461394
 20
464.88774745
  0
VERTEX
  8
0
 10
90.87858170
 20
466.37386649
  0
VERTEX
  8
0
 10
90.86123013
 20
467.94540178
  0
VERTEX
  8
0
 10
90.82323146
 20
469.61729198
  0
VERTEX
  8
0
 10
90.76525793
 20
471.40447577
  0
VERTEX
  8
0
 10
90.59207528
 20
475.38447881
  0
VERTEX
  8
0
 10
90.27850500
 20
481.83694685
  0
VERTEX
  8
0
 10
90.13702114
 20
484.41328055
  0
VERTEX
  8
0
 10
89.98690992
 20
486.59898931
  0
VERTEX
  8
0
 10
89.90420619
 20
487.55535354
  0
VERTEX
  8
0
 10
89.81405019
 20
488.42605459
  0
VERTEX
  8
0
 10
89.71467677
 20
489.21509013
  0
VERTEX
  8
0
 10
89.60432079
 20
489.92645784
  0
VERTEX
  8
0
 10
89.48121710
 20
490.56415542
  0
VERTEX
  8
0
 10
89.34360056
 20
491.13218054
  0
VERTEX
  8
0
 10
89.18970602
 20
491.63453088
  0
VERTEX
  8
0
 10
89.01776834
 20
492.07520413
  0
VERTEX
  8
0
 10
88.82602237
 20
492.45819796
  0
VERTEX
  8
0
 10
88.61270297
 20
492.78751007
  0
VERTEX
  8
0
 10
88.37604499
 20
493.06713812
  0
VERTEX
  8
0
 10
88.11428330
 20
493.30107982
  0
VERTEX
  8
0
 10
87.82565273
 20
493.49333283
  0
VERTEX
  8
0
 10
87.50838816
 20
493.64789484
  0
VERTEX
  8
0
 10
87.16072443
 20
493.76876353
  0
VERTEX
  8
0
 10
86.78089639
 20
493.85993658
  0
VERTEX
  8
0
 10
86.36713892
 20
493.92541169
  0
VERTEX
  8
0
 10
85.91768685
 20
493.96918652
  0
VERTEX
  8
0
 10
85.43077505
 20
493.99525876
  0
VERTEX
  8
0
 10
84.90463836
 20
494.00762609
  0
VERTEX
  8
0
 10
83.72762978
 20
494.00723677
  0
VERTEX
  8
0
 10
82.37253994
 20
494.00000000
  0
VERTEX
  8
0
 10
80.34230740
 20
493.99139286
  0
VERTEX
  8
0
 10
78.80000340
 20
493.95040053
  0
VERTEX
  8
0
 10
78.19302024
 20
493.91064855
  0
VERTEX
  8
0
 10
77.68545396
 20
493.85426662
  0
VERTEX
  8
0
 10
77.26978281
 20
493.77841020
  0
VERTEX
  8
0
 10
76.93848506
 20
493.68023475
  0
VERTEX
  8
0
 10
76.68403895
 20
493.55689571
  0
VERTEX
  8
0
 10
76.58328472
 20
493.48490092
  0
VERTEX
  8
0
 10
76.49892274
 20
493.40554853
  0
VERTEX
  8
0
 10
76.43001279
 20
493.31848298
  0
VERTEX
  8
0
 10
76.37561466
 20
493.22334868
  0
VERTEX
  8
0
 10
76.30659298
 20
493.00745159
  0
VERTEX
  8
0
 10
76.28433594
 20
492.75501273
  0
VERTEX
  8
0
 10
76.30132180
 20
492.46318754
  0
VERTEX
  8
0
 10
76.35002881
 20
492.12913148
  0
VERTEX
  8
0
 10
76.42293521
 20
491.75000000
  0
VERTEX
  8
0
 10
76.47294194
 20
491.40666199
  0
VERTEX
  8
0
 10
76.52751478
 20
490.84899902
  0
VERTEX
  8
0
 10
76.64821095
 20
489.14042969
  0
VERTEX
  8
0
 10
76.78072800
 20
486.72375488
  0
VERTEX
  8
0
 10
76.92077019
 20
483.69843750
  0
VERTEX
  8
0
 10
77.06404179
 20
480.16394043
  0
VERTEX
  8
0
 10
77.20624707
 20
476.21972656
  0
VERTEX
  8
0
 10
77.34309029
 20
471.96525879
  0
VERTEX
  8
0
 10
77.47027573
 20
467.50000000
  0
VERTEX
  8
0
 10
77.74536961
 20
458.06546644
  0
VERTEX
  8
0
 10
77.88540323
 20
453.95536666
  0
VERTEX
  8
0
 10
78.02832793
 20
450.23446802
  0
VERTEX
  8
0
 10
78.17506869
 20
446.89108784
  0
VERTEX
  8
0
 10
78.32655048
 20
443.91354346
  0
VERTEX
  8
0
 10
78.48369828
 20
441.29015222
  0
VERTEX
  8
0
 10
78.64743707
 20
439.00923146
  0
VERTEX
  8
0
 10
78.81869180
 20
437.05909852
  0
VERTEX
  8
0
 10
78.99838747
 20
435.42807073
  0
VERTEX
  8
0
 10
79.18744904
 20
434.10446545
  0
VERTEX
  8
0
 10
79.28578110
 20
433.55429541
  0
VERTEX
  8
0
 10
79.38680149
 20
433.07659999
  0
VERTEX
  8
0
 10
79.49062585
 20
432.66991887
  0
VERTEX
  8
0
 10
79.59736980
 20
432.33279171
  0
VERTEX
  8
0
 10
79.70714895
 20
432.06375817
  0
VERTEX
  8
0
 10
79.82007893
 20
431.86135794
  0
VERTEX
  8
0
 10
79.93627536
 20
431.72413066
  0
VERTEX
  8
0
 10
80.05585386
 20
431.65061601
  0
VERTEX
  8
0
 10
80.11694752
 20
431.63729457
  0
VERTEX
  8
0
 10
80.17893006
 20
431.63935367
  0
VERTEX
  8
0
 10
80.30561957
 20
431.68888328
  0
VERTEX
  8
0
 10
80.52318735
 20
431.79998383
  0
VERTEX
  8
0
 10
80.61393572
 20
431.82725400
  0
VERTEX
  8
0
 10
80.69256746
 20
431.83595934
  0
VERTEX
  8
0
 10
80.75901284
 20
431.82631626
  0
VERTEX
  8
0
 10
80.81320216
 20
431.79854119
  0
VERTEX
  8
0
 10
80.85506569
 20
431.75285056
  0
VERTEX
  8
0
 10
80.88453373
 20
431.68946078
  0
VERTEX
  8
0
 10
80.90600444
 20
431.51044947
  0
VERTEX
  8
0
 10
80.87705656
 20
431.26323867
  0
VERTEX
  8
0
 10
80.79713238
 20
430.94955975
  0
VERTEX
  8
0
 10
80.66567415
 20
430.57114409
  0
VERTEX
  8
0
 10
80.23101681
 20
429.40308811
  0
VERTEX
  8
0
 10
79.89238550
 20
428.41872091
  0
VERTEX
  8
0
 10
79.64644412
 20
427.61559349
  0
VERTEX
  8
0
 10
79.48985655
 20
426.99125686
  0
VERTEX
  8
0
 10
79.41928669
 20
426.54326203
  0
VERTEX
  8
0
 10
79.41521587
 20
426.38462747
  0
VERTEX
  8
0
 10
79.43139843
 20
426.26915999
  0
VERTEX
  8
0
 10
79.46741736
 20
426.19655346
  0
VERTEX
  8
0
 10
79.52285566
 20
426.16650175
  0
VERTEX
  8
0
 10
79.59729630
 20
426.17869875
  0
VERTEX
  8
0
 10
79.69032227
 20
426.23283832
  0
VERTEX
  8
0
 10
79.80151656
 20
426.32861434
  0
VERTEX
  8
0
 10
79.93046215
 20
426.46572069
  0
VERTEX
  8
0
 10
80.23993920
 20
426.86269988
  0
VERTEX
  8
0
 10
80.61541731
 20
427.42132688
  0
VERTEX
  8
0
 10
81.05356036
 20
428.13915269
  0
VERTEX
  8
0
 10
81.55103226
 20
429.01372833
  0
VERTEX
  8
0
 10
82.10449688
 20
430.04260480
  0
VERTEX
  8
0
 10
82.71061813
 20
431.22333309
  0
VERTEX
  8
0
 10
83.36605989
 20
432.55346422
  0
VERTEX
  8
0
 10
83.93754118
 20
433.75595846
  0
VERTEX
  8
0
 10
84.47788700
 20
434.93652531
  0
VERTEX
  8
0
 10
84.98842053
 20
436.09922880
  0
VERTEX
  8
0
 10
85.47046493
 20
437.24813296
  0
VERTEX
  8
0
 10
85.92534338
 20
438.38730183
  0
VERTEX
  8
0
 10
86.35437903
 20
439.52079943
  0
VERTEX
  8
0
 10
86.75889508
 20
440.65268981
  0
VERTEX
  8
0
 10
87.14021467
 20
441.78703698
  0
VERTEX
  8
0
 10
87.49966099
 20
442.92790499
  0
VERTEX
  8
0
 10
87.83855720
 20
444.07935786
  0
VERTEX
  8
0
 10
88.15822647
 20
445.24545963
  0
VERTEX
  8
0
 10
88.45999198
 20
446.43027432
  0
VERTEX
  8
0
 10
88.74517689
 20
447.63786598
  0
VERTEX
  8
0
 10
89.01510437
 20
448.87229863
  0
VERTEX
  8
0
 10
89.27109760
 20
450.13763630
  0
VERTEX
  8
0
 10
89.51447974
 20
451.43794303
  0
SEQEND
  0
POLYLINE
  8
Calque_par_d_faut
 62
256
 66
   1
 39
0.000000
 70
    1
  0
VERTEX
  8
0
 10
205.50136528
 20
433.00000000
  0
VERTEX
  8
0
 10
205.76879689
 20
433.35991011
  0
VERTEX
  8
0
 10
206.06209489
 20
433.82830978
  0
VERTEX
  8
0
 10
206.38597934
 20
434.41720382
  0
VERTEX
  8
0
 10
206.74517030
 20
435.13859704
  0
VERTEX
  8
0
 10
207.14438781
 20
436.00449423
  0
VERTEX
  8
0
 10
207.58835194
 20
437.02690021
  0
VERTEX
  8
0
 10
208.08178274
 20
438.21781977
  0
VERTEX
  8
0
 10
208.62940026
 20
439.58925773
  0
VERTEX
  8
0
 10
209.90607571
 20
442.92170804
  0
VERTEX
  8
0
 10
211.45613872
 20
447.12028956
  0
VERTEX
  8
0
 10
213.31734975
 20
452.28104074
  0
VERTEX
  8
0
 10
215.52746923
 20
458.50000000
  0
VERTEX
  8
0
 10
217.29879860
 20
463.47500000
  0
VERTEX
  8
0
 10
218.98537202
 20
468.15000000
  0
VERTEX
  8
0
 10
220.39642648
 20
472.00000000
  0
VERTEX
  8
0
 10
221.34119897
 20
474.50000000
  0
VERTEX
  8
0
 10
221.70060609
 20
475.47644498
  0
VERTEX
  8
0
 10
222.01234920
 20
476.45396703
  0
VERTEX
  8
0
 10
222.27642753
 20
477.43216783
  0
VERTEX
  8
0
 10
222.49284029
 20
478.41064907
  0
VERTEX
  8
0
 10
222.66158670
 20
479.38901243
  0
VERTEX
  8
0
 10
222.78266599
 20
480.36685959
  0
VERTEX
  8
0
 10
222.85607738
 20
481.34379224
  0
VERTEX
  8
0
 10
222.88182008
 20
482.31941206
  0
VERTEX
  8
0
 10
222.85989332
 20
483.29332073
  0
VERTEX
  8
0
 10
222.79029631
 20
484.26511993
  0
VERTEX
  8
0
 10
222.67302828
 20
485.23441135
  0
VERTEX
  8
0
 10
222.50808845
 20
486.20079667
  0
VERTEX
  8
0
 10
222.29547603
 20
487.16387757
  0
VERTEX
  8
0
 10
222.03519026
 20
488.12325573
  0
VERTEX
  8
0
 10
221.72723034
 20
489.07853285
  0
VERTEX
  8
0
 10
221.37159550
 20
490.02931060
  0
VERTEX
  8
0
 10
220.82889306
 20
491.35602911
  0
VERTEX
  8
0
 10
220.58914825
 20
491.89329919
  0
VERTEX
  8
0
 10
220.35880075
 20
492.35357341
  0
VERTEX
  8
0
 10
220.12909534
 20
492.74214946
  0
VERTEX
  8
0
 10
219.89127679
 20
493.06432504
  0
VERTEX
  8
0
 10
219.63658987
 20
493.32539783
  0
VERTEX
  8
0
 10
219.50018476
 20
493.43467621
  0
VERTEX
  8
0
 10
219.35627936
 20
493.53066553
  0
VERTEX
  8
0
 10
219.20377925
 20
493.61402800
  0
VERTEX
  8
0
 10
219.04159004
 20
493.68542584
  0
VERTEX
  8
0
 10
218.68376667
 20
493.79497644
  0
VERTEX
  8
0
 10
218.27405404
 20
493.86461503
  0
VERTEX
  8
0
 10
217.80369692
 20
493.89963930
  0
VERTEX
  8
0
 10
217.26394009
 20
493.90534694
  0
VERTEX
  8
0
 10
216.64602831
 20
493.88703565
  0
VERTEX
  8
0
 10
215.14071904
 20
493.79954704
  0
VERTEX
  8
0
 10
210.53824708
 20
493.50000000
  0
VERTEX
  8
0
 10
205.75630438
 20
482.50000000
  0
VERTEX
  8
0
 10
200.97436169
 20
471.50000000
  0
VERTEX
  8
0
 10
201.51520013
 20
455.00000000
  0
VERTEX
  8
0
 10
201.74428965
 20
448.84117669
  0
VERTEX
  8
0
 10
201.86960414
 20
446.03433033
  0
VERTEX
  8
0
 10
202.00111676
 20
443.41996078
  0
VERTEX
  8
0
 10
202.13809121
 20
441.00614298
  0
VERTEX
  8
0
 10
202.27979122
 20
438.80095190
  0
VERTEX
  8
0
 10
202.42548052
 20
436.81246248
  0
VERTEX
  8
0
 10
202.57442281
 20
435.04874968
  0
VERTEX
  8
0
 10
202.72588183
 20
433.51788845
  0
VERTEX
  8
0
 10
202.87912129
 20
432.22795375
  0
VERTEX
  8
0
 10
203.03340491
 20
431.18702053
  0
VERTEX
  8
0
 10
203.18799641
 20
430.40316374
  0
VERTEX
  8
0
 10
203.26517754
 20
430.11016243
  0
VERTEX
  8
0
 10
203.34215952
 20
429.88445834
  0
VERTEX
  8
0
 10
203.41885034
 20
429.72706083
  0
VERTEX
  8
0
 10
203.49515796
 20
429.63897928
  0
VERTEX
  8
0
 10
203.53313931
 20
429.62124742
  0
VERTEX
  8
0
 10
203.57099034
 20
429.62122305
  0
VERTEX
  8
0
 10
203.64625544
 20
429.67480152
  0
VERTEX
  8
0
 10
203.72086124
 20
429.80072404
  0
VERTEX
  8
0
 10
203.79471569
 20
430.00000000
  0
VERTEX
  8
0
 10
203.91369402
 20
430.33193359
  0
VERTEX
  8
0
 10
204.07363018
 20
430.70078125
  0
VERTEX
  8
0
 10
204.26752422
 20
431.09423828
  0
VERTEX
  8
0
 10
204.48837623
 20
431.50000000
  0
VERTEX
  8
0
 10
204.72918627
 20
431.90576172
  0
VERTEX
  8
0
 10
204.98295441
 20
432.29921875
  0
VERTEX
  8
0
 10
205.24268072
 20
432.66806641
  0
VERTEX
  8
0
 10
205.50136528
 20
433.00000000
  0
SEQEND
  0
POLYLINE
  8
Calque_par_d_faut
 62
256
 66
   1
 39
0.000000
 70
    1
  0
VERTEX
  8
0
 10
381.61962907
 20
449.30814621
  0
VERTEX
  8
0
 10
382.82892339
 20
451.52131131
  0
VERTEX
  8
0
 10
383.99685934
 20
453.70926795
  0
VERTEX
  8
0
 10
384.99032978
 20
455.61962716
  0
VERTEX
  8
0
 10
385.67622759
 20
457.00000000
  0
VERTEX
  8
0
 10
386.63697102
 20
459.06234526
  0
VERTEX
  8
0
 10
387.67675287
 20
461.34621395
  0
VERTEX
  8
0
 10
388.73172937
 20
463.70519326
  0
VERTEX
  8
0
 10
389.73805676
 20
465.99287035
  0
VERTEX
  8
0
 10
390.63189129
 20
468.06283239
  0
VERTEX
  8
0
 10
391.34938917
 20
469.76866657
  0
VERTEX
  8
0
 10
391.82670667
 20
470.96396006
  0
VERTEX
  8
0
 10
391.95534659
 20
471.32440003
  0
VERTEX
  8
0
 10
392.00000000
 20
471.50230002
  0
VERTEX
  8
0
 10
392.04904241
 20
471.69900647
  0
VERTEX
  8
0
 10
392.18959935
 20
472.09073468
  0
VERTEX
  8
0
 10
392.70583521
 20
473.36540663
  0
VERTEX
  8
0
 10
393.46986429
 20
475.13861642
  0
VERTEX
  8
0
 10
394.40284328
 20
477.22266459
  0
VERTEX
  8
0
 10
395.08587013
 20
478.74001506
  0
VERTEX
  8
0
 10
395.69943409
 20
480.14137920
  0
VERTEX
  8
0
 10
396.24530311
 20
481.43382040
  0
VERTEX
  8
0
 10
396.72524511
 20
482.62440206
  0
VERTEX
  8
0
 10
397.14102806
 20
483.72018757
  0
VERTEX
  8
0
 10
397.49441990
 20
484.72824036
  0
VERTEX
  8
0
 10
397.78718856
 20
485.65562380
  0
VERTEX
  8
0
 10
398.02110199
 20
486.50940131
  0
VERTEX
  8
0
 10
398.19792814
 20
487.29663628
  0
VERTEX
  8
0
 10
398.31943495
 20
488.02439212
  0
VERTEX
  8
0
 10
398.38739037
 20
488.69973223
  0
VERTEX
  8
0
 10
398.40356233
 20
489.32972000
  0
VERTEX
  8
0
 10
398.36971878
 20
489.92141884
  0
VERTEX
  8
0
 10
398.28762768
 20
490.48189215
  0
VERTEX
  8
0
 10
398.15905695
 20
491.01820333
  0
VERTEX
  8
0
 10
397.98577455
 20
491.53741578
  0
VERTEX
  8
0
 10
397.04950169
 20
494.00000000
  0
VERTEX
  8
0
 10
381.44529558
 20
494.00000000
  0
VERTEX
  8
0
 10
365.84108947
 20
494.00000000
  0
VERTEX
  8
0
 10
366.39931984
 20
491.25000000
  0
VERTEX
  8
0
 10
366.54256092
 20
490.45266113
  0
VERTEX
  8
0
 10
366.73632062
 20
489.23535156
  0
VERTEX
  8
0
 10
367.24123488
 20
485.78281250
  0
VERTEX
  8
0
 10
367.84574055
 20
481.37636719
  0
VERTEX
  8
0
 10
368.48151561
 20
476.50000000
  0
VERTEX
  8
0
 10
368.74001140
 20
474.59703537
  0
VERTEX
  8
0
 10
369.04697324
 20
472.56591326
  0
VERTEX
  8
0
 10
369.39712978
 20
470.43090721
  0
VERTEX
  8
0
 10
369.78520966
 20
468.21629080
  0
VERTEX
  8
0
 10
370.20594152
 20
465.94633756
  0
VERTEX
  8
0
 10
370.65405399
 20
463.64532105
  0
VERTEX
  8
0
 10
371.12427573
 20
461.33751485
  0
VERTEX
  8
0
 10
371.61133538
 20
459.04719248
  0
VERTEX
  8
0
 10
372.10996157
 20
456.79862753
  0
VERTEX
  8
0
 10
372.61488295
 20
454.61609353
  0
VERTEX
  8
0
 10
373.12082816
 20
452.52386404
  0
VERTEX
  8
0
 10
373.62252585
 20
450.54621263
  0
VERTEX
  8
0
 10
374.11470464
 20
448.70741285
  0
VERTEX
  8
0
 10
374.59209320
 20
447.03173824
  0
VERTEX
  8
0
 10
375.04942016
 20
445.54346238
  0
VERTEX
  8
0
 10
375.48141415
 20
444.26685880
  0
VERTEX
  8
0
 10
375.56101190
 20
444.07061831
  0
VERTEX
  8
0
 10
375.64987692
 20
443.89886730
  0
VERTEX
  8
0
 10
375.74780650
 20
443.75143926
  0
VERTEX
  8
0
 10
375.85459791
 20
443.62816771
  0
VERTEX
  8
0
 10
375.97004843
 20
443.52888617
  0
VERTEX
  8
0
 10
376.09395536
 20
443.45342813
  0
VERTEX
  8
0
 10
376.22611597
 20
443.40162711
  0
VERTEX
  8
0
 10
376.36632754
 20
443.37331662
  0
VERTEX
  8
0
 10
376.51438736
 20
443.36833016
  0
VERTEX
  8
0
 10
376.67009271
 20
443.38650124
  0
VERTEX
  8
0
 10
376.83324087
 20
443.42766338
  0
VERTEX
  8
0
 10
377.00362913
 20
443.49165009
  0
VERTEX
  8
0
 10
377.18105476
 20
443.57829486
  0
VERTEX
  8
0
 10
377.36531505
 20
443.68743122
  0
VERTEX
  8
0
 10
377.75352875
 20
443.97251271
  0
VERTEX
  8
0
 10
378.16664846
 20
444.34556263
  0
VERTEX
  8
0
 10
378.60305247
 20
444.80524905
  0
VERTEX
  8
0
 10
379.06111902
 20
445.35024005
  0
VERTEX
  8
0
 10
379.53922638
 20
445.97920370
  0
VERTEX
  8
0
 10
380.03575281
 20
446.69080806
  0
VERTEX
  8
0
 10
380.54907656
 20
447.48372122
  0
VERTEX
  8
0
 10
381.07757589
 20
448.35661124
  0
VERTEX
  8
0
 10
381.61962907
 20
449.30814621
  0
SEQEND
  0
POLYLINE
  8
Calque_par_d_faut
 62
256
 66
   1
 39
0.000000
 70
    1
  0
VERTEX
  8
0
 10
329.35089585
 20
454.63109554
  0
VERTEX
  8
0
 10
330.03398783
 20
457.34946641
  0
VERTEX
  8
0
 10
330.82507396
 20
460.41248532
  0
VERTEX
  8
0
 10
331.62610589
 20
463.44478099
  0
VERTEX
  8
0
 10
332.33903530
 20
466.07098215
  0
VERTEX
  8
0
 10
332.88249235
 20
468.09828168
  0
VERTEX
  8
0
 10
333.11978818
 20
469.04831791
  0
VERTEX
  8
0
 10
333.33805977
 20
469.98131929
  0
VERTEX
  8
0
 10
333.54025529
 20
470.91631646
  0
VERTEX
  8
0
 10
333.72932293
 20
471.87234005
  0
VERTEX
  8
0
 10
333.90821085
 20
472.86842070
  0
VERTEX
  8
0
 10
334.07986722
 20
473.92358903
  0
VERTEX
  8
0
 10
334.41327803
 20
476.28731130
  0
VERTEX
  8
0
 10
334.75314074
 20
479.11575194
  0
VERTEX
  8
0
 10
335.12304073
 20
482.56115600
  0
VERTEX
  8
0
 10
335.54656339
 20
486.77576857
  0
VERTEX
  8
0
 10
336.25842086
 20
494.00000000
  0
VERTEX
  8
0
 10
323.56182276
 20
494.00000000
  0
VERTEX
  8
0
 10
319.68394933
 20
493.99047268
  0
VERTEX
  8
0
 10
316.69131754
 20
493.95170989
  0
VERTEX
  8
0
 10
315.49370791
 20
493.91659294
  0
VERTEX
  8
0
 10
314.47749746
 20
493.86844041
  0
VERTEX
  8
0
 10
313.62938247
 20
493.80534341
  0
VERTEX
  8
0
 10
312.93605918
 20
493.72539303
  0
VERTEX
  8
0
 10
312.38422386
 20
493.62668037
  0
VERTEX
  8
0
 10
311.96057277
 20
493.50729652
  0
VERTEX
  8
0
 10
311.79265889
 20
493.43925637
  0
VERTEX
  8
0
 10
311.65180217
 20
493.36533259
  0
VERTEX
  8
0
 10
311.53633963
 20
493.28528656
  0
VERTEX
  8
0
 10
311.44460832
 20
493.19887966
  0
VERTEX
  8
0
 10
311.37494525
 20
493.10587330
  0
VERTEX
  8
0
 10
311.32568747
 20
493.00602884
  0
VERTEX
  8
0
 10
311.29517201
 20
492.89910769
  0
VERTEX
  8
0
 10
311.28173590
 20
492.78487123
  0
VERTEX
  8
0
 10
311.29944985
 20
492.53349791
  0
VERTEX
  8
0
 10
311.36552559
 20
492.25000000
  0
VERTEX
  8
0
 10
311.77405339
 20
490.58417969
  0
VERTEX
  8
0
 10
312.51654275
 20
487.34218750
  0
VERTEX
  8
0
 10
313.48747506
 20
482.99160156
  0
VERTEX
  8
0
 10
314.58133166
 20
478.00000000
  0
VERTEX
  8
0
 10
315.03101047
 20
476.02662157
  0
VERTEX
  8
0
 10
315.55109138
 20
473.91237972
  0
VERTEX
  8
0
 10
316.13165178
 20
471.68802443
  0
VERTEX
  8
0
 10
316.76276905
 20
469.38430571
  0
VERTEX
  8
0
 10
317.43452055
 20
467.03197353
  0
VERTEX
  8
0
 10
318.13698366
 20
464.66177790
  0
VERTEX
  8
0
 10
318.86023577
 20
462.30446880
  0
VERTEX
  8
0
 10
319.59435424
 20
459.99079621
  0
VERTEX
  8
0
 10
320.32941646
 20
457.75151015
  0
VERTEX
  8
0
 10
321.05549981
 20
455.61736058
  0
VERTEX
  8
0
 10
321.76268165
 20
453.61909751
  0
VERTEX
  8
0
 10
322.44103937
 20
451.78747092
  0
VERTEX
  8
0
 10
323.08065034
 20
450.15323081
  0
VERTEX
  8
0
 10
323.67159195
 20
448.74712716
  0
VERTEX
  8
0
 10
324.20394156
 20
447.59990997
  0
VERTEX
  8
0
 10
324.44504355
 20
447.13299317
  0
VERTEX
  8
0
 10
324.66777655
 20
446.74232922
  0
VERTEX
  8
0
 10
324.76377076
 20
446.60655432
  0
VERTEX
  8
0
 10
324.86718760
 20
446.50247507
  0
VERTEX
  8
0
 10
324.97760967
 20
446.42938834
  0
VERTEX
  8
0
 10
325.09461955
 20
446.38659101
  0
VERTEX
  8
0
 10
325.21779986
 20
446.37337997
  0
VERTEX
  8
0
 10
325.34673319
 20
446.38905209
  0
VERTEX
  8
0
 10
325.48100213
 20
446.43290425
  0
VERTEX
  8
0
 10
325.62018928
 20
446.50423333
  0
VERTEX
  8
0
 10
325.76387723
 20
446.60233622
  0
VERTEX
  8
0
 10
325.91164859
 20
446.72650979
  0
VERTEX
  8
0
 10
326.21777192
 20
447.05025649
  0
VERTEX
  8
0
 10
326.53522002
 20
447.46984848
  0
VERTEX
  8
0
 10
326.86065367
 20
447.97966079
  0
VERTEX
  8
0
 10
327.19073366
 20
448.57406847
  0
VERTEX
  8
0
 10
327.52212075
 20
449.24744654
  0
VERTEX
  8
0
 10
327.85147571
 20
449.99417005
  0
VERTEX
  8
0
 10
328.17545934
 20
450.80861405
  0
VERTEX
  8
0
 10
328.49073238
 20
451.68515355
  0
VERTEX
  8
0
 10
328.79395564
 20
452.61816361
  0
VERTEX
  8
0
 10
329.08178986
 20
453.60201926
  0
VERTEX
  8
0
 10
329.35089585
 20
454.63109554
  0
SEQEND
  0
POLYLINE
  8
Calque_par_d_faut
 62
256
 66
   1
 39
0.000000
 70
    1
  0
VERTEX
  8
0
 10
496.08779370
 20
475.52057329
  0
VERTEX
  8
0
 10
496.18859279
 20
475.76780157
  0
VERTEX
  8
0
 10
496.28355024
 20
476.08932519
  0
VERTEX
  8
0
 10
496.37230285
 20
476.48001720
  0
VERTEX
  8
0
 10
496.45448745
 20
476.93475065
  0
VERTEX
  8
0
 10
496.59769979
 20
478.01583405
  0
VERTEX
  8
0
 10
496.71028172
 20
479.29155977
  0
VERTEX
  8
0
 10
496.78932767
 20
480.72091218
  0
VERTEX
  8
0
 10
496.83193211
 20
482.26287565
  0
VERTEX
  8
0
 10
496.83518949
 20
483.87643456
  0
VERTEX
  8
0
 10
496.79619425
 20
485.52057329
  0
VERTEX
  8
0
 10
496.50000000
 20
493.50000000
  0
VERTEX
  8
0
 10
492.66178396
 20
493.81562439
  0
VERTEX
  8
0
 10
491.55230841
 20
493.89326213
  0
VERTEX
  8
0
 10
490.68641956
 20
493.91561063
  0
VERTEX
  8
0
 10
490.33773039
 20
493.90285384
  0
VERTEX
  8
0
 10
490.04143017
 20
493.87243767
  0
VERTEX
  8
0
 10
489.79468301
 20
493.82308309
  0
VERTEX
  8
0
 10
489.59465299
 20
493.75351107
  0
VERTEX
  8
0
 10
489.43850421
 20
493.66244260
  0
VERTEX
  8
0
 10
489.32340077
 20
493.54859864
  0
VERTEX
  8
0
 10
489.24650675
 20
493.41070018
  0
VERTEX
  8
0
 10
489.20498626
 20
493.24746818
  0
VERTEX
  8
0
 10
489.19600339
 20
493.05762362
  0
VERTEX
  8
0
 10
489.21672222
 20
492.83988749
  0
VERTEX
  8
0
 10
489.26430686
 20
492.59298075
  0
VERTEX
  8
0
 10
489.33592140
 20
492.31562439
  0
VERTEX
  8
0
 10
489.71676565
 20
490.74268273
  0
VERTEX
  8
0
 10
490.37496937
 20
487.80208966
  0
VERTEX
  8
0
 10
491.21807648
 20
483.91435786
  0
VERTEX
  8
0
 10
492.15363088
 20
479.50000000
  0
VERTEX
  8
0
 10
492.62309841
 20
477.34135742
  0
VERTEX
  8
0
 10
493.07338451
 20
475.42617188
  0
VERTEX
  8
0
 10
493.49375350
 20
473.78930664
  0
VERTEX
  8
0
 10
493.87346970
 20
472.46562500
  0
VERTEX
  8
0
 10
494.04472810
 20
471.93212280
  0
VERTEX
  8
0
 10
494.20179742
 20
471.48999023
  0
VERTEX
  8
0
 10
494.34333571
 20
471.14358521
  0
VERTEX
  8
0
 10
494.46800099
 20
470.89726562
  0
VERTEX
  8
0
 10
494.57445131
 20
470.75538940
  0
VERTEX
  8
0
 10
494.62042649
 20
470.72497940
  0
VERTEX
  8
0
 10
494.66134471
 20
470.72231445
  0
VERTEX
  8
0
 10
494.69703820
 20
470.74793930
  0
VERTEX
  8
0
 10
494.72733922
 20
470.80239868
  0
VERTEX
  8
0
 10
494.77109290
 20
471.00000000
  0
VERTEX
  8
0
 10
494.85429235
 20
471.54343748
  0
VERTEX
  8
0
 10
494.97154662
 20
472.13013899
  0
VERTEX
  8
0
 10
495.11745517
 20
472.74156310
  0
VERTEX
  8
0
 10
495.28661749
 20
473.35916840
  0
VERTEX
  8
0
 10
495.47363303
 20
473.96441349
  0
VERTEX
  8
0
 10
495.67310127
 20
474.53875694
  0
VERTEX
  8
0
 10
495.87962167
 20
475.06365735
  0
VERTEX
  8
0
 10
496.08779370
 20
475.52057329
  0
SEQEND
  0
ENDSEC
  0
EOF
