  0
SECTION
  2
HEADER
  9
$ACADVER
  1
AC1014
  9
$ACADMAINTVER
 70
     9
  9
$DWGCODEPAGE
  3
ANSI_1252
  9
$INSBASE
 10
0.0
 20
0.0
 30
0.0
  9
$EXTMIN
 10
32.05474266156455
 20
-44.83754605133606
 30
0.0
  9
$EXTMAX
 10
45.34182257797193
 20
-0.5681950771827751
 30
0.0
  9
$LIMMIN
 10
0.0
 20
0.0
  9
$LIMMAX
 10
12.0
 20
9.0
  9
$ORTHOMODE
 70
     0
  9
$REGENMODE
 70
     1
  9
$FILLMODE
 70
     1
  9
$QTEXTMODE
 70
     0
  9
$MIRRTEXT
 70
     1
  9
$DRAGMODE
 70
     2
  9
$LTSCALE
 40
1.0
  9
$OSMODE
 70
 15359
  9
$ATTMODE
 70
     1
  9
$TEXTSIZE
 40
1.5
  9
$TRACEWID
 40
0.05
  9
$TEXTSTYLE
  7
STANDARD
  9
$CLAYER
  8
0
  9
$CELTYPE
  6
BYBLOCK
  9
$CECOLOR
 62
   256
  9
$CELTSCALE
 40
1.0
  9
$DELOBJ
 70
     1
  9
$DISPSILH
 70
     0
  9
$DIMSCALE
 40
1.0
  9
$DIMASZ
 40
0.18
  9
$DIMEXO
 40
0.0625
  9
$DIMDLI
 40
0.38
  9
$DIMRND
 40
0.0
  9
$DIMDLE
 40
0.0
  9
$DIMEXE
 40
0.18
  9
$DIMTP
 40
0.0
  9
$DIMTM
 40
0.0
  9
$DIMTXT
 40
0.18
  9
$DIMCEN
 40
0.09
  9
$DIMTSZ
 40
0.0
  9
$DIMTOL
 70
     0
  9
$DIMLIM
 70
     0
  9
$DIMTIH
 70
     1
  9
$DIMTOH
 70
     1
  9
$DIMSE1
 70
     0
  9
$DIMSE2
 70
     0
  9
$DIMTAD
 70
     0
  9
$DIMZIN
 70
     0
  9
$DIMBLK
  1

  9
$DIMASO
 70
     1
  9
$DIMSHO
 70
     1
  9
$DIMPOST
  1

  9
$DIMAPOST
  1

  9
$DIMALT
 70
     0
  9
$DIMALTD
 70
     2
  9
$DIMALTF
 40
25.4
  9
$DIMLFAC
 40
1.0
  9
$DIMTOFL
 70
     0
  9
$DIMTVP
 40
0.0
  9
$DIMTIX
 70
     0
  9
$DIMSOXD
 70
     0
  9
$DIMSAH
 70
     0
  9
$DIMBLK1
  1

  9
$DIMBLK2
  1

  9
$DIMSTYLE
  2
STANDARD
  9
$DIMCLRD
 70
     0
  9
$DIMCLRE
 70
     0
  9
$DIMCLRT
 70
     0
  9
$DIMTFAC
 40
1.0
  9
$DIMGAP
 40
0.09
  9
$DIMJUST
 70
     0
  9
$DIMSD1
 70
     0
  9
$DIMSD2
 70
     0
  9
$DIMTOLJ
 70
     1
  9
$DIMTZIN
 70
     0
  9
$DIMALTZ
 70
     0
  9
$DIMALTTZ
 70
     0
  9
$DIMFIT
 70
     5
  9
$DIMUPT
 70
     1
  9
$DIMUNIT
 70
     2
  9
$DIMDEC
 70
     4
  9
$DIMTDEC
 70
     4
  9
$DIMALTU
 70
     2
  9
$DIMALTTD
 70
     2
  9
$DIMTXSTY
  7
STANDARD
  9
$DIMAUNIT
 70
     0
  9
$LUNITS
 70
     2
  9
$LUPREC
 70
     4
  9
$SKETCHINC
 40
0.1
  9
$FILLETRAD
 40
0.25
  9
$AUNITS
 70
     0
  9
$AUPREC
 70
     0
  9
$MENU
  1
.
  9
$ELEVATION
 40
0.0
  9
$PELEVATION
 40
0.0
  9
$THICKNESS
 40
0.0
  9
$LIMCHECK
 70
     0
  9
$CHAMFERA
 40
0.0
  9
$CHAMFERB
 40
0.0
  9
$CHAMFERC
 40
0.0
  9
$CHAMFERD
 40
0.0
  9
$SKPOLY
 70
     0
  9
$TDCREATE
 40
2458002.425524479
  9
$TDUPDATE
 40
2458074.546099213
  9
$TDINDWG
 40
0.0158322454
  9
$TDUSRTIMER
 40
2458074.74731184
  9
$USRTIMER
 70
     1
  9
$ANGBASE
 50
0.0
  9
$ANGDIR
 70
     0
  9
$PDMODE
 70
     0
  9
$PDSIZE
 40
0.0
  9
$PLINEWID
 40
0.0
  9
$COORDS
 70
     1
  9
$SPLFRAME
 70
     0
  9
$SPLINETYPE
 70
     6
  9
$SPLINESEGS
 70
     8
  9
$ATTDIA
 70
     0
  9
$ATTREQ
 70
     1
  9
$HANDLING
 70
     1
  9
$HANDSEED
  5
4BB
  9
$SURFTAB1
 70
     6
  9
$SURFTAB2
 70
     6
  9
$SURFTYPE
 70
     6
  9
$SURFU
 70
     6
  9
$SURFV
 70
     6
  9
$UCSNAME
  2

  9
$UCSORG
 10
0.0
 20
0.0
 30
0.0
  9
$UCSXDIR
 10
1.0
 20
0.0
 30
0.0
  9
$UCSYDIR
 10
0.0
 20
1.0
 30
0.0
  9
$PUCSNAME
  2

  9
$PUCSORG
 10
0.0
 20
0.0
 30
0.0
  9
$PUCSXDIR
 10
1.0
 20
0.0
 30
0.0
  9
$PUCSYDIR
 10
0.0
 20
1.0
 30
0.0
  9
$USERI1
 70
     0
  9
$USERI2
 70
     0
  9
$USERI3
 70
     0
  9
$USERI4
 70
     0
  9
$USERI5
 70
     0
  9
$USERR1
 40
0.0
  9
$USERR2
 40
0.0
  9
$USERR3
 40
0.0
  9
$USERR4
 40
0.0
  9
$USERR5
 40
0.0
  9
$WORLDVIEW
 70
     1
  9
$SHADEDGE
 70
     3
  9
$SHADEDIF
 70
    70
  9
$TILEMODE
 70
     1
  9
$MAXACTVP
 70
    64
  9
$PINSBASE
 10
0.0
 20
0.0
 30
0.0
  9
$PLIMCHECK
 70
     0
  9
$PEXTMIN
 10
1.000000000000000E 20
 20
1.000000000000000E 20
 30
1.000000000000000E 20
  9
$PEXTMAX
 10
-1.000000000000000E 20
 20
-1.000000000000000E 20
 30
-1.000000000000000E 20
  9
$PLIMMIN
 10
0.0
 20
0.0
  9
$PLIMMAX
 10
0.0
 20
0.0
  9
$UNITMODE
 70
     0
  9
$VISRETAIN
 70
     1
  9
$PLINEGEN
 70
     0
  9
$PSLTSCALE
 70
     1
  9
$TREEDEPTH
 70
  3020
  9
$PICKSTYLE
 70
     1
  9
$CMLSTYLE
  2
STANDARD
  9
$CMLJUST
 70
     0
  9
$CMLSCALE
 40
1.0
  9
$PROXYGRAPHICS
 70
     1
  9
$MEASUREMENT
 70
     0
  0
ENDSEC
  0
SECTION
  2
CLASSES
  0
CLASS
  1
ACDBDICTIONARYWDFLT
  2
AcDbDictionaryWithDefault
  3
ObjectDBX Classes
 90
        0
280
     0
281
     0
  0
CLASS
  1
SCALE
  2
AcDbScale
  3
ObjectDBX Classes
 90
     1153
280
     0
281
     0
  0
CLASS
  1
VISUALSTYLE
  2
AcDbVisualStyle
  3
ObjectDBX Classes
 90
     4095
280
     0
281
     0
  0
CLASS
  1
MATERIAL
  2
AcDbMaterial
  3
ObjectDBX Classes
 90
     1153
280
     0
281
     0
  0
CLASS
  1
TABLESTYLE
  2
AcDbTableStyle
  3
ObjectDBX Classes
 90
     4095
280
     0
281
     0
  0
CLASS
  1
MLEADERSTYLE
  2
AcDbMLeaderStyle
  3
ACDB_MLEADERSTYLE_CLASS
 90
     4095
280
     0
281
     0
  0
CLASS
  1
SUN
  2
AcDbSun
  3
SCENEOE
 90
     1153
280
     0
281
     0
  0
CLASS
  1
RASTERVARIABLES
  2
AcDbRasterVariables
  3
ISM
 90
        0
280
     0
281
     0
  0
CLASS
  1
DICTIONARYVAR
  2
AcDbDictionaryVar
  3
ObjectDBX Classes
 90
        0
280
     0
281
     0
  0
CLASS
  1
XRECORD
  2
AcDbXrecord
  3
ObjectDBX Classes
 90
        0
280
     0
281
     0
  0
CLASS
  1
LWPOLYLINE
  2
AcDbPolyline
  3
ObjectDBX Classes
 90
        0
280
     0
281
     1
  0
CLASS
  1
HATCH
  2
AcDbHatch
  3
ObjectDBX Classes
 90
        0
280
     0
281
     1
  0
ENDSEC
  0
SECTION
  2
TABLES
  0
TABLE
  2
VPORT
  5
8
330
0
100
AcDbSymbolTable
 70
     1
  0
VPORT
  5
23
330
8
100
AcDbSymbolTableRecord
100
AcDbViewportTableRecord
  2
*ACTIVE
 70
     0
 10
0.0
 20
0.0
 11
1.0
 21
1.0
 12
51.6124583942395
 22
-21.69999198832005
 13
0.0
 23
0.0
 14
0.5
 24
0.5
 15
0.5
 25
0.5
 16
0.0
 26
0.0
 36
1.0
 17
0.0
 27
0.0
 37
0.0
 40
53.64418029785156
 41
2.73175965665236
 42
50.0
 43
0.0
 44
0.0
 50
0.0
 51
0.0
 71
    16
 72
   100
 73
     1
 74
     2
 75
     0
 76
     0
 77
     0
 78
     0
  0
ENDTAB
  0
TABLE
  2
LTYPE
  5
5
330
0
100
AcDbSymbolTable
 70
     2
  0
LTYPE
  5
14
330
5
100
AcDbSymbolTableRecord
100
AcDbLinetypeTableRecord
  2
BYBLOCK
 70
     0
  3

 72
    65
 73
     0
 40
0.0
  0
LTYPE
  5
15
330
5
100
AcDbSymbolTableRecord
100
AcDbLinetypeTableRecord
  2
BYLAYER
 70
     0
  3

 72
    65
 73
     0
 40
0.0
  0
LTYPE
  5
16
330
5
100
AcDbSymbolTableRecord
100
AcDbLinetypeTableRecord
  2
CONTINUOUS
 70
     0
  3
Solid line
 72
    65
 73
     0
 40
0.0
  0
LTYPE
  5
20
330
5
100
AcDbSymbolTableRecord
100
AcDbLinetypeTableRecord
  2
0
 70
     0
  3
Solid Line
 72
    65
 73
     0
 40
0.0
  0
ENDTAB
  0
TABLE
  2
LAYER
  5
2
102
{ACAD_XDICTIONARY
360
2E9
102
}
330
0
100
AcDbSymbolTable
 70
     5
  0
LAYER
  5
10
330
2
100
AcDbSymbolTableRecord
100
AcDbLayerTableRecord
  2
0
 70
     0
 62
     7
  6
CONTINUOUS
  0
LAYER
  5
21
330
2
100
AcDbSymbolTableRecord
100
AcDbLayerTableRecord
  2
1
 70
     0
 62
     7
  6
0
  0
LAYER
  5
1E1
102
{ACAD_XDICTIONARY
360
1E2
102
}
330
2
100
AcDbSymbolTableRecord
100
AcDbLayerTableRecord
  2
3
 70
     0
 62
   111
  6
CONTINUOUS
  0
LAYER
  5
1E5
102
{ACAD_XDICTIONARY
360
1E6
102
}
330
2
100
AcDbSymbolTableRecord
100
AcDbLayerTableRecord
  2
7
 70
     0
 62
    21
  6
CONTINUOUS
  0
LAYER
  5
3C6
330
2
100
AcDbSymbolTableRecord
100
AcDbLayerTableRecord
  2
DEFPOINTS
 70
     0
 62
     7
  6
CONTINUOUS
  0
ENDTAB
  0
TABLE
  2
STYLE
  5
3
330
0
100
AcDbSymbolTable
 70
     3
  0
STYLE
  5
11
330
3
100
AcDbSymbolTableRecord
100
AcDbTextStyleTableRecord
  2
STANDARD
 70
     0
 40
1.5
 41
1.0
 50
0.0
 71
     0
 42
1.5
  3
txt
  4

  0
STYLE
  5
1E9
330
3
100
AcDbSymbolTableRecord
100
AcDbTextStyleTableRecord
  2
DIM
 70
     0
 40
100.0
 41
1.0
 50
0.0
 71
     0
 42
0.2
  3

  4

1001
ACAD
1000
VNI-Helve-Condense
1071
        2
  0
STYLE
  5
1F0
330
3
100
AcDbSymbolTableRecord
100
AcDbTextStyleTableRecord
  2
THAI
 70
     0
 40
0.0
 41
0.8
 50
0.0
 71
     0
 42
0.2
  3

  4

1001
ACAD
1000
VNI-Avo
1071
        2
  0
ENDTAB
  0
TABLE
  2
VIEW
  5
6
330
0
100
AcDbSymbolTable
 70
     0
  0
ENDTAB
  0
TABLE
  2
UCS
  5
7
330
0
100
AcDbSymbolTable
 70
     0
  0
ENDTAB
  0
TABLE
  2
APPID
  5
9
330
0
100
AcDbSymbolTable
 70
     2
  0
APPID
  5
12
330
9
100
AcDbSymbolTableRecord
100
AcDbRegAppTableRecord
  2
ACAD
 70
     0
  0
APPID
  5
1EE
330
9
100
AcDbSymbolTableRecord
100
AcDbRegAppTableRecord
  2
ACAD_NAV_VCDISPLAY
 70
     0
  0
ENDTAB
  0
TABLE
  2
DIMSTYLE
  5
A
330
0
100
AcDbSymbolTable
 70
     2
  0
DIMSTYLE
105
22
330
A
100
AcDbSymbolTableRecord
100
AcDbDimStyleTableRecord
  2
STANDARD
 70
     0
  3

  4

  5

  6

  7

 40
1.0
 41
0.18
 42
0.0625
 43
0.38
 44
0.18
 45
0.0
 46
0.0
 47
0.0
 48
0.0
140
0.18
141
0.09
142
0.0
143
25.4
144
1.0
145
0.0
146
1.0
147
0.09
 71
     0
 72
     0
 73
     1
 74
     1
 75
     0
 76
     0
 77
     0
 78
     0
170
     0
171
     2
172
     0
173
     0
174
     0
175
     0
176
     0
177
     0
178
     0
270
     2
271
     4
272
     4
273
     2
274
     2
340
11
275
     0
280
     0
281
     0
282
     0
283
     1
284
     0
285
     0
286
     0
287
     3
288
     0
  0
DIMSTYLE
105
1E8
330
A
100
AcDbSymbolTableRecord
100
AcDbDimStyleTableRecord
  2
100
 70
     0
  3

  4

  5
ARCHTICK
  6

  7

 40
1.0
 41
100.0
 42
100.0
 43
100.0
 44
100.0
 45
0.0
 46
100.0
 47
0.0
 48
0.0
140
100.0
141
100.0
142
0.0
143
25.4
144
1.0
145
0.0
146
1.0
147
100.0
 71
     0
 72
     0
 73
     0
 74
     0
 75
     0
 76
     0
 77
     2
 78
     0
170
     0
171
     2
172
     0
173
     0
174
     0
175
     0
176
     0
177
     0
178
     0
270
     2
271
     0
272
     0
273
     2
274
     2
340
1E9
275
     0
280
     0
281
     0
282
     0
283
     1
284
     0
285
     0
286
     0
287
     3
288
     0
  0
ENDTAB
  0
TABLE
  2
BLOCK_RECORD
  5
1
330
0
100
AcDbSymbolTable
 70
     2
  0
BLOCK_RECORD
  5
1D
330
1
100
AcDbSymbolTableRecord
100
AcDbBlockTableRecord
  2
*MODEL_SPACE
  0
BLOCK_RECORD
  5
1B
330
1
100
AcDbSymbolTableRecord
100
AcDbBlockTableRecord
  2
*PAPER_SPACE
  0
BLOCK_RECORD
  5
1EA
330
1
100
AcDbSymbolTableRecord
100
AcDbBlockTableRecord
  2
_ARCHTICK
  0
ENDTAB
  0
ENDSEC
  0
SECTION
  2
BLOCKS
  0
BLOCK
  5
1B1
330
1D
100
AcDbEntity
  8
0
100
AcDbBlockBegin
  2
*MODEL_SPACE
 70
     0
 10
0.0
 20
0.0
 30
0.0
  3
*MODEL_SPACE
  1

  0
ENDBLK
  5
1B2
330
1D
100
AcDbEntity
  8
0
100
AcDbBlockEnd
  0
BLOCK
  5
1B3
330
1B
100
AcDbEntity
 67
     1
  8
0
100
AcDbBlockBegin
  2
*PAPER_SPACE
 70
     0
 10
0.0
 20
0.0
 30
0.0
  3
*PAPER_SPACE
  1

  0
ENDBLK
  5
1B4
330
1B
100
AcDbEntity
 67
     1
  8
0
100
AcDbBlockEnd
  0
BLOCK
  5
1EB
330
1EA
100
AcDbEntity
  8
0
100
AcDbBlockBegin
  2
_ARCHTICK
 70
     0
 10
0.0
 20
0.0
 30
0.0
  3
_ARCHTICK
  1

  0
LWPOLYLINE
  5
1EC
330
1EA
100
AcDbEntity
  8
0
  6
BYBLOCK
 62
     0
100
AcDbPolyline
 90
        2
 70
     0
 43
0.15
 10
-0.5
 20
-0.5
 10
0.5
 20
0.5
  0
ENDBLK
  5
1ED
330
1EA
100
AcDbEntity
  8
0
100
AcDbBlockEnd
  0
ENDSEC
  0
SECTION
  2
ENTITIES
  0
LINE
  5
2F1
330
1D
100
AcDbEntity
  8
3
  6
CONTINUOUS
 62
     0
100
AcDbLine
 10
38.49964886432131
 20
-40.25253355665177
 30
0.0
 11
40.57426782262237
 21
-44.83754605133606
 31
0.0
  0
LINE
  5
355
330
1D
100
AcDbEntity
  8
3
  6
CONTINUOUS
 62
     0
100
AcDbLine
 10
39.70095655758307
 20
-16.94101058295867
 30
0.0
 11
40.53155221337592
 21
-19.86084053847538
 31
0.0
  0
LINE
  5
360
330
1D
100
AcDbEntity
  8
3
  6
CONTINUOUS
 62
     0
100
AcDbLine
 10
43.20910306514013
 20
-16.51958825749432
 30
0.0
 11
43.09771142796679
 21
-15.34516845846107
 31
0.0
  0
LINE
  5
361
330
1D
100
AcDbEntity
  8
3
  6
CONTINUOUS
 62
     0
100
AcDbLine
 10
43.37492732710574
 20
-16.74785762746423
 30
0.0
 11
43.30491988178167
 21
-16.69364534659192
 31
0.0
  0
LINE
  5
362
330
1D
100
AcDbEntity
  8
3
  6
CONTINUOUS
 62
     0
100
AcDbLine
 10
44.51556181919049
 20
-15.52738202461336
 30
0.0
 11
43.73557374187843
 21
-16.68951581950189
 31
0.0
  0
LINE
  5
364
330
1D
100
AcDbEntity
  8
3
  6
CONTINUOUS
 62
     0
100
AcDbLine
 10
44.40927072760585
 20
-18.36693521764579
 30
0.0
 11
44.96776306378484
 21
-15.71828399776853
 31
0.0
  0
LINE
  5
365
330
1D
100
AcDbEntity
  8
3
  6
CONTINUOUS
 62
     0
100
AcDbLine
 10
43.19504040265153
 20
-19.40772820921219
 30
0.0
 11
44.32045567006207
 21
-18.51086551187354
 31
0.0
  0
LINE
  5
366
330
1D
100
AcDbEntity
  8
3
  6
CONTINUOUS
 62
     0
100
AcDbLine
 10
42.74152731279948
 20
-20.07724258868375
 30
0.0
 11
43.14171332826461
 21
-19.4662596227033
 31
0.0
  0
LINE
  5
369
330
1D
100
AcDbEntity
  8
3
  6
CONTINUOUS
 62
     0
100
AcDbLine
 10
37.0276519967244
 20
-36.15700236497674
 30
0.0
 11
38.49964886432131
 21
-40.25253355665177
 31
0.0
  0
LINE
  5
36A
330
1D
100
AcDbEntity
  8
3
  6
CONTINUOUS
 62
     0
100
AcDbLine
 10
36.12325992583414
 20
-34.2398989778925
 30
0.0
 11
37.0276519967244
 21
-36.15700236497674
 31
0.0
  0
LINE
  5
36B
330
1D
100
AcDbEntity
  8
3
  6
CONTINUOUS
 62
     0
100
AcDbLine
 10
36.52698320428657
 20
-29.03555346856296
 30
0.0
 11
36.10024193099287
 21
-34.11229417363838
 31
0.0
  0
LINE
  5
36C
330
1D
100
AcDbEntity
  8
3
  6
CONTINUOUS
 62
     0
100
AcDbLine
 10
40.51949192382514
 20
-20.03089759993345
 30
0.0
 11
36.54770488264877
 21
-28.95484006513874
 31
0.0
  0
LINE
  5
370
330
1D
100
AcDbEntity
  8
3
  6
CONTINUOUS
 62
     0
100
AcDbLine
 10
41.56248711093878
 20
-29.55335172704328
 30
0.0
 11
42.70249062392939
 21
-20.18402624043196
 31
0.0
  0
LINE
  5
371
330
1D
100
AcDbEntity
  8
3
  6
CONTINUOUS
 62
     0
100
AcDbLine
 10
41.8173007569192
 20
-32.81435250082981
 30
0.0
 11
41.56144672642153
 21
-29.60340504264807
 31
0.0
  0
LINE
  5
372
330
1D
100
AcDbEntity
  8
3
  6
CONTINUOUS
 62
     0
100
AcDbLine
 10
41.64959146908087
 20
-33.67284003811815
 30
0.0
 11
41.81288821669013
 21
-32.88494608316768
 31
0.0
  0
LINE
  5
373
330
1D
100
AcDbEntity
  8
3
  6
CONTINUOUS
 62
     0
100
AcDbLine
 10
43.82928144606386
 20
-37.12180323703865
 30
0.0
 11
41.68548972820921
 21
-33.86091175203723
 31
0.0
  0
LWPOLYLINE
  5
3D1
330
1D
100
AcDbEntity
  8
1
100
AcDbPolyline
 90
       12
 70
     1
 43
0.0
 10
34.23463279252277
 20
-7.6992454366447
 42
0.145517
 10
34.02850795394731
 20
-7.415709513135011
 42
-0.39006
 10
34.22140154000597
 20
-7.45970537363835
 42
-0.093966
 10
34.37671091792149
 20
-7.798211468142568
 42
0.050866
 10
34.70688221801176
 20
-8.816727682379092
 42
0.073623
 10
35.35739172467639
 20
-9.895343987397325
 42
0.110445
 10
36.14158926684597
 20
-10.53615558860194
 42
0.29074
 10
37.73041320112276
 20
-10.4277629085424
 42
0.013339
 10
37.84324135677362
 20
-10.56302312993684
 42
-0.184133
 10
36.88976357453763
 20
-10.9038253732666
 42
-0.133411
 10
35.76220988249049
 20
-10.49522593032629
 42
-0.182211
 10
34.49932230486367
 20
-8.675117942677119
 42
-0.00852
  0
LWPOLYLINE
  5
3D3
330
1D
100
AcDbEntity
  8
1
100
AcDbPolyline
 90
        5
 70
     1
 43
0.0
 10
43.54743189980001
 20
-13.52854215793334
 42
-0.02628
 10
42.96504206225801
 20
-14.52491282901667
 42
0.304218
 10
42.86158853193162
 20
-14.12800454584787
 42
0.012587
 10
43.20241799003911
 20
-13.46877951863
 42
0.527164
 10
43.54776685535863
 20
-13.27559894083161
 42
-0.174099
  0
LWPOLYLINE
  5
3D4
330
1D
100
AcDbEntity
  8
1
100
AcDbPolyline
 90
        4
 70
     1
 43
0.0
 10
41.78436014229476
 20
-15.71412912233978
 42
0.047274
 10
42.53582510464202
 20
-14.69432251798436
 42
0.291255
 10
42.86761394942458
 20
-14.67086802659444
 42
-0.047025
 10
41.84144355976096
 20
-15.98146908023352
 42
0.157042
  0
LWPOLYLINE
  5
3D5
330
1D
100
AcDbEntity
  8
1
100
AcDbPolyline
 90
       13
 70
     1
 43
0.0
 10
41.32973165001386
 20
-16.04729005300039
 42
0.019399
 10
40.79468439741296
 20
-15.71764343318077
 42
0.020671
 10
41.01130164670002
 20
-15.52647167547632
 42
0.11345
 10
41.28084535721806
 20
-15.6658428467517
 42
0.548052
 10
41.35232145567883
 20
-15.61093436986446
 42
0.110188
 10
41.3172039898415
 20
-15.47769990936564
 42
0.594709
 10
41.26028513451904
 20
-15.4718375764655
 42
0.081511
 10
41.21971616515898
 20
-15.53484182552112
 42
-0.02616
 10
41.12898511969309
 20
-15.40443644418309
 42
0.012756
 10
41.32367302483225
 20
-15.19953759587307
 42
0.052683
 10
41.62066966510637
 20
-15.68549728952484
 42
-0.110009
 10
41.71840533247242
 20
-15.90775796689438
 42
-0.281536
 10
41.62232316379267
 20
-16.06469076622914
 42
-0.246401
  0
LWPOLYLINE
  5
3D6
330
1D
100
AcDbEntity
  8
1
100
AcDbPolyline
 90
        7
 70
     1
 43
0.0
 10
42.1755784830631
 20
-14.03074379664286
 42
-0.001705
 10
42.04751674691223
 20
-14.23246194370275
 42
0.009345
 10
42.43162572057987
 20
-14.50558646874808
 42
0.100408
 10
42.67120322794069
 20
-14.60511815761794
 42
0.588039
 10
42.85223710803887
 20
-14.34490785000535
 42
0.652657
 10
42.74319054282328
 20
-14.34178513433137
 42
-0.472889
 10
42.65735907287724
 20
-14.3682250171583
 42
0.019946
  0
CIRCLE
  5
3D7
330
1D
100
AcDbEntity
  8
1
100
AcDbCircle
 10
36.41099117271197
 20
-7.274841141174608
 30
0.0
 40
0.6004
  0
LWPOLYLINE
  5
3D8
330
1D
100
AcDbEntity
  8
1
100
AcDbPolyline
 90
        4
 70
     1
 43
0.0
 10
42.51691530386545
 20
-9.816922224830037
 42
-0.504358
 10
42.80427559047967
 20
-9.902716175055247
 42
0.002113
 10
41.91326405289353
 20
-11.9400706232274
 42
-0.041143
 10
41.68593326930532
 20
-11.75827239247029
 42
0.00277
  0
LWPOLYLINE
  5
3D9
330
1D
100
AcDbEntity
  8
1
100
AcDbPolyline
 90
        4
 70
     1
 43
0.0
 10
40.20326589632722
 20
-8.255568601044505
 42
0.120554
 10
39.2110782183596
 20
-9.09776287149371
 42
-0.082352
 10
39.18446193065777
 20
-8.862061937860696
 42
-0.143775
 10
40.32295795971907
 20
-8.027066629940855
 42
-0.004462
  0
LWPOLYLINE
  5
3DB
330
1D
100
AcDbEntity
  8
1
100
AcDbPolyline
 90
        8
 70
     1
 43
0.0
 10
44.59972227767435
 20
-8.560412048155658
 42
-0.566331
 10
44.78224064099742
 20
-8.684810491019183
 42
-0.014731
 10
44.45874285769721
 20
-9.769823461777765
 42
-0.553793
 10
44.004574465282
 20
-9.905270980869094
 42
-0.652239
 10
44.04353205225817
 20
-9.821143819684401
 42
0.307751
 10
44.30074194955211
 20
-9.823955388381439
 42
0.27295
 10
44.39287614306793
 20
-9.641302777045908
 42
0.187586
 10
44.23361450416563
 20
-9.383355822793384
 42
0.002065
  0
LWPOLYLINE
  5
3DC
330
1D
100
AcDbEntity
  8
1
100
AcDbPolyline
 90
        2
 70
     1
 43
0.0
 10
41.16780266147689
 20
-10.36164250094762
 42
-0.415897
 10
42.41044834770006
 20
-9.57971457160744
 42
0.174971
  0
LWPOLYLINE
  5
3E0
330
1D
100
AcDbEntity
  8
1
100
AcDbPolyline
 90
        3
 70
     1
 43
0.0
 10
40.34488033099284
 20
-13.68556003666055
 42
0.038856
 10
40.28880015996378
 20
-14.30578133276429
 42
-0.169866
 10
39.51373441993802
 20
-13.04859783271603
 42
0.005279
  0
LWPOLYLINE
  5
3E2
330
1D
100
AcDbEntity
  8
1
100
AcDbPolyline
 90
        4
 70
     1
 43
0.0
 10
40.35777305747095
 20
-11.35600603912793
 42
0.000656
 10
40.47579087827146
 20
-11.45142463589895
 42
-0.064687
 10
39.8338065588594
 20
-12.07834085820424
 42
0.012475
 10
39.68080230031226
 20
-11.95563584625916
 42
0.043183
  0
LWPOLYLINE
  5
3E4
330
1D
100
AcDbEntity
  8
1
100
AcDbPolyline
 90
        4
 70
     1
 43
0.0
 10
41.3472792989517
 20
-13.24295287982109
 42
0.000308
 10
41.70468186762724
 20
-12.4109697822379
 42
-0.017154
 10
41.48153591374846
 20
-12.24256381699312
 42
0.003612
 10
41.12413334507291
 20
-13.07454691457632
 42
0.007077
  0
LWPOLYLINE
  5
3E6
330
1D
100
AcDbEntity
  8
1
100
AcDbPolyline
 90
        4
 70
     1
 43
0.0
 10
39.24522978345734
 20
-7.758218736955159
 42
0.002569
 10
40.43896756817681
 20
-7.523356565513431
 42
-0.029643
 10
40.55999894528172
 20
-7.223875829674984
 42
0.030423
 10
39.2639789036409
 20
-7.47012131606972
 42
-0.01168
  0
LWPOLYLINE
  5
3E7
330
1D
100
AcDbEntity
  8
1
100
AcDbPolyline
 90
        4
 70
     1
 43
0.0
 10
38.75173163011252
 20
-7.571398489960256
 42
-0.011121
 10
38.1326817378792
 20
-7.688411214389735
 42
0.519091
 10
38.11574831861773
 20
-7.955525709802028
 42
0.021872
 10
38.74185441365776
 20
-7.859663316722216
 42
-0.009832
  0
LWPOLYLINE
  5
3E9
330
1D
100
AcDbEntity
  8
1
100
AcDbPolyline
 90
        4
 70
     1
 43
0.0
 10
39.8309631137072
 20
-10.11238199411357
 42
0.003436
 10
40.9495415536854
 20
-7.275603274492152
 42
0.348516
 10
40.693666050528
 20
-7.230765184912
 42
0.008248
 10
39.64012618109597
 20
-9.878020230388046
 42
0.014018
  0
LWPOLYLINE
  5
3EA
330
1D
100
AcDbEntity
  8
1
100
AcDbPolyline
 90
        4
 70
     1
 43
0.0
 10
41.60390706851204
 20
-11.6369066808981
 42
0.00551
 10
41.76628642966944
 20
-11.26276528856611
 42
-0.16228
 10
41.72955666485778
 20
-10.10397204074399
 42
0.100154
 10
41.41859549482565
 20
-10.40416432761818
 42
0.132816
  0
LWPOLYLINE
  5
3F4
330
1D
100
AcDbEntity
  8
1
100
AcDbPolyline
 90
        5
 70
     1
 43
0.0
 10
35.16896796681429
 20
-7.413855415056496
 42
0.371629
 10
35.07811326672316
 20
-7.293507731307063
 42
0.471
 10
36.41815731835197
 20
-8.947433063219155
 42
0.196864
 10
36.21681561502623
 20
-8.791194148246326
 42
-0.353802
 10
35.16901207822615
 20
-7.415040862095946
  0
LWPOLYLINE
  5
3F5
330
1D
100
AcDbEntity
  8
1
100
AcDbPolyline
 90
       10
 70
     1
 43
0.0
 10
41.74065816927567
 20
-13.6793705810511
 42
-0.028133
 10
39.28473085685144
 20
-11.77952938115603
 10
39.27820704336915
 20
-11.77439164878677
 42
-0.026717
 10
38.9498674869804
 20
-11.45065575015188
 42
-0.02349
 10
36.80619395872282
 20
-8.373414721689707
 42
-0.001674
 10
36.51223758266184
 20
-8.42999590818616
 42
0.029334
 10
38.63936298417897
 20
-11.53592546857107
 42
0.049549
 10
39.28735583888253
 20
-12.14983465459078
 42
0.016857
 10
41.6054107226654
 20
-13.90904265222628
 42
0.030535
 10
41.74034769712559
 20
-13.67998885549989
  0
LWPOLYLINE
  5
3F6
330
1D
100
AcDbEntity
  8
1
100
AcDbPolyline
 90
        5
 70
     1
 43
0.0
 10
41.15158608108653
 20
-13.7362839607696
 42
0.107169
 10
41.11793736804988
 20
-14.57881392499401
 42
-0.016861
 10
40.89579598868051
 20
-14.82757147493999
 42
-0.115896
 10
40.94149792778742
 20
-13.5814373334335
 42
-0.00495
 10
41.13841601287347
 20
-13.72612570797873
  0
LWPOLYLINE
  5
3F7
330
1D
100
AcDbEntity
  8
1
100
AcDbPolyline
 90
       21
 70
     1
 43
0.0
 10
42.34336356518202
 20
-12.74968100550162
 42
-0.135892
 10
40.61761144381499
 20
-15.26104917527411
 10
40.61034284496142
 20
-15.25664599514992
 42
-0.049472
 10
39.66069054265768
 20
-14.48807077048309
 42
-0.278534
 10
39.04673858386888
 20
-12.1164626418826
 42
-0.010009
 10
38.81634263177941
 20
-11.90826038943732
 42
0.25952
 10
39.0483575677563
 20
-14.19362099070616
 42
0.085181
 10
40.47447844515734
 20
-15.50613970377025
 42
0.486527
 10
40.74691022843282
 20
-15.59217107359307
 42
0.148315
 10
42.67219543890093
 20
-12.63580583438974
 42
0.605793
 10
42.43488508306439
 20
-12.51793983805502
 42
-0.005103
 10
41.07466018743723
 20
-11.42624258811569
 42
-0.027309
 10
39.77560007918111
 20
-10.23364049393136
 42
-0.051242
 10
39.30244570518037
 20
-9.601067970374402
 42
-0.116265
 10
39.10577875864968
 20
-8.908988030258712
 42
-0.035016
 10
39.14124673550634
 20
-7.466283491491691
 42
0.536058
 10
38.87877365369548
 20
-7.549787953873711
 42
0.036042
 10
38.84499319446522
 20
-8.749257873177314
 42
0.178281
 10
39.50588422535587
 20
-10.36279665444771
 42
0.039732
 10
40.93521505379873
 20
-11.66183172426121
 42
-0.000558
 10
42.34304075532989
 20
-12.74943516246354
  0
LWPOLYLINE
  5
3F8
330
1D
100
AcDbEntity
  8
1
100
AcDbPolyline
 90
        7
 70
     1
 43
0.0
 10
43.24119085707385
 20
-13.35199487954524
 42
-0.063026
 10
42.68397767445856
 20
-12.95753576580974
 42
0.020714
 10
42.79144936683442
 20
-12.67111247039042
 42
0.036658
 10
43.37197423787632
 20
-13.15433208544662
 42
-0.413392
 10
43.41417424400378
 20
-13.28359576324065
 42
-0.222451
 10
43.32915691596492
 20
-13.36683153534846
 42
-0.160685
 10
43.25330823498773
 20
-13.35879725247623
  0
LWPOLYLINE
  5
3F9
330
1D
100
AcDbEntity
  8
1
100
AcDbPolyline
 90
        5
 70
     1
 43
0.0
 10
39.01789445799974
 20
-11.33959864164827
 42
-0.001963
 10
39.40342051125249
 20
-10.42826746673181
 42
0.012969
 10
39.62957870670358
 20
-10.67217113119293
 42
-0.028522
 10
39.23986817056178
 20
-11.57011040075759
 42
-0.029776
 10
39.0208105237397
 20
-11.34262687159333
  0
LWPOLYLINE
  5
3FA
330
1D
100
AcDbEntity
  8
1
100
AcDbPolyline
 90
        5
 70
     1
 43
0.0
 10
38.51000077936524
 20
-10.26940267734622
 42
-0.028776
 10
38.91929724416293
 20
-9.50940175263602
 42
-0.05469
 10
38.85635485818101
 20
-9.317392808403191
 42
0.083832
 10
38.39432625693152
 20
-10.28497082200865
 42
0.509132
 10
38.50907140456736
 20
-10.27068079098947
  0
LWPOLYLINE
  5
3FB
330
1D
100
AcDbEntity
  8
1
100
AcDbPolyline
 90
        5
 70
     1
 43
0.0
 10
38.53857279915958
 20
-9.300215868786534
 42
-0.608582
 10
38.66116519935789
 20
-9.313709732377735
 42
-0.083253
 10
38.17369171427698
 20
-10.21867970780873
 42
-0.052232
 10
38.0829603219907
 20
-10.08827396631015
 42
0.085417
 10
38.53815759972374
 20
-9.301399367700128
  0
LWPOLYLINE
  5
3FC
330
1D
100
AcDbEntity
  8
1
100
AcDbPolyline
 90
        4
 70
     1
 43
0.0
 10
41.08245799942729
 20
-7.286986719910553
 42
-0.060343
 10
43.34337622508527
 20
-8.585520747585921
 42
-0.953681
 10
43.18762421606556
 20
-8.820802539377858
 42
0.086902
 10
41.00203012016684
 20
-7.570077208678132
 42
0.119295
  0
LINE
  5
3FF
330
1D
100
AcDbEntity
  8
0
  6
BYBLOCK
100
AcDbLine
 10
43.82928144606386
 20
-37.12180323703865
 30
0.0
 11
40.57426782262237
 21
-44.83754605133606
 31
0.0
  0
LINE
  5
402
330
1D
100
AcDbEntity
  8
3
  6
CONTINUOUS
 62
     0
100
AcDbLine
 10
39.53019290941534
 20
-15.49582729840718
 30
0.0
 11
39.69307859632605
 21
-16.90138668419191
 31
0.0
  0
LWPOLYLINE
  5
4A9
330
1D
100
AcDbEntity
  8
1
100
AcDbPolyline
 90
       28
 70
     0
 43
0.0
 10
43.09771142796679
 20
-15.34516845846108
 42
0.0439068539584084
 10
44.06855303253596
 20
-13.74134258991716
 10
44.06936147379168
 20
-13.73989564106318
 42
0.100582
 10
44.13068462234826
 20
-13.37252443453209
 42
0.084986
 10
44.06654344122991
 20
-13.06350244472433
 42
0.127184
 10
43.89407940647651
 20
-12.84180629513931
 42
-0.077336
 10
42.64162669155951
 20
-11.67423846996022
 42
-0.000875
 10
43.1332851368153
 20
-10.54746205737829
 42
0.153759
 10
43.77895144721586
 20
-10.43095156391855
 42
0.088416
 10
44.06469004120337
 20
-10.52581629106883
 42
0.338686
 10
44.96053188509144
 20
-10.01725086198084
 42
0.020057
 10
45.3372765766095
 20
-8.758529632485114
 42
0.263027
 10
45.06945028040506
 20
-8.125504639617809
 42
0.112206
 10
45.0580182815612
 20
-5.387044287443299
 42
0.108486
 10
43.94559869358895
 20
-3.066099623879144
 42
0.28972
 10
37.4978167317274
 20
-0.7151118213034868
 42
0.168947
 10
34.19976932378076
 20
-2.968352878579516
 42
0.077736
 10
33.06444792437027
 20
-5.120972971809586
 42
0.139407
 10
32.38329100942987
 20
-6.177608252235206
 42
0.42531
 10
32.47545303456958
 20
-7.931386041341527
 42
0.098909
 10
33.66048449698751
 20
-8.604023388112328
 42
0.09559
 10
34.46289792492263
 20
-10.38981353866549
 42
0.055309
 10
35.06773097974428
 20
-11.08643569177261
 42
0.211345
 10
36.92772302492805
 20
-11.81049570313425
 42
0.099575
 10
38.07860489050312
 20
-12.67093894698158
 42
0.172215
 10
38.58967818535076
 20
-14.51335646794061
 42
0.034485
 10
39.28843441193716
 20
-15.27797685049639
 42
0.0102881462968641
 10
39.53019290941534
 20
-15.49582729840719
 42
0.0325904584850857
  0
LWPOLYLINE
  5
4AA
330
1D
100
AcDbEntity
  8
1
100
AcDbPolyline
 90
        8
 70
     0
 43
0.0
 10
40.35152169127731
 20
-16.11722088870394
 42
0.0281132861979801
 10
41.11991367000974
 20
-16.56364837898099
 10
41.19743670980039
 20
-16.60176174213444
 42
0.205026
 10
41.89623653215553
 20
-16.54837785980164
 10
41.91978655406336
 20
-16.5332231532921
 42
0.140425
 10
42.22077467096384
 20
-16.3928119898258
 42
0.032206
 10
42.275942946116
 20
-16.33824609750528
 10
42.60646130177555
 20
-15.94012960327832
  0
ARC
  5
4AC
330
1D
100
AcDbEntity
  8
3
  6
CONTINUOUS
 62
     0
100
AcDbCircle
 10
44.72314204302595
 20
-15.66670341806183
 30
0.0
 40
0.2500000000000001
100
AcDbArc
 50
348.0930827072721
 51
146.1317158342955
  0
ARC
  5
4AD
330
1D
100
AcDbEntity
  8
3
  6
CONTINUOUS
 62
     0
100
AcDbCircle
 10
44.16464970684696
 20
-18.31535463793909
 30
0.0
 40
0.2499999999999998
100
AcDbArc
 50
308.5519413934458
 51
348.093082707272
  0
ARC
  5
4AE
330
1D
100
AcDbEntity
  8
3
  6
CONTINUOUS
 62
     0
100
AcDbCircle
 10
43.35084636586664
 20
-19.60323908314664
 30
0.0
 40
0.2500000000000018
100
AcDbArc
 50
128.5519413934459
 51
146.7757148467547
  0
ARC
  5
4AF
330
1D
100
AcDbEntity
  8
3
  6
CONTINUOUS
 62
     0
100
AcDbCircle
 10
42.95066035040151
 20
-20.21422204912709
 30
0.0
 40
0.2500000000000014
100
AcDbArc
 50
146.7757148467549
 51
173.0626925736593
  0
ARC
  5
4B0
330
1D
100
AcDbEntity
  8
3
  6
CONTINUOUS
 62
     0
100
AcDbCircle
 10
40.29109217001918
 20
-19.92924351756891
 30
0.0
 40
0.2499999999999999
100
AcDbArc
 50
336.007545612951
 51
15.87931051321308
  0
ARC
  5
4B1
330
1D
100
AcDbEntity
  8
3
  6
CONTINUOUS
 62
     0
100
AcDbCircle
 10
40.29109217001918
 20
-19.92924351756891
 30
0.0
 40
0.2500000000000001
100
AcDbArc
 50
336.007545612951
 51
15.87931051321313
  0
ARC
  5
4B2
330
1D
100
AcDbEntity
  8
3
  6
CONTINUOUS
 62
     0
100
AcDbCircle
 10
39.94141660093982
 20
-16.87260760386514
 30
0.0
 40
0.2500000000000001
100
AcDbArc
 50
186.6103343266483
 51
195.8793105132131
  0
ARC
  5
4B3
330
1D
100
AcDbEntity
  8
3
  6
CONTINUOUS
 62
     0
100
AcDbCircle
 10
43.52799351804298
 20
-16.55019442605343
 30
0.0
 40
0.25
100
AcDbArc
 50
232.2465591051373
 51
326.1317158342956
  0
ARC
  5
4B4
330
1D
100
AcDbEntity
  8
3
  6
CONTINUOUS
 62
     0
100
AcDbCircle
 10
43.4579860727189
 20
-16.49598214518112
 30
0.0
 40
0.2500000000000002
100
AcDbArc
 50
185.4181942737818
 51
232.2465591051375
  0
ARC
  5
4B5
330
1D
100
AcDbEntity
  8
3
  6
CONTINUOUS
 62
     0
100
AcDbCircle
 10
41.8106568374109
 20
-29.58354753573841
 30
0.0
 40
0.249999999999994
100
AcDbArc
 50
173.0626925736593
 51
184.5558044682342
  0
ARC
  5
4B6
330
1D
100
AcDbEntity
  8
3
  6
CONTINUOUS
 62
     0
100
AcDbCircle
 10
41.56809064592984
 20
-32.83421000773946
 30
0.0
 40
0.2500000000000017
100
AcDbArc
 50
348.2908131725771
 51
4.555804468233953
  0
ARC
  5
4B7
330
1D
100
AcDbEntity
  8
3
  6
CONTINUOUS
 62
     0
100
AcDbCircle
 10
41.89438903984117
 20
-33.72357611354636
 30
0.0
 40
0.2500000000000002
100
AcDbArc
 50
168.2908131725772
 51
213.3219211088251
  0
ARC
  5
4B8
330
1D
100
AcDbEntity
  8
3
  6
CONTINUOUS
 62
     0
100
AcDbCircle
 10
36.34936336316104
 20
-34.1332348525787
 30
0.0
 40
0.2499999999999991
100
AcDbArc
 50
175.1951200359088
 51
205.2555596679082
  0
ARC
  5
4B9
330
1D
100
AcDbEntity
  8
3
  6
CONTINUOUS
 62
     0
100
AcDbCircle
 10
36.77610463645473
 20
-29.05649414750328
 30
0.0
 40
0.2500000000000003
100
AcDbArc
 50
156.007545612951
 51
175.195120035909
  0
ENDSEC
  0
SECTION
  2
OBJECTS
  0
DICTIONARY
  5
C
330
0
100
AcDbDictionary
  3
ACAD_DETAILVIEWSTYLE
350
1DE
  3
ACAD_GROUP
350
D
  3
ACAD_IMAGE_VARS
350
1D8
  3
ACAD_MLINESTYLE
350
17
  3
ACAD_SCALELIST
350
18F
  3
ACAD_SECTIONVIEWSTYLE
350
1DF
  3
ACDBVARIABLEDICTIONARY
350
1D9
  3
APPDATA
350
1D6
  3
CENTERLINE
350
3CE
  3
DIMOFFSETDICTIONARY
350
3C9
  3
DWGPROPS
350
4BA
  0
DICTIONARY
  5
2E9
330
2
100
AcDbDictionary
280
     1
  3
ACAD_LAYERSTATES
360
2EA
  0
DICTIONARY
  5
1E2
330
1E1
100
AcDbDictionary
280
     1
  0
DICTIONARY
  5
1E6
330
1E5
100
AcDbDictionary
280
     1
  0
DICTIONARY
  5
1DE
102
{ACAD_REACTORS
330
C
102
}
330
C
100
AcDbDictionary
  0
DICTIONARY
  5
D
102
{ACAD_REACTORS
330
C
102
}
330
C
100
AcDbDictionary
  0
RASTERVARIABLES
  5
1D8
102
{ACAD_REACTORS
330
C
102
}
330
C
100
AcDbRasterVariables
 90
        0
 70
     1
 71
     1
 72
     0
  0
DICTIONARY
  5
17
102
{ACAD_REACTORS
330
C
102
}
330
C
100
AcDbDictionary
  3
STANDARD
350
18
  0
DICTIONARY
  5
18F
102
{ACAD_REACTORS
330
C
102
}
330
C
100
AcDbDictionary
  0
DICTIONARY
  5
1DF
102
{ACAD_REACTORS
330
C
102
}
330
C
100
AcDbDictionary
  0
DICTIONARY
  5
1D9
102
{ACAD_REACTORS
330
C
102
}
330
C
100
AcDbDictionary
  0
DICTIONARY
  5
1D6
102
{ACAD_REACTORS
330
C
102
}
330
C
100
AcDbDictionary
  0
DICTIONARY
  5
3CE
102
{ACAD_REACTORS
330
C
102
}
330
C
100
AcDbDictionary
  3
CLEXTENSION
350
3CF
  0
DICTIONARY
  5
3C9
102
{ACAD_REACTORS
330
C
102
}
330
C
100
AcDbDictionary
  3
DIMRAILANGLE
350
3CC
  3
DIMRAILFIRSTOFFSET
350
3CA
  3
DIMRAILOFFSET
350
3CB
  3
DIMRAILSENABLED
350
3CD
  0
XRECORD
  5
4BA
102
{ACAD_REACTORS
330
C
102
}
330
C
100
AcDbXrecord
  1
DWGPROPS COOKIE
  2

  3

  4

  6

  7

  8
Tracy
  9

300
=
301
=
302
=
303
=
304
=
305
=
306
=
307
=
308
=
309
=
 40
0.0
 41
2458002.633857813
 42
2458074.754432546
  1

 90
        0
  0
DICTIONARY
  5
2EA
102
{ACAD_REACTORS
330
2E9
102
}
330
2E9
100
AcDbDictionary
  0
MLINESTYLE
  5
18
102
{ACAD_REACTORS
330
17
102
}
330
17
100
AcDbMlineStyle
  2
Standard
 70
     0
  3

 62
   256
 51
90.0
 52
90.0
 71
     2
 49
0.5
 62
   256
  6
BYLAYER
 49
-0.5
 62
   256
  6
BYLAYER
  0
DICTIONARYVAR
  5
3CF
102
{ACAD_REACTORS
330
3CE
102
}
330
3CE
100
DictionaryVariables
280
     0
  1
0.250000
  0
DICTIONARYVAR
  5
3CC
102
{ACAD_REACTORS
330
3C9
102
}
330
3C9
100
DictionaryVariables
280
     0
  1
0.261799
  0
DICTIONARYVAR
  5
3CA
102
{ACAD_REACTORS
330
3C9
102
}
330
3C9
100
DictionaryVariables
280
     0
  1
0.400000
  0
DICTIONARYVAR
  5
3CB
102
{ACAD_REACTORS
330
3C9
102
}
330
3C9
100
DictionaryVariables
280
     0
  1
0.250000
  0
DICTIONARYVAR
  5
3CD
102
{ACAD_REACTORS
330
3C9
102
}
330
3C9
100
DictionaryVariables
280
     0
  1
0
  0
ENDSEC
  0
EOF
