  0
SECTION
  2
HEADER
  9
$ACADVER
  1
AC1009
  9
$INSBASE
 10
0.0
 20
0.0
 30
0.0
  9
$EXTMIN
 10
2325.9837990928158
 20
416.23775919785339
 30
0.0
  9
$EXTMAX
 10
2725.9837990928258
 20
816.23775919786317
 30
0.0
  9
$LIMMIN
 10
0.0
 20
0.0
  9
$LIMMAX
 10
420.0
 20
297.0
  9
$ORTHOMODE
 70
     0
  9
$REGENMODE
 70
     1
  9
$FILLMODE
 70
     1
  9
$QTEXTMODE
 70
     0
  9
$MIRRTEXT
 70
     0
  9
$DRAGMODE
 70
     2
  9
$LTSCALE
 40
1.0
  9
$OSMODE
 70
  3071
  9
$ATTMODE
 70
     1
  9
$TEXTSIZE
 40
2.5
  9
$TRACEWID
 40
1.0
  9
$TEXTSTYLE
  7
STANDARD
  9
$CLAYER
  8
0
  9
$CELTYPE
  6
BYLAYER
  9
$CECOLOR
 62
   256
  9
$DIMSCALE
 40
1.0
  9
$DIMASZ
 40
2.5
  9
$DIMEXO
 40
0.625
  9
$DIMDLI
 40
3.75
  9
$DIMRND
 40
0.0
  9
$DIMDLE
 40
0.0
  9
$DIMEXE
 40
1.25
  9
$DIMTP
 40
0.0
  9
$DIMTM
 40
0.0
  9
$DIMTXT
 40
2.5
  9
$DIMCEN
 40
2.5
  9
$DIMTSZ
 40
0.0
  9
$DIMTOL
 70
     0
  9
$DIMLIM
 70
     0
  9
$DIMTIH
 70
     0
  9
$DIMTOH
 70
     0
  9
$DIMSE1
 70
     0
  9
$DIMSE2
 70
     0
  9
$DIMTAD
 70
     1
  9
$DIMZIN
 70
     8
  9
$DIMBLK
  1

  9
$DIMASO
 70
     1
  9
$DIMSHO
 70
     1
  9
$DIMPOST
  1

  9
$DIMAPOST
  1

  9
$DIMALT
 70
     0
  9
$DIMALTD
 70
     3
  9
$DIMALTF
 40
0.03937007874016
  9
$DIMLFAC
 40
1.0
  9
$DIMTOFL
 70
     1
  9
$DIMTVP
 40
0.0
  9
$DIMTIX
 70
     0
  9
$DIMSOXD
 70
     0
  9
$DIMSAH
 70
     0
  9
$DIMBLK1
  1

  9
$DIMBLK2
  1

  9
$DIMSTYLE
  2
ISO-25
  9
$DIMCLRD
 70
     0
  9
$DIMCLRE
 70
     0
  9
$DIMCLRT
 70
     0
  9
$DIMTFAC
 40
1.0
  9
$DIMGAP
 40
0.625
  9
$LUNITS
 70
     2
  9
$LUPREC
 70
     4
  9
$SKETCHINC
 40
1.0
  9
$FILLETRAD
 40
0.0
  9
$AUNITS
 70
     0
  9
$AUPREC
 70
     0
  9
$MENU
  1
.
  9
$ELEVATION
 40
0.0
  9
$PELEVATION
 40
0.0
  9
$THICKNESS
 40
0.0
  9
$LIMCHECK
 70
     0
  9
$BLIPMODE
 70
     0
  9
$CHAMFERA
 40
0.0
  9
$CHAMFERB
 40
0.0
  9
$SKPOLY
 70
     0
  9
$TDCREATE
 40
2458080.4397206372
  9
$TDUPDATE
 40
2458080.4517651391
  9
$TDINDWG
 40
0.0103460417
  9
$TDUSRTIMER
 40
0.0103460417
  9
$USRTIMER
 70
     1
  9
$ANGBASE
 50
0.0
  9
$ANGDIR
 70
     0
  9
$PDMODE
 70
     0
  9
$PDSIZE
 40
0.0
  9
$PLINEWID
 40
0.0
  9
$COORDS
 70
     1
  9
$SPLFRAME
 70
     0
  9
$SPLINETYPE
 70
     6
  9
$SPLINESEGS
 70
     8
  9
$ATTDIA
 70
     0
  9
$ATTREQ
 70
     1
  9
$HANDLING
 70
     1
  9
$HANDSEED
  5
9BE
  9
$SURFTAB1
 70
     6
  9
$SURFTAB2
 70
     6
  9
$SURFTYPE
 70
     6
  9
$SURFU
 70
     6
  9
$SURFV
 70
     6
  9
$UCSNAME
  2

  9
$UCSORG
 10
0.0
 20
0.0
 30
0.0
  9
$UCSXDIR
 10
1.0
 20
0.0
 30
0.0
  9
$UCSYDIR
 10
0.0
 20
1.0
 30
0.0
  9
$PUCSNAME
  2

  9
$PUCSORG
 10
0.0
 20
0.0
 30
0.0
  9
$PUCSXDIR
 10
1.0
 20
0.0
 30
0.0
  9
$PUCSYDIR
 10
0.0
 20
1.0
 30
0.0
  9
$USERI1
 70
     0
  9
$USERI2
 70
     0
  9
$USERI3
 70
     0
  9
$USERI4
 70
     0
  9
$USERI5
 70
     0
  9
$USERR1
 40
0.0
  9
$USERR2
 40
0.0
  9
$USERR3
 40
0.0
  9
$USERR4
 40
0.0
  9
$USERR5
 40
0.0
  9
$WORLDVIEW
 70
     1
  9
$SHADEDGE
 70
     3
  9
$SHADEDIF
 70
    70
  9
$TILEMODE
 70
     1
  9
$MAXACTVP
 70
    64
  9
$PLIMCHECK
 70
     0
  9
$PEXTMIN
 10
0.0
 20
0.0
 30
0.0
  9
$PEXTMAX
 10
0.0
 20
0.0
 30
0.0
  9
$PLIMMIN
 10
0.0
 20
0.0
  9
$PLIMMAX
 10
12.0
 20
9.0
  9
$UNITMODE
 70
     0
  9
$VISRETAIN
 70
     1
  9
$PLINEGEN
 70
     0
  9
$PSLTSCALE
 70
     1
  0
ENDSEC
  0
SECTION
  2
TABLES
  0
TABLE
  2
VPORT
 70
     1
  0
VPORT
  2
*ACTIVE
 70
     0
 10
0.0
 20
0.0
 11
1.0
 21
1.0
 12
2528.7879603813681
 22
676.46494505664725
 13
0.0
 23
0.0
 14
10.0
 24
10.0
 15
10.0
 25
10.0
 16
0.0
 26
0.0
 36
1.0
 17
0.0
 27
0.0
 37
0.0
 40
573.09314103370218
 41
2.5209580838323351
 42
50.0
 43
0.0
 44
0.0
 50
0.0
 51
0.0
 71
     0
 72
  1000
 73
     1
 74
     3
 75
     0
 76
     0
 77
     0
 78
     0
  0
ENDTAB
  0
TABLE
  2
LTYPE
 70
     1
  0
LTYPE
  2
CONTINUOUS
 70
     0
  3
Solid line
 72
    65
 73
     0
 40
0.0
  0
ENDTAB
  0
TABLE
  2
LAYER
 70
     1
  0
LAYER
  2
0
 70
     0
 62
     7
  6
CONTINUOUS
  0
ENDTAB
  0
TABLE
  2
STYLE
 70
     2
  0
STYLE
  2
STANDARD
 70
     0
 40
0.0
 41
1.0
 50
0.0
 71
     0
 42
2.5
  3
txt
  4

  0
STYLE
  2
ANNOTATIVE
 70
     0
 40
0.0
 41
1.0
 50
0.0
 71
     0
 42
2.5
  3
txt
  4

  0
ENDTAB
  0
TABLE
  2
VIEW
 70
     0
  0
ENDTAB
  0
TABLE
  2
UCS
 70
     0
  0
ENDTAB
  0
TABLE
  2
APPID
 70
     8
  0
APPID
  2
ACAD
 70
     0
  0
APPID
  2
ACADANNOTATIVE
 70
     0
  0
APPID
  2
ACAD_MLEADERVER
 70
     0
  0
APPID
  2
ACAD_PSEXT
 70
     0
  0
APPID
  2
ACADANNOPO
 70
     0
  0
APPID
  2
ACAD_DSTYLE_DIMJAG
 70
     0
  0
APPID
  2
ACAD_DSTYLE_DIMTALN
 70
     0
  0
APPID
  2
ACAD_EXEMPT_FROM_CAD_STANDARDS
 70
     0
  0
ENDTAB
  0
TABLE
  2
DIMSTYLE
 70
     3
  0
DIMSTYLE
  2
STANDARD
 70
     0
  3

  4

  5

  6

  7

 40
1.0
 41
0.18
 42
0.0625
 43
0.38
 44
0.18
 45
0.0
 46
0.0
 47
0.0
 48
0.0
140
0.18
141
0.09
142
0.0
143
25.399999999999999
144
1.0
145
0.0
146
1.0
147
0.09
 71
     0
 72
     0
 73
     1
 74
     1
 75
     0
 76
     0
 77
     0
 78
     0
170
     0
171
     2
172
     0
173
     0
174
     0
175
     0
176
     0
177
     0
178
     0
  0
DIMSTYLE
  2
ANNOTATIVE
 70
     0
  3

  4

  5

  6

  7

 40
0.0
 41
2.5
 42
0.625
 43
3.75
 44
1.25
 45
0.0
 46
0.0
 47
0.0
 48
0.0
140
2.5
141
2.5
142
0.0
143
0.03937007874016
144
1.0
145
0.0
146
1.0
147
0.625
 71
     0
 72
     0
 73
     0
 74
     0
 75
     0
 76
     0
 77
     1
 78
     8
170
     0
171
     3
172
     1
173
     0
174
     0
175
     0
176
     0
177
     0
178
     0
  0
DIMSTYLE
  2
ISO-25
 70
     0
  3

  4

  5

  6

  7

 40
1.0
 41
2.5
 42
0.625
 43
3.75
 44
1.25
 45
0.0
 46
0.0
 47
0.0
 48
0.0
140
2.5
141
2.5
142
0.0
143
0.03937007874016
144
1.0
145
0.0
146
1.0
147
0.625
 71
     0
 72
     0
 73
     0
 74
     0
 75
     0
 76
     0
 77
     1
 78
     8
170
     0
171
     3
172
     1
173
     0
174
     0
175
     0
176
     0
177
     0
178
     0
  0
ENDTAB
  0
ENDSEC
  0
SECTION
  2
BLOCKS
  0
BLOCK
  8
0
  2
$MODEL_SPACE
 70
     0
 10
0.0
 20
0.0
 30
0.0
  3
$MODEL_SPACE
  1

  0
ENDBLK
  5
76C
  8
0
  0
BLOCK
 67
     1
  8
0
  2
$PAPER_SPACE
 70
     0
 10
0.0
 20
0.0
 30
0.0
  3
$PAPER_SPACE
  1

  0
ENDBLK
  5
768
 67
     1
  8
0
  0
ENDSEC
  0
SECTION
  2
ENTITIES
  0
POLYLINE
  5
20C
  8
0
 62
     1
 66
     1
 10
0.0
 20
0.0
 30
0.0
 70
     1
  0
VERTEX
  5
788
  8
0
 62
     1
 10
2502.2344705143478
 20
803.50769566134829
 30
0.0
 42
0.3232408552095817
  0
VERTEX
  5
789
  8
0
 62
     1
 10
2509.9383229666282
 20
808.78615568688826
 30
0.0
  0
VERTEX
  5
78A
  8
0
 62
     1
 10
2498.205394002784
 20
808.78615568688826
 30
0.0
  0
VERTEX
  5
78B
  8
0
 62
     1
 10
2498.205394002784
 20
762.48729017711594
 30
0.0
  0
VERTEX
  5
78C
  8
0
 62
     1
 10
2508.879455036426
 20
762.48729017711594
 30
0.0
  0
VERTEX
  5
78D
  8
0
 62
     1
 10
2508.879455036426
 20
796.96035710291471
 30
0.0
  0
VERTEX
  5
78E
  8
0
 62
     1
 10
2502.2344705143478
 20
796.96035710291471
 30
0.0
  0
SEQEND
  5
78F
  8
0
 62
     1
  0
POLYLINE
  5
20D
  8
0
 62
     1
 66
     1
 10
0.0
 20
0.0
 30
0.0
 70
     1
  0
VERTEX
  5
790
  8
0
 62
     1
 10
2518.8771851889319
 20
762.69677278742893
 30
0.0
  0
VERTEX
  5
791
  8
0
 62
     1
 10
2519.413005976472
 20
808.92749776809057
 30
0.0
  0
VERTEX
  5
792
  8
0
 62
     1
 10
2531.0726545565999
 20
808.92749776809057
 30
0.0
  0
VERTEX
  5
793
  8
0
 62
     1
 10
2531.0726545565999
 20
807.5687470062112
 30
0.0
 42
0.2361211593278448
  0
VERTEX
  5
794
  8
0
 62
     1
 10
2527.1861050298321
 20
801.74571994322457
 30
0.0
  0
VERTEX
  5
795
  8
0
 62
     1
 10
2527.1861050298321
 20
791.78216995006358
 30
0.0
  0
VERTEX
  5
796
  8
0
 62
     1
 10
2537.7452032597498
 20
791.78216995006358
 30
0.0
  0
VERTEX
  5
797
  8
0
 62
     1
 10
2537.7452032597498
 20
799.93414115511405
 30
0.0
 42
-0.84612284461555
  0
VERTEX
  5
798
  8
0
 62
     1
 10
2542.7329754338139
 20
799.67545847810095
 30
0.0
 42
-0.1891765392953807
  0
VERTEX
  5
799
  8
0
 62
     1
 10
2540.5271686534402
 20
789.71858640207211
 30
0.0
 42
0.1666481079440372
  0
VERTEX
  5
79A
  8
0
 62
     1
 10
2527.1202199141849
 20
768.59433481840824
 30
0.0
  0
VERTEX
  5
79B
  8
0
 62
     1
 10
2526.1818891053558
 20
762.69677278742893
 30
0.0
  0
SEQEND
  5
79C
  8
0
 62
     1
  0
POLYLINE
  5
20E
  8
0
 62
     1
 66
     1
 10
0.0
 20
0.0
 30
0.0
  0
VERTEX
  5
79D
  8
0
 62
     1
 10
2549.515108563995
 20
808.7120177650213
 30
0.0
  0
VERTEX
  5
79E
  8
0
 62
     1
 10
2558.6092714160909
 20
808.7120177650213
 30
0.0
  0
VERTEX
  5
79F
  8
0
 62
     1
 10
2558.6092714160909
 20
762.28674443167984
 30
0.0
  0
VERTEX
  5
7A0
  8
0
 62
     1
 10
2553.2866952869231
 20
762.28674443167984
 30
0.0
  0
VERTEX
  5
7A1
  8
0
 62
     1
 10
2553.2866952869231
 20
770.33337578370993
 30
0.0
  0
VERTEX
  5
7A2
  8
0
 62
     1
 10
2539.9207566705882
 20
770.33337578370993
 30
0.0
  0
VERTEX
  5
7A3
  8
0
 62
     1
 10
2539.9207566705882
 20
772.22335942444624
 30
0.0
 42
-0.055310490167283
  0
VERTEX
  5
7A4
  8
0
 62
     1
 10
2551.150807404716
 20
786.36610140772245
 30
0.0
 42
0.3287061115595282
  0
VERTEX
  5
7A5
  8
0
 62
     1
 10
2549.2307268913719
 20
807.42233794469212
 30
0.0
  0
VERTEX
  5
7A6
  8
0
 62
     1
 10
2549.2307268913719
 20
808.7120177650213
 30
0.0
  0
SEQEND
  5
7A7
  8
0
 62
     1
  0
POLYLINE
  5
20F
  8
0
 62
     1
 66
     1
 10
0.0
 20
0.0
 30
0.0
 70
     1
  0
VERTEX
  5
7A8
  8
0
 62
     1
 10
2447.2073854695768
 20
779.41705673733668
 30
0.0
  0
VERTEX
  5
7A9
  8
0
 62
     1
 10
2437.6022768224939
 20
779.41705673733668
 30
0.0
  0
VERTEX
  5
7AA
  8
0
 62
     1
 10
2437.6022768224939
 20
742.20248680228531
 30
0.0
  0
VERTEX
  5
7AB
  8
0
 62
     1
 10
2446.1518790248078
 20
742.20248680228531
 30
0.0
  0
VERTEX
  5
7AC
  8
0
 62
     1
 10
2446.1518790248078
 20
769.08548396670085
 30
0.0
  0
VERTEX
  5
7AD
  8
0
 62
     1
 10
2440.8743468012549
 20
769.08548396670085
 30
0.0
  0
VERTEX
  5
7AE
  8
0
 62
     1
 10
2440.8743468012549
 20
774.88370949466469
 30
0.0
  0
VERTEX
  5
7AF
  8
0
 62
     1
 10
2443.9353154909331
 20
774.88370949466469
 30
0.0
  0
VERTEX
  5
7B0
  8
0
 62
     1
 10
2447.2073854695768
 20
777.41399943162105
 30
0.0
  0
SEQEND
  5
7B1
  8
0
 62
     1
  0
POLYLINE
  5
210
  8
0
 62
     1
 66
     1
 10
0.0
 20
0.0
 30
0.0
 70
     1
  0
VERTEX
  5
7B2
  8
0
 62
     1
 10
2455.3939472384518
 20
742.20248680228531
 30
0.0
  0
VERTEX
  5
7B3
  8
0
 62
     1
 10
2458.318439617346
 20
742.20248680228531
 30
0.0
  0
VERTEX
  5
7B4
  8
0
 62
     1
 10
2458.318439617346
 20
779.41705673733668
 30
0.0
  0
VERTEX
  5
7B5
  8
0
 62
     1
 10
2455.3939472384518
 20
779.41705673733668
 30
0.0
  0
SEQEND
  5
7B6
  8
0
 62
     1
  0
POLYLINE
  5
211
  8
0
 62
     1
 66
     1
 10
0.0
 20
0.0
 30
0.0
 70
     1
  0
VERTEX
  5
7B7
  8
0
 62
     1
 10
2430.2769276367621
 20
779.41705673733668
 30
0.0
  0
VERTEX
  5
7B8
  8
0
 62
     1
 10
2421.377730943263
 20
779.41705673733668
 30
0.0
  0
VERTEX
  5
7B9
  8
0
 62
     1
 10
2421.2822647552821
 20
742.20248680228531
 30
0.0
  0
VERTEX
  5
7BA
  8
0
 62
     1
 10
2429.2214211921669
 20
742.20248680228531
 30
0.0
  0
VERTEX
  5
7BB
  8
0
 62
     1
 10
2429.2214211921669
 20
769.08548396670085
 30
0.0
  0
VERTEX
  5
7BC
  8
0
 62
     1
 10
2423.943888968497
 20
769.08548396670085
 30
0.0
  0
VERTEX
  5
7BD
  8
0
 62
     1
 10
2423.943888968497
 20
774.88370949466469
 30
0.0
  0
VERTEX
  5
7BE
  8
0
 62
     1
 10
2427.0048576582922
 20
774.88370949466469
 30
0.0
  0
VERTEX
  5
7BF
  8
0
 62
     1
 10
2430.2769276367621
 20
777.41399943162105
 30
0.0
  0
SEQEND
  5
7C0
  8
0
 62
     1
  0
POLYLINE
  5
212
  8
0
 62
     1
 66
     1
 10
0.0
 20
0.0
 30
0.0
 70
     1
  0
VERTEX
  5
7C1
  8
0
 62
     1
 10
2365.6491182254981
 20
680.10139071043523
 30
0.0
  0
VERTEX
  5
7C2
  8
0
 62
     1
 10
2357.7099617886711
 20
680.10139071043523
 30
0.0
  0
VERTEX
  5
7C3
  8
0
 62
     1
 10
2357.8054279767089
 20
717.31596064545727
 30
0.0
  0
VERTEX
  5
7C4
  8
0
 62
     1
 10
2366.7046246702671
 20
717.31596064545727
 30
0.0
  0
VERTEX
  5
7C5
  8
0
 62
     1
 10
2366.7046246702671
 20
715.31290333975619
 30
0.0
  0
VERTEX
  5
7C6
  8
0
 62
     1
 10
2363.432554691623
 20
712.78261340277095
 30
0.0
  0
VERTEX
  5
7C7
  8
0
 62
     1
 10
2360.3715860019438
 20
712.78261340277095
 30
0.0
  0
VERTEX
  5
7C8
  8
0
 62
     1
 10
2360.3715860019438
 20
706.984387874807
 30
0.0
  0
VERTEX
  5
7C9
  8
0
 62
     1
 10
2365.6491182254981
 20
706.984387874807
 30
0.0
  0
SEQEND
  5
7CA
  8
0
 62
     1
  0
POLYLINE
  5
213
  8
0
 62
     1
 66
     1
 10
0.0
 20
0.0
 30
0.0
 70
     1
  0
VERTEX
  5
7CB
  8
0
 62
     1
 10
2607.1561512633339
 20
769.26019967258605
 30
0.0
  0
VERTEX
  5
7CC
  8
0
 62
     1
 10
2612.4336834869459
 20
769.26019967258605
 30
0.0
  0
VERTEX
  5
7CD
  8
0
 62
     1
 10
2612.4336834869459
 20
742.37720250819984
 30
0.0
  0
VERTEX
  5
7CE
  8
0
 62
     1
 10
2596.3345850296901
 20
742.39813513113756
 30
0.0
  0
VERTEX
  5
7CF
  8
0
 62
     1
 10
2596.465282802179
 20
779.59177244323655
 30
0.0
  0
VERTEX
  5
7D0
  8
0
 62
     1
 10
2613.4891899318318
 20
779.59177244323655
 30
0.0
  0
VERTEX
  5
7D1
  8
0
 62
     1
 10
2613.4891899318318
 20
777.58871513753536
 30
0.0
  0
VERTEX
  5
7D2
  8
0
 62
     1
 10
2610.217119953013
 20
775.05842520056456
 30
0.0
  0
VERTEX
  5
7D3
  8
0
 62
     1
 10
2607.1561512633339
 20
775.05842520056456
 30
0.0
  0
SEQEND
  5
7D4
  8
0
 62
     1
  0
POLYLINE
  5
214
  8
0
 62
     1
 66
     1
 10
0.0
 20
0.0
 30
0.0
 70
     1
  0
VERTEX
  5
7D5
  8
0
 62
     1
 10
2632.374015429988
 20
742.37720250819984
 30
0.0
  0
VERTEX
  5
7D6
  8
0
 62
     1
 10
2620.5926810749811
 20
742.37720250819984
 30
0.0
  0
VERTEX
  5
7D7
  8
0
 62
     1
 10
2620.6881472628452
 20
779.59177244323655
 30
0.0
  0
VERTEX
  5
7D8
  8
0
 62
     1
 10
2632.3175424736701
 20
779.59177244323655
 30
0.0
  0
SEQEND
  5
7D9
  8
0
 62
     1
  0
POLYLINE
  5
215
  8
0
 62
     1
 66
     1
 10
0.0
 20
0.0
 30
0.0
 70
     1
  0
VERTEX
  5
7DA
  8
0
 62
     1
 10
2381.6161743160342
 20
708.23486526880879
 30
0.0
 42
-1.158635511761229
  0
VERTEX
  5
7DB
  8
0
 62
     1
 10
2385.1336327355239
 20
708.23486526880879
 30
0.0
  0
VERTEX
  5
7DC
  8
0
 62
     1
 10
2385.203551633866
 20
687.99681270385906
 30
0.0
 42
-1.0111044548454511
  0
VERTEX
  5
7DD
  8
0
 62
     1
 10
2381.686093214259
 20
687.99681270385906
 30
0.0
  0
SEQEND
  5
7DE
  8
0
 62
     1
  0
POLYLINE
  5
216
  8
0
 62
     1
 66
     1
 10
0.0
 20
0.0
 30
0.0
 70
     1
  0
VERTEX
  5
7DF
  8
0
 62
     1
 10
2371.992913647322
 20
717.5983781247196
 30
0.0
  0
VERTEX
  5
7E0
  8
0
 62
     1
 10
2378.4617563295178
 20
717.5983781247196
 30
0.0
  0
VERTEX
  5
7E1
  8
0
 62
     1
 10
2378.4617563296929
 20
716.08201760811789
 30
0.0
 42
0.2475867352066094
  0
VERTEX
  5
7E2
  8
0
 62
     1
 10
2374.5557101870072
 20
708.23486526880879
 30
0.0
  0
VERTEX
  5
7E3
  8
0
 62
     1
 10
2374.6256290852912
 20
687.99681270385906
 30
0.0
 42
0.2324897919773569
  0
VERTEX
  5
7E4
  8
0
 62
     1
 10
2378.6547055969131
 20
681.3308001338155
 30
0.0
  0
VERTEX
  5
7E5
  8
0
 62
     1
 10
2378.6547055969131
 20
679.60055971320253
 30
0.0
  0
VERTEX
  5
7E6
  8
0
 62
     1
 10
2371.992913647322
 20
679.60055971320253
 30
0.0
  0
SEQEND
  5
7E7
  8
0
 62
     1
  0
POLYLINE
  5
217
  8
0
 62
     1
 66
     1
 10
0.0
 20
0.0
 30
0.0
  0
VERTEX
  5
7E8
  8
0
 62
     1
 10
2392.5769638963402
 20
708.29712551843841
 30
0.0
  0
VERTEX
  5
7E9
  8
0
 62
     1
 10
2392.6468827945059
 20
688.05907295347424
 30
0.0
 42
-0.18232194120445
  0
VERTEX
  5
7EA
  8
0
 62
     1
 10
2388.8016857053149
 20
681.88710123083717
 30
0.0
  0
VERTEX
  5
7EB
  8
0
 62
     1
 10
2388.8016857053149
 20
679.60055971320253
 30
0.0
  0
VERTEX
  5
7EC
  8
0
 62
     1
 10
2395.2369135324839
 20
679.60055971320253
 30
0.0
  0
VERTEX
  5
7ED
  8
0
 62
     1
 10
2395.2369135324839
 20
717.5983781247196
 30
0.0
  0
VERTEX
  5
7EE
  8
0
 62
     1
 10
2389.4255774127091
 20
717.5983781247196
 30
0.0
  0
VERTEX
  5
7EF
  8
0
 62
     1
 10
2389.4255774127091
 20
715.83026869368041
 30
0.0
 42
-0.2015872688109629
  0
VERTEX
  5
7F0
  8
0
 62
     1
 10
2392.577048167645
 20
708.27273315264017
 30
0.0
  0
SEQEND
  5
7F1
  8
0
 62
     1
  0
POLYLINE
  5
218
  8
0
 62
     1
 66
     1
 10
0.0
 20
0.0
 30
0.0
  0
VERTEX
  5
7F2
  8
0
 62
     1
 10
2352.4695861810469
 20
606.99726868480502
 30
0.0
 42
0.1310282586961576
  0
VERTEX
  5
7F3
  8
0
 62
     1
 10
2358.3372485910659
 20
608.23871237991261
 30
0.0
  0
VERTEX
  5
7F4
  8
0
 62
     1
 10
2358.6614189877291
 20
600.45709373822319
 30
0.0
 42
-0.8681114137223928
  0
VERTEX
  5
7F5
  8
0
 62
     1
 10
2354.4569111383762
 20
600.185855072923
 30
0.0
  0
VERTEX
  5
7F6
  8
0
 62
     1
 10
2354.4569111383762
 20
604.28626908779552
 30
0.0
  0
VERTEX
  5
7F7
  8
0
 62
     1
 10
2342.6358409622921
 20
604.28626908779552
 30
0.0
  0
VERTEX
  5
7F8
  8
0
 62
     1
 10
2342.6358409622921
 20
600.06953112037445
 30
0.0
 42
0.3234308759071723
  0
VERTEX
  5
7F9
  8
0
 62
     1
 10
2346.9113121347041
 20
593.10218884432095
 30
0.0
  0
VERTEX
  5
7FA
  8
0
 62
     1
 10
2346.9113121347041
 20
591.87411283672554
 30
0.0
  0
VERTEX
  5
7FB
  8
0
 62
     1
 10
2330.4649082130641
 20
591.87411283672554
 30
0.0
  0
VERTEX
  5
7FC
  8
0
 62
     1
 10
2330.4649082130641
 20
635.72135994526604
 30
0.0
  0
VERTEX
  5
7FD
  8
0
 62
     1
 10
2345.4315862209191
 20
635.72135994526604
 30
0.0
  0
VERTEX
  5
7FE
  8
0
 62
     1
 10
2345.4315862209191
 20
633.91004784037068
 30
0.0
 42
0.2708606157230905
  0
VERTEX
  5
7FF
  8
0
 62
     1
 10
2342.5723066606438
 20
628.19769429374719
 30
0.0
  0
VERTEX
  5
800
  8
0
 62
     1
 10
2342.5723066606438
 20
613.67824788946018
 30
0.0
 42
0.361581780983664
  0
VERTEX
  5
801
  8
0
 62
     1
 10
2352.4696113868849
 20
606.99727121734747
 30
0.0
  0
SEQEND
  5
802
  8
0
 62
     1
  0
POLYLINE
  5
219
  8
0
 62
     1
 66
     1
 10
0.0
 20
0.0
 30
0.0
 70
     1
  0
VERTEX
  5
803
  8
0
 62
     1
 10
2366.7064279044862
 20
636.34619861756789
 30
0.0
  0
VERTEX
  5
804
  8
0
 62
     1
 10
2389.5033502191659
 20
636.34619861756789
 30
0.0
  0
VERTEX
  5
805
  8
0
 62
     1
 10
2389.5033502191659
 20
591.87411283672554
 30
0.0
  0
VERTEX
  5
806
  8
0
 62
     1
 10
2365.4001546419458
 20
591.87411283672554
 30
0.0
  0
VERTEX
  5
807
  8
0
 62
     1
 10
2365.4001546419458
 20
593.10218884432095
 30
0.0
 42
0.1456795175426945
  0
VERTEX
  5
808
  8
0
 62
     1
 10
2369.1119069231208
 20
599.45244853850454
 30
0.0
  0
VERTEX
  5
809
  8
0
 62
     1
 10
2369.1119069231208
 20
628.79976356847328
 30
0.0
 42
0.1662176153711597
  0
VERTEX
  5
80A
  8
0
 62
     1
 10
2365.9341366887088
 20
634.79747619843693
 30
0.0
  0
VERTEX
  5
80B
  8
0
 62
     1
 10
2365.9341366887088
 20
636.39391535357572
 30
0.0
  0
SEQEND
  5
80C
  8
0
 62
     1
  0
POLYLINE
  5
21A
  8
0
 62
     1
 66
     1
 10
0.0
 20
0.0
 30
0.0
 70
     1
  0
VERTEX
  5
80D
  8
0
 62
     1
 10
2353.6895836584149
 20
626.93090423039393
 30
0.0
 42
-0.9893327179720278
  0
VERTEX
  5
80E
  8
0
 62
     1
 10
2358.4807897079158
 20
626.93090423039393
 30
0.0
  0
VERTEX
  5
80F
  8
0
 62
     1
 10
2358.4807897079158
 20
616.93931225614506
 30
0.0
 42
-0.9673803495416619
  0
VERTEX
  5
810
  8
0
 62
     1
 10
2353.6895836584149
 20
616.93931225614506
 30
0.0
  0
SEQEND
  5
811
  8
0
 62
     1
  0
POLYLINE
  5
21B
  8
0
 62
     1
 66
     1
 10
0.0
 20
0.0
 30
0.0
 70
     1
  0
VERTEX
  5
812
  8
0
 62
     1
 10
2432.7870095352991
 20
481.58401915554708
 30
0.0
  0
VERTEX
  5
813
  8
0
 62
     1
 10
2442.8948721685451
 20
481.6395824142964
 30
0.0
  0
VERTEX
  5
814
  8
0
 62
     1
 10
2442.8948721685451
 20
479.53879762734857
 30
0.0
 42
0.0945214128558623
  0
VERTEX
  5
815
  8
0
 62
     1
 10
2433.1340735447588
 20
451.18452502680879
 30
0.0
  0
VERTEX
  5
816
  8
0
 62
     1
 10
2424.0790516951238
 20
451.18452502680879
 30
0.0
  0
VERTEX
  5
817
  8
0
 62
     1
 10
2424.0790516951238
 20
486.7347509694082
 30
0.0
  0
VERTEX
  5
818
  8
0
 62
     1
 10
2432.8896575174299
 20
486.55273389755172
 30
0.0
  0
SEQEND
  5
819
  8
0
 62
     1
  0
POLYLINE
  5
21C
  8
0
 62
     1
 66
     1
 10
0.0
 20
0.0
 30
0.0
  0
VERTEX
  5
81A
  8
0
 62
     1
 10
2452.0848703396041
 20
486.6032763775292
 30
0.0
  0
VERTEX
  5
81B
  8
0
 62
     1
 10
2452.0848703396041
 20
483.16470051508799
 30
0.0
 42
-0.1340134715384176
  0
VERTEX
  5
81C
  8
0
 62
     1
 10
2448.8908561774879
 20
474.31438620957482
 30
0.0
 42
0.0681822868083595
  0
VERTEX
  5
81D
  8
0
 62
     1
 10
2442.594060683623
 20
457.65318031233608
 30
0.0
  0
VERTEX
  5
81E
  8
0
 62
     1
 10
2442.594060683623
 20
451.8912497725396
 30
0.0
  0
VERTEX
  5
81F
  8
0
 62
     1
 10
2460.4775380899659
 20
451.8912497725396
 30
0.0
  0
VERTEX
  5
820
  8
0
 62
     1
 10
2460.4775380899659
 20
486.57807009214588
 30
0.0
  0
VERTEX
  5
821
  8
0
 62
     1
 10
2452.0848703396041
 20
486.57807009214588
 30
0.0
  0
SEQEND
  5
822
  8
0
 62
     1
  0
POLYLINE
  5
21D
  8
0
 62
     1
 66
     1
 10
0.0
 20
0.0
 30
0.0
 70
     1
  0
VERTEX
  5
823
  8
0
 62
     1
 10
2531.5570297056702
 20
447.95651666319458
 30
0.0
  0
VERTEX
  5
824
  8
0
 62
     1
 10
2534.388853186334
 20
445.92615265827038
 30
0.0
  0
VERTEX
  5
825
  8
0
 62
     1
 10
2535.0300207668329
 20
445.1246931826463
 30
0.0
  0
VERTEX
  5
826
  8
0
 62
     1
 10
2536.4726478229859
 20
442.07914717521629
 30
0.0
  0
VERTEX
  5
827
  8
0
 62
     1
 10
2536.9535235083308
 20
438.28557232393359
 30
0.0
  0
VERTEX
  5
828
  8
0
 62
     1
 10
2536.9000928766909
 20
436.62922274089942
 30
0.0
  0
VERTEX
  5
829
  8
0
 62
     1
 10
2536.0452027692231
 20
433.10280104815308
 30
0.0
  0
VERTEX
  5
82A
  8
0
 62
     1
 10
2534.3354225548101
 20
430.27097756756109
 30
0.0
  0
VERTEX
  5
82B
  8
0
 62
     1
 10
2534.2819919230528
 20
430.27097756756109
 30
0.0
  0
VERTEX
  5
82C
  8
0
 62
     1
 10
2531.4501684423881
 20
428.08032166746841
 30
0.0
  0
VERTEX
  5
82D
  8
0
 62
     1
 10
2528.084038644738
 20
427.38572345525603
 30
0.0
  0
VERTEX
  5
82E
  8
0
 62
     1
 10
2526.6948422202258
 20
427.49258471871138
 30
0.0
  0
VERTEX
  5
82F
  8
0
 62
     1
 10
2523.3287124226922
 20
428.77491987971001
 30
0.0
  0
VERTEX
  5
830
  8
0
 62
     1
 10
2521.93951599818
 20
429.89696314558392
 30
0.0
  0
VERTEX
  5
831
  8
0
 62
     1
 10
2519.8557213615281
 20
432.88907852130058
 30
0.0
  0
VERTEX
  5
832
  8
0
 62
     1
 10
2519.0542618859331
 20
435.02630378968018
 30
0.0
  0
VERTEX
  5
833
  8
0
 62
     1
 10
2518.5733862004708
 20
438.60615611415409
 30
0.0
  0
VERTEX
  5
834
  8
0
 62
     1
 10
2518.6268168322858
 20
439.62133811661619
 30
0.0
  0
VERTEX
  5
835
  8
0
 62
     1
 10
2519.4282763078809
 20
443.09432917767839
 30
0.0
  0
VERTEX
  5
836
  8
0
 62
     1
 10
2521.2983484176798
 20
445.92615265827038
 30
0.0
  0
VERTEX
  5
837
  8
0
 62
     1
 10
2521.458640312776
 20
446.13987518512289
 30
0.0
  0
VERTEX
  5
838
  8
0
 62
     1
 10
2524.397325056721
 20
448.06337792663538
 30
0.0
  0
VERTEX
  5
839
  8
0
 62
     1
 10
2527.8703161178269
 20
448.7045455071347
 30
0.0
  0
VERTEX
  5
83A
  8
0
 62
     1
 10
2528.084038644738
 20
448.7045455071347
 30
0.0
  0
SEQEND
  5
83B
  8
0
 62
     1
  0
POLYLINE
  5
21E
  8
0
 62
     1
 66
     1
 10
0.0
 20
0.0
 30
0.0
 70
     1
  0
VERTEX
  5
83C
  8
0
 62
     1
 10
2512.0014185003238
 20
444.69724812898488
 30
0.0
  0
VERTEX
  5
83D
  8
0
 62
     1
 10
2512.2151410271181
 20
440.31593632882868
 30
0.0
  0
VERTEX
  5
83E
  8
0
 62
     1
 10
2512.7494473442198
 20
436.41550021407602
 30
0.0
  0
VERTEX
  5
83F
  8
0
 62
     1
 10
2513.6577680832711
 20
433.10280104815308
 30
0.0
  0
VERTEX
  5
840
  8
0
 62
     1
 10
2514.8866726126289
 20
430.27097756756109
 30
0.0
  0
VERTEX
  5
841
  8
0
 62
     1
 10
2516.4895915639358
 20
427.9200297723583
 30
0.0
  0
VERTEX
  5
842
  8
0
 62
     1
 10
2518.4665249370159
 20
425.9965270308457
 30
0.0
  0
VERTEX
  5
843
  8
0
 62
     1
 10
2518.4665249370159
 20
423.78503315488342
 30
0.0
  0
VERTEX
  5
844
  8
0
 62
     1
 10
2496.8732606351259
 20
423.78503315488342
 30
0.0
  0
VERTEX
  5
845
  8
0
 62
     1
 10
2496.8732606351259
 20
468.58990078743949
 30
0.0
  0
VERTEX
  5
846
  8
0
 62
     1
 10
2519.8323372557638
 20
468.58990078743949
 30
0.0
  0
VERTEX
  5
847
  8
0
 62
     1
 10
2519.4817069396381
 20
467.4586972369288
 30
0.0
  0
VERTEX
  5
848
  8
0
 62
     1
 10
2516.970467249339
 20
465.05431881005637
 30
0.0
  0
VERTEX
  5
849
  8
0
 62
     1
 10
2515.6881320882821
 20
463.23767733192648
 30
0.0
  0
VERTEX
  5
84A
  8
0
 62
     1
 10
2514.3523662955272
 20
460.51271511476068
 30
0.0
  0
VERTEX
  5
84B
  8
0
 62
     1
 10
2513.3371842930792
 20
457.36030784391909
 30
0.0
  0
VERTEX
  5
84C
  8
0
 62
     1
 10
2512.5891554492409
 20
453.78045551944518
 30
0.0
  0
VERTEX
  5
84D
  8
0
 62
     1
 10
2512.1082797637209
 20
449.77315814129543
 30
0.0
  0
VERTEX
  5
84E
  8
0
 62
     1
 10
2512.0014185003238
 20
445.3384157094697
 30
0.0
  0
SEQEND
  5
84F
  8
0
 62
     1
  0
POLYLINE
  5
21F
  8
0
 62
     1
 66
     1
 10
0.0
 20
0.0
 30
0.0
 70
     1
  0
VERTEX
  5
850
  8
0
 62
     1
 10
2538.9304568816442
 20
427.38572345525603
 30
0.0
  0
VERTEX
  5
851
  8
0
 62
     1
 10
2540.9608208865388
 20
430.43126946267142
 30
0.0
  0
VERTEX
  5
852
  8
0
 62
     1
 10
2541.4416965718851
 20
431.55331272861798
 30
0.0
  0
VERTEX
  5
853
  8
0
 62
     1
 10
2542.4568785745068
 20
434.97287315795251
 30
0.0
  0
VERTEX
  5
854
  8
0
 62
     1
 10
2542.8308929963969
 20
438.60615611415409
 30
0.0
  0
VERTEX
  5
855
  8
0
 62
     1
 10
2542.7774623646401
 20
440.04878317026299
 30
0.0
  0
VERTEX
  5
856
  8
0
 62
     1
 10
2542.1362947841408
 20
443.62863549478061
 30
0.0
  0
VERTEX
  5
857
  8
0
 62
     1
 10
2540.8539596230839
 20
446.83447339730623
 30
0.0
  0
VERTEX
  5
858
  8
0
 62
     1
 10
2538.8235956182471
 20
449.55943561447202
 30
0.0
  0
VERTEX
  5
859
  8
0
 62
     1
 10
2538.556442459696
 20
449.8265887730085
 30
0.0
  0
VERTEX
  5
85A
  8
0
 62
     1
 10
2535.7246189791481
 20
452.01724467308668
 30
0.0
  0
VERTEX
  5
85B
  8
0
 62
     1
 10
2532.5722117082919
 20
453.35301046578383
 30
0.0
  0
VERTEX
  5
85C
  8
0
 62
     1
 10
2529.045790015487
 20
453.78045551944518
 30
0.0
  0
VERTEX
  5
85D
  8
0
 62
     1
 10
2526.1605359032992
 20
453.45987172921008
 30
0.0
  0
VERTEX
  5
85E
  8
0
 62
     1
 10
2522.7409754737168
 20
452.23096719989547
 30
0.0
  0
VERTEX
  5
85F
  8
0
 62
     1
 10
2520.0694438883802
 20
450.36089509012521
 30
0.0
  0
VERTEX
  5
860
  8
0
 62
     1
 10
2517.6650654614791
 20
447.52907160951861
 30
0.0
  0
VERTEX
  5
861
  8
0
 62
     1
 10
2517.6650654614791
 20
447.6893635046435
 30
0.0
  0
VERTEX
  5
862
  8
0
 62
     1
 10
2517.8787879883898
 20
451.9638140413881
 30
0.0
  0
VERTEX
  5
863
  8
0
 62
     1
 10
2518.4665249370159
 20
455.49023573417799
 30
0.0
  0
VERTEX
  5
864
  8
0
 62
     1
 10
2519.3214150444842
 20
458.37548984643939
 30
0.0
  0
VERTEX
  5
865
  8
0
 62
     1
 10
2519.3214150444842
 20
458.42892047818168
 30
0.0
  0
VERTEX
  5
866
  8
0
 62
     1
 10
2521.1914871543422
 20
461.74161964408989
 30
0.0
  0
VERTEX
  5
867
  8
0
 62
     1
 10
2523.5958655811269
 20
464.14599807096232
 30
0.0
  0
VERTEX
  5
868
  8
0
 62
     1
 10
2524.8782007421828
 20
464.94745754664473
 30
0.0
  0
VERTEX
  5
869
  8
0
 62
     1
 10
2528.4046224348722
 20
465.6420557588425
 30
0.0
  0
VERTEX
  5
86A
  8
0
 62
     1
 10
2531.236445915536
 20
465.16118007348263
 30
0.0
  0
VERTEX
  5
86B
  8
0
 62
     1
 10
2534.1217000278411
 20
463.18424670021341
 30
0.0
  0
VERTEX
  5
86C
  8
0
 62
     1
 10
2534.9765901351352
 20
461.9553421709424
 30
0.0
  0
VERTEX
  5
86D
  8
0
 62
     1
 10
2536.3123559278902
 20
458.32205921475531
 30
0.0
  0
VERTEX
  5
86E
  8
0
 62
     1
 10
2541.976002889045
 20
458.74950426837307
 30
0.0
  0
VERTEX
  5
86F
  8
0
 62
     1
 10
2541.388265940303
 20
461.47446648553881
 30
0.0
  0
VERTEX
  5
870
  8
0
 62
     1
 10
2539.9990695157899
 20
464.73373501979222
 30
0.0
  0
VERTEX
  5
871
  8
0
 62
     1
 10
2537.8084136157408
 20
467.29840534180403
 30
0.0
  0
VERTEX
  5
872
  8
0
 62
     1
 10
2535.7246189791481
 20
468.74103239797108
 30
0.0
  0
VERTEX
  5
873
  8
0
 62
     1
 10
2555.829469957273
 20
468.74103239797108
 30
0.0
  0
VERTEX
  5
874
  8
0
 62
     1
 10
2555.829469957273
 20
423.84301345465059
 30
0.0
  0
VERTEX
  5
875
  8
0
 62
     1
 10
2535.7753807786498
 20
423.84301345465059
 30
0.0
  0
VERTEX
  5
876
  8
0
 62
     1
 10
2535.7246189791481
 20
424.66076123811939
 30
0.0
  0
VERTEX
  5
877
  8
0
 62
     1
 10
2536.3123559278902
 20
425.03477566011128
 30
0.0
  0
SEQEND
  5
878
  8
0
 62
     1
  0
POLYLINE
  5
220
  8
0
 62
     1
 66
     1
 10
0.0
 20
0.0
 30
0.0
 70
     1
  0
VERTEX
  5
879
  8
0
 62
     1
 10
2617.1476641157642
 20
470.05941580618668
 30
0.0
  0
VERTEX
  5
87A
  8
0
 62
     1
 10
2617.7211988941999
 20
469.36298071806959
 30
0.0
  0
VERTEX
  5
87B
  8
0
 62
     1
 10
2618.868268451246
 20
467.02787483429711
 30
0.0
  0
VERTEX
  5
87C
  8
0
 62
     1
 10
2619.236969380232
 20
464.11923417198699
 30
0.0
  0
VERTEX
  5
87D
  8
0
 62
     1
 10
2619.1550358404638
 20
462.56249691611441
 30
0.0
  0
VERTEX
  5
87E
  8
0
 62
     1
 10
2618.4176339823748
 20
459.89965687322541
 30
0.0
  0
VERTEX
  5
87F
  8
0
 62
     1
 10
2617.0247638061992
 20
457.76938483887352
 30
0.0
  0
VERTEX
  5
880
  8
0
 62
     1
 10
2616.5741293373871
 20
457.27778360016231
 30
0.0
  0
VERTEX
  5
881
  8
0
 62
     1
 10
2614.320956993266
 20
455.84394665398582
 30
0.0
  0
VERTEX
  5
882
  8
0
 62
     1
 10
2611.6581169503038
 20
455.39331218517322
 30
0.0
  0
VERTEX
  5
883
  8
0
 62
     1
 10
2609.4459113763301
 20
455.72104634431889
 30
0.0
  0
VERTEX
  5
884
  8
0
 62
     1
 10
2607.1517722623539
 20
457.07294975071272
 30
0.0
  0
VERTEX
  5
885
  8
0
 62
     1
 10
2607.0288719526152
 20
457.2368168302491
 30
0.0
  0
VERTEX
  5
886
  8
0
 62
     1
 10
2605.595035006525
 20
459.28515532481828
 30
0.0
  0
VERTEX
  5
887
  8
0
 62
     1
 10
2604.7756996087269
 20
462.15282921722968
 30
0.0
  0
VERTEX
  5
888
  8
0
 62
     1
 10
2600.1464546108618
 20
461.74316151830129
 30
0.0
  0
VERTEX
  5
889
  8
0
 62
     1
 10
2600.1874213807168
 20
461.66122797853308
 30
0.0
  0
VERTEX
  5
88A
  8
0
 62
     1
 10
2600.760956159269
 20
458.87548762591899
 30
0.0
  0
VERTEX
  5
88B
  8
0
 62
     1
 10
2601.94899248617
 20
456.4994149722333
 30
0.0
  0
VERTEX
  5
88C
  8
0
 62
     1
 10
2603.7105635915068
 20
454.49204324754828
 30
0.0
  0
VERTEX
  5
88D
  8
0
 62
     1
 10
2603.997330980666
 20
454.24624262821447
 30
0.0
  0
VERTEX
  5
88E
  8
0
 62
     1
 10
2606.209536554758
 20
452.85337245190749
 30
0.0
  0
VERTEX
  5
88F
  8
0
 62
     1
 10
2606.209536554758
 20
451.70633938498207
 30
0.0
  0
VERTEX
  5
890
  8
0
 62
     1
 10
2592.6084225134109
 20
451.70633938499668
 30
0.0
  0
VERTEX
  5
891
  8
0
 62
     1
 10
2592.6084225134109
 20
452.25012156505539
 30
0.0
  0
VERTEX
  5
892
  8
0
 62
     1
 10
2592.6084225134109
 20
487.71609362930752
 30
0.0
  0
VERTEX
  5
893
  8
0
 62
     1
 10
2604.4069986796821
 20
487.71609362930752
 30
0.0
  0
VERTEX
  5
894
  8
0
 62
     1
 10
2600.9248232388059
 20
469.32201394814177
 30
0.0
  0
VERTEX
  5
895
  8
0
 62
     1
 10
2605.0624669978279
 20
468.78944593959022
 30
0.0
  0
VERTEX
  5
896
  8
0
 62
     1
 10
2605.6360017764391
 20
469.52684779763513
 30
0.0
  0
VERTEX
  5
897
  8
0
 62
     1
 10
2607.7662738107028
 20
471.28841890295729
 30
0.0
  0
VERTEX
  5
898
  8
0
 62
     1
 10
2608.8314098279229
 20
471.78002014162479
 30
0.0
  0
VERTEX
  5
899
  8
0
 62
     1
 10
2611.5761834106529
 20
472.23065461045178
 30
0.0
  0
VERTEX
  5
89A
  8
0
 62
     1
 10
2612.3545520384218
 20
472.23065461045178
 30
0.0
  0
VERTEX
  5
89B
  8
0
 62
     1
 10
2614.9764253116441
 20
471.5751862921897
 30
0.0
  0
SEQEND
  5
89C
  8
0
 62
     1
  0
POLYLINE
  5
221
  8
0
 62
     1
 66
     1
 10
0.0
 20
0.0
 30
0.0
 70
     1
  0
VERTEX
  5
89D
  8
0
 62
     1
 10
2621.080474025337
 20
456.08974727329041
 30
0.0
  0
VERTEX
  5
89E
  8
0
 62
     1
 10
2621.5720752640632
 20
456.78618236148031
 30
0.0
  0
VERTEX
  5
89F
  8
0
 62
     1
 10
2622.842045130616
 20
459.1212882452237
 30
0.0
  0
VERTEX
  5
8A0
  8
0
 62
     1
 10
2623.6204137585592
 20
461.70219474841718
 30
0.0
  0
VERTEX
  5
8A1
  8
0
 62
     1
 10
2623.9071811478352
 20
464.52890187092987
 30
0.0
  0
VERTEX
  5
8A2
  8
0
 62
     1
 10
2623.866214377922
 20
465.63500465794641
 30
0.0
  0
VERTEX
  5
8A3
  8
0
 62
     1
 10
2623.3746131393132
 20
468.37977824066178
 30
0.0
  0
VERTEX
  5
8A4
  8
0
 62
     1
 10
2622.3094771221522
 20
470.7968176642753
 30
0.0
  0
VERTEX
  5
8A5
  8
0
 62
     1
 10
2620.6708063264959
 20
472.88612292869942
 30
0.0
  0
VERTEX
  5
8A6
  8
0
 62
     1
 10
2620.2201718577421
 20
473.33675739749742
 30
0.0
  0
VERTEX
  5
8A7
  8
0
 62
     1
 10
2618.0079662835342
 20
474.89349465339899
 30
0.0
  0
VERTEX
  5
8A8
  8
0
 62
     1
 10
2615.508993320168
 20
475.83573036084999
 30
0.0
  0
VERTEX
  5
8A9
  8
0
 62
     1
 10
2612.7642197374371
 20
476.12249775006779
 30
0.0
  0
VERTEX
  5
8AA
  8
0
 62
     1
 10
2611.0845821719849
 20
475.99959744040092
 30
0.0
  0
VERTEX
  5
8AB
  8
0
 62
     1
 10
2608.5036756687909
 20
475.26219558238512
 30
0.0
  0
VERTEX
  5
8AC
  8
0
 62
     1
 10
2606.0047027054238
 20
473.86932540609263
 30
0.0
  0
VERTEX
  5
8AD
  8
0
 62
     1
 10
2607.9301408902402
 20
483.5374831003864
 30
0.0
  0
VERTEX
  5
8AE
  8
0
 62
     1
 10
2622.2275435823249
 20
483.5374831003864
 30
0.0
  0
VERTEX
  5
8AF
  8
0
 62
     1
 10
2622.2275435823249
 20
487.71609362930752
 30
0.0
  0
VERTEX
  5
8B0
  8
0
 62
     1
 10
2628.8665690125781
 20
487.71609362930752
 30
0.0
  0
VERTEX
  5
8B1
  8
0
 62
     1
 10
2628.8665690125781
 20
451.70633938498207
 30
0.0
  0
VERTEX
  5
8B2
  8
0
 62
     1
 10
2616.98379703617
 20
451.70633938498207
 30
0.0
  0
VERTEX
  5
8B3
  8
0
 62
     1
 10
2616.98379703617
 20
452.85337245190749
 30
0.0
  0
VERTEX
  5
8B4
  8
0
 62
     1
 10
2619.1960026104939
 20
454.2052758582721
 30
0.0
  0
SEQEND
  5
8B5
  8
0
 62
     1
  0
POLYLINE
  5
222
  8
0
 62
     1
 66
     1
 10
0.0
 20
0.0
 30
0.0
 70
     1
  0
VERTEX
  5
8B6
  8
0
 62
     1
 10
2682.2486382906791
 20
549.55164144885202
 30
0.0
  0
VERTEX
  5
8B7
  8
0
 62
     1
 10
2690.5280356440339
 20
549.55164144885202
 30
0.0
  0
VERTEX
  5
8B8
  8
0
 62
     1
 10
2690.5280356440339
 20
513.05737798182236
 30
0.0
  0
VERTEX
  5
8B9
  8
0
 62
     1
 10
2681.3170097023831
 20
513.05737798182236
 30
0.0
  0
VERTEX
  5
8BA
  8
0
 62
     1
 10
2681.1268250211142
 20
519.32974828421709
 30
0.0
  0
VERTEX
  5
8BB
  8
0
 62
     1
 10
2683.4232739788708
 20
519.41470169981767
 30
0.0
  0
VERTEX
  5
8BC
  8
0
 62
     1
 10
2683.3652792797661
 20
526.0704696317116
 30
0.0
  0
VERTEX
  5
8BD
  8
0
 62
     1
 10
2682.1472143106512
 20
526.0704696317116
 30
0.0
  0
SEQEND
  5
8BE
  8
0
 62
     1
  0
POLYLINE
  5
223
  8
0
 62
     1
 66
     1
 10
0.0
 20
0.0
 30
0.0
 70
     1
  0
VERTEX
  5
8BF
  8
0
 62
     1
 10
2669.7489258985152
 20
535.48925071391557
 30
0.0
  0
VERTEX
  5
8C0
  8
0
 62
     1
 10
2671.1599631044078
 20
540.20903106594051
 30
0.0
  0
VERTEX
  5
8C1
  8
0
 62
     1
 10
2674.294095908991
 20
540.46293912231329
 30
0.0
  0
VERTEX
  5
8C2
  8
0
 62
     1
 10
2674.2145299963299
 20
526.0704696317116
 30
0.0
  0
VERTEX
  5
8C3
  8
0
 62
     1
 10
2669.6763723145118
 20
526.0704696317116
 30
0.0
  0
SEQEND
  5
8C4
  8
0
 62
     1
  0
POLYLINE
  5
224
  8
0
 62
     1
 66
     1
 10
0.0
 20
0.0
 30
0.0
 70
     1
  0
VERTEX
  5
8C5
  8
0
 62
     1
 10
2661.7056768256589
 20
519.32974828421709
 30
0.0
  0
VERTEX
  5
8C6
  8
0
 62
     1
 10
2673.9632386296871
 20
519.32974828421709
 30
0.0
  0
VERTEX
  5
8C7
  8
0
 62
     1
 10
2673.9581903219218
 20
513.55216026640835
 30
0.0
  0
VERTEX
  5
8C8
  8
0
 62
     1
 10
2654.1264390920992
 20
513.55216026640835
 30
0.0
  0
VERTEX
  5
8C9
  8
0
 62
     1
 10
2654.1264390920992
 20
549.28535492652725
 30
0.0
  0
VERTEX
  5
8CA
  8
0
 62
     1
 10
2669.595577036438
 20
549.28535492652725
 30
0.0
 42
0.1999216019893932
  0
VERTEX
  5
8CB
  8
0
 62
     1
 10
2661.7056768256589
 20
526.0704696317116
 30
0.0
  0
SEQEND
  5
8CC
  8
0
 62
     1
  0
POLYLINE
  5
225
  8
0
 62
     1
 66
     1
 10
0.0
 20
0.0
 30
0.0
 70
     1
  0
VERTEX
  5
8CD
  8
0
 62
     1
 10
2706.0876770641189
 20
613.3908410762233
 30
0.0
  0
VERTEX
  5
8CE
  8
0
 62
     1
 10
2705.7678087452659
 20
613.8173321681096
 30
0.0
  0
VERTEX
  5
8CF
  8
0
 62
     1
 10
2703.1022394212778
 20
616.00309901383298
 30
0.0
  0
VERTEX
  5
8D0
  8
0
 62
     1
 10
2699.6903106864779
 20
617.33588367585605
 30
0.0
  0
VERTEX
  5
8D1
  8
0
 62
     1
 10
2702.1426344646611
 20
618.77529111086915
 30
0.0
  0
VERTEX
  5
8D2
  8
0
 62
     1
 10
2704.4883354699132
 20
621.28092627548904
 30
0.0
  0
VERTEX
  5
8D3
  8
0
 62
     1
 10
2705.5012518130252
 20
623.25344757529092
 30
0.0
  0
VERTEX
  5
8D4
  8
0
 62
     1
 10
2706.0876770641189
 20
626.77199908313924
 30
0.0
  0
VERTEX
  5
8D5
  8
0
 62
     1
 10
2705.7678087452659
 20
629.49087979368051
 30
0.0
  0
VERTEX
  5
8D6
  8
0
 62
     1
 10
2704.3817126968652
 20
632.79618575550546
 30
0.0
  0
VERTEX
  5
8D7
  8
0
 62
     1
 10
2702.4625027835718
 20
635.19519814717933
 30
0.0
  0
VERTEX
  5
8D8
  8
0
 62
     1
 10
2702.478194529715
 20
637.28570076296455
 30
0.0
  0
VERTEX
  5
8D9
  8
0
 62
     1
 10
2719.5813892494771
 20
637.28570076296455
 30
0.0
  0
VERTEX
  5
8DA
  8
0
 62
     1
 10
2719.5813892494771
 20
592.30461436904443
 30
0.0
  0
VERTEX
  5
8DB
  8
0
 62
     1
 10
2701.1332314332249
 20
592.30461436904443
 30
0.0
  0
VERTEX
  5
8DC
  8
0
 62
     1
 10
2701.1830295079858
 20
593.39907114565722
 30
0.0
  0
VERTEX
  5
8DD
  8
0
 62
     1
 10
2703.955221604906
 20
595.53152660490014
 30
0.0
  0
VERTEX
  5
8DE
  8
0
 62
     1
 10
2704.648269629397
 20
596.22457462918817
 30
0.0
  0
VERTEX
  5
8DF
  8
0
 62
     1
 10
2706.7274137019999
 20
599.10338949918514
 30
0.0
  0
VERTEX
  5
8E0
  8
0
 62
     1
 10
2707.9535755912661
 20
602.30207268806396
 30
0.0
  0
VERTEX
  5
8E1
  8
0
 62
     1
 10
2708.3800666830498
 20
605.87393558233452
 30
0.0
  0
VERTEX
  5
8E2
  8
0
 62
     1
 10
2708.3267552965549
 20
606.83354053899518
 30
0.0
  0
VERTEX
  5
8E3
  8
0
 62
     1
 10
2707.6870186586748
 20
610.40540343323664
 30
0.0
  0
SEQEND
  5
8E4
  8
0
 62
     1
  0
POLYLINE
  5
226
  8
0
 62
     1
 66
     1
 10
0.0
 20
0.0
 30
0.0
 70
     1
  0
VERTEX
  5
8E5
  8
0
 62
     1
 10
2699.4770651406152
 20
623.52000450769265
 30
0.0
  0
VERTEX
  5
8E6
  8
0
 62
     1
 10
2697.2912982949051
 20
621.01436934307264
 30
0.0
  0
VERTEX
  5
8E7
  8
0
 62
     1
 10
2694.3058606518898
 20
619.62827329455456
 30
0.0
  0
VERTEX
  5
8E8
  8
0
 62
     1
 10
2690.733997757663
 20
619.14847081626056
 30
0.0
  0
VERTEX
  5
8E9
  8
0
 62
     1
 10
2689.7743928009882
 20
619.20178220271191
 30
0.0
  0
VERTEX
  5
8EA
  8
0
 62
     1
 10
2689.1346561631071
 20
614.13720048691891
 30
0.0
  0
VERTEX
  5
8EB
  8
0
 62
     1
 10
2689.7210814143768
 20
614.29713464638905
 30
0.0
  0
VERTEX
  5
8EC
  8
0
 62
     1
 10
2693.186321535788
 20
614.77693712475593
 30
0.0
  0
VERTEX
  5
8ED
  8
0
 62
     1
 10
2693.3462556953309
 20
614.77693712475593
 30
0.0
  0
VERTEX
  5
8EE
  8
0
 62
     1
 10
2696.8648072029459
 20
614.13720048691891
 30
0.0
  0
VERTEX
  5
8EF
  8
0
 62
     1
 10
2699.7436220729719
 20
612.27130196013604
 30
0.0
  0
VERTEX
  5
8F0
  8
0
 62
     1
 10
2699.7969334594668
 20
612.16467918717535
 30
0.0
  0
VERTEX
  5
8F1
  8
0
 62
     1
 10
2701.662831986323
 20
609.28586431713484
 30
0.0
  0
VERTEX
  5
8F2
  8
0
 62
     1
 10
2702.3025686240289
 20
605.71400142292259
 30
0.0
  0
VERTEX
  5
8F3
  8
0
 62
     1
 10
2702.3025686240289
 20
605.12757617158059
 30
0.0
  0
VERTEX
  5
8F4
  8
0
 62
     1
 10
2701.502897826897
 20
601.66233605028538
 30
0.0
  0
VERTEX
  5
8F5
  8
0
 62
     1
 10
2699.5303765271092
 20
598.78352118027385
 30
0.0
  0
VERTEX
  5
8F6
  8
0
 62
     1
 10
2699.1571968217031
 20
598.410341474897
 30
0.0
  0
VERTEX
  5
8F7
  8
0
 62
     1
 10
2696.2250705651818
 20
596.5977543345798
 30
0.0
  0
VERTEX
  5
8F8
  8
0
 62
     1
 10
2692.7065190574508
 20
596.0113290832378
 30
0.0
  0
VERTEX
  5
8F9
  8
0
 62
     1
 10
2689.9343269602982
 20
596.38450878861477
 30
0.0
  0
VERTEX
  5
8FA
  8
0
 62
     1
 10
2686.9488893174571
 20
598.14378454249515
 30
0.0
  0
VERTEX
  5
8FB
  8
0
 62
     1
 10
2686.5223982255561
 20
598.57027563439624
 30
0.0
  0
VERTEX
  5
8FC
  8
0
 62
     1
 10
2684.763122471632
 20
601.28915634492296
 30
0.0
  0
VERTEX
  5
8FD
  8
0
 62
     1
 10
2683.590271969093
 20
605.12757617158059
 30
0.0
  0
VERTEX
  5
8FE
  8
0
 62
     1
 10
2677.885953615536
 20
604.3812167608412
 30
0.0
  0
VERTEX
  5
8FF
  8
0
 62
     1
 10
2677.885953615536
 20
604.2212826014146
 30
0.0
  0
VERTEX
  5
900
  8
0
 62
     1
 10
2678.685624412843
 20
600.64941970714415
 30
0.0
  0
VERTEX
  5
901
  8
0
 62
     1
 10
2680.2316546208458
 20
597.55735929122602
 30
0.0
  0
VERTEX
  5
902
  8
0
 62
     1
 10
2682.5240442394279
 20
594.89178996712144
 30
0.0
  0
VERTEX
  5
903
  8
0
 62
     1
 10
2682.7906011719019
 20
594.62523303470505
 30
0.0
  0
VERTEX
  5
904
  8
0
 62
     1
 10
2682.8776714965929
 20
592.30461436904443
 30
0.0
  0
VERTEX
  5
905
  8
0
 62
     1
 10
2661.229012540658
 20
592.30461436904443
 30
0.0
  0
VERTEX
  5
906
  8
0
 62
     1
 10
2661.229012540658
 20
637.28570076296455
 30
0.0
  0
VERTEX
  5
907
  8
0
 62
     1
 10
2683.2170922637451
 20
637.28570076296455
 30
0.0
  0
VERTEX
  5
908
  8
0
 62
     1
 10
2683.2170922637451
 20
635.78162339847768
 30
0.0
  0
VERTEX
  5
909
  8
0
 62
     1
 10
2681.1379481909098
 20
633.54254516627395
 30
0.0
  0
VERTEX
  5
90A
  8
0
 62
     1
 10
2679.4852952100341
 20
630.50379613679252
 30
0.0
  0
VERTEX
  5
90B
  8
0
 62
     1
 10
2678.419067480369
 20
626.82531046957592
 30
0.0
  0
VERTEX
  5
90C
  8
0
 62
     1
 10
2684.176697220304
 20
625.81239412643481
 30
0.0
  0
VERTEX
  5
90D
  8
0
 62
     1
 10
2685.1896135635329
 20
629.43756840718561
 30
0.0
  0
VERTEX
  5
90E
  8
0
 62
     1
 10
2687.002200703952
 20
632.10313773127564
 30
0.0
  0
VERTEX
  5
90F
  8
0
 62
     1
 10
2689.0813447766709
 20
633.48923377979372
 30
0.0
  0
VERTEX
  5
910
  8
0
 62
     1
 10
2692.599896284461
 20
634.18228180405265
 30
0.0
  0
VERTEX
  5
911
  8
0
 62
     1
 10
2695.1588428355758
 20
633.86241348511248
 30
0.0
  0
VERTEX
  5
912
  8
0
 62
     1
 10
2698.0909690920962
 20
632.15644911772688
 30
0.0
  0
VERTEX
  5
913
  8
0
 62
     1
 10
2699.4237537541198
 20
630.34386197735148
 30
0.0
  0
VERTEX
  5
914
  8
0
 62
     1
 10
2700.2234245512518
 20
626.93193324258016
 30
0.0
  0
SEQEND
  5
915
  8
0
 62
     1
  0
POLYLINE
  5
227
  8
0
 62
     1
 66
     1
 10
0.0
 20
0.0
 30
0.0
 70
     1
  0
VERTEX
  5
916
  8
0
 62
     1
 10
2683.0021596898441
 20
680.42713311187981
 30
0.0
  0
VERTEX
  5
917
  8
0
 62
     1
 10
2682.864031031379
 20
686.99376370690879
 30
0.0
  0
VERTEX
  5
918
  8
0
 62
     1
 10
2672.8741665352718
 20
686.82819411763921
 30
0.0
  0
VERTEX
  5
919
  8
0
 62
     1
 10
2672.7307780847191
 20
689.35832189292705
 30
0.0
  0
VERTEX
  5
91A
  8
0
 62
     1
 10
2674.6778872187142
 20
692.251679261346
 30
0.0
  0
VERTEX
  5
91B
  8
0
 62
     1
 10
2675.5908117376389
 20
693.03418599182623
 30
0.0
  0
VERTEX
  5
91C
  8
0
 62
     1
 10
2678.1991675058962
 20
695.33823358712834
 30
0.0
  0
VERTEX
  5
91D
  8
0
 62
     1
 10
2681.06835885084
 20
698.1204797399696
 30
0.0
 42
0.3137137886150259
  0
VERTEX
  5
91E
  8
0
 62
     1
 10
2680.9661165429861
 20
716.33557485729386
 30
0.0
  0
VERTEX
  5
91F
  8
0
 62
     1
 10
2680.9661165429861
 20
717.53512418290484
 30
0.0
  0
VERTEX
  5
920
  8
0
 62
     1
 10
2691.1632675201399
 20
717.53512418290484
 30
0.0
  0
VERTEX
  5
921
  8
0
 62
     1
 10
2691.1632675201399
 20
680.59880149803928
 30
0.0
  0
SEQEND
  5
922
  8
0
 62
     1
  0
POLYLINE
  5
228
  8
0
 62
     1
 66
     1
 10
0.0
 20
0.0
 30
0.0
  0
VERTEX
  5
923
  8
0
 62
     1
 10
2675.2908254534709
 20
705.58809499090421
 30
0.0
 42
-0.152862587333329
  0
VERTEX
  5
924
  8
0
 62
     1
 10
2672.4298675004402
 20
700.54983823253133
 30
0.0
 42
0.2053852700996344
  0
VERTEX
  5
925
  8
0
 62
     1
 10
2662.5363398125628
 20
683.83788293415273
 30
0.0
  0
VERTEX
  5
926
  8
0
 62
     1
 10
2662.368179719429
 20
680.42713311187981
 30
0.0
  0
VERTEX
  5
927
  8
0
 62
     1
 10
2654.5481979840552
 20
680.42713311185059
 30
0.0
  0
VERTEX
  5
928
  8
0
 62
     1
 10
2654.5481979840552
 20
717.31151548022171
 30
0.0
  0
VERTEX
  5
929
  8
0
 62
     1
 10
2666.5167116413941
 20
717.31151548022171
 30
0.0
  0
VERTEX
  5
92A
  8
0
 62
     1
 10
2666.5167116413941
 20
716.11196615458175
 30
0.0
 42
0.2500364109759026
  0
VERTEX
  5
92B
  8
0
 62
     1
 10
2662.7002235102118
 20
710.66441138098878
 30
0.0
  0
VERTEX
  5
92C
  8
0
 62
     1
 10
2662.7002235102118
 20
703.98950759094441
 30
0.0
  0
VERTEX
  5
92D
  8
0
 62
     1
 10
2671.4294855775661
 20
703.98950759094441
 30
0.0
  0
VERTEX
  5
92E
  8
0
 62
     1
 10
2671.5330950894859
 20
709.68128550591064
 30
0.0
 42
-0.6798626306134513
  0
VERTEX
  5
92F
  8
0
 62
     1
 10
2674.9951537330639
 20
710.57066524804395
 30
0.0
 42
-0.1122956882097752
  0
VERTEX
  5
930
  8
0
 62
     1
 10
2675.2908272710629
 20
705.58810339264164
 30
0.0
  0
SEQEND
  5
931
  8
0
 62
     1
  0
POLYLINE
  5
229
  8
0
 62
     1
 66
     1
 10
0.0
 20
0.0
 30
0.0
 70
     1
  0
VERTEX
  5
932
  8
0
 62
     1
 10
2387.0542004048471
 20
544.59547633408511
 30
0.0
  0
VERTEX
  5
933
  8
0
 62
     1
 10
2387.0925259102369
 20
546.68755588799831
 30
0.0
  0
VERTEX
  5
934
  8
0
 62
     1
 10
2398.3022533634798
 20
546.68755588799831
 30
0.0
  0
VERTEX
  5
935
  8
0
 62
     1
 10
2398.3022533634798
 20
510.5935353232926
 30
0.0
  0
VERTEX
  5
936
  8
0
 62
     1
 10
2386.8857139967149
 20
510.5935353232926
 30
0.0
  0
VERTEX
  5
937
  8
0
 62
     1
 10
2386.6633337158132
 20
512.49067340191687
 30
0.0
  0
VERTEX
  5
938
  8
0
 62
     1
 10
2388.6669924326129
 20
514.01345402668812
 30
0.0
  0
VERTEX
  5
939
  8
0
 62
     1
 10
2388.9875778274732
 20
514.3340394213883
 30
0.0
  0
VERTEX
  5
93A
  8
0
 62
     1
 10
2390.5905048007849
 20
516.45791766126058
 30
0.0
  0
VERTEX
  5
93B
  8
0
 62
     1
 10
2391.5522609849581
 20
518.86230812150461
 30
0.0
  0
VERTEX
  5
93C
  8
0
 62
     1
 10
2391.8327732051839
 20
521.54721080212028
 30
0.0
  0
VERTEX
  5
93D
  8
0
 62
     1
 10
2391.8327732051839
 20
522.14830841714866
 30
0.0
  0
VERTEX
  5
93E
  8
0
 62
     1
 10
2391.351895113185
 20
524.83321109776443
 30
0.0
  0
VERTEX
  5
93F
  8
0
 62
     1
 10
2390.1897730574128
 20
527.15745520927885
 30
0.0
  0
VERTEX
  5
940
  8
0
 62
     1
 10
2389.7489681398151
 20
527.67840647569392
 30
0.0
  0
VERTEX
  5
941
  8
0
 62
     1
 10
2387.825455771585
 20
529.36147979785164
 30
0.0
  0
VERTEX
  5
942
  8
0
 62
     1
 10
2385.260772613984
 20
530.56367502799549
 30
0.0
  0
VERTEX
  5
943
  8
0
 62
     1
 10
2387.304504505184
 20
531.60557756073831
 30
0.0
  0
VERTEX
  5
944
  8
0
 62
     1
 10
2389.1478705247291
 20
533.3687972316111
 30
0.0
  0
VERTEX
  5
945
  8
0
 62
     1
 10
2389.9493340114709
 20
534.89157785639691
 30
0.0
  0
VERTEX
  5
946
  8
0
 62
     1
 10
2390.4302121034711
 20
537.57648053702724
 30
0.0
  0
VERTEX
  5
947
  8
0
 62
     1
 10
2390.229846231814
 20
539.58013925389969
 30
0.0
  0
VERTEX
  5
948
  8
0
 62
     1
 10
2389.2680900476989
 20
541.98452971414372
 30
0.0
  0
VERTEX
  5
949
  8
0
 62
     1
 10
2387.6250898999278
 20
544.10840795395768
 30
0.0
  0
VERTEX
  5
94A
  8
0
 62
     1
 10
2387.5850167255271
 20
544.10840795395768
 30
0.0
  0
SEQEND
  5
94B
  8
0
 62
     1
  0
POLYLINE
  5
22A
  8
0
 62
     1
 66
     1
 10
0.0
 20
0.0
 30
0.0
 70
     1
  0
VERTEX
  5
94C
  8
0
 62
     1
 10
2370.1131127144331
 20
526.83686981463677
 30
0.0
  0
VERTEX
  5
94D
  8
0
 62
     1
 10
2369.1112833560328
 20
524.47255252869218
 30
0.0
  0
VERTEX
  5
94E
  8
0
 62
     1
 10
2368.7506247871211
 20
521.66743032513466
 30
0.0
  0
VERTEX
  5
94F
  8
0
 62
     1
 10
2368.7906979613481
 20
521.10640588439128
 30
0.0
  0
VERTEX
  5
950
  8
0
 62
     1
 10
2369.2315028791199
 20
518.4215032038046
 30
0.0
  0
VERTEX
  5
951
  8
0
 62
     1
 10
2370.273405411805
 20
516.09725909227564
 30
0.0
  0
VERTEX
  5
952
  8
0
 62
     1
 10
2371.956478734035
 20
514.01345402668812
 30
0.0
  0
VERTEX
  5
953
  8
0
 62
     1
 10
2372.798015395063
 20
513.29213688863092
 30
0.0
  0
VERTEX
  5
954
  8
0
 62
     1
 10
2373.504763562174
 20
512.38230586489954
 30
0.0
  0
VERTEX
  5
955
  8
0
 62
     1
 10
2373.507983489777
 20
510.5935353232926
 30
0.0
  0
VERTEX
  5
956
  8
0
 62
     1
 10
2360.2093635749188
 20
510.5935353232926
 30
0.0
  0
VERTEX
  5
957
  8
0
 62
     1
 10
2360.2093635749188
 20
546.97803535190167
 30
0.0
  0
VERTEX
  5
958
  8
0
 62
     1
 10
2372.8816505126888
 20
546.97803535190167
 30
0.0
  0
VERTEX
  5
959
  8
0
 62
     1
 10
2372.8380036168378
 20
544.59547633408511
 30
0.0
  0
VERTEX
  5
95A
  8
0
 62
     1
 10
2371.6759665136919
 20
542.70584685220092
 30
0.0
  0
VERTEX
  5
95B
  8
0
 62
     1
 10
2370.553917632205
 20
540.38160274067195
 30
0.0
  0
VERTEX
  5
95C
  8
0
 62
     1
 10
2370.1932590631191
 20
537.69670006004162
 30
0.0
  0
VERTEX
  5
95D
  8
0
 62
     1
 10
2370.3936249348922
 20
535.7331145174976
 30
0.0
  0
VERTEX
  5
95E
  8
0
 62
     1
 10
2371.4756006419188
 20
533.3687972316111
 30
0.0
  0
VERTEX
  5
95F
  8
0
 62
     1
 10
2372.918234918151
 20
531.88608978113905
 30
0.0
  0
VERTEX
  5
960
  8
0
 62
     1
 10
2375.4428449014081
 20
530.56367502799549
 30
0.0
  0
VERTEX
  5
961
  8
0
 62
     1
 10
2374.8016741120368
 20
530.36330915629514
 30
0.0
  0
VERTEX
  5
962
  8
0
 62
     1
 10
2372.3572104774071
 20
529.20118710052327
 30
0.0
  0
VERTEX
  5
963
  8
0
 62
     1
 10
2370.5138444579211
 20
527.39789425532206
 30
0.0
  0
SEQEND
  5
964
  8
0
 62
     1
  0
POLYLINE
  5
22B
  8
0
 62
     1
 66
     1
 10
0.0
 20
0.0
 30
0.0
 70
     1
  0
VERTEX
  5
965
  8
0
 62
     1
 10
2382.847379226645
 20
539.62538938297075
 30
0.0
  0
VERTEX
  5
966
  8
0
 62
     1
 10
2382.847379226645
 20
535.05964253089041
 30
0.0
 42
-0.7990339633027022
  0
VERTEX
  5
967
  8
0
 62
     1
 10
2377.4653811377939
 20
535.05964253089041
 30
0.0
  0
VERTEX
  5
968
  8
0
 62
     1
 10
2377.4653811377939
 20
539.62538938297075
 30
0.0
 42
-0.7990339633028583
  0
SEQEND
  5
969
  8
0
 62
     1
  0
POLYLINE
  5
22C
  8
0
 62
     1
 66
     1
 10
0.0
 20
0.0
 30
0.0
 70
     1
  0
VERTEX
  5
96A
  8
0
 62
     1
 10
2382.847379226645
 20
526.91321205445274
 30
0.0
  0
VERTEX
  5
96B
  8
0
 62
     1
 10
2382.847379226645
 20
518.06754656742839
 30
0.0
 42
-0.7990339633027022
  0
VERTEX
  5
96C
  8
0
 62
     1
 10
2377.4653811380272
 20
518.06754656742839
 30
0.0
  0
VERTEX
  5
96D
  8
0
 62
     1
 10
2377.4653811377939
 20
526.91321205445274
 30
0.0
 42
-0.7990339633028583
  0
SEQEND
  5
96E
  8
0
 62
     1
  0
CIRCLE
  5
22D
  8
0
 62
     1
 10
2525.9837990928208
 20
616.23775919785828
 30
0.0
 40
6.126041015746579
  0
CIRCLE
  5
236
  8
0
 10
2525.9837990928208
 20
616.23775919785828
 30
0.0
 40
200.00000000000489
  0
POLYLINE
  5
285
  8
0
 62
     1
 66
     1
 10
0.0
 20
0.0
 30
0.0
 70
     1
  0
VERTEX
  5
96F
  8
0
 62
     1
 10
2495.2524235808528
 20
760.99589711840963
 30
0.0
  0
VERTEX
  5
970
  8
0
 62
     1
 10
2515.1066105900691
 20
672.28672118746908
 30
0.0
 42
0.0345531540758574
  0
VERTEX
  5
971
  8
0
 62
     1
 10
2507.4912728776112
 20
670.25466251542093
 30
0.0
  0
VERTEX
  5
972
  8
0
 62
     1
 10
2465.2254938973929
 20
785.28652490052627
 30
0.0
  0
VERTEX
  5
973
  8
0
 62
     1
 10
2421.9549377910439
 20
785.43733151214838
 30
0.0
  0
VERTEX
  5
974
  8
0
 62
     1
 10
2418.1170900153229
 20
785.43733151214838
 30
0.0
  0
VERTEX
  5
975
  8
0
 62
     1
 10
2418.1170900153229
 20
741.34270025540889
 30
0.0
  0
VERTEX
  5
976
  8
0
 62
     1
 10
2489.2336786106462
 20
659.93247300155053
 30
0.0
 42
0.0377444091725392
  0
VERTEX
  5
977
  8
0
 62
     1
 10
2483.082536703092
 20
653.91110594609916
 30
0.0
  0
VERTEX
  5
978
  8
0
 62
     1
 10
2400.4734356332342
 20
722.98457815177971
 30
0.0
  0
VERTEX
  5
979
  8
0
 62
     1
 10
2357.229037748009
 20
723.04362252728595
 30
0.0
  0
VERTEX
  5
97A
  8
0
 62
     1
 10
2356.1125838825251
 20
723.04362252728595
 30
0.0
  0
VERTEX
  5
97B
  8
0
 62
     1
 10
2356.1125838825251
 20
679.16826629117713
 30
0.0
  0
VERTEX
  5
97C
  8
0
 62
     1
 10
2472.4328781100339
 20
636.03922964174114
 30
0.0
 42
0.0434994840441917
  0
VERTEX
  5
97D
  8
0
 62
     1
 10
2469.8145354206208
 20
626.47559043127694
 30
0.0
  0
VERTEX
  5
97E
  8
0
 62
     1
 10
2394.9973621084941
 20
642.40097335711459
 30
0.0
  0
VERTEX
  5
97F
  8
0
 62
     1
 10
2327.7740657278919
 20
642.93797641475965
 30
0.0
  0
VERTEX
  5
980
  8
0
 62
     1
 10
2327.879925869056
 20
589.49769909003226
 30
0.0
  0
VERTEX
  5
981
  8
0
 62
     1
 10
2394.7338216457861
 20
589.49769909003226
 30
0.0
  0
VERTEX
  5
982
  8
0
 62
     1
 10
2470.347823851102
 20
603.41443557497405
 30
0.0
 42
0.0393527209394617
  0
VERTEX
  5
983
  8
0
 62
     1
 10
2473.044150139147
 20
594.85568870636052
 30
0.0
  0
VERTEX
  5
984
  8
0
 62
     1
 10
2357.8053595471429
 20
551.42871660672245
 30
0.0
  0
VERTEX
  5
985
  8
0
 62
     1
 10
2357.8053595471429
 20
507.99722856353031
 30
0.0
  0
VERTEX
  5
986
  8
0
 62
     1
 10
2401.878468139621
 20
507.99722856353031
 30
0.0
  0
VERTEX
  5
987
  8
0
 62
     1
 10
2484.5813712208178
 20
576.92315203789622
 30
0.0
 42
0.0344578599536499
  0
VERTEX
  5
988
  8
0
 62
     1
 10
2490.3732355588581
 20
571.60943708477134
 30
0.0
  0
VERTEX
  5
989
  8
0
 62
     1
 10
2420.3364881018638
 20
490.15141566706001
 30
0.0
  0
VERTEX
  5
98A
  8
0
 62
     1
 10
2420.3364881018638
 20
446.41830895617022
 30
0.0
  0
VERTEX
  5
98B
  8
0
 62
     1
 10
2463.6297320600138
 20
446.41830895617022
 30
0.0
  0
VERTEX
  5
98C
  8
0
 62
     1
 10
2507.9257300595059
 20
562.07406736815744
 30
0.0
 42
0.0350498468159595
  0
VERTEX
  5
98D
  8
0
 62
     1
 10
2515.6685554803121
 20
560.08266041731986
 30
0.0
  0
VERTEX
  5
98E
  8
0
 62
     1
 10
2494.3399920471129
 20
469.59503111343662
 30
0.0
  0
VERTEX
  5
98F
  8
0
 62
     1
 10
2494.3399920471129
 20
418.75695133120462
 30
0.0
  0
VERTEX
  5
990
  8
0
 62
     1
 10
2560.3662900957279
 20
418.75695133120462
 30
0.0
  0
VERTEX
  5
991
  8
0
 62
     1
 10
2560.3662900957279
 20
472.22986085388402
 30
0.0
  0
VERTEX
  5
992
  8
0
 62
     1
 10
2540.3976368635781
 20
560.99248201913724
 30
0.0
 42
0.0294272004465935
  0
VERTEX
  5
993
  8
0
 62
     1
 10
2546.7839412020398
 20
563.06677596387453
 30
0.0
  0
VERTEX
  5
994
  8
0
 62
     1
 10
2589.7059208844439
 20
447.08584086797782
 30
0.0
  0
VERTEX
  5
995
  8
0
 62
     1
 10
2632.6966311483411
 20
447.08584086797782
 30
0.0
  0
VERTEX
  5
996
  8
0
 62
     1
 10
2632.6966311483411
 20
490.78481213284249
 30
0.0
  0
VERTEX
  5
997
  8
0
 62
     1
 10
2563.1354472815292
 20
572.88393114657083
 30
0.0
 42
0.0387735936367679
  0
VERTEX
  5
998
  8
0
 62
     1
 10
2569.3836445285119
 20
579.13987804565113
 30
0.0
  0
VERTEX
  5
999
  8
0
 62
     1
 10
2652.4380500391121
 20
508.69127265107818
 30
0.0
  0
VERTEX
  5
99A
  8
0
 62
     1
 10
2694.7013348421901
 20
508.69127265107818
 30
0.0
  0
VERTEX
  5
99B
  8
0
 62
     1
 10
2694.7013348421901
 20
551.82060866027314
 30
0.0
  0
VERTEX
  5
99C
  8
0
 62
     1
 10
2579.3390881402888
 20
595.91505021289038
 30
0.0
 42
0.0373584816233212
  0
VERTEX
  5
99D
  8
0
 62
     1
 10
2581.7692387289721
 20
604.08111103963165
 30
0.0
  0
VERTEX
  5
99E
  8
0
 62
     1
 10
2659.9442471443331
 20
587.94204427285865
 30
0.0
  0
VERTEX
  5
99F
  8
0
 62
     1
 10
2724.4767010398209
 20
587.94204427285865
 30
0.0
  0
VERTEX
  5
9A0
  8
0
 62
     1
 10
2724.4767010398209
 20
640.74424561770854
 30
0.0
  0
VERTEX
  5
9A1
  8
0
 62
     1
 10
2658.7690718161762
 20
640.74424561770854
 30
0.0
  0
VERTEX
  5
9A2
  8
0
 62
     1
 10
2582.2055209125392
 20
626.18348016038362
 30
0.0
 42
0.0327009682856555
  0
VERTEX
  5
9A3
  8
0
 62
     1
 10
2580.4288080698461
 20
633.42904673922749
 30
0.0
  0
VERTEX
  5
9A4
  8
0
 62
     1
 10
2695.7074670265429
 20
677.72015383135295
 30
0.0
  0
VERTEX
  5
9A5
  8
0
 62
     1
 10
2695.7074670265429
 20
722.03887707057584
 30
0.0
  0
VERTEX
  5
9A6
  8
0
 62
     1
 10
2653.1701815794222
 20
722.03887707057584
 30
0.0
  0
VERTEX
  5
9A7
  8
0
 62
     1
 10
2570.3667213325389
 20
652.15371085314825
 30
0.0
 42
0.0319688625521678
  0
VERTEX
  5
9A8
  8
0
 62
     1
 10
2565.4258733525062
 20
657.51877357409103
 30
0.0
  0
VERTEX
  5
9A9
  8
0
 62
     1
 10
2635.3247273954921
 20
739.40101830747153
 30
0.0
  0
VERTEX
  5
9AA
  8
0
 62
     1
 10
2635.1982769321189
 20
783.76597703284642
 30
0.0
  0
VERTEX
  5
9AB
  8
0
 62
     1
 10
2591.8876118581388
 20
783.69682651155745
 30
0.0
  0
VERTEX
  5
9AC
  8
0
 62
     1
 10
2549.0448519806382
 20
668.46789618344337
 30
0.0
 42
0.0304840203883947
  0
VERTEX
  5
9AD
  8
0
 62
     1
 10
2542.5227188280551
 20
670.88447459616873
 30
0.0
  0
VERTEX
  5
9AE
  8
0
 62
     1
 10
2563.284183874377
 20
760.1313102744316
 30
0.0
  0
VERTEX
  5
9AF
  8
0
 62
     1
 10
2563.054035918613
 20
812.77222829089442
 30
0.0
  0
VERTEX
  5
9B0
  8
0
 62
     1
 10
2495.080596808868
 20
813.83121530803328
 30
0.0
  0
SEQEND
  5
9B1
  8
0
 62
     1
  0
ENDSEC
  0
EOF
