  0
SECTION
  2
HEADER
  9
$ACADVER
  1
AC1015
  9
$ACADMAINTVER
 70
     6
  9
$DWGCODEPAGE
  3
DOS850
  9
$INSBASE
 10
0.0
 20
0.0
 30
0.0
  9
$EXTMIN
 10
-7.72277
 20
-13.85832
 30
1.000000E 20
  9
$EXTMAX
 10
9.25178
 20
13.60592
 30
-1.000000E 20
  9
$LIMMIN
 10
0.0
 20
0.0
  9
$LIMMAX
 10
0.0
 20
0.0
  9
$ORTHOMODE
 70
     0
  9
$REGENMODE
 70
     1
  9
$FILLMODE
 70
     1
  9
$QTEXTMODE
 70
     0
  9
$MIRRTEXT
 70
     1
  9
$LTSCALE
 40
1.0
  9
$ATTMODE
 70
     1
  9
$TEXTSIZE
 40
0.2
  9
$TRACEWID
 40
0.05
  9
$TEXTSTYLE
  7
Standard
  9
$CLAYER
  8
0
  9
$CELTYPE
  6
Continuous
  9
$CECOLOR
 62
   256
  9
$CELTSCALE
 40
1.0
  9
$DISPSILH
 70
     0
  9
$DIMSCALE
 40
1.0
  9
$DIMASZ
 40
0.18
  9
$DIMEXO
 40
0.0625
  9
$DIMDLI
 40
0.38
  9
$DIMRND
 40
0.0
  9
$DIMDLE
 40
0.0
  9
$DIMEXE
 40
0.18
  9
$DIMTP
 40
0.0
  9
$DIMTM
 40
0.0
  9
$DIMTXT
 40
0.18
  9
$DIMCEN
 40
0.09
  9
$DIMTSZ
 40
0.0
  9
$DIMTOL
 70
     0
  9
$DIMLIM
 70
     0
  9
$DIMTIH
 70
     1
  9
$DIMTOH
 70
     1
  9
$DIMSE1
 70
     0
  9
$DIMSE2
 70
     0
  9
$DIMTAD
 70
     0
  9
$DIMZIN
 70
     0
  9
$DIMBLK
  1

  9
$DIMASO
 70
     1
  9
$DIMSHO
 70
     1
  9
$DIMPOST
  1

  9
$DIMAPOST
  1

  9
$DIMALT
 70
     0
  9
$DIMALTD
 70
     2
  9
$DIMALTF
 40
25.4
  9
$DIMLFAC
 40
1.0
  9
$DIMTOFL
 70
     0
  9
$DIMTVP
 40
0.0
  9
$DIMTIX
 70
     0
  9
$DIMSOXD
 70
     0
  9
$DIMSAH
 70
     0
  9
$DIMBLK1
  1

  9
$DIMBLK2
  1

  9
$DIMSTYLE
  2
Standard
  9
$DIMCLRD
 70
     0
  9
$DIMCLRE
 70
     0
  9
$DIMCLRT
 70
     0
  9
$DIMTFAC
 40
1.0
  9
$DIMGAP
 40
0.09
  9
$DIMJUST
 70
     0
  9
$DIMSD1
 70
     0
  9
$DIMSD2
 70
     0
  9
$DIMTOLJ
 70
     1
  9
$DIMTZIN
 70
     0
  9
$DIMALTZ
 70
     0
  9
$DIMALTTZ
 70
     0
  9
$DIMUPT
 70
     0
  9
$DIMDEC
 70
     4
  9
$DIMTDEC
 70
     4
  9
$DIMALTU
 70
     2
  9
$DIMALTTD
 70
     2
  9
$DIMTXSTY
  7
Standard
  9
$DIMAUNIT
 70
     0
  9
$DIMADEC
 70
     0
  9
$DIMALTRND
 40
0.0
  9
$DIMAZIN
 70
     0
  9
$DIMDSEP
 70
     0
  9
$DIMATFIT
 70
     3
  9
$DIMFRAC
 70
     0
  9
$DIMLDRBLK
  1

  9
$DIMLUNIT
 70
     2
  9
$DIMLWD
 70
     0
  9
$DIMLWE
 70
     0
  9
$DIMTMOVE
 70
     0
  9
$LUNITS
 70
     2
  9
$LUPREC
 70
     4
  9
$SKETCHINC
 40
0.1
  9
$FILLETRAD
 40
0.0
  9
$AUNITS
 70
     0
  9
$AUPREC
 70
     0
  9
$MENU
  1
acad
  9
$ELEVATION
 40
0.0
  9
$PELEVATION
 40
0.0
  9
$THICKNESS
 40
0.0
  9
$LIMCHECK
 70
     0
  9
$CHAMFERA
 40
0.0
  9
$CHAMFERB
 40
0.0
  9
$CHAMFERC
 40
0.0
  9
$CHAMFERD
 40
0.0
  9
$SKPOLY
 70
     0
  9
$TDCREATE
 40
0.000000000
  9
$TDUCREATE
 40
0.000000000
  9
$TDUPDATE
 40
0.000000000
  9
$TDUUPDATE
 40
0.000000000
  9
$TDINDWG
 40
0.0000000000
  9
$TDUSRTIMER
 40
0.0000000000
  9
$USRTIMER
 70
     1
  9
$ANGBASE
 50
0.0
  9
$ANGDIR
 70
     0
  9
$PDMODE
 70
     0
  9
$PDSIZE
 40
0.0
  9
$PLINEWID
 40
0.0
  9
$SPLFRAME
 70
     0
  9
$SPLINETYPE
 70
     6
  9
$SPLINESEGS
 70
     8
  9
$HANDSEED
  5
CC
  9
$SURFTAB1
 70
     6
  9
$SURFTAB2
 70
     6
  9
$SURFTYPE
 70
     6
  9
$SURFU
 70
     6
  9
$SURFV
 70
     6
  9
$UCSBASE
  2

  9
$UCSNAME
  2

  9
$UCSORG
 10
0.0
 20
0.0
 30
0.0
  9
$UCSXDIR
 10
1.0
 20
0.0
 30
0.0
  9
$UCSYDIR
 10
0.0
 20
1.0
 30
0.0
  9
$UCSORTHOREF
  2

  9
$UCSORTHOVIEW
 70
     0
  9
$UCSORGTOP
 10
0.0
 20
0.0
 30
0.0
  9
$UCSORGBOTTOM
 10
0.0
 20
0.0
 30
0.0
  9
$UCSORGLEFT
 10
0.0
 20
0.0
 30
0.0
  9
$UCSORGRIGHT
 10
0.0
 20
0.0
 30
0.0
  9
$UCSORGFRONT
 10
0.0
 20
0.0
 30
0.0
  9
$UCSORGBACK
 10
0.0
 20
0.0
 30
0.0
  9
$PUCSBASE
  2

  9
$PUCSNAME
  2

  9
$PUCSORG
 10
0.0
 20
0.0
 30
0.0
  9
$PUCSXDIR
 10
1.0
 20
0.0
 30
0.0
  9
$PUCSYDIR
 10
0.0
 20
1.0
 30
0.0
  9
$PUCSORTHOREF
  2

  9
$PUCSORTHOVIEW
 70
     0
  9
$PUCSORGTOP
 10
0.0
 20
0.0
 30
0.0
  9
$PUCSORGBOTTOM
 10
0.0
 20
0.0
 30
0.0
  9
$PUCSORGLEFT
 10
0.0
 20
0.0
 30
0.0
  9
$PUCSORGRIGHT
 10
0.0
 20
0.0
 30
0.0
  9
$PUCSORGFRONT
 10
0.0
 20
0.0
 30
0.0
  9
$PUCSORGBACK
 10
0.0
 20
0.0
 30
0.0
  9
$USERI1
 70
     0
  9
$USERI2
 70
     0
  9
$USERI3
 70
     0
  9
$USERI4
 70
     0
  9
$USERI5
 70
     0
  9
$USERR1
 40
0.0
  9
$USERR2
 40
0.0
  9
$USERR3
 40
0.0
  9
$USERR4
 40
0.0
  9
$USERR5
 40
0.0
  9
$WORLDVIEW
 70
     1
  9
$SHADEDGE
 70
     3
  9
$SHADEDIF
 70
    70
  9
$TILEMODE
 70
     1
  9
$MAXACTVP
 70
    16
  9
$PINSBASE
 10
0.0
 20
0.0
 30
0.0
  9
$PLIMCHECK
 70
     0
  9
$PEXTMIN
 10
1.000000E 20
 20
1.000000E 20
 30
1.000000E 20
  9
$PEXTMAX
 10
-1.000000E 20
 20
-1.000000E 20
 30
-1.000000E 20
  9
$PLIMMIN
 10
0.0
 20
0.0
  9
$PLIMMAX
 10
12.0
 20
9.0
  9
$UNITMODE
 70
     0
  9
$VISRETAIN
 70
     0
  9
$PLINEGEN
 70
     1
  9
$PSLTSCALE
 70
     0
  9
$TREEDEPTH
 70
  3020
  9
$CMLSTYLE
  2
Standard
  9
$CMLJUST
 70
     0
  9
$CMLSCALE
 40
1.0
  9
$PROXYGRAPHICS
 70
     0
  9
$MEASUREMENT
 70
     0
  9
$CELWEIGHT
370
     0
  9
$ENDCAPS
280
     0
  9
$JOINSTYLE
280
     0
  9
$LWDISPLAY
290
     0
  9
$INSUNITS
 70
     5
  9
$HYPERLINKBASE
  1

  9
$XEDIT
290
     1
  9
$CEPSNTYPE
380
     0
  9
$PSTYLEMODE
290
     1
  9
$FINGERPRINTGUID
  2

  9
$VERSIONGUID
  2

  9
$EXTNAMES
290
     1
  9
$PSVPSCALE
 40
0.0
  0
ENDSEC
  0
SECTION
  2
CLASSES
  0
CLASS
  1
LWPOLYLINE
  2
AcDbPolyline
  3
AutoCAD 2000
 90
    32768
280
     0
281
     1
  0
CLASS
  1
IMAGE
  2
AcDbRasterImage
  3
ISM
 90
    32895
280
     0
281
     1
  0
CLASS
  1
OLE2FRAME
  2
AcDbOle2Frame
  3
AutoCAD 2000
 90
    32768
280
     0
281
     1
  0
CLASS
  1
HATCH
  2
AcDbHatch
  3
AutoCAD 2000
 90
    32768
280
     0
281
     1
  0
CLASS
  1
DICTIONARYVAR
  2
AcDbDictionaryVar
  3
AutoCAD 2000
 90
    32768
280
     0
281
     0
  0
CLASS
  1
RASTERVARIABLES
  2
AcDbRasterVariables
  3
ISM
 90
    32768
280
     0
281
     0
  0
CLASS
  1
IMAGEDEF
  2
AcDbRasterImageDef
  3
ISM
 90
    32768
280
     0
281
     0
  0
CLASS
  1
IMAGEDEF_REACTOR
  2
AcDbRasterImageDefReactor
  3
ISM
 90
    32769
280
     0
281
     0
  0
CLASS
  1
IDBUFFER
  2
AcDbIdBuffer
  3
AutoCAD 2000
 90
    32768
280
     0
281
     0
  0
CLASS
  1
SPATIAL_FILTER
  2
AcDbSpatialFilter
  3
AutoCAD 2000
 90
    32768
280
     0
281
     0
  0
CLASS
  1
XRECORD
  2
AcDbXrecord
  3
AutoCAD 2000
 90
    32768
280
     0
281
     0
  0
CLASS
  1
SORTENTSTABLE
  2
AcDbSortentsTable
  3
AutoCAD 2000
 90
    32768
280
     0
281
     0
  0
CLASS
  1
LAYER_INDEX
  2
AcDbLayerIndex
  3
AutoCAD 2000
 90
    32768
280
     0
281
     0
  0
CLASS
  1
SPATIAL_INDEX
  2
AcDbSpatialIndex
  3
AutoCAD 2000
 90
    32768
280
     0
281
     0
  0
CLASS
  1
OBJECT_PTR
  2
CAseDLPNTableRecord
  3
\"ASE-LPNTableRecord\"
 90
    32769
280
     0
281
     0
  0
CLASS
  1
LAYOUT
  2
AcDbLayout
  3
AutoCAD 2000
 90
        0
280
     0
281
     0
  0
CLASS
  1
PLOTSETTINGS
  2
AcDbPlotSettings
  3
AutoCAD 2000
 90
    32768
280
     0
281
     0
  0
CLASS
  1
ACDBDICTIONARYWDFLT
  2
AcDbDictionaryWithDefault
  3
AutoCAD 2000
 90
        0
280
     0
281
     0
  0
CLASS
  1
ACDBPLACEHOLDER
  2
AcDbPlaceHolder
  3
AutoCAD 2000
 90
        0
280
     0
281
     0
  0
CLASS
  1
VBA_PROJECT
  2
AcDbVbaProject
  3
acadvba
 90
    32768
280
     0
281
     0
  0
CLASS
  1
WIPEOUT
  2
AcDbWipeout
  3
WipeOut|AutoCAD Express Tool|expresstools@autodesk.com
 90
    32895
280
     0
281
     1
  0
CLASS
  1
WIPEOUTVARIABLES
  2
AcDbWipeoutVariables
  3
WipeOut|AutoCAD Express Tool|expresstools@autodesk.com
 90
        0
280
     0
281
     0
  0
CLASS
  1
RTEXT
  2
RText
  3
RText|AutoCAD Express Tool|expresstools@autodesk.com
 90
    32768
280
     0
281
     1
  0
CLASS
  1
ARCALIGNEDTEXT
  2
AcDbArcAlignedText
  3
ATEXT|AutoCAD Express Tool|expresstools@autodesk.com
 90
    32768
280
     0
281
     1
  0
ENDSEC
  0
SECTION
  2
TABLES
  0
TABLE
  2
VPORT
  5
7
100
AcDbSymbolTable
 70
     1
  0
VPORT
  5
15
100
AcDbSymbolTableRecord
100
AcDbViewportTableRecord
  2
*ACTIVE
 70
     0
 10
0.0
 20
0.0
 11
1.0
 21
1.0
 12
6.591288
 22
4.579184
 13
0.0
 23
0.0
 14
1.0
 24
1.0
 15
0.0
 25
0.0
 16
0.0
 26
0.0
 36
1.0
 17
0.0
 27
0.0
 37
0.0
 40
9.158369
 41
0.688564
 42
50.0
 43
0.0
 44
0.0
 50
0.0
 51
0.0
 71
     0
 72
   100
 73
     1
 74
     1
 75
     0
 76
     0
 77
     0
 78
     0
281
     0
 65
     0
110
0.0
120
0.0
130
0.0
111
1.0
121
0.0
131
0.0
112
0.0
122
1.0
132
0.0
345
0
346
0
 79
     0
146
0.0
  0
ENDTAB
  0
TABLE
  2
LTYPE
  5
4
100
AcDbSymbolTable
 70
     3
  0
LTYPE
  5
11
100
AcDbSymbolTableRecord
100
AcDbLinetypeTableRecord
  2
ByBlock
 70
    64
  3

 72
    65
 73
     0
 40
0.0
  0
LTYPE
  5
12
100
AcDbSymbolTableRecord
100
AcDbLinetypeTableRecord
  2
ByLayer
 70
    64
  3

 72
    65
 73
     0
 40
0.0
  0
LTYPE
  5
13
100
AcDbSymbolTableRecord
100
AcDbLinetypeTableRecord
  2
Continuous
 70
    64
  3
Solid line
 72
    65
 73
     0
 40
0.0
  0
ENDTAB
  0
TABLE
  2
LAYER
  5
2
100
AcDbSymbolTable
 70
     2
  0
LAYER
  5
14
100
AcDbSymbolTableRecord
100
AcDbLayerTableRecord
  2
0
 70
     0
 62
     7
  6
Continuous
290
     1
370
    -3
390
1D
  0
LAYER
  5
24
100
AcDbSymbolTableRecord
100
AcDbLayerTableRecord
  2
Ebene 1
 70
     0
 62
     7
  6
Continuous
290
     1
370
    -3
390
1F
  0
ENDTAB
  0
TABLE
  2
STYLE
  5
3
100
AcDbSymbolTable
 70
     1
  0
STYLE
  5
17
100
AcDbSymbolTableRecord
100
AcDbTextStyleTableRecord
  2
Standard
 70
     0
 40
0.0
 41
1.0
 50
0.0
 71
     0
 42
0.0
  3
txt
  4

  0
ENDTAB
  0
TABLE
  2
VIEW
  5
5
100
AcDbSymbolTable
 70
     0
  0
ENDTAB
  0
TABLE
  2
UCS
  5
6
100
AcDbSymbolTable
 70
     0
  0
ENDTAB
  0
TABLE
  2
APPID
  5
8
100
AcDbSymbolTable
 70
     1
  0
APPID
  5
16
100
AcDbSymbolTableRecord
100
AcDbRegAppTableRecord
  2
ACAD
 70
     0
  0
ENDTAB
  0
TABLE
  2
DIMSTYLE
  5
9
100
AcDbSymbolTable
 70
     1
100
AcDbDimStyleTable
 71
     0
  0
DIMSTYLE
105
18
100
AcDbSymbolTableRecord
100
AcDbDimStyleTableRecord
  2
Standard
 70
     0
  3

  4

 40
1.0
 41
0.18
 42
0.0625
 43
0.38
 44
0.18
 45
0.0
 46
0.0
 47
0.0
 48
0.0
 71
     0
 72
     0
 73
     1
 74
     1
 75
     0
 76
     0
 77
     0
 78
     0
 79
     0
140
0.18
141
0.09
142
0.0
143
25.4
144
1.0
145
0.0
146
1.0
147
0.09
148
0.0
170
     0
171
     2
172
     0
173
     0
174
     0
175
     0
176
     0
177
     0
178
     0
179
     0
271
     4
272
     4
273
     2
274
     2
275
     0
276
     0
277
     2
278
    46
279
     0
280
     0
281
     0
282
     0
283
     1
284
     0
285
     0
286
     0
288
     0
340
17
341
0
342
0
343
0
344
0
371
    -2
372
    -2
  0
ENDTAB
  0
TABLE
  2
BLOCK_RECORD
  5
1
100
AcDbSymbolTable
 70
     0
  0
BLOCK_RECORD
  5
A
100
AcDbSymbolTableRecord
100
AcDbBlockTableRecord
  2
*MODEL_SPACE
340
20
  0
BLOCK_RECORD
  5
B
100
AcDbSymbolTableRecord
100
AcDbBlockTableRecord
  2
*PAPER_SPACE
340
21
  0
ENDTAB
  0
ENDSEC
  0
SECTION
  2
BLOCKS
  0
BLOCK
  5
D
100
AcDbEntity
  8
0
100
AcDbBlockBegin
  2
*MODEL_SPACE
 70
     0
 10
0.0
 20
0.0
 30
0.0
  3
*MODEL_SPACE
  1

  0
ENDBLK
  5
E
100
AcDbEntity
  8
0
100
AcDbBlockEnd
  0
BLOCK
  5
F
100
AcDbEntity
 67
     1
  8
0
100
AcDbBlockBegin
  2
*PAPER_SPACE
 70
     0
 10
0.0
 20
0.0
 30
0.0
  3
*PAPER_SPACE
  1

  0
ENDBLK
  5
10
100
AcDbEntity
 67
     1
  8
0
100
AcDbBlockEnd
  0
ENDSEC
  0
SECTION
  2
ENTITIES
  0
SPLINE
  5
25
100
AcDbEntity
  8
Ebene 1
 62
     0
100
AcDbSpline
210
0.0
220
0.0
230
1.0
 70
     1
 71
     3
 72
   116
 73
   112
 74
     0
 42
0.0000000001
 43
0.0000000001
 40
0.0
 40
0.0
 40
0.0
 40
0.0
 40
0.0357142857142857
 40
0.0357142857142857
 40
0.0357142857142857
 40
0.0357142857142857
 40
0.0714285714285714
 40
0.0714285714285714
 40
0.0714285714285714
 40
0.0714285714285714
 40
0.1071428571428571
 40
0.1071428571428571
 40
0.1071428571428571
 40
0.1071428571428571
 40
0.1428571428571429
 40
0.1428571428571429
 40
0.1428571428571429
 40
0.1428571428571429
 40
0.1785714285714286
 40
0.1785714285714286
 40
0.1785714285714286
 40
0.1785714285714286
 40
0.2142857142857143
 40
0.2142857142857143
 40
0.2142857142857143
 40
0.2142857142857143
 40
0.2499999999999999
 40
0.2499999999999999
 40
0.2499999999999999
 40
0.2499999999999999
 40
0.2857142857142856
 40
0.2857142857142856
 40
0.2857142857142856
 40
0.2857142857142856
 40
0.3214285714285713
 40
0.3214285714285713
 40
0.3214285714285713
 40
0.3214285714285713
 40
0.357142857142857
 40
0.357142857142857
 40
0.357142857142857
 40
0.357142857142857
 40
0.3928571428571427
 40
0.3928571428571427
 40
0.3928571428571427
 40
0.3928571428571427
 40
0.4285714285714284
 40
0.4285714285714284
 40
0.4285714285714284
 40
0.4285714285714284
 40
0.4642857142857141
 40
0.4642857142857141
 40
0.4642857142857141
 40
0.4642857142857141
 40
0.4999999999999998
 40
0.4999999999999998
 40
0.4999999999999998
 40
0.4999999999999998
 40
0.5357142857142856
 40
0.5357142857142856
 40
0.5357142857142856
 40
0.5357142857142856
 40
0.5714285714285713
 40
0.5714285714285713
 40
0.5714285714285713
 40
0.5714285714285713
 40
0.607142857142857
 40
0.607142857142857
 40
0.607142857142857
 40
0.607142857142857
 40
0.6428571428571427
 40
0.6428571428571427
 40
0.6428571428571427
 40
0.6428571428571427
 40
0.6785714285714284
 40
0.6785714285714284
 40
0.6785714285714284
 40
0.6785714285714284
 40
0.7142857142857141
 40
0.7142857142857141
 40
0.7142857142857141
 40
0.7142857142857141
 40
0.7499999999999998
 40
0.7499999999999998
 40
0.7499999999999998
 40
0.7499999999999998
 40
0.7857142857142855
 40
0.7857142857142855
 40
0.7857142857142855
 40
0.7857142857142855
 40
0.8214285714285712
 40
0.8214285714285712
 40
0.8214285714285712
 40
0.8214285714285712
 40
0.8571428571428569
 40
0.8571428571428569
 40
0.8571428571428569
 40
0.8571428571428569
 40
0.8928571428571426
 40
0.8928571428571426
 40
0.8928571428571426
 40
0.8928571428571426
 40
0.9285714285714283
 40
0.9285714285714283
 40
0.9285714285714283
 40
0.9285714285714283
 40
0.964285714285714
 40
0.964285714285714
 40
0.964285714285714
 40
0.964285714285714
 40
1.0
 40
1.0
 40
1.0
 40
1.0
 10
-6.4558500000000008
 20
0.9340700000000001
 30
0.0
 10
-6.6377800000000002
 20
1.01346
 30
0.0
 10
-6.6179300000000003
 20
0.7554500000000001
 30
0.0
 10
-6.4955400000000001
 20
0.7124400000000001
 30
0.0
 10
-6.4955400000000001
 20
0.7124400000000001
 30
0.0
 10
-6.3731500000000008
 20
0.7157600000000001
 30
0.0
 10
-6.4591500000000002
 20
0.8613000000000001
 30
0.0
 10
-6.4558500000000008
 20
0.9340700000000001
 30
0.0
 10
-6.4558500000000008
 20
0.9340700000000001
 30
0.0
 10
-6.3103000000000007
 20
0.8613000000000001
 30
0.0
 10
-6.4359900000000003
 20
0.5172800000000001
 30
0.0
 10
-6.2176800000000005
 20
0.65951
 30
0.0
 10
-6.2176800000000005
 20
0.65951
 30
0.0
 10
-6.4161500000000009
 20
0.39489
 30
0.0
 10
-6.1052100000000005
 20
0.27581
 30
0.0
 10
-6.3069900000000008
 20
0.05748
 30
0.0
 10
-6.3069900000000008
 20
0.05748
 30
0.0
 10
-6.1449100000000003
 20
-0.02853
 30
0.0
 10
-6.0589000000000004
 20
-0.00206
 30
0.0
 10
-6.1879100000000005
 20
-0.21706
 30
0.0
 10
-6.1879100000000005
 20
-0.21706
 30
0.0
 10
-5.8538000000000006
 20
-0.38245
 30
0.0
 10
-6.4757000000000007
 20
-0.6404800000000001
 30
0.0
 10
-6.4657800000000005
 20
-0.38245
 30
0.0
 10
-6.4657800000000005
 20
-0.38245
 30
0.0
 10
-6.6245500000000002
 20
-0.4519300000000001
 30
0.0
 10
-6.6807900000000009
 20
-0.43868
 30
0.0
 10
-6.6807900000000009
 20
-0.28321
 30
0.0
 10
-6.6807900000000009
 20
-0.28321
 30
0.0
 10
-6.7667900000000003
 20
-0.2733
 30
0.0
 10
-6.8891800000000005
 20
-0.25014
 30
0.0
 10
-6.918940000000001
 20
-0.35269
 30
0.0
 10
-6.918940000000001
 20
-0.35269
 30
0.0
 10
-6.9983400000000007
 20
-0.5247000000000001
 30
0.0
 10
-6.8031800000000002
 20
-0.45523
 30
0.0
 10
-6.7204800000000002
 20
-0.46846
 30
0.0
 10
-6.7204800000000002
 20
-0.46846
 30
0.0
 10
-6.8329500000000003
 20
-0.5710000000000001
 30
0.0
 10
-6.8329500000000003
 20
-0.8422600000000001
 30
0.0
 10
-6.6510000000000007
 20
-0.6900900000000001
 30
0.0
 10
-6.6510000000000007
 20
-0.6900900000000001
 30
0.0
 10
-6.6907100000000002
 20
-0.7860200000000001
 30
0.0
 10
-6.7601700000000005
 20
-0.8984900000000001
 30
0.0
 10
-6.8693300000000006
 20
-0.9381700000000001
 30
0.0
 10
-6.8693300000000006
 20
-0.9381700000000001
 30
0.0
 10
-6.8759500000000005
 20
-0.8852600000000001
 30
0.0
 10
-6.8097900000000005
 20
-0.73309
 30
0.0
 10
-6.9156500000000003
 20
-0.7628700000000001
 30
0.0
 10
-6.9156500000000003
 20
-0.7628700000000001
 30
0.0
 10
-7.2265800000000002
 20
-0.9911000000000001
 30
0.0
 10
-7.0678100000000006
 20
-0.70994
 30
0.0
 10
-7.084340000000001
 20
-0.5313100000000001
 30
0.0
 10
-7.084340000000001
 20
-0.5313100000000001
 30
0.0
 10
-7.2133500000000002
 20
-0.42877
 30
0.0
 10
-7.1438900000000007
 20
-0.24683
 30
0.0
 10
-7.3985900000000004
 20
-0.34277
 30
0.0
 10
-7.3985900000000004
 20
-0.34277
 30
0.0
 10
-7.4052100000000003
 20
-0.50815
 30
0.0
 10
-7.4283600000000005
 20
-0.7694800000000001
 30
0.0
 10
-7.1835700000000005
 20
-0.76617
 30
0.0
 10
-7.1835700000000005
 20
-0.76617
 30
0.0
 10
-7.1835700000000005
 20
-0.76617
 30
0.0
 10
-7.3026700000000009
 20
-0.87202
 30
0.0
 10
-7.3026700000000009
 20
-0.87202
 30
0.0
 10
-7.3026700000000009
 20
-0.87202
 30
0.0
 10
-7.4912100000000006
 20
-0.8025600000000001
 30
0.0
 10
-7.4349800000000004
 20
-0.4585300000000001
 30
0.0
 10
-7.6301500000000004
 20
-0.5809200000000001
 30
0.0
 10
-7.6301500000000004
 20
-0.5809200000000001
 30
0.0
 10
-7.5309100000000004
 20
-0.4916100000000001
 30
0.0
 10
-7.6268400000000005
 20
-0.37253
 30
0.0
 10
-7.706220000000001
 20
-0.29313
 30
0.0
 10
-7.706220000000001
 20
-0.29313
 30
0.0
 10
-7.5673000000000004
 20
-0.2303
 30
0.0
 10
-7.5110600000000005
 20
-0.08144
 30
0.0
 10
-7.4151300000000004
 20
0.06409
 30
0.0
 10
-7.4151300000000004
 20
0.06409
 30
0.0
 10
-7.3522900000000009
 20
-0.00867
 30
0.0
 10
-7.4217500000000003
 20
-0.21375
 30
0.0
 10
-7.2563500000000003
 20
-0.20714
 30
0.0
 10
-7.2563500000000003
 20
-0.20714
 30
0.0
 10
-6.9156500000000003
 20
0.01779
 30
0.0
 10
-7.4978400000000009
 20
0.13026
 30
0.0
 10
-7.6400700000000006
 20
0.22618
 30
0.0
 10
-7.6400700000000006
 20
0.22618
 30
0.0
 10
-7.6400700000000006
 20
0.22618
 30
0.0
 10
-7.4746800000000002
 20
0.3717200000000001
 30
0.0
 10
-7.4746800000000002
 20
0.3717200000000001
 30
0.0
 10
-7.4746800000000002
 20
0.3717200000000001
 30
0.0
 10
-7.4482100000000004
 20
-0.04837
 30
0.0
 10
-6.842880000000001
 20
0.16664
 30
0.0
 10
-7.3026700000000009
 20
0.36842
 30
0.0
 10
-7.3026700000000009
 20
0.36842
 30
0.0
 10
-7.1041900000000009
 20
0.4941100000000001
 30
0.0
 10
-7.3225200000000008
 20
0.6099
 30
0.0
 10
-7.4184300000000007
 20
0.69591
 30
0.0
 10
-7.4184300000000007
 20
0.69591
 30
0.0
 10
-7.3489700000000004
 20
0.7885300000000001
 30
0.0
 10
-7.2762000000000002
 20
0.61651
 30
0.0
 10
-7.1802800000000007
 20
0.66283
 30
0.0
 10
-7.1802800000000007
 20
0.66283
 30
0.0
 10
-7.262970000000001
 20
1.10609
 30
0.0
 10
-6.8097900000000005
 20
0.84806
 30
0.0
 10
-6.710560000000001
 20
1.16232
 30
0.0
 10
-6.710560000000001
 20
1.16232
 30
0.0
 10
-6.6510000000000007
 20
0.8778400000000001
 30
0.0
 10
-6.5120800000000001
 20
1.23509
 30
0.0
 10
-6.3797700000000006
 20
1.06308
 30
0.0
 10
-6.3797700000000006
 20
1.06308
 30
0.0
 10
-6.3797700000000006
 20
1.06308
 30
0.0
 10
-6.4558500000000008
 20
0.9340700000000001
 30
0.0
 10
-6.4558500000000008
 20
0.9340700000000001
 30
0.0
  0
SPLINE
  5
26
100
AcDbEntity
  8
Ebene 1
 62
     0
100
AcDbSpline
210
0.0
220
0.0
230
1.0
 70
     1
 71
     3
 72
    12
 73
     8
 74
     0
 42
0.0000000001
 43
0.0000000001
 40
0.0
 40
0.0
 40
0.0
 40
0.0
 40
0.5
 40
0.5
 40
0.5
 40
0.5
 40
1.0
 40
1.0
 40
1.0
 40
1.0
 10
-6.8296300000000008
 20
0.8513700000000001
 30
0.0
 10
-6.8296300000000008
 20
0.91422
 30
0.0
 10
-6.7833200000000007
 20
1.0035500000000002
 30
0.0
 10
-6.7138600000000004
 20
0.9539200000000001
 30
0.0
 10
-6.7138600000000004
 20
0.9539200000000001
 30
0.0
 10
-6.6940100000000005
 20
0.8844500000000001
 30
0.0
 10
-6.7634700000000008
 20
0.76868
 30
0.0
 10
-6.8296300000000008
 20
0.8513700000000001
 30
0.0
  0
SPLINE
  5
27
100
AcDbEntity
  8
Ebene 1
 62
     0
100
AcDbSpline
210
0.0
220
0.0
230
1.0
 70
     1
 71
     3
 72
    12
 73
     8
 74
     0
 42
0.0000000001
 43
0.0000000001
 40
0.0
 40
0.0
 40
0.0
 40
0.0
 40
0.5
 40
0.5
 40
0.5
 40
0.5
 40
1.0
 40
1.0
 40
1.0
 40
1.0
 10
-6.8296300000000008
 20
0.8513700000000001
 30
0.0
 10
-6.8296300000000008
 20
0.91422
 30
0.0
 10
-6.7833200000000007
 20
1.0035500000000002
 30
0.0
 10
-6.7138600000000004
 20
0.9539200000000001
 30
0.0
 10
-6.7138600000000004
 20
0.9539200000000001
 30
0.0
 10
-6.6940100000000005
 20
0.8844500000000001
 30
0.0
 10
-6.7634700000000008
 20
0.76868
 30
0.0
 10
-6.8296300000000008
 20
0.8513700000000001
 30
0.0
  0
SPLINE
  5
28
100
AcDbEntity
  8
Ebene 1
 62
     0
100
AcDbSpline
210
0.0
220
0.0
230
1.0
 70
     1
 71
     3
 72
    20
 73
    16
 74
     0
 42
0.0000000001
 43
0.0000000001
 40
0.0
 40
0.0
 40
0.0
 40
0.0
 40
0.25
 40
0.25
 40
0.25
 40
0.25
 40
0.5
 40
0.5
 40
0.5
 40
0.5
 40
0.75
 40
0.75
 40
0.75
 40
0.75
 40
1.0
 40
1.0
 40
1.0
 40
1.0
 10
-7.0115700000000007
 20
-1.13005
 30
0.0
 10
-7.0115700000000007
 20
-1.13005
 30
0.0
 10
-6.9718700000000009
 20
-1.03742
 30
0.0
 10
-6.9718700000000009
 20
-1.03742
 30
0.0
 10
-6.9718700000000009
 20
-1.03742
 30
0.0
 10
-6.9718700000000009
 20
-1.03742
 30
0.0
 10
-6.8891800000000005
 20
-0.9845
 30
0.0
 10
-6.8891800000000005
 20
-0.9845
 30
0.0
 10
-6.8891800000000005
 20
-0.9845
 30
0.0
 10
-6.8891800000000005
 20
-0.9845
 30
0.0
 10
-6.9255700000000004
 20
-1.1995100000000001
 30
0.0
 10
-6.9255700000000004
 20
-1.1995100000000001
 30
0.0
 10
-6.9255700000000004
 20
-1.1995100000000001
 30
0.0
 10
-6.9255700000000004
 20
-1.1995100000000001
 30
0.0
 10
-7.0115700000000007
 20
-1.13005
 30
0.0
 10
-7.0115700000000007
 20
-1.13005
 30
0.0
  0
SPLINE
  5
29
100
AcDbEntity
  8
Ebene 1
 62
     0
100
AcDbSpline
210
0.0
220
0.0
230
1.0
 70
     1
 71
     3
 72
    12
 73
     8
 74
     0
 42
0.0000000001
 43
0.0000000001
 40
0.0
 40
0.0
 40
0.0
 40
0.0
 40
0.5
 40
0.5
 40
0.5
 40
0.5
 40
1.0
 40
1.0
 40
1.0
 40
1.0
 10
-6.4558500000000008
 20
0.9340700000000001
 30
0.0
 10
-6.4591500000000002
 20
0.8613000000000001
 30
0.0
 10
-6.3731500000000008
 20
0.7157600000000001
 30
0.0
 10
-6.4955400000000001
 20
0.7124400000000001
 30
0.0
 10
-6.4955400000000001
 20
0.7124400000000001
 30
0.0
 10
-6.6179300000000003
 20
0.7554500000000001
 30
0.0
 10
-6.6377800000000002
 20
1.01346
 30
0.0
 10
-6.4558500000000008
 20
0.9340700000000001
 30
0.0
  0
SPLINE
  5
2A
100
AcDbEntity
  8
Ebene 1
 62
     0
100
AcDbSpline
210
0.0
220
0.0
230
1.0
 70
     1
 71
     3
 72
   116
 73
   112
 74
     0
 42
0.0000000001
 43
0.0000000001
 40
0.0
 40
0.0
 40
0.0
 40
0.0
 40
0.0357142857142857
 40
0.0357142857142857
 40
0.0357142857142857
 40
0.0357142857142857
 40
0.0714285714285714
 40
0.0714285714285714
 40
0.0714285714285714
 40
0.0714285714285714
 40
0.1071428571428571
 40
0.1071428571428571
 40
0.1071428571428571
 40
0.1071428571428571
 40
0.1428571428571429
 40
0.1428571428571429
 40
0.1428571428571429
 40
0.1428571428571429
 40
0.1785714285714286
 40
0.1785714285714286
 40
0.1785714285714286
 40
0.1785714285714286
 40
0.2142857142857143
 40
0.2142857142857143
 40
0.2142857142857143
 40
0.2142857142857143
 40
0.2499999999999999
 40
0.2499999999999999
 40
0.2499999999999999
 40
0.2499999999999999
 40
0.2857142857142856
 40
0.2857142857142856
 40
0.2857142857142856
 40
0.2857142857142856
 40
0.3214285714285713
 40
0.3214285714285713
 40
0.3214285714285713
 40
0.3214285714285713
 40
0.357142857142857
 40
0.357142857142857
 40
0.357142857142857
 40
0.357142857142857
 40
0.3928571428571427
 40
0.3928571428571427
 40
0.3928571428571427
 40
0.3928571428571427
 40
0.4285714285714284
 40
0.4285714285714284
 40
0.4285714285714284
 40
0.4285714285714284
 40
0.4642857142857141
 40
0.4642857142857141
 40
0.4642857142857141
 40
0.4642857142857141
 40
0.4999999999999998
 40
0.4999999999999998
 40
0.4999999999999998
 40
0.4999999999999998
 40
0.5357142857142856
 40
0.5357142857142856
 40
0.5357142857142856
 40
0.5357142857142856
 40
0.5714285714285713
 40
0.5714285714285713
 40
0.5714285714285713
 40
0.5714285714285713
 40
0.607142857142857
 40
0.607142857142857
 40
0.607142857142857
 40
0.607142857142857
 40
0.6428571428571427
 40
0.6428571428571427
 40
0.6428571428571427
 40
0.6428571428571427
 40
0.6785714285714284
 40
0.6785714285714284
 40
0.6785714285714284
 40
0.6785714285714284
 40
0.7142857142857141
 40
0.7142857142857141
 40
0.7142857142857141
 40
0.7142857142857141
 40
0.7499999999999998
 40
0.7499999999999998
 40
0.7499999999999998
 40
0.7499999999999998
 40
0.7857142857142855
 40
0.7857142857142855
 40
0.7857142857142855
 40
0.7857142857142855
 40
0.8214285714285712
 40
0.8214285714285712
 40
0.8214285714285712
 40
0.8214285714285712
 40
0.8571428571428569
 40
0.8571428571428569
 40
0.8571428571428569
 40
0.8571428571428569
 40
0.8928571428571426
 40
0.8928571428571426
 40
0.8928571428571426
 40
0.8928571428571426
 40
0.9285714285714283
 40
0.9285714285714283
 40
0.9285714285714283
 40
0.9285714285714283
 40
0.964285714285714
 40
0.964285714285714
 40
0.964285714285714
 40
0.964285714285714
 40
1.0
 40
1.0
 40
1.0
 40
1.0
 10
-0.87543
 20
12.80278
 30
0.0
 10
-0.8092800000000001
 20
12.981400000000001
 30
0.0
 10
-0.60419
 20
13.070720000000001
 30
0.0
 10
-0.53471
 20
13.249340000000002
 30
0.0
 10
-0.53471
 20
13.249340000000002
 30
0.0
 10
-0.74643
 20
13.179880000000001
 30
0.0
 10
-0.8820400000000001
 20
12.951620000000002
 30
0.0
 10
-1.0507600000000001
 20
12.78955
 30
0.0
 10
-1.0507600000000001
 20
12.78955
 30
0.0
 10
-1.20953
 20
12.776300000000001
 30
0.0
 10
-1.1599000000000002
 20
12.829230000000001
 30
0.0
 10
-1.2029100000000001
 20
12.941700000000001
 30
0.0
 10
-1.2029100000000001
 20
12.941700000000001
 30
0.0
 10
-2.6943600000000001
 20
11.718160000000001
 30
0.0
 10
-3.7659100000000003
 20
10.83347
 30
0.0
 10
-4.1849500000000006
 20
9.2982300000000002
 30
0.0
 10
-4.1849500000000006
 20
9.2982300000000002
 30
0.0
 10
-4.1604000000000001
 20
9.41737
 30
0.0
 10
-4.1406499999999999
 20
9.5361000000000011
 30
0.0
 10
-4.1270899999999999
 20
9.6536600000000004
 30
0.0
 10
-4.1270899999999999
 20
9.6536600000000004
 30
0.0
 10
-4.7588900000000001
 20
8.2676500000000015
 30
0.0
 10
-5.1889100000000008
 20
6.7460300000000002
 30
0.0
 10
-5.5660300000000005
 20
5.2773300000000001
 30
0.0
 10
-5.5660300000000005
 20
5.2773300000000001
 30
0.0
 10
-5.4767000000000001
 20
5.2607800000000005
 30
0.0
 10
-5.66195
 20
4.9366100000000008
 30
0.0
 10
-5.5097800000000001
 20
5.0358500000000008
 30
0.0
 10
-5.5097800000000001
 20
5.0358500000000008
 30
0.0
 10
-5.23855
 20
6.1671500000000004
 30
0.0
 10
-4.7688200000000007
 20
7.1562100000000006
 30
0.0
 10
-4.5935100000000002
 20
8.3437400000000004
 30
0.0
 10
-4.5935100000000002
 20
8.3437400000000004
 30
0.0
 10
-4.5769600000000006
 20
8.3635900000000003
 30
0.0
 10
-4.5604300000000002
 20
8.3834400000000002
 30
0.0
 10
-4.5604300000000002
 20
8.4231200000000008
 30
0.0
 10
-4.5604300000000002
 20
8.4231200000000008
 30
0.0
 10
-4.5604300000000002
 20
8.4231200000000008
 30
0.0
 10
-4.4942600000000006
 20
8.4959000000000007
 30
0.0
 10
-4.4942600000000006
 20
8.4959000000000007
 30
0.0
 10
-4.4942600000000006
 20
8.4959000000000007
 30
0.0
 10
-4.4777200000000006
 20
8.3668900000000015
 30
0.0
 10
-4.6001100000000008
 20
8.241200000000001
 30
0.0
 10
-4.5471900000000005
 20
8.1055600000000005
 30
0.0
 10
-4.5471900000000005
 20
8.1055600000000005
 30
0.0
 10
-4.4430200000000006
 20
8.3877800000000011
 30
0.0
 10
-4.3399200000000002
 20
8.6852100000000014
 30
0.0
 10
-4.2596500000000006
 20
8.9847600000000014
 30
0.0
 10
-4.2596500000000006
 20
8.9847600000000014
 30
0.0
 10
-4.3033200000000003
 20
8.7710300000000014
 30
0.0
 10
-4.33535
 20
8.5448200000000014
 30
0.0
 10
-4.3553300000000004
 20
8.3040400000000005
 30
0.0
 10
-4.3553300000000004
 20
8.3040400000000005
 30
0.0
 10
-4.1006200000000002
 20
8.9557000000000002
 30
0.0
 10
-3.9286200000000004
 20
9.6602800000000002
 30
0.0
 10
-3.5713700000000004
 20
10.25239
 30
0.0
 10
-3.5713700000000004
 20
10.25239
 30
0.0
 10
-3.5713700000000004
 20
10.25239
 30
0.0
 10
-3.6176800000000005
 20
10.02745
 30
0.0
 10
-3.6176800000000005
 20
10.02745
 30
0.0
 10
-3.6176800000000005
 20
10.02745
 30
0.0
 10
-3.3298900000000002
 20
10.3384
 30
0.0
 10
-2.9825600000000003
 20
10.824660000000002
 30
0.0
 10
-2.7113100000000001
 20
11.221590000000001
 30
0.0
 10
-2.7113100000000001
 20
11.221590000000001
 30
0.0
 10
-2.6782300000000001
 20
11.152130000000001
 30
0.0
 10
-2.8734000000000002
 20
10.870970000000002
 30
0.0
 10
-2.7080100000000003
 20
10.90404
 30
0.0
 10
-2.7080100000000003
 20
10.90404
 30
0.0
 10
-2.6219900000000003
 20
11.01651
 30
0.0
 10
-2.5690700000000004
 20
11.17529
 30
0.0
 10
-2.4400700000000004
 20
11.238150000000001
 30
0.0
 10
-2.4400700000000004
 20
11.238150000000001
 30
0.0
 10
-2.4400700000000004
 20
11.238150000000001
 30
0.0
 10
-2.22505
 20
11.539160000000001
 30
0.0
 10
-2.22505
 20
11.539160000000001
 30
0.0
 10
-2.22505
 20
11.539160000000001
 30
0.0
 10
-2.22505
 20
11.539160000000001
 30
0.0
 10
-2.2184400000000002
 20
11.32746
 30
0.0
 10
-2.2184400000000002
 20
11.32746
 30
0.0
 10
-2.2184400000000002
 20
11.32746
 30
0.0
 10
-3.5515100000000004
 20
9.8488400000000009
 30
0.0
 10
-4.4115600000000006
 20
8.042720000000001
 30
0.0
 10
-4.8415900000000001
 20
6.1009900000000004
 30
0.0
 10
-4.8415900000000001
 20
6.1009900000000004
 30
0.0
 10
-5.4899400000000007
 20
4.73813
 30
0.0
 10
-5.6454200000000005
 20
3.7358500000000001
 30
0.0
 10
-5.8405800000000001
 20
2.4060800000000002
 30
0.0
 10
-5.8405800000000001
 20
2.4060800000000002
 30
0.0
 10
-5.8935000000000004
 20
2.9188000000000001
 30
0.0
 10
-5.8471900000000003
 20
3.4778500000000001
 30
0.0
 10
-5.8405800000000001
 20
4.0005000000000006
 30
0.0
 10
-5.8405800000000001
 20
4.0005000000000006
 30
0.0
 10
-5.7711100000000002
 20
5.5419500000000008
 30
0.0
 10
-5.5329500000000005
 20
7.1595000000000004
 30
0.0
 10
-5.1856200000000001
 20
8.6745200000000011
 30
0.0
 10
-5.1856200000000001
 20
8.6745200000000011
 30
0.0
 10
-5.1293800000000003
 20
8.3503600000000002
 30
0.0
 10
-5.2186900000000005
 20
7.8839500000000005
 30
0.0
 10
-5.15585
 20
7.619320000000001
 30
0.0
 10
-5.15585
 20
7.619320000000001
 30
0.0
 10
-5.1194500000000005
 20
10.216010000000001
 30
0.0
 10
-3.0189500000000002
 20
11.879880000000002
 30
0.0
 10
-1.3319300000000001
 20
13.550360000000001
 30
0.0
 10
-1.3319300000000001
 20
13.550360000000001
 30
0.0
 10
-0.77288
 20
13.709130000000002
 30
0.0
 10
-0.18077
 20
13.504040000000002
 30
0.0
 10
0.3021700000000001
 20
13.2361
 30
0.0
 10
0.3021700000000001
 20
13.2361
 30
0.0
 10
-0.06169
 20
13.024400000000002
 30
0.0
 10
-0.57442
 20
13.216260000000002
 30
0.0
 10
-0.87543
 20
12.80278
 30
0.0
  0
SPLINE
  5
2B
100
AcDbEntity
  8
Ebene 1
 62
     0
100
AcDbSpline
210
0.0
220
0.0
230
1.0
 70
     1
 71
     3
 72
    12
 73
     8
 74
     0
 42
0.0000000001
 43
0.0000000001
 40
0.0
 40
0.0
 40
0.0
 40
0.0
 40
0.5
 40
0.5
 40
0.5
 40
0.5
 40
1.0
 40
1.0
 40
1.0
 40
1.0
 10
-6.8131000000000004
 20
-1.2028100000000002
 30
0.0
 10
-6.7733900000000009
 20
-1.0738100000000002
 30
0.0
 10
-6.6146200000000004
 20
-1.1234200000000001
 30
0.0
 10
-6.6576300000000002
 20
-1.2458100000000001
 30
0.0
 10
-6.6576300000000002
 20
-1.2458100000000001
 30
0.0
 10
-6.6576300000000002
 20
-1.2458100000000001
 30
0.0
 10
-6.8131000000000004
 20
-1.2028100000000002
 30
0.0
 10
-6.8131000000000004
 20
-1.2028100000000002
 30
0.0
  0
SPLINE
  5
2C
100
AcDbEntity
  8
Ebene 1
 62
     0
100
AcDbSpline
210
0.0
220
0.0
230
1.0
 70
     1
 71
     3
 72
    24
 73
    20
 74
     0
 42
0.0000000001
 43
0.0000000001
 40
0.0
 40
0.0
 40
0.0
 40
0.0
 40
0.2
 40
0.2
 40
0.2
 40
0.2
 40
0.4
 40
0.4
 40
0.4
 40
0.4
 40
0.6000000000000001
 40
0.6000000000000001
 40
0.6000000000000001
 40
0.6000000000000001
 40
0.8
 40
0.8
 40
0.8
 40
0.8
 40
1.0
 40
1.0
 40
1.0
 40
1.0
 10
-6.5650100000000009
 20
-0.8488600000000001
 30
0.0
 10
-6.4988500000000009
 20
-0.71987
 30
0.0
 10
-6.4062200000000002
 20
-0.7463200000000001
 30
0.0
 10
-6.3599200000000007
 20
-0.83233
 30
0.0
 10
-6.3599200000000007
 20
-0.83233
 30
0.0
 10
-6.3599200000000007
 20
-0.83233
 30
0.0
 10
-6.2441400000000007
 20
-0.7595500000000001
 30
0.0
 10
-6.2441400000000007
 20
-0.7595500000000001
 30
0.0
 10
-6.2441400000000007
 20
-0.7595500000000001
 30
0.0
 10
-6.2441400000000007
 20
-0.7595500000000001
 30
0.0
 10
-6.4790000000000001
 20
-1.1995100000000001
 30
0.0
 10
-6.4790000000000001
 20
-1.1995100000000001
 30
0.0
 10
-6.4790000000000001
 20
-1.1995100000000001
 30
0.0
 10
-6.4790000000000001
 20
-1.1995100000000001
 30
0.0
 10
-6.4690800000000008
 20
-1.01095
 30
0.0
 10
-6.4690800000000008
 20
-1.01095
 30
0.0
 10
-6.4690800000000008
 20
-1.01095
 30
0.0
 10
-6.4790000000000001
 20
-0.9547200000000001
 30
0.0
 10
-6.5054700000000008
 20
-0.8654100000000001
 30
0.0
 10
-6.5650100000000009
 20
-0.8488600000000001
 30
0.0
  0
SPLINE
  5
2D
100
AcDbEntity
  8
Ebene 1
 62
     0
100
AcDbSpline
210
0.0
220
0.0
230
1.0
 70
     1
 71
     3
 72
    12
 73
     8
 74
     0
 42
0.0000000001
 43
0.0000000001
 40
0.0
 40
0.0
 40
0.0
 40
0.0
 40
0.5
 40
0.5
 40
0.5
 40
0.5
 40
1.0
 40
1.0
 40
1.0
 40
1.0
 10
-6.2276000000000007
 20
0.79183
 30
0.0
 10
-6.2441400000000007
 20
0.89107
 30
0.0
 10
-6.1482200000000002
 20
0.91422
 30
0.0
 10
-6.0820500000000006
 20
0.9539200000000001
 30
0.0
 10
-6.0820500000000006
 20
0.9539200000000001
 30
0.0
 10
-6.0258200000000004
 20
0.87121
 30
0.0
 10
-6.1548300000000005
 20
0.7223700000000001
 30
0.0
 10
-6.2276000000000007
 20
0.79183
 30
0.0
  0
SPLINE
  5
2E
100
AcDbEntity
  8
Ebene 1
 62
     0
100
AcDbSpline
210
0.0
220
0.0
230
1.0
 70
     1
 71
     3
 72
   100
 73
    96
 74
     0
 42
0.0000000001
 43
0.0000000001
 40
0.0
 40
0.0
 40
0.0
 40
0.0
 40
0.0416666666666667
 40
0.0416666666666667
 40
0.0416666666666667
 40
0.0416666666666667
 40
0.0833333333333333
 40
0.0833333333333333
 40
0.0833333333333333
 40
0.0833333333333333
 40
0.125
 40
0.125
 40
0.125
 40
0.125
 40
0.1666666666666667
 40
0.1666666666666667
 40
0.1666666666666667
 40
0.1666666666666667
 40
0.2083333333333333
 40
0.2083333333333333
 40
0.2083333333333333
 40
0.2083333333333333
 40
0.25
 40
0.25
 40
0.25
 40
0.25
 40
0.2916666666666666
 40
0.2916666666666666
 40
0.2916666666666666
 40
0.2916666666666666
 40
0.3333333333333333
 40
0.3333333333333333
 40
0.3333333333333333
 40
0.3333333333333333
 40
0.375
 40
0.375
 40
0.375
 40
0.375
 40
0.4166666666666667
 40
0.4166666666666667
 40
0.4166666666666667
 40
0.4166666666666667
 40
0.4583333333333334
 40
0.4583333333333334
 40
0.4583333333333334
 40
0.4583333333333334
 40
0.5
 40
0.5
 40
0.5
 40
0.5
 40
0.5416666666666666
 40
0.5416666666666666
 40
0.5416666666666666
 40
0.5416666666666666
 40
0.5833333333333333
 40
0.5833333333333333
 40
0.5833333333333333
 40
0.5833333333333333
 40
0.6249999999999999
 40
0.6249999999999999
 40
0.6249999999999999
 40
0.6249999999999999
 40
0.6666666666666665
 40
0.6666666666666665
 40
0.6666666666666665
 40
0.6666666666666665
 40
0.7083333333333332
 40
0.7083333333333332
 40
0.7083333333333332
 40
0.7083333333333332
 40
0.7499999999999998
 40
0.7499999999999998
 40
0.7499999999999998
 40
0.7499999999999998
 40
0.7916666666666664
 40
0.7916666666666664
 40
0.7916666666666664
 40
0.7916666666666664
 40
0.833333333333333
 40
0.833333333333333
 40
0.833333333333333
 40
0.833333333333333
 40
0.8749999999999997
 40
0.8749999999999997
 40
0.8749999999999997
 40
0.8749999999999997
 40
0.9166666666666663
 40
0.9166666666666663
 40
0.9166666666666663
 40
0.9166666666666663
 40
0.9583333333333329
 40
0.9583333333333329
 40
0.9583333333333329
 40
0.9583333333333329
 40
1.0
 40
1.0
 40
1.0
 40
1.0
 10
-1.0838400000000001
 20
-1.6956900000000001
 30
0.0
 10
-1.1731500000000001
 20
-1.7122300000000001
 30
0.0
 10
-1.0970600000000001
 20
-1.7883100000000001
 30
0.0
 10
-1.0838400000000001
 20
-1.6956900000000001
 30
0.0
 10
-1.0838400000000001
 20
-1.6956900000000001
 30
0.0
 10
-0.4156300000000001
 20
-1.1962000000000002
 30
0.0
 10
0.08386
 20
-0.52139
 30
0.0
 10
0.7718600000000001
 20
-0.06161
 30
0.0
 10
0.7718600000000001
 20
-0.06161
 30
0.0
 10
0.7718600000000001
 20
-0.06161
 30
0.0
 10
0.5899300000000001
 20
-0.39569
 30
0.0
 10
0.5899300000000001
 20
-0.39569
 30
0.0
 10
0.5899300000000001
 20
-0.39569
 30
0.0
 10
-0.151
 20
-1.1465800000000002
 30
0.0
 10
-0.9779800000000001
 20
-1.8710000000000002
 30
0.0
 10
-1.6362500000000002
 20
-2.7112100000000003
 30
0.0
 10
-1.6362500000000002
 20
-2.7112100000000003
 30
0.0
 10
-1.6362500000000002
 20
-2.7112100000000003
 30
0.0
 10
-1.8744100000000001
 20
-2.8071400000000004
 30
0.0
 10
-1.8744100000000001
 20
-2.8071400000000004
 30
0.0
 10
-1.8744100000000001
 20
-2.8071400000000004
 30
0.0
 10
-2.9693200000000002
 20
-3.9516700000000005
 30
0.0
 10
-4.1734
 20
-4.9969700000000001
 30
0.0
 10
-5.1161500000000002
 20
-6.2738100000000001
 30
0.0
 10
-5.1161500000000002
 20
-6.2738100000000001
 30
0.0
 10
-5.1856200000000001
 20
-6.3432800000000009
 30
0.0
 10
-5.08969
 20
-6.4028200000000002
 30
0.0
 10
-5.1591500000000003
 20
-6.4656700000000003
 30
0.0
 10
-5.1591500000000003
 20
-6.4656700000000003
 30
0.0
 10
-5.4337100000000005
 20
-6.7402200000000008
 30
0.0
 10
-5.6751800000000001
 20
-6.8725300000000002
 30
0.0
 10
-5.9199600000000006
 20
-7.1735600000000002
 30
0.0
 10
-5.9199600000000006
 20
-7.1735600000000002
 30
0.0
 10
-6.4128500000000006
 20
-7.7789100000000007
 30
0.0
 10
-6.7667900000000003
 20
-8.3147800000000007
 30
0.0
 10
-5.9795100000000003
 20
-7.4944200000000007
 30
0.0
 10
-5.9795100000000003
 20
-7.4944200000000007
 30
0.0
 10
-5.9795100000000003
 20
-7.4944200000000007
 30
0.0
 10
-2.9825600000000003
 20
-4.3651500000000008
 30
0.0
 10
-2.9825600000000003
 20
-4.3651500000000008
 30
0.0
 10
-2.9825600000000003
 20
-4.3651500000000008
 30
0.0
 10
-2.9825600000000003
 20
-4.3651500000000008
 30
0.0
 10
-3.4390500000000004
 20
-4.7455700000000007
 30
0.0
 10
-3.4390500000000004
 20
-4.7455700000000007
 30
0.0
 10
-3.4390500000000004
 20
-4.7455700000000007
 30
0.0
 10
-3.4390500000000004
 20
-4.7455700000000007
 30
0.0
 10
-4.2858700000000001
 20
-5.5824600000000002
 30
0.0
 10
-4.2858700000000001
 20
-5.5824600000000002
 30
0.0
 10
-4.2858700000000001
 20
-5.5824600000000002
 30
0.0
 10
-4.2858700000000001
 20
-5.5824600000000002
 30
0.0
 10
-3.9583900000000005
 20
-5.1755900000000006
 30
0.0
 10
-3.9583900000000005
 20
-5.1755900000000006
 30
0.0
 10
-3.9583900000000005
 20
-5.1755900000000006
 30
0.0
 10
-3.9583900000000005
 20
-5.1755900000000006
 30
0.0
 10
-3.7632200000000005
 20
-4.9473400000000005
 30
0.0
 10
-3.7632200000000005
 20
-4.9473400000000005
 30
0.0
 10
-3.7632200000000005
 20
-4.9473400000000005
 30
0.0
 10
-2.2647400000000002
 20
-3.3761000000000001
 30
0.0
 10
-0.36602
 20
-2.1951900000000002
 30
0.0
 10
1.1357400000000002
 20
-0.64378
 30
0.0
 10
1.1357400000000002
 20
-0.64378
 30
0.0
 10
1.1919700000000002
 20
-0.8819400000000001
 30
0.0
 10
0.9240400000000001
 20
-1.0671900000000001
 30
0.0
 10
0.7851
 20
-1.2458100000000001
 30
0.0
 10
0.7851
 20
-1.2458100000000001
 30
0.0
 10
-2.30775
 20
-3.7531900000000005
 30
0.0
 10
-4.9209800000000001
 20
-6.6873000000000005
 30
0.0
 10
-7.7227700000000006
 20
-9.4427700000000012
 30
0.0
 10
-7.7227700000000006
 20
-9.4427700000000012
 30
0.0
 10
-5.52963
 20
-6.1580300000000001
 30
0.0
 10
-3.1247900000000004
 20
-2.9593100000000003
 30
0.0
 10
-1.32199
 20
0.5172800000000001
 30
0.0
 10
-1.32199
 20
0.5172800000000001
 30
0.0
 10
-1.12683
 20
0.69259
 30
0.0
 10
-1.0408300000000001
 20
0.9936200000000001
 30
0.0
 10
-0.7662700000000001
 20
1.0763100000000001
 30
0.0
 10
-0.7662700000000001
 20
1.0763100000000001
 30
0.0
 10
0.13347
 20
1.2450100000000002
 30
0.0
 10
1.63192
 20
0.59667
 30
0.0
 10
1.0894200000000001
 20
-0.46516
 30
0.0
 10
1.0894200000000001
 20
-0.46516
 30
0.0
 10
0.9075000000000001
 20
-0.8157800000000001
 30
0.0
 10
1.3540700000000001
 20
0.35188
 30
0.0
 10
0.9604300000000001
 20
0.14349
 30
0.0
 10
0.9604300000000001
 20
0.14349
 30
0.0
 10
0.87441
 20
0.17987
 30
0.0
 10
0.83472
 20
-0.12777
 30
0.0
 10
0.8181900000000001
 20
0.03763
 30
0.0
 10
0.8181900000000001
 20
0.03763
 30
0.0
 10
0.82479
 20
0.18319
 30
0.0
 10
0.8843400000000001
 20
0.3585
 30
0.0
 10
0.82479
 20
0.4775800000000001
 30
0.0
 10
0.82479
 20
0.4775800000000001
 30
0.0
 10
0.18309
 20
-0.24683
 30
0.0
 10
-0.5645
 20
-0.87202
 30
0.0
 10
-1.0838400000000001
 20
-1.6956900000000001
 30
0.0
  0
SPLINE
  5
2F
100
AcDbEntity
  8
Ebene 1
 62
     0
100
AcDbSpline
210
0.0
220
0.0
230
1.0
 70
     1
 71
     3
 72
    32
 73
    28
 74
     0
 42
0.0000000001
 43
0.0000000001
 40
0.0
 40
0.0
 40
0.0
 40
0.0
 40
0.1428571428571429
 40
0.1428571428571429
 40
0.1428571428571429
 40
0.1428571428571429
 40
0.2857142857142857
 40
0.2857142857142857
 40
0.2857142857142857
 40
0.2857142857142857
 40
0.4285714285714286
 40
0.4285714285714286
 40
0.4285714285714286
 40
0.4285714285714286
 40
0.5714285714285714
 40
0.5714285714285714
 40
0.5714285714285714
 40
0.5714285714285714
 40
0.7142857142857142
 40
0.7142857142857142
 40
0.7142857142857142
 40
0.7142857142857142
 40
0.857142857142857
 40
0.857142857142857
 40
0.857142857142857
 40
0.857142857142857
 40
1.0
 40
1.0
 40
1.0
 40
1.0
 10
-4.79528
 20
-5.4633700000000003
 30
0.0
 10
-3.5151300000000001
 20
-3.5282600000000004
 30
0.0
 10
-1.9571100000000001
 20
-1.7287700000000001
 30
0.0
 10
-1.0242900000000001
 20
0.4048000000000001
 30
0.0
 10
-1.0242900000000001
 20
0.4048000000000001
 30
0.0
 10
-0.85228
 20
0.43458
 30
0.0
 10
-0.9845900000000001
 20
0.14679
 30
0.0
 10
-0.99782
 20
0.05417
 30
0.0
 10
-0.99782
 20
0.05417
 30
0.0
 10
-0.6868900000000001
 20
0.3717200000000001
 30
0.0
 10
-0.25686
 20
0.4842
 30
0.0
 10
0.16987
 20
0.8348300000000001
 30
0.0
 10
0.16987
 20
0.8348300000000001
 30
0.0
 10
-0.02861
 20
0.36842
 30
0.0
 10
-0.5810300000000001
 20
0.01117
 30
0.0
 10
-0.89197
 20
-0.43208
 30
0.0
 10
-0.89197
 20
-0.43208
 30
0.0
 10
-0.88536
 20
-0.5180800000000001
 30
0.0
 10
-0.7497200000000001
 20
-0.5908500000000001
 30
0.0
 10
-0.8622000000000001
 20
-0.7000200000000001
 30
0.0
 10
-0.8622000000000001
 20
-0.7000200000000001
 30
0.0
 10
-2.14235
 20
-2.3043500000000003
 30
0.0
 10
-3.3563500000000004
 20
-3.9450500000000002
 30
0.0
 10
-4.7059700000000007
 20
-5.5130000000000008
 30
0.0
 10
-4.7059700000000007
 20
-5.5130000000000008
 30
0.0
 10
-4.7622
 20
-5.5493900000000007
 30
0.0
 10
-4.7721300000000006
 20
-5.4964600000000008
 30
0.0
 10
-4.79528
 20
-5.4633700000000003
 30
0.0
  0
SPLINE
  5
30
100
AcDbEntity
  8
Ebene 1
 62
     0
100
AcDbSpline
210
0.0
220
0.0
230
1.0
 70
     1
 71
     3
 72
    64
 73
    60
 74
     0
 42
0.0000000001
 43
0.0000000001
 40
0.0
 40
0.0
 40
0.0
 40
0.0
 40
0.0666666666666667
 40
0.0666666666666667
 40
0.0666666666666667
 40
0.0666666666666667
 40
0.1333333333333333
 40
0.1333333333333333
 40
0.1333333333333333
 40
0.1333333333333333
 40
0.2
 40
0.2
 40
0.2
 40
0.2
 40
0.2666666666666667
 40
0.2666666666666667
 40
0.2666666666666667
 40
0.2666666666666667
 40
0.3333333333333333
 40
0.3333333333333333
 40
0.3333333333333333
 40
0.3333333333333333
 40
0.4
 40
0.4
 40
0.4
 40
0.4
 40
0.4666666666666666
 40
0.4666666666666666
 40
0.4666666666666666
 40
0.4666666666666666
 40
0.5333333333333333
 40
0.5333333333333333
 40
0.5333333333333333
 40
0.5333333333333333
 40
0.6
 40
0.6
 40
0.6
 40
0.6
 40
0.6666666666666666
 40
0.6666666666666666
 40
0.6666666666666666
 40
0.6666666666666666
 40
0.7333333333333333
 40
0.7333333333333333
 40
0.7333333333333333
 40
0.7333333333333333
 40
0.7999999999999999
 40
0.7999999999999999
 40
0.7999999999999999
 40
0.7999999999999999
 40
0.8666666666666666
 40
0.8666666666666666
 40
0.8666666666666666
 40
0.8666666666666666
 40
0.9333333333333332
 40
0.9333333333333332
 40
0.9333333333333332
 40
0.9333333333333332
 40
1.0
 40
1.0
 40
1.0
 40
1.0
 10
-6.3136000000000001
 20
-1.2259600000000002
 30
0.0
 10
-6.3136000000000001
 20
-1.2259600000000002
 30
0.0
 10
-6.2739100000000008
 20
-1.13005
 30
0.0
 10
-6.2739100000000008
 20
-1.13005
 30
0.0
 10
-6.2739100000000008
 20
-1.13005
 30
0.0
 10
-6.2276000000000007
 20
-1.20943
 30
0.0
 10
-6.1283700000000003
 20
-1.1895800000000001
 30
0.0
 10
-6.1217500000000005
 20
-1.09365
 30
0.0
 10
-6.1217500000000005
 20
-1.09365
 30
0.0
 10
-5.9861200000000006
 20
-1.1895800000000001
 30
0.0
 10
-5.9795100000000003
 20
-0.9381700000000001
 30
0.0
 10
-6.0225200000000001
 20
-0.8554900000000001
 30
0.0
 10
-6.0225200000000001
 20
-0.8554900000000001
 30
0.0
 10
-5.8438900000000009
 20
-0.7264700000000001
 30
0.0
 10
-5.8604300000000009
 20
-0.37584
 30
0.0
 10
-5.5825600000000009
 20
-0.4486100000000001
 30
0.0
 10
-5.5825600000000009
 20
-0.4486100000000001
 30
0.0
 10
-5.5825600000000009
 20
-0.4486100000000001
 30
0.0
 10
-5.5561000000000007
 20
-0.5743200000000001
 30
0.0
 10
-5.5561000000000007
 20
-0.5743200000000001
 30
0.0
 10
-5.5561000000000007
 20
-0.5743200000000001
 30
0.0
 10
-5.9398100000000005
 20
-0.73309
 30
0.0
 10
-5.1293800000000003
 20
-0.9017900000000001
 30
0.0
 10
-5.4337100000000005
 20
-1.0969600000000002
 30
0.0
 10
-5.4337100000000005
 20
-1.0969600000000002
 30
0.0
 10
-5.4337100000000005
 20
-1.0969600000000002
 30
0.0
 10
-5.4998700000000005
 20
-0.9646500000000001
 30
0.0
 10
-5.4998700000000005
 20
-0.9646500000000001
 30
0.0
 10
-5.4998700000000005
 20
-0.9646500000000001
 30
0.0
 10
-5.6321900000000005
 20
-1.02749
 30
0.0
 10
-5.6785000000000005
 20
-0.71655
 30
0.0
 10
-5.8538000000000006
 20
-0.7595500000000001
 30
0.0
 10
-5.8538000000000006
 20
-0.7595500000000001
 30
0.0
 10
-5.9100500000000009
 20
-0.8025600000000001
 30
0.0
 10
-5.8968100000000003
 20
-0.8885600000000001
 30
0.0
 10
-5.9067300000000005
 20
-0.95142
 30
0.0
 10
-5.9067300000000005
 20
-0.95142
 30
0.0
 10
-5.9067300000000005
 20
-0.95142
 30
0.0
 10
-5.8471900000000003
 20
-1.08704
 30
0.0
 10
-5.8471900000000003
 20
-1.08704
 30
0.0
 10
-5.8471900000000003
 20
-1.08704
 30
0.0
 10
-5.8141100000000003
 20
-1.12012
 30
0.0
 10
-5.7347300000000008
 20
-1.0771200000000001
 30
0.0
 10
-5.7744200000000001
 20
-1.0341100000000001
 30
0.0
 10
-5.7744200000000001
 20
-1.0341100000000001
 30
0.0
 10
-5.71157
 20
-0.86211
 30
0.0
 10
-5.6222600000000007
 20
-1.1664300000000001
 30
0.0
 10
-5.8041900000000002
 20
-1.18296
 30
0.0
 10
-5.8041900000000002
 20
-1.18296
 30
0.0
 10
-5.7843400000000003
 20
-1.29874
 30
0.0
 10
-5.8505000000000003
 20
-1.4079000000000002
 30
0.0
 10
-5.9232800000000001
 20
-1.2689700000000002
 30
0.0
 10
-5.9232800000000001
 20
-1.2689700000000002
 30
0.0
 10
-5.9232800000000001
 20
-1.2689700000000002
 30
0.0
 10
-6.0423600000000004
 20
-1.25244
 30
0.0
 10
-6.0423600000000004
 20
-1.25244
 30
0.0
 10
-6.0423600000000004
 20
-1.25244
 30
0.0
 10
-6.0423600000000004
 20
-1.4442900000000001
 30
0.0
 10
-6.2242900000000008
 20
-1.2921200000000002
 30
0.0
 10
-6.3136000000000001
 20
-1.2259600000000002
 30
0.0
  0
SPLINE
  5
31
100
AcDbEntity
  8
Ebene 1
 62
     0
100
AcDbSpline
210
0.0
220
0.0
230
1.0
 70
     1
 71
     3
 72
    28
 73
    24
 74
     0
 42
0.0000000001
 43
0.0000000001
 40
0.0
 40
0.0
 40
0.0
 40
0.0
 40
0.1666666666666667
 40
0.1666666666666667
 40
0.1666666666666667
 40
0.1666666666666667
 40
0.3333333333333333
 40
0.3333333333333333
 40
0.3333333333333333
 40
0.3333333333333333
 40
0.5
 40
0.5
 40
0.5
 40
0.5
 40
0.6666666666666666
 40
0.6666666666666666
 40
0.6666666666666666
 40
0.6666666666666666
 40
0.8333333333333333
 40
0.8333333333333333
 40
0.8333333333333333
 40
0.8333333333333333
 40
1.0
 40
1.0
 40
1.0
 40
1.0
 10
-5.9894300000000005
 20
0.6065900000000001
 30
0.0
 10
-5.9199600000000006
 20
0.7554500000000001
 30
0.0
 10
-5.8902000000000001
 20
0.87453
 30
0.0
 10
-5.8769700000000009
 20
1.02668
 30
0.0
 10
-5.8769700000000009
 20
1.02668
 30
0.0
 10
-5.8339600000000003
 20
1.06308
 30
0.0
 10
-5.77773
 20
1.1325400000000001
 30
0.0
 10
-5.7181900000000008
 20
1.1226200000000002
 30
0.0
 10
-5.7181900000000008
 20
1.1226200000000002
 30
0.0
 10
-5.7181900000000008
 20
1.1226200000000002
 30
0.0
 10
-5.71157
 20
1.0498500000000002
 30
0.0
 10
-5.71157
 20
1.0498500000000002
 30
0.0
 10
-5.71157
 20
1.0498500000000002
 30
0.0
 10
-5.8935000000000004
 20
1.0167700000000002
 30
0.0
 10
-5.8736500000000005
 20
0.78522
 30
0.0
 10
-5.7644900000000003
 20
0.69591
 30
0.0
 10
-5.7644900000000003
 20
0.69591
 30
0.0
 10
-5.7214800000000006
 20
0.53712
 30
0.0
 10
-5.9464300000000003
 20
0.2824100000000001
 30
0.0
 10
-5.8968100000000003
 20
0.56689
 30
0.0
 10
-5.8968100000000003
 20
0.56689
 30
0.0
 10
-5.8968100000000003
 20
0.56689
 30
0.0
 10
-5.9894300000000005
 20
0.6065900000000001
 30
0.0
 10
-5.9894300000000005
 20
0.6065900000000001
 30
0.0
  0
SPLINE
  5
32
100
AcDbEntity
  8
Ebene 1
 62
     0
100
AcDbSpline
210
0.0
220
0.0
230
1.0
 70
     1
 71
     3
 72
    16
 73
    12
 74
     0
 42
0.0000000001
 43
0.0000000001
 40
0.0
 40
0.0
 40
0.0
 40
0.0
 40
0.3333333333333333
 40
0.3333333333333333
 40
0.3333333333333333
 40
0.3333333333333333
 40
0.6666666666666666
 40
0.6666666666666666
 40
0.6666666666666666
 40
0.6666666666666666
 40
1.0
 40
1.0
 40
1.0
 40
1.0
 10
-6.1945200000000007
 20
-0.8885600000000001
 30
0.0
 10
-6.1945200000000007
 20
-0.8885600000000001
 30
0.0
 10
-6.0853600000000005
 20
-0.7000200000000001
 30
0.0
 10
-6.0853600000000005
 20
-0.7000200000000001
 30
0.0
 10
-6.0853600000000005
 20
-0.7000200000000001
 30
0.0
 10
-6.0919800000000004
 20
-0.75295
 30
0.0
 10
-6.0952900000000003
 20
-0.79925
 30
0.0
 10
-6.0688200000000005
 20
-0.83894
 30
0.0
 10
-6.0688200000000005
 20
-0.83894
 30
0.0
 10
-6.0688200000000005
 20
-0.83894
 30
0.0
 10
-6.1945200000000007
 20
-0.8885600000000001
 30
0.0
 10
-6.1945200000000007
 20
-0.8885600000000001
 30
0.0
  0
SPLINE
  5
33
100
AcDbEntity
  8
Ebene 1
 62
     0
100
AcDbSpline
210
0.0
220
0.0
230
1.0
 70
     1
 71
     3
 72
    48
 73
    44
 74
     0
 42
0.0000000001
 43
0.0000000001
 40
0.0
 40
0.0
 40
0.0
 40
0.0
 40
0.0909090909090909
 40
0.0909090909090909
 40
0.0909090909090909
 40
0.0909090909090909
 40
0.1818181818181818
 40
0.1818181818181818
 40
0.1818181818181818
 40
0.1818181818181818
 40
0.2727272727272727
 40
0.2727272727272727
 40
0.2727272727272727
 40
0.2727272727272727
 40
0.3636363636363637
 40
0.3636363636363637
 40
0.3636363636363637
 40
0.3636363636363637
 40
0.4545454545454546
 40
0.4545454545454546
 40
0.4545454545454546
 40
0.4545454545454546
 40
0.5454545454545455
 40
0.5454545454545455
 40
0.5454545454545455
 40
0.5454545454545455
 40
0.6363636363636365
 40
0.6363636363636365
 40
0.6363636363636365
 40
0.6363636363636365
 40
0.7272727272727274
 40
0.7272727272727274
 40
0.7272727272727274
 40
0.7272727272727274
 40
0.8181818181818183
 40
0.8181818181818183
 40
0.8181818181818183
 40
0.8181818181818183
 40
0.9090909090909093
 40
0.9090909090909093
 40
0.9090909090909093
 40
0.9090909090909093
 40
1.0
 40
1.0
 40
1.0
 40
1.0
 10
-5.9993600000000002
 20
0.16664
 30
0.0
 10
-5.9199600000000006
 20
0.39157
 30
0.0
 10
-5.7909700000000006
 20
0.17987
 30
0.0
 10
-5.6983400000000008
 20
0.12364
 30
0.0
 10
-5.6983400000000008
 20
0.12364
 30
0.0
 10
-5.6255700000000006
 20
0.15671
 30
0.0
 10
-5.5527900000000008
 20
0.17987
 30
0.0
 10
-5.4767000000000001
 20
0.18979
 30
0.0
 10
-5.4767000000000001
 20
0.18979
 30
0.0
 10
-5.3047000000000004
 20
0.24933
 30
0.0
 10
-5.57925
 20
0.25265
 30
0.0
 10
-5.6387900000000002
 20
0.2824100000000001
 30
0.0
 10
-5.6387900000000002
 20
0.2824100000000001
 30
0.0
 10
-5.2782400000000003
 20
0.53712
 30
0.0
 10
-4.9540600000000001
 20
-0.02191
 30
0.0
 10
-5.2947700000000006
 20
-0.2633700000000001
 30
0.0
 10
-5.2947700000000006
 20
-0.2633700000000001
 30
0.0
 10
-5.22201
 20
-0.37253
 30
0.0
 10
-5.1955400000000003
 20
-0.40892
 30
0.0
 10
-5.2782400000000003
 20
-0.4982300000000001
 30
0.0
 10
-5.2782400000000003
 20
-0.4982300000000001
 30
0.0
 10
-5.2782400000000003
 20
-0.4982300000000001
 30
0.0
 10
-5.1293800000000003
 20
-0.74302
 30
0.0
 10
-5.1293800000000003
 20
-0.74302
 30
0.0
 10
-5.1293800000000003
 20
-0.74302
 30
0.0
 10
-5.23855
 20
-0.6239300000000001
 30
0.0
 10
-5.6189400000000003
 20
-0.49492
 30
0.0
 10
-5.3873900000000008
 20
-0.30969
 30
0.0
 10
-5.3873900000000008
 20
-0.30969
 30
0.0
 10
-5.3873900000000008
 20
-0.30969
 30
0.0
 10
-5.4138600000000006
 20
-0.24022
 30
0.0
 10
-5.4138600000000006
 20
-0.24022
 30
0.0
 10
-5.4138600000000006
 20
-0.24022
 30
0.0
 10
-5.2650000000000006
 20
-0.15752
 30
0.0
 10
-5.3377800000000004
 20
-0.08144
 30
0.0
 10
-5.4899400000000007
 20
-0.07815
 30
0.0
 10
-5.4899400000000007
 20
-0.07815
 30
0.0
 10
-5.4899400000000007
 20
-0.07815
 30
0.0
 10
-5.3344700000000005
 20
0.03102
 30
0.0
 10
-5.3344700000000005
 20
0.03102
 30
0.0
 10
-5.3344700000000005
 20
0.03102
 30
0.0
 10
-5.5494800000000009
 20
0.16334
 30
0.0
 10
-5.8438900000000009
 20
-0.07815
 30
0.0
 10
-5.9993600000000002
 20
0.16664
 30
0.0
  0
SPLINE
  5
34
100
AcDbEntity
  8
Ebene 1
 62
     0
100
AcDbSpline
210
0.0
220
0.0
230
1.0
 70
     1
 71
     3
 72
    60
 73
    56
 74
     0
 42
0.0000000001
 43
0.0000000001
 40
0.0
 40
0.0
 40
0.0
 40
0.0
 40
0.0714285714285714
 40
0.0714285714285714
 40
0.0714285714285714
 40
0.0714285714285714
 40
0.1428571428571429
 40
0.1428571428571429
 40
0.1428571428571429
 40
0.1428571428571429
 40
0.2142857142857143
 40
0.2142857142857143
 40
0.2142857142857143
 40
0.2142857142857143
 40
0.2857142857142857
 40
0.2857142857142857
 40
0.2857142857142857
 40
0.2857142857142857
 40
0.3571428571428571
 40
0.3571428571428571
 40
0.3571428571428571
 40
0.3571428571428571
 40
0.4285714285714285
 40
0.4285714285714285
 40
0.4285714285714285
 40
0.4285714285714285
 40
0.4999999999999999
 40
0.4999999999999999
 40
0.4999999999999999
 40
0.4999999999999999
 40
0.5714285714285713
 40
0.5714285714285713
 40
0.5714285714285713
 40
0.5714285714285713
 40
0.6428571428571427
 40
0.6428571428571427
 40
0.6428571428571427
 40
0.6428571428571427
 40
0.7142857142857141
 40
0.7142857142857141
 40
0.7142857142857141
 40
0.7142857142857141
 40
0.7857142857142855
 40
0.7857142857142855
 40
0.7857142857142855
 40
0.7857142857142855
 40
0.8571428571428569
 40
0.8571428571428569
 40
0.8571428571428569
 40
0.8571428571428569
 40
0.9285714285714283
 40
0.9285714285714283
 40
0.9285714285714283
 40
0.9285714285714283
 40
1.0
 40
1.0
 40
1.0
 40
1.0
 10
-5.4403200000000007
 20
3.5142300000000004
 30
0.0
 10
-5.1823100000000002
 20
4.9200600000000003
 30
0.0
 10
-4.5835800000000004
 20
6.2035300000000007
 30
0.0
 10
-4.1800200000000007
 20
7.5630800000000002
 30
0.0
 10
-4.1800200000000007
 20
7.5630800000000002
 30
0.0
 10
-4.0675400000000002
 20
7.8376200000000003
 30
0.0
 10
-3.7830700000000004
 20
8.3569600000000008
 30
0.0
 10
-3.9583900000000005
 20
7.7582400000000007
 30
0.0
 10
-3.9583900000000005
 20
7.7582400000000007
 30
0.0
 10
-3.9451500000000004
 20
7.6060700000000008
 30
0.0
 10
-3.6441300000000001
 20
8.4396700000000013
 30
0.0
 10
-3.7102900000000001
 20
8.0923300000000005
 30
0.0
 10
-3.7102900000000001
 20
8.0923300000000005
 30
0.0
 10
-3.7102900000000001
 20
8.0923300000000005
 30
0.0
 10
-3.7566000000000002
 20
7.9335600000000008
 30
0.0
 10
-3.7566000000000002
 20
7.9335600000000008
 30
0.0
 10
-3.7566000000000002
 20
7.9335600000000008
 30
0.0
 10
-3.6044400000000003
 20
7.7615600000000002
 30
0.0
 10
-3.2868800000000005
 20
8.9027700000000003
 30
0.0
 10
-3.3431200000000003
 20
8.3470400000000016
 30
0.0
 10
-3.3431200000000003
 20
8.3470400000000016
 30
0.0
 10
-3.2174200000000002
 20
8.4529000000000014
 30
0.0
 10
-3.1380300000000001
 20
8.208120000000001
 30
0.0
 10
-3.0354800000000002
 20
8.548820000000001
 30
0.0
 10
-3.0354800000000002
 20
8.548820000000001
 30
0.0
 10
-2.9561000000000002
 20
8.3867400000000014
 30
0.0
 10
-3.1214900000000001
 20
8.2676500000000015
 30
0.0
 10
-3.1678000000000002
 20
8.1287300000000009
 30
0.0
 10
-3.1678000000000002
 20
8.1287300000000009
 30
0.0
 10
-3.7731500000000002
 20
7.5564600000000004
 30
0.0
 10
-4.1138700000000004
 20
6.8948700000000009
 30
0.0
 10
-4.5471900000000005
 20
6.2134500000000008
 30
0.0
 10
-4.5471900000000005
 20
6.2134500000000008
 30
0.0
 10
-4.8812900000000008
 20
5.0755300000000005
 30
0.0
 10
-5.0797600000000003
 20
4.5859800000000002
 30
0.0
 10
-5.3047000000000004
 20
3.8053300000000001
 30
0.0
 10
-5.3047000000000004
 20
3.8053300000000001
 30
0.0
 10
-5.3047000000000004
 20
3.8053300000000001
 30
0.0
 10
-4.9474500000000008
 20
4.5859800000000002
 30
0.0
 10
-4.9474500000000008
 20
4.5859800000000002
 30
0.0
 10
-4.9474500000000008
 20
4.5859800000000002
 30
0.0
 10
-4.6530400000000007
 20
5.1450000000000005
 30
0.0
 10
-4.6199600000000007
 20
5.8330500000000001
 30
0.0
 10
-4.2594099999999999
 20
6.3590000000000009
 30
0.0
 10
-4.2594099999999999
 20
6.3590000000000009
 30
0.0
 10
-4.2594099999999999
 20
6.3590000000000009
 30
0.0
 10
-4.07416
 20
6.6004800000000001
 30
0.0
 10
-4.07416
 20
6.6004800000000001
 30
0.0
 10
-4.07416
 20
6.6004800000000001
 30
0.0
 10
-4.5306500000000005
 20
5.3368700000000002
 30
0.0
 10
-5.0235400000000006
 20
4.0732600000000003
 30
0.0
 10
-5.5064800000000007
 20
2.8328000000000002
 30
0.0
 10
-5.5064800000000007
 20
2.8328000000000002
 30
0.0
 10
-5.5428700000000006
 20
3.0478200000000002
 30
0.0
 10
-5.4105600000000003
 20
3.2992100000000004
 30
0.0
 10
-5.4403200000000007
 20
3.5142300000000004
 30
0.0
  0
SPLINE
  5
35
100
AcDbEntity
  8
Ebene 1
 62
     0
100
AcDbSpline
210
0.0
220
0.0
230
1.0
 70
     1
 71
     3
 72
    12
 73
     8
 74
     0
 42
0.0000000001
 43
0.0000000001
 40
0.0
 40
0.0
 40
0.0
 40
0.0
 40
0.5
 40
0.5
 40
0.5
 40
0.5
 40
1.0
 40
1.0
 40
1.0
 40
1.0
 10
-6.0919800000000004
 20
-0.528
 30
0.0
 10
-6.1019000000000005
 20
-0.47176
 30
0.0
 10
-6.0456700000000003
 20
-0.4486100000000001
 30
0.0
 10
-6.0059800000000001
 20
-0.46185
 30
0.0
 10
-6.0059800000000001
 20
-0.46185
 30
0.0
 10
-6.0059800000000001
 20
-0.50154
 30
0.0
 10
-6.0556000000000001
 20
-0.5809200000000001
 30
0.0
 10
-6.0919800000000004
 20
-0.528
 30
0.0
  0
SPLINE
  5
36
100
AcDbEntity
  8
Ebene 1
 62
     0
100
AcDbSpline
210
0.0
220
0.0
230
1.0
 70
     1
 71
     3
 72
    12
 73
     8
 74
     0
 42
0.0000000001
 43
0.0000000001
 40
0.0
 40
0.0
 40
0.0
 40
0.0
 40
0.5
 40
0.5
 40
0.5
 40
0.5
 40
1.0
 40
1.0
 40
1.0
 40
1.0
 10
-5.9695900000000002
 20
-0.42215
 30
0.0
 10
-5.9695900000000002
 20
-0.42215
 30
0.0
 10
-5.8769700000000009
 20
-0.3361400000000001
 30
0.0
 10
-5.8769700000000009
 20
-0.3361400000000001
 30
0.0
 10
-5.8769700000000009
 20
-0.3361400000000001
 30
0.0
 10
-5.8637300000000003
 20
-0.4056
 30
0.0
 10
-5.9001200000000003
 20
-0.4585300000000001
 30
0.0
 10
-5.9695900000000002
 20
-0.42215
 30
0.0
  0
SPLINE
  5
37
100
AcDbEntity
  8
Ebene 1
 62
     0
100
AcDbSpline
210
0.0
220
0.0
230
1.0
 70
     1
 71
     3
 72
    16
 73
    12
 74
     0
 42
0.0000000001
 43
0.0000000001
 40
0.0
 40
0.0
 40
0.0
 40
0.0
 40
0.3333333333333333
 40
0.3333333333333333
 40
0.3333333333333333
 40
0.3333333333333333
 40
0.6666666666666666
 40
0.6666666666666666
 40
0.6666666666666666
 40
0.6666666666666666
 40
1.0
 40
1.0
 40
1.0
 40
1.0
 10
-5.71157
 20
0.74882
 30
0.0
 10
-5.6685600000000003
 20
0.84806
 30
0.0
 10
-5.62887
 20
0.9936200000000001
 30
0.0
 10
-5.4932500000000006
 20
0.9605400000000001
 30
0.0
 10
-5.4932500000000006
 20
0.9605400000000001
 30
0.0
 10
-5.5395600000000007
 20
0.8811600000000001
 30
0.0
 10
-5.5395600000000007
 20
0.7786000000000001
 30
0.0
 10
-5.49655
 20
0.6992100000000001
 30
0.0
 10
-5.49655
 20
0.6992100000000001
 30
0.0
 10
-5.5825600000000009
 20
0.69259
 30
0.0
 10
-5.6421000000000001
 20
0.6992100000000001
 30
0.0
 10
-5.71157
 20
0.74882
 30
0.0
  0
SPLINE
  5
38
100
AcDbEntity
  8
Ebene 1
 62
     0
100
AcDbSpline
210
0.0
220
0.0
230
1.0
 70
     1
 71
     3
 72
    12
 73
     8
 74
     0
 42
0.0000000001
 43
0.0000000001
 40
0.0
 40
0.0
 40
0.0
 40
0.0
 40
0.5
 40
0.5
 40
0.5
 40
0.5
 40
1.0
 40
1.0
 40
1.0
 40
1.0
 10
-5.8505000000000003
 20
-0.21045
 30
0.0
 10
-5.8471900000000003
 20
-0.15421
 30
0.0
 10
-5.8207300000000002
 20
-0.04837
 30
0.0
 10
-5.7512600000000003
 20
-0.06822
 30
0.0
 10
-5.7512600000000003
 20
-0.06822
 30
0.0
 10
-5.7512600000000003
 20
-0.12445
 30
0.0
 10
-5.77773
 20
-0.22367
 30
0.0
 10
-5.8505000000000003
 20
-0.21045
 30
0.0
  0
SPLINE
  5
39
100
AcDbEntity
  8
Ebene 1
 62
     0
100
AcDbSpline
210
0.0
220
0.0
230
1.0
 70
     1
 71
     3
 72
    12
 73
     8
 74
     0
 42
0.0000000001
 43
0.0000000001
 40
0.0
 40
0.0
 40
0.0
 40
0.0
 40
0.5
 40
0.5
 40
0.5
 40
0.5
 40
1.0
 40
1.0
 40
1.0
 40
1.0
 10
-5.6189400000000003
 20
0.41805
 30
0.0
 10
-5.5891800000000007
 20
0.57352
 30
0.0
 10
-5.4138600000000006
 20
0.5007400000000001
 30
0.0
 10
-5.3444000000000003
 20
0.4378800000000001
 30
0.0
 10
-5.3444000000000003
 20
0.4378800000000001
 30
0.0
 10
-5.3444000000000003
 20
0.4378800000000001
 30
0.0
 10
-5.6189400000000003
 20
0.41805
 30
0.0
 10
-5.6189400000000003
 20
0.41805
 30
0.0
  0
SPLINE
  5
3A
100
AcDbEntity
  8
Ebene 1
 62
     0
100
AcDbSpline
210
0.0
220
0.0
230
1.0
 70
     1
 71
     3
 72
    12
 73
     8
 74
     0
 42
0.0000000001
 43
0.0000000001
 40
0.0
 40
0.0
 40
0.0
 40
0.0
 40
0.5
 40
0.5
 40
0.5
 40
0.5
 40
1.0
 40
1.0
 40
1.0
 40
1.0
 10
-5.4767000000000001
 20
-0.73309
 30
0.0
 10
-5.4899400000000007
 20
-0.6371600000000001
 30
0.0
 10
-5.3377800000000004
 20
-0.71987
 30
0.0
 10
-5.3146200000000006
 20
-0.7628700000000001
 30
0.0
 10
-5.3146200000000006
 20
-0.7628700000000001
 30
0.0
 10
-5.3642400000000006
 20
-0.83894
 30
0.0
 10
-5.4403200000000007
 20
-0.79925
 30
0.0
 10
-5.4767000000000001
 20
-0.73309
 30
0.0
  0
SPLINE
  5
3B
100
AcDbEntity
  8
Ebene 1
 62
     0
100
AcDbSpline
210
0.0
220
0.0
230
1.0
 70
     1
 71
     3
 72
    12
 73
     8
 74
     0
 42
0.0000000001
 43
0.0000000001
 40
0.0
 40
0.0
 40
0.0
 40
0.0
 40
0.5
 40
0.5
 40
0.5
 40
0.5
 40
1.0
 40
1.0
 40
1.0
 40
1.0
 10
-5.15585
 20
-0.4519300000000001
 30
0.0
 10
-5.1194500000000005
 20
-0.4486100000000001
 30
0.0
 10
-5.0632200000000003
 20
-0.4816900000000001
 30
0.0
 10
-5.0930000000000009
 20
-0.5180800000000001
 30
0.0
 10
-5.0930000000000009
 20
-0.5180800000000001
 30
0.0
 10
-5.1194500000000005
 20
-0.52139
 30
0.0
 10
-5.1756900000000003
 20
-0.4916100000000001
 30
0.0
 10
-5.15585
 20
-0.4519300000000001
 30
0.0
  0
SPLINE
  5
3C
100
AcDbEntity
  8
Ebene 1
 62
     7
100
AcDbSpline
210
0.0
220
0.0
230
1.0
 70
     1
 71
     3
 72
    12
 73
     8
 74
     0
 42
0.0000000001
 43
0.0000000001
 40
0.0
 40
0.0
 40
0.0
 40
0.0
 40
0.5
 40
0.5
 40
0.5
 40
0.5
 40
1.0
 40
1.0
 40
1.0
 40
1.0
 10
-4.8713600000000001
 20
-0.24683
 30
0.0
 10
-4.8316600000000003
 20
-0.22038
 30
0.0
 10
-4.7192000000000007
 20
-0.17406
 30
0.0
 10
-4.7059700000000007
 20
-0.25345
 30
0.0
 10
-4.7059700000000007
 20
-0.25345
 30
0.0
 10
-4.7423500000000001
 20
-0.2964500000000001
 30
0.0
 10
-4.8283700000000005
 20
-0.28984
 30
0.0
 10
-4.8713600000000001
 20
-0.24683
 30
0.0
  0
SPLINE
  5
3D
100
AcDbEntity
  8
Ebene 1
 62
    21
100
AcDbSpline
210
0.0
220
0.0
230
1.0
 70
     1
 71
     3
 72
    64
 73
    60
 74
     0
 42
0.0000000001
 43
0.0000000001
 40
0.0
 40
0.0
 40
0.0
 40
0.0
 40
0.0666666666666667
 40
0.0666666666666667
 40
0.0666666666666667
 40
0.0666666666666667
 40
0.1333333333333333
 40
0.1333333333333333
 40
0.1333333333333333
 40
0.1333333333333333
 40
0.2
 40
0.2
 40
0.2
 40
0.2
 40
0.2666666666666667
 40
0.2666666666666667
 40
0.2666666666666667
 40
0.2666666666666667
 40
0.3333333333333333
 40
0.3333333333333333
 40
0.3333333333333333
 40
0.3333333333333333
 40
0.4
 40
0.4
 40
0.4
 40
0.4
 40
0.4666666666666666
 40
0.4666666666666666
 40
0.4666666666666666
 40
0.4666666666666666
 40
0.5333333333333333
 40
0.5333333333333333
 40
0.5333333333333333
 40
0.5333333333333333
 40
0.6
 40
0.6
 40
0.6
 40
0.6
 40
0.6666666666666666
 40
0.6666666666666666
 40
0.6666666666666666
 40
0.6666666666666666
 40
0.7333333333333333
 40
0.7333333333333333
 40
0.7333333333333333
 40
0.7333333333333333
 40
0.7999999999999999
 40
0.7999999999999999
 40
0.7999999999999999
 40
0.7999999999999999
 40
0.8666666666666666
 40
0.8666666666666666
 40
0.8666666666666666
 40
0.8666666666666666
 40
0.9333333333333332
 40
0.9333333333333332
 40
0.9333333333333332
 40
0.9333333333333332
 40
1.0
 40
1.0
 40
1.0
 40
1.0
 10
-4.5405800000000003
 20
0.09388
 30
0.0
 10
-4.4214800000000007
 20
0.8844500000000001
 30
0.0
 10
-3.5449000000000002
 20
1.3839400000000002
 30
0.0
 10
-2.8006200000000003
 20
1.3541700000000001
 30
0.0
 10
-2.8006200000000003
 20
1.3541700000000001
 30
0.0
 10
-2.48638
 20
1.01346
 30
0.0
 10
-2.2945200000000003
 20
0.41142
 30
0.0
 10
-1.7718600000000002
 20
0.21957
 30
0.0
 10
-1.7718600000000002
 20
0.21957
 30
0.0
 10
-2.12581
 20
-0.3857600000000001
 30
0.0
 10
-3.3265800000000003
 20
-0.5180800000000001
 30
0.0
 10
-3.3133600000000003
 20
-1.29874
 30
0.0
 10
-3.3133600000000003
 20
-1.29874
 30
0.0
 10
-3.5482100000000001
 20
-1.2028100000000002
 30
0.0
 10
-3.7136100000000005
 20
-0.9580200000000001
 30
0.0
 10
-3.8657700000000004
 20
-0.74963
 30
0.0
 10
-3.8657700000000004
 20
-0.74963
 30
0.0
 10
-3.5746700000000002
 20
-0.31629
 30
0.0
 10
-3.0156400000000003
 20
-0.46846
 30
0.0
 10
-2.8337100000000004
 20
0.05748
 30
0.0
 10
-2.8337100000000004
 20
0.05748
 30
0.0
 10
-3.1214900000000001
 20
-0.03514
 30
0.0
 10
-3.4555900000000004
 20
-0.09137
 30
0.0
 10
-3.6871400000000003
 20
-0.2799100000000001
 30
0.0
 10
-3.6871400000000003
 20
-0.2799100000000001
 30
0.0
 10
-3.7764500000000005
 20
-0.15421
 30
0.0
 10
-3.9980800000000003
 20
-0.29313
 30
0.0
 10
-4.1304000000000007
 20
-0.24022
 30
0.0
 10
-4.1304000000000007
 20
-0.24022
 30
0.0
 10
-4.1535500000000001
 20
-0.03514
 30
0.0
 10
-3.9451500000000004
 20
0.14679
 30
0.0
 10
-4.0443899999999999
 20
0.34196
 30
0.0
 10
-4.0443899999999999
 20
0.34196
 30
0.0
 10
-4.0443899999999999
 20
0.34196
 30
0.0
 10
-4.2064700000000004
 20
0.4312800000000001
 30
0.0
 10
-4.2064700000000004
 20
0.4312800000000001
 30
0.0
 10
-4.2064700000000004
 20
0.4312800000000001
 30
0.0
 10
-4.8713600000000001
 20
-0.5710000000000001
 30
0.0
 10
-3.5118100000000001
 20
-1.1730400000000001
 30
0.0
 10
-3.1446400000000003
 20
-1.9338500000000001
 30
0.0
 10
-3.1446400000000003
 20
-1.9338500000000001
 30
0.0
 10
-3.1446400000000003
 20
-1.9338500000000001
 30
0.0
 10
-3.0619500000000004
 20
-1.7254500000000002
 30
0.0
 10
-3.0619500000000004
 20
-1.7254500000000002
 30
0.0
 10
-3.0619500000000004
 20
-1.7254500000000002
 30
0.0
 10
-3.0090300000000001
 20
-1.7089200000000002
 30
0.0
 10
-2.8767
 20
-1.8180800000000001
 30
0.0
 10
-2.8998600000000003
 20
-1.8974800000000001
 30
0.0
 10
-2.8998600000000003
 20
-1.8974800000000001
 30
0.0
 10
-2.8998600000000003
 20
-1.8974800000000001
 30
0.0
 10
-3.1247900000000004
 20
-2.25142
 30
0.0
 10
-3.1247900000000004
 20
-2.25142
 30
0.0
 10
-3.1247900000000004
 20
-2.25142
 30
0.0
 10
-3.2438800000000003
 20
-1.9206200000000002
 30
0.0
 10
-3.4225000000000003
 20
-1.5666800000000001
 30
0.0
 10
-3.7102900000000001
 20
-1.3417500000000002
 30
0.0
 10
-3.7102900000000001
 20
-1.3417500000000002
 30
0.0
 10
-4.1833300000000007
 20
-0.9845
 30
0.0
 10
-4.7853600000000007
 20
-0.5842400000000001
 30
0.0
 10
-4.5405800000000003
 20
0.09388
 30
0.0
  0
SPLINE
  5
3E
100
AcDbEntity
  8
Ebene 1
 62
     0
100
AcDbSpline
210
0.0
220
0.0
230
1.0
 70
     1
 71
     3
 72
    24
 73
    20
 74
     0
 42
0.0000000001
 43
0.0000000001
 40
0.0
 40
0.0
 40
0.0
 40
0.0
 40
0.2
 40
0.2
 40
0.2
 40
0.2
 40
0.4
 40
0.4
 40
0.4
 40
0.4
 40
0.6000000000000001
 40
0.6000000000000001
 40
0.6000000000000001
 40
0.6000000000000001
 40
0.8
 40
0.8
 40
0.8
 40
0.8
 40
1.0
 40
1.0
 40
1.0
 40
1.0
 10
-3.5879000000000003
 20
5.8264300000000002
 30
0.0
 10
-3.5713700000000004
 20
6.0546800000000003
 30
0.0
 10
-3.4853600000000005
 20
6.2531400000000001
 30
0.0
 10
-3.3795000000000002
 20
6.4450000000000003
 30
0.0
 10
-3.3795000000000002
 20
6.4450000000000003
 30
0.0
 10
-3.2835800000000002
 20
6.5740100000000004
 30
0.0
 10
-3.1082600000000005
 20
6.8187900000000008
 30
0.0
 10
-2.9329400000000003
 20
6.7691800000000004
 30
0.0
 10
-2.9329400000000003
 20
6.7691800000000004
 30
0.0
 10
-3.5184400000000005
 20
6.3821500000000002
 30
0.0
 10
-3.5879000000000003
 20
5.3864800000000006
 30
0.0
 10
-2.89656
 20
5.0623100000000001
 30
0.0
 10
-2.89656
 20
5.0623100000000001
 30
0.0
 10
-2.4764600000000003
 20
4.9729900000000002
 30
0.0
 10
-2.90978
 20
4.9200600000000003
 30
0.0
 10
-3.0884100000000001
 20
5.0523900000000008
 30
0.0
 10
-3.0884100000000001
 20
5.0523900000000008
 30
0.0
 10
-3.3894200000000003
 20
5.1880000000000006
 30
0.0
 10
-3.5614500000000002
 20
5.5287200000000007
 30
0.0
 10
-3.5879000000000003
 20
5.8264300000000002
 30
0.0
  0
SPLINE
  5
3F
100
AcDbEntity
  8
Ebene 1
 62
     0
100
AcDbSpline
210
0.0
220
0.0
230
1.0
 70
     1
 71
     3
 72
    12
 73
     8
 74
     0
 42
0.0000000001
 43
0.0000000001
 40
0.0
 40
0.0
 40
0.0
 40
0.0
 40
0.5
 40
0.5
 40
0.5
 40
0.5
 40
1.0
 40
1.0
 40
1.0
 40
1.0
 10
-3.1942600000000003
 20
7.943480000000001
 30
0.0
 10
-3.0090300000000001
 20
8.2709600000000005
 30
0.0
 10
-2.7080100000000003
 20
8.4727500000000013
 30
0.0
 10
-2.4268200000000002
 20
8.6778300000000002
 30
0.0
 10
-2.4268200000000002
 20
8.6778300000000002
 30
0.0
 10
-2.6352300000000004
 20
8.3966700000000003
 30
0.0
 10
-2.90978
 20
8.1287300000000009
 30
0.0
 10
-3.1942600000000003
 20
7.943480000000001
 30
0.0
  0
SPLINE
  5
40
100
AcDbEntity
  8
Ebene 1
 62
     0
100
AcDbSpline
210
0.0
220
0.0
230
1.0
 70
     1
 71
     3
 72
    32
 73
    28
 74
     0
 42
0.0000000001
 43
0.0000000001
 40
0.0
 40
0.0
 40
0.0
 40
0.0
 40
0.1428571428571429
 40
0.1428571428571429
 40
0.1428571428571429
 40
0.1428571428571429
 40
0.2857142857142857
 40
0.2857142857142857
 40
0.2857142857142857
 40
0.2857142857142857
 40
0.4285714285714286
 40
0.4285714285714286
 40
0.4285714285714286
 40
0.4285714285714286
 40
0.5714285714285714
 40
0.5714285714285714
 40
0.5714285714285714
 40
0.5714285714285714
 40
0.7142857142857142
 40
0.7142857142857142
 40
0.7142857142857142
 40
0.7142857142857142
 40
0.857142857142857
 40
0.857142857142857
 40
0.857142857142857
 40
0.857142857142857
 40
1.0
 40
1.0
 40
1.0
 40
1.0
 10
-2.9263300000000001
 20
8.548820000000001
 30
0.0
 10
-2.7873900000000003
 20
8.9259200000000014
 30
0.0
 10
-2.5095300000000003
 20
9.2368600000000001
 30
0.0
 10
-2.48638
 20
9.6735100000000003
 30
0.0
 10
-2.48638
 20
9.6735100000000003
 30
0.0
 10
-2.48638
 20
9.6735100000000003
 30
0.0
 10
-2.4268200000000002
 20
9.7462800000000005
 30
0.0
 10
-2.4268200000000002
 20
9.7462800000000005
 30
0.0
 10
-2.4268200000000002
 20
9.7462800000000005
 30
0.0
 10
-2.3573600000000003
 20
9.7363600000000012
 30
0.0
 10
-2.3606800000000003
 20
9.6106600000000011
 30
0.0
 10
-2.2647400000000002
 20
9.6139600000000005
 30
0.0
 10
-2.2647400000000002
 20
9.6139600000000005
 30
0.0
 10
-2.1886700000000001
 20
9.7065800000000007
 30
0.0
 10
-2.1192100000000003
 20
9.7992000000000008
 30
0.0
 10
-2.0365000000000002
 20
9.6404300000000003
 30
0.0
 10
-2.0365000000000002
 20
9.6404300000000003
 30
0.0
 10
-2.0365000000000002
 20
9.6404300000000003
 30
0.0
 10
-2.02989
 20
9.5544200000000004
 30
0.0
 10
-2.02989
 20
9.5544200000000004
 30
0.0
 10
-2.02989
 20
9.5544200000000004
 30
0.0
 10
-2.3242800000000003
 20
9.2467800000000011
 30
0.0
 10
-2.5690700000000004
 20
8.9093800000000005
 30
0.0
 10
-2.8270900000000001
 20
8.5554400000000008
 30
0.0
 10
-2.8270900000000001
 20
8.5554400000000008
 30
0.0
 10
-2.8270900000000001
 20
8.5554400000000008
 30
0.0
 10
-2.9263300000000001
 20
8.548820000000001
 30
0.0
 10
-2.9263300000000001
 20
8.548820000000001
 30
0.0
  0
SPLINE
  5
41
100
AcDbEntity
  8
Ebene 1
 62
    51
100
AcDbSpline
210
0.0
220
0.0
230
1.0
 70
     1
 71
     3
 72
    44
 73
    40
 74
     0
 42
0.0000000001
 43
0.0000000001
 40
0.0
 40
0.0
 40
0.0
 40
0.0
 40
0.1
 40
0.1
 40
0.1
 40
0.1
 40
0.2
 40
0.2
 40
0.2
 40
0.2
 40
0.3
 40
0.3
 40
0.3
 40
0.3
 40
0.4
 40
0.4
 40
0.4
 40
0.4
 40
0.5
 40
0.5
 40
0.5
 40
0.5
 40
0.6
 40
0.6
 40
0.6
 40
0.6
 40
0.7
 40
0.7
 40
0.7
 40
0.7
 40
0.7999999999999999
 40
0.7999999999999999
 40
0.7999999999999999
 40
0.7999999999999999
 40
0.8999999999999999
 40
0.8999999999999999
 40
0.8999999999999999
 40
0.8999999999999999
 40
1.0
 40
1.0
 40
1.0
 40
1.0
 10
-3.1744100000000004
 20
5.6544300000000005
 30
0.0
 10
-3.1247900000000004
 20
5.7933500000000002
 30
0.0
 10
-3.0884100000000001
 20
5.9554400000000003
 30
0.0
 10
-2.9825600000000003
 20
6.0646100000000001
 30
0.0
 10
-2.9825600000000003
 20
6.0646100000000001
 30
0.0
 10
-2.9825600000000003
 20
6.0646100000000001
 30
0.0
 10
-3.0288800000000005
 20
5.7768200000000007
 30
0.0
 10
-3.0288800000000005
 20
5.7768200000000007
 30
0.0
 10
-3.0288800000000005
 20
5.7768200000000007
 30
0.0
 10
-2.9660200000000003
 20
5.5981800000000002
 30
0.0
 10
-2.9627100000000004
 20
5.9752800000000006
 30
0.0
 10
-2.8337100000000004
 20
5.9752800000000006
 30
0.0
 10
-2.8337100000000004
 20
5.9752800000000006
 30
0.0
 10
-2.8204700000000003
 20
5.8462800000000001
 30
0.0
 10
-2.9263300000000001
 20
5.7602700000000002
 30
0.0
 10
-2.8601700000000001
 20
5.6445000000000007
 30
0.0
 10
-2.8601700000000001
 20
5.6445000000000007
 30
0.0
 10
-2.7807700000000004
 20
5.6511100000000001
 30
0.0
 10
-2.8204700000000003
 20
5.8065800000000003
 30
0.0
 10
-2.7410900000000002
 20
5.8363600000000009
 30
0.0
 10
-2.7410900000000002
 20
5.8363600000000009
 30
0.0
 10
-2.7013900000000004
 20
5.8065800000000003
 30
0.0
 10
-2.74438
 20
5.6676500000000001
 30
0.0
 10
-2.6517700000000004
 20
5.6941200000000007
 30
0.0
 10
-2.6517700000000004
 20
5.6941200000000007
 30
0.0
 10
-2.6021400000000003
 20
5.7701900000000004
 30
0.0
 10
-2.4698300000000004
 20
5.8528900000000004
 30
0.0
 10
-2.4499900000000001
 20
5.7238900000000008
 30
0.0
 10
-2.4499900000000001
 20
5.7238900000000008
 30
0.0
 10
-2.2845900000000001
 20
5.7999700000000001
 30
0.0
 10
-2.2449000000000003
 20
5.5221100000000005
 30
0.0
 10
-2.12581
 20
5.4162500000000007
 30
0.0
 10
-2.12581
 20
5.4162500000000007
 30
0.0
 10
-2.29121
 20
5.34016
 30
0.0
 10
-2.4566100000000004
 20
5.2839400000000003
 30
0.0
 10
-2.5889200000000003
 20
5.1582400000000002
 30
0.0
 10
-2.5889200000000003
 20
5.1582400000000002
 30
0.0
 10
-2.8601700000000001
 20
5.1813900000000004
 30
0.0
 10
-3.1016300000000001
 20
5.3898000000000001
 30
0.0
 10
-3.1744100000000004
 20
5.6544300000000005
 30
0.0
  0
SPLINE
  5
42
100
AcDbEntity
  8
Ebene 1
 62
     0
100
AcDbSpline
210
0.0
220
0.0
230
1.0
 70
     1
 71
     3
 72
    64
 73
    60
 74
     0
 42
0.0000000001
 43
0.0000000001
 40
0.0
 40
0.0
 40
0.0
 40
0.0
 40
0.0666666666666667
 40
0.0666666666666667
 40
0.0666666666666667
 40
0.0666666666666667
 40
0.1333333333333333
 40
0.1333333333333333
 40
0.1333333333333333
 40
0.1333333333333333
 40
0.2
 40
0.2
 40
0.2
 40
0.2
 40
0.2666666666666667
 40
0.2666666666666667
 40
0.2666666666666667
 40
0.2666666666666667
 40
0.3333333333333333
 40
0.3333333333333333
 40
0.3333333333333333
 40
0.3333333333333333
 40
0.4
 40
0.4
 40
0.4
 40
0.4
 40
0.4666666666666666
 40
0.4666666666666666
 40
0.4666666666666666
 40
0.4666666666666666
 40
0.5333333333333333
 40
0.5333333333333333
 40
0.5333333333333333
 40
0.5333333333333333
 40
0.6
 40
0.6
 40
0.6
 40
0.6
 40
0.6666666666666666
 40
0.6666666666666666
 40
0.6666666666666666
 40
0.6666666666666666
 40
0.7333333333333333
 40
0.7333333333333333
 40
0.7333333333333333
 40
0.7333333333333333
 40
0.7999999999999999
 40
0.7999999999999999
 40
0.7999999999999999
 40
0.7999999999999999
 40
0.8666666666666666
 40
0.8666666666666666
 40
0.8666666666666666
 40
0.8666666666666666
 40
0.9333333333333332
 40
0.9333333333333332
 40
0.9333333333333332
 40
0.9333333333333332
 40
1.0
 40
1.0
 40
1.0
 40
1.0
 10
-5.71157
 20
-10.471530000000001
 30
0.0
 10
-5.6057200000000007
 20
-10.150670000000002
 30
0.0
 10
-5.4006400000000001
 20
-9.8496400000000008
 30
0.0
 10
-5.1128500000000008
 20
-9.6511700000000005
 30
0.0
 10
-5.1128500000000008
 20
-9.6511700000000005
 30
0.0
 10
-5.3113000000000001
 20
-9.94557
 30
0.0
 10
-5.7942600000000004
 20
-11.288570000000002
 30
0.0
 10
-5.2616900000000006
 20
-11.582980000000001
 30
0.0
 10
-5.2616900000000006
 20
-11.582980000000001
 30
0.0
 10
-5.1657700000000002
 20
-11.635900000000001
 30
0.0
 10
-4.8184400000000007
 20
-11.738440000000001
 30
0.0
 10
-4.7489700000000008
 20
-11.53335
 30
0.0
 10
-4.7489700000000008
 20
-11.53335
 30
0.0
 10
-5.0268300000000004
 20
-11.635900000000001
 30
0.0
 10
-5.5428700000000006
 20
-11.238950000000001
 30
0.0
 10
-5.28817
 20
-10.901540000000001
 30
0.0
 10
-5.28817
 20
-10.901540000000001
 30
0.0
 10
-5.2319200000000006
 20
-10.990860000000001
 30
0.0
 10
-5.2980800000000006
 20
-11.129800000000001
 30
0.0
 10
-5.2186900000000005
 20
-11.212490000000001
 30
0.0
 10
-5.2186900000000005
 20
-11.212490000000001
 30
0.0
 10
-5.1161500000000002
 20
-11.235660000000001
 30
0.0
 10
-5.2186900000000005
 20
-10.891630000000001
 30
0.0
 10
-5.0863700000000005
 20
-10.832080000000001
 30
0.0
 10
-5.0863700000000005
 20
-10.832080000000001
 30
0.0
 10
-5.0665200000000006
 20
-11.133100000000001
 30
0.0
 10
-4.9408300000000001
 20
-11.106640000000001
 30
0.0
 10
-4.9507600000000007
 20
-10.80893
 30
0.0
 10
-4.9507600000000007
 20
-10.80893
 30
0.0
 10
-4.9342200000000007
 20
-10.765930000000001
 30
0.0
 10
-4.8978300000000008
 20
-10.83539
 30
0.0
 10
-4.9143700000000008
 20
-10.85524
 30
0.0
 10
-4.9143700000000008
 20
-10.85524
 30
0.0
 10
-4.8052100000000006
 20
-11.219110000000001
 30
0.0
 10
-4.8316600000000003
 20
-10.719620000000001
 30
0.0
 10
-4.7225200000000003
 20
-10.59722
 30
0.0
 10
-4.7225200000000003
 20
-10.59722
 30
0.0
 10
-4.7092700000000001
 20
-10.703090000000001
 30
0.0
 10
-4.5868800000000007
 20
-11.103340000000001
 30
0.0
 10
-4.5571200000000003
 20
-10.752700000000001
 30
0.0
 10
-4.5571200000000003
 20
-10.752700000000001
 30
0.0
 10
-4.5339500000000008
 20
-10.769240000000002
 30
0.0
 10
-4.4942600000000006
 20
-10.832080000000001
 30
0.0
 10
-4.4644900000000005
 20
-10.78247
 30
0.0
 10
-4.4644900000000005
 20
-10.78247
 30
0.0
 10
-4.4644900000000005
 20
-10.78247
 30
0.0
 10
-4.4082600000000003
 20
-10.607150000000001
 30
0.0
 10
-4.4082600000000003
 20
-10.607150000000001
 30
0.0
 10
-4.4082600000000003
 20
-10.607150000000001
 30
0.0
 10
-4.2627100000000002
 20
-11.01402
 30
0.0
 10
-3.7400700000000002
 20
-11.066940000000001
 30
0.0
 10
-3.3861300000000001
 20
-10.947870000000002
 30
0.0
 10
-3.3861300000000001
 20
-10.947870000000002
 30
0.0
 10
-3.7169100000000004
 20
-11.447360000000002
 30
0.0
 10
-4.1502500000000007
 20
-11.807920000000001
 30
0.0
 10
-4.8515100000000002
 20
-11.87738
 30
0.0
 10
-4.8515100000000002
 20
-11.87738
 30
0.0
 10
-5.5097800000000001
 20
-11.936920000000001
 30
0.0
 10
-5.7611800000000004
 20
-10.99417
 30
0.0
 10
-5.71157
 20
-10.471530000000001
 30
0.0
  0
SPLINE
  5
43
100
AcDbEntity
  8
Ebene 1
 62
     0
100
AcDbSpline
210
0.0
220
0.0
230
1.0
 70
     1
 71
     3
 72
   228
 73
   224
 74
     0
 42
0.0000000001
 43
0.0000000001
 40
0.0
 40
0.0
 40
0.0
 40
0.0
 40
0.0178571428571429
 40
0.0178571428571429
 40
0.0178571428571429
 40
0.0178571428571429
 40
0.0357142857142857
 40
0.0357142857142857
 40
0.0357142857142857
 40
0.0357142857142857
 40
0.0535714285714286
 40
0.0535714285714286
 40
0.0535714285714286
 40
0.0535714285714286
 40
0.0714285714285714
 40
0.0714285714285714
 40
0.0714285714285714
 40
0.0714285714285714
 40
0.0892857142857143
 40
0.0892857142857143
 40
0.0892857142857143
 40
0.0892857142857143
 40
0.1071428571428571
 40
0.1071428571428571
 40
0.1071428571428571
 40
0.1071428571428571
 40
0.125
 40
0.125
 40
0.125
 40
0.125
 40
0.1428571428571428
 40
0.1428571428571428
 40
0.1428571428571428
 40
0.1428571428571428
 40
0.1607142857142857
 40
0.1607142857142857
 40
0.1607142857142857
 40
0.1607142857142857
 40
0.1785714285714285
 40
0.1785714285714285
 40
0.1785714285714285
 40
0.1785714285714285
 40
0.1964285714285714
 40
0.1964285714285714
 40
0.1964285714285714
 40
0.1964285714285714
 40
0.2142857142857142
 40
0.2142857142857142
 40
0.2142857142857142
 40
0.2142857142857142
 40
0.2321428571428571
 40
0.2321428571428571
 40
0.2321428571428571
 40
0.2321428571428571
 40
0.2499999999999999
 40
0.2499999999999999
 40
0.2499999999999999
 40
0.2499999999999999
 40
0.2678571428571428
 40
0.2678571428571428
 40
0.2678571428571428
 40
0.2678571428571428
 40
0.2857142857142856
 40
0.2857142857142856
 40
0.2857142857142856
 40
0.2857142857142856
 40
0.3035714285714285
 40
0.3035714285714285
 40
0.3035714285714285
 40
0.3035714285714285
 40
0.3214285714285713
 40
0.3214285714285713
 40
0.3214285714285713
 40
0.3214285714285713
 40
0.3392857142857142
 40
0.3392857142857142
 40
0.3392857142857142
 40
0.3392857142857142
 40
0.357142857142857
 40
0.357142857142857
 40
0.357142857142857
 40
0.357142857142857
 40
0.3749999999999999
 40
0.3749999999999999
 40
0.3749999999999999
 40
0.3749999999999999
 40
0.3928571428571427
 40
0.3928571428571427
 40
0.3928571428571427
 40
0.3928571428571427
 40
0.4107142857142856
 40
0.4107142857142856
 40
0.4107142857142856
 40
0.4107142857142856
 40
0.4285714285714284
 40
0.4285714285714284
 40
0.4285714285714284
 40
0.4285714285714284
 40
0.4464285714285713
 40
0.4464285714285713
 40
0.4464285714285713
 40
0.4464285714285713
 40
0.4642857142857141
 40
0.4642857142857141
 40
0.4642857142857141
 40
0.4642857142857141
 40
0.482142857142857
 40
0.482142857142857
 40
0.482142857142857
 40
0.482142857142857
 40
0.4999999999999998
 40
0.4999999999999998
 40
0.4999999999999998
 40
0.4999999999999998
 40
0.5178571428571427
 40
0.5178571428571427
 40
0.5178571428571427
 40
0.5178571428571427
 40
0.5357142857142856
 40
0.5357142857142856
 40
0.5357142857142856
 40
0.5357142857142856
 40
0.5535714285714285
 40
0.5535714285714285
 40
0.5535714285714285
 40
0.5535714285714285
 40
0.5714285714285714
 40
0.5714285714285714
 40
0.5714285714285714
 40
0.5714285714285714
 40
0.5892857142857143
 40
0.5892857142857143
 40
0.5892857142857143
 40
0.5892857142857143
 40
0.6071428571428572
 40
0.6071428571428572
 40
0.6071428571428572
 40
0.6071428571428572
 40
0.6250000000000001
 40
0.6250000000000001
 40
0.6250000000000001
 40
0.6250000000000001
 40
0.642857142857143
 40
0.642857142857143
 40
0.642857142857143
 40
0.642857142857143
 40
0.6607142857142859
 40
0.6607142857142859
 40
0.6607142857142859
 40
0.6607142857142859
 40
0.6785714285714288
 40
0.6785714285714288
 40
0.6785714285714288
 40
0.6785714285714288
 40
0.6964285714285717
 40
0.6964285714285717
 40
0.6964285714285717
 40
0.6964285714285717
 40
0.7142857142857146
 40
0.7142857142857146
 40
0.7142857142857146
 40
0.7142857142857146
 40
0.7321428571428575
 40
0.7321428571428575
 40
0.7321428571428575
 40
0.7321428571428575
 40
0.7500000000000004
 40
0.7500000000000004
 40
0.7500000000000004
 40
0.7500000000000004
 40
0.7678571428571434
 40
0.7678571428571434
 40
0.7678571428571434
 40
0.7678571428571434
 40
0.7857142857142863
 40
0.7857142857142863
 40
0.7857142857142863
 40
0.7857142857142863
 40
0.8035714285714292
 40
0.8035714285714292
 40
0.8035714285714292
 40
0.8035714285714292
 40
0.8214285714285721
 40
0.8214285714285721
 40
0.8214285714285721
 40
0.8214285714285721
 40
0.839285714285715
 40
0.839285714285715
 40
0.839285714285715
 40
0.839285714285715
 40
0.8571428571428579
 40
0.8571428571428579
 40
0.8571428571428579
 40
0.8571428571428579
 40
0.8750000000000008
 40
0.8750000000000008
 40
0.8750000000000008
 40
0.8750000000000008
 40
0.8928571428571437
 40
0.8928571428571437
 40
0.8928571428571437
 40
0.8928571428571437
 40
0.9107142857142866
 40
0.9107142857142866
 40
0.9107142857142866
 40
0.9107142857142866
 40
0.9285714285714295
 40
0.9285714285714295
 40
0.9285714285714295
 40
0.9285714285714295
 40
0.9464285714285724
 40
0.9464285714285724
 40
0.9464285714285724
 40
0.9464285714285724
 40
0.9642857142857153
 40
0.9642857142857153
 40
0.9642857142857153
 40
0.9642857142857153
 40
0.9821428571428582
 40
0.9821428571428582
 40
0.9821428571428582
 40
0.9821428571428582
 40
1.0
 40
1.0
 40
1.0
 40
1.0
 10
-2.17543
 20
10.14653
 30
0.0
 10
-1.9968100000000002
 20
11.605320000000001
 30
0.0
 10
-0.76297
 20
12.660540000000001
 30
0.0
 10
0.58333
 20
13.044250000000002
 30
0.0
 10
0.58333
 20
13.044250000000002
 30
0.0
 10
0.5998600000000001
 20
13.123640000000002
 30
0.0
 10
0.35838
 20
13.308870000000001
 30
0.0
 10
0.5304000000000001
 20
13.322120000000002
 30
0.0
 10
0.5304000000000001
 20
13.322120000000002
 30
0.0
 10
3.1105500000000004
 20
13.20964
 30
0.0
 10
2.4390500000000004
 20
11.076060000000002
 30
0.0
 10
2.4688300000000001
 20
9.3096399999999999
 30
0.0
 10
2.4688300000000001
 20
9.3096399999999999
 30
0.0
 10
2.7334500000000004
 20
9.432030000000001
 30
0.0
 10
2.7930000000000001
 20
9.9745200000000001
 30
0.0
 10
2.5978300000000001
 20
10.966890000000001
 30
0.0
 10
2.5978300000000001
 20
10.966890000000001
 30
0.0
 10
2.8194500000000002
 20
11.099200000000002
 30
0.0
 10
2.8393000000000002
 20
10.821340000000001
 30
0.0
 10
2.8393000000000002
 20
10.758500000000002
 30
0.0
 10
2.8393000000000002
 20
10.758500000000002
 30
0.0
 10
3.0278600000000004
 20
10.328480000000001
 30
0.0
 10
3.1105500000000004
 20
10.39794
 30
0.0
 10
3.1072400000000004
 20
10.861050000000001
 30
0.0
 10
3.1072400000000004
 20
10.861050000000001
 30
0.0
 10
3.3917200000000003
 20
11.357230000000001
 30
0.0
 10
2.8756900000000001
 20
12.240430000000002
 30
0.0
 10
2.4688300000000001
 20
12.73
 30
0.0
 10
2.4688300000000001
 20
12.73
 30
0.0
 10
2.7202200000000003
 20
12.706840000000001
 30
0.0
 10
2.8756900000000001
 20
12.47198
 30
0.0
 10
3.0741600000000004
 20
12.356210000000001
 30
0.0
 10
3.0741600000000004
 20
12.356210000000001
 30
0.0
 10
3.1337100000000002
 20
12.303290000000001
 30
0.0
 10
3.1965500000000002
 20
12.270210000000001
 30
0.0
 10
3.2660200000000001
 20
12.237130000000001
 30
0.0
 10
3.2660200000000001
 20
12.237130000000001
 30
0.0
 10
3.4314100000000001
 20
12.230510000000001
 30
0.0
 10
3.1105500000000004
 20
12.45213
 30
0.0
 10
3.0443900000000004
 20
12.528220000000001
 30
0.0
 10
3.0443900000000004
 20
12.528220000000001
 30
0.0
 10
1.8237800000000002
 20
13.42135
 30
0.0
 10
4.2848500000000005
 20
12.319820000000002
 30
0.0
 10
3.9209900000000002
 20
12.653910000000002
 30
0.0
 10
3.9209900000000002
 20
12.653910000000002
 30
0.0
 10
3.7059800000000003
 20
12.796150000000001
 30
0.0
 10
3.4777200000000001
 20
12.938390000000002
 30
0.0
 10
3.2561000000000004
 20
13.037640000000001
 30
0.0
 10
3.2561000000000004
 20
13.037640000000001
 30
0.0
 10
3.5174200000000004
 20
13.226180000000001
 30
0.0
 10
3.8382900000000002
 20
13.173250000000001
 30
0.0
 10
4.1459300000000008
 20
13.120330000000001
 30
0.0
 10
4.1459300000000008
 20
13.120330000000001
 30
0.0
 10
4.6024100000000008
 20
13.060780000000001
 30
0.0
 10
4.9232800000000001
 20
12.796150000000001
 30
0.0
 10
5.0787500000000003
 20
12.336360000000001
 30
0.0
 10
5.0787500000000003
 20
12.336360000000001
 30
0.0
 10
5.9619500000000007
 20
9.1475500000000007
 30
0.0
 10
6.5077500000000006
 20
7.943480000000001
 30
0.0
 10
7.050250000000001
 20
6.3656200000000007
 30
0.0
 10
7.050250000000001
 20
6.3656200000000007
 30
0.0
 10
6.6963000000000008
 20
6.2564600000000006
 30
0.0
 10
6.2762000000000002
 20
6.2002200000000007
 30
0.0
 10
5.9553400000000005
 20
5.9587500000000002
 30
0.0
 10
5.9553400000000005
 20
5.9587500000000002
 30
0.0
 10
6.3026700000000009
 20
6.0910600000000006
 30
0.0
 10
6.7723900000000006
 20
6.1803700000000008
 30
0.0
 10
7.1891800000000003
 20
6.1109100000000005
 30
0.0
 10
7.1891800000000003
 20
6.1109100000000005
 30
0.0
 10
5.8098000000000001
 20
5.0391500000000002
 30
0.0
 10
3.3619500000000002
 20
4.6918300000000004
 30
0.0
 10
1.69147
 20
4.5099100000000005
 30
0.0
 10
1.69147
 20
4.5099100000000005
 30
0.0
 10
1.1787400000000001
 20
5.1383900000000002
 30
0.0
 10
2.40598
 20
4.9763000000000002
 30
0.0
 10
2.0851100000000002
 20
5.4294800000000008
 30
0.0
 10
2.0851100000000002
 20
5.4294800000000008
 30
0.0
 10
1.8866300000000003
 20
5.5882700000000005
 30
0.0
 10
1.60877
 20
5.4658600000000002
 30
0.0
 10
1.4036900000000001
 20
5.3732500000000005
 30
0.0
 10
1.4036900000000001
 20
5.3732500000000005
 30
0.0
 10
1.2283700000000002
 20
5.3004800000000003
 30
0.0
 10
1.0695700000000001
 20
5.1582400000000002
 30
0.0
 10
0.9538100000000001
 20
5.0093800000000002
 30
0.0
 10
0.9538100000000001
 20
5.0093800000000002
 30
0.0
 10
1.00342
 20
5.4824000000000002
 30
0.0
 10
1.6187
 20
5.4658600000000002
 30
0.0
 10
1.8403200000000002
 20
5.7205700000000004
 30
0.0
 10
1.8403200000000002
 20
5.7205700000000004
 30
0.0
 10
1.25482
 20
5.9852000000000007
 30
0.0
 10
0.44769
 20
5.7867300000000004
 30
0.0
 10
0.18971
 20
5.0523900000000008
 30
0.0
 10
0.18971
 20
5.0523900000000008
 30
0.0
 10
-0.0253
 20
5.5717200000000009
 30
0.0
 10
1.1192000000000002
 20
5.9058200000000003
 30
0.0
 10
0.28564
 20
6.0216000000000003
 30
0.0
 10
0.28564
 20
6.0216000000000003
 30
0.0
 10
0.10371
 20
6.5343200000000001
 30
0.0
 10
-0.6008800000000001
 20
6.1704500000000007
 30
0.0
 10
-0.77951
 20
5.8231200000000003
 30
0.0
 10
-0.77951
 20
5.8231200000000003
 30
0.0
 10
-1.4046900000000002
 20
6.3457700000000008
 30
0.0
 10
-0.82581
 20
6.7327900000000005
 30
0.0
 10
-0.5645
 20
7.2752900000000009
 30
0.0
 10
-0.5645
 20
7.2752900000000009
 30
0.0
 10
-0.19731
 20
8.1386400000000005
 30
0.0
 10
-0.6935
 20
6.7295000000000007
 30
0.0
 10
-0.5975700000000001
 20
6.4020100000000006
 30
0.0
 10
-0.5975700000000001
 20
6.4020100000000006
 30
0.0
 10
-0.4421100000000001
 20
6.5012400000000001
 30
0.0
 10
-0.4917200000000001
 20
6.7394100000000003
 30
0.0
 10
-0.40571
 20
6.8948700000000009
 30
0.0
 10
-0.40571
 20
6.8948700000000009
 30
0.0
 10
-0.28001
 20
6.8717300000000003
 30
0.0
 10
-0.26016
 20
6.9312700000000005
 30
0.0
 10
-0.19401
 20
7.090040000000001
 30
0.0
 10
-0.19401
 20
7.090040000000001
 30
0.0
 10
-0.00215
 20
7.2289700000000003
 30
0.0
 10
-0.16424
 20
6.7758000000000003
 30
0.0
 10
-0.09476
 20
6.7824100000000005
 30
0.0
 10
-0.09476
 20
6.7824100000000005
 30
0.0
 10
-0.03853
 20
6.7857100000000008
 30
0.0
 10
0.01771
 20
6.9180300000000008
 30
0.0
 10
0.01439
 20
6.9279500000000009
 30
0.0
 10
0.01439
 20
6.9279500000000009
 30
0.0
 10
0.4278400000000001
 20
7.0470400000000009
 30
0.0
 10
-0.39578
 20
8.2544200000000014
 30
0.0
 10
0.28234
 20
8.8961600000000001
 30
0.0
 10
0.28234
 20
8.8961600000000001
 30
0.0
 10
0.6858700000000001
 20
9.1012400000000007
 30
0.0
 10
1.04312
 20
10.890820000000001
 30
0.0
 10
0.6759500000000001
 20
10.04729
 30
0.0
 10
0.6759500000000001
 20
10.04729
 30
0.0
 10
0.5138600000000001
 20
9.25671
 30
0.0
 10
-0.3527900000000001
 20
9.0020000000000007
 30
0.0
 10
-0.4255600000000001
 20
8.1750300000000014
 30
0.0
 10
-0.4255600000000001
 20
8.1750300000000014
 30
0.0
 10
-0.7232700000000001
 20
9.1475500000000007
 30
0.0
 10
-0.42886
 20
10.169700000000001
 30
0.0
 10
-0.01538
 20
10.897430000000002
 30
0.0
 10
-0.01538
 20
10.897430000000002
 30
0.0
 10
0.1401
 20
10.95696
 30
0.0
 10
-0.04846
 20
10.464090000000001
 30
0.0
 10
0.07393
 20
10.3384
 30
0.0
 10
0.07393
 20
10.3384
 30
0.0
 10
0.14339
 20
10.19946
 30
0.0
 10
0.33194
 20
9.5378900000000009
 30
0.0
 10
0.34847
 20
10.060540000000001
 30
0.0
 10
0.34847
 20
10.060540000000001
 30
0.0
 10
0.34847
 20
10.060540000000001
 30
0.0
 10
0.54693
 20
11.410150000000002
 30
0.0
 10
0.54693
 20
11.410150000000002
 30
0.0
 10
0.54693
 20
11.410150000000002
 30
0.0
 10
0.5965600000000001
 20
11.823640000000001
 30
0.0
 10
0.9174200000000001
 20
12.167660000000001
 30
0.0
 10
0.9637300000000001
 20
12.561290000000001
 30
0.0
 10
0.9637300000000001
 20
12.561290000000001
 30
0.0
 10
0.2261
 20
11.949340000000001
 30
0.0
 10
-0.49502
 20
10.97681
 30
0.0
 10
-0.6703400000000001
 20
9.9778300000000009
 30
0.0
 10
-0.6703400000000001
 20
9.9778300000000009
 30
0.0
 10
-0.60419
 20
10.050610000000001
 30
0.0
 10
-0.4321700000000001
 20
10.401250000000001
 30
0.0
 10
-0.41232
 20
10.209380000000001
 30
0.0
 10
-0.41232
 20
10.209380000000001
 30
0.0
 10
-0.8324300000000001
 20
9.1045400000000001
 30
0.0
 10
-0.9019
 20
10.70227
 30
0.0
 10
-0.4024
 20
11.059520000000001
 30
0.0
 10
-0.4024
 20
11.059520000000001
 30
0.0
 10
-0.11462
 20
11.410150000000002
 30
0.0
 10
-0.5247900000000001
 20
11.23484
 30
0.0
 10
-0.6108
 20
11.01651
 30
0.0
 10
-0.6108
 20
11.01651
 30
0.0
 10
-0.90851
 20
10.563330000000001
 30
0.0
 10
-1.4576200000000001
 20
9.7959000000000014
 30
0.0
 10
-0.8622000000000001
 20
9.3824200000000015
 30
0.0
 10
-0.8622000000000001
 20
9.3824200000000015
 30
0.0
 10
-0.6108
 20
9.1310200000000012
 30
0.0
 10
-1.0110600000000001
 20
9.1111700000000013
 30
0.0
 10
-1.0408300000000001
 20
9.3890200000000004
 30
0.0
 10
-1.0408300000000001
 20
9.3890200000000004
 30
0.0
 10
-1.0408300000000001
 20
9.3890200000000004
 30
0.0
 10
-1.18306
 20
9.7297400000000014
 30
0.0
 10
-1.18306
 20
9.7297400000000014
 30
0.0
 10
-1.18306
 20
9.7297400000000014
 30
0.0
 10
-1.18306
 20
9.7297400000000014
 30
0.0
 10
-1.2624600000000001
 20
9.9712300000000003
 30
0.0
 10
-1.2624600000000001
 20
9.9712300000000003
 30
0.0
 10
-1.2624600000000001
 20
9.9712300000000003
 30
0.0
 10
-1.5866300000000002
 20
10.2987
 30
0.0
 10
-1.05406
 20
9.0582400000000014
 30
0.0
 10
-1.2525300000000001
 20
9.299710000000001
 30
0.0
 10
-1.2525300000000001
 20
9.299710000000001
 30
0.0
 10
-2.2978300000000003
 20
10.083690000000001
 30
0.0
 10
-0.42886
 20
11.17529
 30
0.0
 10
-0.07492
 20
11.97911
 30
0.0
 10
-0.07492
 20
11.97911
 30
0.0
 10
-0.2965600000000001
 20
11.972490000000001
 30
0.0
 10
-0.41232
 20
11.717790000000001
 30
0.0
 10
-0.5678000000000001
 20
11.598690000000001
 30
0.0
 10
-0.5678000000000001
 20
11.598690000000001
 30
0.0
 10
-0.86882
 20
11.310910000000002
 30
0.0
 10
-1.14998
 20
11.046270000000002
 30
0.0
 10
-1.4146100000000001
 20
10.732030000000002
 30
0.0
 10
-1.4146100000000001
 20
10.732030000000002
 30
0.0
 10
-1.8446400000000001
 20
10.06714
 30
0.0
 10
-1.5965600000000002
 20
10.887500000000001
 30
0.0
 10
-1.3418500000000002
 20
11.138900000000001
 30
0.0
 10
-1.3418500000000002
 20
11.138900000000001
 30
0.0
 10
-1.3418500000000002
 20
11.138900000000001
 30
0.0
 10
-0.8092800000000001
 20
11.8071
 30
0.0
 10
-0.8092800000000001
 20
11.8071
 30
0.0
 10
-0.8092800000000001
 20
11.8071
 30
0.0
 10
-0.7133400000000001
 20
11.955960000000001
 30
0.0
 10
-0.4156300000000001
 20
12.075040000000001
 30
0.0
 10
-0.4421100000000001
 20
12.29006
 30
0.0
 10
-0.4421100000000001
 20
12.29006
 30
0.0
 10
-1.3120700000000001
 20
11.826950000000002
 30
0.0
 10
-1.9868800000000002
 20
10.867650000000001
 30
0.0
 10
-1.9372600000000002
 20
9.8554400000000015
 30
0.0
 10
-1.9372600000000002
 20
9.8554400000000015
 30
0.0
 10
-2.09273
 20
9.8587600000000002
 30
0.0
 10
-2.1357400000000002
 20
10.03406
 30
0.0
 10
-2.17543
 20
10.14653
 30
0.0
  0
SPLINE
  5
44
100
AcDbEntity
  8
Ebene 1
 62
     0
100
AcDbSpline
210
0.0
220
0.0
230
1.0
 70
     1
 71
     3
 72
    68
 73
    64
 74
     0
 42
0.0000000001
 43
0.0000000001
 40
0.0
 40
0.0
 40
0.0
 40
0.0
 40
0.0625
 40
0.0625
 40
0.0625
 40
0.0625
 40
0.125
 40
0.125
 40
0.125
 40
0.125
 40
0.1875
 40
0.1875
 40
0.1875
 40
0.1875
 40
0.25
 40
0.25
 40
0.25
 40
0.25
 40
0.3125
 40
0.3125
 40
0.3125
 40
0.3125
 40
0.375
 40
0.375
 40
0.375
 40
0.375
 40
0.4375
 40
0.4375
 40
0.4375
 40
0.4375
 40
0.5
 40
0.5
 40
0.5
 40
0.5
 40
0.5625
 40
0.5625
 40
0.5625
 40
0.5625
 40
0.625
 40
0.625
 40
0.625
 40
0.625
 40
0.6875
 40
0.6875
 40
0.6875
 40
0.6875
 40
0.75
 40
0.75
 40
0.75
 40
0.75
 40
0.8125
 40
0.8125
 40
0.8125
 40
0.8125
 40
0.875
 40
0.875
 40
0.875
 40
0.875
 40
0.9375
 40
0.9375
 40
0.9375
 40
0.9375
 40
1.0
 40
1.0
 40
1.0
 40
1.0
 10
4.3080100000000003
 20
5.9389000000000003
 30
0.0
 10
4.3146200000000006
 20
6.0844500000000004
 30
0.0
 10
4.5064800000000007
 20
6.2233800000000006
 30
0.0
 10
4.58256
 20
6.0612900000000005
 30
0.0
 10
4.58256
 20
6.0612900000000005
 30
0.0
 10
4.6156500000000005
 20
6.1406800000000006
 30
0.0
 10
4.6718700000000002
 20
6.2994700000000003
 30
0.0
 10
4.7678100000000008
 20
6.1770700000000005
 30
0.0
 10
4.7678100000000008
 20
6.1770700000000005
 30
0.0
 10
4.7711100000000002
 20
6.2829200000000007
 30
0.0
 10
4.8736500000000005
 20
6.3292300000000008
 30
0.0
 10
4.9232800000000001
 20
6.2366100000000007
 30
0.0
 10
4.9232800000000001
 20
6.2366100000000007
 30
0.0
 10
4.9232800000000001
 20
6.2366100000000007
 30
0.0
 10
5.1250600000000004
 20
6.8750200000000001
 30
0.0
 10
5.1250600000000004
 20
6.8750200000000001
 30
0.0
 10
5.1250600000000004
 20
6.8750200000000001
 30
0.0
 10
5.1250600000000004
 20
6.8750200000000001
 30
0.0
 10
5.2110600000000007
 20
6.8187900000000008
 30
0.0
 10
5.2110600000000007
 20
6.8187900000000008
 30
0.0
 10
5.2110600000000007
 20
6.8187900000000008
 30
0.0
 10
5.1945200000000007
 20
6.9246500000000006
 30
0.0
 10
4.9828200000000002
 20
7.2752900000000009
 30
0.0
 10
5.2011400000000005
 20
7.1363600000000007
 30
0.0
 10
5.2011400000000005
 20
7.1363600000000007
 30
0.0
 10
5.2011400000000005
 20
7.1363600000000007
 30
0.0
 10
5.1713600000000008
 20
7.2852000000000006
 30
0.0
 10
5.1713600000000008
 20
7.2852000000000006
 30
0.0
 10
5.1713600000000008
 20
7.2852000000000006
 30
0.0
 10
5.1713600000000008
 20
7.2852000000000006
 30
0.0
 10
5.3896900000000008
 20
7.0172600000000003
 30
0.0
 10
5.3896900000000008
 20
7.0172600000000003
 30
0.0
 10
5.3896900000000008
 20
7.0172600000000003
 30
0.0
 10
5.5087600000000005
 20
6.9147200000000009
 30
0.0
 10
5.33345
 20
7.2157400000000003
 30
0.0
 10
5.3103100000000003
 20
7.2852000000000006
 30
0.0
 10
5.3103100000000003
 20
7.2852000000000006
 30
0.0
 10
5.2441400000000007
 20
7.4009900000000002
 30
0.0
 10
5.1581400000000004
 20
7.5200700000000005
 30
0.0
 10
5.1283600000000007
 20
7.6490800000000005
 30
0.0
 10
5.1283600000000007
 20
7.6490800000000005
 30
0.0
 10
5.5550900000000007
 20
7.3149800000000003
 30
0.0
 10
5.9784900000000007
 20
6.7394100000000003
 30
0.0
 10
5.9288700000000008
 20
6.0910600000000006
 30
0.0
 10
5.9288700000000008
 20
6.0910600000000006
 30
0.0
 10
5.6047000000000002
 20
5.8297400000000001
 30
0.0
 10
5.1415900000000008
 20
5.8429600000000006
 30
0.0
 10
4.8075000000000001
 20
5.9620600000000001
 30
0.0
 10
4.8075000000000001
 20
5.9620600000000001
 30
0.0
 10
4.79427
 20
5.9025100000000004
 30
0.0
 10
4.7678100000000008
 20
5.8429600000000006
 30
0.0
 10
4.7016500000000008
 20
5.8330500000000001
 30
0.0
 10
4.7016500000000008
 20
5.8330500000000001
 30
0.0
 10
4.7016500000000008
 20
5.8330500000000001
 30
0.0
 10
4.5759500000000006
 20
5.9587500000000002
 30
0.0
 10
4.5759500000000006
 20
5.9587500000000002
 30
0.0
 10
4.5759500000000006
 20
5.9587500000000002
 30
0.0
 10
4.5759500000000006
 20
5.9587500000000002
 30
0.0
 10
4.4237800000000007
 20
5.7338100000000001
 30
0.0
 10
4.4237800000000007
 20
5.7338100000000001
 30
0.0
 10
4.4237800000000007
 20
5.7338100000000001
 30
0.0
 10
4.2286100000000006
 20
5.3534000000000006
 30
0.0
 10
4.0069900000000001
 20
5.9025100000000004
 30
0.0
 10
4.3080100000000003
 20
5.9389000000000003
 30
0.0
  0
SPLINE
  5
45
100
AcDbEntity
  8
Ebene 1
 62
     0
100
AcDbSpline
210
0.0
220
0.0
230
1.0
 70
     1
 71
     3
 72
    16
 73
    12
 74
     0
 42
0.0000000001
 43
0.0000000001
 40
0.0
 40
0.0
 40
0.0
 40
0.0
 40
0.3333333333333333
 40
0.3333333333333333
 40
0.3333333333333333
 40
0.3333333333333333
 40
0.6666666666666666
 40
0.6666666666666666
 40
0.6666666666666666
 40
0.6666666666666666
 40
1.0
 40
1.0
 40
1.0
 40
1.0
 10
3.8779800000000004
 20
5.6974100000000005
 30
0.0
 10
3.8812900000000004
 20
5.8032700000000004
 30
0.0
 10
3.9772100000000004
 20
5.9322800000000004
 30
0.0
 10
4.0797699999999999
 20
5.9355900000000004
 30
0.0
 10
4.0797699999999999
 20
5.9355900000000004
 30
0.0
 10
4.1459300000000008
 20
5.8429600000000006
 30
0.0
 10
4.093
 20
5.5783400000000007
 30
0.0
 10
3.9573700000000005
 20
5.6841900000000001
 30
0.0
 10
3.9573700000000005
 20
5.6841900000000001
 30
0.0
 10
3.9573700000000005
 20
5.6841900000000001
 30
0.0
 10
3.8779800000000004
 20
5.6974100000000005
 30
0.0
 10
3.8779800000000004
 20
5.6974100000000005
 30
0.0
  0
SPLINE
  5
46
100
AcDbEntity
  8
Ebene 1
 62
     0
100
AcDbSpline
210
0.0
220
0.0
230
1.0
 70
     1
 71
     3
 72
   108
 73
   104
 74
     0
 42
0.0000000001
 43
0.0000000001
 40
0.0
 40
0.0
 40
0.0
 40
0.0
 40
0.0384615384615385
 40
0.0384615384615385
 40
0.0384615384615385
 40
0.0384615384615385
 40
0.0769230769230769
 40
0.0769230769230769
 40
0.0769230769230769
 40
0.0769230769230769
 40
0.1153846153846154
 40
0.1153846153846154
 40
0.1153846153846154
 40
0.1153846153846154
 40
0.1538461538461539
 40
0.1538461538461539
 40
0.1538461538461539
 40
0.1538461538461539
 40
0.1923076923076923
 40
0.1923076923076923
 40
0.1923076923076923
 40
0.1923076923076923
 40
0.2307692307692308
 40
0.2307692307692308
 40
0.2307692307692308
 40
0.2307692307692308
 40
0.2692307692307693
 40
0.2692307692307693
 40
0.2692307692307693
 40
0.2692307692307693
 40
0.3076923076923077
 40
0.3076923076923077
 40
0.3076923076923077
 40
0.3076923076923077
 40
0.3461538461538462
 40
0.3461538461538462
 40
0.3461538461538462
 40
0.3461538461538462
 40
0.3846153846153846
 40
0.3846153846153846
 40
0.3846153846153846
 40
0.3846153846153846
 40
0.423076923076923
 40
0.423076923076923
 40
0.423076923076923
 40
0.423076923076923
 40
0.4615384615384615
 40
0.4615384615384615
 40
0.4615384615384615
 40
0.4615384615384615
 40
0.4999999999999999
 40
0.4999999999999999
 40
0.4999999999999999
 40
0.4999999999999999
 40
0.5384615384615383
 40
0.5384615384615383
 40
0.5384615384615383
 40
0.5384615384615383
 40
0.5769230769230768
 40
0.5769230769230768
 40
0.5769230769230768
 40
0.5769230769230768
 40
0.6153846153846152
 40
0.6153846153846152
 40
0.6153846153846152
 40
0.6153846153846152
 40
0.6538461538461536
 40
0.6538461538461536
 40
0.6538461538461536
 40
0.6538461538461536
 40
0.6923076923076921
 40
0.6923076923076921
 40
0.6923076923076921
 40
0.6923076923076921
 40
0.7307692307692305
 40
0.7307692307692305
 40
0.7307692307692305
 40
0.7307692307692305
 40
0.7692307692307689
 40
0.7692307692307689
 40
0.7692307692307689
 40
0.7692307692307689
 40
0.8076923076923074
 40
0.8076923076923074
 40
0.8076923076923074
 40
0.8076923076923074
 40
0.8461538461538458
 40
0.8461538461538458
 40
0.8461538461538458
 40
0.8461538461538458
 40
0.8846153846153843
 40
0.8846153846153843
 40
0.8846153846153843
 40
0.8846153846153843
 40
0.9230769230769227
 40
0.9230769230769227
 40
0.9230769230769227
 40
0.9230769230769227
 40
0.9615384615384611
 40
0.9615384615384611
 40
0.9615384615384611
 40
0.9615384615384611
 40
1.0
 40
1.0
 40
1.0
 40
1.0
 10
5.7171700000000003
 20
8.7042900000000003
 30
0.0
 10
5.7270900000000005
 20
8.7472900000000013
 30
0.0
 10
5.6807800000000004
 20
8.7109100000000002
 30
0.0
 10
5.7171700000000003
 20
8.7042900000000003
 30
0.0
 10
5.7171700000000003
 20
8.7042900000000003
 30
0.0
 10
5.7701000000000002
 20
8.4859800000000014
 30
0.0
 10
5.9255700000000004
 20
8.2941300000000009
 30
0.0
 10
6.0347300000000006
 20
8.108880000000001
 30
0.0
 10
6.0347300000000006
 20
8.108880000000001
 30
0.0
 10
6.0248100000000004
 20
8.0658799999999999
 30
0.0
 10
5.9818000000000007
 20
8.075800000000001
 30
0.0
 10
5.9553400000000005
 20
8.07911
 30
0.0
 10
5.9553400000000005
 20
8.07911
 30
0.0
 10
5.9454200000000004
 20
7.8508700000000005
 30
0.0
 10
5.7965500000000008
 20
8.042720000000001
 30
0.0
 10
5.7469400000000004
 20
8.1121800000000004
 30
0.0
 10
5.7469400000000004
 20
8.1121800000000004
 30
0.0
 10
5.7568700000000002
 20
8.155190000000001
 30
0.0
 10
5.7072400000000005
 20
8.1188099999999999
 30
0.0
 10
5.7469400000000004
 20
8.1121800000000004
 30
0.0
 10
5.7469400000000004
 20
8.1121800000000004
 30
0.0
 10
5.7469400000000004
 20
8.1121800000000004
 30
0.0
 10
5.8131000000000004
 20
7.7880100000000008
 30
0.0
 10
5.8131000000000004
 20
7.7880100000000008
 30
0.0
 10
5.8131000000000004
 20
7.7880100000000008
 30
0.0
 10
5.7006400000000008
 20
7.7648500000000009
 30
0.0
 10
5.6774800000000001
 20
7.9137100000000009
 30
0.0
 10
5.5980800000000004
 20
7.9500900000000003
 30
0.0
 10
5.5980800000000004
 20
7.9500900000000003
 30
0.0
 10
5.5980800000000004
 20
7.9500900000000003
 30
0.0
 10
5.6212400000000002
 20
7.8409400000000007
 30
0.0
 10
5.6212400000000002
 20
7.8409400000000007
 30
0.0
 10
5.6212400000000002
 20
7.8409400000000007
 30
0.0
 10
5.6344700000000003
 20
7.7979400000000005
 30
0.0
 10
5.6907100000000002
 20
7.7450100000000006
 30
0.0
 10
5.6477100000000009
 20
7.6887800000000004
 30
0.0
 10
5.6477100000000009
 20
7.6887800000000004
 30
0.0
 10
5.6477100000000009
 20
7.6887800000000004
 30
0.0
 10
5.5616900000000005
 20
7.7251600000000007
 30
0.0
 10
5.5616900000000005
 20
7.7251600000000007
 30
0.0
 10
5.5616900000000005
 20
7.7251600000000007
 30
0.0
 10
5.2706100000000005
 20
8.1717300000000002
 30
0.0
 10
4.9993600000000002
 20
8.6381300000000003
 30
0.0
 10
4.8736500000000005
 20
9.1409400000000005
 30
0.0
 10
4.8736500000000005
 20
9.1409400000000005
 30
0.0
 10
4.8736500000000005
 20
9.1409400000000005
 30
0.0
 10
4.9795100000000003
 20
9.0384000000000011
 30
0.0
 10
4.9795100000000003
 20
9.0384000000000011
 30
0.0
 10
4.9795100000000003
 20
9.0384000000000011
 30
0.0
 10
4.9695900000000002
 20
8.9987000000000013
 30
0.0
 10
5.0158900000000006
 20
9.0317699999999999
 30
0.0
 10
4.9795100000000003
 20
9.0384000000000011
 30
0.0
 10
4.9795100000000003
 20
9.0384000000000011
 30
0.0
 10
4.7843400000000003
 20
9.4485800000000015
 30
0.0
 10
4.9464300000000003
 20
9.5676500000000004
 30
0.0
 10
4.7347300000000008
 20
9.9811500000000013
 30
0.0
 10
4.7347300000000008
 20
9.9811500000000013
 30
0.0
 10
5.02583
 20
9.8058300000000003
 30
0.0
 10
4.7545700000000002
 20
10.14653
 30
0.0
 10
4.7181900000000008
 20
10.381400000000001
 30
0.0
 10
4.7181900000000008
 20
10.381400000000001
 30
0.0
 10
4.7181900000000008
 20
10.381400000000001
 30
0.0
 10
4.8108200000000005
 20
10.533560000000001
 30
0.0
 10
4.8108200000000005
 20
10.533560000000001
 30
0.0
 10
4.8108200000000005
 20
10.533560000000001
 30
0.0
 10
4.9332100000000008
 20
10.513720000000001
 30
0.0
 10
4.9398100000000005
 20
10.262310000000001
 30
0.0
 10
5.0522800000000005
 20
10.242460000000001
 30
0.0
 10
5.0522800000000005
 20
10.242460000000001
 30
0.0
 10
5.0324400000000002
 20
10.331770000000001
 30
0.0
 10
4.8736500000000005
 20
10.609640000000001
 30
0.0
 10
5.02583
 20
10.563330000000001
 30
0.0
 10
5.02583
 20
10.563330000000001
 30
0.0
 10
5.02583
 20
10.563330000000001
 30
0.0
 10
5.1349800000000005
 20
10.39794
 30
0.0
 10
5.1349800000000005
 20
10.39794
 30
0.0
 10
5.1349800000000005
 20
10.39794
 30
0.0
 10
5.1349800000000005
 20
10.39794
 30
0.0
 10
4.84389
 20
11.492850000000001
 30
0.0
 10
4.84389
 20
11.492850000000001
 30
0.0
 10
4.84389
 20
11.492850000000001
 30
0.0
 10
4.84389
 20
11.492850000000001
 30
0.0
 10
4.3245500000000003
 20
12.41905
 30
0.0
 10
4.3245500000000003
 20
12.41905
 30
0.0
 10
4.3245500000000003
 20
12.41905
 30
0.0
 10
4.4667900000000005
 20
12.521600000000001
 30
0.0
 10
4.7082600000000001
 20
12.081650000000002
 30
0.0
 10
4.6751800000000001
 20
12.382670000000001
 30
0.0
 10
4.6751800000000001
 20
12.382670000000001
 30
0.0
 10
4.6751800000000001
 20
12.382670000000001
 30
0.0
 10
4.7248000000000001
 20
12.352900000000002
 30
0.0
 10
4.7248000000000001
 20
12.352900000000002
 30
0.0
 10
4.7248000000000001
 20
12.352900000000002
 30
0.0
 10
5.1779900000000003
 20
11.648330000000001
 30
0.0
 10
5.4128500000000006
 20
10.834570000000001
 30
0.0
 10
5.4591500000000002
 20
10.007610000000001
 30
0.0
 10
5.4591500000000002
 20
10.007610000000001
 30
0.0
 10
5.4591500000000002
 20
10.007610000000001
 30
0.0
 10
6.1339600000000001
 20
8.1948699999999999
 30
0.0
 10
6.1339600000000001
 20
8.1948699999999999
 30
0.0
 10
6.1339600000000001
 20
8.1948699999999999
 30
0.0
 10
5.9454200000000004
 20
8.2908100000000005
 30
0.0
 10
5.8792600000000004
 20
8.55213
 30
0.0
 10
5.7171700000000003
 20
8.7042900000000003
 30
0.0
  0
SPLINE
  5
47
100
AcDbEntity
  8
Ebene 1
 62
     0
100
AcDbSpline
210
0.0
220
0.0
230
1.0
 70
     1
 71
     3
 72
    72
 73
    68
 74
     0
 42
0.0000000001
 43
0.0000000001
 40
0.0
 40
0.0
 40
0.0
 40
0.0
 40
0.0588235294117647
 40
0.0588235294117647
 40
0.0588235294117647
 40
0.0588235294117647
 40
0.1176470588235294
 40
0.1176470588235294
 40
0.1176470588235294
 40
0.1176470588235294
 40
0.1764705882352941
 40
0.1764705882352941
 40
0.1764705882352941
 40
0.1764705882352941
 40
0.2352941176470588
 40
0.2352941176470588
 40
0.2352941176470588
 40
0.2352941176470588
 40
0.2941176470588235
 40
0.2941176470588235
 40
0.2941176470588235
 40
0.2941176470588235
 40
0.3529411764705883
 40
0.3529411764705883
 40
0.3529411764705883
 40
0.3529411764705883
 40
0.411764705882353
 40
0.411764705882353
 40
0.411764705882353
 40
0.411764705882353
 40
0.4705882352941177
 40
0.4705882352941177
 40
0.4705882352941177
 40
0.4705882352941177
 40
0.5294117647058824
 40
0.5294117647058824
 40
0.5294117647058824
 40
0.5294117647058824
 40
0.5882352941176471
 40
0.5882352941176471
 40
0.5882352941176471
 40
0.5882352941176471
 40
0.6470588235294118
 40
0.6470588235294118
 40
0.6470588235294118
 40
0.6470588235294118
 40
0.7058823529411765
 40
0.7058823529411765
 40
0.7058823529411765
 40
0.7058823529411765
 40
0.7647058823529412
 40
0.7647058823529412
 40
0.7647058823529412
 40
0.7647058823529412
 40
0.823529411764706
 40
0.823529411764706
 40
0.823529411764706
 40
0.823529411764706
 40
0.8823529411764707
 40
0.8823529411764707
 40
0.8823529411764707
 40
0.8823529411764707
 40
0.9411764705882354
 40
0.9411764705882354
 40
0.9411764705882354
 40
0.9411764705882354
 40
1.0
 40
1.0
 40
1.0
 40
1.0
 10
3.4016500000000001
 20
10.328480000000001
 30
0.0
 10
3.4016500000000001
 20
10.328480000000001
 30
0.0
 10
3.3487200000000001
 20
10.589790000000001
 30
0.0
 10
3.3487200000000001
 20
10.589790000000001
 30
0.0
 10
3.3487200000000001
 20
10.589790000000001
 30
0.0
 10
3.4347300000000001
 20
10.867650000000001
 30
0.0
 10
3.7159000000000004
 20
9.7529000000000003
 30
0.0
 10
3.6232800000000003
 20
10.27224
 30
0.0
 10
3.6232800000000003
 20
10.27224
 30
0.0
 10
3.6232800000000003
 20
10.27224
 30
0.0
 10
3.5935100000000002
 20
10.464090000000001
 30
0.0
 10
3.5935100000000002
 20
10.464090000000001
 30
0.0
 10
3.5935100000000002
 20
10.464090000000001
 30
0.0
 10
3.5935100000000002
 20
10.464090000000001
 30
0.0
 10
3.5405800000000003
 20
10.74526
 30
0.0
 10
3.5405800000000003
 20
10.74526
 30
0.0
 10
3.5405800000000003
 20
10.74526
 30
0.0
 10
3.4777200000000001
 20
10.986740000000001
 30
0.0
 10
3.5041900000000004
 20
11.171980000000001
 30
0.0
 10
3.5637300000000005
 20
11.350610000000001
 30
0.0
 10
3.5637300000000005
 20
11.350610000000001
 30
0.0
 10
4.0400700000000001
 20
10.37147
 30
0.0
 10
3.8382900000000002
 20
9.1872500000000006
 30
0.0
 10
4.46347
 20
8.2444900000000008
 30
0.0
 10
4.46347
 20
8.2444900000000008
 30
0.0
 10
4.46347
 20
8.2444900000000008
 30
0.0
 10
4.5726400000000007
 20
7.8905500000000011
 30
0.0
 10
4.5726400000000007
 20
7.8905500000000011
 30
0.0
 10
4.5726400000000007
 20
7.8905500000000011
 30
0.0
 10
4.4502500000000005
 20
7.8045400000000003
 30
0.0
 10
4.4171700000000005
 20
8.0625700000000009
 30
0.0
 10
4.3377800000000004
 20
8.1386400000000005
 30
0.0
 10
4.3377800000000004
 20
8.1386400000000005
 30
0.0
 10
4.3245500000000003
 20
8.2444900000000008
 30
0.0
 10
4.2352400000000001
 20
8.2808799999999998
 30
0.0
 10
4.1360000000000001
 20
8.2345700000000015
 30
0.0
 10
4.1360000000000001
 20
8.2345700000000015
 30
0.0
 10
4.12277
 20
8.0857200000000002
 30
0.0
 10
4.1492300000000002
 20
8.8928400000000014
 30
0.0
 10
3.8945200000000004
 20
8.0658799999999999
 30
0.0
 10
3.8945200000000004
 20
8.0658799999999999
 30
0.0
 10
3.8581400000000001
 20
7.9666400000000008
 30
0.0
 10
3.7555900000000002
 20
8.0261800000000001
 30
0.0
 10
3.7059800000000003
 20
8.075800000000001
 30
0.0
 10
3.7059800000000003
 20
8.075800000000001
 30
0.0
 10
3.6563400000000001
 20
7.9798600000000004
 30
0.0
 10
3.5637300000000005
 20
8.0559500000000011
 30
0.0
 10
3.4810400000000001
 20
7.9864900000000008
 30
0.0
 10
3.4810400000000001
 20
7.9864900000000008
 30
0.0
 10
3.2958000000000003
 20
8.2676500000000015
 30
0.0
 10
3.1634800000000003
 20
8.6679100000000009
 30
0.0
 10
3.1304000000000003
 20
9.0119199999999999
 30
0.0
 10
3.1304000000000003
 20
9.0119199999999999
 30
0.0
 10
3.1304000000000003
 20
9.0119199999999999
 30
0.0
 10
3.2097800000000003
 20
8.9987000000000013
 30
0.0
 10
3.2097800000000003
 20
8.9987000000000013
 30
0.0
 10
3.2097800000000003
 20
8.9987000000000013
 30
0.0
 10
3.1634800000000003
 20
9.0880100000000006
 30
0.0
 10
3.2064800000000004
 20
9.12439
 30
0.0
 10
3.2428700000000004
 20
9.2004800000000007
 30
0.0
 10
3.2428700000000004
 20
9.2004800000000007
 30
0.0
 10
3.2064800000000004
 20
9.332790000000001
 30
0.0
 10
3.0774700000000004
 20
9.6073500000000003
 30
0.0
 10
3.2726400000000004
 20
9.5114200000000011
 30
0.0
 10
3.2726400000000004
 20
9.5114200000000011
 30
0.0
 10
2.8889100000000001
 20
10.163080000000001
 30
0.0
 10
3.7026700000000003
 20
9.2401800000000005
 30
0.0
 10
3.4016500000000001
 20
10.328480000000001
 30
0.0
  0
SPLINE
  5
48
100
AcDbEntity
  8
Ebene 1
 62
     0
100
AcDbSpline
210
0.0
220
0.0
230
1.0
 70
     1
 71
     3
 72
    32
 73
    28
 74
     0
 42
0.0000000001
 43
0.0000000001
 40
0.0
 40
0.0
 40
0.0
 40
0.0
 40
0.1428571428571429
 40
0.1428571428571429
 40
0.1428571428571429
 40
0.1428571428571429
 40
0.2857142857142857
 40
0.2857142857142857
 40
0.2857142857142857
 40
0.2857142857142857
 40
0.4285714285714286
 40
0.4285714285714286
 40
0.4285714285714286
 40
0.4285714285714286
 40
0.5714285714285714
 40
0.5714285714285714
 40
0.5714285714285714
 40
0.5714285714285714
 40
0.7142857142857142
 40
0.7142857142857142
 40
0.7142857142857142
 40
0.7142857142857142
 40
0.857142857142857
 40
0.857142857142857
 40
0.857142857142857
 40
0.857142857142857
 40
1.0
 40
1.0
 40
1.0
 40
1.0
 10
2.4456600000000002
 20
8.4330500000000015
 30
0.0
 10
2.4456600000000002
 20
8.4330500000000015
 30
0.0
 10
2.4688300000000001
 20
8.4925899999999999
 30
0.0
 10
2.4688300000000001
 20
8.4925899999999999
 30
0.0
 10
2.4688300000000001
 20
8.4925899999999999
 30
0.0
 10
2.6540600000000003
 20
8.0195600000000002
 30
0.0
 10
3.0047000000000001
 20
7.6887800000000004
 30
0.0
 10
3.3321800000000001
 20
7.3182800000000006
 30
0.0
 10
3.3321800000000001
 20
7.3182800000000006
 30
0.0
 10
3.7225100000000002
 20
7.3182800000000006
 30
0.0
 10
4.0632299999999999
 20
7.0701900000000002
 30
0.0
 10
4.2186900000000005
 20
6.6666400000000001
 30
0.0
 10
4.2186900000000005
 20
6.6666400000000001
 30
0.0
 10
4.07315
 20
6.6699400000000004
 30
0.0
 10
3.9606800000000004
 20
6.4185400000000001
 30
0.0
 10
3.7125900000000005
 20
6.4582400000000009
 30
0.0
 10
3.7125900000000005
 20
6.4582400000000009
 30
0.0
 10
3.7026700000000003
 20
6.4185400000000001
 30
0.0
 10
3.7258200000000001
 20
6.3292300000000008
 30
0.0
 10
3.6464300000000005
 20
6.3424500000000004
 30
0.0
 10
3.6464300000000005
 20
6.3424500000000004
 30
0.0
 10
3.6464300000000005
 20
6.3424500000000004
 30
0.0
 10
3.5174200000000004
 20
6.4086100000000004
 30
0.0
 10
3.5174200000000004
 20
6.4086100000000004
 30
0.0
 10
3.5174200000000004
 20
6.4086100000000004
 30
0.0
 10
3.5174200000000004
 20
6.4086100000000004
 30
0.0
 10
2.4456600000000002
 20
8.4330500000000015
 30
0.0
 10
2.4456600000000002
 20
8.4330500000000015
 30
0.0
  0
SPLINE
  5
49
100
AcDbEntity
  8
Ebene 1
 62
     0
100
AcDbSpline
210
0.0
220
0.0
230
1.0
 70
     1
 71
     3
 72
    32
 73
    28
 74
     0
 42
0.0000000001
 43
0.0000000001
 40
0.0
 40
0.0
 40
0.0
 40
0.0
 40
0.1428571428571429
 40
0.1428571428571429
 40
0.1428571428571429
 40
0.1428571428571429
 40
0.2857142857142857
 40
0.2857142857142857
 40
0.2857142857142857
 40
0.2857142857142857
 40
0.4285714285714286
 40
0.4285714285714286
 40
0.4285714285714286
 40
0.4285714285714286
 40
0.5714285714285714
 40
0.5714285714285714
 40
0.5714285714285714
 40
0.5714285714285714
 40
0.7142857142857142
 40
0.7142857142857142
 40
0.7142857142857142
 40
0.7142857142857142
 40
0.857142857142857
 40
0.857142857142857
 40
0.857142857142857
 40
0.857142857142857
 40
1.0
 40
1.0
 40
1.0
 40
1.0
 10
3.0907100000000001
 20
12.561290000000001
 30
0.0
 10
3.5372700000000004
 20
12.299980000000001
 30
0.0
 10
4.12277
 20
11.697940000000001
 30
0.0
 10
4.0367600000000001
 20
11.105830000000001
 30
0.0
 10
4.0367600000000001
 20
11.105830000000001
 30
0.0
 10
4.0367600000000001
 20
11.105830000000001
 30
0.0
 10
3.9441300000000004
 20
11.370460000000001
 30
0.0
 10
3.9441300000000004
 20
11.370460000000001
 30
0.0
 10
3.9441300000000004
 20
11.370460000000001
 30
0.0
 10
3.9441300000000004
 20
11.370460000000001
 30
0.0
 10
3.9507600000000003
 20
11.16206
 30
0.0
 10
3.9507600000000003
 20
11.16206
 30
0.0
 10
3.9507600000000003
 20
11.16206
 30
0.0
 10
4.1161500000000002
 20
10.52364
 30
0.0
 10
4.3047000000000004
 20
9.8422100000000015
 30
0.0
 10
4.20547
 20
9.1872500000000006
 30
0.0
 10
4.20547
 20
9.1872500000000006
 30
0.0
 10
4.0036800000000001
 20
10.080380000000002
 30
0.0
 10
3.7886600000000001
 20
10.97681
 30
0.0
 10
3.5207300000000004
 20
11.860030000000002
 30
0.0
 10
3.5207300000000004
 20
11.860030000000002
 30
0.0
 10
3.5637300000000005
 20
11.916260000000001
 30
0.0
 10
3.6232800000000003
 20
11.843490000000001
 30
0.0
 10
3.5902000000000003
 20
11.955960000000001
 30
0.0
 10
3.5902000000000003
 20
11.955960000000001
 30
0.0
 10
3.4644900000000001
 20
12.187500000000002
 30
0.0
 10
3.2858700000000001
 20
12.405830000000002
 30
0.0
 10
3.0907100000000001
 20
12.561290000000001
 30
0.0
  0
SPLINE
  5
4A
100
AcDbEntity
  8
Ebene 1
 62
     0
100
AcDbSpline
210
0.0
220
0.0
230
1.0
 70
     1
 71
     3
 72
    36
 73
    32
 74
     0
 42
0.0000000001
 43
0.0000000001
 40
0.0
 40
0.0
 40
0.0
 40
0.0
 40
0.125
 40
0.125
 40
0.125
 40
0.125
 40
0.25
 40
0.25
 40
0.25
 40
0.25
 40
0.375
 40
0.375
 40
0.375
 40
0.375
 40
0.5
 40
0.5
 40
0.5
 40
0.5
 40
0.625
 40
0.625
 40
0.625
 40
0.625
 40
0.75
 40
0.75
 40
0.75
 40
0.75
 40
0.875
 40
0.875
 40
0.875
 40
0.875
 40
1.0
 40
1.0
 40
1.0
 40
1.0
 10
1.7840800000000001
 20
4.7249100000000004
 30
0.0
 10
1.7840800000000001
 20
4.8075900000000003
 30
0.0
 10
1.8204700000000003
 20
4.8638300000000001
 30
0.0
 10
1.8634800000000002
 20
4.9200600000000003
 30
0.0
 10
1.8634800000000002
 20
4.9200600000000003
 30
0.0
 10
1.9428600000000003
 20
4.9928400000000002
 30
0.0
 10
2.0421
 20
4.9763000000000002
 30
0.0
 10
2.1314200000000003
 20
4.9597700000000007
 30
0.0
 10
2.1314200000000003
 20
4.9597700000000007
 30
0.0
 10
2.2273500000000004
 20
5.1549200000000006
 30
0.0
 10
2.3960500000000002
 20
5.1681600000000003
 30
0.0
 10
2.5912200000000003
 20
5.1979200000000008
 30
0.0
 10
2.5912200000000003
 20
5.1979200000000008
 30
0.0
 10
2.7830700000000004
 20
5.5022600000000006
 30
0.0
 10
3.1105500000000004
 20
5.5948700000000002
 30
0.0
 10
3.2197100000000001
 20
5.9554400000000003
 30
0.0
 10
3.2197100000000001
 20
5.9554400000000003
 30
0.0
 10
3.4446400000000001
 20
5.5187900000000001
 30
0.0
 10
3.1535600000000001
 20
5.1053100000000002
 30
0.0
 10
2.7599200000000002
 20
5.0027600000000003
 30
0.0
 10
2.7599200000000002
 20
5.0027600000000003
 30
0.0
 10
2.7036900000000004
 20
4.7811400000000006
 30
0.0
 10
2.4258200000000003
 20
4.7844500000000005
 30
0.0
 10
2.2471800000000002
 20
4.8373800000000005
 30
0.0
 10
2.2471800000000002
 20
4.8373800000000005
 30
0.0
 10
2.2471800000000002
 20
4.8373800000000005
 30
0.0
 10
2.0619499999999999
 20
4.6355900000000005
 30
0.0
 10
2.0619499999999999
 20
4.6355900000000005
 30
0.0
 10
2.0619499999999999
 20
4.6355900000000005
 30
0.0
 10
1.9594100000000001
 20
4.6323000000000008
 30
0.0
 10
1.8535600000000001
 20
4.6289800000000003
 30
0.0
 10
1.7840800000000001
 20
4.7249100000000004
 30
0.0
  0
SPLINE
  5
4B
100
AcDbEntity
  8
Ebene 1
 62
     0
100
AcDbSpline
210
0.0
220
0.0
230
1.0
 70
     1
 71
     3
 72
    16
 73
    12
 74
     0
 42
0.0000000001
 43
0.0000000001
 40
0.0
 40
0.0
 40
0.0
 40
0.0
 40
0.3333333333333333
 40
0.3333333333333333
 40
0.3333333333333333
 40
0.3333333333333333
 40
0.6666666666666666
 40
0.6666666666666666
 40
0.6666666666666666
 40
0.6666666666666666
 40
1.0
 40
1.0
 40
1.0
 40
1.0
 10
1.8535600000000001
 20
6.1406800000000006
 30
0.0
 10
1.8502500000000002
 20
6.1605200000000009
 30
0.0
 10
1.8767000000000003
 20
6.2002200000000007
 30
0.0
 10
1.9031800000000001
 20
6.1936100000000005
 30
0.0
 10
1.9031800000000001
 20
6.1936100000000005
 30
0.0
 10
2.0421
 20
6.0646100000000001
 30
0.0
 10
2.1711200000000002
 20
5.8760400000000006
 30
0.0
 10
2.19096
 20
5.6841900000000001
 30
0.0
 10
2.19096
 20
5.6841900000000001
 30
0.0
 10
2.0024000000000002
 20
5.6941200000000007
 30
0.0
 10
1.9461700000000002
 20
5.9984500000000001
 30
0.0
 10
1.8535600000000001
 20
6.1406800000000006
 30
0.0
  0
SPLINE
  5
4C
100
AcDbEntity
  8
Ebene 1
 62
     0
100
AcDbSpline
210
0.0
220
0.0
230
1.0
 70
     1
 71
     3
 72
    60
 73
    56
 74
     0
 42
0.0000000001
 43
0.0000000001
 40
0.0
 40
0.0
 40
0.0
 40
0.0
 40
0.0714285714285714
 40
0.0714285714285714
 40
0.0714285714285714
 40
0.0714285714285714
 40
0.1428571428571429
 40
0.1428571428571429
 40
0.1428571428571429
 40
0.1428571428571429
 40
0.2142857142857143
 40
0.2142857142857143
 40
0.2142857142857143
 40
0.2142857142857143
 40
0.2857142857142857
 40
0.2857142857142857
 40
0.2857142857142857
 40
0.2857142857142857
 40
0.3571428571428571
 40
0.3571428571428571
 40
0.3571428571428571
 40
0.3571428571428571
 40
0.4285714285714285
 40
0.4285714285714285
 40
0.4285714285714285
 40
0.4285714285714285
 40
0.4999999999999999
 40
0.4999999999999999
 40
0.4999999999999999
 40
0.4999999999999999
 40
0.5714285714285713
 40
0.5714285714285713
 40
0.5714285714285713
 40
0.5714285714285713
 40
0.6428571428571427
 40
0.6428571428571427
 40
0.6428571428571427
 40
0.6428571428571427
 40
0.7142857142857141
 40
0.7142857142857141
 40
0.7142857142857141
 40
0.7142857142857141
 40
0.7857142857142855
 40
0.7857142857142855
 40
0.7857142857142855
 40
0.7857142857142855
 40
0.8571428571428569
 40
0.8571428571428569
 40
0.8571428571428569
 40
0.8571428571428569
 40
0.9285714285714283
 40
0.9285714285714283
 40
0.9285714285714283
 40
0.9285714285714283
 40
1.0
 40
1.0
 40
1.0
 40
1.0
 10
2.3894200000000003
 20
7.2256700000000009
 30
0.0
 10
2.3795000000000002
 20
7.1826600000000003
 30
0.0
 10
2.4291200000000002
 20
7.2190600000000007
 30
0.0
 10
2.3894200000000003
 20
7.2256700000000009
 30
0.0
 10
2.3894200000000003
 20
7.2256700000000009
 30
0.0
 10
2.3894200000000003
 20
7.2256700000000009
 30
0.0
 10
1.9958000000000002
 20
8.0030200000000011
 30
0.0
 10
1.9958000000000002
 20
8.0030200000000011
 30
0.0
 10
1.9958000000000002
 20
8.0030200000000011
 30
0.0
 10
2.0321700000000003
 20
8.1452600000000004
 30
0.0
 10
2.1148800000000003
 20
7.9004800000000008
 30
0.0
 10
2.17442
 20
7.8707000000000003
 30
0.0
 10
2.17442
 20
7.8707000000000003
 30
0.0
 10
2.1281100000000004
 20
8.0228700000000011
 30
0.0
 10
2.2339500000000001
 20
8.1320300000000003
 30
0.0
 10
2.10826
 20
8.2775800000000004
 30
0.0
 10
2.10826
 20
8.2775800000000004
 30
0.0
 10
1.8204700000000003
 20
8.9755400000000005
 30
0.0
 10
1.6815500000000001
 20
9.7132000000000005
 30
0.0
 10
1.6517700000000002
 20
10.45087
 30
0.0
 10
1.6517700000000002
 20
10.45087
 30
0.0
 10
1.8237800000000002
 20
10.21269
 30
0.0
 10
1.7840800000000001
 20
9.8422100000000015
 30
0.0
 10
1.9362600000000001
 20
9.5875000000000004
 30
0.0
 10
1.9362600000000001
 20
9.5875000000000004
 30
0.0
 10
2.1876500000000001
 20
8.4727500000000013
 30
0.0
 10
2.7665200000000003
 20
7.453920000000001
 30
0.0
 10
3.3057200000000004
 20
6.4648500000000002
 30
0.0
 10
3.3057200000000004
 20
6.4648500000000002
 30
0.0
 10
3.3057200000000004
 20
6.4648500000000002
 30
0.0
 10
3.2693300000000001
 20
6.2167600000000007
 30
0.0
 10
3.2693300000000001
 20
6.2167600000000007
 30
0.0
 10
3.2693300000000001
 20
6.2167600000000007
 30
0.0
 10
2.8657700000000004
 20
6.1605200000000009
 30
0.0
 10
2.6408300000000002
 20
5.9653600000000004
 30
0.0
 10
2.3398100000000004
 20
5.7834300000000001
 30
0.0
 10
2.3398100000000004
 20
5.7834300000000001
 30
0.0
 10
2.1380400000000002
 20
5.8396600000000003
 30
0.0
 10
1.9958000000000002
 20
6.1142200000000004
 30
0.0
 10
1.9726400000000002
 20
6.3292300000000008
 30
0.0
 10
1.9726400000000002
 20
6.3292300000000008
 30
0.0
 10
2.0619499999999999
 20
6.3358500000000006
 30
0.0
 10
2.1380400000000002
 20
6.0910600000000006
 30
0.0
 10
2.19096
 20
6.1870000000000003
 30
0.0
 10
2.19096
 20
6.1870000000000003
 30
0.0
 10
1.9792400000000001
 20
6.4747700000000004
 30
0.0
 10
2.1016400000000002
 20
6.5607800000000003
 30
0.0
 10
2.2372700000000001
 20
6.6831700000000005
 30
0.0
 10
2.2372700000000001
 20
6.6831700000000005
 30
0.0
 10
2.2372700000000001
 20
6.9544300000000003
 30
0.0
 10
2.1049500000000001
 20
7.1892900000000006
 30
0.0
 10
2.14134
 20
7.4770700000000003
 30
0.0
 10
2.14134
 20
7.4770700000000003
 30
0.0
 10
2.2471800000000002
 20
7.4175200000000006
 30
0.0
 10
2.2703500000000001
 20
7.2653600000000003
 30
0.0
 10
2.3894200000000003
 20
7.2256700000000009
 30
0.0
  0
SPLINE
  5
4D
100
AcDbEntity
  8
Ebene 1
 62
     0
100
AcDbSpline
210
0.0
220
0.0
230
1.0
 70
     1
 71
     3
 72
    20
 73
    16
 74
     0
 42
0.0000000001
 43
0.0000000001
 40
0.0
 40
0.0
 40
0.0
 40
0.0
 40
0.25
 40
0.25
 40
0.25
 40
0.25
 40
0.5
 40
0.5
 40
0.5
 40
0.5
 40
0.75
 40
0.75
 40
0.75
 40
0.75
 40
1.0
 40
1.0
 40
1.0
 40
1.0
 10
-2.0993500000000003
 20
10.36486
 30
0.0
 10
-2.0993500000000003
 20
10.36486
 30
0.0
 10
-1.9505000000000001
 20
10.758500000000002
 30
0.0
 10
-1.9505000000000001
 20
10.758500000000002
 30
0.0
 10
-1.9505000000000001
 20
10.758500000000002
 30
0.0
 10
-1.9538100000000003
 20
10.801490000000001
 30
0.0
 10
-1.9008800000000001
 20
10.854420000000001
 30
0.0
 10
-1.8578700000000001
 20
10.847810000000001
 30
0.0
 10
-1.8578700000000001
 20
10.847810000000001
 30
0.0
 10
-1.9074900000000001
 20
10.626190000000001
 30
0.0
 10
-1.9141100000000002
 20
10.354930000000001
 30
0.0
 10
-2.04312
 20
10.186240000000002
 30
0.0
 10
-2.04312
 20
10.186240000000002
 30
0.0
 10
-2.04312
 20
10.186240000000002
 30
0.0
 10
-2.0993500000000003
 20
10.36486
 30
0.0
 10
-2.0993500000000003
 20
10.36486
 30
0.0
  0
SPLINE
  5
4E
100
AcDbEntity
  8
Ebene 1
100
AcDbSpline
210
0.0
220
0.0
230
1.0
 70
     1
 71
     3
 72
    20
 73
    16
 74
     0
 42
0.0000000001
 43
0.0000000001
 40
0.0
 40
0.0
 40
0.0
 40
0.0
 40
0.25
 40
0.25
 40
0.25
 40
0.25
 40
0.5
 40
0.5
 40
0.5
 40
0.5
 40
0.75
 40
0.75
 40
0.75
 40
0.75
 40
1.0
 40
1.0
 40
1.0
 40
1.0
 10
-2.0993500000000003
 20
10.36486
 30
0.0
 10
-2.0993500000000003
 20
10.36486
 30
0.0
 10
-1.9505000000000001
 20
10.758500000000002
 30
0.0
 10
-1.9505000000000001
 20
10.758500000000002
 30
0.0
 10
-1.9505000000000001
 20
10.758500000000002
 30
0.0
 10
-1.9538100000000003
 20
10.801490000000001
 30
0.0
 10
-1.9008800000000001
 20
10.854420000000001
 30
0.0
 10
-1.8578700000000001
 20
10.847810000000001
 30
0.0
 10
-1.8578700000000001
 20
10.847810000000001
 30
0.0
 10
-1.9074900000000001
 20
10.626190000000001
 30
0.0
 10
-1.9141100000000002
 20
10.354930000000001
 30
0.0
 10
-2.04312
 20
10.186240000000002
 30
0.0
 10
-2.04312
 20
10.186240000000002
 30
0.0
 10
-2.04312
 20
10.186240000000002
 30
0.0
 10
-2.0993500000000003
 20
10.36486
 30
0.0
 10
-2.0993500000000003
 20
10.36486
 30
0.0
  0
SPLINE
  5
4F
100
AcDbEntity
  8
Ebene 1
 62
     0
100
AcDbSpline
210
0.0
220
0.0
230
1.0
 70
     1
 71
     3
 72
    20
 73
    16
 74
     0
 42
0.0000000001
 43
0.0000000001
 40
0.0
 40
0.0
 40
0.0
 40
0.0
 40
0.25
 40
0.25
 40
0.25
 40
0.25
 40
0.5
 40
0.5
 40
0.5
 40
0.5
 40
0.75
 40
0.75
 40
0.75
 40
0.75
 40
1.0
 40
1.0
 40
1.0
 40
1.0
 10
-2.5955400000000002
 20
6.8783400000000006
 30
0.0
 10
-2.2978300000000003
 20
7.0172600000000003
 30
0.0
 10
-1.7586400000000002
 20
7.3282100000000003
 30
0.0
 10
-1.5304000000000002
 20
6.9775800000000006
 30
0.0
 10
-1.5304000000000002
 20
6.9775800000000006
 30
0.0
 10
-1.5304000000000002
 20
6.9775800000000006
 30
0.0
 10
-1.5535500000000002
 20
6.8750200000000001
 30
0.0
 10
-1.5535500000000002
 20
6.8750200000000001
 30
0.0
 10
-1.5535500000000002
 20
6.8750200000000001
 30
0.0
 10
-1.79834
 20
6.7063300000000003
 30
0.0
 10
-2.02989
 20
6.4516200000000001
 30
0.0
 10
-2.32098
 20
6.3722300000000009
 30
0.0
 10
-2.32098
 20
6.3722300000000009
 30
0.0
 10
-2.3242800000000003
 20
6.5607800000000003
 30
0.0
 10
-2.42022
 20
6.7658700000000005
 30
0.0
 10
-2.5955400000000002
 20
6.8783400000000006
 30
0.0
  0
SPLINE
  5
50
100
AcDbEntity
  8
Ebene 1
 62
     0
100
AcDbSpline
210
0.0
220
0.0
230
1.0
 70
     1
 71
     3
 72
    28
 73
    24
 74
     0
 42
0.0000000001
 43
0.0000000001
 40
0.0
 40
0.0
 40
0.0
 40
0.0
 40
0.1666666666666667
 40
0.1666666666666667
 40
0.1666666666666667
 40
0.1666666666666667
 40
0.3333333333333333
 40
0.3333333333333333
 40
0.3333333333333333
 40
0.3333333333333333
 40
0.5
 40
0.5
 40
0.5
 40
0.5
 40
0.6666666666666666
 40
0.6666666666666666
 40
0.6666666666666666
 40
0.6666666666666666
 40
0.8333333333333333
 40
0.8333333333333333
 40
0.8333333333333333
 40
0.8333333333333333
 40
1.0
 40
1.0
 40
1.0
 40
1.0
 10
-4.4545700000000004
 20
-5.0565100000000003
 30
0.0
 10
-3.2405800000000005
 20
-3.3992500000000003
 30
0.0
 10
-1.9571100000000001
 20
-1.7552300000000001
 30
0.0
 10
-1.1169200000000001
 20
0.1071
 30
0.0
 10
-1.1169200000000001
 20
0.1071
 30
0.0
 10
-1.01437
 20
0.13686
 30
0.0
 10
-1.1731500000000001
 20
-0.09137
 30
0.0
 10
-1.0739100000000001
 20
-0.12777
 30
0.0
 10
-1.0739100000000001
 20
-0.12777
 30
0.0
 10
-1.0739100000000001
 20
-0.12777
 30
0.0
 10
-0.18077
 20
0.4941100000000001
 30
0.0
 10
-0.18077
 20
0.4941100000000001
 30
0.0
 10
-0.18077
 20
0.4941100000000001
 30
0.0
 10
-0.18077
 20
0.4941100000000001
 30
0.0
 10
-1.0507600000000001
 20
-0.51146
 30
0.0
 10
-1.0507600000000001
 20
-0.51146
 30
0.0
 10
-1.0507600000000001
 20
-0.51146
 30
0.0
 10
-1.0904400000000001
 20
-0.6074000000000001
 30
0.0
 10
-0.9052000000000001
 20
-0.5776300000000001
 30
0.0
 10
-0.9548200000000001
 20
-0.6669400000000001
 30
0.0
 10
-0.9548200000000001
 20
-0.6669400000000001
 30
0.0
 10
-2.1225000000000001
 20
-2.1356300000000004
 30
0.0
 10
-3.1810400000000003
 20
-3.6771200000000004
 30
0.0
 10
-4.4545700000000004
 20
-5.0565100000000003
 30
0.0
  0
SPLINE
  5
51
100
AcDbEntity
  8
Ebene 1
 62
     0
100
AcDbSpline
210
0.0
220
0.0
230
1.0
 70
     1
 71
     3
 72
    16
 73
    12
 74
     0
 42
0.0000000001
 43
0.0000000001
 40
0.0
 40
0.0
 40
0.0
 40
0.0
 40
0.3333333333333333
 40
0.3333333333333333
 40
0.3333333333333333
 40
0.3333333333333333
 40
0.6666666666666666
 40
0.6666666666666666
 40
0.6666666666666666
 40
0.6666666666666666
 40
1.0
 40
1.0
 40
1.0
 40
1.0
 10
-5.3113000000000001
 20
-10.325990000000001
 30
0.0
 10
-5.2650000000000006
 20
-10.041500000000001
 30
0.0
 10
-5.1029200000000001
 20
-9.8033300000000008
 30
0.0
 10
-4.9309100000000008
 20
-9.5784000000000002
 30
0.0
 10
-4.9309100000000008
 20
-9.5784000000000002
 30
0.0
 10
-3.9219900000000005
 20
-8.9432800000000015
 30
0.0
 10
-2.6749200000000002
 20
-8.8374200000000016
 30
0.0
 10
-1.5436300000000001
 20
-8.6918700000000015
 30
0.0
 10
-1.5436300000000001
 20
-8.6918700000000015
 30
0.0
 10
-2.7476900000000004
 20
-9.3369100000000014
 30
0.0
 10
-4.3619500000000002
 20
-9.2509200000000007
 30
0.0
 10
-5.3113000000000001
 20
-10.325990000000001
 30
0.0
  0
SPLINE
  5
52
100
AcDbEntity
  8
Ebene 1
 62
    31
100
AcDbSpline
210
0.0
220
0.0
230
1.0
 70
     1
 71
     3
 72
    24
 73
    20
 74
     0
 42
0.0000000001
 43
0.0000000001
 40
0.0
 40
0.0
 40
0.0
 40
0.0
 40
0.2
 40
0.2
 40
0.2
 40
0.2
 40
0.4
 40
0.4
 40
0.4
 40
0.4
 40
0.6000000000000001
 40
0.6000000000000001
 40
0.6000000000000001
 40
0.6000000000000001
 40
0.8
 40
0.8
 40
0.8
 40
0.8
 40
1.0
 40
1.0
 40
1.0
 40
1.0
 10
-2.8105500000000001
 20
3.0544300000000004
 30
0.0
 10
-2.7708600000000003
 20
3.1768200000000002
 30
0.0
 10
-2.6782300000000001
 20
3.6432300000000004
 30
0.0
 10
-2.5624600000000002
 20
3.3918400000000002
 30
0.0
 10
-2.5624600000000002
 20
3.3918400000000002
 30
0.0
 10
-2.4069800000000003
 20
3.4282200000000005
 30
0.0
 10
-2.3242800000000003
 20
3.2694500000000004
 30
0.0
 10
-2.22505
 20
3.1668900000000004
 30
0.0
 10
-2.22505
 20
3.1668900000000004
 30
0.0
 10
-2.5955400000000002
 20
2.9155000000000002
 30
0.0
 10
-2.6120700000000001
 20
2.4689400000000004
 30
0.0
 10
-2.38714
 20
2.1149900000000001
 30
0.0
 10
-2.38714
 20
2.1149900000000001
 30
0.0
 10
-2.38714
 20
2.1149900000000001
 30
0.0
 10
-2.6583800000000002
 20
2.3101500000000001
 30
0.0
 10
-2.6583800000000002
 20
2.3101500000000001
 30
0.0
 10
-2.6583800000000002
 20
2.3101500000000001
 30
0.0
 10
-2.8270900000000001
 20
2.4854800000000004
 30
0.0
 10
-2.7708600000000003
 20
2.8394200000000001
 30
0.0
 10
-2.8105500000000001
 20
3.0544300000000004
 30
0.0
  0
SPLINE
  5
53
100
AcDbEntity
  8
Ebene 1
 62
     7
100
AcDbSpline
210
0.0
220
0.0
230
1.0
 70
     1
 71
     3
 72
    36
 73
    32
 74
     0
 42
0.0000000001
 43
0.0000000001
 40
0.0
 40
0.0
 40
0.0
 40
0.0
 40
0.125
 40
0.125
 40
0.125
 40
0.125
 40
0.25
 40
0.25
 40
0.25
 40
0.25
 40
0.375
 40
0.375
 40
0.375
 40
0.375
 40
0.5
 40
0.5
 40
0.5
 40
0.5
 40
0.625
 40
0.625
 40
0.625
 40
0.625
 40
0.75
 40
0.75
 40
0.75
 40
0.75
 40
0.875
 40
0.875
 40
0.875
 40
0.875
 40
1.0
 40
1.0
 40
1.0
 40
1.0
 10
-2.6021400000000003
 20
4.3015100000000004
 30
0.0
 10
-2.5128300000000001
 20
4.6653500000000001
 30
0.0
 10
-2.4599000000000002
 20
5.4526300000000001
 30
0.0
 10
-1.9438800000000001
 20
5.2806300000000004
 30
0.0
 10
-1.9438800000000001
 20
5.2806300000000004
 30
0.0
 10
-1.9438800000000001
 20
5.2806300000000004
 30
0.0
 10
-1.9604100000000002
 20
5.1780900000000001
 30
0.0
 10
-1.9604100000000002
 20
5.1780900000000001
 30
0.0
 10
-1.9604100000000002
 20
5.1780900000000001
 30
0.0
 10
-2.38714
 20
5.2707000000000006
 30
0.0
 10
-2.4963000000000002
 20
4.6620500000000007
 30
0.0
 10
-2.4896800000000003
 20
4.3246600000000006
 30
0.0
 10
-2.4896800000000003
 20
4.3246600000000006
 30
0.0
 10
-2.4499900000000001
 20
4.2122000000000002
 30
0.0
 10
-2.3772100000000003
 20
4.0964100000000006
 30
0.0
 10
-2.2713700000000001
 20
4.03688
 30
0.0
 10
-2.2713700000000001
 20
4.03688
 30
0.0
 10
-2.01004
 20
3.9707100000000004
 30
0.0
 10
-2.1985900000000003
 20
4.52644
 30
0.0
 10
-1.8413400000000002
 20
4.5099100000000005
 30
0.0
 10
-1.8413400000000002
 20
4.5099100000000005
 30
0.0
 10
-2.5293800000000002
 20
3.7226300000000001
 30
0.0
 10
-1.3451500000000001
 20
3.1702100000000004
 30
0.0
 10
-1.0871300000000002
 20
2.4755500000000001
 30
0.0
 10
-1.0871300000000002
 20
2.4755500000000001
 30
0.0
 10
-1.7156300000000002
 20
2.8096400000000004
 30
0.0
 10
-1.8843400000000001
 20
3.6366200000000002
 30
0.0
 10
-2.5029100000000004
 20
3.9905600000000003
 30
0.0
 10
-2.5029100000000004
 20
3.9905600000000003
 30
0.0
 10
-2.5029100000000004
 20
3.9905600000000003
 30
0.0
 10
-2.6021400000000003
 20
4.3015100000000004
 30
0.0
 10
-2.6021400000000003
 20
4.3015100000000004
 30
0.0
  0
SPLINE
  5
54
100
AcDbEntity
  8
Ebene 1
 62
   254
100
AcDbSpline
210
0.0
220
0.0
230
1.0
 70
     1
 71
     3
 72
    72
 73
    68
 74
     0
 42
0.0000000001
 43
0.0000000001
 40
0.0
 40
0.0
 40
0.0
 40
0.0
 40
0.0588235294117647
 40
0.0588235294117647
 40
0.0588235294117647
 40
0.0588235294117647
 40
0.1176470588235294
 40
0.1176470588235294
 40
0.1176470588235294
 40
0.1176470588235294
 40
0.1764705882352941
 40
0.1764705882352941
 40
0.1764705882352941
 40
0.1764705882352941
 40
0.2352941176470588
 40
0.2352941176470588
 40
0.2352941176470588
 40
0.2352941176470588
 40
0.2941176470588235
 40
0.2941176470588235
 40
0.2941176470588235
 40
0.2941176470588235
 40
0.3529411764705883
 40
0.3529411764705883
 40
0.3529411764705883
 40
0.3529411764705883
 40
0.411764705882353
 40
0.411764705882353
 40
0.411764705882353
 40
0.411764705882353
 40
0.4705882352941177
 40
0.4705882352941177
 40
0.4705882352941177
 40
0.4705882352941177
 40
0.5294117647058824
 40
0.5294117647058824
 40
0.5294117647058824
 40
0.5294117647058824
 40
0.5882352941176471
 40
0.5882352941176471
 40
0.5882352941176471
 40
0.5882352941176471
 40
0.6470588235294118
 40
0.6470588235294118
 40
0.6470588235294118
 40
0.6470588235294118
 40
0.7058823529411765
 40
0.7058823529411765
 40
0.7058823529411765
 40
0.7058823529411765
 40
0.7647058823529412
 40
0.7647058823529412
 40
0.7647058823529412
 40
0.7647058823529412
 40
0.823529411764706
 40
0.823529411764706
 40
0.823529411764706
 40
0.823529411764706
 40
0.8823529411764707
 40
0.8823529411764707
 40
0.8823529411764707
 40
0.8823529411764707
 40
0.9411764705882354
 40
0.9411764705882354
 40
0.9411764705882354
 40
0.9411764705882354
 40
1.0
 40
1.0
 40
1.0
 40
1.0
 10
-1.4642400000000002
 20
4.4669000000000008
 30
0.0
 10
-1.5171600000000001
 20
3.8483200000000002
 30
0.0
 10
-0.9713600000000001
 20
3.3356100000000004
 30
0.0
 10
-0.4917200000000001
 20
3.0478200000000002
 30
0.0
 10
-0.4917200000000001
 20
3.0478200000000002
 30
0.0
 10
-0.7431200000000001
 20
3.4480800000000005
 30
0.0
 10
-1.2823
 20
3.6101600000000005
 30
0.0
 10
-1.1665300000000001
 20
4.1559600000000003
 30
0.0
 10
-1.1665300000000001
 20
4.1559600000000003
 30
0.0
 10
-1.1665300000000001
 20
4.1559600000000003
 30
0.0
 10
-1.1235200000000001
 20
4.3875100000000007
 30
0.0
 10
-1.1235200000000001
 20
4.3875100000000007
 30
0.0
 10
-1.1235200000000001
 20
4.3875100000000007
 30
0.0
 10
-0.9283500000000001
 20
3.4745300000000001
 30
0.0
 10
0.36831
 20
2.8195700000000001
 30
0.0
 10
-0.151
 20
1.8172800000000002
 30
0.0
 10
-0.151
 20
1.8172800000000002
 30
0.0
 10
-0.2337
 20
1.7445000000000002
 30
0.0
 10
-0.33294
 20
1.6982000000000002
 30
0.0
 10
-0.43879
 20
1.6750400000000001
 30
0.0
 10
-0.43879
 20
1.6750400000000001
 30
0.0
 10
-0.5049400000000001
 20
1.7081200000000001
 30
0.0
 10
-0.5810300000000001
 20
1.7411900000000002
 30
0.0
 10
-0.6008800000000001
 20
1.8073600000000001
 30
0.0
 10
-0.6008800000000001
 20
1.8073600000000001
 30
0.0
 10
-0.4851
 20
2.7104100000000004
 30
0.0
 10
-1.8446400000000001
 20
3.0411900000000003
 30
0.0
 10
-1.5403200000000001
 20
3.9343300000000001
 30
0.0
 10
-1.5403200000000001
 20
3.9343300000000001
 30
0.0
 10
-1.5403200000000001
 20
3.9343300000000001
 30
0.0
 10
-1.6428600000000002
 20
4.03688
 30
0.0
 10
-1.6428600000000002
 20
4.03688
 30
0.0
 10
-1.6428600000000002
 20
4.03688
 30
0.0
 10
-2.0067400000000002
 20
3.6366200000000002
 30
0.0
 10
-1.7917200000000002
 20
4.3345900000000004
 30
0.0
 10
-1.6164100000000001
 20
4.4735100000000001
 30
0.0
 10
-1.6164100000000001
 20
4.4735100000000001
 30
0.0
 10
-1.8115700000000001
 20
4.9035300000000008
 30
0.0
 10
-2.33751
 20
4.06996
 30
0.0
 10
-2.1622000000000003
 20
4.5429700000000004
 30
0.0
 10
-2.1622000000000003
 20
4.5429700000000004
 30
0.0
 10
-2.1357400000000002
 20
4.6025300000000007
 30
0.0
 10
-2.06297
 20
4.6918300000000004
 30
0.0
 10
-2.0861200000000002
 20
4.7612900000000007
 30
0.0
 10
-2.0861200000000002
 20
4.7612900000000007
 30
0.0
 10
-2.14235
 20
4.8539100000000008
 30
0.0
 10
-2.22505
 20
4.6786000000000003
 30
0.0
 10
-2.2845900000000001
 20
4.68851
 30
0.0
 10
-2.2845900000000001
 20
4.68851
 30
0.0
 10
-2.2680500000000001
 20
4.9994700000000005
 30
0.0
 10
-1.9736600000000002
 20
5.2244000000000002
 30
0.0
 10
-1.8181800000000001
 20
4.9035300000000008
 30
0.0
 10
-1.8181800000000001
 20
4.9035300000000008
 30
0.0
 10
-1.6759400000000002
 20
5.0292300000000001
 30
0.0
 10
-1.9968100000000002
 20
5.3137100000000004
 30
0.0
 10
-1.8082600000000002
 20
5.3004800000000003
 30
0.0
 10
-1.8082600000000002
 20
5.3004800000000003
 30
0.0
 10
-1.8082600000000002
 20
5.3004800000000003
 30
0.0
 10
-1.7288700000000001
 20
5.2674000000000003
 30
0.0
 10
-1.7288700000000001
 20
5.2674000000000003
 30
0.0
 10
-1.7288700000000001
 20
5.2674000000000003
 30
0.0
 10
-1.9306500000000002
 20
4.9233800000000008
 30
0.0
 10
-1.3881600000000001
 20
5.0854600000000003
 30
0.0
 10
-1.3451500000000001
 20
4.8473000000000006
 30
0.0
 10
-1.3451500000000001
 20
4.8473000000000006
 30
0.0
 10
-1.6362500000000002
 20
4.9961500000000001
 30
0.0
 10
-1.6031700000000002
 20
4.4635899999999999
 30
0.0
 10
-1.4642400000000002
 20
4.4669000000000008
 30
0.0
  0
SPLINE
  5
55
100
AcDbEntity
  8
Ebene 1
 62
    31
100
AcDbSpline
210
0.0
220
0.0
230
1.0
 70
     1
 71
     3
 72
    32
 73
    28
 74
     0
 42
0.0000000001
 43
0.0000000001
 40
0.0
 40
0.0
 40
0.0
 40
0.0
 40
0.1428571428571429
 40
0.1428571428571429
 40
0.1428571428571429
 40
0.1428571428571429
 40
0.2857142857142857
 40
0.2857142857142857
 40
0.2857142857142857
 40
0.2857142857142857
 40
0.4285714285714286
 40
0.4285714285714286
 40
0.4285714285714286
 40
0.4285714285714286
 40
0.5714285714285714
 40
0.5714285714285714
 40
0.5714285714285714
 40
0.5714285714285714
 40
0.7142857142857142
 40
0.7142857142857142
 40
0.7142857142857142
 40
0.7142857142857142
 40
0.857142857142857
 40
0.857142857142857
 40
0.857142857142857
 40
0.857142857142857
 40
1.0
 40
1.0
 40
1.0
 40
1.0
 10
-2.73116
 20
1.6386500000000002
 30
0.0
 10
-2.7410900000000002
 20
1.8073600000000001
 30
0.0
 10
-2.63192
 20
1.9132200000000001
 30
0.0
 10
-2.5393000000000003
 20
2.0256800000000004
 30
0.0
 10
-2.5393000000000003
 20
2.0256800000000004
 30
0.0
 10
-2.1489800000000003
 20
1.7941200000000002
 30
0.0
 10
-1.7057200000000001
 20
1.6121900000000002
 30
0.0
 10
-1.2591500000000002
 20
1.5824200000000002
 30
0.0
 10
-1.2591500000000002
 20
1.5824200000000002
 30
0.0
 10
-1.6329400000000001
 20
1.49641
 30
0.0
 10
-2.0398100000000001
 20
1.6485800000000002
 30
0.0
 10
-2.4003700000000001
 20
1.6254300000000002
 30
0.0
 10
-2.4003700000000001
 20
1.6254300000000002
 30
0.0
 10
-2.4003700000000001
 20
1.6254300000000002
 30
0.0
 10
-2.5426100000000003
 20
1.7742700000000002
 30
0.0
 10
-2.5426100000000003
 20
1.7742700000000002
 30
0.0
 10
-2.5426100000000003
 20
1.7742700000000002
 30
0.0
 10
-2.5823100000000001
 20
1.8007400000000002
 30
0.0
 10
-2.6187
 20
1.7643500000000001
 30
0.0
 10
-2.6484700000000001
 20
1.7478200000000002
 30
0.0
 10
-2.6484700000000001
 20
1.7478200000000002
 30
0.0
 10
-2.6484700000000001
 20
1.7478200000000002
 30
0.0
 10
-2.5823100000000001
 20
1.5658800000000002
 30
0.0
 10
-2.5823100000000001
 20
1.5658800000000002
 30
0.0
 10
-2.5823100000000001
 20
1.5658800000000002
 30
0.0
 10
-2.5227600000000003
 20
1.4071
 30
0.0
 10
-2.7410900000000002
 20
1.5559600000000002
 30
0.0
 10
-2.73116
 20
1.6386500000000002
 30
0.0
  0
SPLINE
  5
56
100
AcDbEntity
  8
Ebene 1
 62
    51
100
AcDbSpline
210
0.0
220
0.0
230
1.0
 70
     1
 71
     3
 72
    24
 73
    20
 74
     0
 42
0.0000000001
 43
0.0000000001
 40
0.0
 40
0.0
 40
0.0
 40
0.0
 40
0.2
 40
0.2
 40
0.2
 40
0.2
 40
0.4
 40
0.4
 40
0.4
 40
0.4
 40
0.6000000000000001
 40
0.6000000000000001
 40
0.6000000000000001
 40
0.6000000000000001
 40
0.8
 40
0.8
 40
0.8
 40
0.8
 40
1.0
 40
1.0
 40
1.0
 40
1.0
 10
-2.02989
 20
5.7371200000000009
 30
0.0
 10
-2.02989
 20
5.7371200000000009
 30
0.0
 10
-1.9670300000000001
 20
5.9554400000000003
 30
0.0
 10
-1.9670300000000001
 20
5.9554400000000003
 30
0.0
 10
-1.9670300000000001
 20
5.9554400000000003
 30
0.0
 10
-1.8711000000000002
 20
5.6478000000000002
 30
0.0
 10
-1.4377700000000002
 20
5.6808800000000002
 30
0.0
 10
-1.3087700000000002
 20
5.4294800000000008
 30
0.0
 10
-1.3087700000000002
 20
5.4294800000000008
 30
0.0
 10
-1.3087700000000002
 20
5.4294800000000008
 30
0.0
 10
-1.4245400000000001
 20
5.4691800000000006
 30
0.0
 10
-1.4245400000000001
 20
5.4691800000000006
 30
0.0
 10
-1.4245400000000001
 20
5.4691800000000006
 30
0.0
 10
-1.5237800000000001
 20
5.4427100000000008
 30
0.0
 10
-1.6230100000000001
 20
5.4989600000000003
 30
0.0
 10
-1.7123200000000001
 20
5.5353300000000001
 30
0.0
 10
-1.7123200000000001
 20
5.5353300000000001
 30
0.0
 10
-1.8611900000000001
 20
5.5419500000000008
 30
0.0
 10
-2.0398100000000001
 20
5.5518800000000006
 30
0.0
 10
-2.02989
 20
5.7371200000000009
 30
0.0
  0
SPLINE
  5
57
100
AcDbEntity
  8
Ebene 1
 62
     0
100
AcDbSpline
210
0.0
220
0.0
230
1.0
 70
     1
 71
     3
 72
    12
 73
     8
 74
     0
 42
0.0000000001
 43
0.0000000001
 40
0.0
 40
0.0
 40
0.0
 40
0.0
 40
0.5
 40
0.5
 40
0.5
 40
0.5
 40
1.0
 40
1.0
 40
1.0
 40
1.0
 10
-3.0586500000000001
 20
-0.9481000000000001
 30
0.0
 10
-2.8304
 20
-0.6933900000000001
 30
0.0
 10
-2.5624600000000002
 20
-1.13005
 30
0.0
 10
-2.6286200000000002
 20
-1.3483500000000002
 30
0.0
 10
-2.6286200000000002
 20
-1.3483500000000002
 30
0.0
 10
-2.7840900000000004
 20
-1.24912
 30
0.0
 10
-2.9296300000000004
 20
-1.0771200000000001
 30
0.0
 10
-3.0586500000000001
 20
-0.9481000000000001
 30
0.0
  0
SPLINE
  5
58
100
AcDbEntity
  8
Ebene 1
 62
     0
100
AcDbSpline
210
0.0
220
0.0
230
1.0
 70
     1
 71
     3
 72
    20
 73
    16
 74
     0
 42
0.0000000001
 43
0.0000000001
 40
0.0
 40
0.0
 40
0.0
 40
0.0
 40
0.25
 40
0.25
 40
0.25
 40
0.25
 40
0.5
 40
0.5
 40
0.5
 40
0.5
 40
0.75
 40
0.75
 40
0.75
 40
0.75
 40
1.0
 40
1.0
 40
1.0
 40
1.0
 10
-3.0718700000000001
 20
-1.1565000000000001
 30
0.0
 10
-3.0784900000000004
 20
-1.1102000000000001
 30
0.0
 10
-3.0321700000000003
 20
-1.1168100000000001
 30
0.0
 10
-3.0024000000000002
 20
-1.1234200000000001
 30
0.0
 10
-3.0024000000000002
 20
-1.1234200000000001
 30
0.0
 10
-3.0024000000000002
 20
-1.1234200000000001
 30
0.0
 10
-2.6683100000000004
 20
-1.4773700000000001
 30
0.0
 10
-2.6683100000000004
 20
-1.4773700000000001
 30
0.0
 10
-2.6683100000000004
 20
-1.4773700000000001
 30
0.0
 10
-2.6914600000000002
 20
-1.5600600000000002
 30
0.0
 10
-2.7278500000000001
 20
-1.6659100000000002
 30
0.0
 10
-2.8072400000000002
 20
-1.7023000000000001
 30
0.0
 10
-2.8072400000000002
 20
-1.7023000000000001
 30
0.0
 10
-2.8700800000000002
 20
-1.5203700000000002
 30
0.0
 10
-2.9693200000000002
 20
-1.32521
 30
0.0
 10
-3.0718700000000001
 20
-1.1565000000000001
 30
0.0
  0
SPLINE
  5
59
100
AcDbEntity
  8
Ebene 1
 62
     0
100
AcDbSpline
210
0.0
220
0.0
230
1.0
 70
     1
 71
     3
 72
    20
 73
    16
 74
     0
 42
0.0000000001
 43
0.0000000001
 40
0.0
 40
0.0
 40
0.0
 40
0.0
 40
0.25
 40
0.25
 40
0.25
 40
0.25
 40
0.5
 40
0.5
 40
0.5
 40
0.5
 40
0.75
 40
0.75
 40
0.75
 40
0.75
 40
1.0
 40
1.0
 40
1.0
 40
1.0
 10
-1.8479500000000002
 20
6.0646100000000001
 30
0.0
 10
-1.7917200000000002
 20
6.4516200000000001
 30
0.0
 10
-1.4708500000000002
 20
6.6931000000000003
 30
0.0
 10
-1.1169200000000001
 20
6.8452600000000006
 30
0.0
 10
-1.1169200000000001
 20
6.8452600000000006
 30
0.0
 10
-1.0805200000000001
 20
6.6500900000000005
 30
0.0
 10
-1.23268
 20
6.4846900000000005
 30
0.0
 10
-1.2525300000000001
 20
6.2796200000000004
 30
0.0
 10
-1.2525300000000001
 20
6.2796200000000004
 30
0.0
 10
-1.4708500000000002
 20
6.2531400000000001
 30
0.0
 10
-1.6924800000000002
 20
6.1406800000000006
 30
0.0
 10
-1.8148700000000002
 20
5.9322800000000004
 30
0.0
 10
-1.8148700000000002
 20
5.9322800000000004
 30
0.0
 10
-1.8148700000000002
 20
5.9322800000000004
 30
0.0
 10
-1.8479500000000002
 20
6.0646100000000001
 30
0.0
 10
-1.8479500000000002
 20
6.0646100000000001
 30
0.0
  0
SPLINE
  5
5A
100
AcDbEntity
  8
Ebene 1
 62
    40
100
AcDbSpline
210
0.0
220
0.0
230
1.0
 70
     1
 71
     3
 72
    16
 73
    12
 74
     0
 42
0.0000000001
 43
0.0000000001
 40
0.0
 40
0.0
 40
0.0
 40
0.0
 40
0.3333333333333333
 40
0.3333333333333333
 40
0.3333333333333333
 40
0.3333333333333333
 40
0.6666666666666666
 40
0.6666666666666666
 40
0.6666666666666666
 40
0.6666666666666666
 40
1.0
 40
1.0
 40
1.0
 40
1.0
 10
-2.37059
 20
2.4160000000000004
 30
0.0
 10
-2.3838400000000002
 20
2.6905700000000001
 30
0.0
 10
-2.1357400000000002
 20
3.2595200000000002
 30
0.0
 10
-1.8644900000000002
 20
2.8559500000000004
 30
0.0
 10
-1.8644900000000002
 20
2.8559500000000004
 30
0.0
 10
-2.0398100000000001
 20
2.5714800000000002
 30
0.0
 10
-2.0828200000000003
 20
2.2406900000000003
 30
0.0
 10
-1.9339600000000001
 20
1.9231300000000002
 30
0.0
 10
-1.9339600000000001
 20
1.9231300000000002
 30
0.0
 10
-2.1522800000000002
 20
1.9826800000000002
 30
0.0
 10
-2.35406
 20
2.2043000000000004
 30
0.0
 10
-2.37059
 20
2.4160000000000004
 30
0.0
  0
SPLINE
  5
5B
100
AcDbEntity
  8
Ebene 1
 62
     0
100
AcDbSpline
210
0.0
220
0.0
230
1.0
 70
     1
 71
     3
 72
    20
 73
    16
 74
     0
 42
0.0000000001
 43
0.0000000001
 40
0.0
 40
0.0
 40
0.0
 40
0.0
 40
0.25
 40
0.25
 40
0.25
 40
0.25
 40
0.5
 40
0.5
 40
0.5
 40
0.5
 40
0.75
 40
0.75
 40
0.75
 40
0.75
 40
1.0
 40
1.0
 40
1.0
 40
1.0
 10
-1.7189500000000002
 20
5.8330500000000001
 30
0.0
 10
-1.70903
 20
5.9554400000000003
 30
0.0
 10
-1.6164100000000001
 20
6.1075900000000001
 30
0.0
 10
-1.4873900000000002
 20
6.1307500000000008
 30
0.0
 10
-1.4873900000000002
 20
6.1307500000000008
 30
0.0
 10
-1.4873900000000002
 20
6.1307500000000008
 30
0.0
 10
-1.4675400000000001
 20
6.0844500000000004
 30
0.0
 10
-1.4675400000000001
 20
6.0844500000000004
 30
0.0
 10
-1.4675400000000001
 20
6.0844500000000004
 30
0.0
 10
-1.5767100000000001
 20
6.0182800000000007
 30
0.0
 10
-1.5370000000000001
 20
5.8859700000000004
 30
0.0
 10
-1.5700800000000001
 20
5.7669000000000006
 30
0.0
 10
-1.5700800000000001
 20
5.7669000000000006
 30
0.0
 10
-1.6296300000000001
 20
5.7536500000000004
 30
0.0
 10
-1.6726400000000001
 20
5.8032700000000004
 30
0.0
 10
-1.7189500000000002
 20
5.8330500000000001
 30
0.0
  0
SPLINE
  5
5C
100
AcDbEntity
  8
Ebene 1
 62
    40
100
AcDbSpline
210
0.0
220
0.0
230
1.0
 70
     1
 71
     3
 72
    16
 73
    12
 74
     0
 42
0.0000000001
 43
0.0000000001
 40
0.0
 40
0.0
 40
0.0
 40
0.0
 40
0.3333333333333333
 40
0.3333333333333333
 40
0.3333333333333333
 40
0.3333333333333333
 40
0.6666666666666666
 40
0.6666666666666666
 40
0.6666666666666666
 40
0.6666666666666666
 40
1.0
 40
1.0
 40
1.0
 40
1.0
 10
-2.79732
 20
-0.7595500000000001
 30
0.0
 10
-2.79732
 20
-0.7595500000000001
 30
0.0
 10
-1.9769600000000003
 20
-0.21045
 30
0.0
 10
-1.9769600000000003
 20
-0.21045
 30
0.0
 10
-1.9769600000000003
 20
-0.21045
 30
0.0
 10
-2.1059700000000001
 20
-0.50815
 30
0.0
 10
-2.2449000000000003
 20
-0.8124800000000001
 30
0.0
 10
-2.4169100000000001
 20
-1.0903500000000002
 30
0.0
 10
-2.4169100000000001
 20
-1.0903500000000002
 30
0.0
 10
-2.5161500000000001
 20
-0.9811800000000001
 30
0.0
 10
-2.6187
 20
-0.7926300000000001
 30
0.0
 10
-2.79732
 20
-0.7595500000000001
 30
0.0
  0
SPLINE
  5
5D
100
AcDbEntity
  8
Ebene 1
 62
     7
100
AcDbSpline
210
0.0
220
0.0
230
1.0
 70
     1
 71
     3
 72
    16
 73
    12
 74
     0
 42
0.0000000001
 43
0.0000000001
 40
0.0
 40
0.0
 40
0.0
 40
0.0
 40
0.3333333333333333
 40
0.3333333333333333
 40
0.3333333333333333
 40
0.3333333333333333
 40
0.6666666666666666
 40
0.6666666666666666
 40
0.6666666666666666
 40
0.6666666666666666
 40
1.0
 40
1.0
 40
1.0
 40
1.0
 10
-2.0795000000000003
 20
3.2926000000000002
 30
0.0
 10
-2.0662800000000003
 20
3.3289800000000005
 30
0.0
 10
-2.0232700000000001
 20
3.3223700000000003
 30
0.0
 10
-1.9901900000000001
 20
3.3190600000000003
 30
0.0
 10
-1.9901900000000001
 20
3.3190600000000003
 30
0.0
 10
-1.9901900000000001
 20
3.3190600000000003
 30
0.0
 10
-1.6991000000000001
 20
2.9750400000000004
 30
0.0
 10
-1.6991000000000001
 20
2.9750400000000004
 30
0.0
 10
-1.6991000000000001
 20
2.9750400000000004
 30
0.0
 10
-1.6991000000000001
 20
2.9750400000000004
 30
0.0
 10
-2.0795000000000003
 20
3.2926000000000002
 30
0.0
 10
-2.0795000000000003
 20
3.2926000000000002
 30
0.0
  0
SPLINE
  5
5E
100
AcDbEntity
  8
Ebene 1
 62
    31
100
AcDbSpline
210
0.0
220
0.0
230
1.0
 70
     1
 71
     3
 72
    20
 73
    16
 74
     0
 42
0.0000000001
 43
0.0000000001
 40
0.0
 40
0.0
 40
0.0
 40
0.0
 40
0.25
 40
0.25
 40
0.25
 40
0.25
 40
0.5
 40
0.5
 40
0.5
 40
0.5
 40
0.75
 40
0.75
 40
0.75
 40
0.75
 40
1.0
 40
1.0
 40
1.0
 40
1.0
 10
-2.3639900000000003
 20
1.3244
 30
0.0
 10
-2.2482000000000002
 20
1.3938700000000002
 30
0.0
 10
-2.06297
 20
1.31779
 30
0.0
 10
-1.9571100000000001
 20
1.4203300000000001
 30
0.0
 10
-1.9571100000000001
 20
1.4203300000000001
 30
0.0
 10
-2.0265900000000001
 20
1.5394200000000002
 30
0.0
 10
-2.2416
 20
1.41703
 30
0.0
 10
-2.2614500000000004
 20
1.5559600000000002
 30
0.0
 10
-2.2614500000000004
 20
1.5559600000000002
 30
0.0
 10
-2.2614500000000004
 20
1.5559600000000002
 30
0.0
 10
-1.0739100000000001
 20
1.4236300000000002
 30
0.0
 10
-1.0739100000000001
 20
1.4236300000000002
 30
0.0
 10
-1.0739100000000001
 20
1.4236300000000002
 30
0.0
 10
-1.4675400000000001
 20
1.23841
 30
0.0
 10
-1.9339600000000001
 20
1.31447
 30
0.0
 10
-2.3639900000000003
 20
1.3244
 30
0.0
  0
SPLINE
  5
5F
100
AcDbEntity
  8
Ebene 1
 62
    31
100
AcDbSpline
210
0.0
220
0.0
230
1.0
 70
     1
 71
     3
 72
    24
 73
    20
 74
     0
 42
0.0000000001
 43
0.0000000001
 40
0.0
 40
0.0
 40
0.0
 40
0.0
 40
0.2
 40
0.2
 40
0.2
 40
0.2
 40
0.4
 40
0.4
 40
0.4
 40
0.4
 40
0.6000000000000001
 40
0.6000000000000001
 40
0.6000000000000001
 40
0.6000000000000001
 40
0.8
 40
0.8
 40
0.8
 40
0.8
 40
1.0
 40
1.0
 40
1.0
 40
1.0
 10
-2.3242800000000003
 20
1.0663800000000001
 30
0.0
 10
-2.1522800000000002
 20
1.2152500000000002
 30
0.0
 10
-1.7950300000000001
 20
1.0796100000000002
 30
0.0
 10
-1.5634800000000002
 20
1.14578
 30
0.0
 10
-1.5634800000000002
 20
1.14578
 30
0.0
 10
-1.5998600000000001
 20
1.0663800000000001
 30
0.0
 10
-1.8611900000000001
 20
0.9439900000000001
 30
0.0
 10
-1.70903
 20
0.8844500000000001
 30
0.0
 10
-1.70903
 20
0.8844500000000001
 30
0.0
 10
-1.5469300000000001
 20
1.03
 30
0.0
 10
-1.3153800000000002
 20
1.13585
 30
0.0
 10
-1.10368
 20
1.12924
 30
0.0
 10
-1.10368
 20
1.12924
 30
0.0
 10
-1.3286200000000001
 20
0.9340700000000001
 30
0.0
 10
-1.5535500000000002
 20
0.7223700000000001
 30
0.0
 10
-1.6957900000000001
 20
0.46435
 30
0.0
 10
-1.6957900000000001
 20
0.46435
 30
0.0
 10
-1.9935100000000001
 20
0.5238900000000001
 30
0.0
 10
-2.2349700000000001
 20
0.7786000000000001
 30
0.0
 10
-2.3242800000000003
 20
1.0663800000000001
 30
0.0
  0
SPLINE
  5
60
100
AcDbEntity
  8
Ebene 1
 62
     7
100
AcDbSpline
210
0.0
220
0.0
230
1.0
 70
     1
 71
     3
 72
    20
 73
    16
 74
     0
 42
0.0000000001
 43
0.0000000001
 40
0.0
 40
0.0
 40
0.0
 40
0.0
 40
0.25
 40
0.25
 40
0.25
 40
0.25
 40
0.5
 40
0.5
 40
0.5
 40
0.5
 40
0.75
 40
0.75
 40
0.75
 40
0.75
 40
1.0
 40
1.0
 40
1.0
 40
1.0
 10
-1.9505000000000001
 20
2.3035400000000004
 30
0.0
 10
-1.9670300000000001
 20
2.5185500000000003
 30
0.0
 10
-1.7586400000000002
 20
2.9221100000000004
 30
0.0
 10
-1.5700800000000001
 20
2.6177900000000003
 30
0.0
 10
-1.5700800000000001
 20
2.6177900000000003
 30
0.0
 10
-1.8016400000000001
 20
2.3432400000000002
 30
0.0
 10
-1.6428600000000002
 20
1.8768200000000002
 30
0.0
 10
-1.3352300000000001
 20
1.7610400000000002
 30
0.0
 10
-1.3352300000000001
 20
1.7610400000000002
 30
0.0
 10
-1.4642400000000002
 20
1.8040500000000002
 30
0.0
 10
-1.5965600000000002
 20
1.7842000000000002
 30
0.0
 10
-1.70903
 20
1.8668900000000002
 30
0.0
 10
-1.70903
 20
1.8668900000000002
 30
0.0
 10
-1.8678000000000001
 20
1.9529000000000001
 30
0.0
 10
-1.8810300000000002
 20
2.16791
 30
0.0
 10
-1.9505000000000001
 20
2.3035400000000004
 30
0.0
  0
SPLINE
  5
61
100
AcDbEntity
  8
Ebene 1
 62
     0
100
AcDbSpline
210
0.0
220
0.0
230
1.0
 70
     1
 71
     3
 72
    16
 73
    12
 74
     0
 42
0.0000000001
 43
0.0000000001
 40
0.0
 40
0.0
 40
0.0
 40
0.0
 40
0.3333333333333333
 40
0.3333333333333333
 40
0.3333333333333333
 40
0.3333333333333333
 40
0.6666666666666666
 40
0.6666666666666666
 40
0.6666666666666666
 40
0.6666666666666666
 40
1.0
 40
1.0
 40
1.0
 40
1.0
 10
-1.2393100000000001
 20
5.5651000000000002
 30
0.0
 10
-1.2393100000000001
 20
5.5651000000000002
 30
0.0
 10
-1.2293900000000002
 20
5.6048000000000009
 30
0.0
 10
-1.2293900000000002
 20
5.6048000000000009
 30
0.0
 10
-1.2293900000000002
 20
5.6048000000000009
 30
0.0
 10
-1.0871300000000002
 20
5.5816500000000007
 30
0.0
 10
-0.98128
 20
5.4162500000000007
 30
0.0
 10
-0.9548200000000001
 20
5.2839400000000003
 30
0.0
 10
-0.9548200000000001
 20
5.2839400000000003
 30
0.0
 10
-1.0805200000000001
 20
5.3269400000000005
 30
0.0
 10
-1.1136000000000001
 20
5.5221100000000005
 30
0.0
 10
-1.2393100000000001
 20
5.5651000000000002
 30
0.0
  0
SPLINE
  5
62
100
AcDbEntity
  8
Ebene 1
 62
     0
100
AcDbSpline
210
0.0
220
0.0
230
1.0
 70
     1
 71
     3
 72
    12
 73
     8
 74
     0
 42
0.0000000001
 43
0.0000000001
 40
0.0
 40
0.0
 40
0.0
 40
0.0
 40
0.5
 40
0.5
 40
0.5
 40
0.5
 40
1.0
 40
1.0
 40
1.0
 40
1.0
 10
-1.0176700000000001
 20
5.6511100000000001
 30
0.0
 10
-0.96474
 20
5.7073400000000003
 30
0.0
 10
-0.85228
 20
5.6676500000000001
 30
0.0
 10
-0.8655100000000001
 20
5.5849500000000001
 30
0.0
 10
-0.8655100000000001
 20
5.5849500000000001
 30
0.0
 10
-0.91512
 20
5.4890300000000005
 30
0.0
 10
-0.9680500000000001
 20
5.6246500000000008
 30
0.0
 10
-1.0176700000000001
 20
5.6511100000000001
 30
0.0
  0
SPLINE
  5
63
100
AcDbEntity
  8
Ebene 1
 62
     7
100
AcDbSpline
210
0.0
220
0.0
230
1.0
 70
     1
 71
     3
 72
    12
 73
     8
 74
     0
 42
0.0000000001
 43
0.0000000001
 40
0.0
 40
0.0
 40
0.0
 40
0.0
 40
0.5
 40
0.5
 40
0.5
 40
0.5
 40
1.0
 40
1.0
 40
1.0
 40
1.0
 10
-1.5072400000000001
 20
2.4424700000000001
 30
0.0
 10
-1.5171600000000001
 20
2.48217
 30
0.0
 10
-1.4642400000000002
 20
2.5384000000000002
 30
0.0
 10
-1.4179300000000001
 20
2.5086200000000001
 30
0.0
 10
-1.4179300000000001
 20
2.5086200000000001
 30
0.0
 10
-1.4080000000000001
 20
2.4457900000000001
 30
0.0
 10
-1.4741700000000002
 20
2.4557000000000002
 30
0.0
 10
-1.5072400000000001
 20
2.4424700000000001
 30
0.0
  0
SPLINE
  5
64
100
AcDbEntity
  8
Ebene 1
 62
     0
100
AcDbSpline
210
0.0
220
0.0
230
1.0
 70
     1
 71
     3
 72
    16
 73
    12
 74
     0
 42
0.0000000001
 43
0.0000000001
 40
0.0
 40
0.0
 40
0.0
 40
0.0
 40
0.3333333333333333
 40
0.3333333333333333
 40
0.3333333333333333
 40
0.3333333333333333
 40
0.6666666666666666
 40
0.6666666666666666
 40
0.6666666666666666
 40
0.6666666666666666
 40
1.0
 40
1.0
 40
1.0
 40
1.0
 10
-1.0805200000000001
 20
4.7612900000000007
 30
0.0
 10
-1.0805200000000001
 20
4.7612900000000007
 30
0.0
 10
-0.95152
 20
4.8208300000000008
 30
0.0
 10
-0.95152
 20
4.8208300000000008
 30
0.0
 10
-0.95152
 20
4.8208300000000008
 30
0.0
 10
-0.95152
 20
4.8208300000000008
 30
0.0
 10
-0.75304
 20
4.3709700000000007
 30
0.0
 10
-0.75304
 20
4.3709700000000007
 30
0.0
 10
-0.75304
 20
4.3709700000000007
 30
0.0
 10
-0.9482
 20
4.38089
 30
0.0
 10
-1.02098
 20
4.62568
 30
0.0
 10
-1.0805200000000001
 20
4.7612900000000007
 30
0.0
  0
SPLINE
  5
65
100
AcDbEntity
  8
Ebene 1
 62
     0
100
AcDbSpline
210
0.0
220
0.0
230
1.0
 70
     1
 71
     3
 72
    52
 73
    48
 74
     0
 42
0.0000000001
 43
0.0000000001
 40
0.0
 40
0.0
 40
0.0
 40
0.0
 40
0.0833333333333333
 40
0.0833333333333333
 40
0.0833333333333333
 40
0.0833333333333333
 40
0.1666666666666667
 40
0.1666666666666667
 40
0.1666666666666667
 40
0.1666666666666667
 40
0.25
 40
0.25
 40
0.25
 40
0.25
 40
0.3333333333333333
 40
0.3333333333333333
 40
0.3333333333333333
 40
0.3333333333333333
 40
0.4166666666666666
 40
0.4166666666666666
 40
0.4166666666666666
 40
0.4166666666666666
 40
0.4999999999999999
 40
0.4999999999999999
 40
0.4999999999999999
 40
0.4999999999999999
 40
0.5833333333333333
 40
0.5833333333333333
 40
0.5833333333333333
 40
0.5833333333333333
 40
0.6666666666666666
 40
0.6666666666666666
 40
0.6666666666666666
 40
0.6666666666666666
 40
0.75
 40
0.75
 40
0.75
 40
0.75
 40
0.8333333333333334
 40
0.8333333333333334
 40
0.8333333333333334
 40
0.8333333333333334
 40
0.9166666666666667
 40
0.9166666666666667
 40
0.9166666666666667
 40
0.9166666666666667
 40
1.0
 40
1.0
 40
1.0
 40
1.0
 10
-0.8622000000000001
 20
5.1847000000000003
 30
0.0
 10
-0.85228
 20
5.6874900000000004
 30
0.0
 10
-0.5016400000000001
 20
6.2564600000000006
 30
0.0
 10
0.05739
 20
6.1870000000000003
 30
0.0
 10
0.05739
 20
6.1870000000000003
 30
0.0
 10
0.12025
 20
6.1340700000000004
 30
0.0
 10
0.21948
 20
6.0976700000000008
 30
0.0
 10
0.21286
 20
6.0149800000000004
 30
0.0
 10
0.21286
 20
6.0149800000000004
 30
0.0
 10
0.15663
 20
5.8992100000000001
 30
0.0
 10
0.00777
 20
5.8165100000000001
 30
0.0
 10
0.07063
 20
5.6610300000000002
 30
0.0
 10
0.07063
 20
5.6610300000000002
 30
0.0
 10
-0.32301
 20
5.3898000000000001
 30
0.0
 10
-0.3759400000000001
 20
4.6025300000000007
 30
0.0
 10
0.20625
 20
4.4635899999999999
 30
0.0
 10
0.20625
 20
4.4635899999999999
 30
0.0
 10
0.20625
 20
4.4635899999999999
 30
0.0
 10
0.11694
 20
4.62568
 30
0.0
 10
0.11694
 20
4.62568
 30
0.0
 10
0.11694
 20
4.62568
 30
0.0
 10
-0.12784
 20
4.7910600000000008
 30
0.0
 10
0.08717
 20
5.1119300000000001
 30
0.0
 10
0.19963
 20
4.8605200000000002
 30
0.0
 10
0.19963
 20
4.8605200000000002
 30
0.0
 10
0.17648
 20
4.6984300000000001
 30
0.0
 10
0.24264
 20
4.5198200000000002
 30
0.0
 10
0.29555
 20
4.36435
 30
0.0
 10
0.29555
 20
4.36435
 30
0.0
 10
-0.03193
 20
4.2088800000000006
 30
0.0
 10
-0.5909500000000001
 20
4.2188000000000008
 30
0.0
 10
-0.62073
 20
4.6620500000000007
 30
0.0
 10
-0.62073
 20
4.6620500000000007
 30
0.0
 10
-0.62073
 20
4.6620500000000007
 30
0.0
 10
-0.66373
 20
4.7116800000000003
 30
0.0
 10
-0.66373
 20
4.7116800000000003
 30
0.0
 10
-0.66373
 20
4.7116800000000003
 30
0.0
 10
-0.71996
 20
4.7844500000000005
 30
0.0
 10
-0.7232700000000001
 20
4.6587500000000004
 30
0.0
 10
-0.67696
 20
4.6289800000000003
 30
0.0
 10
-0.67696
 20
4.6289800000000003
 30
0.0
 10
-0.6571100000000001
 20
4.6058300000000001
 30
0.0
 10
-0.64058
 20
4.5396700000000001
 30
0.0
 10
-0.6670400000000001
 20
4.5032800000000002
 30
0.0
 10
-0.6670400000000001
 20
4.5032800000000002
 30
0.0
 10
-0.8985900000000001
 20
4.6455100000000007
 30
0.0
 10
-0.77951
 20
4.9829100000000004
 30
0.0
 10
-0.8622000000000001
 20
5.1847000000000003
 30
0.0
  0
SPLINE
  5
66
100
AcDbEntity
  8
Ebene 1
 62
     0
100
AcDbSpline
210
0.0
220
0.0
230
1.0
 70
     1
 71
     3
 72
    28
 73
    24
 74
     0
 42
0.0000000001
 43
0.0000000001
 40
0.0
 40
0.0
 40
0.0
 40
0.0
 40
0.1666666666666667
 40
0.1666666666666667
 40
0.1666666666666667
 40
0.1666666666666667
 40
0.3333333333333333
 40
0.3333333333333333
 40
0.3333333333333333
 40
0.3333333333333333
 40
0.5
 40
0.5
 40
0.5
 40
0.5
 40
0.6666666666666666
 40
0.6666666666666666
 40
0.6666666666666666
 40
0.6666666666666666
 40
0.8333333333333333
 40
0.8333333333333333
 40
0.8333333333333333
 40
0.8333333333333333
 40
1.0
 40
1.0
 40
1.0
 40
1.0
 10
-0.6703400000000001
 20
5.2177700000000007
 30
0.0
 10
-0.6372600000000001
 20
5.5254100000000008
 30
0.0
 10
-0.54134
 20
5.8264300000000002
 30
0.0
 10
-0.29986
 20
6.0149800000000004
 30
0.0
 10
-0.29986
 20
6.0149800000000004
 30
0.0
 10
-0.17085
 20
5.9951300000000005
 30
0.0
 10
-0.05178
 20
5.8892900000000008
 30
0.0
 10
0.01108
 20
5.7768200000000007
 30
0.0
 10
0.01108
 20
5.7768200000000007
 30
0.0
 10
0.01108
 20
5.7768200000000007
 30
0.0
 10
-0.04846
 20
5.5750200000000003
 30
0.0
 10
-0.04846
 20
5.5750200000000003
 30
0.0
 10
-0.04846
 20
5.5750200000000003
 30
0.0
 10
-0.47849
 20
5.2905500000000005
 30
0.0
 10
-0.30647
 20
4.7579800000000008
 30
0.0
 10
-0.03193
 20
4.4172800000000008
 30
0.0
 10
-0.03193
 20
4.4172800000000008
 30
0.0
 10
-0.17085
 20
4.4007400000000008
 30
0.0
 10
-0.24363
 20
4.5793699999999999
 30
0.0
 10
-0.3594000000000001
 20
4.5992200000000008
 30
0.0
 10
-0.3594000000000001
 20
4.5992200000000008
 30
0.0
 10
-0.61741
 20
4.6620500000000007
 30
0.0
 10
-0.63065
 20
5.0226100000000002
 30
0.0
 10
-0.6703400000000001
 20
5.2177700000000007
 30
0.0
  0
SPLINE
  5
67
100
AcDbEntity
  8
Ebene 1
 62
    30
100
AcDbSpline
210
0.0
220
0.0
230
1.0
 70
     1
 71
     3
 72
    40
 73
    36
 74
     0
 42
0.0000000001
 43
0.0000000001
 40
0.0
 40
0.0
 40
0.0
 40
0.0
 40
0.1111111111111111
 40
0.1111111111111111
 40
0.1111111111111111
 40
0.1111111111111111
 40
0.2222222222222222
 40
0.2222222222222222
 40
0.2222222222222222
 40
0.2222222222222222
 40
0.3333333333333333
 40
0.3333333333333333
 40
0.3333333333333333
 40
0.3333333333333333
 40
0.4444444444444444
 40
0.4444444444444444
 40
0.4444444444444444
 40
0.4444444444444444
 40
0.5555555555555556
 40
0.5555555555555556
 40
0.5555555555555556
 40
0.5555555555555556
 40
0.6666666666666667
 40
0.6666666666666667
 40
0.6666666666666667
 40
0.6666666666666667
 40
0.7777777777777779
 40
0.7777777777777779
 40
0.7777777777777779
 40
0.7777777777777779
 40
0.8888888888888891
 40
0.8888888888888891
 40
0.8888888888888891
 40
0.8888888888888891
 40
1.0
 40
1.0
 40
1.0
 40
1.0
 10
-0.9283500000000001
 20
4.2750400000000006
 30
0.0
 10
-0.7034200000000001
 20
4.4470600000000005
 30
0.0
 10
-0.4321700000000001
 20
3.9806400000000002
 30
0.0
 10
-0.151
 20
4.0831800000000005
 30
0.0
 10
-0.151
 20
4.0831800000000005
 30
0.0
 10
-0.151
 20
4.0831800000000005
 30
0.0
 10
0.04085
 20
3.1668900000000004
 30
0.0
 10
0.04085
 20
3.1668900000000004
 30
0.0
 10
0.04085
 20
3.1668900000000004
 30
0.0
 10
0.1401
 20
3.2562000000000002
 30
0.0
 10
0.07393
 20
3.4778500000000001
 30
0.0
 10
0.13679
 20
3.6134600000000003
 30
0.0
 10
0.13679
 20
3.6134600000000003
 30
0.0
 10
0.16987
 20
3.7755500000000004
 30
0.0
 10
-0.00545
 20
4.0170300000000001
 30
0.0
 10
0.15332
 20
4.0931000000000006
 30
0.0
 10
0.15332
 20
4.0931000000000006
 30
0.0
 10
0.28894
 20
4.19895
 30
0.0
 10
0.38485
 20
4.0534100000000004
 30
0.0
 10
0.48078
 20
3.9773400000000003
 30
0.0
 10
0.48078
 20
3.9773400000000003
 30
0.0
 10
0.19963
 20
3.4149900000000004
 30
0.0
 10
0.34847
 20
2.7600300000000004
 30
0.0
 10
0.18971
 20
2.1778400000000002
 30
0.0
 10
0.18971
 20
2.1778400000000002
 30
0.0
 10
0.13347
 20
2.8162600000000002
 30
0.0
 10
-0.5909500000000001
 20
3.5473100000000004
 30
0.0
 10
-0.7497200000000001
 20
3.9508600000000005
 30
0.0
 10
-0.7497200000000001
 20
3.9508600000000005
 30
0.0
 10
-0.7497200000000001
 20
3.9508600000000005
 30
0.0
 10
-0.15432
 20
3.5572300000000001
 30
0.0
 10
-0.15432
 20
3.5572300000000001
 30
0.0
 10
-0.15432
 20
3.5572300000000001
 30
0.0
 10
-0.32964
 20
3.8814000000000002
 30
0.0
 10
-0.67366
 20
4.0434800000000006
 30
0.0
 10
-0.9283500000000001
 20
4.2750400000000006
 30
0.0
  0
SPLINE
  5
68
100
AcDbEntity
  8
Ebene 1
 62
    22
100
AcDbSpline
210
0.0
220
0.0
230
1.0
 70
     1
 71
     3
 72
    88
 73
    84
 74
     0
 42
0.0000000001
 43
0.0000000001
 40
0.0
 40
0.0
 40
0.0
 40
0.0
 40
0.0476190476190476
 40
0.0476190476190476
 40
0.0476190476190476
 40
0.0476190476190476
 40
0.0952380952380952
 40
0.0952380952380952
 40
0.0952380952380952
 40
0.0952380952380952
 40
0.1428571428571429
 40
0.1428571428571429
 40
0.1428571428571429
 40
0.1428571428571429
 40
0.1904761904761905
 40
0.1904761904761905
 40
0.1904761904761905
 40
0.1904761904761905
 40
0.2380952380952381
 40
0.2380952380952381
 40
0.2380952380952381
 40
0.2380952380952381
 40
0.2857142857142857
 40
0.2857142857142857
 40
0.2857142857142857
 40
0.2857142857142857
 40
0.3333333333333333
 40
0.3333333333333333
 40
0.3333333333333333
 40
0.3333333333333333
 40
0.3809523809523809
 40
0.3809523809523809
 40
0.3809523809523809
 40
0.3809523809523809
 40
0.4285714285714286
 40
0.4285714285714286
 40
0.4285714285714286
 40
0.4285714285714286
 40
0.4761904761904762
 40
0.4761904761904762
 40
0.4761904761904762
 40
0.4761904761904762
 40
0.5238095238095237
 40
0.5238095238095237
 40
0.5238095238095237
 40
0.5238095238095237
 40
0.5714285714285714
 40
0.5714285714285714
 40
0.5714285714285714
 40
0.5714285714285714
 40
0.6190476190476191
 40
0.6190476190476191
 40
0.6190476190476191
 40
0.6190476190476191
 40
0.6666666666666667
 40
0.6666666666666667
 40
0.6666666666666667
 40
0.6666666666666667
 40
0.7142857142857144
 40
0.7142857142857144
 40
0.7142857142857144
 40
0.7142857142857144
 40
0.7619047619047621
 40
0.7619047619047621
 40
0.7619047619047621
 40
0.7619047619047621
 40
0.8095238095238098
 40
0.8095238095238098
 40
0.8095238095238098
 40
0.8095238095238098
 40
0.8571428571428574
 40
0.8571428571428574
 40
0.8571428571428574
 40
0.8571428571428574
 40
0.9047619047619051
 40
0.9047619047619051
 40
0.9047619047619051
 40
0.9047619047619051
 40
0.9523809523809528
 40
0.9523809523809528
 40
0.9523809523809528
 40
0.9523809523809528
 40
1.0
 40
1.0
 40
1.0
 40
1.0
 10
-1.7950300000000001
 20
-3.8226500000000003
 30
0.0
 10
-1.7917200000000002
 20
-3.7531900000000005
 30
0.0
 10
-1.7288700000000001
 20
-3.7002600000000001
 30
0.0
 10
-1.6660200000000001
 20
-3.6771200000000004
 30
0.0
 10
-1.6660200000000001
 20
-3.6771200000000004
 30
0.0
 10
-1.23268
 20
-4.08399
 30
0.0
 10
-1.6130900000000001
 20
-4.7687200000000001
 30
0.0
 10
-1.21614
 20
-5.1491300000000004
 30
0.0
 10
-1.21614
 20
-5.1491300000000004
 30
0.0
 10
-0.4090300000000001
 20
-5.1524300000000007
 30
0.0
 10
0.46754
 20
-5.1689800000000004
 30
0.0
 10
1.29783
 20
-5.3376800000000006
 30
0.0
 10
1.29783
 20
-5.3376800000000006
 30
0.0
 10
1.7013900000000002
 20
-4.50739
 30
0.0
 10
2.2538100000000001
 20
-3.7763500000000003
 30
0.0
 10
3.0080100000000001
 20
-3.2007700000000003
 30
0.0
 10
3.0080100000000001
 20
-3.2007700000000003
 30
0.0
 10
3.5339500000000004
 20
-2.64175
 30
0.0
 10
4.49655
 20
-2.50943
 30
0.0
 10
4.7181900000000008
 20
-1.7188500000000002
 30
0.0
 10
4.7181900000000008
 20
-1.7188500000000002
 30
0.0
 10
4.3907100000000003
 20
-0.9051000000000001
 30
0.0
 10
3.1965500000000002
 20
-1.3781300000000001
 30
0.0
 10
2.5581400000000003
 20
-1.6129800000000001
 30
0.0
 10
2.5581400000000003
 20
-1.6129800000000001
 30
0.0
 10
1.6451500000000001
 20
-1.9900900000000001
 30
0.0
 10
1.1225100000000001
 20
-3.3529400000000003
 30
0.0
 10
-0.05507
 20
-2.8369200000000001
 30
0.0
 10
-0.05507
 20
-2.8369200000000001
 30
0.0
 10
-0.05507
 20
-2.8369200000000001
 30
0.0
 10
0.87441
 20
-2.7575200000000004
 30
0.0
 10
0.87441
 20
-2.7575200000000004
 30
0.0
 10
0.87441
 20
-2.7575200000000004
 30
0.0
 10
1.2779800000000001
 20
-2.67483
 30
0.0
 10
1.5823100000000001
 20
-2.3010300000000004
 30
0.0
 10
1.7940200000000002
 20
-1.9900900000000001
 30
0.0
 10
1.7940200000000002
 20
-1.9900900000000001
 30
0.0
 10
1.5128400000000002
 20
-2.1091800000000003
 30
0.0
 10
1.3077500000000002
 20
-2.43005
 30
0.0
 10
1.0001100000000001
 20
-2.5061200000000001
 30
0.0
 10
1.0001100000000001
 20
-2.5061200000000001
 30
0.0
 10
0.56016
 20
-2.5954300000000003
 30
0.0
 10
0.05409
 20
-2.6318200000000003
 30
0.0
 10
-0.3362500000000001
 20
-2.5061200000000001
 30
0.0
 10
-0.3362500000000001
 20
-2.5061200000000001
 30
0.0
 10
-0.3362500000000001
 20
-2.5061200000000001
 30
0.0
 10
-0.00877
 20
-2.1951900000000002
 30
0.0
 10
-0.00877
 20
-2.1951900000000002
 30
0.0
 10
-0.00877
 20
-2.1951900000000002
 30
0.0
 10
0.8512700000000001
 20
-2.64175
 30
0.0
 10
1.6517700000000002
 20
-1.6196100000000002
 30
0.0
 10
2.4655100000000001
 20
-1.3582800000000002
 30
0.0
 10
2.4655100000000001
 20
-1.3582800000000002
 30
0.0
 10
3.2097800000000003
 20
-1.0473400000000002
 30
0.0
 10
4.3311600000000006
 20
-0.7893300000000001
 30
0.0
 10
4.8372700000000002
 20
-1.5964500000000001
 30
0.0
 10
4.8372700000000002
 20
-1.5964500000000001
 30
0.0
 10
4.8968100000000003
 20
-1.7949300000000001
 30
0.0
 10
4.8008900000000008
 20
-2.0000200000000001
 30
0.0
 10
4.7215000000000007
 20
-2.1720300000000003
 30
0.0
 10
4.7215000000000007
 20
-2.1720300000000003
 30
0.0
 10
3.5273500000000002
 20
-3.2338600000000004
 30
0.0
 10
2.3166600000000002
 20
-4.4114599999999999
 30
0.0
 10
1.3805200000000002
 20
-5.6023100000000001
 30
0.0
 10
1.3805200000000002
 20
-5.6023100000000001
 30
0.0
 10
1.1258100000000002
 20
-5.7214
 30
0.0
 10
0.8545700000000001
 20
-5.5692400000000006
 30
0.0
 10
0.6197100000000001
 20
-5.67178
 30
0.0
 10
0.6197100000000001
 20
-5.67178
 30
0.0
 10
0.5138600000000001
 20
-6.0290300000000006
 30
0.0
 10
1.13243
 20
-5.8735500000000007
 30
0.0
 10
1.0960500000000002
 20
-6.1844900000000003
 30
0.0
 10
1.0960500000000002
 20
-6.1844900000000003
 30
0.0
 10
0.26909
 20
-5.8107100000000003
 30
0.0
 10
-0.7596500000000001
 20
-5.5096800000000004
 30
0.0
 10
-1.6296300000000001
 20
-5.9694800000000008
 30
0.0
 10
-1.6296300000000001
 20
-5.9694800000000008
 30
0.0
 10
-1.7619500000000001
 20
-5.9496300000000009
 30
0.0
 10
-1.9174200000000001
 20
-5.9496300000000009
 30
0.0
 10
-1.9736600000000002
 20
-5.8007900000000001
 30
0.0
 10
-1.9736600000000002
 20
-5.8007900000000001
 30
0.0
 10
-2.1059700000000001
 20
-5.1689800000000004
 30
0.0
 10
-1.4940200000000001
 20
-4.4842400000000007
 30
0.0
 10
-1.7950300000000001
 20
-3.8226500000000003
 30
0.0
  0
SPLINE
  5
69
100
AcDbEntity
  8
Ebene 1
 62
    22
100
AcDbSpline
210
0.0
220
0.0
230
1.0
 70
     1
 71
     3
 72
    44
 73
    40
 74
     0
 42
0.0000000001
 43
0.0000000001
 40
0.0
 40
0.0
 40
0.0
 40
0.0
 40
0.1
 40
0.1
 40
0.1
 40
0.1
 40
0.2
 40
0.2
 40
0.2
 40
0.2
 40
0.3
 40
0.3
 40
0.3
 40
0.3
 40
0.4
 40
0.4
 40
0.4
 40
0.4
 40
0.5
 40
0.5
 40
0.5
 40
0.5
 40
0.6
 40
0.6
 40
0.6
 40
0.6
 40
0.7
 40
0.7
 40
0.7
 40
0.7
 40
0.7999999999999999
 40
0.7999999999999999
 40
0.7999999999999999
 40
0.7999999999999999
 40
0.8999999999999999
 40
0.8999999999999999
 40
0.8999999999999999
 40
0.8999999999999999
 40
1.0
 40
1.0
 40
1.0
 40
1.0
 10
-1.06067
 20
-5.4567700000000006
 30
0.0
 10
-1.1003700000000001
 20
-5.4468400000000008
 30
0.0
 10
-1.06399
 20
-5.4931500000000009
 30
0.0
 10
-1.06067
 20
-5.4567700000000006
 30
0.0
 10
-1.06067
 20
-5.4567700000000006
 30
0.0
 10
-0.8655100000000001
 20
-5.4137600000000008
 30
0.0
 10
-0.6372600000000001
 20
-5.3476000000000008
 30
0.0
 10
-0.4586400000000001
 20
-5.4534500000000001
 30
0.0
 10
-0.4586400000000001
 20
-5.4534500000000001
 30
0.0
 10
-0.41895
 20
-5.5692400000000006
 30
0.0
 10
-0.19401
 20
-5.3542300000000003
 30
0.0
 10
-0.08154
 20
-5.4766200000000005
 30
0.0
 10
-0.08154
 20
-5.4766200000000005
 30
0.0
 10
-0.08154
 20
-5.4766200000000005
 30
0.0
 10
-0.3594000000000001
 20
-5.6287700000000003
 30
0.0
 10
-0.3594000000000001
 20
-5.6287700000000003
 30
0.0
 10
-0.3594000000000001
 20
-5.6287700000000003
 30
0.0
 10
-0.84235
 20
-5.4733000000000001
 30
0.0
 10
-1.3848500000000001
 20
-6.0257200000000006
 30
0.0
 10
-1.8711000000000002
 20
-5.6916300000000009
 30
0.0
 10
-1.8711000000000002
 20
-5.6916300000000009
 30
0.0
 10
-2.01004
 20
-5.4203700000000001
 30
0.0
 10
-1.7619500000000001
 20
-5.1755900000000006
 30
0.0
 10
-1.6991000000000001
 20
-4.9109500000000006
 30
0.0
 10
-1.6991000000000001
 20
-4.9109500000000006
 30
0.0
 10
-1.6792500000000001
 20
-4.8944200000000002
 30
0.0
 10
-1.6494700000000002
 20
-4.8878000000000004
 30
0.0
 10
-1.6263200000000002
 20
-4.90435
 30
0.0
 10
-1.6263200000000002
 20
-4.90435
 30
0.0
 10
-1.6263200000000002
 20
-4.90435
 30
0.0
 10
-1.7024000000000001
 20
-5.3740600000000001
 30
0.0
 10
-1.7024000000000001
 20
-5.3740600000000001
 30
0.0
 10
-1.7024000000000001
 20
-5.3740600000000001
 30
0.0
 10
-1.5337000000000001
 20
-5.6618500000000003
 30
0.0
 10
-1.27237
 20
-5.4038400000000006
 30
0.0
 10
-1.0342100000000001
 20
-5.4005300000000007
 30
0.0
 10
-1.0342100000000001
 20
-5.4005300000000007
 30
0.0
 10
-1.0342100000000001
 20
-5.4005300000000007
 30
0.0
 10
-1.06067
 20
-5.4567700000000006
 30
0.0
 10
-1.06067
 20
-5.4567700000000006
 30
0.0
  0
SPLINE
  5
6A
100
AcDbEntity
  8
Ebene 1
 62
     0
100
AcDbSpline
210
0.0
220
0.0
230
1.0
 70
     1
 71
     3
 72
    36
 73
    32
 74
     0
 42
0.0000000001
 43
0.0000000001
 40
0.0
 40
0.0
 40
0.0
 40
0.0
 40
0.125
 40
0.125
 40
0.125
 40
0.125
 40
0.25
 40
0.25
 40
0.25
 40
0.25
 40
0.375
 40
0.375
 40
0.375
 40
0.375
 40
0.5
 40
0.5
 40
0.5
 40
0.5
 40
0.625
 40
0.625
 40
0.625
 40
0.625
 40
0.75
 40
0.75
 40
0.75
 40
0.75
 40
0.875
 40
0.875
 40
0.875
 40
0.875
 40
1.0
 40
1.0
 40
1.0
 40
1.0
 10
0.13679
 20
-8.7381900000000012
 30
0.0
 10
-0.66373
 20
-9.3997700000000002
 30
0.0
 10
-2.0795000000000003
 20
-9.7404900000000012
 30
0.0
 10
-2.29121
 20
-10.865160000000001
 30
0.0
 10
-2.29121
 20
-10.865160000000001
 30
0.0
 10
-2.0034200000000002
 20
-11.549900000000001
 30
0.0
 10
-0.9779800000000001
 20
-11.133100000000001
 30
0.0
 10
-0.8886700000000001
 20
-10.501290000000001
 30
0.0
 10
-0.8886700000000001
 20
-10.501290000000001
 30
0.0
 10
-0.6703400000000001
 20
-10.521140000000001
 30
0.0
 10
-0.8158900000000001
 20
-10.765930000000001
 30
0.0
 10
-0.87543
 20
-10.871780000000001
 30
0.0
 10
-0.87543
 20
-10.871780000000001
 30
0.0
 10
-1.3617000000000001
 20
-11.758290000000001
 30
0.0
 10
-2.79732
 20
-11.463890000000001
 30
0.0
 10
-2.8568500000000001
 20
-10.464910000000001
 30
0.0
 10
-2.8568500000000001
 20
-10.464910000000001
 30
0.0
 10
-2.6782300000000001
 20
-9.29392
 30
0.0
 10
-1.4278400000000002
 20
-8.7613500000000002
 30
0.0
 10
-0.4156300000000001
 20
-8.5463400000000007
 30
0.0
 10
-0.4156300000000001
 20
-8.5463400000000007
 30
0.0
 10
-0.26016
 20
-8.5198700000000009
 30
0.0
 10
-0.1047
 20
-8.4735700000000005
 30
0.0
 10
0.04747
 20
-8.4768600000000003
 30
0.0
 10
0.04747
 20
-8.4768600000000003
 30
0.0
 10
-0.72989
 20
-8.9102000000000015
 30
0.0
 10
-1.9868800000000002
 20
-9.2046100000000006
 30
0.0
 10
-2.2052100000000001
 20
-10.23005
 30
0.0
 10
-2.2052100000000001
 20
-10.23005
 30
0.0
 10
-1.6164100000000001
 20
-9.5486300000000011
 30
0.0
 10
-0.74643
 20
-8.9962100000000014
 30
0.0
 10
0.13679
 20
-8.7381900000000012
 30
0.0
  0
SPLINE
  5
6B
100
AcDbEntity
  8
Ebene 1
 62
    40
100
AcDbSpline
210
0.0
220
0.0
230
1.0
 70
     1
 71
     3
 72
    12
 73
     8
 74
     0
 42
0.0000000001
 43
0.0000000001
 40
0.0
 40
0.0
 40
0.0
 40
0.0
 40
0.5
 40
0.5
 40
0.5
 40
0.5
 40
1.0
 40
1.0
 40
1.0
 40
1.0
 10
-0.73319
 20
1.1788500000000002
 30
0.0
 10
-0.14769
 20
1.6882700000000002
 30
0.0
 10
0.9736600000000001
 20
1.3343200000000002
 30
0.0
 10
1.2382900000000001
 20
0.60328
 30
0.0
 10
1.2382900000000001
 20
0.60328
 30
0.0
 10
0.74541
 20
1.0994600000000001
 30
0.0
 10
-0.03522
 20
1.3343200000000002
 30
0.0
 10
-0.73319
 20
1.1788500000000002
 30
0.0
  0
SPLINE
  5
6C
100
AcDbEntity
  8
Ebene 1
 62
     7
100
AcDbSpline
210
0.0
220
0.0
230
1.0
 70
     1
 71
     3
 72
    12
 73
     8
 74
     0
 42
0.0000000001
 43
0.0000000001
 40
0.0
 40
0.0
 40
0.0
 40
0.0
 40
0.5
 40
0.5
 40
0.5
 40
0.5
 40
1.0
 40
1.0
 40
1.0
 40
1.0
 10
-1.4245400000000001
 20
-3.8623600000000002
 30
0.0
 10
-1.4576200000000001
 20
-3.6407300000000005
 30
0.0
 10
-1.1400600000000001
 20
-3.5778700000000003
 30
0.0
 10
-1.12022
 20
-3.8094300000000003
 30
0.0
 10
-1.12022
 20
-3.8094300000000003
 30
0.0
 10
-1.2194600000000002
 20
-3.8127300000000002
 30
0.0
 10
-1.3484600000000002
 20
-3.9682000000000004
 30
0.0
 10
-1.4245400000000001
 20
-3.8623600000000002
 30
0.0
  0
SPLINE
  5
6D
100
AcDbEntity
  8
Ebene 1
 62
    21
100
AcDbSpline
210
0.0
220
0.0
230
1.0
 70
     1
 71
     3
 72
    44
 73
    40
 74
     0
 42
0.0000000001
 43
0.0000000001
 40
0.0
 40
0.0
 40
0.0
 40
0.0
 40
0.1
 40
0.1
 40
0.1
 40
0.1
 40
0.2
 40
0.2
 40
0.2
 40
0.2
 40
0.3
 40
0.3
 40
0.3
 40
0.3
 40
0.4
 40
0.4
 40
0.4
 40
0.4
 40
0.5
 40
0.5
 40
0.5
 40
0.5
 40
0.6
 40
0.6
 40
0.6
 40
0.6
 40
0.7
 40
0.7
 40
0.7
 40
0.7
 40
0.7999999999999999
 40
0.7999999999999999
 40
0.7999999999999999
 40
0.7999999999999999
 40
0.8999999999999999
 40
0.8999999999999999
 40
0.8999999999999999
 40
0.8999999999999999
 40
1.0
 40
1.0
 40
1.0
 40
1.0
 10
-2.0232700000000001
 20
-7.5804300000000007
 30
0.0
 10
-1.9968100000000002
 20
-7.4084200000000004
 30
0.0
 10
-1.9141100000000002
 20
-7.2595600000000005
 30
0.0
 10
-1.8380200000000002
 20
-7.110710000000001
 30
0.0
 10
-1.8380200000000002
 20
-7.110710000000001
 30
0.0
 10
-1.6494700000000002
 20
-5.9198600000000008
 30
0.0
 10
0.33194
 20
-5.7412400000000003
 30
0.0
 10
0.7288800000000001
 20
-6.8692400000000005
 30
0.0
 10
0.7288800000000001
 20
-6.8692400000000005
 30
0.0
 10
0.79503
 20
-7.4282600000000008
 30
0.0
 10
0.7090300000000001
 20
-7.6962100000000007
 30
0.0
 10
0.4443900000000001
 20
-7.712740000000001
 30
0.0
 10
0.4443900000000001
 20
-7.712740000000001
 30
0.0
 10
0.6329400000000001
 20
-7.2694800000000006
 30
0.0
 10
-0.00545
 20
-7.8946700000000005
 30
0.0
 10
0.3418600000000001
 20
-7.8417500000000002
 30
0.0
 10
0.3418600000000001
 20
-7.8417500000000002
 30
0.0
 10
0.3418600000000001
 20
-7.8417500000000002
 30
0.0
 10
0.24594
 20
-7.9740700000000002
 30
0.0
 10
0.24594
 20
-7.9740700000000002
 30
0.0
 10
0.24594
 20
-7.9740700000000002
 30
0.0
 10
0.24594
 20
-7.9740700000000002
 30
0.0
 10
0.6031700000000001
 20
-8.0137600000000013
 30
0.0
 10
0.6031700000000001
 20
-8.0137600000000013
 30
0.0
 10
0.6031700000000001
 20
-8.0137600000000013
 30
0.0
 10
0.51715
 20
-8.1196100000000015
 30
0.0
 10
0.37163
 20
-8.0303000000000004
 30
0.0
 10
0.29886
 20
-8.1361600000000003
 30
0.0
 10
0.29886
 20
-8.1361600000000003
 30
0.0
 10
-0.26679
 20
-7.9542200000000003
 30
0.0
 10
-0.9283500000000001
 20
-7.649890000000001
 30
0.0
 10
-1.5204700000000002
 20
-7.931070000000001
 30
0.0
 10
-1.5204700000000002
 20
-7.931070000000001
 30
0.0
 10
-1.6130900000000001
 20
-7.9542200000000003
 30
0.0
 10
-1.70903
 20
-7.9244400000000006
 30
0.0
 10
-1.8049400000000002
 20
-7.911220000000001
 30
0.0
 10
-1.8049400000000002
 20
-7.911220000000001
 30
0.0
 10
-1.9703400000000002
 20
-7.881450000000001
 30
0.0
 10
-2.0067400000000002
 20
-7.7094300000000002
 30
0.0
 10
-2.0232700000000001
 20
-7.5804300000000007
 30
0.0
  0
SPLINE
  5
6E
100
AcDbEntity
  8
Ebene 1
 62
    21
100
AcDbSpline
210
0.0
220
0.0
230
1.0
 70
     1
 71
     3
 72
    36
 73
    32
 74
     0
 42
0.0000000001
 43
0.0000000001
 40
0.0
 40
0.0
 40
0.0
 40
0.0
 40
0.125
 40
0.125
 40
0.125
 40
0.125
 40
0.25
 40
0.25
 40
0.25
 40
0.25
 40
0.375
 40
0.375
 40
0.375
 40
0.375
 40
0.5
 40
0.5
 40
0.5
 40
0.5
 40
0.625
 40
0.625
 40
0.625
 40
0.625
 40
0.75
 40
0.75
 40
0.75
 40
0.75
 40
0.875
 40
0.875
 40
0.875
 40
0.875
 40
1.0
 40
1.0
 40
1.0
 40
1.0
 10
-1.3153800000000002
 20
-7.2364100000000002
 30
0.0
 10
-1.1400600000000001
 20
-6.7534600000000005
 30
0.0
 10
-0.5082600000000001
 20
-6.6641500000000002
 30
0.0
 10
-0.14439
 20
-6.9750900000000007
 30
0.0
 10
-0.14439
 20
-6.9750900000000007
 30
0.0
 10
0.19302
 20
-7.2893300000000005
 30
0.0
 10
-0.01538
 20
-7.911220000000001
 30
0.0
 10
-0.4851
 20
-7.6697400000000009
 30
0.0
 10
-0.4851
 20
-7.6697400000000009
 30
0.0
 10
-0.4851
 20
-7.6697400000000009
 30
0.0
 10
-0.9316700000000001
 20
-7.7259800000000007
 30
0.0
 10
-0.9316700000000001
 20
-7.7259800000000007
 30
0.0
 10
-0.9316700000000001
 20
-7.7259800000000007
 30
0.0
 10
-1.07721
 20
-7.8186000000000009
 30
0.0
 10
-1.5403200000000001
 20
-7.7359000000000009
 30
0.0
 10
-1.2558400000000001
 20
-7.5473500000000007
 30
0.0
 10
-1.2558400000000001
 20
-7.5473500000000007
 30
0.0
 10
-0.8655100000000001
 20
-7.5440500000000004
 30
0.0
 10
-0.5049400000000001
 20
-7.5374200000000009
 30
0.0
 10
-0.23701
 20
-7.1867900000000002
 30
0.0
 10
-0.23701
 20
-7.1867900000000002
 30
0.0
 10
-0.24694
 20
-7.0247000000000002
 30
0.0
 10
-0.34948
 20
-6.895690000000001
 30
0.0
 10
-0.52149
 20
-6.8890800000000008
 30
0.0
 10
-0.52149
 20
-6.8890800000000008
 30
0.0
 10
-0.67696
 20
-6.8361500000000008
 30
0.0
 10
-0.82581
 20
-6.8758500000000007
 30
0.0
 10
-0.95152
 20
-6.9684700000000008
 30
0.0
 10
-0.95152
 20
-6.9684700000000008
 30
0.0
 10
-1.0904400000000001
 20
-7.0379300000000002
 30
0.0
 10
-1.1466800000000001
 20
-7.3985000000000003
 30
0.0
 10
-1.3153800000000002
 20
-7.2364100000000002
 30
0.0
  0
SPLINE
  5
6F
100
AcDbEntity
  8
Ebene 1
 62
    21
100
AcDbSpline
210
0.0
220
0.0
230
1.0
 70
     1
 71
     3
 72
    20
 73
    16
 74
     0
 42
0.0000000001
 43
0.0000000001
 40
0.0
 40
0.0
 40
0.0
 40
0.0
 40
0.25
 40
0.25
 40
0.25
 40
0.25
 40
0.5
 40
0.5
 40
0.5
 40
0.5
 40
0.75
 40
0.75
 40
0.75
 40
0.75
 40
1.0
 40
1.0
 40
1.0
 40
1.0
 10
-1.9471800000000001
 20
-7.6366600000000009
 30
0.0
 10
-1.8181800000000001
 20
-7.2198700000000002
 30
0.0
 10
-1.6230100000000001
 20
-6.829530000000001
 30
0.0
 10
-1.3517800000000002
 20
-6.4789100000000008
 30
0.0
 10
-1.3517800000000002
 20
-6.4789100000000008
 30
0.0
 10
-1.3517800000000002
 20
-6.4789100000000008
 30
0.0
 10
-1.3021400000000001
 20
-6.4888300000000001
 30
0.0
 10
-1.3021400000000001
 20
-6.4888300000000001
 30
0.0
 10
-1.3021400000000001
 20
-6.4888300000000001
 30
0.0
 10
-1.3021400000000001
 20
-6.4888300000000001
 30
0.0
 10
-1.6660200000000001
 20
-7.3257200000000005
 30
0.0
 10
-1.6660200000000001
 20
-7.3257200000000005
 30
0.0
 10
-1.6660200000000001
 20
-7.3257200000000005
 30
0.0
 10
-1.3418500000000002
 20
-7.5771200000000007
 30
0.0
 10
-1.7487100000000002
 20
-7.9079100000000002
 30
0.0
 10
-1.9471800000000001
 20
-7.6366600000000009
 30
0.0
  0
SPLINE
  5
70
100
AcDbEntity
  8
Ebene 1
 62
     0
100
AcDbSpline
210
0.0
220
0.0
230
1.0
 70
     1
 71
     3
 72
    16
 73
    12
 74
     0
 42
0.0000000001
 43
0.0000000001
 40
0.0
 40
0.0
 40
0.0
 40
0.0
 40
0.3333333333333333
 40
0.3333333333333333
 40
0.3333333333333333
 40
0.3333333333333333
 40
0.6666666666666666
 40
0.6666666666666666
 40
0.6666666666666666
 40
0.6666666666666666
 40
1.0
 40
1.0
 40
1.0
 40
1.0
 10
-1.02098
 20
-2.31426
 30
0.0
 10
-0.73319
 20
-1.9437800000000001
 30
0.0
 10
-0.28663
 20
-1.6791500000000001
 30
0.0
 10
0.05078
 20
-1.3219000000000001
 30
0.0
 10
0.05078
 20
-1.3219000000000001
 30
0.0
 10
0.10039
 20
-1.3020500000000002
 30
0.0
 10
0.1467
 20
-1.30867
 30
0.0
 10
0.18309
 20
-1.3450600000000001
 30
0.0
 10
0.18309
 20
-1.3450600000000001
 30
0.0
 10
-0.16424
 20
-1.6923800000000002
 30
0.0
 10
-0.6339600000000001
 20
-2.0132400000000001
 30
0.0
 10
-1.02098
 20
-2.31426
 30
0.0
  0
SPLINE
  5
71
100
AcDbEntity
  8
Ebene 1
 62
     7
100
AcDbSpline
210
0.0
220
0.0
230
1.0
 70
     1
 71
     3
 72
    16
 73
    12
 74
     0
 42
0.0000000001
 43
0.0000000001
 40
0.0
 40
0.0
 40
0.0
 40
0.0
 40
0.3333333333333333
 40
0.3333333333333333
 40
0.3333333333333333
 40
0.3333333333333333
 40
0.6666666666666666
 40
0.6666666666666666
 40
0.6666666666666666
 40
0.6666666666666666
 40
1.0
 40
1.0
 40
1.0
 40
1.0
 10
-1.30545
 20
-4.1567700000000007
 30
0.0
 10
-1.3021400000000001
 20
-4.0608300000000002
 30
0.0
 10
-1.21614
 20
-3.9913700000000003
 30
0.0
 10
-1.1334500000000001
 20
-3.9682000000000004
 30
0.0
 10
-1.1334500000000001
 20
-3.9682000000000004
 30
0.0
 10
-0.8059600000000001
 20
-3.9219000000000004
 30
0.0
 10
-1.2194600000000002
 20
-4.2427600000000005
 30
0.0
 10
-1.2062300000000001
 20
-4.3949199999999999
 30
0.0
 10
-1.2062300000000001
 20
-4.3949199999999999
 30
0.0
 10
-1.32199
 20
-4.3783799999999999
 30
0.0
 10
-1.24261
 20
-4.2163000000000004
 30
0.0
 10
-1.30545
 20
-4.1567700000000007
 30
0.0
  0
SPLINE
  5
72
100
AcDbEntity
  8
Ebene 1
 62
     7
100
AcDbSpline
210
0.0
220
0.0
230
1.0
 70
     1
 71
     3
 72
    20
 73
    16
 74
     0
 42
0.0000000001
 43
0.0000000001
 40
0.0
 40
0.0
 40
0.0
 40
0.0
 40
0.25
 40
0.25
 40
0.25
 40
0.25
 40
0.5
 40
0.5
 40
0.5
 40
0.5
 40
0.75
 40
0.75
 40
0.75
 40
0.75
 40
1.0
 40
1.0
 40
1.0
 40
1.0
 10
-1.1599000000000002
 20
-3.2768600000000001
 30
0.0
 10
-1.17645
 20
-3.1676900000000003
 30
0.0
 10
-1.05406
 20
-3.0353800000000004
 30
0.0
 10
-0.9779800000000001
 20
-3.1643900000000005
 30
0.0
 10
-0.9779800000000001
 20
-3.1643900000000005
 30
0.0
 10
-0.97467
 20
-3.2967100000000005
 30
0.0
 10
-0.96474
 20
-3.4984900000000003
 30
0.0
 10
-1.06399
 20
-3.5878000000000001
 30
0.0
 10
-1.06399
 20
-3.5878000000000001
 30
0.0
 10
-1.12022
 20
-3.5547300000000002
 30
0.0
 10
-1.12022
 20
-3.4852500000000002
 30
0.0
 10
-1.1235200000000001
 20
-3.4323300000000003
 30
0.0
 10
-1.1235200000000001
 20
-3.4323300000000003
 30
0.0
 10
-1.1235200000000001
 20
-3.4323300000000003
 30
0.0
 10
-1.1599000000000002
 20
-3.2768600000000001
 30
0.0
 10
-1.1599000000000002
 20
-3.2768600000000001
 30
0.0
  0
SPLINE
  5
73
100
AcDbEntity
  8
Ebene 1
 62
     0
100
AcDbSpline
210
0.0
220
0.0
230
1.0
 70
     1
 71
     3
 72
    36
 73
    32
 74
     0
 42
0.0000000001
 43
0.0000000001
 40
0.0
 40
0.0
 40
0.0
 40
0.0
 40
0.125
 40
0.125
 40
0.125
 40
0.125
 40
0.25
 40
0.25
 40
0.25
 40
0.25
 40
0.375
 40
0.375
 40
0.375
 40
0.375
 40
0.5
 40
0.5
 40
0.5
 40
0.5
 40
0.625
 40
0.625
 40
0.625
 40
0.625
 40
0.75
 40
0.75
 40
0.75
 40
0.75
 40
0.875
 40
0.875
 40
0.875
 40
0.875
 40
1.0
 40
1.0
 40
1.0
 40
1.0
 10
0.2790200000000001
 20
4.7249100000000004
 30
0.0
 10
0.31209
 20
5.2210800000000006
 30
0.0
 10
0.65939
 20
5.8132000000000001
 30
0.0
 10
1.22174
 20
5.7834300000000001
 30
0.0
 10
1.22174
 20
5.7834300000000001
 30
0.0
 10
0.8942500000000001
 20
5.3964000000000008
 30
0.0
 10
0.7421000000000001
 20
4.7943700000000007
 30
0.0
 10
0.9736600000000001
 20
4.2948900000000005
 30
0.0
 10
0.9736600000000001
 20
4.2948900000000005
 30
0.0
 10
0.87441
 20
4.2055700000000007
 30
0.0
 10
0.8049400000000001
 20
4.3411900000000001
 30
0.0
 10
0.7917200000000001
 20
4.4272100000000005
 30
0.0
 10
0.7917200000000001
 20
4.4272100000000005
 30
0.0
 10
0.7222500000000001
 20
4.6918300000000004
 30
0.0
 10
0.8545700000000001
 20
4.9399200000000008
 30
0.0
 10
0.7917200000000001
 20
5.1847000000000003
 30
0.0
 10
0.7917200000000001
 20
5.1847000000000003
 30
0.0
 10
0.81157
 20
5.3269400000000005
 30
0.0
 10
0.9736600000000001
 20
5.4261800000000004
 30
0.0
 10
0.9141100000000001
 20
5.5816500000000007
 30
0.0
 10
0.9141100000000001
 20
5.5816500000000007
 30
0.0
 10
0.50393
 20
5.3997200000000003
 30
0.0
 10
0.29224
 20
4.8671500000000005
 30
0.0
 10
0.4278400000000001
 20
4.4239000000000006
 30
0.0
 10
0.4278400000000001
 20
4.4239000000000006
 30
0.0
 10
0.4278400000000001
 20
4.4239000000000006
 30
0.0
 10
0.31539
 20
4.5496000000000008
 30
0.0
 10
0.31539
 20
4.5496000000000008
 30
0.0
 10
0.31539
 20
4.5496000000000008
 30
0.0
 10
0.31539
 20
4.5496000000000008
 30
0.0
 10
0.2790200000000001
 20
4.7249100000000004
 30
0.0
 10
0.2790200000000001
 20
4.7249100000000004
 30
0.0
  0
SPLINE
  5
74
100
AcDbEntity
  8
Ebene 1
 62
     0
100
AcDbSpline
210
0.0
220
0.0
230
1.0
 70
     1
 71
     3
 72
    40
 73
    36
 74
     0
 42
0.0000000001
 43
0.0000000001
 40
0.0
 40
0.0
 40
0.0
 40
0.0
 40
0.1111111111111111
 40
0.1111111111111111
 40
0.1111111111111111
 40
0.1111111111111111
 40
0.2222222222222222
 40
0.2222222222222222
 40
0.2222222222222222
 40
0.2222222222222222
 40
0.3333333333333333
 40
0.3333333333333333
 40
0.3333333333333333
 40
0.3333333333333333
 40
0.4444444444444444
 40
0.4444444444444444
 40
0.4444444444444444
 40
0.4444444444444444
 40
0.5555555555555556
 40
0.5555555555555556
 40
0.5555555555555556
 40
0.5555555555555556
 40
0.6666666666666667
 40
0.6666666666666667
 40
0.6666666666666667
 40
0.6666666666666667
 40
0.7777777777777779
 40
0.7777777777777779
 40
0.7777777777777779
 40
0.7777777777777779
 40
0.8888888888888891
 40
0.8888888888888891
 40
0.8888888888888891
 40
0.8888888888888891
 40
1.0
 40
1.0
 40
1.0
 40
1.0
 10
-2.1622000000000003
 20
-10.812230000000001
 30
0.0
 10
-1.9108000000000001
 20
-10.14404
 30
0.0
 10
-1.0871300000000002
 20
-9.8165600000000008
 30
0.0
 10
-0.52149
 20
-9.4923800000000007
 30
0.0
 10
-0.52149
 20
-9.4923800000000007
 30
0.0
 10
-0.64058
 20
-9.6842500000000005
 30
0.0
 10
-1.02759
 20
-9.7901000000000007
 30
0.0
 10
-0.95152
 20
-10.05142
 30
0.0
 10
-0.95152
 20
-10.05142
 30
0.0
 10
-0.8886700000000001
 20
-10.134110000000002
 30
0.0
 10
-0.7695700000000001
 20
-10.15727
 30
0.0
 10
-0.6868900000000001
 20
-10.10435
 30
0.0
 10
-0.6868900000000001
 20
-10.10435
 30
0.0
 10
-0.6868900000000001
 20
-10.10435
 30
0.0
 10
-0.14439
 20
-9.743780000000001
 30
0.0
 10
-0.14439
 20
-9.743780000000001
 30
0.0
 10
-0.14439
 20
-9.743780000000001
 30
0.0
 10
-0.14439
 20
-9.743780000000001
 30
0.0
 10
-0.6901900000000001
 20
-10.501290000000001
 30
0.0
 10
-0.6901900000000001
 20
-10.501290000000001
 30
0.0
 10
-0.6901900000000001
 20
-10.501290000000001
 30
0.0
 10
-0.8820400000000001
 20
-10.408670000000001
 30
0.0
 10
-1.0739100000000001
 20
-10.273060000000001
 30
0.0
 10
-1.3087700000000002
 20
-10.26313
 30
0.0
 10
-1.3087700000000002
 20
-10.26313
 30
0.0
 10
-1.4278400000000002
 20
-10.494680000000001
 30
0.0
 10
-1.8479500000000002
 20
-10.577380000000002
 30
0.0
 10
-1.7123200000000001
 20
-10.885010000000001
 30
0.0
 10
-1.7123200000000001
 20
-10.885010000000001
 30
0.0
 10
-1.7123200000000001
 20
-10.885010000000001
 30
0.0
 10
-1.8777200000000001
 20
-11.08018
 30
0.0
 10
-1.8777200000000001
 20
-11.08018
 30
0.0
 10
-1.8777200000000001
 20
-11.08018
 30
0.0
 10
-2.0166600000000003
 20
-11.073560000000001
 30
0.0
 10
-2.1192100000000003
 20
-10.92802
 30
0.0
 10
-2.1622000000000003
 20
-10.812230000000001
 30
0.0
  0
SPLINE
  5
75
100
AcDbEntity
  8
Ebene 1
 62
     7
100
AcDbSpline
210
0.0
220
0.0
230
1.0
 70
     1
 71
     3
 72
    24
 73
    20
 74
     0
 42
0.0000000001
 43
0.0000000001
 40
0.0
 40
0.0
 40
0.0
 40
0.0
 40
0.2
 40
0.2
 40
0.2
 40
0.2
 40
0.4
 40
0.4
 40
0.4
 40
0.4
 40
0.6000000000000001
 40
0.6000000000000001
 40
0.6000000000000001
 40
0.6000000000000001
 40
0.8
 40
0.8
 40
0.8
 40
0.8
 40
1.0
 40
1.0
 40
1.0
 40
1.0
 10
-1.10368
 20
-4.59009
 30
0.0
 10
-1.0970600000000001
 20
-4.4842400000000007
 30
0.0
 10
-1.06067
 20
-4.3949199999999999
 30
0.0
 10
-1.01437
 20
-4.3089200000000005
 30
0.0
 10
-1.01437
 20
-4.3089200000000005
 30
0.0
 10
-1.01437
 20
-4.3089200000000005
 30
0.0
 10
-0.8952700000000001
 20
-4.1666800000000004
 30
0.0
 10
-0.8952700000000001
 20
-4.1666800000000004
 30
0.0
 10
-0.8952700000000001
 20
-4.1666800000000004
 30
0.0
 10
-0.9019
 20
-4.4379300000000006
 30
0.0
 10
-0.92505
 20
-4.7356400000000001
 30
0.0
 10
-0.9713600000000001
 20
-5.0234300000000003
 30
0.0
 10
-0.9713600000000001
 20
-5.0234300000000003
 30
0.0
 10
-1.0672900000000001
 20
-5.0234300000000003
 30
0.0
 10
-1.0805200000000001
 20
-4.8911200000000008
 30
0.0
 10
-1.1003700000000001
 20
-4.8183400000000001
 30
0.0
 10
-1.1003700000000001
 20
-4.8183400000000001
 30
0.0
 10
-1.1003700000000001
 20
-4.8183400000000001
 30
0.0
 10
-1.10368
 20
-4.59009
 30
0.0
 10
-1.10368
 20
-4.59009
 30
0.0
  0
SPLINE
  5
76
100
AcDbEntity
  8
Ebene 1
 62
    31
100
AcDbSpline
210
0.0
220
0.0
230
1.0
 70
     1
 71
     3
 72
    16
 73
    12
 74
     0
 42
0.0000000001
 43
0.0000000001
 40
0.0
 40
0.0
 40
0.0
 40
0.0
 40
0.3333333333333333
 40
0.3333333333333333
 40
0.3333333333333333
 40
0.3333333333333333
 40
0.6666666666666666
 40
0.6666666666666666
 40
0.6666666666666666
 40
0.6666666666666666
 40
1.0
 40
1.0
 40
1.0
 40
1.0
 10
-0.03522
 20
1.5857300000000001
 30
0.0
 10
0.02763
 20
1.7015000000000002
 30
0.0
 10
0.13347
 20
1.8305100000000001
 30
0.0
 10
0.22278
 20
1.9231300000000002
 30
0.0
 10
0.22278
 20
1.9231300000000002
 30
0.0
 10
0.22941
 20
1.7742700000000002
 30
0.0
 10
0.25256
 20
1.6221100000000002
 30
0.0
 10
0.37163
 20
1.5394200000000002
 30
0.0
 10
0.37163
 20
1.5394200000000002
 30
0.0
 10
0.37163
 20
1.5394200000000002
 30
0.0
 10
-0.03522
 20
1.5857300000000001
 30
0.0
 10
-0.03522
 20
1.5857300000000001
 30
0.0
  0
SPLINE
  5
77
100
AcDbEntity
  8
Ebene 1
 62
     7
100
AcDbSpline
210
0.0
220
0.0
230
1.0
 70
     1
 71
     3
 72
    12
 73
     8
 74
     0
 42
0.0000000001
 43
0.0000000001
 40
0.0
 40
0.0
 40
0.0
 40
0.0
 40
0.5
 40
0.5
 40
0.5
 40
0.5
 40
1.0
 40
1.0
 40
1.0
 40
1.0
 10
-0.7265800000000001
 20
-2.8236800000000004
 30
0.0
 10
-0.56118
 20
-2.6649000000000003
 30
0.0
 10
-0.3197100000000001
 20
-2.7575200000000004
 30
0.0
 10
-0.14769
 20
-2.8302900000000002
 30
0.0
 10
-0.14769
 20
-2.8302900000000002
 30
0.0
 10
-0.14769
 20
-2.8302900000000002
 30
0.0
 10
-0.7265800000000001
 20
-2.8236800000000004
 30
0.0
 10
-0.7265800000000001
 20
-2.8236800000000004
 30
0.0
  0
SPLINE
  5
78
100
AcDbEntity
  8
Ebene 1
 62
    21
100
AcDbSpline
210
0.0
220
0.0
230
1.0
 70
     1
 71
     3
 72
    84
 73
    80
 74
     0
 42
0.0000000001
 43
0.0000000001
 40
0.0
 40
0.0
 40
0.0
 40
0.0
 40
0.05
 40
0.05
 40
0.05
 40
0.05
 40
0.1
 40
0.1
 40
0.1
 40
0.1
 40
0.15
 40
0.15
 40
0.15
 40
0.15
 40
0.2
 40
0.2
 40
0.2
 40
0.2
 40
0.25
 40
0.25
 40
0.25
 40
0.25
 40
0.3
 40
0.3
 40
0.3
 40
0.3
 40
0.35
 40
0.35
 40
0.35
 40
0.35
 40
0.4
 40
0.4
 40
0.4
 40
0.4
 40
0.45
 40
0.45
 40
0.45
 40
0.45
 40
0.4999999999999999
 40
0.4999999999999999
 40
0.4999999999999999
 40
0.4999999999999999
 40
0.5499999999999999
 40
0.5499999999999999
 40
0.5499999999999999
 40
0.5499999999999999
 40
0.6
 40
0.6
 40
0.6
 40
0.6
 40
0.65
 40
0.65
 40
0.65
 40
0.65
 40
0.7000000000000001
 40
0.7000000000000001
 40
0.7000000000000001
 40
0.7000000000000001
 40
0.7500000000000001
 40
0.7500000000000001
 40
0.7500000000000001
 40
0.7500000000000001
 40
0.8000000000000002
 40
0.8000000000000002
 40
0.8000000000000002
 40
0.8000000000000002
 40
0.8500000000000002
 40
0.8500000000000002
 40
0.8500000000000002
 40
0.8500000000000002
 40
0.9000000000000002
 40
0.9000000000000002
 40
0.9000000000000002
 40
0.9000000000000002
 40
0.9500000000000003
 40
0.9500000000000003
 40
0.9500000000000003
 40
0.9500000000000003
 40
1.0
 40
1.0
 40
1.0
 40
1.0
 10
0.30547
 20
3.2496
 30
0.0
 10
0.30547
 20
3.2496
 30
0.0
 10
0.5700900000000001
 20
3.7722400000000005
 30
0.0
 10
0.5700900000000001
 20
3.7722400000000005
 30
0.0
 10
0.5700900000000001
 20
3.7722400000000005
 30
0.0
 10
0.6263200000000001
 20
3.9111800000000003
 30
0.0
 10
0.76195
 20
4.0137200000000002
 30
0.0
 10
0.9008800000000001
 20
3.9905600000000003
 30
0.0
 10
0.9008800000000001
 20
3.9905600000000003
 30
0.0
 10
0.7718600000000001
 20
3.6531500000000001
 30
0.0
 10
0.3947600000000001
 20
3.4447700000000001
 30
0.0
 10
0.44109
 20
3.0808900000000001
 30
0.0
 10
0.44109
 20
3.0808900000000001
 30
0.0
 10
0.44109
 20
3.0808900000000001
 30
0.0
 10
0.61641
 20
3.2396700000000003
 30
0.0
 10
0.61641
 20
3.2396700000000003
 30
0.0
 10
0.61641
 20
3.2396700000000003
 30
0.0
 10
1.0001100000000001
 20
3.8053300000000001
 30
0.0
 10
1.6120700000000001
 20
4.3544400000000003
 30
0.0
 10
2.2935100000000004
 20
4.2816600000000005
 30
0.0
 10
2.2935100000000004
 20
4.2816600000000005
 30
0.0
 10
2.1777200000000003
 20
4.1956500000000005
 30
0.0
 10
2.0321700000000003
 20
4.1162600000000005
 30
0.0
 10
1.9362600000000001
 20
4.0071000000000003
 30
0.0
 10
1.9362600000000001
 20
4.0071000000000003
 30
0.0
 10
1.7741600000000002
 20
3.7193100000000001
 30
0.0
 10
2.3563500000000004
 20
4.1890400000000003
 30
0.0
 10
2.5382900000000004
 20
4.2419600000000006
 30
0.0
 10
2.5382900000000004
 20
4.2419600000000006
 30
0.0
 10
2.4489700000000001
 20
4.0898099999999999
 30
0.0
 10
1.8800100000000002
 20
3.6366200000000002
 30
0.0
 10
2.1479600000000003
 20
3.7193100000000001
 30
0.0
 10
2.1479600000000003
 20
3.7193100000000001
 30
0.0
 10
2.1479600000000003
 20
3.7193100000000001
 30
0.0
 10
2.6408300000000002
 20
3.9938700000000003
 30
0.0
 10
2.6408300000000002
 20
3.9938700000000003
 30
0.0
 10
2.6408300000000002
 20
3.9938700000000003
 30
0.0
 10
2.6408300000000002
 20
3.9938700000000003
 30
0.0
 10
1.1721300000000001
 20
2.7269500000000004
 30
0.0
 10
1.1721300000000001
 20
2.7269500000000004
 30
0.0
 10
1.1721300000000001
 20
2.7269500000000004
 30
0.0
 10
1.01335
 20
2.7567100000000004
 30
0.0
 10
2.07518
 20
3.6895500000000001
 30
0.0
 10
1.5029100000000002
 20
3.2595200000000002
 30
0.0
 10
1.5029100000000002
 20
3.2595200000000002
 30
0.0
 10
1.5029100000000002
 20
3.2595200000000002
 30
0.0
 10
1.22174
 20
3.0147400000000002
 30
0.0
 10
1.22174
 20
3.0147400000000002
 30
0.0
 10
1.22174
 20
3.0147400000000002
 30
0.0
 10
1.0695700000000001
 20
2.8493400000000002
 30
0.0
 10
0.9108000000000001
 20
2.6872500000000001
 30
0.0
 10
0.7851
 20
2.4987000000000004
 30
0.0
 10
0.7851
 20
2.4987000000000004
 30
0.0
 10
0.7851
 20
2.4987000000000004
 30
0.0
 10
0.52047
 20
2.1447600000000002
 30
0.0
 10
0.52047
 20
2.1447600000000002
 30
0.0
 10
0.52047
 20
2.1447600000000002
 30
0.0
 10
0.55025
 20
2.8096400000000004
 30
0.0
 10
1.2052100000000001
 20
3.3719900000000003
 30
0.0
 10
1.6153900000000001
 20
3.8714800000000005
 30
0.0
 10
1.6153900000000001
 20
3.8714800000000005
 30
0.0
 10
1.5029100000000002
 20
3.8880200000000005
 30
0.0
 10
1.4400700000000002
 20
3.7524000000000002
 30
0.0
 10
1.3540700000000001
 20
3.6829300000000003
 30
0.0
 10
1.3540700000000001
 20
3.6829300000000003
 30
0.0
 10
1.3540700000000001
 20
3.6829300000000003
 30
0.0
 10
1.0398100000000001
 20
3.3157500000000004
 30
0.0
 10
1.0398100000000001
 20
3.3157500000000004
 30
0.0
 10
1.0398100000000001
 20
3.3157500000000004
 30
0.0
 10
0.9108000000000001
 20
3.0875100000000004
 30
0.0
 10
0.71233
 20
2.9518800000000001
 30
0.0
 10
0.54032
 20
2.7699600000000002
 30
0.0
 10
0.54032
 20
2.7699600000000002
 30
0.0
 10
0.43116
 20
2.57809
 30
0.0
 10
0.29886
 20
2.2870000000000004
 30
0.0
 10
0.33524
 20
2.6806500000000004
 30
0.0
 10
0.33524
 20
2.6806500000000004
 30
0.0
 10
0.33194
 20
2.8691900000000001
 30
0.0
 10
0.35838
 20
3.0742800000000003
 30
0.0
 10
0.30547
 20
3.2496
 30
0.0
  0
SPLINE
  5
79
100
AcDbEntity
  8
Ebene 1
 62
     7
100
AcDbSpline
210
0.0
220
0.0
230
1.0
 70
     1
 71
     3
 72
    28
 73
    24
 74
     0
 42
0.0000000001
 43
0.0000000001
 40
0.0
 40
0.0
 40
0.0
 40
0.0
 40
0.1666666666666667
 40
0.1666666666666667
 40
0.1666666666666667
 40
0.1666666666666667
 40
0.3333333333333333
 40
0.3333333333333333
 40
0.3333333333333333
 40
0.3333333333333333
 40
0.5
 40
0.5
 40
0.5
 40
0.5
 40
0.6666666666666666
 40
0.6666666666666666
 40
0.6666666666666666
 40
0.6666666666666666
 40
0.8333333333333333
 40
0.8333333333333333
 40
0.8333333333333333
 40
0.8333333333333333
 40
1.0
 40
1.0
 40
1.0
 40
1.0
 10
-0.7596500000000001
 20
-3.2603200000000001
 30
0.0
 10
-0.7596500000000001
 20
-3.2603200000000001
 30
0.0
 10
-0.71665
 20
-3.0420000000000003
 30
0.0
 10
-0.71665
 20
-3.0420000000000003
 30
0.0
 10
-0.71665
 20
-3.0420000000000003
 30
0.0
 10
-0.6240300000000001
 20
-3.0353800000000004
 30
0.0
 10
-0.5247900000000001
 20
-3.0089200000000003
 30
0.0
 10
-0.4321700000000001
 20
-3.0254600000000003
 30
0.0
 10
-0.4321700000000001
 20
-3.0254600000000003
 30
0.0
 10
-0.34948
 20
-3.1511600000000004
 30
0.0
 10
-0.3759400000000001
 20
-3.3066300000000002
 30
0.0
 10
-0.38918
 20
-3.4488700000000003
 30
0.0
 10
-0.38918
 20
-3.4488700000000003
 30
0.0
 10
-0.27671
 20
-3.7035800000000001
 30
0.0
 10
-0.57442
 20
-3.9814500000000002
 30
0.0
 10
-0.7927300000000001
 20
-3.7531900000000005
 30
0.0
 10
-0.7927300000000001
 20
-3.7531900000000005
 30
0.0
 10
-0.8158900000000001
 20
-3.7068900000000005
 30
0.0
 10
-0.79605
 20
-3.6771200000000004
 30
0.0
 10
-0.77951
 20
-3.6341100000000002
 30
0.0
 10
-0.77951
 20
-3.6341100000000002
 30
0.0
 10
-0.77951
 20
-3.6341100000000002
 30
0.0
 10
-0.7596500000000001
 20
-3.2603200000000001
 30
0.0
 10
-0.7596500000000001
 20
-3.2603200000000001
 30
0.0
  0
SPLINE
  5
7A
100
AcDbEntity
  8
Ebene 1
 62
     0
100
AcDbSpline
210
0.0
220
0.0
230
1.0
 70
     1
 71
     3
 72
    12
 73
     8
 74
     0
 42
0.0000000001
 43
0.0000000001
 40
0.0
 40
0.0
 40
0.0
 40
0.0
 40
0.5
 40
0.5
 40
0.5
 40
0.5
 40
1.0
 40
1.0
 40
1.0
 40
1.0
 10
0.6362500000000001
 20
4.3676700000000004
 30
0.0
 10
0.6759500000000001
 20
4.4669000000000008
 30
0.0
 10
0.77849
 20
4.2849700000000004
 30
0.0
 10
0.8181900000000001
 20
4.2552000000000003
 30
0.0
 10
0.8181900000000001
 20
4.2552000000000003
 30
0.0
 10
0.73548
 20
4.1857200000000008
 30
0.0
 10
0.66271
 20
4.3015100000000004
 30
0.0
 10
0.6362500000000001
 20
4.3676700000000004
 30
0.0
  0
SPLINE
  5
7B
100
AcDbEntity
  8
Ebene 1
 62
     7
100
AcDbSpline
210
0.0
220
0.0
230
1.0
 70
     1
 71
     3
 72
    20
 73
    16
 74
     0
 42
0.0000000001
 43
0.0000000001
 40
0.0
 40
0.0
 40
0.0
 40
0.0
 40
0.25
 40
0.25
 40
0.25
 40
0.25
 40
0.5
 40
0.5
 40
0.5
 40
0.5
 40
0.75
 40
0.75
 40
0.75
 40
0.75
 40
1.0
 40
1.0
 40
1.0
 40
1.0
 10
-0.75304
 20
-4.6264800000000008
 30
0.0
 10
-0.73319
 20
-4.5437799999999999
 30
0.0
 10
-0.74643
 20
-4.4511600000000007
 30
0.0
 10
-0.6901900000000001
 20
-4.3883100000000006
 30
0.0
 10
-0.6901900000000001
 20
-4.3883100000000006
 30
0.0
 10
-0.5975700000000001
 20
-4.3089200000000005
 30
0.0
 10
-0.4255600000000001
 20
-4.3056100000000006
 30
0.0
 10
-0.34617
 20
-4.4048500000000006
 30
0.0
 10
-0.34617
 20
-4.4048500000000006
 30
0.0
 10
-0.30978
 20
-4.6297800000000002
 30
0.0
 10
-0.3759400000000001
 20
-4.8878000000000004
 30
0.0
 10
-0.57442
 20
-5.0267400000000002
 30
0.0
 10
-0.57442
 20
-5.0267400000000002
 30
0.0
 10
-0.7762000000000001
 20
-5.0730400000000007
 30
0.0
 10
-0.7431200000000001
 20
-4.7422500000000003
 30
0.0
 10
-0.75304
 20
-4.6264800000000008
 30
0.0
  0
SPLINE
  5
7C
100
AcDbEntity
  8
Ebene 1
 62
     0
100
AcDbSpline
210
0.0
220
0.0
230
1.0
 70
     1
 71
     3
 72
    20
 73
    16
 74
     0
 42
0.0000000001
 43
0.0000000001
 40
0.0
 40
0.0
 40
0.0
 40
0.0
 40
0.25
 40
0.25
 40
0.25
 40
0.25
 40
0.5
 40
0.5
 40
0.5
 40
0.5
 40
0.75
 40
0.75
 40
0.75
 40
0.75
 40
1.0
 40
1.0
 40
1.0
 40
1.0
 10
0.9273300000000001
 20
4.7414400000000008
 30
0.0
 10
0.9273300000000001
 20
4.7414400000000008
 30
0.0
 10
0.9405800000000001
 20
4.8009900000000005
 30
0.0
 10
0.9405800000000001
 20
4.8009900000000005
 30
0.0
 10
0.9405800000000001
 20
4.8009900000000005
 30
0.0
 10
1.0398100000000001
 20
4.6786000000000003
 30
0.0
 10
1.0232700000000001
 20
4.49336
 30
0.0
 10
1.04312
 20
4.3445100000000005
 30
0.0
 10
1.04312
 20
4.3445100000000005
 30
0.0
 10
1.04312
 20
4.3445100000000005
 30
0.0
 10
0.9637300000000001
 20
4.4834400000000008
 30
0.0
 10
0.9637300000000001
 20
4.4834400000000008
 30
0.0
 10
0.9637300000000001
 20
4.4834400000000008
 30
0.0
 10
0.9637300000000001
 20
4.4834400000000008
 30
0.0
 10
0.9273300000000001
 20
4.7414400000000008
 30
0.0
 10
0.9273300000000001
 20
4.7414400000000008
 30
0.0
  0
SPLINE
  5
7D
100
AcDbEntity
  8
Ebene 1
 62
     0
100
AcDbSpline
210
0.0
220
0.0
230
1.0
 70
     1
 71
     3
 72
    16
 73
    12
 74
     0
 42
0.0000000001
 43
0.0000000001
 40
0.0
 40
0.0
 40
0.0
 40
0.0
 40
0.3333333333333333
 40
0.3333333333333333
 40
0.3333333333333333
 40
0.3333333333333333
 40
0.6666666666666666
 40
0.6666666666666666
 40
0.6666666666666666
 40
0.6666666666666666
 40
1.0
 40
1.0
 40
1.0
 40
1.0
 10
-1.4907000000000001
 20
-10.68984
 30
0.0
 10
-1.4840900000000001
 20
-10.607150000000001
 30
0.0
 10
-1.3815400000000002
 20
-10.570770000000001
 30
0.0
 10
-1.32199
 20
-10.534370000000001
 30
0.0
 10
-1.32199
 20
-10.534370000000001
 30
0.0
 10
-1.32199
 20
-10.534370000000001
 30
0.0
 10
-1.3782300000000001
 20
-10.74277
 30
0.0
 10
-1.3782300000000001
 20
-10.74277
 30
0.0
 10
-1.3782300000000001
 20
-10.74277
 30
0.0
 10
-1.4245400000000001
 20
-10.759310000000001
 30
0.0
 10
-1.4543200000000001
 20
-10.70969
 30
0.0
 10
-1.4907000000000001
 20
-10.68984
 30
0.0
  0
SPLINE
  5
7E
100
AcDbEntity
  8
Ebene 1
 62
     7
100
AcDbSpline
210
0.0
220
0.0
230
1.0
 70
     1
 71
     3
 72
    24
 73
    20
 74
     0
 42
0.0000000001
 43
0.0000000001
 40
0.0
 40
0.0
 40
0.0
 40
0.0
 40
0.2
 40
0.2
 40
0.2
 40
0.2
 40
0.4
 40
0.4
 40
0.4
 40
0.4
 40
0.6000000000000001
 40
0.6000000000000001
 40
0.6000000000000001
 40
0.6000000000000001
 40
0.8
 40
0.8
 40
0.8
 40
0.8
 40
1.0
 40
1.0
 40
1.0
 40
1.0
 10
-0.26016
 20
-3.3000100000000003
 30
0.0
 10
-0.26679
 20
-3.1511600000000004
 30
0.0
 10
-0.1907
 20
-2.9990000000000001
 30
0.0
 10
-0.03193
 20
-3.0089200000000003
 30
0.0
 10
-0.03193
 20
-3.0089200000000003
 30
0.0
 10
0.06401
 20
-3.2272500000000002
 30
0.0
 10
0.01439
 20
-3.4753300000000005
 30
0.0
 10
-0.05507
 20
-3.6936600000000004
 30
0.0
 10
-0.05507
 20
-3.6936600000000004
 30
0.0
 10
-0.05507
 20
-3.6936600000000004
 30
0.0
 10
0.01108
 20
-3.8094300000000003
 30
0.0
 10
0.01108
 20
-3.8094300000000003
 30
0.0
 10
0.01108
 20
-3.8094300000000003
 30
0.0
 10
-0.12124
 20
-3.9450500000000002
 30
0.0
 10
-0.26679
 20
-3.7928900000000003
 30
0.0
 10
-0.25355
 20
-3.6374200000000001
 30
0.0
 10
-0.25355
 20
-3.6374200000000001
 30
0.0
 10
-0.22378
 20
-3.5249500000000005
 30
0.0
 10
-0.2304
 20
-3.3992500000000003
 30
0.0
 10
-0.26016
 20
-3.3000100000000003
 30
0.0
  0
SPLINE
  5
7F
100
AcDbEntity
  8
Ebene 1
 62
     7
100
AcDbSpline
210
0.0
220
0.0
230
1.0
 70
     1
 71
     3
 72
    16
 73
    12
 74
     0
 42
0.0000000001
 43
0.0000000001
 40
0.0
 40
0.0
 40
0.0
 40
0.0
 40
0.3333333333333333
 40
0.3333333333333333
 40
0.3333333333333333
 40
0.3333333333333333
 40
0.6666666666666666
 40
0.6666666666666666
 40
0.6666666666666666
 40
0.6666666666666666
 40
1.0
 40
1.0
 40
1.0
 40
1.0
 10
-0.4024
 20
-4.2659200000000004
 30
0.0
 10
-0.3627
 20
-4.1733000000000002
 30
0.0
 10
-0.32632
 20
-4.0575200000000002
 30
0.0
 10
-0.25686
 20
-3.9979800000000005
 30
0.0
 10
-0.25686
 20
-3.9979800000000005
 30
0.0
 10
-0.25686
 20
-3.9979800000000005
 30
0.0
 10
-0.36602
 20
-4.2659200000000004
 30
0.0
 10
-0.36602
 20
-4.2659200000000004
 30
0.0
 10
-0.36602
 20
-4.2659200000000004
 30
0.0
 10
-0.36602
 20
-4.2659200000000004
 30
0.0
 10
-0.4024
 20
-4.2659200000000004
 30
0.0
 10
-0.4024
 20
-4.2659200000000004
 30
0.0
  0
SPLINE
  5
80
100
AcDbEntity
  8
Ebene 1
 62
     0
100
AcDbSpline
210
0.0
220
0.0
230
1.0
 70
     1
 71
     3
 72
    12
 73
     8
 74
     0
 42
0.0000000001
 43
0.0000000001
 40
0.0
 40
0.0
 40
0.0
 40
0.0
 40
0.5
 40
0.5
 40
0.5
 40
0.5
 40
1.0
 40
1.0
 40
1.0
 40
1.0
 10
-1.2955400000000001
 20
-10.534370000000001
 30
0.0
 10
-1.2062300000000001
 20
-10.28959
 30
0.0
 10
-1.1235200000000001
 20
-10.80231
 30
0.0
 10
-1.2293900000000002
 20
-10.590610000000002
 30
0.0
 10
-1.2293900000000002
 20
-10.590610000000002
 30
0.0
 10
-1.24922
 20
-10.570770000000001
 30
0.0
 10
-1.2591500000000002
 20
-10.53106
 30
0.0
 10
-1.2955400000000001
 20
-10.534370000000001
 30
0.0
  0
SPLINE
  5
81
100
AcDbEntity
  8
Ebene 1
 62
   254
100
AcDbSpline
210
0.0
220
0.0
230
1.0
 70
     1
 71
     3
 72
    76
 73
    72
 74
     0
 42
0.0000000001
 43
0.0000000001
 40
0.0
 40
0.0
 40
0.0
 40
0.0
 40
0.0555555555555556
 40
0.0555555555555556
 40
0.0555555555555556
 40
0.0555555555555556
 40
0.1111111111111111
 40
0.1111111111111111
 40
0.1111111111111111
 40
0.1111111111111111
 40
0.1666666666666667
 40
0.1666666666666667
 40
0.1666666666666667
 40
0.1666666666666667
 40
0.2222222222222222
 40
0.2222222222222222
 40
0.2222222222222222
 40
0.2222222222222222
 40
0.2777777777777778
 40
0.2777777777777778
 40
0.2777777777777778
 40
0.2777777777777778
 40
0.3333333333333334
 40
0.3333333333333334
 40
0.3333333333333334
 40
0.3333333333333334
 40
0.388888888888889
 40
0.388888888888889
 40
0.388888888888889
 40
0.388888888888889
 40
0.4444444444444445
 40
0.4444444444444445
 40
0.4444444444444445
 40
0.4444444444444445
 40
0.5000000000000001
 40
0.5000000000000001
 40
0.5000000000000001
 40
0.5000000000000001
 40
0.5555555555555557
 40
0.5555555555555557
 40
0.5555555555555557
 40
0.5555555555555557
 40
0.6111111111111113
 40
0.6111111111111113
 40
0.6111111111111113
 40
0.6111111111111113
 40
0.6666666666666669
 40
0.6666666666666669
 40
0.6666666666666669
 40
0.6666666666666669
 40
0.7222222222222224
 40
0.7222222222222224
 40
0.7222222222222224
 40
0.7222222222222224
 40
0.777777777777778
 40
0.777777777777778
 40
0.777777777777778
 40
0.777777777777778
 40
0.8333333333333336
 40
0.8333333333333336
 40
0.8333333333333336
 40
0.8333333333333336
 40
0.8888888888888892
 40
0.8888888888888892
 40
0.8888888888888892
 40
0.8888888888888892
 40
0.9444444444444448
 40
0.9444444444444448
 40
0.9444444444444448
 40
0.9444444444444448
 40
1.0
 40
1.0
 40
1.0
 40
1.0
 10
0.7388
 20
1.7081200000000001
 30
0.0
 10
1.0265900000000001
 20
2.8559500000000004
 30
0.0
 10
2.2935100000000004
 20
3.3389100000000003
 30
0.0
 10
2.9815400000000003
 20
4.2088800000000006
 30
0.0
 10
2.9815400000000003
 20
4.2088800000000006
 30
0.0
 10
3.2428700000000004
 20
4.3345900000000004
 30
0.0
 10
3.5174200000000004
 20
4.4371300000000007
 30
0.0
 10
3.7820500000000004
 20
4.5396700000000001
 30
0.0
 10
3.7820500000000004
 20
4.5396700000000001
 30
0.0
 10
3.7820500000000004
 20
4.5396700000000001
 30
0.0
 10
3.6232800000000003
 20
4.0831800000000005
 30
0.0
 10
3.6232800000000003
 20
4.0831800000000005
 30
0.0
 10
3.6232800000000003
 20
4.0831800000000005
 30
0.0
 10
4.1161500000000002
 20
4.1890400000000003
 30
0.0
 10
3.8746700000000005
 20
3.7689400000000002
 30
0.0
 10
3.7159000000000004
 20
3.5836900000000003
 30
0.0
 10
3.7159000000000004
 20
3.5836900000000003
 30
0.0
 10
3.7092700000000005
 20
3.3984400000000003
 30
0.0
 10
3.5273500000000002
 20
3.2396700000000003
 30
0.0
 10
3.3718700000000004
 20
3.1404400000000003
 30
0.0
 10
3.3718700000000004
 20
3.1404400000000003
 30
0.0
 10
3.3454100000000002
 20
3.3719900000000003
 30
0.0
 10
3.6728900000000002
 20
3.3620600000000005
 30
0.0
 10
3.6497400000000004
 20
3.6167700000000003
 30
0.0
 10
3.6497400000000004
 20
3.6167700000000003
 30
0.0
 10
3.4611800000000001
 20
3.6895500000000001
 30
0.0
 10
3.3586500000000004
 20
3.4976900000000004
 30
0.0
 10
3.2395600000000004
 20
3.7292400000000003
 30
0.0
 10
3.2395600000000004
 20
3.7292400000000003
 30
0.0
 10
3.2296300000000002
 20
3.3918400000000002
 30
0.0
 10
2.8789900000000004
 20
3.4083700000000001
 30
0.0
 10
2.65076
 20
3.3422200000000002
 30
0.0
 10
2.65076
 20
3.3422200000000002
 30
0.0
 10
2.27366
 20
3.4679200000000003
 30
0.0
 10
2.2108000000000003
 20
2.8691900000000001
 30
0.0
 10
1.8667800000000001
 20
2.6740200000000001
 30
0.0
 10
1.8667800000000001
 20
2.6740200000000001
 30
0.0
 10
1.7047000000000001
 20
2.4920900000000001
 30
0.0
 10
1.5062300000000002
 20
2.3366200000000004
 30
0.0
 10
1.2746700000000002
 20
2.2076100000000003
 30
0.0
 10
1.2746700000000002
 20
2.2076100000000003
 30
0.0
 10
1.1291300000000002
 20
2.10507
 30
0.0
 10
0.9174200000000001
 20
2.0356100000000001
 30
0.0
 10
0.8876500000000001
 20
1.8305100000000001
 30
0.0
 10
0.8876500000000001
 20
1.8305100000000001
 30
0.0
 10
1.9362600000000001
 20
1.8040500000000002
 30
0.0
 10
2.1380400000000002
 20
3.0081200000000003
 30
0.0
 10
3.0510100000000002
 20
3.1702100000000004
 30
0.0
 10
3.0510100000000002
 20
3.1702100000000004
 30
0.0
 10
3.1105500000000004
 20
2.9948900000000003
 30
0.0
 10
2.7830700000000004
 20
2.6078700000000001
 30
0.0
 10
2.7268400000000002
 20
2.7401800000000001
 30
0.0
 10
2.7268400000000002
 20
2.7401800000000001
 30
0.0
 10
2.7268400000000002
 20
2.7401800000000001
 30
0.0
 10
2.8095300000000001
 20
2.8559500000000004
 30
0.0
 10
2.8095300000000001
 20
2.8559500000000004
 30
0.0
 10
2.8095300000000001
 20
2.8559500000000004
 30
0.0
 10
2.6937600000000002
 20
3.1668900000000004
 30
0.0
 10
2.6077500000000002
 20
2.7203300000000001
 30
0.0
 10
2.5217400000000003
 20
2.6078700000000001
 30
0.0
 10
2.5217400000000003
 20
2.6078700000000001
 30
0.0
 10
2.45228
 20
2.43255
 30
0.0
 10
2.0784899999999999
 20
2.0951400000000002
 30
0.0
 10
2.2438900000000004
 20
2.4457900000000001
 30
0.0
 10
2.2438900000000004
 20
2.4457900000000001
 30
0.0
 10
1.7576200000000002
 20
2.1910600000000002
 30
0.0
 10
1.4632200000000002
 20
1.56918
 30
0.0
 10
0.8909600000000001
 20
1.4931100000000002
 30
0.0
 10
0.8909600000000001
 20
1.4931100000000002
 30
0.0
 10
0.8909600000000001
 20
1.4931100000000002
 30
0.0
 10
0.7388
 20
1.7081200000000001
 30
0.0
 10
0.7388
 20
1.7081200000000001
 30
0.0
  0
SPLINE
  5
82
100
AcDbEntity
  8
Ebene 1
 62
    31
100
AcDbSpline
210
0.0
220
0.0
230
1.0
 70
     1
 71
     3
 72
    20
 73
    16
 74
     0
 42
0.0000000001
 43
0.0000000001
 40
0.0
 40
0.0
 40
0.0
 40
0.0
 40
0.25
 40
0.25
 40
0.25
 40
0.25
 40
0.5
 40
0.5
 40
0.5
 40
0.5
 40
0.75
 40
0.75
 40
0.75
 40
0.75
 40
1.0
 40
1.0
 40
1.0
 40
1.0
 10
0.12025
 20
-2.1488700000000001
 30
0.0
 10
0.46424
 20
-1.6163000000000001
 30
0.0
 10
1.1159000000000001
 20
-1.32521
 30
0.0
 10
1.50953
 20
-0.8521800000000001
 30
0.0
 10
1.50953
 20
-0.8521800000000001
 30
0.0
 10
2.2207300000000001
 20
-0.9613400000000001
 30
0.0
 10
2.9021600000000003
 20
-0.8587900000000001
 30
0.0
 10
3.6034300000000004
 20
-0.95142
 30
0.0
 10
3.6034300000000004
 20
-0.95142
 30
0.0
 10
2.4026700000000001
 20
-1.0076500000000002
 30
0.0
 10
1.4797500000000001
 20
-2.0330900000000001
 30
0.0
 10
0.32863
 20
-2.2679500000000004
 30
0.0
 10
0.32863
 20
-2.2679500000000004
 30
0.0
 10
0.24264
 20
-2.2646500000000001
 30
0.0
 10
0.16987
 20
-2.2150400000000001
 30
0.0
 10
0.12025
 20
-2.1488700000000001
 30
0.0
  0
SPLINE
  5
83
100
AcDbEntity
  8
Ebene 1
 62
     0
100
AcDbSpline
210
0.0
220
0.0
230
1.0
 70
     1
 71
     3
 72
    12
 73
     8
 74
     0
 42
0.0000000001
 43
0.0000000001
 40
0.0
 40
0.0
 40
0.0
 40
0.0
 40
0.5
 40
0.5
 40
0.5
 40
0.5
 40
1.0
 40
1.0
 40
1.0
 40
1.0
 10
0.31209
 20
-1.2358900000000002
 30
0.0
 10
0.37163
 20
-1.1531900000000002
 30
0.0
 10
0.43116
 20
-0.9811800000000001
 30
0.0
 10
0.53371
 20
-0.9845
 30
0.0
 10
0.53371
 20
-0.9845
 30
0.0
 10
0.56016
 20
-1.08704
 30
0.0
 10
0.38816
 20
-1.17635
 30
0.0
 10
0.31209
 20
-1.2358900000000002
 30
0.0
  0
SPLINE
  5
84
100
AcDbEntity
  8
Ebene 1
 62
     7
100
AcDbSpline
210
0.0
220
0.0
230
1.0
 70
     1
 71
     3
 72
    24
 73
    20
 74
     0
 42
0.0000000001
 43
0.0000000001
 40
0.0
 40
0.0
 40
0.0
 40
0.0
 40
0.2
 40
0.2
 40
0.2
 40
0.2
 40
0.4
 40
0.4
 40
0.4
 40
0.4
 40
0.6000000000000001
 40
0.6000000000000001
 40
0.6000000000000001
 40
0.6000000000000001
 40
0.8
 40
0.8
 40
0.8
 40
0.8
 40
1.0
 40
1.0
 40
1.0
 40
1.0
 10
-0.27008
 20
-4.8745800000000008
 30
0.0
 10
-0.27008
 20
-4.8745800000000008
 30
0.0
 10
-0.21055
 20
-4.50739
 30
0.0
 10
-0.21055
 20
-4.50739
 30
0.0
 10
-0.21055
 20
-4.50739
 30
0.0
 10
-0.21055
 20
-4.50739
 30
0.0
 10
-0.1907
 20
-4.4081600000000005
 30
0.0
 10
-0.1907
 20
-4.4081600000000005
 30
0.0
 10
-0.1907
 20
-4.4081600000000005
 30
0.0
 10
-0.12454
 20
-4.3618500000000004
 30
0.0
 10
-0.03853
 20
-4.3850000000000007
 30
0.0
 10
0.03093
 20
-4.4015500000000003
 30
0.0
 10
0.03093
 20
-4.4015500000000003
 30
0.0
 10
0.06401
 20
-4.6000100000000002
 30
0.0
 10
0.11362
 20
-5.0664400000000001
 30
0.0
 10
-0.22047
 20
-4.9804300000000001
 30
0.0
 10
-0.22047
 20
-4.9804300000000001
 30
0.0
 10
-0.22047
 20
-4.9804300000000001
 30
0.0
 10
-0.27008
 20
-4.8745800000000008
 30
0.0
 10
-0.27008
 20
-4.8745800000000008
 30
0.0
  0
SPLINE
  5
85
100
AcDbEntity
  8
Ebene 1
 62
     7
100
AcDbSpline
210
0.0
220
0.0
230
1.0
 70
     1
 71
     3
 72
    12
 73
     8
 74
     0
 42
0.0000000001
 43
0.0000000001
 40
0.0
 40
0.0
 40
0.0
 40
0.0
 40
0.5
 40
0.5
 40
0.5
 40
0.5
 40
1.0
 40
1.0
 40
1.0
 40
1.0
 10
-0.13116
 20
-4.2890700000000006
 30
0.0
 10
-0.13777
 20
-4.2460800000000001
 30
0.0
 10
-0.10139
 20
-4.2063800000000002
 30
0.0
 10
-0.05838
 20
-4.1997600000000004
 30
0.0
 10
-0.05838
 20
-4.1997600000000004
 30
0.0
 10
-0.05178
 20
-4.24939
 30
0.0
 10
-0.065
 20
-4.3221500000000006
 30
0.0
 10
-0.13116
 20
-4.2890700000000006
 30
0.0
  0
SPLINE
  5
86
100
AcDbEntity
  8
Ebene 1
 62
     7
100
AcDbSpline
210
0.0
220
0.0
230
1.0
 70
     1
 71
     3
 72
    28
 73
    24
 74
     0
 42
0.0000000001
 43
0.0000000001
 40
0.0
 40
0.0
 40
0.0
 40
0.0
 40
0.1666666666666667
 40
0.1666666666666667
 40
0.1666666666666667
 40
0.1666666666666667
 40
0.3333333333333333
 40
0.3333333333333333
 40
0.3333333333333333
 40
0.3333333333333333
 40
0.5
 40
0.5
 40
0.5
 40
0.5
 40
0.6666666666666666
 40
0.6666666666666666
 40
0.6666666666666666
 40
0.6666666666666666
 40
0.8333333333333333
 40
0.8333333333333333
 40
0.8333333333333333
 40
0.8333333333333333
 40
1.0
 40
1.0
 40
1.0
 40
1.0
 10
0.11031
 20
-3.2173200000000004
 30
0.0
 10
0.11031
 20
-3.2173200000000004
 30
0.0
 10
0.13017
 20
-3.1180800000000004
 30
0.0
 10
0.13017
 20
-3.1180800000000004
 30
0.0
 10
0.13017
 20
-3.1180800000000004
 30
0.0
 10
0.26909
 20
-3.3066300000000002
 30
0.0
 10
0.14339
 20
-3.5845000000000002
 30
0.0
 10
0.13679
 20
-3.8094300000000003
 30
0.0
 10
0.13679
 20
-3.8094300000000003
 30
0.0
 10
0.13017
 20
-3.8292800000000002
 30
0.0
 10
0.11031
 20
-3.8425000000000002
 30
0.0
 10
0.09046
 20
-3.8425000000000002
 30
0.0
 10
0.09046
 20
-3.8425000000000002
 30
0.0
 10
0.09046
 20
-3.8425000000000002
 30
0.0
 10
0.09046
 20
-3.7168100000000002
 30
0.0
 10
0.09046
 20
-3.7168100000000002
 30
0.0
 10
0.09046
 20
-3.7168100000000002
 30
0.0
 10
0.09046
 20
-3.7168100000000002
 30
0.0
 10
0.12025
 20
-3.5315700000000003
 30
0.0
 10
0.12025
 20
-3.5315700000000003
 30
0.0
 10
0.12025
 20
-3.5315700000000003
 30
0.0
 10
0.13679
 20
-3.4257200000000001
 30
0.0
 10
0.1401
 20
-3.3066300000000002
 30
0.0
 10
0.11031
 20
-3.2173200000000004
 30
0.0
  0
SPLINE
  5
87
100
AcDbEntity
  8
Ebene 1
 62
     0
100
AcDbSpline
210
0.0
220
0.0
230
1.0
 70
     1
 71
     3
 72
    16
 73
    12
 74
     0
 42
0.0000000001
 43
0.0000000001
 40
0.0
 40
0.0
 40
0.0
 40
0.0
 40
0.3333333333333333
 40
0.3333333333333333
 40
0.3333333333333333
 40
0.3333333333333333
 40
0.6666666666666666
 40
0.6666666666666666
 40
0.6666666666666666
 40
0.6666666666666666
 40
1.0
 40
1.0
 40
1.0
 40
1.0
 10
1.5492300000000001
 20
5.3302400000000008
 30
0.0
 10
1.6881600000000001
 20
5.4526300000000001
 30
0.0
 10
2.0421
 20
5.4989600000000003
 30
0.0
 10
2.0851100000000002
 20
5.2607800000000005
 30
0.0
 10
2.0851100000000002
 20
5.2607800000000005
 30
0.0
 10
1.9759500000000001
 20
5.1549200000000006
 30
0.0
 10
1.7973200000000003
 20
5.2872400000000006
 30
0.0
 10
1.6881600000000001
 20
5.1582400000000002
 30
0.0
 10
1.6881600000000001
 20
5.1582400000000002
 30
0.0
 10
1.6517700000000002
 20
5.2078500000000005
 30
0.0
 10
1.6187
 20
5.2971700000000004
 30
0.0
 10
1.5492300000000001
 20
5.3302400000000008
 30
0.0
  0
SPLINE
  5
88
100
AcDbEntity
  8
Ebene 1
 62
     0
100
AcDbSpline
210
0.0
220
0.0
230
1.0
 70
     1
 71
     3
 72
    80
 73
    76
 74
     0
 42
0.0000000001
 43
0.0000000001
 40
0.0
 40
0.0
 40
0.0
 40
0.0
 40
0.0526315789473684
 40
0.0526315789473684
 40
0.0526315789473684
 40
0.0526315789473684
 40
0.1052631578947368
 40
0.1052631578947368
 40
0.1052631578947368
 40
0.1052631578947368
 40
0.1578947368421053
 40
0.1578947368421053
 40
0.1578947368421053
 40
0.1578947368421053
 40
0.2105263157894737
 40
0.2105263157894737
 40
0.2105263157894737
 40
0.2105263157894737
 40
0.2631578947368421
 40
0.2631578947368421
 40
0.2631578947368421
 40
0.2631578947368421
 40
0.3157894736842105
 40
0.3157894736842105
 40
0.3157894736842105
 40
0.3157894736842105
 40
0.3684210526315789
 40
0.3684210526315789
 40
0.3684210526315789
 40
0.3684210526315789
 40
0.4210526315789474
 40
0.4210526315789474
 40
0.4210526315789474
 40
0.4210526315789474
 40
0.4736842105263158
 40
0.4736842105263158
 40
0.4736842105263158
 40
0.4736842105263158
 40
0.5263157894736842
 40
0.5263157894736842
 40
0.5263157894736842
 40
0.5263157894736842
 40
0.5789473684210527
 40
0.5789473684210527
 40
0.5789473684210527
 40
0.5789473684210527
 40
0.631578947368421
 40
0.631578947368421
 40
0.631578947368421
 40
0.631578947368421
 40
0.6842105263157894
 40
0.6842105263157894
 40
0.6842105263157894
 40
0.6842105263157894
 40
0.7368421052631577
 40
0.7368421052631577
 40
0.7368421052631577
 40
0.7368421052631577
 40
0.7894736842105261
 40
0.7894736842105261
 40
0.7894736842105261
 40
0.7894736842105261
 40
0.8421052631578945
 40
0.8421052631578945
 40
0.8421052631578945
 40
0.8421052631578945
 40
0.8947368421052628
 40
0.8947368421052628
 40
0.8947368421052628
 40
0.8947368421052628
 40
0.9473684210526312
 40
0.9473684210526312
 40
0.9473684210526312
 40
0.9473684210526312
 40
1.0
 40
1.0
 40
1.0
 40
1.0
 10
-1.2591500000000002
 20
-12.19824
 30
0.0
 10
-1.2128300000000001
 20
-12.026230000000002
 30
0.0
 10
-1.2194600000000002
 20
-11.801300000000001
 30
0.0
 10
-1.0970600000000001
 20
-11.68552
 30
0.0
 10
-1.0970600000000001
 20
-11.68552
 30
0.0
 10
-1.13676
 20
-11.989840000000001
 30
0.0
 10
-1.14337
 20
-12.343780000000001
 30
0.0
 10
-1.0672900000000001
 20
-12.628270000000001
 30
0.0
 10
-1.0672900000000001
 20
-12.628270000000001
 30
0.0
 10
-0.96474
 20
-12.618340000000002
 30
0.0
 10
-1.0408300000000001
 20
-11.963380000000001
 30
0.0
 10
-0.8655100000000001
 20
-12.204860000000002
 30
0.0
 10
-0.8655100000000001
 20
-12.204860000000002
 30
0.0
 10
-0.8655100000000001
 20
-12.204860000000002
 30
0.0
 10
-0.9283500000000001
 20
-12.939210000000001
 30
0.0
 10
-0.9283500000000001
 20
-12.939210000000001
 30
0.0
 10
-0.9283500000000001
 20
-12.939210000000001
 30
0.0
 10
-0.9283500000000001
 20
-12.939210000000001
 30
0.0
 10
-0.70011
 20
-12.390110000000002
 30
0.0
 10
-0.70011
 20
-12.390110000000002
 30
0.0
 10
-0.70011
 20
-12.390110000000002
 30
0.0
 10
-0.5148700000000001
 20
-12.108930000000001
 30
0.0
 10
-0.71665
 20
-11.893920000000001
 30
0.0
 10
-0.7265800000000001
 20
-11.735150000000001
 30
0.0
 10
-0.7265800000000001
 20
-11.735150000000001
 30
0.0
 10
-0.8026500000000001
 20
-11.592910000000002
 30
0.0
 10
-0.60419
 20
-11.229030000000002
 30
0.0
 10
-0.4454
 20
-10.93463
 30
0.0
 10
-0.4454
 20
-10.93463
 30
0.0
 10
-0.52149
 20
-10.891630000000001
 30
0.0
 10
-0.7828100000000001
 20
-10.98094
 30
0.0
 10
-0.8489700000000001
 20
-11.02064
 30
0.0
 10
-0.8489700000000001
 20
-11.02064
 30
0.0
 10
-0.34617
 20
-10.001800000000001
 30
0.0
 10
0.40801
 20
-8.9565100000000015
 30
0.0
 10
1.4235300000000002
 20
-8.3710100000000001
 30
0.0
 10
1.4235300000000002
 20
-8.3710100000000001
 30
0.0
 10
1.4235300000000002
 20
-8.3710100000000001
 30
0.0
 10
1.1886700000000001
 20
-8.7084200000000003
 30
0.0
 10
1.1886700000000001
 20
-8.7084200000000003
 30
0.0
 10
1.1886700000000001
 20
-8.7084200000000003
 30
0.0
 10
1.1886700000000001
 20
-8.7084200000000003
 30
0.0
 10
0.53371
 20
-9.4758500000000012
 30
0.0
 10
0.53371
 20
-9.4758500000000012
 30
0.0
 10
0.53371
 20
-9.4758500000000012
 30
0.0
 10
0.25586
 20
-9.91249
 30
0.0
 10
-0.09808
 20
-10.312740000000002
 30
0.0
 10
0.6561
 20
-9.7537100000000017
 30
0.0
 10
0.6561
 20
-9.7537100000000017
 30
0.0
 10
0.6561
 20
-9.7537100000000017
 30
0.0
 10
2.1711200000000002
 20
-8.0964700000000001
 30
0.0
 10
2.1711200000000002
 20
-8.0964700000000001
 30
0.0
 10
2.1711200000000002
 20
-8.0964700000000001
 30
0.0
 10
2.1711200000000002
 20
-8.0964700000000001
 30
0.0
 10
2.7334500000000004
 20
-7.5605800000000007
 30
0.0
 10
2.7334500000000004
 20
-7.5605800000000007
 30
0.0
 10
2.7334500000000004
 20
-7.5605800000000007
 30
0.0
 10
2.7334500000000004
 20
-7.5605800000000007
 30
0.0
 10
2.0950300000000004
 20
-8.5297900000000002
 30
0.0
 10
2.0950300000000004
 20
-8.5297900000000002
 30
0.0
 10
2.0950300000000004
 20
-8.5297900000000002
 30
0.0
 10
1.8105500000000001
 20
-8.9631300000000014
 30
0.0
 10
1.4632200000000002
 20
-9.1781400000000009
 30
0.0
 10
1.1291300000000002
 20
-9.5684700000000014
 30
0.0
 10
1.1291300000000002
 20
-9.5684700000000014
 30
0.0
 10
0.20293
 20
-10.653450000000001
 30
0.0
 10
-0.7265800000000001
 20
-11.867450000000002
 30
0.0
 10
-0.65381
 20
-13.382470000000001
 30
0.0
 10
-0.65381
 20
-13.382470000000001
 30
0.0
 10
-0.5049400000000001
 20
-13.676870000000001
 30
0.0
 10
-0.20393
 20
-13.812480000000001
 30
0.0
 10
0.07724
 20
-13.838950000000001
 30
0.0
 10
0.07724
 20
-13.838950000000001
 30
0.0
 10
-0.8489700000000001
 20
-14.017570000000001
 30
0.0
 10
-1.3253000000000001
 20
-12.959060000000001
 30
0.0
 10
-1.2591500000000002
 20
-12.19824
 30
0.0
  0
SPLINE
  5
89
100
AcDbEntity
  8
Ebene 1
 62
     7
100
AcDbSpline
210
0.0
220
0.0
230
1.0
 70
     1
 71
     3
 72
    40
 73
    36
 74
     0
 42
0.0000000001
 43
0.0000000001
 40
0.0
 40
0.0
 40
0.0
 40
0.0
 40
0.1111111111111111
 40
0.1111111111111111
 40
0.1111111111111111
 40
0.1111111111111111
 40
0.2222222222222222
 40
0.2222222222222222
 40
0.2222222222222222
 40
0.2222222222222222
 40
0.3333333333333333
 40
0.3333333333333333
 40
0.3333333333333333
 40
0.3333333333333333
 40
0.4444444444444444
 40
0.4444444444444444
 40
0.4444444444444444
 40
0.4444444444444444
 40
0.5555555555555556
 40
0.5555555555555556
 40
0.5555555555555556
 40
0.5555555555555556
 40
0.6666666666666667
 40
0.6666666666666667
 40
0.6666666666666667
 40
0.6666666666666667
 40
0.7777777777777779
 40
0.7777777777777779
 40
0.7777777777777779
 40
0.7777777777777779
 40
0.8888888888888891
 40
0.8888888888888891
 40
0.8888888888888891
 40
0.8888888888888891
 40
1.0
 40
1.0
 40
1.0
 40
1.0
 10
0.31209
 20
-3.2702400000000003
 30
0.0
 10
0.32201
 20
-3.1776200000000001
 30
0.0
 10
0.37163
 20
-3.0254600000000003
 30
0.0
 10
0.4907
 20
-3.0486200000000001
 30
0.0
 10
0.4907
 20
-3.0486200000000001
 30
0.0
 10
0.4907
 20
-3.0486200000000001
 30
0.0
 10
0.6097800000000001
 20
-3.05193
 30
0.0
 10
0.6097800000000001
 20
-3.05193
 30
0.0
 10
0.6097800000000001
 20
-3.05193
 30
0.0
 10
0.7222500000000001
 20
-3.3430100000000005
 30
0.0
 10
0.38816
 20
-3.4852500000000002
 30
0.0
 10
0.39808
 20
-3.7631200000000002
 30
0.0
 10
0.39808
 20
-3.7631200000000002
 30
0.0
 10
0.39808
 20
-3.7631200000000002
 30
0.0
 10
0.61641
 20
-3.7565000000000004
 30
0.0
 10
0.61641
 20
-3.7565000000000004
 30
0.0
 10
0.61641
 20
-3.7565000000000004
 30
0.0
 10
0.65939
 20
-3.5911000000000004
 30
0.0
 10
0.6825500000000001
 20
-3.4224100000000002
 30
0.0
 10
0.67925
 20
-3.2537000000000003
 30
0.0
 10
0.67925
 20
-3.2537000000000003
 30
0.0
 10
0.65939
 20
-3.2074000000000003
 30
0.0
 10
0.6858700000000001
 20
-3.1412400000000003
 30
0.0
 10
0.69579
 20
-3.0883100000000003
 30
0.0
 10
0.69579
 20
-3.0883100000000003
 30
0.0
 10
0.7222500000000001
 20
-3.09823
 30
0.0
 10
0.7421000000000001
 20
-3.13131
 30
0.0
 10
0.74541
 20
-3.1544700000000003
 30
0.0
 10
0.74541
 20
-3.1544700000000003
 30
0.0
 10
0.65939
 20
-3.4025600000000003
 30
0.0
 10
0.8148700000000001
 20
-3.7168100000000002
 30
0.0
 10
0.6362500000000001
 20
-3.9053600000000004
 30
0.0
 10
0.6362500000000001
 20
-3.9053600000000004
 30
0.0
 10
0.17648
 20
-4.0310600000000001
 30
0.0
 10
0.29555
 20
-3.5282600000000004
 30
0.0
 10
0.31209
 20
-3.2702400000000003
 30
0.0
  0
SPLINE
  5
8A
100
AcDbEntity
  8
Ebene 1
 62
     7
100
AcDbSpline
210
0.0
220
0.0
230
1.0
 70
     1
 71
     3
 72
    20
 73
    16
 74
     0
 42
0.0000000001
 43
0.0000000001
 40
0.0
 40
0.0
 40
0.0
 40
0.0
 40
0.25
 40
0.25
 40
0.25
 40
0.25
 40
0.5
 40
0.5
 40
0.5
 40
0.5
 40
0.75
 40
0.75
 40
0.75
 40
0.75
 40
1.0
 40
1.0
 40
1.0
 40
1.0
 10
0.21286
 20
-4.4908600000000005
 30
0.0
 10
0.21286
 20
-4.4908600000000005
 30
0.0
 10
0.23271
 20
-4.3949199999999999
 30
0.0
 10
0.23271
 20
-4.3949199999999999
 30
0.0
 10
0.23271
 20
-4.3949199999999999
 30
0.0
 10
0.5932400000000001
 20
-4.24939
 30
0.0
 10
0.49732
 20
-4.8580300000000003
 30
0.0
 10
0.42454
 20
-5.0465900000000001
 30
0.0
 10
0.42454
 20
-5.0465900000000001
 30
0.0
 10
0.26579
 20
-5.1226700000000003
 30
0.0
 10
0.16987
 20
-4.9638800000000005
 30
0.0
 10
0.17978
 20
-4.8216400000000004
 30
0.0
 10
0.17978
 20
-4.8216400000000004
 30
0.0
 10
0.17978
 20
-4.8216400000000004
 30
0.0
 10
0.21286
 20
-4.4908600000000005
 30
0.0
 10
0.21286
 20
-4.4908600000000005
 30
0.0
  0
SPLINE
  5
8B
100
AcDbEntity
  8
Ebene 1
 62
    31
100
AcDbSpline
210
0.0
220
0.0
230
1.0
 70
     1
 71
     3
 72
    80
 73
    76
 74
     0
 42
0.0000000001
 43
0.0000000001
 40
0.0
 40
0.0
 40
0.0
 40
0.0
 40
0.0526315789473684
 40
0.0526315789473684
 40
0.0526315789473684
 40
0.0526315789473684
 40
0.1052631578947368
 40
0.1052631578947368
 40
0.1052631578947368
 40
0.1052631578947368
 40
0.1578947368421053
 40
0.1578947368421053
 40
0.1578947368421053
 40
0.1578947368421053
 40
0.2105263157894737
 40
0.2105263157894737
 40
0.2105263157894737
 40
0.2105263157894737
 40
0.2631578947368421
 40
0.2631578947368421
 40
0.2631578947368421
 40
0.2631578947368421
 40
0.3157894736842105
 40
0.3157894736842105
 40
0.3157894736842105
 40
0.3157894736842105
 40
0.3684210526315789
 40
0.3684210526315789
 40
0.3684210526315789
 40
0.3684210526315789
 40
0.4210526315789474
 40
0.4210526315789474
 40
0.4210526315789474
 40
0.4210526315789474
 40
0.4736842105263158
 40
0.4736842105263158
 40
0.4736842105263158
 40
0.4736842105263158
 40
0.5263157894736842
 40
0.5263157894736842
 40
0.5263157894736842
 40
0.5263157894736842
 40
0.5789473684210527
 40
0.5789473684210527
 40
0.5789473684210527
 40
0.5789473684210527
 40
0.631578947368421
 40
0.631578947368421
 40
0.631578947368421
 40
0.631578947368421
 40
0.6842105263157894
 40
0.6842105263157894
 40
0.6842105263157894
 40
0.6842105263157894
 40
0.7368421052631577
 40
0.7368421052631577
 40
0.7368421052631577
 40
0.7368421052631577
 40
0.7894736842105261
 40
0.7894736842105261
 40
0.7894736842105261
 40
0.7894736842105261
 40
0.8421052631578945
 40
0.8421052631578945
 40
0.8421052631578945
 40
0.8421052631578945
 40
0.8947368421052628
 40
0.8947368421052628
 40
0.8947368421052628
 40
0.8947368421052628
 40
0.9473684210526312
 40
0.9473684210526312
 40
0.9473684210526312
 40
0.9473684210526312
 40
1.0
 40
1.0
 40
1.0
 40
1.0
 10
5.9222600000000005
 20
1.4765600000000001
 30
0.0
 10
4.6454200000000005
 20
0.6826800000000001
 30
0.0
 10
3.3255700000000004
 20
-0.45523
 30
0.0
 10
1.7576200000000002
 20
-0.34607
 30
0.0
 10
1.7576200000000002
 20
-0.34607
 30
0.0
 10
1.7113100000000001
 20
-0.22367
 30
0.0
 10
1.5326900000000001
 20
-0.13767
 30
0.0
 10
1.5922200000000002
 20
0.01117
 30
0.0
 10
1.5922200000000002
 20
0.01117
 30
0.0
 10
1.7940200000000002
 20
-0.25014
 30
0.0
 10
1.9759500000000001
 20
-0.18398
 30
0.0
 10
2.24058
 20
-0.09137
 30
0.0
 10
2.24058
 20
-0.09137
 30
0.0
 10
2.2802800000000003
 20
-0.12114
 30
0.0
 10
2.3629700000000002
 20
-0.12777
 30
0.0
 10
2.3464200000000002
 20
-0.05168
 30
0.0
 10
2.3464200000000002
 20
-0.05168
 30
0.0
 10
1.8337100000000002
 20
0.07733
 30
0.0
 10
1.5062300000000002
 20
0.54044
 30
0.0
 10
1.2515200000000002
 20
0.9936200000000001
 30
0.0
 10
1.2515200000000002
 20
0.9936200000000001
 30
0.0
 10
1.6616900000000001
 20
0.8050700000000001
 30
0.0
 10
2.0321700000000003
 20
0.51066
 30
0.0
 10
2.4919800000000003
 20
0.4378800000000001
 30
0.0
 10
2.4919800000000003
 20
0.4378800000000001
 30
0.0
 10
2.4919800000000003
 20
0.4378800000000001
 30
0.0
 10
2.8062300000000002
 20
0.40149
 30
0.0
 10
2.8062300000000002
 20
0.40149
 30
0.0
 10
2.8062300000000002
 20
0.40149
 30
0.0
 10
3.0576300000000001
 20
0.43458
 30
0.0
 10
2.5118200000000002
 20
0.5007400000000001
 30
0.0
 10
2.3960500000000002
 20
0.5569700000000001
 30
0.0
 10
2.3960500000000002
 20
0.5569700000000001
 30
0.0
 10
2.2174200000000002
 20
0.6396700000000001
 30
0.0
 10
1.9891700000000001
 20
0.6859900000000001
 30
0.0
 10
1.8535600000000001
 20
0.82823
 30
0.0
 10
1.8535600000000001
 20
0.82823
 30
0.0
 10
3.0212400000000001
 20
0.4412
 30
0.0
 10
4.2550800000000004
 20
1.06308
 30
0.0
 10
5.1548300000000005
 20
1.7941200000000002
 30
0.0
 10
5.1548300000000005
 20
1.7941200000000002
 30
0.0
 10
5.1713600000000008
 20
1.8735100000000002
 30
0.0
 10
5.0556000000000001
 20
1.8106600000000002
 30
0.0
 10
5.0158900000000006
 20
1.7941200000000002
 30
0.0
 10
5.0158900000000006
 20
1.7941200000000002
 30
0.0
 10
4.0301400000000003
 20
1.03661
 30
0.0
 10
2.5382900000000004
 20
0.36842
 30
0.0
 10
1.4566000000000001
 20
1.2549400000000002
 30
0.0
 10
1.4566000000000001
 20
1.2549400000000002
 30
0.0
 10
1.5029100000000002
 20
1.3111600000000001
 30
0.0
 10
1.5723800000000001
 20
1.3409500000000001
 30
0.0
 10
1.6418400000000002
 20
1.35087
 30
0.0
 10
1.6418400000000002
 20
1.35087
 30
0.0
 10
2.7499900000000004
 20
0.8083800000000001
 30
0.0
 10
3.8184400000000003
 20
1.51295
 30
0.0
 10
4.0665200000000006
 20
2.6475700000000004
 30
0.0
 10
4.0665200000000006
 20
2.6475700000000004
 30
0.0
 10
4.2716200000000004
 20
2.8195700000000001
 30
0.0
 10
4.5428700000000006
 20
2.8162600000000002
 30
0.0
 10
4.7975700000000003
 20
2.8162600000000002
 30
0.0
 10
4.7975700000000003
 20
2.8162600000000002
 30
0.0
 10
4.6884200000000007
 20
2.9188000000000001
 30
0.0
 10
4.4138600000000006
 20
2.8592700000000004
 30
0.0
 10
4.2451600000000003
 20
2.8460200000000002
 30
0.0
 10
4.2451600000000003
 20
2.8460200000000002
 30
0.0
 10
4.2451600000000003
 20
2.8460200000000002
 30
0.0
 10
4.7744200000000001
 20
3.19998
 30
0.0
 10
4.7744200000000001
 20
3.19998
 30
0.0
 10
4.7744200000000001
 20
3.19998
 30
0.0
 10
4.3642400000000006
 20
3.1205900000000004
 30
0.0
 10
4.8008900000000008
 20
3.4249200000000002
 30
0.0
 10
4.9497400000000003
 20
3.5671600000000003
 30
0.0
 10
4.9497400000000003
 20
3.5671600000000003
 30
0.0
 10
4.9332100000000008
 20
2.6905700000000001
 30
0.0
 10
6.415140000000001
 20
2.1480800000000002
 30
0.0
 10
5.9222600000000005
 20
1.4765600000000001
 30
0.0
  0
SPLINE
  5
8C
100
AcDbEntity
  8
Ebene 1
 62
    31
100
AcDbSpline
210
0.0
220
0.0
230
1.0
 70
     1
 71
     3
 72
    16
 73
    12
 74
     0
 42
0.0000000001
 43
0.0000000001
 40
0.0
 40
0.0
 40
0.0
 40
0.0
 40
0.3333333333333333
 40
0.3333333333333333
 40
0.3333333333333333
 40
0.3333333333333333
 40
0.6666666666666666
 40
0.6666666666666666
 40
0.6666666666666666
 40
0.6666666666666666
 40
1.0
 40
1.0
 40
1.0
 40
1.0
 10
4.0963000000000003
 20
2.3663800000000004
 30
0.0
 10
4.2716200000000004
 20
2.6111700000000004
 30
0.0
 10
4.5792600000000006
 20
2.6012400000000002
 30
0.0
 10
4.8174200000000003
 20
2.6872500000000001
 30
0.0
 10
4.8174200000000003
 20
2.6872500000000001
 30
0.0
 10
4.7082600000000001
 20
2.3895400000000002
 30
0.0
 10
4.3444000000000003
 20
2.51525
 30
0.0
 10
4.1293800000000003
 20
2.3399300000000003
 30
0.0
 10
4.1293800000000003
 20
2.3399300000000003
 30
0.0
 10
4.1293800000000003
 20
2.3399300000000003
 30
0.0
 10
4.0963000000000003
 20
2.3663800000000004
 30
0.0
 10
4.0963000000000003
 20
2.3663800000000004
 30
0.0
  0
SPLINE
  5
8D
100
AcDbEntity
  8
Ebene 1
 62
    31
100
AcDbSpline
210
0.0
220
0.0
230
1.0
 70
     1
 71
     3
 72
    32
 73
    28
 74
     0
 42
0.0000000001
 43
0.0000000001
 40
0.0
 40
0.0
 40
0.0
 40
0.0
 40
0.1428571428571429
 40
0.1428571428571429
 40
0.1428571428571429
 40
0.1428571428571429
 40
0.2857142857142857
 40
0.2857142857142857
 40
0.2857142857142857
 40
0.2857142857142857
 40
0.4285714285714286
 40
0.4285714285714286
 40
0.4285714285714286
 40
0.4285714285714286
 40
0.5714285714285714
 40
0.5714285714285714
 40
0.5714285714285714
 40
0.5714285714285714
 40
0.7142857142857142
 40
0.7142857142857142
 40
0.7142857142857142
 40
0.7142857142857142
 40
0.857142857142857
 40
0.857142857142857
 40
0.857142857142857
 40
0.857142857142857
 40
1.0
 40
1.0
 40
1.0
 40
1.0
 10
2.4456600000000002
 20
1.00685
 30
0.0
 10
3.2461800000000003
 20
1.0829300000000002
 30
0.0
 10
3.7820500000000004
 20
1.7908200000000001
 30
0.0
 10
4.3477100000000002
 20
2.20099
 30
0.0
 10
4.3477100000000002
 20
2.20099
 30
0.0
 10
4.3477100000000002
 20
2.20099
 30
0.0
 10
4.4105500000000006
 20
2.1480800000000002
 30
0.0
 10
4.4105500000000006
 20
2.1480800000000002
 30
0.0
 10
4.4105500000000006
 20
2.1480800000000002
 30
0.0
 10
4.5230300000000003
 20
2.3399300000000003
 30
0.0
 10
4.6090200000000001
 20
2.3035400000000004
 30
0.0
 10
4.7644900000000003
 20
2.3597800000000002
 30
0.0
 10
4.7644900000000003
 20
2.3597800000000002
 30
0.0
 10
4.8802800000000008
 20
2.4060800000000002
 30
0.0
 10
4.87697
 20
2.59463
 30
0.0
 10
4.9861200000000006
 20
2.5747900000000001
 30
0.0
 10
4.9861200000000006
 20
2.5747900000000001
 30
0.0
 10
4.9861200000000006
 20
2.5747900000000001
 30
0.0
 10
4.9993600000000002
 20
2.3630800000000001
 30
0.0
 10
4.9993600000000002
 20
2.3630800000000001
 30
0.0
 10
4.9993600000000002
 20
2.3630800000000001
 30
0.0
 10
4.49655
 20
1.6088800000000001
 30
0.0
 10
3.5968100000000005
 20
1.3608
 30
0.0
 10
2.8360000000000003
 20
0.9836900000000001
 30
0.0
 10
2.8360000000000003
 20
0.9836900000000001
 30
0.0
 10
2.7069900000000002
 20
0.9836900000000001
 30
0.0
 10
2.5647500000000001
 20
0.9241400000000001
 30
0.0
 10
2.4456600000000002
 20
1.00685
 30
0.0
  0
SPLINE
  5
8E
100
AcDbEntity
  8
Ebene 1
 62
     7
100
AcDbSpline
210
0.0
220
0.0
230
1.0
 70
     1
 71
     3
 72
    24
 73
    20
 74
     0
 42
0.0000000001
 43
0.0000000001
 40
0.0
 40
0.0
 40
0.0
 40
0.0
 40
0.2
 40
0.2
 40
0.2
 40
0.2
 40
0.4
 40
0.4
 40
0.4
 40
0.4
 40
0.6000000000000001
 40
0.6000000000000001
 40
0.6000000000000001
 40
0.6000000000000001
 40
0.8
 40
0.8
 40
0.8
 40
0.8
 40
1.0
 40
1.0
 40
1.0
 40
1.0
 10
0.50393
 20
-4.1005200000000004
 30
0.0
 10
0.5932400000000001
 20
-4.0277500000000002
 30
0.0
 10
0.73548
 20
-3.9814500000000002
 30
0.0
 10
0.8512700000000001
 20
-3.9946800000000002
 30
0.0
 10
0.8512700000000001
 20
-3.9946800000000002
 30
0.0
 10
0.8512700000000001
 20
-3.9946800000000002
 30
0.0
 10
0.7817900000000001
 20
-4.1005200000000004
 30
0.0
 10
0.7817900000000001
 20
-4.1005200000000004
 30
0.0
 10
0.7817900000000001
 20
-4.1005200000000004
 30
0.0
 10
0.7817900000000001
 20
-4.1005200000000004
 30
0.0
 10
0.9637300000000001
 20
-4.0773600000000005
 30
0.0
 10
0.9637300000000001
 20
-4.0773600000000005
 30
0.0
 10
0.9637300000000001
 20
-4.0773600000000005
 30
0.0
 10
0.9174200000000001
 20
-4.2460800000000001
 30
0.0
 10
0.69579
 20
-4.3420000000000005
 30
0.0
 10
0.6197100000000001
 20
-4.1236900000000007
 30
0.0
 10
0.6197100000000001
 20
-4.1236900000000007
 30
0.0
 10
0.6197100000000001
 20
-4.1236900000000007
 30
0.0
 10
0.50393
 20
-4.1005200000000004
 30
0.0
 10
0.50393
 20
-4.1005200000000004
 30
0.0
  0
SPLINE
  5
8F
100
AcDbEntity
  8
Ebene 1
 62
     7
100
AcDbSpline
210
0.0
220
0.0
230
1.0
 70
     1
 71
     3
 72
    40
 73
    36
 74
     0
 42
0.0000000001
 43
0.0000000001
 40
0.0
 40
0.0
 40
0.0
 40
0.0
 40
0.1111111111111111
 40
0.1111111111111111
 40
0.1111111111111111
 40
0.1111111111111111
 40
0.2222222222222222
 40
0.2222222222222222
 40
0.2222222222222222
 40
0.2222222222222222
 40
0.3333333333333333
 40
0.3333333333333333
 40
0.3333333333333333
 40
0.3333333333333333
 40
0.4444444444444444
 40
0.4444444444444444
 40
0.4444444444444444
 40
0.4444444444444444
 40
0.5555555555555556
 40
0.5555555555555556
 40
0.5555555555555556
 40
0.5555555555555556
 40
0.6666666666666667
 40
0.6666666666666667
 40
0.6666666666666667
 40
0.6666666666666667
 40
0.7777777777777779
 40
0.7777777777777779
 40
0.7777777777777779
 40
0.7777777777777779
 40
0.8888888888888891
 40
0.8888888888888891
 40
0.8888888888888891
 40
0.8888888888888891
 40
1.0
 40
1.0
 40
1.0
 40
1.0
 10
0.82811
 20
-3.2934000000000001
 30
0.0
 10
0.8545700000000001
 20
-3.2007700000000003
 30
0.0
 10
0.8314200000000001
 20
-3.0817000000000001
 30
0.0
 10
0.9174200000000001
 20
-3.01885
 30
0.0
 10
0.9174200000000001
 20
-3.01885
 30
0.0
 10
0.9405800000000001
 20
-2.9890700000000003
 30
0.0
 10
0.9604300000000001
 20
-2.9692200000000004
 30
0.0
 10
1.00342
 20
-2.9890700000000003
 30
0.0
 10
1.00342
 20
-2.9890700000000003
 30
0.0
 10
1.13243
 20
-3.1941700000000002
 30
0.0
 10
0.8843400000000001
 20
-3.5613400000000004
 30
0.0
 10
1.0464300000000002
 20
-3.7035800000000001
 30
0.0
 10
1.0464300000000002
 20
-3.7035800000000001
 30
0.0
 10
1.0464300000000002
 20
-3.7035800000000001
 30
0.0
 10
1.0662800000000001
 20
-3.6274900000000003
 30
0.0
 10
1.0662800000000001
 20
-3.6274900000000003
 30
0.0
 10
1.0662800000000001
 20
-3.6274900000000003
 30
0.0
 10
1.0662800000000001
 20
-3.6274900000000003
 30
0.0
 10
1.08613
 20
-3.3794000000000004
 30
0.0
 10
1.08613
 20
-3.3794000000000004
 30
0.0
 10
1.08613
 20
-3.3794000000000004
 30
0.0
 10
1.08613
 20
-3.3794000000000004
 30
0.0
 10
1.1125800000000001
 20
-3.0883100000000003
 30
0.0
 10
1.1125800000000001
 20
-3.0883100000000003
 30
0.0
 10
1.1125800000000001
 20
-3.0883100000000003
 30
0.0
 10
1.1159000000000001
 20
-3.0750700000000002
 30
0.0
 10
1.1159000000000001
 20
-3.0453000000000001
 30
0.0
 10
1.1390600000000002
 20
-3.05193
 30
0.0
 10
1.1390600000000002
 20
-3.05193
 30
0.0
 10
1.33091
 20
-3.2570100000000002
 30
0.0
 10
1.1622000000000001
 20
-3.6440400000000004
 30
0.0
 10
1.0232700000000001
 20
-3.8458100000000002
 30
0.0
 10
1.0232700000000001
 20
-3.8458100000000002
 30
0.0
 10
0.6924800000000001
 20
-3.8722900000000005
 30
0.0
 10
0.8909600000000001
 20
-3.4654100000000003
 30
0.0
 10
0.82811
 20
-3.2934000000000001
 30
0.0
  0
SPLINE
  5
90
100
AcDbEntity
  8
Ebene 1
 62
     7
100
AcDbSpline
210
0.0
220
0.0
230
1.0
 70
     1
 71
     3
 72
    16
 73
    12
 74
     0
 42
0.0000000001
 43
0.0000000001
 40
0.0
 40
0.0
 40
0.0
 40
0.0
 40
0.3333333333333333
 40
0.3333333333333333
 40
0.3333333333333333
 40
0.3333333333333333
 40
0.6666666666666666
 40
0.6666666666666666
 40
0.6666666666666666
 40
0.6666666666666666
 40
1.0
 40
1.0
 40
1.0
 40
1.0
 10
1.6517700000000002
 20
1.5361
 30
0.0
 10
1.6616900000000001
 20
1.5758100000000002
 30
0.0
 10
1.7013900000000002
 20
1.6320300000000001
 30
0.0
 10
1.7476900000000002
 20
1.6452700000000002
 30
0.0
 10
1.7476900000000002
 20
1.6452700000000002
 30
0.0
 10
1.7476900000000002
 20
1.6452700000000002
 30
0.0
 10
1.8701000000000001
 20
1.4600300000000002
 30
0.0
 10
1.8701000000000001
 20
1.4600300000000002
 30
0.0
 10
1.8701000000000001
 20
1.4600300000000002
 30
0.0
 10
1.8006200000000001
 20
1.4071
 30
0.0
 10
1.7047000000000001
 20
1.4864900000000001
 30
0.0
 10
1.6517700000000002
 20
1.5361
 30
0.0
  0
SPLINE
  5
91
100
AcDbEntity
  8
Ebene 1
 62
     7
100
AcDbSpline
210
0.0
220
0.0
230
1.0
 70
     1
 71
     3
 72
    20
 73
    16
 74
     0
 42
0.0000000001
 43
0.0000000001
 40
0.0
 40
0.0
 40
0.0
 40
0.0
 40
0.25
 40
0.25
 40
0.25
 40
0.25
 40
0.5
 40
0.5
 40
0.5
 40
0.5
 40
0.75
 40
0.75
 40
0.75
 40
0.75
 40
1.0
 40
1.0
 40
1.0
 40
1.0
 10
0.6924800000000001
 20
-4.8679600000000001
 30
0.0
 10
0.7288800000000001
 20
-4.7554800000000004
 30
0.0
 10
0.6825500000000001
 20
-4.5636300000000007
 30
0.0
 10
0.83472
 20
-4.5371700000000006
 30
0.0
 10
0.83472
 20
-4.5371700000000006
 30
0.0
 10
0.9108000000000001
 20
-4.4908600000000005
 30
0.0
 10
1.0001100000000001
 20
-4.4644000000000004
 30
0.0
 10
1.08613
 20
-4.4743200000000005
 30
0.0
 10
1.08613
 20
-4.4743200000000005
 30
0.0
 10
1.1688200000000002
 20
-4.6893400000000005
 30
0.0
 10
1.0464300000000002
 20
-5.1855100000000007
 30
0.0
 10
0.7255600000000001
 20
-5.0763500000000006
 30
0.0
 10
0.7255600000000001
 20
-5.0763500000000006
 30
0.0
 10
0.7255600000000001
 20
-5.0763500000000006
 30
0.0
 10
0.6924800000000001
 20
-4.8679600000000001
 30
0.0
 10
0.6924800000000001
 20
-4.8679600000000001
 30
0.0
  0
SPLINE
  5
92
100
AcDbEntity
  8
Ebene 1
 62
     0
100
AcDbSpline
210
0.0
220
0.0
230
1.0
 70
     1
 71
     3
 72
    12
 73
     8
 74
     0
 42
0.0000000001
 43
0.0000000001
 40
0.0
 40
0.0
 40
0.0
 40
0.0
 40
0.5
 40
0.5
 40
0.5
 40
0.5
 40
1.0
 40
1.0
 40
1.0
 40
1.0
 10
0.4873900000000001
 20
-13.41225
 30
0.0
 10
0.15995
 20
-13.706630000000001
 30
0.0
 10
-0.7133400000000001
 20
-13.557790000000001
 30
0.0
 10
-0.5049400000000001
 20
-12.978910000000001
 30
0.0
 10
-0.5049400000000001
 20
-12.978910000000001
 30
0.0
 10
-0.33955
 20
-13.313000000000001
 30
0.0
 10
0.10702
 20
-13.574320000000002
 30
0.0
 10
0.4873900000000001
 20
-13.41225
 30
0.0
  0
SPLINE
  5
93
100
AcDbEntity
  8
Ebene 1
 62
     7
100
AcDbSpline
210
0.0
220
0.0
230
1.0
 70
     1
 71
     3
 72
    20
 73
    16
 74
     0
 42
0.0000000001
 43
0.0000000001
 40
0.0
 40
0.0
 40
0.0
 40
0.0
 40
0.25
 40
0.25
 40
0.25
 40
0.25
 40
0.5
 40
0.5
 40
0.5
 40
0.5
 40
0.75
 40
0.75
 40
0.75
 40
0.75
 40
1.0
 40
1.0
 40
1.0
 40
1.0
 10
1.9428600000000003
 20
1.6353400000000002
 30
0.0
 10
1.9527900000000002
 20
1.6750400000000001
 30
0.0
 10
1.9395600000000002
 20
1.7610400000000002
 30
0.0
 10
1.9990900000000003
 20
1.7312700000000001
 30
0.0
 10
1.9990900000000003
 20
1.7312700000000001
 30
0.0
 10
2.2075
 20
1.23509
 30
0.0
 10
3.0212400000000001
 20
1.5592700000000002
 30
0.0
 10
2.8525300000000002
 20
2.07199
 30
0.0
 10
2.8525300000000002
 20
2.07199
 30
0.0
 10
2.8525300000000002
 20
2.0918400000000004
 30
0.0
 10
2.8657700000000004
 20
2.15137
 30
0.0
 10
2.9021600000000003
 20
2.1480800000000002
 30
0.0
 10
2.9021600000000003
 20
2.1480800000000002
 30
0.0
 10
3.3156400000000001
 20
1.5328000000000002
 30
0.0
 10
2.1347200000000002
 20
0.9539200000000001
 30
0.0
 10
1.9428600000000003
 20
1.6353400000000002
 30
0.0
  0
SPLINE
  5
94
100
AcDbEntity
  8
Ebene 1
 62
    21
100
AcDbSpline
210
0.0
220
0.0
230
1.0
 70
     1
 71
     3
 72
   140
 73
   136
 74
     0
 42
0.0000000001
 43
0.0000000001
 40
0.0
 40
0.0
 40
0.0
 40
0.0
 40
0.0294117647058824
 40
0.0294117647058824
 40
0.0294117647058824
 40
0.0294117647058824
 40
0.0588235294117647
 40
0.0588235294117647
 40
0.0588235294117647
 40
0.0588235294117647
 40
0.0882352941176471
 40
0.0882352941176471
 40
0.0882352941176471
 40
0.0882352941176471
 40
0.1176470588235294
 40
0.1176470588235294
 40
0.1176470588235294
 40
0.1176470588235294
 40
0.1470588235294118
 40
0.1470588235294118
 40
0.1470588235294118
 40
0.1470588235294118
 40
0.1764705882352941
 40
0.1764705882352941
 40
0.1764705882352941
 40
0.1764705882352941
 40
0.2058823529411765
 40
0.2058823529411765
 40
0.2058823529411765
 40
0.2058823529411765
 40
0.2352941176470589
 40
0.2352941176470589
 40
0.2352941176470589
 40
0.2352941176470589
 40
0.2647058823529412
 40
0.2647058823529412
 40
0.2647058823529412
 40
0.2647058823529412
 40
0.2941176470588235
 40
0.2941176470588235
 40
0.2941176470588235
 40
0.2941176470588235
 40
0.3235294117647059
 40
0.3235294117647059
 40
0.3235294117647059
 40
0.3235294117647059
 40
0.3529411764705883
 40
0.3529411764705883
 40
0.3529411764705883
 40
0.3529411764705883
 40
0.3823529411764706
 40
0.3823529411764706
 40
0.3823529411764706
 40
0.3823529411764706
 40
0.411764705882353
 40
0.411764705882353
 40
0.411764705882353
 40
0.411764705882353
 40
0.4411764705882353
 40
0.4411764705882353
 40
0.4411764705882353
 40
0.4411764705882353
 40
0.4705882352941177
 40
0.4705882352941177
 40
0.4705882352941177
 40
0.4705882352941177
 40
0.5
 40
0.5
 40
0.5
 40
0.5
 40
0.5294117647058824
 40
0.5294117647058824
 40
0.5294117647058824
 40
0.5294117647058824
 40
0.5588235294117647
 40
0.5588235294117647
 40
0.5588235294117647
 40
0.5588235294117647
 40
0.5882352941176471
 40
0.5882352941176471
 40
0.5882352941176471
 40
0.5882352941176471
 40
0.6176470588235294
 40
0.6176470588235294
 40
0.6176470588235294
 40
0.6176470588235294
 40
0.6470588235294118
 40
0.6470588235294118
 40
0.6470588235294118
 40
0.6470588235294118
 40
0.6764705882352942
 40
0.6764705882352942
 40
0.6764705882352942
 40
0.6764705882352942
 40
0.7058823529411765
 40
0.7058823529411765
 40
0.7058823529411765
 40
0.7058823529411765
 40
0.7352941176470589
 40
0.7352941176470589
 40
0.7352941176470589
 40
0.7352941176470589
 40
0.7647058823529412
 40
0.7647058823529412
 40
0.7647058823529412
 40
0.7647058823529412
 40
0.7941176470588236
 40
0.7941176470588236
 40
0.7941176470588236
 40
0.7941176470588236
 40
0.823529411764706
 40
0.823529411764706
 40
0.823529411764706
 40
0.823529411764706
 40
0.8529411764705883
 40
0.8529411764705883
 40
0.8529411764705883
 40
0.8529411764705883
 40
0.8823529411764707
 40
0.8823529411764707
 40
0.8823529411764707
 40
0.8823529411764707
 40
0.911764705882353
 40
0.911764705882353
 40
0.911764705882353
 40
0.911764705882353
 40
0.9411764705882354
 40
0.9411764705882354
 40
0.9411764705882354
 40
0.9411764705882354
 40
0.9705882352941178
 40
0.9705882352941178
 40
0.9705882352941178
 40
0.9705882352941178
 40
1.0
 40
1.0
 40
1.0
 40
1.0
 10
5.7237800000000005
 20
1.02668
 30
0.0
 10
5.5484600000000004
 20
0.82491
 30
0.0
 10
5.3996200000000005
 20
0.57682
 30
0.0
 10
5.4327000000000005
 20
0.2989500000000001
 30
0.0
 10
5.4327000000000005
 20
0.2989500000000001
 30
0.0
 10
5.6212400000000002
 20
-0.08807
 30
0.0
 10
5.5517700000000003
 20
-0.3626200000000001
 30
0.0
 10
6.0281100000000007
 20
-0.11784
 30
0.0
 10
6.0281100000000007
 20
-0.11784
 30
0.0
 10
5.9123400000000004
 20
-0.2964500000000001
 30
0.0
 10
5.7932400000000008
 20
-0.4585300000000001
 30
0.0
 10
5.7734000000000005
 20
-0.67686
 30
0.0
 10
5.7734000000000005
 20
-0.67686
 30
0.0
 10
5.8594100000000005
 20
-0.74302
 30
0.0
 10
5.9421000000000008
 20
-0.5147700000000001
 30
0.0
 10
6.0545800000000005
 20
-0.5809200000000001
 30
0.0
 10
6.0545800000000005
 20
-0.5809200000000001
 30
0.0
 10
6.0545800000000005
 20
-0.5809200000000001
 30
0.0
 10
5.7932400000000008
 20
-1.18296
 30
0.0
 10
5.7932400000000008
 20
-1.18296
 30
0.0
 10
5.7932400000000008
 20
-1.18296
 30
0.0
 10
5.9586400000000008
 20
-3.3231700000000002
 30
0.0
 10
4.7082600000000001
 20
-4.7191000000000001
 30
0.0
 10
2.7433800000000002
 20
-5.67178
 30
0.0
 10
2.7433800000000002
 20
-5.67178
 30
0.0
 10
2.4886700000000004
 20
-5.9331000000000005
 30
0.0
 10
2.2604300000000004
 20
-6.2407300000000001
 30
0.0
 10
2.1115600000000003
 20
-6.5649100000000002
 30
0.0
 10
2.1115600000000003
 20
-6.5649100000000002
 30
0.0
 10
2.7996000000000003
 20
-5.9364100000000004
 30
0.0
 10
3.7225100000000002
 20
-5.7313100000000006
 30
0.0
 10
4.54617
 20
-5.1524300000000007
 30
0.0
 10
4.54617
 20
-5.1524300000000007
 30
0.0
 10
5.4062200000000002
 20
-4.6794100000000007
 30
0.0
 10
5.7072400000000005
 20
-3.6705000000000001
 30
0.0
 10
5.8461800000000004
 20
-2.7641400000000003
 30
0.0
 10
5.8461800000000004
 20
-2.7641400000000003
 30
0.0
 10
6.4779900000000001
 20
-4.1269900000000002
 30
0.0
 10
5.3367600000000008
 20
-5.7280100000000003
 30
0.0
 10
3.9242900000000005
 20
-6.1183400000000008
 30
0.0
 10
3.9242900000000005
 20
-6.1183400000000008
 30
0.0
 10
2.7731500000000002
 20
-6.3895800000000005
 30
0.0
 10
1.7840800000000001
 20
-7.1537200000000007
 30
0.0
 10
0.8678
 20
-7.8682200000000009
 30
0.0
 10
0.8678
 20
-7.8682200000000009
 30
0.0
 10
0.9571100000000001
 20
-7.7392000000000003
 30
0.0
 10
0.9471800000000001
 20
-7.5407400000000004
 30
0.0
 10
1.1026600000000002
 20
-7.4547300000000005
 30
0.0
 10
1.1026600000000002
 20
-7.4547300000000005
 30
0.0
 10
1.2349700000000001
 20
-7.2529500000000002
 30
0.0
 10
2.1512700000000002
 20
-6.8163100000000005
 30
0.0
 10
1.6683100000000002
 20
-6.9089300000000007
 30
0.0
 10
1.6683100000000002
 20
-6.9089300000000007
 30
0.0
 10
1.3805200000000002
 20
-6.8824600000000009
 30
0.0
 10
1.08613
 20
-7.2165600000000003
 30
0.0
 10
1.0828200000000001
 20
-7.0114800000000006
 30
0.0
 10
1.0828200000000001
 20
-7.0114800000000006
 30
0.0
 10
1.0828200000000001
 20
-7.0114800000000006
 30
0.0
 10
0.67264
 20
-6.5252100000000004
 30
0.0
 10
0.67264
 20
-6.5252100000000004
 30
0.0
 10
0.67264
 20
-6.5252100000000004
 30
0.0
 10
1.00342
 20
-6.6806800000000006
 30
0.0
 10
1.4036900000000001
 20
-6.8096900000000007
 30
0.0
 10
1.7708600000000001
 20
-6.6773700000000007
 30
0.0
 10
1.7708600000000001
 20
-6.6773700000000007
 30
0.0
 10
1.62199
 20
-6.5814500000000002
 30
0.0
 10
1.25482
 20
-6.6839900000000005
 30
0.0
 10
1.0960500000000002
 20
-6.4888300000000001
 30
0.0
 10
1.0960500000000002
 20
-6.4888300000000001
 30
0.0
 10
1.4367500000000002
 20
-6.5781400000000003
 30
0.0
 10
1.7642400000000003
 20
-6.4524300000000006
 30
0.0
 10
2.0321700000000003
 20
-6.2374200000000002
 30
0.0
 10
2.0321700000000003
 20
-6.2374200000000002
 30
0.0
 10
2.7466700000000004
 20
-5.4468400000000008
 30
0.0
 10
3.6497400000000004
 20
-4.0773600000000005
 30
0.0
 10
4.2650000000000006
 20
-3.6506500000000002
 30
0.0
 10
4.2650000000000006
 20
-3.6506500000000002
 30
0.0
 10
4.2650000000000006
 20
-3.6506500000000002
 30
0.0
 10
3.5207300000000004
 20
-4.9109500000000006
 30
0.0
 10
3.5207300000000004
 20
-4.9109500000000006
 30
0.0
 10
3.5207300000000004
 20
-4.9109500000000006
 30
0.0
 10
4.1922300000000003
 20
-4.5603199999999999
 30
0.0
 10
4.2980800000000006
 20
-3.7234200000000004
 30
0.0
 10
4.9332100000000008
 20
-3.3264800000000001
 30
0.0
 10
4.9332100000000008
 20
-3.3264800000000001
 30
0.0
 10
4.9662800000000002
 20
-3.0783800000000001
 30
0.0
 10
4.6884200000000007
 20
-3.3231700000000002
 30
0.0
 10
4.6123400000000006
 20
-3.3926400000000001
 30
0.0
 10
4.6123400000000006
 20
-3.3926400000000001
 30
0.0
 10
4.7744200000000001
 20
-2.8005200000000001
 30
0.0
 10
5.0952900000000003
 20
-2.2084100000000002
 30
0.0
 10
5.3599200000000007
 20
-1.6361400000000001
 30
0.0
 10
5.3599200000000007
 20
-1.6361400000000001
 30
0.0
 10
5.3599200000000007
 20
-1.6361400000000001
 30
0.0
 10
5.2110600000000007
 20
-1.3649
 30
0.0
 10
5.2110600000000007
 20
-1.3649
 30
0.0
 10
5.2110600000000007
 20
-1.3649
 30
0.0
 10
4.3907100000000003
 20
-0.8157800000000001
 30
0.0
 10
3.4148800000000001
 20
-0.75295
 30
0.0
 10
2.4357500000000001
 20
-0.6867800000000001
 30
0.0
 10
2.4357500000000001
 20
-0.6867800000000001
 30
0.0
 10
2.35304
 20
-0.67686
 30
0.0
 10
2.2637400000000003
 20
-0.64378
 30
0.0
 10
2.2008800000000002
 20
-0.6107
 30
0.0
 10
2.2008800000000002
 20
-0.6107
 30
0.0
 10
2.9120700000000004
 20
-0.6735500000000001
 30
0.0
 10
3.5868800000000003
 20
-0.54454
 30
0.0
 10
4.2848500000000005
 20
-0.7066300000000001
 30
0.0
 10
4.2848500000000005
 20
-0.7066300000000001
 30
0.0
 10
4.2848500000000005
 20
-0.7066300000000001
 30
0.0
 10
4.7909600000000001
 20
-0.9117200000000001
 30
0.0
 10
4.7909600000000001
 20
-0.9117200000000001
 30
0.0
 10
4.7909600000000001
 20
-0.9117200000000001
 30
0.0
 10
4.7909600000000001
 20
-0.9117200000000001
 30
0.0
 10
5.2507600000000005
 20
-1.25573
 30
0.0
 10
5.2507600000000005
 20
-1.25573
 30
0.0
 10
5.2507600000000005
 20
-1.25573
 30
0.0
 10
5.4922300000000002
 20
-0.7463200000000001
 30
0.0
 10
5.2706100000000005
 20
-0.4585300000000001
 30
0.0
 10
4.7578900000000006
 20
-0.5908500000000001
 30
0.0
 10
4.7578900000000006
 20
-0.5908500000000001
 30
0.0
 10
4.7578900000000006
 20
-0.5908500000000001
 30
0.0
 10
4.9828200000000002
 20
-0.46516
 30
0.0
 10
4.9828200000000002
 20
-0.46516
 30
0.0
 10
4.9828200000000002
 20
-0.46516
 30
0.0
 10
4.5097900000000006
 20
-0.32622
 30
0.0
 10
4.04338
 20
-0.16745
 30
0.0
 10
3.5703500000000004
 20
-0.30969
 30
0.0
 10
3.5703500000000004
 20
-0.30969
 30
0.0
 10
3.2097800000000003
 20
-0.46846
 30
0.0
 10
2.8161600000000004
 20
-0.4850100000000001
 30
0.0
 10
2.4357500000000001
 20
-0.47176
 30
0.0
 10
2.4357500000000001
 20
-0.47176
 30
0.0
 10
3.6133600000000001
 20
-0.25014
 30
0.0
 10
4.6586400000000001
 20
0.53381
 30
0.0
 10
5.7237800000000005
 20
1.02668
 30
0.0
  0
SPLINE
  5
95
100
AcDbEntity
  8
Ebene 1
 62
     7
100
AcDbSpline
210
0.0
220
0.0
230
1.0
 70
     1
 71
     3
 72
    36
 73
    32
 74
     0
 42
0.0000000001
 43
0.0000000001
 40
0.0
 40
0.0
 40
0.0
 40
0.0
 40
0.125
 40
0.125
 40
0.125
 40
0.125
 40
0.25
 40
0.25
 40
0.25
 40
0.25
 40
0.375
 40
0.375
 40
0.375
 40
0.375
 40
0.5
 40
0.5
 40
0.5
 40
0.5
 40
0.625
 40
0.625
 40
0.625
 40
0.625
 40
0.75
 40
0.75
 40
0.75
 40
0.75
 40
0.875
 40
0.875
 40
0.875
 40
0.875
 40
1.0
 40
1.0
 40
1.0
 40
1.0
 10
1.3110600000000001
 20
-2.9129900000000002
 30
0.0
 10
1.2746700000000002
 20
-2.7707600000000001
 30
0.0
 10
1.5128400000000002
 20
-2.5127300000000004
 30
0.0
 10
1.5029100000000002
 20
-2.7773700000000003
 30
0.0
 10
1.5029100000000002
 20
-2.7773700000000003
 30
0.0
 10
1.5227600000000001
 20
-2.8170700000000002
 30
0.0
 10
1.50953
 20
-2.8600800000000004
 30
0.0
 10
1.5029100000000002
 20
-2.9030600000000004
 30
0.0
 10
1.5029100000000002
 20
-2.9030600000000004
 30
0.0
 10
1.4830700000000001
 20
-2.9559900000000003
 30
0.0
 10
1.5161500000000001
 20
-3.0750700000000002
 30
0.0
 10
1.5889200000000001
 20
-3.0254600000000003
 30
0.0
 10
1.5889200000000001
 20
-3.0254600000000003
 30
0.0
 10
1.5889200000000001
 20
-3.0254600000000003
 30
0.0
 10
1.6550800000000001
 20
-2.7409800000000004
 30
0.0
 10
1.6550800000000001
 20
-2.7409800000000004
 30
0.0
 10
1.6550800000000001
 20
-2.7409800000000004
 30
0.0
 10
1.6550800000000001
 20
-2.7409800000000004
 30
0.0
 10
1.73116
 20
-2.5491300000000003
 30
0.0
 10
1.73116
 20
-2.5491300000000003
 30
0.0
 10
1.73116
 20
-2.5491300000000003
 30
0.0
 10
1.8138600000000002
 20
-2.9229100000000003
 30
0.0
 10
1.69147
 20
-3.3827100000000003
 30
0.0
 10
1.4367500000000002
 20
-3.6705000000000001
 30
0.0
 10
1.4367500000000002
 20
-3.6705000000000001
 30
0.0
 10
1.4268200000000002
 20
-3.5448000000000004
 30
0.0
 10
1.4334500000000001
 20
-3.3959400000000004
 30
0.0
 10
1.4003700000000001
 20
-3.2636300000000005
 30
0.0
 10
1.4003700000000001
 20
-3.2636300000000005
 30
0.0
 10
1.3474400000000002
 20
-3.1544700000000003
 30
0.0
 10
1.3110600000000001
 20
-3.0221500000000003
 30
0.0
 10
1.3110600000000001
 20
-2.9129900000000002
 30
0.0
  0
SPLINE
  5
96
100
AcDbEntity
  8
Ebene 1
 62
     7
100
AcDbSpline
210
0.0
220
0.0
230
1.0
 70
     1
 71
     3
 72
    12
 73
     8
 74
     0
 42
0.0000000001
 43
0.0000000001
 40
0.0
 40
0.0
 40
0.0
 40
0.0
 40
0.5
 40
0.5
 40
0.5
 40
0.5
 40
1.0
 40
1.0
 40
1.0
 40
1.0
 10
2.2108000000000003
 20
1.8635800000000002
 30
0.0
 10
2.2438900000000004
 20
1.8999700000000002
 30
0.0
 10
2.3166600000000002
 20
1.9297500000000001
 30
0.0
 10
2.3596600000000003
 20
1.9231300000000002
 30
0.0
 10
2.3596600000000003
 20
1.9231300000000002
 30
0.0
 10
2.3563500000000004
 20
1.8371300000000002
 30
0.0
 10
2.2471800000000002
 20
1.7742700000000002
 30
0.0
 10
2.2108000000000003
 20
1.8635800000000002
 30
0.0
  0
SPLINE
  5
97
100
AcDbEntity
  8
Ebene 1
 62
     7
100
AcDbSpline
210
0.0
220
0.0
230
1.0
 70
     1
 71
     3
 72
    20
 73
    16
 74
     0
 42
0.0000000001
 43
0.0000000001
 40
0.0
 40
0.0
 40
0.0
 40
0.0
 40
0.25
 40
0.25
 40
0.25
 40
0.25
 40
0.5
 40
0.5
 40
0.5
 40
0.5
 40
0.75
 40
0.75
 40
0.75
 40
0.75
 40
1.0
 40
1.0
 40
1.0
 40
1.0
 10
1.1456600000000001
 20
-5.0465900000000001
 30
0.0
 10
1.1952800000000001
 20
-4.7621100000000007
 30
0.0
 10
1.2184400000000002
 20
-4.4346300000000003
 30
0.0
 10
1.42022
 20
-4.2361500000000003
 30
0.0
 10
1.42022
 20
-4.2361500000000003
 30
0.0
 10
1.42022
 20
-4.2361500000000003
 30
0.0
 10
1.4731500000000002
 20
-4.2857700000000003
 30
0.0
 10
1.4731500000000002
 20
-4.2857700000000003
 30
0.0
 10
1.4731500000000002
 20
-4.2857700000000003
 30
0.0
 10
1.4533
 20
-4.57355
 30
0.0
 10
1.4235300000000002
 20
-4.8811900000000001
 30
0.0
 10
1.1919700000000002
 20
-5.0895900000000003
 30
0.0
 10
1.1919700000000002
 20
-5.0895900000000003
 30
0.0
 10
1.1919700000000002
 20
-5.0895900000000003
 30
0.0
 10
1.1456600000000001
 20
-5.0465900000000001
 30
0.0
 10
1.1456600000000001
 20
-5.0465900000000001
 30
0.0
  0
SPLINE
  5
98
100
AcDbEntity
  8
Ebene 1
 62
     0
100
AcDbSpline
210
0.0
220
0.0
230
1.0
 70
     1
 71
     3
 72
    28
 73
    24
 74
     0
 42
0.0000000001
 43
0.0000000001
 40
0.0
 40
0.0
 40
0.0
 40
0.0
 40
0.1666666666666667
 40
0.1666666666666667
 40
0.1666666666666667
 40
0.1666666666666667
 40
0.3333333333333333
 40
0.3333333333333333
 40
0.3333333333333333
 40
0.3333333333333333
 40
0.5
 40
0.5
 40
0.5
 40
0.5
 40
0.6666666666666666
 40
0.6666666666666666
 40
0.6666666666666666
 40
0.6666666666666666
 40
0.8333333333333333
 40
0.8333333333333333
 40
0.8333333333333333
 40
0.8333333333333333
 40
1.0
 40
1.0
 40
1.0
 40
1.0
 10
-0.04185
 20
-12.317330000000002
 30
0.0
 10
0.05409
 20
-12.274320000000001
 30
0.0
 10
0.16324
 20
-12.175090000000001
 30
0.0
 10
0.26909
 20
-12.181710000000001
 30
0.0
 10
0.26909
 20
-12.181710000000001
 30
0.0
 10
0.21617
 20
-12.274320000000001
 30
0.0
 10
0.24926
 20
-12.393410000000001
 30
0.0
 10
0.35838
 20
-12.426490000000001
 30
0.0
 10
0.35838
 20
-12.426490000000001
 30
0.0
 10
0.35838
 20
-12.426490000000001
 30
0.0
 10
0.50724
 20
-12.40995
 30
0.0
 10
0.50724
 20
-12.40995
 30
0.0
 10
0.50724
 20
-12.40995
 30
0.0
 10
0.7586400000000001
 20
-12.247870000000001
 30
0.0
 10
0.8942500000000001
 20
-12.664650000000002
 30
0.0
 10
0.76856
 20
-12.823440000000002
 30
0.0
 10
0.76856
 20
-12.823440000000002
 30
0.0
 10
0.7652600000000001
 20
-12.624970000000001
 30
0.0
 10
0.44769
 20
-12.502580000000002
 30
0.0
 10
0.32201
 20
-12.558800000000002
 30
0.0
 10
0.32201
 20
-12.558800000000002
 30
0.0
 10
0.32201
 20
-12.558800000000002
 30
0.0
 10
-0.04185
 20
-12.317330000000002
 30
0.0
 10
-0.04185
 20
-12.317330000000002
 30
0.0
  0
SPLINE
  5
99
100
AcDbEntity
  8
Ebene 1
 62
     7
100
AcDbSpline
210
0.0
220
0.0
230
1.0
 70
     1
 71
     3
 72
    32
 73
    28
 74
     0
 42
0.0000000001
 43
0.0000000001
 40
0.0
 40
0.0
 40
0.0
 40
0.0
 40
0.1428571428571429
 40
0.1428571428571429
 40
0.1428571428571429
 40
0.1428571428571429
 40
0.2857142857142857
 40
0.2857142857142857
 40
0.2857142857142857
 40
0.2857142857142857
 40
0.4285714285714286
 40
0.4285714285714286
 40
0.4285714285714286
 40
0.4285714285714286
 40
0.5714285714285714
 40
0.5714285714285714
 40
0.5714285714285714
 40
0.5714285714285714
 40
0.7142857142857142
 40
0.7142857142857142
 40
0.7142857142857142
 40
0.7142857142857142
 40
0.857142857142857
 40
0.857142857142857
 40
0.857142857142857
 40
0.857142857142857
 40
1.0
 40
1.0
 40
1.0
 40
1.0
 10
2.48536
 20
2.38293
 30
0.0
 10
2.6342100000000004
 20
2.6111700000000004
 30
0.0
 10
2.9550800000000002
 20
2.6409400000000001
 30
0.0
 10
3.0774700000000004
 20
2.8923500000000004
 30
0.0
 10
3.0774700000000004
 20
2.8923500000000004
 30
0.0
 10
3.6100400000000001
 20
3.0345900000000001
 30
0.0
 10
3.8912100000000005
 20
3.5969200000000003
 30
0.0
 10
4.1260700000000003
 20
4.0401800000000003
 30
0.0
 10
4.1260700000000003
 20
4.0401800000000003
 30
0.0
 10
4.1029200000000001
 20
4.1063400000000003
 30
0.0
 10
4.07315
 20
4.1758000000000006
 30
0.0
 10
4.02684
 20
4.2452800000000002
 30
0.0
 10
4.02684
 20
4.2452800000000002
 30
0.0
 10
3.9573700000000005
 20
4.3213600000000003
 30
0.0
 10
3.8482200000000004
 20
4.2750400000000006
 30
0.0
 10
3.7688200000000003
 20
4.2684300000000004
 30
0.0
 10
3.7688200000000003
 20
4.2684300000000004
 30
0.0
 10
3.7655100000000004
 20
4.3941300000000005
 30
0.0
 10
3.8581400000000001
 20
4.4834400000000008
 30
0.0
 10
3.9606800000000004
 20
4.5297499999999999
 30
0.0
 10
3.9606800000000004
 20
4.5297499999999999
 30
0.0
 10
4.0665200000000006
 20
4.5330600000000008
 30
0.0
 10
4.1492300000000002
 20
4.4768300000000005
 30
0.0
 10
4.1988400000000006
 20
4.3842000000000008
 30
0.0
 10
4.1988400000000006
 20
4.3842000000000008
 30
0.0
 10
4.4370200000000004
 20
3.2959000000000001
 30
0.0
 10
3.3917200000000003
 20
2.6111700000000004
 30
0.0
 10
2.48536
 20
2.38293
 30
0.0
  0
SPLINE
  5
9A
100
AcDbEntity
  8
Ebene 1
 62
     0
100
AcDbSpline
210
0.0
220
0.0
230
1.0
 70
     1
 71
     3
 72
    20
 73
    16
 74
     0
 42
0.0000000001
 43
0.0000000001
 40
0.0
 40
0.0
 40
0.0
 40
0.0
 40
0.25
 40
0.25
 40
0.25
 40
0.25
 40
0.5
 40
0.5
 40
0.5
 40
0.5
 40
0.75
 40
0.75
 40
0.75
 40
0.75
 40
1.0
 40
1.0
 40
1.0
 40
1.0
 10
-0.07823
 20
-13.296460000000002
 30
0.0
 10
-0.01208
 20
-13.233620000000002
 30
0.0
 10
0.07063
 20
-13.134380000000002
 30
0.0
 10
0.16655
 20
-13.084760000000001
 30
0.0
 10
0.16655
 20
-13.084760000000001
 30
0.0
 10
0.18309
 20
-13.16084
 30
0.0
 10
0.26909
 20
-13.18069
 30
0.0
 10
0.3021700000000001
 20
-13.111220000000001
 30
0.0
 10
0.3021700000000001
 20
-13.111220000000001
 30
0.0
 10
0.32531
 20
-13.200530000000001
 30
0.0
 10
0.4774700000000001
 20
-13.1873
 30
0.0
 10
0.5535500000000001
 20
-13.217080000000001
 30
0.0
 10
0.5535500000000001
 20
-13.217080000000001
 30
0.0
 10
0.4278400000000001
 20
-13.425470000000001
 30
0.0
 10
0.11362
 20
-13.418850000000001
 30
0.0
 10
-0.07823
 20
-13.296460000000002
 30
0.0
  0
SPLINE
  5
9B
100
AcDbEntity
  8
Ebene 1
 62
     7
100
AcDbSpline
210
0.0
220
0.0
230
1.0
 70
     1
 71
     3
 72
    20
 73
    16
 74
     0
 42
0.0000000001
 43
0.0000000001
 40
0.0
 40
0.0
 40
0.0
 40
0.0
 40
0.25
 40
0.25
 40
0.25
 40
0.25
 40
0.5
 40
0.5
 40
0.5
 40
0.5
 40
0.75
 40
0.75
 40
0.75
 40
0.75
 40
1.0
 40
1.0
 40
1.0
 40
1.0
 10
1.5624600000000002
 20
-4.4247100000000001
 30
0.0
 10
1.5624600000000002
 20
-4.4247100000000001
 30
0.0
 10
1.6451500000000001
 20
-4.1369199999999999
 30
0.0
 10
1.6451500000000001
 20
-4.1369199999999999
 30
0.0
 10
1.6451500000000001
 20
-4.1369199999999999
 30
0.0
 10
1.6484700000000001
 20
-4.0112100000000002
 30
0.0
 10
1.8436300000000001
 20
-3.9119900000000003
 30
0.0
 10
1.8502500000000002
 20
-4.0939100000000002
 30
0.0
 10
1.8502500000000002
 20
-4.0939100000000002
 30
0.0
 10
1.7873900000000003
 20
-4.2427600000000005
 30
0.0
 10
1.7013900000000002
 20
-4.4048500000000006
 30
0.0
 10
1.57569
 20
-4.5040900000000006
 30
0.0
 10
1.57569
 20
-4.5040900000000006
 30
0.0
 10
1.57569
 20
-4.5040900000000006
 30
0.0
 10
1.5624600000000002
 20
-4.4247100000000001
 30
0.0
 10
1.5624600000000002
 20
-4.4247100000000001
 30
0.0
  0
SPLINE
  5
9C
100
AcDbEntity
  8
Ebene 1
 62
     7
100
AcDbSpline
210
0.0
220
0.0
230
1.0
 70
     1
 71
     3
 72
    16
 73
    12
 74
     0
 42
0.0000000001
 43
0.0000000001
 40
0.0
 40
0.0
 40
0.0
 40
0.0
 40
0.3333333333333333
 40
0.3333333333333333
 40
0.3333333333333333
 40
0.3333333333333333
 40
0.6666666666666666
 40
0.6666666666666666
 40
0.6666666666666666
 40
0.6666666666666666
 40
1.0
 40
1.0
 40
1.0
 40
1.0
 10
1.9329400000000001
 20
-2.3241900000000002
 30
0.0
 10
1.9561000000000002
 20
-2.0264800000000003
 30
0.0
 10
2.3398100000000004
 20
-1.9140100000000002
 30
0.0
 10
2.5680500000000004
 20
-1.8677000000000001
 30
0.0
 10
2.5680500000000004
 20
-1.8677000000000001
 30
0.0
 10
2.6342100000000004
 20
-2.25142
 30
0.0
 10
2.5945200000000002
 20
-2.72113
 30
0.0
 10
2.2108000000000003
 20
-2.9163000000000001
 30
0.0
 10
2.2108000000000003
 20
-2.9163000000000001
 30
0.0
 10
1.9924900000000001
 20
-2.7972200000000003
 30
0.0
 10
2.0321700000000003
 20
-2.5127300000000004
 30
0.0
 10
1.9329400000000001
 20
-2.3241900000000002
 30
0.0
  0
SPLINE
  5
9D
100
AcDbEntity
  8
Ebene 1
 62
     0
100
AcDbSpline
210
0.0
220
0.0
230
1.0
 70
     1
 71
     3
 72
    20
 73
    16
 74
     0
 42
0.0000000001
 43
0.0000000001
 40
0.0
 40
0.0
 40
0.0
 40
0.0
 40
0.25
 40
0.25
 40
0.25
 40
0.25
 40
0.5
 40
0.5
 40
0.5
 40
0.5
 40
0.75
 40
0.75
 40
0.75
 40
0.75
 40
1.0
 40
1.0
 40
1.0
 40
1.0
 10
0.33856
 20
-12.29748
 30
0.0
 10
0.41793
 20
-11.996460000000001
 30
0.0
 10
0.8909600000000001
 20
-11.966690000000002
 30
0.0
 10
1.0067300000000001
 20
-12.2644
 30
0.0
 10
1.0067300000000001
 20
-12.2644
 30
0.0
 10
1.2879
 20
-12.750660000000002
 30
0.0
 10
1.1622000000000001
 20
-13.27993
 30
0.0
 10
0.87441
 20
-13.458550000000001
 30
0.0
 10
0.87441
 20
-13.458550000000001
 30
0.0
 10
1.1225100000000001
 20
-13.203840000000001
 30
0.0
 10
0.9670300000000001
 20
-12.039470000000001
 30
0.0
 10
0.45101
 20
-12.33056
 30
0.0
 10
0.45101
 20
-12.33056
 30
0.0
 10
0.40801
 20
-12.333870000000001
 30
0.0
 10
0.3650000000000001
 20
-12.327250000000001
 30
0.0
 10
0.33856
 20
-12.29748
 30
0.0
  0
SPLINE
  5
9E
100
AcDbEntity
  8
Ebene 1
 62
     0
100
AcDbSpline
210
0.0
220
0.0
230
1.0
 70
     1
 71
     3
 72
    16
 73
    12
 74
     0
 42
0.0000000001
 43
0.0000000001
 40
0.0
 40
0.0
 40
0.0
 40
0.0
 40
0.3333333333333333
 40
0.3333333333333333
 40
0.3333333333333333
 40
0.3333333333333333
 40
0.6666666666666666
 40
0.6666666666666666
 40
0.6666666666666666
 40
0.6666666666666666
 40
1.0
 40
1.0
 40
1.0
 40
1.0
 10
1.6385500000000002
 20
-7.878140000000001
 30
0.0
 10
1.5260800000000001
 20
-8.0236900000000002
 30
0.0
 10
1.3143600000000002
 20
-8.0666799999999999
 30
0.0
 10
1.1588900000000002
 20
-8.1460800000000013
 30
0.0
 10
1.1588900000000002
 20
-8.1460800000000013
 30
0.0
 10
1.1588900000000002
 20
-8.1460800000000013
 30
0.0
 10
1.16551
 20
-8.0964700000000001
 30
0.0
 10
1.16551
 20
-8.0964700000000001
 30
0.0
 10
1.16551
 20
-8.0964700000000001
 30
0.0
 10
1.16551
 20
-8.0964700000000001
 30
0.0
 10
1.6385500000000002
 20
-7.878140000000001
 30
0.0
 10
1.6385500000000002
 20
-7.878140000000001
 30
0.0
  0
SPLINE
  5
9F
100
AcDbEntity
  8
Ebene 1
 62
     7
100
AcDbSpline
210
0.0
220
0.0
230
1.0
 70
     1
 71
     3
 72
    20
 73
    16
 74
     0
 42
0.0000000001
 43
0.0000000001
 40
0.0
 40
0.0
 40
0.0
 40
0.0
 40
0.25
 40
0.25
 40
0.25
 40
0.25
 40
0.5
 40
0.5
 40
0.5
 40
0.5
 40
0.75
 40
0.75
 40
0.75
 40
0.75
 40
1.0
 40
1.0
 40
1.0
 40
1.0
 10
1.9759500000000001
 20
-3.5712700000000002
 30
0.0
 10
1.9924900000000001
 20
-3.4819600000000004
 30
0.0
 10
2.0421
 20
-3.3661700000000003
 30
0.0
 10
2.1512700000000002
 20
-3.3827100000000003
 30
0.0
 10
2.1512700000000002
 20
-3.3827100000000003
 30
0.0
 10
2.2438900000000004
 20
-3.3463200000000004
 30
0.0
 10
2.35304
 20
-3.4290300000000005
 30
0.0
 10
2.3596600000000003
 20
-3.5282600000000004
 30
0.0
 10
2.3596600000000003
 20
-3.5282600000000004
 30
0.0
 10
2.3596600000000003
 20
-3.5282600000000004
 30
0.0
 10
2.0321700000000003
 20
-3.8722900000000005
 30
0.0
 10
2.0321700000000003
 20
-3.8722900000000005
 30
0.0
 10
2.0321700000000003
 20
-3.8722900000000005
 30
0.0
 10
2.0321700000000003
 20
-3.8722900000000005
 30
0.0
 10
1.9759500000000001
 20
-3.5712700000000002
 30
0.0
 10
1.9759500000000001
 20
-3.5712700000000002
 30
0.0
  0
SPLINE
  5
A0
100
AcDbEntity
  8
Ebene 1
 62
     7
100
AcDbSpline
210
0.0
220
0.0
230
1.0
 70
     1
 71
     3
 72
    16
 73
    12
 74
     0
 42
0.0000000001
 43
0.0000000001
 40
0.0
 40
0.0
 40
0.0
 40
0.0
 40
0.3333333333333333
 40
0.3333333333333333
 40
0.3333333333333333
 40
0.3333333333333333
 40
0.6666666666666666
 40
0.6666666666666666
 40
0.6666666666666666
 40
0.6666666666666666
 40
1.0
 40
1.0
 40
1.0
 40
1.0
 10
2.8194500000000002
 20
1.36409
 30
0.0
 10
3.0510100000000002
 20
1.5989500000000001
 30
0.0
 10
3.1105500000000004
 20
1.9231300000000002
 30
0.0
 10
3.0080100000000001
 20
2.23407
 30
0.0
 10
3.0080100000000001
 20
2.23407
 30
0.0
 10
3.1568500000000004
 20
2.31345
 30
0.0
 10
3.3222500000000004
 20
2.4755500000000001
 30
0.0
 10
3.5108100000000002
 20
2.4027800000000004
 30
0.0
 10
3.5108100000000002
 20
2.4027800000000004
 30
0.0
 10
3.6563400000000001
 20
1.9595200000000002
 30
0.0
 10
3.2362500000000001
 20
1.4831900000000002
 30
0.0
 10
2.8194500000000002
 20
1.36409
 30
0.0
  0
SPLINE
  5
A1
100
AcDbEntity
  8
Ebene 1
 62
     7
100
AcDbSpline
210
0.0
220
0.0
230
1.0
 70
     1
 71
     3
 72
    12
 73
     8
 74
     0
 42
0.0000000001
 43
0.0000000001
 40
0.0
 40
0.0
 40
0.0
 40
0.0
 40
0.5
 40
0.5
 40
0.5
 40
0.5
 40
1.0
 40
1.0
 40
1.0
 40
1.0
 10
3.2428700000000004
 20
3.1404400000000003
 30
0.0
 10
3.2494800000000001
 20
3.2198200000000003
 30
0.0
 10
3.2726400000000004
 20
3.3025300000000004
 30
0.0
 10
3.3123400000000003
 20
3.3587600000000002
 30
0.0
 10
3.3123400000000003
 20
3.3587600000000002
 30
0.0
 10
3.3024100000000001
 20
3.2760500000000001
 30
0.0
 10
3.3123400000000003
 20
3.1702100000000004
 30
0.0
 10
3.2428700000000004
 20
3.1404400000000003
 30
0.0
  0
SPLINE
  5
A2
100
AcDbEntity
  8
Ebene 1
 62
     7
100
AcDbSpline
210
0.0
220
0.0
230
1.0
 70
     1
 71
     3
 72
    20
 73
    16
 74
     0
 42
0.0000000001
 43
0.0000000001
 40
0.0
 40
0.0
 40
0.0
 40
0.0
 40
0.25
 40
0.25
 40
0.25
 40
0.25
 40
0.5
 40
0.5
 40
0.5
 40
0.5
 40
0.75
 40
0.75
 40
0.75
 40
0.75
 40
1.0
 40
1.0
 40
1.0
 40
1.0
 10
2.66398
 20
-1.9636300000000002
 30
0.0
 10
2.7003700000000004
 20
-1.8412400000000002
 30
0.0
 10
2.7334500000000004
 20
-1.7056100000000001
 30
0.0
 10
2.8690800000000003
 20
-1.6460700000000001
 30
0.0
 10
2.8690800000000003
 20
-1.6460700000000001
 30
0.0
 10
2.9550800000000002
 20
-1.6030600000000002
 30
0.0
 10
3.0609400000000004
 20
-1.5733000000000001
 30
0.0
 10
3.1568500000000004
 20
-1.6096900000000001
 30
0.0
 10
3.1568500000000004
 20
-1.6096900000000001
 30
0.0
 10
3.1965500000000002
 20
-1.8974800000000001
 30
0.0
 10
3.0774700000000004
 20
-2.3572700000000002
 30
0.0
 10
2.7235300000000002
 20
-2.3738100000000002
 30
0.0
 10
2.7235300000000002
 20
-2.3738100000000002
 30
0.0
 10
2.7235300000000002
 20
-2.3738100000000002
 30
0.0
 10
2.66398
 20
-1.9636300000000002
 30
0.0
 10
2.66398
 20
-1.9636300000000002
 30
0.0
  0
SPLINE
  5
A3
100
AcDbEntity
  8
Ebene 1
 62
     7
100
AcDbSpline
210
0.0
220
0.0
230
1.0
 70
     1
 71
     3
 72
    16
 73
    12
 74
     0
 42
0.0000000001
 43
0.0000000001
 40
0.0
 40
0.0
 40
0.0
 40
0.0
 40
0.3333333333333333
 40
0.3333333333333333
 40
0.3333333333333333
 40
0.3333333333333333
 40
0.6666666666666666
 40
0.6666666666666666
 40
0.6666666666666666
 40
0.6666666666666666
 40
1.0
 40
1.0
 40
1.0
 40
1.0
 10
2.4754400000000003
 20
-3.3595600000000001
 30
0.0
 10
2.4754400000000003
 20
-3.2074000000000003
 30
0.0
 10
2.61768
 20
-3.0221500000000003
 30
0.0
 10
2.7830700000000004
 20
-3.1015400000000004
 30
0.0
 10
2.7830700000000004
 20
-3.1015400000000004
 30
0.0
 10
2.7334500000000004
 20
-3.2173200000000004
 30
0.0
 10
2.6077500000000002
 20
-3.3066300000000002
 30
0.0
 10
2.5118200000000002
 20
-3.3860200000000003
 30
0.0
 10
2.5118200000000002
 20
-3.3860200000000003
 30
0.0
 10
2.5118200000000002
 20
-3.3860200000000003
 30
0.0
 10
2.4754400000000003
 20
-3.3595600000000001
 30
0.0
 10
2.4754400000000003
 20
-3.3595600000000001
 30
0.0
  0
SPLINE
  5
A4
100
AcDbEntity
  8
Ebene 1
 62
    21
100
AcDbSpline
210
0.0
220
0.0
230
1.0
 70
     1
 71
     3
 72
    20
 73
    16
 74
     0
 42
0.0000000001
 43
0.0000000001
 40
0.0
 40
0.0
 40
0.0
 40
0.0
 40
0.25
 40
0.25
 40
0.25
 40
0.25
 40
0.5
 40
0.5
 40
0.5
 40
0.5
 40
0.75
 40
0.75
 40
0.75
 40
0.75
 40
1.0
 40
1.0
 40
1.0
 40
1.0
 10
3.5736600000000003
 20
2.4954000000000001
 30
0.0
 10
3.5736600000000003
 20
2.4954000000000001
 30
0.0
 10
3.7555900000000002
 20
2.6773300000000004
 30
0.0
 10
3.7555900000000002
 20
2.6773300000000004
 30
0.0
 10
3.7555900000000002
 20
2.6773300000000004
 30
0.0
 10
3.7555900000000002
 20
2.6773300000000004
 30
0.0
 10
3.8846000000000003
 20
2.7600300000000004
 30
0.0
 10
3.8846000000000003
 20
2.7600300000000004
 30
0.0
 10
3.8846000000000003
 20
2.7600300000000004
 30
0.0
 10
3.8548200000000001
 20
2.5979400000000004
 30
0.0
 10
3.7688200000000003
 20
2.46563
 30
0.0
 10
3.7092700000000005
 20
2.3267000000000002
 30
0.0
 10
3.7092700000000005
 20
2.3267000000000002
 30
0.0
 10
3.7092700000000005
 20
2.3267000000000002
 30
0.0
 10
3.5736600000000003
 20
2.4954000000000001
 30
0.0
 10
3.5736600000000003
 20
2.4954000000000001
 30
0.0
  0
SPLINE
  5
A5
100
AcDbEntity
  8
Ebene 1
 62
    31
100
AcDbSpline
210
0.0
220
0.0
230
1.0
 70
     1
 71
     3
 72
    16
 73
    12
 74
     0
 42
0.0000000001
 43
0.0000000001
 40
0.0
 40
0.0
 40
0.0
 40
0.0
 40
0.3333333333333333
 40
0.3333333333333333
 40
0.3333333333333333
 40
0.3333333333333333
 40
0.6666666666666666
 40
0.6666666666666666
 40
0.6666666666666666
 40
0.6666666666666666
 40
1.0
 40
1.0
 40
1.0
 40
1.0
 10
4.0533000000000001
 20
4.6190600000000002
 30
0.0
 10
4.2120800000000003
 20
4.6984300000000001
 30
0.0
 10
4.4105500000000006
 20
4.7480600000000006
 30
0.0
 10
4.58256
 20
4.8042899999999999
 30
0.0
 10
4.58256
 20
4.8042899999999999
 30
0.0
 10
4.58256
 20
4.8042899999999999
 30
0.0
 10
4.3080100000000003
 20
4.2618100000000005
 30
0.0
 10
4.3080100000000003
 20
4.2618100000000005
 30
0.0
 10
4.3080100000000003
 20
4.2618100000000005
 30
0.0
 10
4.2749300000000003
 20
4.4139699999999999
 30
0.0
 10
4.2087600000000007
 20
4.5496000000000008
 30
0.0
 10
4.0533000000000001
 20
4.6190600000000002
 30
0.0
  0
SPLINE
  5
A6
100
AcDbEntity
  8
Ebene 1
 62
     7
100
AcDbSpline
210
0.0
220
0.0
230
1.0
 70
     1
 71
     3
 72
    56
 73
    52
 74
     0
 42
0.0000000001
 43
0.0000000001
 40
0.0
 40
0.0
 40
0.0
 40
0.0
 40
0.0769230769230769
 40
0.0769230769230769
 40
0.0769230769230769
 40
0.0769230769230769
 40
0.1538461538461539
 40
0.1538461538461539
 40
0.1538461538461539
 40
0.1538461538461539
 40
0.2307692307692308
 40
0.2307692307692308
 40
0.2307692307692308
 40
0.2307692307692308
 40
0.3076923076923077
 40
0.3076923076923077
 40
0.3076923076923077
 40
0.3076923076923077
 40
0.3846153846153846
 40
0.3846153846153846
 40
0.3846153846153846
 40
0.3846153846153846
 40
0.4615384615384616
 40
0.4615384615384616
 40
0.4615384615384616
 40
0.4615384615384616
 40
0.5384615384615386
 40
0.5384615384615386
 40
0.5384615384615386
 40
0.5384615384615386
 40
0.6153846153846154
 40
0.6153846153846154
 40
0.6153846153846154
 40
0.6153846153846154
 40
0.6923076923076923
 40
0.6923076923076923
 40
0.6923076923076923
 40
0.6923076923076923
 40
0.7692307692307692
 40
0.7692307692307692
 40
0.7692307692307692
 40
0.7692307692307692
 40
0.846153846153846
 40
0.846153846153846
 40
0.846153846153846
 40
0.846153846153846
 40
0.9230769230769229
 40
0.9230769230769229
 40
0.9230769230769229
 40
0.9230769230769229
 40
1.0
 40
1.0
 40
1.0
 40
1.0
 10
3.9209900000000002
 20
3.0676700000000001
 30
0.0
 10
4.1194500000000005
 20
3.4976900000000004
 30
0.0
 10
4.8075000000000001
 20
3.5076100000000001
 30
0.0
 10
4.9530500000000002
 20
4.0104200000000008
 30
0.0
 10
4.9530500000000002
 20
4.0104200000000008
 30
0.0
 10
4.9067300000000005
 20
4.0765600000000006
 30
0.0
 10
4.8240400000000001
 20
4.1129600000000002
 30
0.0
 10
4.7512600000000003
 20
4.1460300000000005
 30
0.0
 10
4.7512600000000003
 20
4.1460300000000005
 30
0.0
 10
4.6751800000000001
 20
4.0732600000000003
 30
0.0
 10
4.6520300000000008
 20
4.03688
 30
0.0
 10
4.5891800000000007
 20
4.1526500000000004
 30
0.0
 10
4.5891800000000007
 20
4.1526500000000004
 30
0.0
 10
4.5891800000000007
 20
4.1526500000000004
 30
0.0
 10
4.52963
 20
3.9938700000000003
 30
0.0
 10
4.52963
 20
3.9938700000000003
 30
0.0
 10
4.52963
 20
3.9938700000000003
 30
0.0
 10
4.5031800000000004
 20
4.1890400000000003
 30
0.0
 10
4.4105500000000006
 20
3.9508600000000005
 30
0.0
 10
4.3444000000000003
 20
4.0666500000000001
 30
0.0
 10
4.3444000000000003
 20
4.0666500000000001
 30
0.0
 10
4.4204800000000004
 20
4.5363700000000007
 30
0.0
 10
4.8240400000000001
 20
5.016
 30
0.0
 10
5.3268400000000007
 20
5.1218600000000007
 30
0.0
 10
5.3268400000000007
 20
5.1218600000000007
 30
0.0
 10
5.3268400000000007
 20
5.1218600000000007
 30
0.0
 10
5.0820500000000006
 20
4.5330600000000008
 30
0.0
 10
5.0820500000000006
 20
4.5330600000000008
 30
0.0
 10
5.0820500000000006
 20
4.5330600000000008
 30
0.0
 10
4.9596600000000004
 20
4.6157500000000002
 30
0.0
 10
4.7909600000000001
 20
4.6025300000000007
 30
0.0
 10
4.6553400000000007
 20
4.5826800000000008
 30
0.0
 10
4.6553400000000007
 20
4.5826800000000008
 30
0.0
 10
4.62887
 20
4.5231300000000001
 30
0.0
 10
4.6818
 20
4.4735100000000001
 30
0.0
 10
4.7215000000000007
 20
4.4437500000000005
 30
0.0
 10
4.7215000000000007
 20
4.4437500000000005
 30
0.0
 10
4.8207300000000002
 20
4.4702100000000007
 30
0.0
 10
4.9332100000000008
 20
4.4735100000000001
 30
0.0
 10
5.0192000000000005
 20
4.4172800000000008
 30
0.0
 10
5.0192000000000005
 20
4.4172800000000008
 30
0.0
 10
5.1382900000000005
 20
3.8086200000000003
 30
0.0
 10
4.6884200000000007
 20
3.4216000000000002
 30
0.0
 10
4.1756900000000003
 20
3.1735100000000003
 30
0.0
 10
4.1756900000000003
 20
3.1735100000000003
 30
0.0
 10
4.15585
 20
3.21652
 30
0.0
 10
4.2418500000000003
 20
3.2859800000000003
 30
0.0
 10
4.1492300000000002
 20
3.2826800000000005
 30
0.0
 10
4.1492300000000002
 20
3.2826800000000005
 30
0.0
 10
4.0830700000000002
 20
3.2099000000000002
 30
0.0
 10
4.0069900000000001
 20
3.0941200000000002
 30
0.0
 10
3.9209900000000002
 20
3.0676700000000001
 30
0.0
  0
SPLINE
  5
A7
100
AcDbEntity
  8
Ebene 1
 62
     7
100
AcDbSpline
210
0.0
220
0.0
230
1.0
 70
     1
 71
     3
 72
    16
 73
    12
 74
     0
 42
0.0000000001
 43
0.0000000001
 40
0.0
 40
0.0
 40
0.0
 40
0.0
 40
0.3333333333333333
 40
0.3333333333333333
 40
0.3333333333333333
 40
0.3333333333333333
 40
0.6666666666666666
 40
0.6666666666666666
 40
0.6666666666666666
 40
0.6666666666666666
 40
1.0
 40
1.0
 40
1.0
 40
1.0
 10
3.2627100000000002
 20
-1.7684600000000001
 30
0.0
 10
3.3421000000000003
 20
-1.5964500000000001
 30
0.0
 10
3.5670300000000004
 20
-1.5534500000000002
 30
0.0
 10
3.7324300000000004
 20
-1.5600600000000002
 30
0.0
 10
3.7324300000000004
 20
-1.5600600000000002
 30
0.0
 10
3.7688200000000003
 20
-1.7453100000000001
 30
0.0
 10
3.7125900000000005
 20
-1.9537000000000002
 30
0.0
 10
3.5802800000000001
 20
-2.0893300000000004
 30
0.0
 10
3.5802800000000001
 20
-2.0893300000000004
 30
0.0
 10
3.3454100000000002
 20
-2.23488
 30
0.0
 10
3.2428700000000004
 20
-1.9470900000000002
 30
0.0
 10
3.2627100000000002
 20
-1.7684600000000001
 30
0.0
  0
SPLINE
  5
A8
100
AcDbEntity
  8
Ebene 1
 62
    31
100
AcDbSpline
210
0.0
220
0.0
230
1.0
 70
     1
 71
     3
 72
    24
 73
    20
 74
     0
 42
0.0000000001
 43
0.0000000001
 40
0.0
 40
0.0
 40
0.0
 40
0.0
 40
0.2
 40
0.2
 40
0.2
 40
0.2
 40
0.4
 40
0.4
 40
0.4
 40
0.4
 40
0.6000000000000001
 40
0.6000000000000001
 40
0.6000000000000001
 40
0.6000000000000001
 40
0.8
 40
0.8
 40
0.8
 40
0.8
 40
1.0
 40
1.0
 40
1.0
 40
1.0
 10
2.7830700000000004
 20
-4.7753300000000003
 30
0.0
 10
3.2362500000000001
 20
-3.6076500000000005
 30
0.0
 10
4.6189400000000003
 20
-3.0056100000000003
 30
0.0
 10
4.9596600000000004
 20
-1.7783800000000001
 30
0.0
 10
4.9596600000000004
 20
-1.7783800000000001
 30
0.0
 10
4.9596600000000004
 20
-1.7783800000000001
 30
0.0
 10
4.87697
 20
-1.38805
 30
0.0
 10
4.87697
 20
-1.38805
 30
0.0
 10
4.87697
 20
-1.38805
 30
0.0
 10
4.9662800000000002
 20
-1.4376700000000002
 30
0.0
 10
5.0853600000000005
 20
-1.4674500000000001
 30
0.0
 10
5.1118300000000003
 20
-1.5799100000000001
 30
0.0
 10
5.1118300000000003
 20
-1.5799100000000001
 30
0.0
 10
4.8736500000000005
 20
-2.9460700000000002
 30
0.0
 10
3.7555900000000002
 20
-3.8855100000000005
 30
0.0
 10
2.8459200000000004
 20
-4.8613400000000002
 30
0.0
 10
2.8459200000000004
 20
-4.8613400000000002
 30
0.0
 10
2.8459200000000004
 20
-4.8613400000000002
 30
0.0
 10
2.7830700000000004
 20
-4.7753300000000003
 30
0.0
 10
2.7830700000000004
 20
-4.7753300000000003
 30
0.0
  0
SPLINE
  5
A9
100
AcDbEntity
  8
Ebene 1
 62
     0
100
AcDbSpline
210
0.0
220
0.0
230
1.0
 70
     1
 71
     3
 72
    20
 73
    16
 74
     0
 42
0.0000000001
 43
0.0000000001
 40
0.0
 40
0.0
 40
0.0
 40
0.0
 40
0.25
 40
0.25
 40
0.25
 40
0.25
 40
0.5
 40
0.5
 40
0.5
 40
0.5
 40
0.75
 40
0.75
 40
0.75
 40
0.75
 40
1.0
 40
1.0
 40
1.0
 40
1.0
 10
2.9650000000000003
 20
-6.9618400000000005
 30
0.0
 10
3.4744200000000003
 20
-6.4789100000000008
 30
0.0
 10
4.05661
 20
-6.3333600000000008
 30
0.0
 10
4.6917200000000001
 20
-6.0356400000000008
 30
0.0
 10
4.6917200000000001
 20
-6.0356400000000008
 30
0.0
 10
4.6917200000000001
 20
-6.0356400000000008
 30
0.0
 10
2.7930000000000001
 20
-7.517570000000001
 30
0.0
 10
2.7930000000000001
 20
-7.517570000000001
 30
0.0
 10
2.7930000000000001
 20
-7.517570000000001
 30
0.0
 10
2.9980800000000003
 20
-7.2000200000000003
 30
0.0
 10
3.3685800000000001
 20
-6.9618400000000005
 30
0.0
 10
3.6728900000000002
 20
-6.7071400000000008
 30
0.0
 10
3.6728900000000002
 20
-6.7071400000000008
 30
0.0
 10
3.3950300000000002
 20
-6.8096900000000007
 30
0.0
 10
3.2263200000000003
 20
-6.8063800000000008
 30
0.0
 10
2.9650000000000003
 20
-6.9618400000000005
 30
0.0
  0
SPLINE
  5
AA
100
AcDbEntity
  8
Ebene 1
 62
     7
100
AcDbSpline
210
0.0
220
0.0
230
1.0
 70
     1
 71
     3
 72
    12
 73
     8
 74
     0
 42
0.0000000001
 43
0.0000000001
 40
0.0
 40
0.0
 40
0.0
 40
0.0
 40
0.5
 40
0.5
 40
0.5
 40
0.5
 40
1.0
 40
1.0
 40
1.0
 40
1.0
 10
3.7225100000000002
 20
-2.4135
 30
0.0
 10
3.7357500000000003
 20
-2.2183300000000004
 30
0.0
 10
3.9739100000000005
 20
-2.1290300000000002
 30
0.0
 10
4.1360000000000001
 20
-2.1488700000000001
 30
0.0
 10
4.1360000000000001
 20
-2.1488700000000001
 30
0.0
 10
4.0499900000000002
 20
-2.28118
 30
0.0
 10
3.8614400000000004
 20
-2.34734
 30
0.0
 10
3.7225100000000002
 20
-2.4135
 30
0.0
  0
SPLINE
  5
AB
100
AcDbEntity
  8
Ebene 1
 62
     7
100
AcDbSpline
210
0.0
220
0.0
230
1.0
 70
     1
 71
     3
 72
    16
 73
    12
 74
     0
 42
0.0000000001
 43
0.0000000001
 40
0.0
 40
0.0
 40
0.0
 40
0.0
 40
0.3333333333333333
 40
0.3333333333333333
 40
0.3333333333333333
 40
0.3333333333333333
 40
0.6666666666666666
 40
0.6666666666666666
 40
0.6666666666666666
 40
0.6666666666666666
 40
1.0
 40
1.0
 40
1.0
 40
1.0
 10
3.8316700000000004
 20
-1.7585300000000001
 30
0.0
 10
3.8151300000000004
 20
-1.4608300000000001
 30
0.0
 10
4.1690800000000001
 20
-1.4145200000000002
 30
0.0
 10
4.3410800000000007
 20
-1.5534500000000002
 30
0.0
 10
4.3410800000000007
 20
-1.5534500000000002
 30
0.0
 10
4.3543100000000008
 20
-1.6096900000000001
 30
0.0
 10
4.3179300000000005
 20
-1.6460700000000001
 30
0.0
 10
4.3047000000000004
 20
-1.6923800000000002
 30
0.0
 10
4.3047000000000004
 20
-1.6923800000000002
 30
0.0
 10
4.3873900000000008
 20
-2.0430100000000002
 30
0.0
 10
3.7688200000000003
 20
-2.1091800000000003
 30
0.0
 10
3.8316700000000004
 20
-1.7585300000000001
 30
0.0
  0
SPLINE
  5
AC
100
AcDbEntity
  8
Ebene 1
 62
     0
100
AcDbSpline
210
0.0
220
0.0
230
1.0
 70
     1
 71
     3
 72
    28
 73
    24
 74
     0
 42
0.0000000001
 43
0.0000000001
 40
0.0
 40
0.0
 40
0.0
 40
0.0
 40
0.1666666666666667
 40
0.1666666666666667
 40
0.1666666666666667
 40
0.1666666666666667
 40
0.3333333333333333
 40
0.3333333333333333
 40
0.3333333333333333
 40
0.3333333333333333
 40
0.5
 40
0.5
 40
0.5
 40
0.5
 40
0.6666666666666666
 40
0.6666666666666666
 40
0.6666666666666666
 40
0.6666666666666666
 40
0.8333333333333333
 40
0.8333333333333333
 40
0.8333333333333333
 40
0.8333333333333333
 40
1.0
 40
1.0
 40
1.0
 40
1.0
 10
2.7698400000000003
 20
-9.4063800000000004
 30
0.0
 10
2.8227600000000002
 20
-8.9432800000000015
 30
0.0
 10
3.0179300000000002
 20
-8.5463400000000007
 30
0.0
 10
3.1634800000000003
 20
-8.1229200000000006
 30
0.0
 10
3.1634800000000003
 20
-8.1229200000000006
 30
0.0
 10
3.4016500000000001
 20
-7.6697400000000009
 30
0.0
 10
3.6232800000000003
 20
-7.1603200000000005
 30
0.0
 10
4.0136000000000003
 20
-6.8063800000000008
 30
0.0
 10
4.0136000000000003
 20
-6.8063800000000008
 30
0.0
 10
3.3950300000000002
 20
-7.682970000000001
 30
0.0
 10
3.1502500000000002
 20
-8.9465800000000009
 30
0.0
 10
3.6662700000000004
 20
-9.9323399999999999
 30
0.0
 10
3.6662700000000004
 20
-9.9323399999999999
 30
0.0
 10
3.6530500000000004
 20
-10.021650000000001
 30
0.0
 10
3.5868800000000003
 20
-9.8761100000000006
 30
0.0
 10
3.5273500000000002
 20
-9.9158100000000005
 30
0.0
 10
3.5273500000000002
 20
-9.9158100000000005
 30
0.0
 10
3.4248000000000003
 20
-10.150670000000002
 30
0.0
 10
3.1006300000000002
 20
-10.130820000000002
 30
0.0
 10
2.9914700000000001
 20
-10.359060000000001
 30
0.0
 10
2.9914700000000001
 20
-10.359060000000001
 30
0.0
 10
2.7863700000000002
 20
-10.0845
 30
0.0
 10
2.7764500000000001
 20
-9.7206400000000013
 30
0.0
 10
2.7698400000000003
 20
-9.4063800000000004
 30
0.0
  0
SPLINE
  5
AD
100
AcDbEntity
  8
Ebene 1
 62
     0
100
AcDbSpline
210
0.0
220
0.0
230
1.0
 70
     1
 71
     3
 72
   104
 73
   100
 74
     0
 42
0.0000000001
 43
0.0000000001
 40
0.0
 40
0.0
 40
0.0
 40
0.0
 40
0.04
 40
0.04
 40
0.04
 40
0.04
 40
0.08
 40
0.08
 40
0.08
 40
0.08
 40
0.12
 40
0.12
 40
0.12
 40
0.12
 40
0.16
 40
0.16
 40
0.16
 40
0.16
 40
0.2
 40
0.2
 40
0.2
 40
0.2
 40
0.24
 40
0.24
 40
0.24
 40
0.24
 40
0.28
 40
0.28
 40
0.28
 40
0.28
 40
0.32
 40
0.32
 40
0.32
 40
0.32
 40
0.36
 40
0.36
 40
0.36
 40
0.36
 40
0.4
 40
0.4
 40
0.4
 40
0.4
 40
0.44
 40
0.44
 40
0.44
 40
0.44
 40
0.4799999999999999
 40
0.4799999999999999
 40
0.4799999999999999
 40
0.4799999999999999
 40
0.5199999999999999
 40
0.5199999999999999
 40
0.5199999999999999
 40
0.5199999999999999
 40
0.5599999999999999
 40
0.5599999999999999
 40
0.5599999999999999
 40
0.5599999999999999
 40
0.6
 40
0.6
 40
0.6
 40
0.6
 40
0.64
 40
0.64
 40
0.64
 40
0.64
 40
0.6800000000000001
 40
0.6800000000000001
 40
0.6800000000000001
 40
0.6800000000000001
 40
0.7200000000000001
 40
0.7200000000000001
 40
0.7200000000000001
 40
0.7200000000000001
 40
0.7600000000000001
 40
0.7600000000000001
 40
0.7600000000000001
 40
0.7600000000000001
 40
0.8000000000000002
 40
0.8000000000000002
 40
0.8000000000000002
 40
0.8000000000000002
 40
0.8400000000000002
 40
0.8400000000000002
 40
0.8400000000000002
 40
0.8400000000000002
 40
0.8800000000000002
 40
0.8800000000000002
 40
0.8800000000000002
 40
0.8800000000000002
 40
0.9200000000000003
 40
0.9200000000000003
 40
0.9200000000000003
 40
0.9200000000000003
 40
0.9600000000000003
 40
0.9600000000000003
 40
0.9600000000000003
 40
0.9600000000000003
 40
1.0
 40
1.0
 40
1.0
 40
1.0
 10
6.0645000000000007
 20
4.9763000000000002
 30
0.0
 10
6.0645000000000007
 20
4.9763000000000002
 30
0.0
 10
5.9355000000000002
 20
4.4536600000000002
 30
0.0
 10
5.9355000000000002
 20
4.4536600000000002
 30
0.0
 10
5.9355000000000002
 20
4.4536600000000002
 30
0.0
 10
5.9156500000000003
 20
4.3511200000000008
 30
0.0
 10
5.9189400000000001
 20
4.2452800000000002
 30
0.0
 10
5.9421000000000008
 20
4.1592700000000002
 30
0.0
 10
5.9421000000000008
 20
4.1592700000000002
 30
0.0
 10
5.9586400000000008
 20
4.0931000000000006
 30
0.0
 10
5.9652700000000003
 20
4.0071000000000003
 30
0.0
 10
6.0148800000000007
 20
3.9574900000000004
 30
0.0
 10
6.0148800000000007
 20
3.9574900000000004
 30
0.0
 10
6.0115700000000007
 20
4.3147400000000005
 30
0.0
 10
6.0578900000000004
 20
4.7480600000000006
 30
0.0
 10
6.2729000000000008
 20
5.0689300000000008
 30
0.0
 10
6.2729000000000008
 20
5.0689300000000008
 30
0.0
 10
6.3390500000000003
 20
4.9531400000000003
 30
0.0
 10
6.2762000000000002
 20
4.7745200000000008
 30
0.0
 10
6.3919800000000002
 20
4.6488200000000006
 30
0.0
 10
6.3919800000000002
 20
4.6488200000000006
 30
0.0
 10
6.5739100000000006
 20
4.5132099999999999
 30
0.0
 10
6.398600000000001
 20
4.90022
 30
0.0
 10
6.4945200000000005
 20
5.0093800000000002
 30
0.0
 10
6.4945200000000005
 20
5.0093800000000002
 30
0.0
 10
6.5838300000000007
 20
4.9333
 30
0.0
 10
6.6036800000000007
 20
4.65543
 30
0.0
 10
6.7988500000000007
 20
4.7282100000000007
 30
0.0
 10
6.7988500000000007
 20
4.7282100000000007
 30
0.0
 10
6.4846000000000004
 20
4.4669000000000008
 30
0.0
 10
6.1041900000000009
 20
4.0666500000000001
 30
0.0
 10
6.3423700000000007
 20
3.6498500000000003
 30
0.0
 10
6.3423700000000007
 20
3.6498500000000003
 30
0.0
 10
6.5970700000000004
 20
3.1272100000000003
 30
0.0
 10
7.0039400000000009
 20
3.7292400000000003
 30
0.0
 10
7.3281000000000009
 20
3.7193100000000001
 30
0.0
 10
7.3281000000000009
 20
3.7193100000000001
 30
0.0
 10
7.3281000000000009
 20
3.7193100000000001
 30
0.0
 10
7.4075100000000003
 20
3.7689400000000002
 30
0.0
 10
7.4075100000000003
 20
3.7689400000000002
 30
0.0
 10
7.4075100000000003
 20
3.7689400000000002
 30
0.0
 10
7.397590000000001
 20
3.3488300000000004
 30
0.0
 10
7.0304100000000007
 20
3.0742800000000003
 30
0.0
 10
6.7029200000000007
 20
2.8989500000000001
 30
0.0
 10
6.7029200000000007
 20
2.8989500000000001
 30
0.0
 10
6.7823100000000007
 20
2.8427300000000004
 30
0.0
 10
6.9146300000000007
 20
2.9485800000000002
 30
0.0
 10
7.0204800000000009
 20
2.9088800000000004
 30
0.0
 10
7.0204800000000009
 20
2.9088800000000004
 30
0.0
 10
7.232190000000001
 20
2.9353500000000001
 30
0.0
 10
7.3744300000000003
 20
3.1437400000000002
 30
0.0
 10
7.4670500000000004
 20
3.3190600000000003
 30
0.0
 10
7.4670500000000004
 20
3.3190600000000003
 30
0.0
 10
8.2510200000000005
 20
4.29819
 30
0.0
 10
6.4250600000000002
 20
4.8539100000000008
 30
0.0
 10
6.4184300000000007
 20
3.7027800000000002
 30
0.0
 10
6.4184300000000007
 20
3.7027800000000002
 30
0.0
 10
6.2530600000000005
 20
3.9806400000000002
 30
0.0
 10
6.4978400000000009
 20
4.3180400000000008
 30
0.0
 10
6.7492300000000007
 20
4.4635899999999999
 30
0.0
 10
6.7492300000000007
 20
4.4635899999999999
 30
0.0
 10
6.9642500000000007
 20
4.5760500000000004
 30
0.0
 10
7.1494800000000005
 20
4.7943700000000007
 30
0.0
 10
7.4041900000000007
 20
4.7116800000000003
 30
0.0
 10
7.4041900000000007
 20
4.7116800000000003
 30
0.0
 10
8.2212399999999999
 20
4.2816600000000005
 30
0.0
 10
7.8838300000000006
 20
2.9750400000000004
 30
0.0
 10
7.1461800000000002
 20
2.5714800000000002
 30
0.0
 10
7.1461800000000002
 20
2.5714800000000002
 30
0.0
 10
6.0049600000000005
 20
2.0091300000000003
 30
0.0
 10
4.7744200000000001
 20
3.0511200000000001
 30
0.0
 10
5.28383
 20
4.2882600000000002
 30
0.0
 10
5.28383
 20
4.2882600000000002
 30
0.0
 10
5.28383
 20
4.2882600000000002
 30
0.0
 10
5.3069900000000008
 20
3.9707100000000004
 30
0.0
 10
5.3069900000000008
 20
3.9707100000000004
 30
0.0
 10
5.3069900000000008
 20
3.9707100000000004
 30
0.0
 10
5.3268400000000007
 20
3.5043000000000002
 30
0.0
 10
5.6973200000000004
 20
2.9419600000000004
 30
0.0
 10
6.2034200000000004
 20
2.9386500000000004
 30
0.0
 10
6.2034200000000004
 20
2.9386500000000004
 30
0.0
 10
5.6741600000000005
 20
3.0709700000000004
 30
0.0
 10
5.3632300000000006
 20
3.6465400000000003
 30
0.0
 10
5.51539
 20
4.1857200000000008
 30
0.0
 10
5.51539
 20
4.1857200000000008
 30
0.0
 10
5.51539
 20
4.1857200000000008
 30
0.0
 10
5.5749300000000002
 20
3.9674100000000001
 30
0.0
 10
5.5749300000000002
 20
3.9674100000000001
 30
0.0
 10
5.5749300000000002
 20
3.9674100000000001
 30
0.0
 10
5.6874000000000002
 20
3.8020200000000002
 30
0.0
 10
5.6543200000000002
 20
4.1857200000000008
 30
0.0
 10
5.6907100000000002
 20
4.2419600000000006
 30
0.0
 10
5.6907100000000002
 20
4.2419600000000006
 30
0.0
 10
5.6907100000000002
 20
4.2419600000000006
 30
0.0
 10
5.8098000000000001
 20
3.8648600000000002
 30
0.0
 10
5.8098000000000001
 20
3.8648600000000002
 30
0.0
 10
5.8098000000000001
 20
3.8648600000000002
 30
0.0
 10
5.7998700000000003
 20
4.2452800000000002
 30
0.0
 10
5.7965500000000008
 20
4.6852
 30
0.0
 10
6.0645000000000007
 20
4.9763000000000002
 30
0.0
  0
SPLINE
  5
AE
100
AcDbEntity
  8
Ebene 1
 62
     0
100
AcDbSpline
210
0.0
220
0.0
230
1.0
 70
     1
 71
     3
 72
    12
 73
     8
 74
     0
 42
0.0000000001
 43
0.0000000001
 40
0.0
 40
0.0
 40
0.0
 40
0.0
 40
0.5
 40
0.5
 40
0.5
 40
0.5
 40
1.0
 40
1.0
 40
1.0
 40
1.0
 10
5.5683100000000003
 20
5.1450000000000005
 30
0.0
 10
5.5550900000000007
 20
5.2310100000000004
 30
0.0
 10
5.6410800000000005
 20
5.2773300000000001
 30
0.0
 10
5.7039400000000002
 20
5.2475500000000004
 30
0.0
 10
5.7039400000000002
 20
5.2475500000000004
 30
0.0
 10
5.6907100000000002
 20
5.1880000000000006
 30
0.0
 10
5.6179300000000003
 20
5.0722300000000002
 30
0.0
 10
5.5683100000000003
 20
5.1450000000000005
 30
0.0
  0
SPLINE
  5
AF
100
AcDbEntity
  8
Ebene 1
 62
     0
100
AcDbSpline
210
0.0
220
0.0
230
1.0
 70
     1
 71
     3
 72
    44
 73
    40
 74
     0
 42
0.0000000001
 43
0.0000000001
 40
0.0
 40
0.0
 40
0.0
 40
0.0
 40
0.1
 40
0.1
 40
0.1
 40
0.1
 40
0.2
 40
0.2
 40
0.2
 40
0.2
 40
0.3
 40
0.3
 40
0.3
 40
0.3
 40
0.4
 40
0.4
 40
0.4
 40
0.4
 40
0.5
 40
0.5
 40
0.5
 40
0.5
 40
0.6
 40
0.6
 40
0.6
 40
0.6
 40
0.7
 40
0.7
 40
0.7
 40
0.7
 40
0.7999999999999999
 40
0.7999999999999999
 40
0.7999999999999999
 40
0.7999999999999999
 40
0.8999999999999999
 40
0.8999999999999999
 40
0.8999999999999999
 40
0.8999999999999999
 40
1.0
 40
1.0
 40
1.0
 40
1.0
 10
3.7721300000000002
 20
-9.5552400000000013
 30
0.0
 10
3.9606800000000004
 20
-9.9058800000000016
 30
0.0
 10
4.6255700000000006
 20
-10.266430000000001
 30
0.0
 10
5.1052100000000005
 20
-9.9852700000000016
 30
0.0
 10
5.1052100000000005
 20
-9.9852700000000016
 30
0.0
 10
5.3731500000000008
 20
-9.8331
 30
0.0
 10
5.3896900000000008
 20
-9.4560100000000009
 30
0.0
 10
5.3036800000000008
 20
-9.19468
 30
0.0
 10
5.3036800000000008
 20
-9.19468
 30
0.0
 10
4.9298900000000003
 20
-8.9399700000000006
 30
0.0
 10
5.4029200000000008
 20
-8.7315700000000014
 30
0.0
 10
5.4360000000000008
 20
-9.1384500000000006
 30
0.0
 10
5.4360000000000008
 20
-9.1384500000000006
 30
0.0
 10
5.7171700000000003
 20
-10.09773
 30
0.0
 10
4.5329500000000005
 20
-11.063630000000002
 30
0.0
 10
3.6232800000000003
 20
-10.84201
 30
0.0
 10
3.6232800000000003
 20
-10.84201
 30
0.0
 10
3.6728900000000002
 20
-10.785780000000001
 30
0.0
 10
3.5769600000000001
 20
-10.70969
 30
0.0
 10
3.6695900000000004
 20
-10.693160000000001
 30
0.0
 10
3.6695900000000004
 20
-10.693160000000001
 30
0.0
 10
3.8846000000000003
 20
-10.78908
 30
0.0
 10
4.0466800000000003
 20
-10.507910000000001
 30
0.0
 10
4.2683200000000001
 20
-10.574070000000001
 30
0.0
 10
4.2683200000000001
 20
-10.574070000000001
 30
0.0
 10
4.2881600000000004
 20
-10.550920000000001
 30
0.0
 10
4.2815400000000006
 20
-10.504610000000001
 30
0.0
 10
4.2418500000000003
 20
-10.51121
 30
0.0
 10
4.2418500000000003
 20
-10.51121
 30
0.0
 10
4.2418500000000003
 20
-10.51121
 30
0.0
 10
4.0698400000000001
 20
-10.30944
 30
0.0
 10
4.0698400000000001
 20
-10.30944
 30
0.0
 10
4.0698400000000001
 20
-10.30944
 30
0.0
 10
4.1856200000000001
 20
-10.359060000000001
 30
0.0
 10
4.3212300000000008
 20
-10.44838
 30
0.0
 10
4.4370200000000004
 20
-10.431830000000001
 30
0.0
 10
4.4370200000000004
 20
-10.431830000000001
 30
0.0
 10
4.1293800000000003
 20
-10.220130000000001
 30
0.0
 10
3.8647500000000004
 20
-9.91249
 30
0.0
 10
3.7721300000000002
 20
-9.5552400000000013
 30
0.0
  0
SPLINE
  5
B0
100
AcDbEntity
  8
Ebene 1
 62
     0
100
AcDbSpline
210
0.0
220
0.0
230
1.0
 70
     1
 71
     3
 72
    40
 73
    36
 74
     0
 42
0.0000000001
 43
0.0000000001
 40
0.0
 40
0.0
 40
0.0
 40
0.0
 40
0.1111111111111111
 40
0.1111111111111111
 40
0.1111111111111111
 40
0.1111111111111111
 40
0.2222222222222222
 40
0.2222222222222222
 40
0.2222222222222222
 40
0.2222222222222222
 40
0.3333333333333333
 40
0.3333333333333333
 40
0.3333333333333333
 40
0.3333333333333333
 40
0.4444444444444444
 40
0.4444444444444444
 40
0.4444444444444444
 40
0.4444444444444444
 40
0.5555555555555556
 40
0.5555555555555556
 40
0.5555555555555556
 40
0.5555555555555556
 40
0.6666666666666667
 40
0.6666666666666667
 40
0.6666666666666667
 40
0.6666666666666667
 40
0.7777777777777779
 40
0.7777777777777779
 40
0.7777777777777779
 40
0.7777777777777779
 40
0.8888888888888891
 40
0.8888888888888891
 40
0.8888888888888891
 40
0.8888888888888891
 40
1.0
 40
1.0
 40
1.0
 40
1.0
 10
6.7690800000000007
 20
8.3205800000000014
 30
0.0
 10
6.7624600000000008
 20
8.3437400000000004
 30
0.0
 10
6.7856200000000007
 20
8.3602699999999999
 30
0.0
 10
6.8153900000000007
 20
8.3569600000000008
 30
0.0
 10
6.8153900000000007
 20
8.3569600000000008
 30
0.0
 10
7.3578800000000006
 20
7.9500900000000003
 30
0.0
 10
8.0558500000000013
 20
7.0371100000000002
 30
0.0
 10
7.5497400000000008
 20
6.4284600000000003
 30
0.0
 10
7.5497400000000008
 20
6.4284600000000003
 30
0.0
 10
7.5431200000000009
 20
6.3887800000000006
 30
0.0
 10
7.4041900000000007
 20
6.3259200000000009
 30
0.0
 10
7.5034300000000007
 20
6.3093900000000005
 30
0.0
 10
7.5034300000000007
 20
6.3093900000000005
 30
0.0
 10
7.5034300000000007
 20
6.3093900000000005
 30
0.0
 10
7.6522900000000007
 20
6.3689300000000006
 30
0.0
 10
7.6522900000000007
 20
6.3689300000000006
 30
0.0
 10
7.6522900000000007
 20
6.3689300000000006
 30
0.0
 10
7.5431200000000009
 20
6.1572200000000006
 30
0.0
 10
7.3347300000000004
 20
6.2763100000000005
 30
0.0
 10
7.1528000000000009
 20
6.3259200000000009
 30
0.0
 10
7.1528000000000009
 20
6.3259200000000009
 30
0.0
 10
7.1528000000000009
 20
6.3259200000000009
 30
0.0
 10
6.9245500000000009
 20
7.6027700000000005
 30
0.0
 10
6.9245500000000009
 20
7.6027700000000005
 30
0.0
 10
6.9245500000000009
 20
7.6027700000000005
 30
0.0
 10
6.9245500000000009
 20
7.6027700000000005
 30
0.0
 10
7.1263300000000003
 20
7.106580000000001
 30
0.0
 10
7.1263300000000003
 20
7.106580000000001
 30
0.0
 10
7.1263300000000003
 20
7.106580000000001
 30
0.0
 10
7.1263300000000003
 20
7.106580000000001
 30
0.0
 10
7.2520400000000009
 20
6.9808800000000009
 30
0.0
 10
7.2520400000000009
 20
6.9808800000000009
 30
0.0
 10
7.2520400000000009
 20
6.9808800000000009
 30
0.0
 10
7.2387900000000007
 20
7.4671400000000006
 30
0.0
 10
7.033710000000001
 20
7.9203300000000008
 30
0.0
 10
6.7690800000000007
 20
8.3205800000000014
 30
0.0
  0
SPLINE
  5
B1
100
AcDbEntity
  8
Ebene 1
 62
     7
100
AcDbSpline
210
0.0
220
0.0
230
1.0
 70
     1
 71
     3
 72
    12
 73
     8
 74
     0
 42
0.0000000001
 43
0.0000000001
 40
0.0
 40
0.0
 40
0.0
 40
0.0
 40
0.5
 40
0.5
 40
0.5
 40
0.5
 40
1.0
 40
1.0
 40
1.0
 40
1.0
 10
5.9454200000000004
 20
1.4931100000000002
 30
0.0
 10
5.9454200000000004
 20
1.4931100000000002
 30
0.0
 10
5.9222600000000005
 20
1.4765600000000001
 30
0.0
 10
5.9222600000000005
 20
1.4765600000000001
 30
0.0
 10
5.9222600000000005
 20
1.4765600000000001
 30
0.0
 10
5.9222600000000005
 20
1.4765600000000001
 30
0.0
 10
5.9454200000000004
 20
1.4931100000000002
 30
0.0
 10
5.9454200000000004
 20
1.4931100000000002
 30
0.0
  0
SPLINE
  5
B2
100
AcDbEntity
  8
Ebene 1
 62
     7
100
AcDbSpline
210
0.0
220
0.0
230
1.0
 70
     1
 71
     3
 72
    12
 73
     8
 74
     0
 42
0.0000000001
 43
0.0000000001
 40
0.0
 40
0.0
 40
0.0
 40
0.0
 40
0.5
 40
0.5
 40
0.5
 40
0.5
 40
1.0
 40
1.0
 40
1.0
 40
1.0
 10
6.1008800000000001
 20
2.1613000000000002
 30
0.0
 10
6.1868900000000009
 20
2.2936100000000001
 30
0.0
 10
6.2695900000000009
 20
2.06867
 30
0.0
 10
6.2100500000000007
 20
1.9727500000000002
 30
0.0
 10
6.2100500000000007
 20
1.9727500000000002
 30
0.0
 10
6.2100500000000007
 20
1.9727500000000002
 30
0.0
 10
6.1008800000000001
 20
2.1613000000000002
 30
0.0
 10
6.1008800000000001
 20
2.1613000000000002
 30
0.0
  0
SPLINE
  5
B3
100
AcDbEntity
  8
Ebene 1
 62
     0
100
AcDbSpline
210
0.0
220
0.0
230
1.0
 70
     1
 71
     3
 72
    16
 73
    12
 74
     0
 42
0.0000000001
 43
0.0000000001
 40
0.0
 40
0.0
 40
0.0
 40
0.0
 40
0.3333333333333333
 40
0.3333333333333333
 40
0.3333333333333333
 40
0.3333333333333333
 40
0.6666666666666666
 40
0.6666666666666666
 40
0.6666666666666666
 40
0.6666666666666666
 40
1.0
 40
1.0
 40
1.0
 40
1.0
 10
4.7678100000000008
 20
-6.2142700000000008
 30
0.0
 10
4.79427
 20
-6.0985000000000005
 30
0.0
 10
4.9596600000000004
 20
-6.0521700000000003
 30
0.0
 10
4.9629700000000003
 20
-5.9397100000000007
 30
0.0
 10
4.9629700000000003
 20
-5.9397100000000007
 30
0.0
 10
4.9629700000000003
 20
-5.9397100000000007
 30
0.0
 10
5.2242900000000008
 20
-5.9595600000000006
 30
0.0
 10
5.2242900000000008
 20
-5.9595600000000006
 30
0.0
 10
5.2242900000000008
 20
-5.9595600000000006
 30
0.0
 10
5.1085100000000008
 20
-6.0621000000000009
 30
0.0
 10
4.9265800000000004
 20
-6.1547300000000007
 30
0.0
 10
4.7678100000000008
 20
-6.2142700000000008
 30
0.0
  0
SPLINE
  5
B4
100
AcDbEntity
  8
Ebene 1
 62
     0
100
AcDbSpline
210
0.0
220
0.0
230
1.0
 70
     1
 71
     3
 72
    28
 73
    24
 74
     0
 42
0.0000000001
 43
0.0000000001
 40
0.0
 40
0.0
 40
0.0
 40
0.0
 40
0.1666666666666667
 40
0.1666666666666667
 40
0.1666666666666667
 40
0.1666666666666667
 40
0.3333333333333333
 40
0.3333333333333333
 40
0.3333333333333333
 40
0.3333333333333333
 40
0.5
 40
0.5
 40
0.5
 40
0.5
 40
0.6666666666666666
 40
0.6666666666666666
 40
0.6666666666666666
 40
0.6666666666666666
 40
0.8333333333333333
 40
0.8333333333333333
 40
0.8333333333333333
 40
0.8333333333333333
 40
1.0
 40
1.0
 40
1.0
 40
1.0
 10
5.8428800000000001
 20
0.25265
 30
0.0
 10
6.0909600000000008
 20
0.6496000000000001
 30
0.0
 10
6.1306500000000002
 20
1.1490900000000002
 30
0.0
 10
6.5209900000000003
 20
1.4600300000000002
 30
0.0
 10
6.5209900000000003
 20
1.4600300000000002
 30
0.0
 10
6.5309100000000004
 20
1.47987
 30
0.0
 10
6.5540700000000003
 20
1.5394200000000002
 30
0.0
 10
6.5209900000000003
 20
1.5427200000000001
 30
0.0
 10
6.5209900000000003
 20
1.5427200000000001
 30
0.0
 10
6.4680600000000004
 20
1.5328000000000002
 30
0.0
 10
6.4118300000000001
 20
1.4997200000000002
 30
0.0
 10
6.3555900000000003
 20
1.52949
 30
0.0
 10
6.3555900000000003
 20
1.52949
 30
0.0
 10
6.464760000000001
 20
1.6585100000000002
 30
0.0
 10
6.6698400000000007
 20
1.7709800000000002
 30
0.0
 10
6.8352400000000006
 20
1.8272100000000002
 30
0.0
 10
6.8352400000000006
 20
1.8272100000000002
 30
0.0
 10
6.838540000000001
 20
1.1557000000000002
 30
0.0
 10
6.2464300000000001
 20
0.7322900000000001
 30
0.0
 10
5.9355000000000002
 20
0.19641
 30
0.0
 10
5.9355000000000002
 20
0.19641
 30
0.0
 10
5.9355000000000002
 20
0.19641
 30
0.0
 10
5.8428800000000001
 20
0.25265
 30
0.0
 10
5.8428800000000001
 20
0.25265
 30
0.0
  0
SPLINE
  5
B5
100
AcDbEntity
  8
Ebene 1
 62
    51
100
AcDbSpline
210
0.0
220
0.0
230
1.0
 70
     1
 71
     3
 72
    24
 73
    20
 74
     0
 42
0.0000000001
 43
0.0000000001
 40
0.0
 40
0.0
 40
0.0
 40
0.0
 40
0.2
 40
0.2
 40
0.2
 40
0.2
 40
0.4
 40
0.4
 40
0.4
 40
0.4
 40
0.6000000000000001
 40
0.6000000000000001
 40
0.6000000000000001
 40
0.6000000000000001
 40
0.8
 40
0.8
 40
0.8
 40
0.8
 40
1.0
 40
1.0
 40
1.0
 40
1.0
 10
6.7988500000000007
 20
4.7282100000000007
 30
0.0
 10
6.7988500000000007
 20
4.7282100000000007
 30
0.0
 10
6.8352400000000006
 20
4.8473000000000006
 30
0.0
 10
6.8352400000000006
 20
4.8473000000000006
 30
0.0
 10
6.8352400000000006
 20
4.8473000000000006
 30
0.0
 10
6.6301600000000009
 20
4.9895400000000008
 30
0.0
 10
6.6963000000000008
 20
5.2475500000000004
 30
0.0
 10
6.7128500000000004
 20
5.4559500000000005
 30
0.0
 10
6.7128500000000004
 20
5.4559500000000005
 30
0.0
 10
6.7128500000000004
 20
5.4559500000000005
 30
0.0
 10
6.7988500000000007
 20
5.4824000000000002
 30
0.0
 10
6.7988500000000007
 20
5.4824000000000002
 30
0.0
 10
6.7988500000000007
 20
5.4824000000000002
 30
0.0
 10
6.7756900000000009
 20
5.2574700000000005
 30
0.0
 10
6.8716200000000009
 20
4.9696900000000008
 30
0.0
 10
7.1395600000000004
 20
4.9233800000000008
 30
0.0
 10
7.1395600000000004
 20
4.9233800000000008
 30
0.0
 10
7.0469400000000002
 20
4.8340700000000005
 30
0.0
 10
6.9146300000000007
 20
4.7745200000000008
 30
0.0
 10
6.7988500000000007
 20
4.7282100000000007
 30
0.0
  0
SPLINE
  5
B6
100
AcDbEntity
  8
Ebene 1
 62
     0
100
AcDbSpline
210
0.0
220
0.0
230
1.0
 70
     1
 71
     3
 72
    16
 73
    12
 74
     0
 42
0.0000000001
 43
0.0000000001
 40
0.0
 40
0.0
 40
0.0
 40
0.0
 40
0.3333333333333333
 40
0.3333333333333333
 40
0.3333333333333333
 40
0.3333333333333333
 40
0.6666666666666666
 40
0.6666666666666666
 40
0.6666666666666666
 40
0.6666666666666666
 40
1.0
 40
1.0
 40
1.0
 40
1.0
 10
6.2001300000000006
 20
1.6386500000000002
 30
0.0
 10
6.4217500000000003
 20
1.7511200000000002
 30
0.0
 10
6.5143700000000004
 20
1.9661300000000002
 30
0.0
 10
6.5276000000000005
 20
2.1943800000000002
 30
0.0
 10
6.5276000000000005
 20
2.1943800000000002
 30
0.0
 10
6.5805300000000004
 20
2.1646100000000001
 30
0.0
 10
6.6433800000000005
 20
2.1116800000000002
 30
0.0
 10
6.6632200000000008
 20
2.0653700000000002
 30
0.0
 10
6.6632200000000008
 20
2.0653700000000002
 30
0.0
 10
6.5772300000000001
 20
1.8702100000000002
 30
0.0
 10
6.415140000000001
 20
1.6882700000000002
 30
0.0
 10
6.2001300000000006
 20
1.6386500000000002
 30
0.0
  0
SPLINE
  5
B7
100
AcDbEntity
  8
Ebene 1
 62
     0
100
AcDbSpline
210
0.0
220
0.0
230
1.0
 70
     1
 71
     3
 72
    20
 73
    16
 74
     0
 42
0.0000000001
 43
0.0000000001
 40
0.0
 40
0.0
 40
0.0
 40
0.0
 40
0.25
 40
0.25
 40
0.25
 40
0.25
 40
0.5
 40
0.5
 40
0.5
 40
0.5
 40
0.75
 40
0.75
 40
0.75
 40
0.75
 40
1.0
 40
1.0
 40
1.0
 40
1.0
 10
6.2828200000000001
 20
2.1282300000000003
 30
0.0
 10
6.2894400000000008
 20
2.2142300000000001
 30
0.0
 10
6.3820500000000004
 20
2.1745300000000003
 30
0.0
 10
6.4283600000000005
 20
2.16791
 30
0.0
 10
6.4283600000000005
 20
2.16791
 30
0.0
 10
6.4250600000000002
 20
2.0653700000000002
 30
0.0
 10
6.4118300000000001
 20
1.8768200000000002
 30
0.0
 10
6.2828200000000001
 20
1.8569700000000002
 30
0.0
 10
6.2828200000000001
 20
1.8569700000000002
 30
0.0
 10
6.2828200000000001
 20
1.8569700000000002
 30
0.0
 10
6.3026700000000009
 20
1.9992100000000002
 30
0.0
 10
6.3026700000000009
 20
1.9992100000000002
 30
0.0
 10
6.3026700000000009
 20
1.9992100000000002
 30
0.0
 10
6.3125900000000001
 20
2.0422100000000003
 30
0.0
 10
6.3192000000000004
 20
2.10175
 30
0.0
 10
6.2828200000000001
 20
2.1282300000000003
 30
0.0
  0
SPLINE
  5
B8
100
AcDbEntity
  8
Ebene 1
 62
     7
100
AcDbSpline
210
0.0
220
0.0
230
1.0
 70
     1
 71
     3
 72
    52
 73
    48
 74
     0
 42
0.0000000001
 43
0.0000000001
 40
0.0
 40
0.0
 40
0.0
 40
0.0
 40
0.0833333333333333
 40
0.0833333333333333
 40
0.0833333333333333
 40
0.0833333333333333
 40
0.1666666666666667
 40
0.1666666666666667
 40
0.1666666666666667
 40
0.1666666666666667
 40
0.25
 40
0.25
 40
0.25
 40
0.25
 40
0.3333333333333333
 40
0.3333333333333333
 40
0.3333333333333333
 40
0.3333333333333333
 40
0.4166666666666666
 40
0.4166666666666666
 40
0.4166666666666666
 40
0.4166666666666666
 40
0.4999999999999999
 40
0.4999999999999999
 40
0.4999999999999999
 40
0.4999999999999999
 40
0.5833333333333333
 40
0.5833333333333333
 40
0.5833333333333333
 40
0.5833333333333333
 40
0.6666666666666666
 40
0.6666666666666666
 40
0.6666666666666666
 40
0.6666666666666666
 40
0.75
 40
0.75
 40
0.75
 40
0.75
 40
0.8333333333333334
 40
0.8333333333333334
 40
0.8333333333333334
 40
0.8333333333333334
 40
0.9166666666666667
 40
0.9166666666666667
 40
0.9166666666666667
 40
0.9166666666666667
 40
1.0
 40
1.0
 40
1.0
 40
1.0
 10
8.5487200000000012
 20
5.4030200000000006
 30
0.0
 10
8.5354900000000011
 20
5.1747800000000002
 30
0.0
 10
8.2907000000000011
 20
5.2574700000000005
 30
0.0
 10
8.2146300000000014
 20
5.0590000000000002
 30
0.0
 10
8.2146300000000014
 20
5.0590000000000002
 30
0.0
 10
7.887150000000001
 20
5.2806300000000004
 30
0.0
 10
7.5299000000000005
 20
5.04908
 30
0.0
 10
7.1957900000000006
 20
4.9763000000000002
 30
0.0
 10
7.1957900000000006
 20
4.9763000000000002
 30
0.0
 10
6.7823100000000007
 20
5.1317700000000004
 30
0.0
 10
7.0006300000000001
 20
5.6808800000000002
 30
0.0
 10
7.3611900000000006
 20
5.7470500000000007
 30
0.0
 10
7.3611900000000006
 20
5.7470500000000007
 30
0.0
 10
7.3744300000000003
 20
5.7867300000000004
 30
0.0
 10
7.3942700000000006
 20
5.8264300000000002
 30
0.0
 10
7.4339600000000008
 20
5.8628100000000005
 30
0.0
 10
7.4339600000000008
 20
5.8628100000000005
 30
0.0
 10
7.4538100000000007
 20
5.8793600000000001
 30
0.0
 10
7.4902000000000006
 20
5.8727400000000003
 30
0.0
 10
7.5034300000000007
 20
5.8495900000000001
 30
0.0
 10
7.5034300000000007
 20
5.8495900000000001
 30
0.0
 10
7.4637400000000005
 20
5.6676500000000001
 30
0.0
 10
7.7746800000000009
 20
5.3633200000000008
 30
0.0
 10
7.8474500000000003
 20
5.5816500000000007
 30
0.0
 10
7.8474500000000003
 20
5.5816500000000007
 30
0.0
 10
7.9830700000000006
 20
5.5386400000000009
 30
0.0
 10
8.0724
 20
5.6511100000000001
 30
0.0
 10
8.0955400000000015
 20
5.7503400000000005
 30
0.0
 10
8.0955400000000015
 20
5.7503400000000005
 30
0.0
 10
8.1220100000000013
 20
5.6411900000000008
 30
0.0
 10
8.0293900000000011
 20
5.5518800000000006
 30
0.0
 10
7.9566100000000004
 20
5.4791100000000004
 30
0.0
 10
7.9566100000000004
 20
5.4791100000000004
 30
0.0
 10
7.9003700000000006
 20
5.3864800000000006
 30
0.0
 10
7.787910000000001
 20
5.34016
 30
0.0
 10
7.688670000000001
 20
5.3765500000000008
 30
0.0
 10
7.688670000000001
 20
5.3765500000000008
 30
0.0
 10
7.771370000000001
 20
5.0920800000000002
 30
0.0
 10
8.1319300000000005
 20
5.47248
 30
0.0
 10
8.2047000000000008
 20
5.6478000000000002
 30
0.0
 10
8.2047000000000008
 20
5.6478000000000002
 30
0.0
 10
8.2609300000000001
 20
5.47248
 30
0.0
 10
8.0955400000000015
 20
5.3534000000000006
 30
0.0
 10
8.0756899999999998
 20
5.1880000000000006
 30
0.0
 10
8.0756899999999998
 20
5.1880000000000006
 30
0.0
 10
8.2543199999999999
 20
5.2012400000000003
 30
0.0
 10
8.3899500000000007
 20
5.3236300000000005
 30
0.0
 10
8.5487200000000012
 20
5.4030200000000006
 30
0.0
  0
SPLINE
  5
B9
100
AcDbEntity
  8
Ebene 1
 62
     0
100
AcDbSpline
210
0.0
220
0.0
230
1.0
 70
     1
 71
     3
 72
    20
 73
    16
 74
     0
 42
0.0000000001
 43
0.0000000001
 40
0.0
 40
0.0
 40
0.0
 40
0.0
 40
0.25
 40
0.25
 40
0.25
 40
0.25
 40
0.5
 40
0.5
 40
0.5
 40
0.5
 40
0.75
 40
0.75
 40
0.75
 40
0.75
 40
1.0
 40
1.0
 40
1.0
 40
1.0
 10
5.8924900000000004
 20
-1.2226600000000001
 30
0.0
 10
5.9520300000000006
 20
-1.0142600000000002
 30
0.0
 10
6.0115700000000007
 20
-0.7760900000000001
 30
0.0
 10
6.1902000000000008
 20
-0.6470900000000001
 30
0.0
 10
6.1902000000000008
 20
-0.6470900000000001
 30
0.0
 10
6.1902000000000008
 20
-0.6470900000000001
 30
0.0
 10
6.1902000000000008
 20
-0.71987
 30
0.0
 10
6.1902000000000008
 20
-0.71987
 30
0.0
 10
6.1902000000000008
 20
-0.71987
 30
0.0
 10
6.1902000000000008
 20
-0.71987
 30
0.0
 10
6.2960400000000005
 20
-0.7694800000000001
 30
0.0
 10
6.2960400000000005
 20
-0.7694800000000001
 30
0.0
 10
6.2960400000000005
 20
-0.7694800000000001
 30
0.0
 10
6.1703500000000009
 20
-0.9216400000000001
 30
0.0
 10
6.0413400000000008
 20
-1.0903500000000002
 30
0.0
 10
5.8924900000000004
 20
-1.2226600000000001
 30
0.0
  0
SPLINE
  5
BA
100
AcDbEntity
  8
Ebene 1
 62
     0
100
AcDbSpline
210
0.0
220
0.0
230
1.0
 70
     1
 71
     3
 72
    16
 73
    12
 74
     0
 42
0.0000000001
 43
0.0000000001
 40
0.0
 40
0.0
 40
0.0
 40
0.0
 40
0.3333333333333333
 40
0.3333333333333333
 40
0.3333333333333333
 40
0.3333333333333333
 40
0.6666666666666666
 40
0.6666666666666666
 40
0.6666666666666666
 40
0.6666666666666666
 40
1.0
 40
1.0
 40
1.0
 40
1.0
 10
5.8527900000000006
 20
-1.5931400000000002
 30
0.0
 10
5.8891800000000005
 20
-1.37151
 30
0.0
 10
5.9652700000000003
 20
-1.5766100000000001
 30
0.0
 10
6.0215000000000005
 20
-1.6659100000000002
 30
0.0
 10
6.0215000000000005
 20
-1.6659100000000002
 30
0.0
 10
6.0016500000000006
 20
-1.7287700000000001
 30
0.0
 10
5.8759500000000005
 20
-1.8247000000000002
 30
0.0
 10
5.8759500000000005
 20
-1.7023000000000001
 30
0.0
 10
5.8759500000000005
 20
-1.7023000000000001
 30
0.0
 10
5.8858600000000001
 20
-1.6659100000000002
 30
0.0
 10
5.8792600000000004
 20
-1.6163000000000001
 30
0.0
 10
5.8527900000000006
 20
-1.5931400000000002
 30
0.0
  0
SPLINE
  5
BB
100
AcDbEntity
  8
Ebene 1
 62
     0
100
AcDbSpline
210
0.0
220
0.0
230
1.0
 70
     1
 71
     3
 72
    64
 73
    60
 74
     0
 42
0.0000000001
 43
0.0000000001
 40
0.0
 40
0.0
 40
0.0
 40
0.0
 40
0.0666666666666667
 40
0.0666666666666667
 40
0.0666666666666667
 40
0.0666666666666667
 40
0.1333333333333333
 40
0.1333333333333333
 40
0.1333333333333333
 40
0.1333333333333333
 40
0.2
 40
0.2
 40
0.2
 40
0.2
 40
0.2666666666666667
 40
0.2666666666666667
 40
0.2666666666666667
 40
0.2666666666666667
 40
0.3333333333333333
 40
0.3333333333333333
 40
0.3333333333333333
 40
0.3333333333333333
 40
0.4
 40
0.4
 40
0.4
 40
0.4
 40
0.4666666666666666
 40
0.4666666666666666
 40
0.4666666666666666
 40
0.4666666666666666
 40
0.5333333333333333
 40
0.5333333333333333
 40
0.5333333333333333
 40
0.5333333333333333
 40
0.6
 40
0.6
 40
0.6
 40
0.6
 40
0.6666666666666666
 40
0.6666666666666666
 40
0.6666666666666666
 40
0.6666666666666666
 40
0.7333333333333333
 40
0.7333333333333333
 40
0.7333333333333333
 40
0.7333333333333333
 40
0.7999999999999999
 40
0.7999999999999999
 40
0.7999999999999999
 40
0.7999999999999999
 40
0.8666666666666666
 40
0.8666666666666666
 40
0.8666666666666666
 40
0.8666666666666666
 40
0.9333333333333332
 40
0.9333333333333332
 40
0.9333333333333332
 40
0.9333333333333332
 40
1.0
 40
1.0
 40
1.0
 40
1.0
 10
6.2629700000000001
 20
0.24603
 30
0.0
 10
6.2795100000000001
 20
0.32542
 30
0.0
 10
6.3390500000000003
 20
0.38165
 30
0.0
 10
6.3853600000000004
 20
0.4544300000000001
 30
0.0
 10
6.3853600000000004
 20
0.4544300000000001
 30
0.0
 10
6.464760000000001
 20
0.33866
 30
0.0
 10
6.5375300000000003
 20
0.3485700000000001
 30
0.0
 10
6.7128500000000004
 20
0.40149
 30
0.0
 10
6.7128500000000004
 20
0.40149
 30
0.0
 10
7.1395600000000004
 20
0.24603
 30
0.0
 10
7.6522900000000007
 20
0.7289800000000001
 30
0.0
 10
7.4637400000000005
 20
1.1557000000000002
 30
0.0
 10
7.4637400000000005
 20
1.1557000000000002
 30
0.0
 10
7.4637400000000005
 20
1.1557000000000002
 30
0.0
 10
7.3711100000000007
 20
1.02339
 30
0.0
 10
7.3711100000000007
 20
1.02339
 30
0.0
 10
7.3711100000000007
 20
1.02339
 30
0.0
 10
7.3711100000000007
 20
1.02339
 30
0.0
 10
7.3711100000000007
 20
1.1093900000000001
 30
0.0
 10
7.3711100000000007
 20
1.1093900000000001
 30
0.0
 10
7.3711100000000007
 20
1.1093900000000001
 30
0.0
 10
7.3711100000000007
 20
1.1093900000000001
 30
0.0
 10
7.3678100000000004
 20
1.2152500000000002
 30
0.0
 10
7.3678100000000004
 20
1.2152500000000002
 30
0.0
 10
7.3678100000000004
 20
1.2152500000000002
 30
0.0
 10
7.2917200000000006
 20
1.29132
 30
0.0
 10
7.232190000000001
 20
0.8811600000000001
 30
0.0
 10
7.2421100000000003
 20
1.1325400000000001
 30
0.0
 10
7.2421100000000003
 20
1.1325400000000001
 30
0.0
 10
7.199110000000001
 20
1.5361
 30
0.0
 10
6.8583900000000009
 20
0.9836900000000001
 30
0.0
 10
6.7128500000000004
 20
0.7984500000000001
 30
0.0
 10
6.7128500000000004
 20
0.7984500000000001
 30
0.0
 10
6.6499900000000007
 20
0.72567
 30
0.0
 10
6.5673000000000004
 20
0.6363500000000001
 30
0.0
 10
6.4713600000000007
 20
0.58674
 30
0.0
 10
6.4713600000000007
 20
0.58674
 30
0.0
 10
6.6268400000000005
 20
0.94069
 30
0.0
 10
7.050250000000001
 20
1.16232
 30
0.0
 10
7.0370200000000009
 20
1.5857300000000001
 30
0.0
 10
7.0370200000000009
 20
1.5857300000000001
 30
0.0
 10
7.1098000000000008
 20
1.5923500000000002
 30
0.0
 10
7.1395600000000004
 20
1.6717300000000002
 30
0.0
 10
7.1792600000000002
 20
1.7081200000000001
 30
0.0
 10
7.1792600000000002
 20
1.7081200000000001
 30
0.0
 10
7.3446500000000006
 20
1.1755500000000001
 30
0.0
 10
7.4405800000000006
 20
1.8305100000000001
 30
0.0
 10
7.3512600000000008
 20
1.9926000000000001
 30
0.0
 10
7.3512600000000008
 20
1.9926000000000001
 30
0.0
 10
7.9334500000000006
 20
1.5195700000000001
 30
0.0
 10
7.7482100000000003
 20
0.68928
 30
0.0
 10
7.2255600000000006
 20
0.25265
 30
0.0
 10
7.2255600000000006
 20
0.25265
 30
0.0
 10
7.0469400000000002
 20
0.21957
 30
0.0
 10
6.8914700000000009
 20
0.3485700000000001
 30
0.0
 10
6.7194700000000003
 20
0.33534
 30
0.0
 10
6.7194700000000003
 20
0.33534
 30
0.0
 10
6.5639900000000004
 20
0.32211
 30
0.0
 10
6.4118300000000001
 20
0.30558
 30
0.0
 10
6.2629700000000001
 20
0.24603
 30
0.0
  0
SPLINE
  5
BC
100
AcDbEntity
  8
Ebene 1
 62
     0
100
AcDbSpline
210
0.0
220
0.0
230
1.0
 70
     1
 71
     3
 72
    16
 73
    12
 74
     0
 42
0.0000000001
 43
0.0000000001
 40
0.0
 40
0.0
 40
0.0
 40
0.0
 40
0.3333333333333333
 40
0.3333333333333333
 40
0.3333333333333333
 40
0.3333333333333333
 40
0.6666666666666666
 40
0.6666666666666666
 40
0.6666666666666666
 40
0.6666666666666666
 40
1.0
 40
1.0
 40
1.0
 40
1.0
 10
7.5431200000000009
 20
7.8144700000000009
 30
0.0
 10
7.5431200000000009
 20
7.8144700000000009
 30
0.0
 10
7.5563600000000006
 20
7.8740200000000007
 30
0.0
 10
7.5563600000000006
 20
7.8740200000000007
 30
0.0
 10
7.5563600000000006
 20
7.8740200000000007
 30
0.0
 10
7.7680600000000011
 20
7.7350800000000008
 30
0.0
 10
7.7680600000000011
 20
7.420840000000001
 30
0.0
 10
7.787910000000001
 20
7.1859800000000007
 30
0.0
 10
7.787910000000001
 20
7.1859800000000007
 30
0.0
 10
7.787910000000001
 20
7.1859800000000007
 30
0.0
 10
7.5431200000000009
 20
7.8144700000000009
 30
0.0
 10
7.5431200000000009
 20
7.8144700000000009
 30
0.0
  0
SPLINE
  5
BD
100
AcDbEntity
  8
Ebene 1
 62
     0
100
AcDbSpline
210
0.0
220
0.0
230
1.0
 70
     1
 71
     3
 72
    12
 73
     8
 74
     0
 42
0.0000000001
 43
0.0000000001
 40
0.0
 40
0.0
 40
0.0
 40
0.0
 40
0.5
 40
0.5
 40
0.5
 40
0.5
 40
1.0
 40
1.0
 40
1.0
 40
1.0
 10
6.0215000000000005
 20
-1.4509100000000001
 30
0.0
 10
6.0181800000000001
 20
-1.2755800000000002
 30
0.0
 10
6.2431200000000002
 20
-1.3946800000000001
 30
0.0
 10
6.2662800000000001
 20
-1.4939100000000001
 30
0.0
 10
6.2662800000000001
 20
-1.4939100000000001
 30
0.0
 10
6.2199800000000005
 20
-1.6030600000000002
 30
0.0
 10
5.9917200000000008
 20
-1.5931400000000002
 30
0.0
 10
6.0215000000000005
 20
-1.4509100000000001
 30
0.0
  0
SPLINE
  5
BE
100
AcDbEntity
  8
Ebene 1
 62
     0
100
AcDbSpline
210
0.0
220
0.0
230
1.0
 70
     1
 71
     3
 72
    12
 73
     8
 74
     0
 42
0.0000000001
 43
0.0000000001
 40
0.0
 40
0.0
 40
0.0
 40
0.0
 40
0.5
 40
0.5
 40
0.5
 40
0.5
 40
1.0
 40
1.0
 40
1.0
 40
1.0
 10
4.71157
 20
-9.7107100000000006
 30
0.0
 10
4.71157
 20
-9.7107100000000006
 30
0.0
 10
4.8505000000000003
 20
-9.5023100000000014
 30
0.0
 10
4.8505000000000003
 20
-9.5023100000000014
 30
0.0
 10
4.8505000000000003
 20
-9.5023100000000014
 30
0.0
 10
4.9993600000000002
 20
-9.6147800000000014
 30
0.0
 10
4.8868800000000006
 20
-9.8033300000000008
 30
0.0
 10
4.71157
 20
-9.7107100000000006
 30
0.0
  0
SPLINE
  5
BF
100
AcDbEntity
  8
Ebene 1
 62
     0
100
AcDbSpline
210
0.0
220
0.0
230
1.0
 70
     1
 71
     3
 72
    16
 73
    12
 74
     0
 42
0.0000000001
 43
0.0000000001
 40
0.0
 40
0.0
 40
0.0
 40
0.0
 40
0.3333333333333333
 40
0.3333333333333333
 40
0.3333333333333333
 40
0.3333333333333333
 40
0.6666666666666666
 40
0.6666666666666666
 40
0.6666666666666666
 40
0.6666666666666666
 40
1.0
 40
1.0
 40
1.0
 40
1.0
 10
7.754830000000001
 20
7.8210900000000008
 30
0.0
 10
7.754830000000001
 20
7.8210900000000008
 30
0.0
 10
7.7680600000000011
 20
7.8839500000000005
 30
0.0
 10
7.7680600000000011
 20
7.8839500000000005
 30
0.0
 10
7.7680600000000011
 20
7.8839500000000005
 30
0.0
 10
7.9103000000000003
 20
7.8177700000000003
 30
0.0
 10
8.0492300000000014
 20
7.6656200000000005
 30
0.0
 10
8.0955400000000015
 20
7.5134600000000002
 30
0.0
 10
8.0955400000000015
 20
7.5134600000000002
 30
0.0
 10
8.0955400000000015
 20
7.5134600000000002
 30
0.0
 10
7.754830000000001
 20
7.8210900000000008
 30
0.0
 10
7.754830000000001
 20
7.8210900000000008
 30
0.0
  0
SPLINE
  5
C0
100
AcDbEntity
  8
Ebene 1
 62
     7
100
AcDbSpline
210
0.0
220
0.0
230
1.0
 70
     1
 71
     3
 72
    28
 73
    24
 74
     0
 42
0.0000000001
 43
0.0000000001
 40
0.0
 40
0.0
 40
0.0
 40
0.0
 40
0.1666666666666667
 40
0.1666666666666667
 40
0.1666666666666667
 40
0.1666666666666667
 40
0.3333333333333333
 40
0.3333333333333333
 40
0.3333333333333333
 40
0.3333333333333333
 40
0.5
 40
0.5
 40
0.5
 40
0.5
 40
0.6666666666666666
 40
0.6666666666666666
 40
0.6666666666666666
 40
0.6666666666666666
 40
0.8333333333333333
 40
0.8333333333333333
 40
0.8333333333333333
 40
0.8333333333333333
 40
1.0
 40
1.0
 40
1.0
 40
1.0
 10
5.7138600000000004
 20
-5.0730400000000007
 30
0.0
 10
5.7138600000000004
 20
-5.0730400000000007
 30
0.0
 10
6.0744200000000008
 20
-4.3916300000000001
 30
0.0
 10
6.0744200000000008
 20
-4.3916300000000001
 30
0.0
 10
6.0744200000000008
 20
-4.3916300000000001
 30
0.0
 10
6.0744200000000008
 20
-4.3916300000000001
 30
0.0
 10
6.332440000000001
 20
-4.2526800000000007
 30
0.0
 10
6.332440000000001
 20
-4.2526800000000007
 30
0.0
 10
6.332440000000001
 20
-4.2526800000000007
 30
0.0
 10
6.9311700000000007
 20
-4.4776199999999999
 30
0.0
 10
6.2828200000000001
 20
-5.5824600000000002
 30
0.0
 10
5.7767100000000005
 20
-5.2219100000000003
 30
0.0
 10
5.7767100000000005
 20
-5.2219100000000003
 30
0.0
 10
5.7734000000000005
 20
-5.1822000000000008
 30
0.0
 10
5.7833200000000007
 20
-5.1392100000000003
 30
0.0
 10
5.8131000000000004
 20
-5.1094300000000006
 30
0.0
 10
5.8131000000000004
 20
-5.1094300000000006
 30
0.0
 10
5.8924900000000004
 20
-4.9605800000000002
 30
0.0
 10
6.0909600000000008
 20
-5.0168200000000001
 30
0.0
 10
6.2001300000000006
 20
-4.9208800000000004
 30
0.0
 10
6.2001300000000006
 20
-4.9208800000000004
 30
0.0
 10
6.0479600000000007
 20
-4.8315700000000001
 30
0.0
 10
5.8362500000000006
 20
-4.9638800000000005
 30
0.0
 10
5.7138600000000004
 20
-5.0730400000000007
 30
0.0
  0
SPLINE
  5
C1
100
AcDbEntity
  8
Ebene 1
 62
     0
100
AcDbSpline
210
0.0
220
0.0
230
1.0
 70
     1
 71
     3
 72
    16
 73
    12
 74
     0
 42
0.0000000001
 43
0.0000000001
 40
0.0
 40
0.0
 40
0.0
 40
0.0
 40
0.3333333333333333
 40
0.3333333333333333
 40
0.3333333333333333
 40
0.3333333333333333
 40
0.6666666666666666
 40
0.6666666666666666
 40
0.6666666666666666
 40
0.6666666666666666
 40
1.0
 40
1.0
 40
1.0
 40
1.0
 10
7.8243000000000009
 20
7.4969100000000006
 30
0.0
 10
7.8243000000000009
 20
7.4969100000000006
 30
0.0
 10
7.8408400000000009
 20
7.5564600000000004
 30
0.0
 10
7.8408400000000009
 20
7.5564600000000004
 30
0.0
 10
7.8408400000000009
 20
7.5564600000000004
 30
0.0
 10
7.9533000000000005
 20
7.4109100000000003
 30
0.0
 10
8.03932
 20
7.1661300000000008
 30
0.0
 10
7.9466900000000003
 20
6.9908100000000006
 30
0.0
 10
7.9466900000000003
 20
6.9908100000000006
 30
0.0
 10
7.9400800000000009
 20
7.1595000000000004
 30
0.0
 10
7.8805200000000006
 20
7.3381300000000005
 30
0.0
 10
7.8243000000000009
 20
7.4969100000000006
 30
0.0
  0
SPLINE
  5
C2
100
AcDbEntity
  8
Ebene 1
 62
     0
100
AcDbSpline
210
0.0
220
0.0
230
1.0
 70
     1
 71
     3
 72
    12
 73
     8
 74
     0
 42
0.0000000001
 43
0.0000000001
 40
0.0
 40
0.0
 40
0.0
 40
0.0
 40
0.5
 40
0.5
 40
0.5
 40
0.5
 40
1.0
 40
1.0
 40
1.0
 40
1.0
 10
6.5706000000000007
 20
-0.16082
 30
0.0
 10
6.6069900000000006
 20
-0.07152
 30
0.0
 10
6.6103100000000001
 20
0.0674
 30
0.0
 10
6.7161500000000007
 20
0.1071
 30
0.0
 10
6.7161500000000007
 20
0.1071
 30
0.0
 10
6.7161500000000007
 20
-0.00206
 30
0.0
 10
6.6400700000000006
 20
-0.09799
 30
0.0
 10
6.5706000000000007
 20
-0.16082
 30
0.0
  0
SPLINE
  5
C3
100
AcDbEntity
  8
Ebene 1
 62
    51
100
AcDbSpline
210
0.0
220
0.0
230
1.0
 70
     1
 71
     3
 72
    44
 73
    40
 74
     0
 42
0.0000000001
 43
0.0000000001
 40
0.0
 40
0.0
 40
0.0
 40
0.0
 40
0.1
 40
0.1
 40
0.1
 40
0.1
 40
0.2
 40
0.2
 40
0.2
 40
0.2
 40
0.3
 40
0.3
 40
0.3
 40
0.3
 40
0.4
 40
0.4
 40
0.4
 40
0.4
 40
0.5
 40
0.5
 40
0.5
 40
0.5
 40
0.6
 40
0.6
 40
0.6
 40
0.6
 40
0.7
 40
0.7
 40
0.7
 40
0.7
 40
0.7999999999999999
 40
0.7999999999999999
 40
0.7999999999999999
 40
0.7999999999999999
 40
0.8999999999999999
 40
0.8999999999999999
 40
0.8999999999999999
 40
0.8999999999999999
 40
1.0
 40
1.0
 40
1.0
 40
1.0
 10
7.4141200000000005
 20
4.77121
 30
0.0
 10
7.4538100000000007
 20
4.8506
 30
0.0
 10
7.5662800000000008
 20
4.8737600000000008
 30
0.0
 10
7.639050000000001
 20
4.9035300000000008
 30
0.0
 10
7.639050000000001
 20
4.9035300000000008
 30
0.0
 10
8.11538
 20
5.3699400000000006
 30
0.0
 10
8.8133500000000016
 20
4.5396700000000001
 30
0.0
 10
8.4660299999999999
 20
4.1592700000000002
 30
0.0
 10
8.4660299999999999
 20
4.1592700000000002
 30
0.0
 10
8.4660299999999999
 20
4.1592700000000002
 30
0.0
 10
8.4495000000000005
 20
4.0567200000000003
 30
0.0
 10
8.4495000000000005
 20
4.0567200000000003
 30
0.0
 10
8.4495000000000005
 20
4.0567200000000003
 30
0.0
 10
8.4197199999999999
 20
3.8714800000000005
 30
0.0
 10
8.3734099999999998
 20
3.6895500000000001
 30
0.0
 10
8.3039400000000008
 20
3.5572300000000001
 30
0.0
 10
8.3039400000000008
 20
3.5572300000000001
 30
0.0
 10
8.2410899999999998
 20
3.6068500000000001
 30
0.0
 10
8.3667899999999999
 20
3.6928600000000005
 30
0.0
 10
8.3171800000000005
 20
3.7424700000000004
 30
0.0
 10
8.3171800000000005
 20
3.7424700000000004
 30
0.0
 10
8.3734099999999998
 20
3.8582500000000004
 30
0.0
 10
8.34694
 20
4.2618100000000005
 30
0.0
 10
8.2642500000000005
 20
3.9607900000000003
 30
0.0
 10
8.2642500000000005
 20
3.9607900000000003
 30
0.0
 10
8.2642500000000005
 20
3.9607900000000003
 30
0.0
 10
8.2444000000000006
 20
3.8384000000000005
 30
0.0
 10
8.2444000000000006
 20
3.8384000000000005
 30
0.0
 10
8.2444000000000006
 20
3.8384000000000005
 30
0.0
 10
8.1220100000000013
 20
3.5638400000000003
 30
0.0
 10
8.2642500000000005
 20
4.0864900000000004
 30
0.0
 10
8.14846
 20
4.1691900000000004
 30
0.0
 10
8.14846
 20
4.1691900000000004
 30
0.0
 10
8.0955400000000015
 20
4.0104200000000008
 30
0.0
 10
8.1054600000000008
 20
3.8185500000000001
 30
0.0
 10
7.9466900000000003
 20
3.7821700000000003
 30
0.0
 10
7.9466900000000003
 20
3.7821700000000003
 30
0.0
 10
7.9566100000000004
 20
4.1592700000000002
 30
0.0
 10
7.8606800000000003
 20
4.6786000000000003
 30
0.0
 10
7.4141200000000005
 20
4.77121
 30
0.0
  0
SPLINE
  5
C4
100
AcDbEntity
  8
Ebene 1
 62
     0
100
AcDbSpline
210
0.0
220
0.0
230
1.0
 70
     1
 71
     3
 72
    20
 73
    16
 74
     0
 42
0.0000000001
 43
0.0000000001
 40
0.0
 40
0.0
 40
0.0
 40
0.0
 40
0.25
 40
0.25
 40
0.25
 40
0.25
 40
0.5
 40
0.5
 40
0.5
 40
0.5
 40
0.75
 40
0.75
 40
0.75
 40
0.75
 40
1.0
 40
1.0
 40
1.0
 40
1.0
 10
6.5209900000000003
 20
-0.8422600000000001
 30
0.0
 10
6.5209900000000003
 20
-0.8422600000000001
 30
0.0
 10
6.9410900000000009
 20
-0.31961
 30
0.0
 10
6.9410900000000009
 20
-0.31961
 30
0.0
 10
6.9410900000000009
 20
-0.31961
 30
0.0
 10
6.9410900000000009
 20
-0.31961
 30
0.0
 10
7.1296500000000007
 20
0.03763
 30
0.0
 10
7.1296500000000007
 20
0.03763
 30
0.0
 10
7.1296500000000007
 20
0.03763
 30
0.0
 10
7.2487200000000005
 20
-0.41554
 30
0.0
 10
7.0204800000000009
 20
-0.9249500000000001
 30
0.0
 10
6.6797700000000004
 20
-1.24251
 30
0.0
 10
6.6797700000000004
 20
-1.24251
 30
0.0
 10
6.5739100000000006
 20
-1.1399700000000001
 30
0.0
 10
6.6301600000000009
 20
-0.9481000000000001
 30
0.0
 10
6.5209900000000003
 20
-0.8422600000000001
 30
0.0
  0
SPLINE
  5
C5
100
AcDbEntity
  8
Ebene 1
 62
    51
100
AcDbSpline
210
0.0
220
0.0
230
1.0
 70
     1
 71
     3
 72
    20
 73
    16
 74
     0
 42
0.0000000001
 43
0.0000000001
 40
0.0
 40
0.0
 40
0.0
 40
0.0
 40
0.25
 40
0.25
 40
0.25
 40
0.25
 40
0.5
 40
0.5
 40
0.5
 40
0.5
 40
0.75
 40
0.75
 40
0.75
 40
0.75
 40
1.0
 40
1.0
 40
1.0
 40
1.0
 10
7.6986000000000008
 20
5.9653600000000004
 30
0.0
 10
7.7614400000000003
 20
6.2465400000000004
 30
0.0
 10
8.0591500000000007
 20
6.4086100000000004
 30
0.0
 10
8.2212399999999999
 20
6.6335600000000001
 30
0.0
 10
8.2212399999999999
 20
6.6335600000000001
 30
0.0
 10
8.16831
 20
6.4516200000000001
 30
0.0
 10
8.0260700000000007
 20
6.2233800000000006
 30
0.0
 10
7.837530000000001
 20
6.1506000000000007
 30
0.0
 10
7.837530000000001
 20
6.1506000000000007
 30
0.0
 10
7.837530000000001
 20
6.1506000000000007
 30
0.0
 10
7.8243000000000009
 20
6.0050500000000007
 30
0.0
 10
7.8243000000000009
 20
6.0050500000000007
 30
0.0
 10
7.8243000000000009
 20
6.0050500000000007
 30
0.0
 10
7.8243000000000009
 20
6.0050500000000007
 30
0.0
 10
7.6986000000000008
 20
5.9653600000000004
 30
0.0
 10
7.6986000000000008
 20
5.9653600000000004
 30
0.0
  0
SPLINE
  5
C6
100
AcDbEntity
  8
Ebene 1
 62
     0
100
AcDbSpline
210
0.0
220
0.0
230
1.0
 70
     1
 71
     3
 72
    12
 73
     8
 74
     0
 42
0.0000000001
 43
0.0000000001
 40
0.0
 40
0.0
 40
0.0
 40
0.0
 40
0.5
 40
0.5
 40
0.5
 40
0.5
 40
1.0
 40
1.0
 40
1.0
 40
1.0
 10
7.8110600000000003
 20
6.5343200000000001
 30
0.0
 10
7.8110600000000003
 20
6.5343200000000001
 30
0.0
 10
7.9433800000000003
 20
6.9081000000000001
 30
0.0
 10
7.9433800000000003
 20
6.9081000000000001
 30
0.0
 10
7.9433800000000003
 20
6.9081000000000001
 30
0.0
 10
7.9830700000000006
 20
6.7758000000000003
 30
0.0
 10
7.9764600000000003
 20
6.5872400000000004
 30
0.0
 10
7.8110600000000003
 20
6.5343200000000001
 30
0.0
  0
SPLINE
  5
C7
100
AcDbEntity
  8
Ebene 1
 62
     0
100
AcDbSpline
210
0.0
220
0.0
230
1.0
 70
     1
 71
     3
 72
    16
 73
    12
 74
     0
 42
0.0000000001
 43
0.0000000001
 40
0.0
 40
0.0
 40
0.0
 40
0.0
 40
0.3333333333333333
 40
0.3333333333333333
 40
0.3333333333333333
 40
0.3333333333333333
 40
0.6666666666666666
 40
0.6666666666666666
 40
0.6666666666666666
 40
0.6666666666666666
 40
1.0
 40
1.0
 40
1.0
 40
1.0
 10
6.3456700000000001
 20
-3.0386900000000003
 30
0.0
 10
6.4052100000000003
 20
-2.8700000000000001
 30
0.0
 10
6.4581300000000006
 20
-2.5855100000000002
 30
0.0
 10
6.6698400000000007
 20
-2.5722900000000002
 30
0.0
 10
6.6698400000000007
 20
-2.5722900000000002
 30
0.0
 10
6.6863800000000007
 20
-2.7740600000000004
 30
0.0
 10
6.5375300000000003
 20
-2.9990000000000001
 30
0.0
 10
6.3787500000000001
 20
-3.1213900000000003
 30
0.0
 10
6.3787500000000001
 20
-3.1213900000000003
 30
0.0
 10
6.3787500000000001
 20
-3.1213900000000003
 30
0.0
 10
6.3456700000000001
 20
-3.0386900000000003
 30
0.0
 10
6.3456700000000001
 20
-3.0386900000000003
 30
0.0
  0
SPLINE
  5
C8
100
AcDbEntity
  8
Ebene 1
 62
    51
100
AcDbSpline
210
0.0
220
0.0
230
1.0
 70
     1
 71
     3
 72
    44
 73
    40
 74
     0
 42
0.0000000001
 43
0.0000000001
 40
0.0
 40
0.0
 40
0.0
 40
0.0
 40
0.1
 40
0.1
 40
0.1
 40
0.1
 40
0.2
 40
0.2
 40
0.2
 40
0.2
 40
0.3
 40
0.3
 40
0.3
 40
0.3
 40
0.4
 40
0.4
 40
0.4
 40
0.4
 40
0.5
 40
0.5
 40
0.5
 40
0.5
 40
0.6
 40
0.6
 40
0.6
 40
0.6
 40
0.7
 40
0.7
 40
0.7
 40
0.7
 40
0.7999999999999999
 40
0.7999999999999999
 40
0.7999999999999999
 40
0.7999999999999999
 40
0.8999999999999999
 40
0.8999999999999999
 40
0.8999999999999999
 40
0.8999999999999999
 40
1.0
 40
1.0
 40
1.0
 40
1.0
 10
8.0856200000000005
 20
6.1506000000000007
 30
0.0
 10
8.3072499999999998
 20
6.4516200000000001
 30
0.0
 10
8.5487200000000012
 20
6.7890300000000003
 30
0.0
 10
8.8100500000000004
 20
7.0801200000000009
 30
0.0
 10
8.8100500000000004
 20
7.0801200000000009
 30
0.0
 10
9.0019100000000005
 20
7.0701900000000002
 30
0.0
 10
9.2202200000000012
 20
6.9279500000000009
 30
0.0
 10
9.25
 20
6.7327900000000005
 30
0.0
 10
9.25
 20
6.7327900000000005
 30
0.0
 10
9.1408400000000007
 20
6.7526300000000008
 30
0.0
 10
8.7670500000000011
 20
6.9808800000000009
 30
0.0
 10
8.8695900000000005
 20
6.7129400000000006
 30
0.0
 10
8.8695900000000005
 20
6.7129400000000006
 30
0.0
 10
8.8166700000000002
 20
6.7427200000000003
 30
0.0
 10
8.7604199999999999
 20
6.7724800000000007
 30
0.0
 10
8.6942800000000009
 20
6.7625600000000006
 30
0.0
 10
8.6942800000000009
 20
6.7625600000000006
 30
0.0
 10
8.7901900000000008
 20
6.5376200000000004
 30
0.0
 10
9.0382899999999999
 20
6.306070000000001
 30
0.0
 10
8.98536
 20
6.0447500000000005
 30
0.0
 10
8.98536
 20
6.0447500000000005
 30
0.0
 10
8.9456700000000016
 20
6.2399100000000001
 30
0.0
 10
8.7505100000000002
 20
6.5244000000000009
 30
0.0
 10
8.5255600000000005
 20
6.4979200000000006
 30
0.0
 10
8.5255600000000005
 20
6.4979200000000006
 30
0.0
 10
8.5321899999999999
 20
6.4350800000000001
 30
0.0
 10
8.5818000000000012
 20
6.4053100000000009
 30
0.0
 10
8.6248100000000001
 20
6.3755300000000004
 30
0.0
 10
8.6248100000000001
 20
6.3755300000000004
 30
0.0
 10
8.4561000000000011
 20
6.4053100000000009
 30
0.0
 10
8.5586400000000005
 20
6.2597600000000009
 30
0.0
 10
8.5983400000000003
 20
6.1274400000000009
 30
0.0
 10
8.5983400000000003
 20
6.1274400000000009
 30
0.0
 10
8.5354900000000011
 20
6.3920800000000009
 30
0.0
 10
8.1583900000000007
 20
6.3689300000000006
 30
0.0
 10
8.2179300000000008
 20
6.1075900000000001
 30
0.0
 10
8.2179300000000008
 20
6.1075900000000001
 30
0.0
 10
8.2179300000000008
 20
6.1075900000000001
 30
0.0
 10
8.0856200000000005
 20
6.1506000000000007
 30
0.0
 10
8.0856200000000005
 20
6.1506000000000007
 30
0.0
  0
SPLINE
  5
C9
100
AcDbEntity
  8
Ebene 1
 62
    51
100
AcDbSpline
210
0.0
220
0.0
230
1.0
 70
     1
 71
     3
 72
    12
 73
     8
 74
     0
 42
0.0000000001
 43
0.0000000001
 40
0.0
 40
0.0
 40
0.0
 40
0.0
 40
0.5
 40
0.5
 40
0.5
 40
0.5
 40
1.0
 40
1.0
 40
1.0
 40
1.0
 10
8.30063
 20
6.7030200000000004
 30
0.0
 10
8.343630000000001
 20
6.8419600000000003
 30
0.0
 10
8.4495000000000005
 20
7.0338100000000008
 30
0.0
 10
8.5884200000000011
 20
7.073500000000001
 30
0.0
 10
8.5884200000000011
 20
7.073500000000001
 30
0.0
 10
8.5387900000000005
 20
6.9345700000000008
 30
0.0
 10
8.4197199999999999
 20
6.7890300000000003
 30
0.0
 10
8.30063
 20
6.7030200000000004
 30
0.0
  0
SPLINE
  5
CA
100
AcDbEntity
  8
Ebene 1
 62
     7
100
AcDbSpline
210
0.0
220
0.0
230
1.0
 70
     1
 71
     3
 72
    32
 73
    28
 74
     0
 42
0.0000000001
 43
0.0000000001
 40
0.0
 40
0.0
 40
0.0
 40
0.0
 40
0.1428571428571429
 40
0.1428571428571429
 40
0.1428571428571429
 40
0.1428571428571429
 40
0.2857142857142857
 40
0.2857142857142857
 40
0.2857142857142857
 40
0.2857142857142857
 40
0.4285714285714286
 40
0.4285714285714286
 40
0.4285714285714286
 40
0.4285714285714286
 40
0.5714285714285714
 40
0.5714285714285714
 40
0.5714285714285714
 40
0.5714285714285714
 40
0.7142857142857142
 40
0.7142857142857142
 40
0.7142857142857142
 40
0.7142857142857142
 40
0.857142857142857
 40
0.857142857142857
 40
0.857142857142857
 40
0.857142857142857
 40
1.0
 40
1.0
 40
1.0
 40
1.0
 10
8.5487200000000012
 20
5.4030200000000006
 30
0.0
 10
8.5917300000000001
 20
5.4791100000000004
 30
0.0
 10
8.6612000000000009
 20
5.5717200000000009
 30
0.0
 10
8.7306600000000003
 20
5.6246500000000008
 30
0.0
 10
8.7306600000000003
 20
5.6246500000000008
 30
0.0
 10
8.7306600000000003
 20
5.6246500000000008
 30
0.0
 10
8.8662800000000015
 20
5.7073400000000003
 30
0.0
 10
8.8662800000000015
 20
5.7073400000000003
 30
0.0
 10
8.8662800000000015
 20
5.7073400000000003
 30
0.0
 10
8.8629700000000007
 20
5.3930900000000008
 30
0.0
 10
8.707510000000001
 20
5.1450000000000005
 30
0.0
 10
8.5553400000000011
 20
4.8572300000000004
 30
0.0
 10
8.5553400000000011
 20
4.8572300000000004
 30
0.0
 10
8.5387900000000005
 20
4.8373800000000005
 30
0.0
 10
8.5057200000000002
 20
4.8439800000000002
 30
0.0
 10
8.4825800000000005
 20
4.8473000000000006
 30
0.0
 10
8.4825800000000005
 20
4.8473000000000006
 30
0.0
 10
8.4891800000000011
 20
4.9729900000000002
 30
0.0
 10
8.64466
 20
5.0292300000000001
 30
0.0
 10
8.641350000000001
 20
5.1780900000000001
 30
0.0
 10
8.641350000000001
 20
5.1780900000000001
 30
0.0
 10
8.6777300000000004
 20
5.2541600000000006
 30
0.0
 10
8.7041900000000005
 20
5.3765500000000008
 30
0.0
 10
8.6810400000000012
 20
5.4857100000000001
 30
0.0
 10
8.6810400000000012
 20
5.4857100000000001
 30
0.0
 10
8.6115700000000004
 20
5.4129400000000008
 30
0.0
 10
8.6016500000000011
 20
5.2045500000000002
 30
0.0
 10
8.5487200000000012
 20
5.4030200000000006
 30
0.0
  0
SPLINE
  5
CB
100
AcDbEntity
  8
Ebene 1
 62
    51
100
AcDbSpline
210
0.0
220
0.0
230
1.0
 70
     1
 71
     3
 72
    24
 73
    20
 74
     0
 42
0.0000000001
 43
0.0000000001
 40
0.0
 40
0.0
 40
0.0
 40
0.0
 40
0.2
 40
0.2
 40
0.2
 40
0.2
 40
0.4
 40
0.4
 40
0.4
 40
0.4
 40
0.6000000000000001
 40
0.6000000000000001
 40
0.6000000000000001
 40
0.6000000000000001
 40
0.8
 40
0.8
 40
0.8
 40
0.8
 40
1.0
 40
1.0
 40
1.0
 40
1.0
 10
8.5917300000000001
 20
4.6620600000000003
 30
0.0
 10
8.8100500000000004
 20
4.9597700000000007
 30
0.0
 10
9.0779900000000016
 20
5.2508600000000003
 30
0.0
 10
9.0283700000000007
 20
5.6577300000000008
 30
0.0
 10
9.0283700000000007
 20
5.6577300000000008
 30
0.0
 10
9.1408400000000007
 20
5.6808900000000007
 30
0.0
 10
9.18384
 20
5.7602800000000007
 30
0.0
 10
9.246690000000001
 20
5.8529000000000009
 30
0.0
 10
9.246690000000001
 20
5.8529000000000009
 30
0.0
 10
9.2632300000000001
 20
5.6842000000000006
 30
0.0
 10
9.246690000000001
 20
5.4559500000000005
 30
0.0
 10
9.0879100000000008
 20
5.3765600000000004
 30
0.0
 10
9.0879100000000008
 20
5.3765600000000004
 30
0.0
 10
8.9986000000000015
 20
5.1185500000000008
 30
0.0
 10
8.8464300000000016
 20
4.8903000000000008
 30
0.0
 10
8.6942700000000013
 20
4.6653700000000002
 30
0.0
 10
8.6942700000000013
 20
4.6653700000000002
 30
0.0
 10
8.6645000000000003
 20
4.6488300000000002
 30
0.0
 10
8.6215000000000011
 20
4.6157500000000002
 30
0.0
 10
8.5917300000000001
 20
4.6620600000000003
 30
0.0
  0
ENDSEC
  0
SECTION
  2
OBJECTS
  0
DICTIONARY
  5
19
100
AcDbDictionary
280
     0
281
     1
  3
ACAD_GROUP
350
1A
  3
ACAD_MLINESTYLE
350
1B
  3
ACAD_LAYOUT
350
1E
  3
ACAD_PLOTSETTINGS
350
22
  3
ACAD_PLOTSTYLENAME
350
1F
  3
ACAD_WIPEOUT_VARS
350
23
  0
DICTIONARY
  5
1A
102
{ACAD_REACTORS
330
19
102
}
100
AcDbDictionary
280
     0
281
     1
  0
DICTIONARY
  5
1B
102
{ACAD_REACTORS
330
19
102
}
100
AcDbDictionary
280
     0
281
     1
  3
Standard
350
1C
  0
MLINESTYLE
  5
1C
102
{ACAD_REACTORS
330
1B
102
}
100
AcDbMlineStyle
  2
Standard
 70
     0
  3

 62
     0
 51
90.0
 52
90.0
 71
     2
 49
0.5
 62
   256
  6
BYLAYER
 49
-0.5
 62
   256
  6
BYLAYER
  0
ACDBDICTIONARYWDFLT
  5
1F
102
{ACAD_REACTORS
330
19
102
}
100
AcDbDictionary
281
     1
  3
Normal
350
1D
100
AcDbDictionaryWithDefault
340
1D
  0
ACDBPLACEHOLDER
  5
1D
102
{ACAD_REACTORS
330
1F
102
}
  0
LAYOUT
  5
20
102
{ACAD_REACTORS
330
1E
102
}
100
AcDbPlotSettings
  1

  2

  4

  6

 40
0.0
 41
0.0
 42
0.0
 43
0.0
 44
0.0
 45
0.0
 46
0.0
 47
0.0
 48
0.0
 49
0.0
140
0.0
141
0.0
142
1.0
143
1.0
 70
  1024
 72
     0
 73
     0
 74
     0
  7

 75
     0
147
1.0
148
0.0
149
0.0
100
AcDbLayout
  1
Model
 70
     0
 71
     0
 10
0.0
 20
0.0
 11
0.0
 21
0.0
 12
0.0
 22
0.0
 32
0.0
 14
0.0
 24
0.0
 34
0.0
 15
0.0
 25
0.0
 35
0.0
146
0.0
 13
0.0
 23
0.0
 33
0.0
 16
0.0
 26
0.0
 36
0.0
 17
0.0
 27
0.0
 37
0.0
 76
     0
330
A
331
0
345
0
346
0
  0
LAYOUT
  5
21
102
{ACAD_REACTORS
330
1E
102
}
100
AcDbPlotSettings
  1

  2

  4

  6

 40
0.0
 41
0.0
 42
0.0
 43
0.0
 44
0.0
 45
0.0
 46
0.0
 47
0.0
 48
0.0
 49
0.0
140
0.0
141
0.0
142
1.0
143
1.0
 70
     0
 72
     0
 73
     0
 74
     0
  7

 75
     0
147
1.0
148
0.0
149
0.0
100
AcDbLayout
  1
Layout1
 70
     0
 71
     0
 10
0.0
 20
0.0
 11
0.0
 21
0.0
 12
0.0
 22
0.0
 32
0.0
 14
0.0
 24
0.0
 34
0.0
 15
0.0
 25
0.0
 35
0.0
146
0.0
 13
0.0
 23
0.0
 33
0.0
 16
0.0
 26
0.0
 36
0.0
 17
0.0
 27
0.0
 37
0.0
 76
     0
330
B
331
0
345
0
346
0
  0
DICTIONARY
  5
1E
102
{ACAD_REACTORS
330
19
102
}
100
AcDbDictionary
280
     0
281
     1
  3
Layout1
350
21
  3
Model
350
20
  0
DICTIONARY
  5
22
102
{ACAD_REACTORS
330
19
102
}
100
AcDbDictionary
280
     0
281
     1
  0
WIPEOUTVARIABLES
  5
23
100
AcDbWipeoutVariables
 70
     1
  0
ENDSEC
  0
EOF
