  0
SECTION
  2
HEADER
  9
$ACADVER
  1
AC1014
  9
$HANDSEED
  5
FFFF
  9
$MEASUREMENT
 70
     1
  0
ENDSEC
  0
SECTION
  2
TABLES
  0
TABLE
  2
VPORT
  5
8
330
0
100
AcDbSymbolTable
 70
     4
  0
VPORT
  5
2E
330
8
100
AcDbSymbolTableRecord
100
AcDbViewportTableRecord
  2
*ACTIVE
 70
     0
 10
0.0
 20
0.0
 11
1.0
 21
1.0
 12
210.0
 22
148.5
 13
0.0
 23
0.0
 14
10.0
 24
10.0
 15
10.0
 25
10.0
 16
0.0
 26
0.0
 36
1.0
 17
0.0
 27
0.0
 37
0.0
 40
341.0
 41
1.24
 42
50.0
 43
0.0
 44
0.0
 50
0.0
 51
0.0
 71
     0
 72
   100
 73
     1
 74
     3
 75
     0
 76
     0
 77
     0
 78
     0
  0
ENDTAB
  0
TABLE
  2
LTYPE
  5
5
330
0
100
AcDbSymbolTable
 70
     1
  0
LTYPE
  5
14
330
5
100
AcDbSymbolTableRecord
100
AcDbLinetypeTableRecord
  2
BYBLOCK
 70
     0
  3

 72
    65
 73
     0
 40
0.0
  0
LTYPE
  5
15
330
5
100
AcDbSymbolTableRecord
100
AcDbLinetypeTableRecord
  2
BYLAYER
 70
     0
  3

 72
    65
 73
     0
 40
0.0
  0
LTYPE
  5
16
330
5
100
AcDbSymbolTableRecord
100
AcDbLinetypeTableRecord
  2
CONTINUOUS
 70
     0
  3
Solid line
 72
    65
 73
     0
 40
0.0
  0
ENDTAB
  0
TABLE
  2
LAYER
  5
2
100
AcDbSymbolTable
 70
1
  0
LAYER
  5
50
100
AcDbSymbolTableRecord
100
AcDbLayerTableRecord
  2
0
 70
0
  6
CONTINUOUS
  0
ENDTAB
  0
TABLE
  2
STYLE
  5
3
330
0
100
AcDbSymbolTable
 70
     1
  0
STYLE
  5
11
330
3
100
AcDbSymbolTableRecord
100
AcDbTextStyleTableRecord
  2
STANDARD
 70
     0
 40
0.0
 41
1.0
 50
0.0
 71
     0
 42
2.5
  3
txt
  4

  0
ENDTAB
  0
TABLE
  2
VIEW
  5
6
330
0
100
AcDbSymbolTable
 70
     0
  0
ENDTAB
  0
TABLE
  2
UCS
  5
7
330
0
100
AcDbSymbolTable
 70
     0
  0
ENDTAB
  0
TABLE
  2
APPID
  5
9
330
0
100
AcDbSymbolTable
 70
     2
  0
APPID
  5
12
330
9
100
AcDbSymbolTableRecord
100
AcDbRegAppTableRecord
  2
ACAD
 70
     0
  0
ENDTAB
  0
TABLE
  2
DIMSTYLE
  5
A
330
0
100
AcDbSymbolTable
 70
     1
  0
DIMSTYLE
105
27
330
A
100
AcDbSymbolTableRecord
100
AcDbDimStyleTableRecord
  2
ISO-25
 70
     0
  3

  4

  5

  6

  7

 40
1.0
 41
2.5
 42
0.625
 43
3.75
 44
1.25
 45
0.0
 46
0.0
 47
0.0
 48
0.0
140
2.5
141
2.5
142
0.0
143
0.03937007874016
144
1.0
145
0.0
146
1.0
147
0.625
 71
     0
 72
     0
 73
     0
 74
     0
 75
     0
 76
     0
 77
     1
 78
     8
170
     0
171
     3
172
     1
173
     0
174
     0
175
     0
176
     0
177
     0
178
     0
270
     2
271
     2
272
     2
273
     2
274
     3
340
11
275
     0
280
     0
281
     0
282
     0
283
     0
284
     8
285
     0
286
     0
287
     3
288
     0
  0
ENDTAB
  0
TABLE
  2
BLOCK_RECORD
  5
1
330
0
100
AcDbSymbolTable
 70
     1
  0
BLOCK_RECORD
  5
1F
330
1
100
AcDbSymbolTableRecord
100
AcDbBlockTableRecord
  2
*MODEL_SPACE
  0
BLOCK_RECORD
  5
1B
330
1
100
AcDbSymbolTableRecord
100
AcDbBlockTableRecord
  2
*PAPER_SPACE
  0
ENDTAB
  0
ENDSEC
  0
SECTION
  2
BLOCKS
  0
BLOCK
  5
20
330
1F
100
AcDbEntity
  8
0
100
AcDbBlockBegin
  2
*MODEL_SPACE
 70
     0
 10
0.0
 20
0.0
 30
0.0
  3
*MODEL_SPACE
  1

  0
ENDBLK
  5
21
330
1F
100
AcDbEntity
  8
0
100
AcDbBlockEnd
  0
BLOCK
  5
1C
330
1B
100
AcDbEntity
 67
     1
  8
0
100
AcDbBlockBegin
  2
*PAPER_SPACE
  1

  0
ENDBLK
  5
1D
330
1B
100
AcDbEntity
 67
     1
  8
0
100
AcDbBlockEnd
  0
ENDSEC
  0
SECTION
  2
ENTITIES
  0
SPLINE
  5
100
100
AcDbEntity
  8
0
 62
7
100
AcDbSpline
 70
8
 71
3
 72
8
 73
4
 74
0
 40
0
 40
0
 40
0
 40
0
 40
1
 40
1
 40
1
 40
1
 10
142.029087
 20
35.800136
 30
0.0
 10
135.280889
 20
36.994783
 30
0.0
 10
128.985605
 20
39.745073
 30
0.0
 10
122.185337
 20
44.469420
 30
0.0
  0
SPLINE
  5
101
100
AcDbEntity
  8
0
 62
7
100
AcDbSpline
 70
8
 71
3
 72
8
 73
4
 74
0
 40
0
 40
0
 40
0
 40
0
 40
1
 40
1
 40
1
 40
1
 10
122.185337
 20
44.469420
 30
0.0
 10
118.986525
 20
46.691735
 30
0.0
 10
116.603185
 20
48.665633
 30
0.0
 10
110.014504
 20
54.549463
 30
0.0
  0
SPLINE
  5
102
100
AcDbEntity
  8
0
 62
7
100
AcDbSpline
 70
8
 71
3
 72
8
 73
4
 74
0
 40
0
 40
0
 40
0
 40
0
 40
1
 40
1
 40
1
 40
1
 10
110.014504
 20
54.549463
 30
0.0
 10
92.716390
 20
69.996950
 30
0.0
 10
85.006458
 20
77.756359
 30
0.0
 10
79.113499
 20
85.648763
 30
0.0
  0
SPLINE
  5
103
100
AcDbEntity
  8
0
 62
7
100
AcDbSpline
 70
8
 71
3
 72
8
 73
4
 74
0
 40
0
 40
0
 40
0
 40
0
 40
1
 40
1
 40
1
 40
1
 10
79.113499
 20
85.648763
 30
0.0
 10
77.863957
 20
87.322253
 30
0.0
 10
75.879383
 20
89.882096
 30
0.0
 10
74.703326
 20
91.337305
 30
0.0
  0
SPLINE
  5
104
100
AcDbEntity
  8
0
 62
7
100
AcDbSpline
 70
8
 71
3
 72
8
 73
4
 74
0
 40
0
 40
0
 40
0
 40
0
 40
1
 40
1
 40
1
 40
1
 10
74.703326
 20
91.337305
 30
0.0
 10
73.527269
 20
92.792513
 30
0.0
 10
72.299605
 20
94.369271
 30
0.0
 10
71.975184
 20
94.841235
 30
0.0
  0
SPLINE
  5
105
100
AcDbEntity
  8
0
 62
7
100
AcDbSpline
 70
8
 71
3
 72
8
 73
4
 74
0
 40
0
 40
0
 40
0
 40
0
 40
1
 40
1
 40
1
 40
1
 10
71.975184
 20
94.841235
 30
0.0
 10
71.650759
 20
95.313172
 30
0.0
 10
71.324137
 20
95.700125
 30
0.0
 10
71.249350
 20
95.701130
 30
0.0
  0
SPLINE
  5
106
100
AcDbEntity
  8
0
 62
7
100
AcDbSpline
 70
8
 71
3
 72
8
 73
4
 74
0
 40
0
 40
0
 40
0
 40
0
 40
1
 40
1
 40
1
 40
1
 10
71.249350
 20
95.701130
 30
0.0
 10
71.174562
 20
95.701130
 30
0.0
 10
70.830633
 20
95.107379
 30
0.0
 10
70.485058
 20
94.379510
 30
0.0
  0
SPLINE
  5
107
100
AcDbEntity
  8
0
 62
7
100
AcDbSpline
 70
8
 71
3
 72
8
 73
4
 74
0
 40
0
 40
0
 40
0
 40
0
 40
1
 40
1
 40
1
 40
1
 10
70.485058
 20
94.379510
 30
0.0
 10
69.760211
 20
92.852785
 30
0.0
 10
66.739236
 20
89.701703
 30
0.0
 10
64.243606
 20
87.869279
 30
0.0
  0
SPLINE
  5
108
100
AcDbEntity
  8
0
 62
7
100
AcDbSpline
 70
8
 71
3
 72
8
 73
4
 74
0
 40
0
 40
0
 40
0
 40
0
 40
1
 40
1
 40
1
 40
1
 10
64.243606
 20
87.869279
 30
0.0
 10
63.214922
 20
87.113973
 30
0.0
 10
62.438759
 20
86.320434
 30
0.0
 10
62.278218
 20
85.859900
 30
0.0
  0
SPLINE
  5
109
100
AcDbEntity
  8
0
 62
7
100
AcDbSpline
 70
8
 71
3
 72
8
 73
4
 74
0
 40
0
 40
0
 40
0
 40
0
 40
1
 40
1
 40
1
 40
1
 10
62.278218
 20
85.859900
 30
0.0
 10
61.773935
 20
84.413318
 30
0.0
 10
58.230386
 20
83.400096
 30
0.0
 10
52.628133
 20
83.100587
 30
0.0
  0
SPLINE
  5
10a
100
AcDbEntity
  8
0
 62
7
100
AcDbSpline
 70
8
 71
3
 72
8
 73
4
 74
0
 40
0
 40
0
 40
0
 40
0
 40
1
 40
1
 40
1
 40
1
 10
52.628133
 20
83.100587
 30
0.0
 10
49.502954
 20
82.933529
 30
0.0
 10
49.327951
 20
82.894054
 30
0.0
 10
49.054882
 20
82.294746
 30
0.0
  0
SPLINE
  5
10b
100
AcDbEntity
  8
0
 62
7
100
AcDbSpline
 70
8
 71
3
 72
8
 73
4
 74
0
 40
0
 40
0
 40
0
 40
0
 40
1
 40
1
 40
1
 40
1
 10
49.054882
 20
82.294746
 30
0.0
 10
48.526187
 20
81.134389
 30
0.0
 10
46.779992
 20
80.951721
 30
0.0
 10
45.720156
 20
81.945893
 30
0.0
  0
SPLINE
  5
10c
100
AcDbEntity
  8
0
 62
7
100
AcDbSpline
 70
8
 71
3
 72
8
 73
4
 74
0
 40
0
 40
0
 40
0
 40
0
 40
1
 40
1
 40
1
 40
1
 10
45.720156
 20
81.945893
 30
0.0
 10
45.226467
 20
82.408993
 30
0.0
 10
44.947300
 20
82.425556
 30
0.0
 10
41.619114
 20
82.189204
 30
0.0
  0
SPLINE
  5
10d
100
AcDbEntity
  8
0
 62
7
100
AcDbSpline
 70
8
 71
3
 72
8
 73
4
 74
0
 40
0
 40
0
 40
0
 40
0
 40
1
 40
1
 40
1
 40
1
 10
41.619114
 20
82.189204
 30
0.0
 10
34.664346
 20
81.695332
 30
0.0
 10
32.082568
 20
82.605102
 30
0.0
 10
30.390177
 20
86.145994
 30
0.0
  0
SPLINE
  5
10e
100
AcDbEntity
  8
0
 62
7
100
AcDbSpline
 70
8
 71
3
 72
8
 73
4
 74
0
 40
0
 40
0
 40
0
 40
0
 40
1
 40
1
 40
1
 40
1
 10
30.390177
 20
86.145994
 30
0.0
 10
29.965944
 20
87.033592
 30
0.0
 10
29.431771
 20
87.817182
 30
0.0
 10
29.203126
 20
87.887323
 30
0.0
  0
SPLINE
  5
10f
100
AcDbEntity
  8
0
 62
7
100
AcDbSpline
 70
8
 71
3
 72
8
 73
4
 74
0
 40
0
 40
0
 40
0
 40
0
 40
1
 40
1
 40
1
 40
1
 10
29.203126
 20
87.887323
 30
0.0
 10
28.974481
 20
87.957464
 30
0.0
 10
26.108502
 20
88.603630
 30
0.0
 10
22.834284
 20
89.323217
 30
0.0
  0
SPLINE
  5
110
100
AcDbEntity
  8
0
 62
7
100
AcDbSpline
 70
8
 71
3
 72
8
 73
4
 74
0
 40
0
 40
0
 40
0
 40
0
 40
1
 40
1
 40
1
 40
1
 10
22.834284
 20
89.323217
 30
0.0
 10
19.560065
 20
90.042831
 30
0.0
 10
16.196300
 20
90.888333
 30
0.0
 10
15.359251
 20
91.202103
 30
0.0
  0
SPLINE
  5
111
100
AcDbEntity
  8
0
 62
7
100
AcDbSpline
 70
8
 71
3
 72
8
 73
4
 74
0
 40
0
 40
0
 40
0
 40
0
 40
1
 40
1
 40
1
 40
1
 10
15.359251
 20
91.202103
 30
0.0
 10
8.620946
 20
93.728053
 30
0.0
 10
6.152455
 20
100.929959
 30
0.0
 10
4.203733
 20
123.748763
 30
0.0
  0
SPLINE
  5
112
100
AcDbEntity
  8
0
 62
7
100
AcDbSpline
 70
8
 71
3
 72
8
 73
4
 74
0
 40
0
 40
0
 40
0
 40
0
 40
1
 40
1
 40
1
 40
1
 10
4.203733
 20
123.748763
 30
0.0
 10
3.129776
 20
136.324382
 30
0.0
 10
2.972857
 20
157.803919
 30
0.0
 10
3.900803
 20
165.214580
 30
0.0
  0
SPLINE
  5
113
100
AcDbEntity
  8
0
 62
7
100
AcDbSpline
 70
8
 71
3
 72
8
 73
4
 74
0
 40
0
 40
0
 40
0
 40
0
 40
1
 40
1
 40
1
 40
1
 10
3.900803
 20
165.214580
 30
0.0
 10
5.140538
 20
175.115236
 30
0.0
 10
6.348988
 20
177.706142
 30
0.0
 10
12.635355
 20
183.941471
 30
0.0
  0
SPLINE
  5
114
100
AcDbEntity
  8
0
 62
7
100
AcDbSpline
 70
8
 71
3
 72
8
 73
4
 74
0
 40
0
 40
0
 40
0
 40
0
 40
1
 40
1
 40
1
 40
1
 10
12.635355
 20
183.941471
 30
0.0
 10
16.972977
 20
188.243861
 30
0.0
 10
17.859598
 20
189.423029
 30
0.0
 10
20.030555
 20
193.776722
 30
0.0
  0
SPLINE
  5
115
100
AcDbEntity
  8
0
 62
7
100
AcDbSpline
 70
8
 71
3
 72
8
 73
4
 74
0
 40
0
 40
0
 40
0
 40
0
 40
1
 40
1
 40
1
 40
1
 10
20.030555
 20
193.776722
 30
0.0
 10
22.811453
 20
199.353609
 30
0.0
 10
23.198035
 20
202.170890
 30
0.0
 10
21.957394
 20
207.818847
 30
0.0
  0
SPLINE
  5
116
100
AcDbEntity
  8
0
 62
7
100
AcDbSpline
 70
8
 71
3
 72
8
 73
4
 74
0
 40
0
 40
0
 40
0
 40
0
 40
1
 40
1
 40
1
 40
1
 10
21.957394
 20
207.818847
 30
0.0
 10
21.429624
 20
210.221481
 30
0.0
 10
21.149012
 20
210.970469
 30
0.0
 10
20.499444
 20
211.710286
 30
0.0
  0
SPLINE
  5
117
100
AcDbEntity
  8
0
 62
7
100
AcDbSpline
 70
8
 71
3
 72
8
 73
4
 74
0
 40
0
 40
0
 40
0
 40
0
 40
1
 40
1
 40
1
 40
1
 10
20.499444
 20
211.710286
 30
0.0
 10
19.442095
 20
212.914540
 30
0.0
 10
19.289430
 20
214.068287
 30
0.0
 10
19.468913
 20
219.498389
 30
0.0
  0
SPLINE
  5
118
100
AcDbEntity
  8
0
 62
7
100
AcDbSpline
 70
8
 71
3
 72
8
 73
4
 74
0
 40
0
 40
0
 40
0
 40
0
 40
1
 40
1
 40
1
 40
1
 10
19.468913
 20
219.498389
 30
0.0
 10
19.854805
 20
231.173322
 30
0.0
 10
24.342107
 20
244.758877
 30
0.0
 10
32.513839
 20
258.992619
 30
0.0
  0
SPLINE
  5
119
100
AcDbEntity
  8
0
 62
7
100
AcDbSpline
 70
8
 71
3
 72
8
 73
4
 74
0
 40
0
 40
0
 40
0
 40
0
 40
1
 40
1
 40
1
 40
1
 10
32.513839
 20
258.992619
 30
0.0
 10
34.472557
 20
262.404368
 30
0.0
 10
38.661017
 20
268.895920
 30
0.0
 10
40.205787
 20
270.914111
 30
0.0
  0
SPLINE
  5
11a
100
AcDbEntity
  8
0
 62
7
100
AcDbSpline
 70
8
 71
3
 72
8
 73
4
 74
0
 40
0
 40
0
 40
0
 40
0
 40
1
 40
1
 40
1
 40
1
 10
40.205787
 20
270.914111
 30
0.0
 10
40.619638
 20
271.454790
 30
0.0
 10
41.372144
 20
272.466821
 30
0.0
 10
41.878028
 20
273.163070
 30
0.0
  0
SPLINE
  5
11b
100
AcDbEntity
  8
0
 62
7
100
AcDbSpline
 70
8
 71
3
 72
8
 73
4
 74
0
 40
0
 40
0
 40
0
 40
0
 40
1
 40
1
 40
1
 40
1
 10
41.878028
 20
273.163070
 30
0.0
 10
45.747146
 20
278.488145
 30
0.0
 10
54.398646
 20
287.593638
 30
0.0
 10
59.360570
 20
291.563020
 30
0.0
  0
SPLINE
  5
11c
100
AcDbEntity
  8
0
 62
7
100
AcDbSpline
 70
8
 71
3
 72
8
 73
4
 74
0
 40
0
 40
0
 40
0
 40
0
 40
1
 40
1
 40
1
 40
1
 10
59.360570
 20
291.563020
 30
0.0
 10
70.269791
 20
300.290047
 30
0.0
 10
82.245716
 20
304.616115
 30
0.0
 10
101.812421
 20
306.897902
 30
0.0
  0
SPLINE
  5
11d
100
AcDbEntity
  8
0
 62
7
100
AcDbSpline
 70
8
 71
3
 72
8
 73
4
 74
0
 40
0
 40
0
 40
0
 40
0
 40
1
 40
1
 40
1
 40
1
 10
101.812421
 20
306.897902
 30
0.0
 10
105.775694
 20
307.360085
 30
0.0
 10
123.694283
 20
307.356023
 30
0.0
 10
128.138462
 20
306.891949
 30
0.0
  0
SPLINE
  5
11e
100
AcDbEntity
  8
0
 62
7
100
AcDbSpline
 70
8
 71
3
 72
8
 73
4
 74
0
 40
0
 40
0
 40
0
 40
0
 40
1
 40
1
 40
1
 40
1
 10
128.138462
 20
306.891949
 30
0.0
 10
147.491807
 20
304.870953
 30
0.0
 10
163.074945
 20
300.609489
 30
0.0
 10
176.180313
 20
293.754112
 30
0.0
  0
SPLINE
  5
11f
100
AcDbEntity
  8
0
 62
7
100
AcDbSpline
 70
8
 71
3
 72
8
 73
4
 74
0
 40
0
 40
0
 40
0
 40
0
 40
1
 40
1
 40
1
 40
1
 10
176.180313
 20
293.754112
 30
0.0
 10
193.929489
 20
284.469578
 30
0.0
 10
207.171488
 20
271.461264
 30
0.0
 10
213.425974
 20
257.165763
 30
0.0
  0
SPLINE
  5
120
100
AcDbEntity
  8
0
 62
7
100
AcDbSpline
 70
8
 71
3
 72
8
 73
4
 74
0
 40
0
 40
0
 40
0
 40
0
 40
1
 40
1
 40
1
 40
1
 10
213.425974
 20
257.165763
 30
0.0
 10
217.023619
 20
248.942802
 30
0.0
 10
218.424694
 20
241.513902
 30
0.0
 10
218.328782
 20
231.169610
 30
0.0
  0
SPLINE
  5
121
100
AcDbEntity
  8
0
 62
7
100
AcDbSpline
 70
8
 71
3
 72
8
 73
4
 74
0
 40
0
 40
0
 40
0
 40
0
 40
1
 40
1
 40
1
 40
1
 10
219.361292
 20
220.321693
 30
0.0
 10
221.128048
 20
212.817771
 30
0.0
 10
221.298995
 20
211.235454
 30
0.0
 10
221.533654
 20
200.213373
 30
0.0
  0
SPLINE
  5
122
100
AcDbEntity
  8
0
 62
7
100
AcDbSpline
 70
8
 71
3
 72
8
 73
4
 74
0
 40
0
 40
0
 40
0
 40
0
 40
1
 40
1
 40
1
 40
1
 10
221.533654
 20
200.213373
 30
0.0
 10
221.773922
 20
188.927941
 30
0.0
 10
222.115129
 20
186.291739
 30
0.0
 10
223.777744
 20
182.875015
 30
0.0
  0
SPLINE
  5
123
100
AcDbEntity
  8
0
 62
7
100
AcDbSpline
 70
8
 71
3
 72
8
 73
4
 74
0
 40
0
 40
0
 40
0
 40
0
 40
1
 40
1
 40
1
 40
1
 10
223.777744
 20
182.875015
 30
0.0
 10
224.877855
 20
180.614230
 30
0.0
 10
226.289248
 20
179.141400
 30
0.0
 10
229.495469
 20
176.908502
 30
0.0
  0
SPLINE
  5
124
100
AcDbEntity
  8
0
 62
7
100
AcDbSpline
 70
8
 71
3
 72
8
 73
4
 74
0
 40
0
 40
0
 40
0
 40
0
 40
1
 40
1
 40
1
 40
1
 10
229.495469
 20
176.908502
 30
0.0
 10
235.065345
 20
173.029473
 30
0.0
 10
236.088462
 20
171.765690
 30
0.0
 10
236.088462
 20
168.764601
 30
0.0
  0
SPLINE
  5
125
100
AcDbEntity
  8
0
 62
7
100
AcDbSpline
 70
8
 71
3
 72
8
 73
4
 74
0
 40
0
 40
0
 40
0
 40
0
 40
1
 40
1
 40
1
 40
1
 10
236.088462
 20
168.764601
 30
0.0
 10
236.088462
 20
166.418223
 30
0.0
 10
235.139270
 20
163.914603
 30
0.0
 10
231.466509
 20
156.573659
 30
0.0
  0
SPLINE
  5
126
100
AcDbEntity
  8
0
 62
7
100
AcDbSpline
 70
8
 71
3
 72
8
 73
4
 74
0
 40
0
 40
0
 40
0
 40
0
 40
1
 40
1
 40
1
 40
1
 10
231.466509
 20
156.573659
 30
0.0
 10
224.042089
 20
141.733894
 30
0.0
 10
222.370425
 20
139.113752
 30
0.0
 10
216.744484
 20
133.498209
 30
0.0
  0
SPLINE
  5
127
100
AcDbEntity
  8
0
 62
7
100
AcDbSpline
 70
8
 71
3
 72
8
 73
4
 74
0
 40
0
 40
0
 40
0
 40
0
 40
1
 40
1
 40
1
 40
1
 10
216.744484
 20
133.498209
 30
0.0
 10
211.989763
 20
128.752272
 30
0.0
 10
210.773208
 20
127.213323
 30
0.0
 10
209.313158
 20
124.097669
 30
0.0
  0
SPLINE
  5
128
100
AcDbEntity
  8
0
 62
7
100
AcDbSpline
 70
8
 71
3
 72
8
 73
4
 74
0
 40
0
 40
0
 40
0
 40
0
 40
1
 40
1
 40
1
 40
1
 10
209.313158
 20
124.097669
 30
0.0
 10
208.277923
 20
121.888557
 30
0.0
 10
208.140710
 20
121.278269
 30
0.0
 10
207.509388
 20
116.075846
 30
0.0
  0
SPLINE
  5
129
100
AcDbEntity
  8
0
 62
7
100
AcDbSpline
 70
8
 71
3
 72
8
 73
4
 74
0
 40
0
 40
0
 40
0
 40
0
 40
1
 40
1
 40
1
 40
1
 10
207.509388
 20
116.075846
 30
0.0
 10
206.843564
 20
110.588970
 30
0.0
 10
205.531363
 20
106.904065
 30
0.0
 10
203.955901
 20
106.096795
 30
0.0
  0
SPLINE
  5
12a
100
AcDbEntity
  8
0
 62
7
100
AcDbSpline
 70
8
 71
3
 72
8
 73
4
 74
0
 40
0
 40
0
 40
0
 40
0
 40
1
 40
1
 40
1
 40
1
 10
203.955901
 20
106.096795
 30
0.0
 10
203.511454
 20
105.869068
 30
0.0
 10
202.408062
 20
104.993271
 30
0.0
 10
201.503902
 20
104.150599
 30
0.0
  0
SPLINE
  5
12b
100
AcDbEntity
  8
0
 62
7
100
AcDbSpline
 70
8
 71
3
 72
8
 73
4
 74
0
 40
0
 40
0
 40
0
 40
0
 40
1
 40
1
 40
1
 40
1
 10
201.503902
 20
104.150599
 30
0.0
 10
200.598021
 20
103.306287
 30
0.0
 10
199.084340
 20
102.248245
 30
0.0
 10
198.132237
 20
101.793850
 30
0.0
  0
SPLINE
  5
12c
100
AcDbEntity
  8
0
 62
7
100
AcDbSpline
 70
8
 71
3
 72
8
 73
4
 74
0
 40
0
 40
0
 40
0
 40
0
 40
1
 40
1
 40
1
 40
1
 10
198.132237
 20
101.793850
 30
0.0
 10
196.804928
 20
101.160384
 30
0.0
 10
196.093226
 20
100.588911
 30
0.0
 10
195.061668
 20
99.328277
 30
0.0
  0
SPLINE
  5
12d
100
AcDbEntity
  8
0
 62
7
100
AcDbSpline
 70
8
 71
3
 72
8
 73
4
 74
0
 40
0
 40
0
 40
0
 40
0
 40
1
 40
1
 40
1
 40
1
 10
195.061668
 20
99.328277
 30
0.0
 10
193.373864
 20
97.265691
 30
0.0
 10
190.984439
 20
92.405983
 30
0.0
 10
189.376460
 20
87.765456
 30
0.0
  0
SPLINE
  5
12e
100
AcDbEntity
  8
0
 62
7
100
AcDbSpline
 70
8
 71
3
 72
8
 73
4
 74
0
 40
0
 40
0
 40
0
 40
0
 40
1
 40
1
 40
1
 40
1
 10
189.376460
 20
87.765456
 30
0.0
 10
187.159516
 20
81.367593
 30
0.0
 10
185.512512
 20
78.533043
 30
0.0
 10
180.536625
 20
72.551925
 30
0.0
  0
SPLINE
  5
12f
100
AcDbEntity
  8
0
 62
7
100
AcDbSpline
 70
8
 71
3
 72
8
 73
4
 74
0
 40
0
 40
0
 40
0
 40
0
 40
1
 40
1
 40
1
 40
1
 10
180.536625
 20
72.551925
 30
0.0
 10
178.272400
 20
69.830262
 30
0.0
 10
177.155144
 20
68.183151
 30
0.0
 10
176.701913
 20
66.898573
 30
0.0
  0
SPLINE
  5
130
100
AcDbEntity
  8
0
 62
7
100
AcDbSpline
 70
8
 71
3
 72
8
 73
4
 74
0
 40
0
 40
0
 40
0
 40
0
 40
1
 40
1
 40
1
 40
1
 10
176.701913
 20
66.898573
 30
0.0
 10
176.175048
 20
65.405317
 30
0.0
 10
175.349389
 20
61.056255
 30
0.0
 10
174.579161
 20
55.717228
 30
0.0
  0
SPLINE
  5
131
100
AcDbEntity
  8
0
 62
7
100
AcDbSpline
 70
8
 71
3
 72
8
 73
4
 74
0
 40
0
 40
0
 40
0
 40
0
 40
1
 40
1
 40
1
 40
1
 10
174.579161
 20
55.717228
 30
0.0
 10
173.740088
 20
49.900972
 30
0.0
 10
173.132869
 20
47.504112
 30
0.0
 10
171.801750
 20
44.754033
 30
0.0
  0
SPLINE
  5
132
100
AcDbEntity
  8
0
 62
7
100
AcDbSpline
 70
8
 71
3
 72
8
 73
4
 74
0
 40
0
 40
0
 40
0
 40
0
 40
1
 40
1
 40
1
 40
1
 10
171.801750
 20
44.754033
 30
0.0
 10
169.495086
 20
39.988490
 30
0.0
 10
164.960895
 20
37.494924
 30
0.0
 10
155.694975
 20
35.896100
 30
0.0
  0
SPLINE
  5
133
100
AcDbEntity
  8
0
 62
7
100
AcDbSpline
 70
8
 71
3
 72
8
 73
4
 74
0
 40
0
 40
0
 40
0
 40
0
 40
1
 40
1
 40
1
 40
1
 10
155.694975
 20
35.896100
 30
0.0
 10
152.070633
 20
35.270731
 30
0.0
 10
145.288622
 20
35.223132
 30
0.0
 10
142.029087
 20
35.800162
 30
0.0
  0
LWPOLYLINE
  5
134
100
AcDbEntity
  8
0
 62
7
100
AcDbPolyline
 90
3
 70
0
 10
218.328782
 20
231.169610
 30
0.0
 10
218.271130
 20
224.951901
 30
0.0
 10
219.361292
 20
220.321693
 30
0.0
  0
SPLINE
  5
135
100
AcDbEntity
  8
0
 62
7
100
AcDbSpline
 70
8
 71
3
 72
8
 73
4
 74
0
 40
0
 40
0
 40
0
 40
0
 40
1
 40
1
 40
1
 40
1
 10
157.472526
 20
40.149568
 30
0.0
 10
162.463202
 20
40.661696
 30
0.0
 10
165.815076
 20
41.808374
 30
0.0
 10
167.538969
 20
43.593226
 30
0.0
  0
SPLINE
  5
136
100
AcDbEntity
  8
0
 62
7
100
AcDbSpline
 70
8
 71
3
 72
8
 73
4
 74
0
 40
0
 40
0
 40
0
 40
0
 40
1
 40
1
 40
1
 40
1
 10
167.538969
 20
43.593226
 30
0.0
 10
168.592037
 20
44.683521
 30
0.0
 10
171.150399
 20
49.387390
 30
0.0
 10
172.184285
 20
52.134109
 30
0.0
  0
SPLINE
  5
137
100
AcDbEntity
  8
0
 62
7
100
AcDbSpline
 70
8
 71
3
 72
8
 73
4
 74
0
 40
0
 40
0
 40
0
 40
0
 40
1
 40
1
 40
1
 40
1
 10
172.184285
 20
52.134109
 30
0.0
 10
173.380493
 20
55.312204
 30
0.0
 10
172.964462
 20
56.544607
 30
0.0
 10
170.695369
 20
56.544607
 30
0.0
  0
SPLINE
  5
138
100
AcDbEntity
  8
0
 62
7
100
AcDbSpline
 70
8
 71
3
 72
8
 73
4
 74
0
 40
0
 40
0
 40
0
 40
0
 40
1
 40
1
 40
1
 40
1
 10
170.695369
 20
56.544607
 30
0.0
 10
169.990307
 20
56.544607
 30
0.0
 10
169.413462
 20
56.578500
 30
0.0
 10
169.413462
 20
56.619934
 30
0.0
  0
SPLINE
  5
139
100
AcDbEntity
  8
0
 62
7
100
AcDbSpline
 70
8
 71
3
 72
8
 73
4
 74
0
 40
0
 40
0
 40
0
 40
0
 40
1
 40
1
 40
1
 40
1
 10
169.413462
 20
56.619934
 30
0.0
 10
169.413462
 20
56.661341
 30
0.0
 10
169.656614
 20
57.387067
 30
0.0
 10
169.953794
 20
58.232596
 30
0.0
  0
SPLINE
  5
13a
100
AcDbEntity
  8
0
 62
7
100
AcDbSpline
 70
8
 71
3
 72
8
 73
4
 74
0
 40
0
 40
0
 40
0
 40
0
 40
1
 40
1
 40
1
 40
1
 10
169.953794
 20
58.232596
 30
0.0
 10
170.545456
 20
59.915981
 30
0.0
 10
171.376671
 20
63.745136
 30
0.0
 10
171.669379
 20
66.135753
 30
0.0
  0
LWPOLYLINE
  5
13b
100
AcDbEntity
  8
0
 62
7
100
AcDbPolyline
 90
1
 70
1
 10
142.029087
 20
35.800162
 30
0.0
  0
SPLINE
  5
13c
100
AcDbEntity
  8
0
 62
7
100
AcDbSpline
 70
8
 71
3
 72
8
 73
4
 74
0
 40
0
 40
0
 40
0
 40
0
 40
1
 40
1
 40
1
 40
1
 10
170.776067
 20
67.657107
 30
0.0
 10
169.219973
 20
67.657107
 30
0.0
 10
168.142166
 20
66.589672
 30
0.0
 10
166.530827
 20
63.452745
 30
0.0
  0
SPLINE
  5
13d
100
AcDbEntity
  8
0
 62
7
100
AcDbSpline
 70
8
 71
3
 72
8
 73
4
 74
0
 40
0
 40
0
 40
0
 40
0
 40
1
 40
1
 40
1
 40
1
 10
166.530827
 20
63.452745
 30
0.0
 10
164.955286
 20
60.385510
 30
0.0
 10
164.562406
 20
59.954663
 30
0.0
 10
164.110630
 20
60.798789
 30
0.0
  0
SPLINE
  5
13e
100
AcDbEntity
  8
0
 62
7
100
AcDbSpline
 70
8
 71
3
 72
8
 73
4
 74
0
 40
0
 40
0
 40
0
 40
0
 40
1
 40
1
 40
1
 40
1
 10
164.110630
 20
60.798789
 30
0.0
 10
163.623638
 20
61.708718
 30
0.0
 10
163.939630
 20
63.907009
 30
0.0
 10
164.849744
 20
65.940993
 30
0.0
  0
SPLINE
  5
13f
100
AcDbEntity
  8
0
 62
7
100
AcDbSpline
 70
8
 71
3
 72
8
 73
4
 74
0
 40
0
 40
0
 40
0
 40
0
 40
1
 40
1
 40
1
 40
1
 10
164.849744
 20
65.940993
 30
0.0
 10
166.041903
 20
68.605268
 30
0.0
 10
166.086750
 20
68.867152
 30
0.0
 10
165.458233
 20
69.495644
 30
0.0
  0
SPLINE
  5
140
100
AcDbEntity
  8
0
 62
7
100
AcDbSpline
 70
8
 71
3
 72
8
 73
4
 74
0
 40
0
 40
0
 40
0
 40
0
 40
1
 40
1
 40
1
 40
1
 10
165.458233
 20
69.495644
 30
0.0
 10
165.039503
 20
69.914373
 30
0.0
 10
164.575133
 20
70.038357
 30
0.0
 10
163.425412
 20
70.038357
 30
0.0
  0
SPLINE
  5
141
100
AcDbEntity
  8
0
 62
7
100
AcDbSpline
 70
8
 71
3
 72
8
 73
4
 74
0
 40
0
 40
0
 40
0
 40
0
 40
1
 40
1
 40
1
 40
1
 10
163.425412
 20
70.038357
 30
0.0
 10
162.081197
 20
70.038357
 30
0.0
 10
161.854528
 20
69.952605
 30
0.0
 10
161.110308
 20
69.162454
 30
0.0
  0
SPLINE
  5
142
100
AcDbEntity
  8
0
 62
7
100
AcDbSpline
 70
8
 71
3
 72
8
 73
4
 74
0
 40
0
 40
0
 40
0
 40
0
 40
1
 40
1
 40
1
 40
1
 10
161.110308
 20
69.162454
 30
0.0
 10
160.656574
 20
68.680727
 30
0.0
 10
159.756435
 20
67.302830
 30
0.0
 10
159.110032
 20
66.100510
 30
0.0
  0
SPLINE
  5
143
100
AcDbEntity
  8
0
 62
7
100
AcDbSpline
 70
8
 71
3
 72
8
 73
4
 74
0
 40
0
 40
0
 40
0
 40
0
 40
1
 40
1
 40
1
 40
1
 10
159.110032
 20
66.100510
 30
0.0
 10
158.463628
 20
64.898191
 30
0.0
 10
157.591297
 20
63.625465
 30
0.0
 10
157.171509
 20
63.272247
 30
0.0
  0
SPLINE
  5
144
100
AcDbEntity
  8
0
 62
7
100
AcDbSpline
 70
8
 71
3
 72
8
 73
4
 74
0
 40
0
 40
0
 40
0
 40
0
 40
1
 40
1
 40
1
 40
1
 10
157.171509
 20
63.272247
 30
0.0
 10
156.397259
 20
62.620763
 30
0.0
 10
155.286009
 20
62.421585
 30
0.0
 10
155.000709
 20
62.883203
 30
0.0
  0
SPLINE
  5
145
100
AcDbEntity
  8
0
 62
7
100
AcDbSpline
 70
8
 71
3
 72
8
 73
4
 74
0
 40
0
 40
0
 40
0
 40
0
 40
1
 40
1
 40
1
 40
1
 10
155.000709
 20
62.883203
 30
0.0
 10
154.914666
 20
63.022427
 30
0.0
 10
155.451029
 20
64.464539
 30
0.0
 10
156.192630
 20
66.087890
 30
0.0
  0
SPLINE
  5
146
100
AcDbEntity
  8
0
 62
7
100
AcDbSpline
 70
8
 71
3
 72
8
 73
4
 74
0
 40
0
 40
0
 40
0
 40
0
 40
1
 40
1
 40
1
 40
1
 10
156.192630
 20
66.087890
 30
0.0
 10
156.934257
 20
67.711241
 30
0.0
 10
157.480093
 20
69.198199
 30
0.0
 10
157.405639
 20
69.392244
 30
0.0
  0
SPLINE
  5
147
100
AcDbEntity
  8
0
 62
7
100
AcDbSpline
 70
8
 71
3
 72
8
 73
4
 74
0
 40
0
 40
0
 40
0
 40
0
 40
1
 40
1
 40
1
 40
1
 10
157.405639
 20
69.392244
 30
0.0
 10
157.182251
 20
69.974381
 30
0.0
 10
154.790921
 20
70.555591
 30
0.0
 10
153.664457
 20
70.301511
 30
0.0
  0
SPLINE
  5
148
100
AcDbEntity
  8
0
 62
7
100
AcDbSpline
 70
8
 71
3
 72
8
 73
4
 74
0
 40
0
 40
0
 40
0
 40
0
 40
1
 40
1
 40
1
 40
1
 10
153.664457
 20
70.301511
 30
0.0
 10
151.631796
 20
69.843094
 30
0.0
 10
149.859246
 20
67.184720
 30
0.0
 10
148.813798
 20
63.026899
 30
0.0
  0
SPLINE
  5
149
100
AcDbEntity
  8
0
 62
7
100
AcDbSpline
 70
8
 71
3
 72
8
 73
4
 74
0
 40
0
 40
0
 40
0
 40
0
 40
1
 40
1
 40
1
 40
1
 10
148.813798
 20
63.026899
 30
0.0
 10
148.361678
 20
61.228764
 30
0.0
 10
147.736758
 20
57.511897
 30
0.0
 10
147.709559
 20
56.459305
 30
0.0
  0
SPLINE
  5
14a
100
AcDbEntity
  8
0
 62
7
100
AcDbSpline
 70
8
 71
3
 72
8
 73
4
 74
0
 40
0
 40
0
 40
0
 40
0
 40
1
 40
1
 40
1
 40
1
 10
147.709559
 20
56.459305
 30
0.0
 10
147.705061
 20
56.287935
 30
0.0
 10
147.568378
 20
56.377126
 30
0.0
 10
147.405659
 20
56.657505
 30
0.0
  0
SPLINE
  5
14b
100
AcDbEntity
  8
0
 62
7
100
AcDbSpline
 70
8
 71
3
 72
8
 73
4
 74
0
 40
0
 40
0
 40
0
 40
0
 40
1
 40
1
 40
1
 40
1
 10
147.405659
 20
56.657505
 30
0.0
 10
147.242940
 20
56.937884
 30
0.0
 10
147.052572
 20
58.261806
 30
0.0
 10
146.982590
 20
59.599539
 30
0.0
  0
SPLINE
  5
14c
100
AcDbEntity
  8
0
 62
7
100
AcDbSpline
 70
8
 71
3
 72
8
 73
4
 74
0
 40
0
 40
0
 40
0
 40
0
 40
1
 40
1
 40
1
 40
1
 10
146.982590
 20
59.599539
 30
0.0
 10
146.808230
 20
62.933315
 30
0.0
 10
147.374570
 20
65.320519
 30
0.0
 10
149.185458
 20
68.884483
 30
0.0
  0
SPLINE
  5
14d
100
AcDbEntity
  8
0
 62
7
100
AcDbSpline
 70
8
 71
3
 72
8
 73
4
 74
0
 40
0
 40
0
 40
0
 40
0
 40
1
 40
1
 40
1
 40
1
 10
149.185458
 20
68.884483
 30
0.0
 10
150.799046
 20
72.060197
 30
0.0
 10
150.819604
 20
72.493452
 30
0.0
 10
149.415090
 20
73.726622
 30
0.0
  0
SPLINE
  5
14e
100
AcDbEntity
  8
0
 62
7
100
AcDbSpline
 70
8
 71
3
 72
8
 73
4
 74
0
 40
0
 40
0
 40
0
 40
0
 40
1
 40
1
 40
1
 40
1
 10
149.415090
 20
73.726622
 30
0.0
 10
148.396920
 20
74.620596
 30
0.0
 10
147.028363
 20
74.967994
 30
0.0
 10
145.945979
 20
74.607182
 30
0.0
  0
SPLINE
  5
14f
100
AcDbEntity
  8
0
 62
7
100
AcDbSpline
 70
8
 71
3
 72
8
 73
4
 74
0
 40
0
 40
0
 40
0
 40
0
 40
1
 40
1
 40
1
 40
1
 10
145.945979
 20
74.607182
 30
0.0
 10
145.003057
 20
74.292883
 30
0.0
 10
144.635709
 20
73.334298
 30
0.0
 10
142.927692
 20
66.731065
 30
0.0
  0
SPLINE
  5
150
100
AcDbEntity
  8
0
 62
7
100
AcDbSpline
 70
8
 71
3
 72
8
 73
4
 74
0
 40
0
 40
0
 40
0
 40
0
 40
1
 40
1
 40
1
 40
1
 10
142.927692
 20
66.731065
 30
0.0
 10
141.357469
 20
60.660624
 30
0.0
 10
140.610101
 20
58.343059
 30
0.0
 10
140.287071
 20
58.542714
 30
0.0
  0
SPLINE
  5
151
100
AcDbEntity
  8
0
 62
7
100
AcDbSpline
 70
8
 71
3
 72
8
 73
4
 74
0
 40
0
 40
0
 40
0
 40
0
 40
1
 40
1
 40
1
 40
1
 10
140.287071
 20
58.542714
 30
0.0
 10
139.895884
 20
58.784464
 30
0.0
 10
140.008914
 20
63.272829
 30
0.0
 10
140.461325
 20
65.463155
 30
0.0
  0
SPLINE
  5
152
100
AcDbEntity
  8
0
 62
7
100
AcDbSpline
 70
8
 71
3
 72
8
 73
4
 74
0
 40
0
 40
0
 40
0
 40
0
 40
1
 40
1
 40
1
 40
1
 10
140.461325
 20
65.463155
 30
0.0
 10
140.690481
 20
66.572553
 30
0.0
 10
141.295927
 20
68.918402
 30
0.0
 10
141.806732
 20
70.676188
 30
0.0
  0
SPLINE
  5
153
100
AcDbEntity
  8
0
 62
7
100
AcDbSpline
 70
8
 71
3
 72
8
 73
4
 74
0
 40
0
 40
0
 40
0
 40
0
 40
1
 40
1
 40
1
 40
1
 10
141.806732
 20
70.676188
 30
0.0
 10
142.317563
 20
72.433974
 30
0.0
 10
142.755157
 20
74.349001
 30
0.0
 10
142.779155
 20
74.931799
 30
0.0
  0
SPLINE
  5
154
100
AcDbEntity
  8
0
 62
7
100
AcDbSpline
 70
8
 71
3
 72
8
 73
4
 74
0
 40
0
 40
0
 40
0
 40
0
 40
1
 40
1
 40
1
 40
1
 10
142.779155
 20
74.931799
 30
0.0
 10
142.822414
 20
75.981639
 30
0.0
 10
142.813233
 20
75.992276
 30
0.0
 10
141.789719
 20
76.076043
 30
0.0
  0
SPLINE
  5
155
100
AcDbEntity
  8
0
 62
7
100
AcDbSpline
 70
8
 71
3
 72
8
 73
4
 74
0
 40
0
 40
0
 40
0
 40
0
 40
1
 40
1
 40
1
 40
1
 10
141.789719
 20
76.076043
 30
0.0
 10
140.265798
 20
76.200767
 30
0.0
 10
139.725942
 20
75.988439
 30
0.0
 10
138.551854
 20
74.802603
 30
0.0
  0
SPLINE
  5
156
100
AcDbEntity
  8
0
 62
7
100
AcDbSpline
 70
8
 71
3
 72
8
 73
4
 74
0
 40
0
 40
0
 40
0
 40
0
 40
1
 40
1
 40
1
 40
1
 10
138.551854
 20
74.802603
 30
0.0
 10
137.440181
 20
73.679817
 30
0.0
 10
136.031856
 20
71.067348
 30
0.0
 10
135.002574
 20
68.218579
 30
0.0
  0
SPLINE
  5
157
100
AcDbEntity
  8
0
 62
7
100
AcDbSpline
 70
8
 71
3
 72
8
 73
4
 74
0
 40
0
 40
0
 40
0
 40
0
 40
1
 40
1
 40
1
 40
1
 10
135.002574
 20
68.218579
 30
0.0
 10
134.457427
 20
66.709793
 30
0.0
 10
134.368580
 20
66.596789
 30
0.0
 10
134.163369
 20
67.151515
 30
0.0
  0
SPLINE
  5
158
100
AcDbEntity
  8
0
 62
7
100
AcDbSpline
 70
8
 71
3
 72
8
 73
4
 74
0
 40
0
 40
0
 40
0
 40
0
 40
1
 40
1
 40
1
 40
1
 10
134.163369
 20
67.151515
 30
0.0
 10
133.393802
 20
69.231854
 30
0.0
 10
133.729029
 20
74.660919
 30
0.0
 10
134.778181
 20
77.108500
 30
0.0
  0
SPLINE
  5
159
100
AcDbEntity
  8
0
 62
7
100
AcDbSpline
 70
8
 71
3
 72
8
 73
4
 74
0
 40
0
 40
0
 40
0
 40
0
 40
1
 40
1
 40
1
 40
1
 10
134.778181
 20
77.108500
 30
0.0
 10
135.055385
 20
77.755194
 30
0.0
 10
135.282186
 20
78.333970
 30
0.0
 10
135.282186
 20
78.394666
 30
0.0
  0
SPLINE
  5
15a
100
AcDbEntity
  8
0
 62
7
100
AcDbSpline
 70
8
 71
3
 72
8
 73
4
 74
0
 40
0
 40
0
 40
0
 40
0
 40
1
 40
1
 40
1
 40
1
 10
135.282186
 20
78.394666
 30
0.0
 10
135.282186
 20
78.455361
 30
0.0
 10
134.800274
 20
78.505024
 30
0.0
 10
134.211232
 20
78.505024
 30
0.0
  0
SPLINE
  5
15b
100
AcDbEntity
  8
0
 62
7
100
AcDbSpline
 70
8
 71
3
 72
8
 73
4
 74
0
 40
0
 40
0
 40
0
 40
0
 40
1
 40
1
 40
1
 40
1
 10
134.211232
 20
78.505024
 30
0.0
 10
132.710224
 20
78.505024
 30
0.0
 10
132.035113
 20
77.685609
 30
0.0
 10
131.314336
 20
74.988923
 30
0.0
  0
SPLINE
  5
15c
100
AcDbEntity
  8
0
 62
7
100
AcDbSpline
 70
8
 71
3
 72
8
 73
4
 74
0
 40
0
 40
0
 40
0
 40
0
 40
1
 40
1
 40
1
 40
1
 10
131.314336
 20
74.988923
 30
0.0
 10
130.617026
 20
72.380052
 30
0.0
 10
130.049072
 20
71.096690
 30
0.0
 10
129.591819
 20
71.096690
 30
0.0
  0
SPLINE
  5
15d
100
AcDbEntity
  8
0
 62
7
100
AcDbSpline
 70
8
 71
3
 72
8
 73
4
 74
0
 40
0
 40
0
 40
0
 40
0
 40
1
 40
1
 40
1
 40
1
 10
129.591819
 20
71.096690
 30
0.0
 10
129.045666
 20
71.096690
 30
0.0
 10
128.932186
 20
71.758201
 30
0.0
 10
128.932186
 20
74.941774
 30
0.0
  0
SPLINE
  5
15e
100
AcDbEntity
  8
0
 62
7
100
AcDbSpline
 70
8
 71
3
 72
8
 73
4
 74
0
 40
0
 40
0
 40
0
 40
0
 40
1
 40
1
 40
1
 40
1
 10
128.932186
 20
74.941774
 30
0.0
 10
128.932186
 20
76.596187
 30
0.0
 10
128.802514
 20
78.554448
 30
0.0
 10
128.644028
 20
79.293482
 30
0.0
  0
SPLINE
  5
15f
100
AcDbEntity
  8
0
 62
7
100
AcDbSpline
 70
8
 71
3
 72
8
 73
4
 74
0
 40
0
 40
0
 40
0
 40
0
 40
1
 40
1
 40
1
 40
1
 10
128.644028
 20
79.293482
 30
0.0
 10
128.128620
 20
81.696814
 30
0.0
 10
126.576071
 20
82.808937
 30
0.0
 10
124.368123
 20
82.356420
 30
0.0
  0
SPLINE
  5
160
100
AcDbEntity
  8
0
 62
7
100
AcDbSpline
 70
8
 71
3
 72
8
 73
4
 74
0
 40
0
 40
0
 40
0
 40
0
 40
1
 40
1
 40
1
 40
1
 10
124.368123
 20
82.356420
 30
0.0
 10
123.584031
 20
82.195712
 30
0.0
 10
123.391732
 20
81.936606
 30
0.0
 10
122.186343
 20
79.416555
 30
0.0
  0
SPLINE
  5
161
100
AcDbEntity
  8
0
 62
7
100
AcDbSpline
 70
8
 71
3
 72
8
 73
4
 74
0
 40
0
 40
0
 40
0
 40
0
 40
1
 40
1
 40
1
 40
1
 10
122.186343
 20
79.416555
 30
0.0
 10
121.459294
 20
77.896561
 30
0.0
 10
120.800217
 20
76.652940
 30
0.0
 10
120.721715
 20
76.652940
 30
0.0
  0
SPLINE
  5
162
100
AcDbEntity
  8
0
 62
7
100
AcDbSpline
 70
8
 71
3
 72
8
 73
4
 74
0
 40
0
 40
0
 40
0
 40
0
 40
1
 40
1
 40
1
 40
1
 10
120.721715
 20
76.652940
 30
0.0
 10
120.583365
 20
76.652940
 30
0.0
 10
119.874837
 20
79.658940
 30
0.0
 10
119.505611
 20
81.812305
 30
0.0
  0
SPLINE
  5
163
100
AcDbEntity
  8
0
 62
7
100
AcDbSpline
 70
8
 71
3
 72
8
 73
4
 74
0
 40
0
 40
0
 40
0
 40
0
 40
1
 40
1
 40
1
 40
1
 10
119.505611
 20
81.812305
 30
0.0
 10
119.261718
 20
83.234758
 30
0.0
 10
118.678285
 20
84.582148
 30
0.0
 10
118.232092
 20
84.753387
 30
0.0
  0
SPLINE
  5
164
100
AcDbEntity
  8
0
 62
7
100
AcDbSpline
 70
8
 71
3
 72
8
 73
4
 74
0
 40
0
 40
0
 40
0
 40
0
 40
1
 40
1
 40
1
 40
1
 10
118.232092
 20
84.753387
 30
0.0
 10
117.815585
 20
84.913221
 30
0.0
 10
116.499891
 20
84.286900
 30
0.0
 10
115.239390
 20
83.328711
 30
0.0
  0
SPLINE
  5
165
100
AcDbEntity
  8
0
 62
7
100
AcDbSpline
 70
8
 71
3
 72
8
 73
4
 74
0
 40
0
 40
0
 40
0
 40
0
 40
1
 40
1
 40
1
 40
1
 10
115.239390
 20
83.328711
 30
0.0
 10
114.568407
 20
82.818674
 30
0.0
 10
114.297976
 20
82.741733
 30
0.0
 10
114.011617
 20
82.979382
 30
0.0
  0
SPLINE
  5
166
100
AcDbEntity
  8
0
 62
7
100
AcDbSpline
 70
8
 71
3
 72
8
 73
4
 74
0
 40
0
 40
0
 40
0
 40
0
 40
1
 40
1
 40
1
 40
1
 10
114.011617
 20
82.979382
 30
0.0
 10
113.389556
 20
83.495637
 30
0.0
 10
112.603293
 20
85.645614
 30
0.0
 10
111.911514
 20
88.721951
 30
0.0
  0
SPLINE
  5
167
100
AcDbEntity
  8
0
 62
7
100
AcDbSpline
 70
8
 71
3
 72
8
 73
4
 74
0
 40
0
 40
0
 40
0
 40
0
 40
1
 40
1
 40
1
 40
1
 10
111.911514
 20
88.721951
 30
0.0
 10
110.708877
 20
94.070001
 30
0.0
 10
109.392072
 20
95.657210
 30
0.0
 10
105.953600
 20
95.903219
 30
0.0
  0
LWPOLYLINE
  5
168
100
AcDbEntity
  8
0
 62
7
100
AcDbPolyline
 90
3
 70
0
 10
171.669379
 20
66.135753
 30
0.0
 10
171.855672
 20
67.657107
 30
0.0
 10
170.776067
 20
67.657107
 30
0.0
  0
SPLINE
  5
169
100
AcDbEntity
  8
0
 62
7
100
AcDbSpline
 70
8
 71
3
 72
8
 73
4
 74
0
 40
0
 40
0
 40
0
 40
0
 40
1
 40
1
 40
1
 40
1
 10
103.969516
 20
94.772628
 30
0.0
 10
103.598067
 20
92.062686
 30
0.0
 10
103.880536
 20
89.932208
 30
0.0
 10
104.944717
 20
87.417106
 30
0.0
  0
SPLINE
  5
16a
100
AcDbEntity
  8
0
 62
7
100
AcDbSpline
 70
8
 71
3
 72
8
 73
4
 74
0
 40
0
 40
0
 40
0
 40
0
 40
1
 40
1
 40
1
 40
1
 10
104.944717
 20
87.417106
 30
0.0
 10
105.366198
 20
86.421002
 30
0.0
 10
105.364161
 20
86.408461
 30
0.0
 10
104.794645
 20
86.491064
 30
0.0
  0
SPLINE
  5
16b
100
AcDbEntity
  8
0
 62
7
100
AcDbSpline
 70
8
 71
3
 72
8
 73
4
 74
0
 40
0
 40
0
 40
0
 40
0
 40
1
 40
1
 40
1
 40
1
 10
104.794645
 20
86.491064
 30
0.0
 10
103.207701
 20
86.721252
 30
0.0
 10
101.542678
 20
90.732811
 30
0.0
 10
100.641798
 20
96.496680
 30
0.0
  0
SPLINE
  5
16c
100
AcDbEntity
  8
0
 62
7
100
AcDbSpline
 70
8
 71
3
 72
8
 73
4
 74
0
 40
0
 40
0
 40
0
 40
0
 40
1
 40
1
 40
1
 40
1
 10
100.641798
 20
96.496680
 30
0.0
 10
99.736976
 20
102.285657
 30
0.0
 10
99.463397
 20
106.473800
 30
0.0
 10
99.447072
 20
114.785791
 30
0.0
  0
LWPOLYLINE
  5
16d
100
AcDbEntity
  8
0
 62
7
100
AcDbPolyline
 90
3
 70
0
 10
105.953600
 20
95.903219
 30
0.0
 10
104.142236
 20
96.032839
 30
0.0
 10
103.969516
 20
94.772628
 30
0.0
  0
SPLINE
  5
16e
100
AcDbEntity
  8
0
 62
7
100
AcDbSpline
 70
8
 71
3
 72
8
 73
4
 74
0
 40
0
 40
0
 40
0
 40
0
 40
1
 40
1
 40
1
 40
1
 10
98.711742
 20
123.160250
 30
0.0
 10
98.269994
 20
123.327149
 30
0.0
 10
97.813217
 20
123.825095
 30
0.0
 10
97.528420
 20
124.450306
 30
0.0
  0
SPLINE
  5
16f
100
AcDbEntity
  8
0
 62
7
100
AcDbSpline
 70
8
 71
3
 72
8
 73
4
 74
0
 40
0
 40
0
 40
0
 40
0
 40
1
 40
1
 40
1
 40
1
 10
97.528420
 20
124.450306
 30
0.0
 10
96.711519
 20
126.243466
 30
0.0
 10
95.671230
 20
127.593000
 30
0.0
 10
94.704495
 20
128.113621
 30
0.0
  0
SPLINE
  5
170
100
AcDbEntity
  8
0
 62
7
100
AcDbSpline
 70
8
 71
3
 72
8
 73
4
 74
0
 40
0
 40
0
 40
0
 40
0
 40
1
 40
1
 40
1
 40
1
 10
94.704495
 20
128.113621
 30
0.0
 10
94.186970
 20
128.392306
 30
0.0
 10
93.685955
 20
128.542775
 30
0.0
 10
93.591129
 20
128.447948
 30
0.0
  0
SPLINE
  5
171
100
AcDbEntity
  8
0
 62
7
100
AcDbSpline
 70
8
 71
3
 72
8
 73
4
 74
0
 40
0
 40
0
 40
0
 40
0
 40
1
 40
1
 40
1
 40
1
 10
93.591129
 20
128.447948
 30
0.0
 10
93.496302
 20
128.353122
 30
0.0
 10
93.546943
 20
127.524896
 30
0.0
 10
93.703682
 20
126.607454
 30
0.0
  0
SPLINE
  5
172
100
AcDbEntity
  8
0
 62
7
100
AcDbSpline
 70
8
 71
3
 72
8
 73
4
 74
0
 40
0
 40
0
 40
0
 40
0
 40
1
 40
1
 40
1
 40
1
 10
93.703682
 20
126.607454
 30
0.0
 10
93.860395
 20
125.690011
 30
0.0
 10
94.175805
 20
122.796263
 30
0.0
 10
94.404590
 20
120.176888
 30
0.0
  0
SPLINE
  5
173
100
AcDbEntity
  8
0
 62
7
100
AcDbSpline
 70
8
 71
3
 72
8
 73
4
 74
0
 40
0
 40
0
 40
0
 40
0
 40
1
 40
1
 40
1
 40
1
 10
94.404590
 20
120.176888
 30
0.0
 10
94.633375
 20
117.557513
 30
0.0
 10
94.988790
 20
113.691924
 30
0.0
 10
95.194371
 20
111.586714
 30
0.0
  0
SPLINE
  5
174
100
AcDbEntity
  8
0
 62
7
100
AcDbSpline
 70
8
 71
3
 72
8
 73
4
 74
0
 40
0
 40
0
 40
0
 40
0
 40
1
 40
1
 40
1
 40
1
 10
95.194371
 20
111.586714
 30
0.0
 10
95.399979
 20
109.481477
 30
0.0
 10
95.517957
 20
107.708795
 30
0.0
 10
95.456573
 20
107.647412
 30
0.0
  0
SPLINE
  5
175
100
AcDbEntity
  8
0
 62
7
100
AcDbSpline
 70
8
 71
3
 72
8
 73
4
 74
0
 40
0
 40
0
 40
0
 40
0
 40
1
 40
1
 40
1
 40
1
 10
95.456573
 20
107.647412
 30
0.0
 10
94.897350
 20
107.088189
 30
0.0
 10
92.543564
 20
117.143678
 30
0.0
 10
90.975352
 20
126.791471
 30
0.0
  0
SPLINE
  5
176
100
AcDbEntity
  8
0
 62
7
100
AcDbSpline
 70
8
 71
3
 72
8
 73
4
 74
0
 40
0
 40
0
 40
0
 40
0
 40
1
 40
1
 40
1
 40
1
 10
90.975352
 20
126.791471
 30
0.0
 10
90.596892
 20
129.119805
 30
0.0
 10
90.214119
 20
131.322461
 30
0.0
 10
90.124743
 20
131.686263
 30
0.0
  0
SPLINE
  5
177
100
AcDbEntity
  8
0
 62
7
100
AcDbSpline
 70
8
 71
3
 72
8
 73
4
 74
0
 40
0
 40
0
 40
0
 40
0
 40
1
 40
1
 40
1
 40
1
 10
90.124743
 20
131.686263
 30
0.0
 10
89.971417
 20
132.310283
 30
0.0
 10
89.950674
 20
132.295307
 30
0.0
 10
89.757925
 20
131.421680
 30
0.0
  0
SPLINE
  5
178
100
AcDbEntity
  8
0
 62
7
100
AcDbSpline
 70
8
 71
3
 72
8
 73
4
 74
0
 40
0
 40
0
 40
0
 40
0
 40
1
 40
1
 40
1
 40
1
 10
89.757925
 20
131.421680
 30
0.0
 10
89.645556
 20
130.912357
 30
0.0
 10
89.426587
 20
129.214896
 30
0.0
 10
89.271329
 20
127.649515
 30
0.0
  0
SPLINE
  5
179
100
AcDbEntity
  8
0
 62
7
100
AcDbSpline
 70
8
 71
3
 72
8
 73
4
 74
0
 40
0
 40
0
 40
0
 40
0
 40
1
 40
1
 40
1
 40
1
 10
89.271329
 20
127.649515
 30
0.0
 10
88.964519
 20
124.556404
 30
0.0
 10
88.449190
 20
123.173294
 30
0.0
 10
87.057852
 20
121.708773
 30
0.0
  0
LWPOLYLINE
  5
17a
100
AcDbEntity
  8
0
 62
7
100
AcDbPolyline
 90
3
 70
0
 10
99.447072
 20
114.785791
 30
0.0
 10
99.431197
 20
122.888444
 30
0.0
 10
98.711742
 20
123.160250
 30
0.0
  0
SPLINE
  5
17b
100
AcDbEntity
  8
0
 62
7
100
AcDbSpline
 70
8
 71
3
 72
8
 73
4
 74
0
 40
0
 40
0
 40
0
 40
0
 40
1
 40
1
 40
1
 40
1
 10
89.701198
 20
112.249918
 30
0.0
 10
91.598843
 20
107.514697
 30
0.0
 10
93.039208
 20
103.640430
 30
0.0
 10
92.902048
 20
103.640430
 30
0.0
  0
SPLINE
  5
17c
100
AcDbEntity
  8
0
 62
7
100
AcDbSpline
 70
8
 71
3
 72
8
 73
4
 74
0
 40
0
 40
0
 40
0
 40
0
 40
1
 40
1
 40
1
 40
1
 10
92.902048
 20
103.640430
 30
0.0
 10
92.401906
 20
103.640430
 30
0.0
 10
89.778086
 20
106.375983
 30
0.0
 10
88.504673
 20
108.225077
 30
0.0
  0
SPLINE
  5
17d
100
AcDbEntity
  8
0
 62
7
100
AcDbSpline
 70
8
 71
3
 72
8
 73
4
 74
0
 40
0
 40
0
 40
0
 40
0
 40
1
 40
1
 40
1
 40
1
 10
88.504673
 20
108.225077
 30
0.0
 10
86.737574
 20
110.791032
 30
0.0
 10
86.384858
 20
111.532051
 30
0.0
 10
83.915263
 20
117.867578
 30
0.0
  0
SPLINE
  5
17e
100
AcDbEntity
  8
0
 62
7
100
AcDbSpline
 70
8
 71
3
 72
8
 73
4
 74
0
 40
0
 40
0
 40
0
 40
0
 40
1
 40
1
 40
1
 40
1
 10
83.915263
 20
117.867578
 30
0.0
 10
82.739455
 20
120.883934
 30
0.0
 10
81.607223
 20
123.649544
 30
0.0
 10
81.399155
 20
124.013346
 30
0.0
  0
SPLINE
  5
17f
100
AcDbEntity
  8
0
 62
7
100
AcDbSpline
 70
8
 71
3
 72
8
 73
4
 74
0
 40
0
 40
0
 40
0
 40
0
 40
1
 40
1
 40
1
 40
1
 10
81.399155
 20
124.013346
 30
0.0
 10
81.049588
 20
124.624613
 30
0.0
 10
81.033474
 20
124.554366
 30
0.0
 10
81.187039
 20
123.087305
 30
0.0
  0
SPLINE
  5
180
100
AcDbEntity
  8
0
 62
7
100
AcDbSpline
 70
8
 71
3
 72
8
 73
4
 74
0
 40
0
 40
0
 40
0
 40
0
 40
1
 40
1
 40
1
 40
1
 10
81.187039
 20
123.087305
 30
0.0
 10
81.398176
 20
121.070068
 30
0.0
 10
82.937231
 20
115.056989
 30
0.0
 10
84.986667
 20
108.242142
 30
0.0
  0
SPLINE
  5
181
100
AcDbEntity
  8
0
 62
7
100
AcDbSpline
 70
8
 71
3
 72
8
 73
4
 74
0
 40
0
 40
0
 40
0
 40
0
 40
1
 40
1
 40
1
 40
1
 10
84.986667
 20
108.242142
 30
0.0
 10
87.085316
 20
101.263678
 30
0.0
 10
88.612543
 20
95.301239
 30
0.0
 10
88.998174
 20
92.580767
 30
0.0
  0
SPLINE
  5
182
100
AcDbEntity
  8
0
 62
7
100
AcDbSpline
 70
8
 71
3
 72
8
 73
4
 74
0
 40
0
 40
0
 40
0
 40
0
 40
1
 40
1
 40
1
 40
1
 10
88.998174
 20
92.580767
 30
0.0
 10
89.334882
 20
90.205470
 30
0.0
 10
89.229737
 20
87.909178
 30
0.0
 10
88.762853
 20
87.442320
 30
0.0
  0
SPLINE
  5
183
100
AcDbEntity
  8
0
 62
7
100
AcDbSpline
 70
8
 71
3
 72
8
 73
4
 74
0
 40
0
 40
0
 40
0
 40
0
 40
1
 40
1
 40
1
 40
1
 10
88.762853
 20
87.442320
 30
0.0
 10
88.169684
 20
86.849125
 30
0.0
 10
83.288651
 20
92.775765
 30
0.0
 10
81.979624
 20
95.678667
 30
0.0
  0
SPLINE
  5
184
100
AcDbEntity
  8
0
 62
7
100
AcDbSpline
 70
8
 71
3
 72
8
 73
4
 74
0
 40
0
 40
0
 40
0
 40
0
 40
1
 40
1
 40
1
 40
1
 10
81.979624
 20
95.678667
 30
0.0
 10
81.122877
 20
97.578587
 30
0.0
 10
80.719441
 20
96.842040
 30
0.0
 10
81.400028
 20
94.620493
 30
0.0
  0
SPLINE
  5
185
100
AcDbEntity
  8
0
 62
7
100
AcDbSpline
 70
8
 71
3
 72
8
 73
4
 74
0
 40
0
 40
0
 40
0
 40
0
 40
1
 40
1
 40
1
 40
1
 10
81.400028
 20
94.620493
 30
0.0
 10
83.253752
 20
88.569604
 30
0.0
 10
95.103275
 20
72.030167
 30
0.0
 10
103.618546
 20
63.608135
 30
0.0
  0
SPLINE
  5
186
100
AcDbEntity
  8
0
 62
7
100
AcDbSpline
 70
8
 71
3
 72
8
 73
4
 74
0
 40
0
 40
0
 40
0
 40
0
 40
1
 40
1
 40
1
 40
1
 10
103.618546
 20
63.608135
 30
0.0
 10
104.913787
 20
62.327076
 30
0.0
 10
106.022841
 20
61.328300
 30
0.0
 10
106.083140
 20
61.388599
 30
0.0
  0
SPLINE
  5
187
100
AcDbEntity
  8
0
 62
7
100
AcDbSpline
 70
8
 71
3
 72
8
 73
4
 74
0
 40
0
 40
0
 40
0
 40
0
 40
1
 40
1
 40
1
 40
1
 10
106.083140
 20
61.388599
 30
0.0
 10
106.143438
 20
61.448897
 30
0.0
 10
105.279838
 20
62.973268
 30
0.0
 10
104.164011
 20
64.776112
 30
0.0
  0
SPLINE
  5
188
100
AcDbEntity
  8
0
 62
7
100
AcDbSpline
 70
8
 71
3
 72
8
 73
4
 74
0
 40
0
 40
0
 40
0
 40
0
 40
1
 40
1
 40
1
 40
1
 10
104.164011
 20
64.776112
 30
0.0
 10
101.277327
 20
69.440160
 30
0.0
 10
98.942379
 20
74.224780
 30
0.0
 10
97.980672
 20
77.446690
 30
0.0
  0
SPLINE
  5
189
100
AcDbEntity
  8
0
 62
7
100
AcDbSpline
 70
8
 71
3
 72
8
 73
4
 74
0
 40
0
 40
0
 40
0
 40
0
 40
1
 40
1
 40
1
 40
1
 10
97.980672
 20
77.446690
 30
0.0
 10
97.164247
 20
80.181783
 30
0.0
 10
94.135641
 20
97.323159
 30
0.0
 10
94.363659
 20
97.918339
 30
0.0
  0
SPLINE
  5
18a
100
AcDbEntity
  8
0
 62
7
100
AcDbSpline
 70
8
 71
3
 72
8
 73
4
 74
0
 40
0
 40
0
 40
0
 40
0
 40
1
 40
1
 40
1
 40
1
 10
94.363659
 20
97.918339
 30
0.0
 10
94.573368
 20
98.465815
 30
0.0
 10
97.558450
 20
95.016204
 30
0.0
 10
99.273214
 20
92.244773
 30
0.0
  0
SPLINE
  5
18b
100
AcDbEntity
  8
0
 62
7
100
AcDbSpline
 70
8
 71
3
 72
8
 73
4
 74
0
 40
0
 40
0
 40
0
 40
0
 40
1
 40
1
 40
1
 40
1
 10
99.273214
 20
92.244773
 30
0.0
 10
102.656098
 20
86.777317
 30
0.0
 10
107.108718
 20
77.532098
 30
0.0
 10
106.921128
 20
76.364941
 30
0.0
  0
SPLINE
  5
18c
100
AcDbEntity
  8
0
 62
7
100
AcDbSpline
 70
8
 71
3
 72
8
 73
4
 74
0
 40
0
 40
0
 40
0
 40
0
 40
1
 40
1
 40
1
 40
1
 10
106.921128
 20
76.364941
 30
0.0
 10
106.846542
 20
75.900836
 30
0.0
 10
106.708244
 20
75.936422
 30
0.0
 10
105.314287
 20
76.778538
 30
0.0
  0
LWPOLYLINE
  5
18d
100
AcDbEntity
  8
0
 62
7
100
AcDbPolyline
 90
3
 70
0
 10
87.057852
 20
121.708773
 30
0.0
 10
86.250926
 20
120.859407
 30
0.0
 10
89.701198
 20
112.249918
 30
0.0
  0
SPLINE
  5
18e
100
AcDbEntity
  8
0
 62
7
100
AcDbSpline
 70
8
 71
3
 72
8
 73
4
 74
0
 40
0
 40
0
 40
0
 40
0
 40
1
 40
1
 40
1
 40
1
 10
104.227008
 20
76.845742
 30
0.0
 10
104.467858
 20
76.375895
 30
0.0
 10
105.619034
 20
74.503201
 30
0.0
 10
106.785159
 20
72.684190
 30
0.0
  0
SPLINE
  5
18f
100
AcDbEntity
  8
0
 62
7
100
AcDbSpline
 70
8
 71
3
 72
8
 73
4
 74
0
 40
0
 40
0
 40
0
 40
0
 40
1
 40
1
 40
1
 40
1
 10
106.785159
 20
72.684190
 30
0.0
 10
110.695594
 20
66.584327
 30
0.0
 10
115.577210
 20
60.920498
 30
0.0
 10
122.171262
 20
54.832647
 30
0.0
  0
SPLINE
  5
190
100
AcDbEntity
  8
0
 62
7
100
AcDbSpline
 70
8
 71
3
 72
8
 73
4
 74
0
 40
0
 40
0
 40
0
 40
0
 40
1
 40
1
 40
1
 40
1
 10
122.171262
 20
54.832647
 30
0.0
 10
128.738749
 20
48.769349
 30
0.0
 10
128.702316
 20
48.821287
 30
0.0
 10
124.374050
 20
51.695324
 30
0.0
  0
SPLINE
  5
191
100
AcDbEntity
  8
0
 62
7
100
AcDbSpline
 70
8
 71
3
 72
8
 73
4
 74
0
 40
0
 40
0
 40
0
 40
0
 40
1
 40
1
 40
1
 40
1
 10
124.374050
 20
51.695324
 30
0.0
 10
114.594971
 20
58.188860
 30
0.0
 10
105.682666
 20
67.389269
 30
0.0
 10
102.184240
 20
74.602419
 30
0.0
  0
SPLINE
  5
192
100
AcDbEntity
  8
0
 62
7
100
AcDbSpline
 70
8
 71
3
 72
8
 73
4
 74
0
 40
0
 40
0
 40
0
 40
0
 40
1
 40
1
 40
1
 40
1
 10
102.184240
 20
74.602419
 30
0.0
 10
101.412979
 20
76.192645
 30
0.0
 10
101.029863
 20
76.217992
 30
0.0
 10
101.242773
 20
74.664729
 30
0.0
  0
SPLINE
  5
193
100
AcDbEntity
  8
0
 62
7
100
AcDbSpline
 70
8
 71
3
 72
8
 73
4
 74
0
 40
0
 40
0
 40
0
 40
0
 40
1
 40
1
 40
1
 40
1
 10
101.242773
 20
74.664729
 30
0.0
 10
101.874730
 20
70.054020
 30
0.0
 10
109.621624
 20
59.385041
 30
0.0
 10
116.464728
 20
53.701103
 30
0.0
  0
SPLINE
  5
194
100
AcDbEntity
  8
0
 62
7
100
AcDbSpline
 70
8
 71
3
 72
8
 73
4
 74
0
 40
0
 40
0
 40
0
 40
0
 40
1
 40
1
 40
1
 40
1
 10
116.464728
 20
53.701103
 30
0.0
 10
122.312549
 20
48.843830
 30
0.0
 10
124.206992
 20
47.730198
 30
0.0
 10
130.931087
 20
45.197183
 30
0.0
  0
SPLINE
  5
195
100
AcDbEntity
  8
0
 62
7
100
AcDbSpline
 70
8
 71
3
 72
8
 73
4
 74
0
 40
0
 40
0
 40
0
 40
0
 40
1
 40
1
 40
1
 40
1
 10
130.931087
 20
45.197183
 30
0.0
 10
133.267384
 20
44.317100
 30
0.0
 10
136.097447
 20
43.178413
 30
0.0
 10
137.220153
 20
42.666788
 30
0.0
  0
SPLINE
  5
196
100
AcDbEntity
  8
0
 62
7
100
AcDbSpline
 70
8
 71
3
 72
8
 73
4
 74
0
 40
0
 40
0
 40
0
 40
0
 40
1
 40
1
 40
1
 40
1
 10
137.220153
 20
42.666788
 30
0.0
 10
140.243944
 20
41.288785
 30
0.0
 10
143.259823
 20
40.606742
 30
0.0
 10
148.775989
 20
40.053445
 30
0.0
  0
SPLINE
  5
197
100
AcDbEntity
  8
0
 62
7
100
AcDbSpline
 70
8
 71
3
 72
8
 73
4
 74
0
 40
0
 40
0
 40
0
 40
0
 40
1
 40
1
 40
1
 40
1
 10
148.775989
 20
40.053445
 30
0.0
 10
150.841803
 20
39.846224
 30
0.0
 10
154.960095
 20
39.891732
 30
0.0
 10
157.472552
 20
40.149568
 30
0.0
  0
LWPOLYLINE
  5
198
100
AcDbEntity
  8
0
 62
7
100
AcDbPolyline
 90
3
 70
0
 10
105.314287
 20
76.778538
 30
0.0
 10
103.789070
 20
77.699976
 30
0.0
 10
104.227008
 20
76.845742
 30
0.0
  0
SPLINE
  5
199
100
AcDbEntity
  8
0
 62
7
100
AcDbSpline
 70
8
 71
3
 72
8
 73
4
 74
0
 40
0
 40
0
 40
0
 40
0
 40
1
 40
1
 40
1
 40
1
 10
147.849921
 20
45.985007
 30
0.0
 10
141.610913
 20
46.549733
 30
0.0
 10
133.776178
 20
47.969964
 30
0.0
 10
132.746525
 20
48.722862
 30
0.0
  0
SPLINE
  5
19a
100
AcDbEntity
  8
0
 62
7
100
AcDbSpline
 70
8
 71
3
 72
8
 73
4
 74
0
 40
0
 40
0
 40
0
 40
0
 40
1
 40
1
 40
1
 40
1
 10
132.746525
 20
48.722862
 30
0.0
 10
132.343036
 20
49.017925
 30
0.0
 10
132.849951
 20
49.054782
 30
0.0
 10
135.957614
 20
48.956304
 30
0.0
  0
LWPOLYLINE
  5
19b
100
AcDbEntity
  8
0
 62
7
100
AcDbPolyline
 90
1
 70
1
 10
157.472552
 20
40.149568
 30
0.0
  0
SPLINE
  5
19c
100
AcDbEntity
  8
0
 62
7
100
AcDbSpline
 70
8
 71
3
 72
8
 73
4
 74
0
 40
0
 40
0
 40
0
 40
0
 40
1
 40
1
 40
1
 40
1
 10
138.999053
 20
49.404270
 30
0.0
 10
138.221125
 20
50.081577
 30
0.0
 10
136.054240
 20
51.344565
 30
0.0
 10
131.498909
 20
53.775689
 30
0.0
  0
SPLINE
  5
19d
100
AcDbEntity
  8
0
 62
7
100
AcDbSpline
 70
8
 71
3
 72
8
 73
4
 74
0
 40
0
 40
0
 40
0
 40
0
 40
1
 40
1
 40
1
 40
1
 10
131.498909
 20
53.775689
 30
0.0
 10
128.850694
 20
55.189041
 30
0.0
 10
128.206751
 20
55.635763
 30
0.0
 10
128.544862
 20
55.824967
 30
0.0
  0
SPLINE
  5
19e
100
AcDbEntity
  8
0
 62
7
100
AcDbSpline
 70
8
 71
3
 72
8
 73
4
 74
0
 40
0
 40
0
 40
0
 40
0
 40
1
 40
1
 40
1
 40
1
 10
128.544862
 20
55.824967
 30
0.0
 10
129.296385
 20
56.245548
 30
0.0
 10
131.267451
 20
55.548768
 30
0.0
 10
135.811379
 20
53.256259
 30
0.0
  0
SPLINE
  5
19f
100
AcDbEntity
  8
0
 62
7
100
AcDbSpline
 70
8
 71
3
 72
8
 73
4
 74
0
 40
0
 40
0
 40
0
 40
0
 40
1
 40
1
 40
1
 40
1
 10
135.811379
 20
53.256259
 30
0.0
 10
141.536592
 20
50.367750
 30
0.0
 10
143.559146
 20
49.644697
 30
0.0
 10
146.394712
 20
49.472876
 30
0.0
  0
SPLINE
  5
1a0
100
AcDbEntity
  8
0
 62
7
100
AcDbSpline
 70
8
 71
3
 72
8
 73
4
 74
0
 40
0
 40
0
 40
0
 40
0
 40
1
 40
1
 40
1
 40
1
 10
146.394712
 20
49.472876
 30
0.0
 10
148.166706
 20
49.365509
 30
0.0
 10
148.868117
 20
49.433665
 30
0.0
 10
149.702004
 20
49.794292
 30
0.0
  0
LWPOLYLINE
  5
1a1
100
AcDbEntity
  8
0
 62
7
100
AcDbPolyline
 90
3
 70
0
 10
135.957614
 20
48.956304
 30
0.0
 10
139.647837
 20
48.839411
 30
0.0
 10
138.999053
 20
49.404270
 30
0.0
  0
SPLINE
  5
1a2
100
AcDbEntity
  8
0
 62
7
100
AcDbSpline
 70
8
 71
3
 72
8
 73
4
 74
0
 40
0
 40
0
 40
0
 40
0
 40
1
 40
1
 40
1
 40
1
 10
149.040546
 20
50.759757
 30
0.0
 10
148.094660
 20
51.039051
 30
0.0
 10
146.576613
 20
51.340994
 30
0.0
 10
145.667108
 20
51.430793
 30
0.0
  0
SPLINE
  5
1a3
100
AcDbEntity
  8
0
 62
7
100
AcDbSpline
 70
8
 71
3
 72
8
 73
4
 74
0
 40
0
 40
0
 40
0
 40
0
 40
1
 40
1
 40
1
 40
1
 10
145.667108
 20
51.430793
 30
0.0
 10
144.757603
 20
51.520593
 30
0.0
 10
144.013462
 20
51.684714
 30
0.0
 10
144.013462
 20
51.795548
 30
0.0
  0
SPLINE
  5
1a4
100
AcDbEntity
  8
0
 62
7
100
AcDbSpline
 70
8
 71
3
 72
8
 73
4
 74
0
 40
0
 40
0
 40
0
 40
0
 40
1
 40
1
 40
1
 40
1
 10
144.013462
 20
51.795548
 30
0.0
 10
144.013462
 20
52.224093
 30
0.0
 10
146.917132
 20
52.350855
 30
0.0
 10
154.902151
 20
52.270925
 30
0.0
  0
SPLINE
  5
1a5
100
AcDbEntity
  8
0
 62
7
100
AcDbSpline
 70
8
 71
3
 72
8
 73
4
 74
0
 40
0
 40
0
 40
0
 40
0
 40
1
 40
1
 40
1
 40
1
 10
154.902151
 20
52.270925
 30
0.0
 10
162.151126
 20
52.198349
 30
0.0
 10
163.312382
 20
52.242535
 30
0.0
 10
164.121796
 20
52.621789
 30
0.0
  0
SPLINE
  5
1a6
100
AcDbEntity
  8
0
 62
7
100
AcDbSpline
 70
8
 71
3
 72
8
 73
4
 74
0
 40
0
 40
0
 40
0
 40
0
 40
1
 40
1
 40
1
 40
1
 10
164.121796
 20
52.621789
 30
0.0
 10
164.850141
 20
52.963075
 30
0.0
 10
165.542053
 20
53.024775
 30
0.0
 10
167.362942
 20
52.910766
 30
0.0
  0
SPLINE
  5
1a7
100
AcDbEntity
  8
0
 62
7
100
AcDbSpline
 70
8
 71
3
 72
8
 73
4
 74
0
 40
0
 40
0
 40
0
 40
0
 40
1
 40
1
 40
1
 40
1
 10
167.362942
 20
52.910766
 30
0.0
 10
168.636249
 20
52.831074
 30
0.0
 10
169.678046
 20
52.680685
 30
0.0
 10
169.678046
 20
52.576598
 30
0.0
  0
SPLINE
  5
1a8
100
AcDbEntity
  8
0
 62
7
100
AcDbSpline
 70
8
 71
3
 72
8
 73
4
 74
0
 40
0
 40
0
 40
0
 40
0
 40
1
 40
1
 40
1
 40
1
 10
169.678046
 20
52.576598
 30
0.0
 10
169.678046
 20
52.122414
 30
0.0
 10
167.794424
 20
49.980162
 30
0.0
 10
166.772233
 20
49.271767
 30
0.0
  0
SPLINE
  5
1a9
100
AcDbEntity
  8
0
 62
7
100
AcDbSpline
 70
8
 71
3
 72
8
 73
4
 74
0
 40
0
 40
0
 40
0
 40
0
 40
1
 40
1
 40
1
 40
1
 10
166.772233
 20
49.271767
 30
0.0
 10
165.240216
 20
48.210073
 30
0.0
 10
163.286427
 20
48.103525
 30
0.0
 10
159.479628
 20
48.874098
 30
0.0
  0
SPLINE
  5
1aa
100
AcDbEntity
  8
0
 62
7
100
AcDbSpline
 70
8
 71
3
 72
8
 73
4
 74
0
 40
0
 40
0
 40
0
 40
0
 40
1
 40
1
 40
1
 40
1
 10
159.479628
 20
48.874098
 30
0.0
 10
157.322269
 20
49.310793
 30
0.0
 10
156.148762
 20
49.416070
 30
0.0
 10
154.883366
 20
49.286425
 30
0.0
  0
SPLINE
  5
1ab
100
AcDbEntity
  8
0
 62
7
100
AcDbSpline
 70
8
 71
3
 72
8
 73
4
 74
0
 40
0
 40
0
 40
0
 40
0
 40
1
 40
1
 40
1
 40
1
 10
154.883366
 20
49.286425
 30
0.0
 10
152.263991
 20
49.018084
 30
0.0
 10
152.244544
 20
48.874945
 30
0.0
 10
154.633017
 20
47.443575
 30
0.0
  0
SPLINE
  5
1ac
100
AcDbEntity
  8
0
 62
7
100
AcDbSpline
 70
8
 71
3
 72
8
 73
4
 74
0
 40
0
 40
0
 40
0
 40
0
 40
1
 40
1
 40
1
 40
1
 10
154.633017
 20
47.443575
 30
0.0
 10
156.179533
 20
46.516793
 30
0.0
 10
156.672743
 20
46.098090
 30
0.0
 10
156.412314
 20
45.933069
 30
0.0
  0
SPLINE
  5
1ad
100
AcDbEntity
  8
0
 62
7
100
AcDbSpline
 70
8
 71
3
 72
8
 73
4
 74
0
 40
0
 40
0
 40
0
 40
0
 40
1
 40
1
 40
1
 40
1
 10
156.412314
 20
45.933069
 30
0.0
 10
155.977656
 20
45.657691
 30
0.0
 10
151.141919
 20
45.687033
 30
0.0
 10
147.849921
 20
45.985007
 30
0.0
  0
LWPOLYLINE
  5
1ae
100
AcDbEntity
  8
0
 62
7
100
AcDbPolyline
 90
3
 70
0
 10
149.702004
 20
49.794292
 30
0.0
 10
150.760337
 20
50.251969
 30
0.0
 10
149.040546
 20
50.759757
 30
0.0
  0
SPLINE
  5
1af
100
AcDbEntity
  8
0
 62
7
100
AcDbSpline
 70
8
 71
3
 72
8
 73
4
 74
0
 40
0
 40
0
 40
0
 40
0
 40
1
 40
1
 40
1
 40
1
 10
179.160368
 20
73.807770
 30
0.0
 10
180.790281
 20
76.129515
 30
0.0
 10
182.378046
 20
78.765823
 30
0.0
 10
182.378046
 20
79.150422
 30
0.0
  0
SPLINE
  5
1b0
100
AcDbEntity
  8
0
 62
7
100
AcDbSpline
 70
8
 71
3
 72
8
 73
4
 74
0
 40
0
 40
0
 40
0
 40
0
 40
1
 40
1
 40
1
 40
1
 10
182.378046
 20
79.150422
 30
0.0
 10
182.378046
 20
79.473044
 30
0.0
 10
180.976601
 20
79.041307
 30
0.0
 10
180.430871
 20
78.550558
 30
0.0
  0
SPLINE
  5
1b1
100
AcDbEntity
  8
0
 62
7
100
AcDbSpline
 70
8
 71
3
 72
8
 73
4
 74
0
 40
0
 40
0
 40
0
 40
0
 40
1
 40
1
 40
1
 40
1
 10
180.430871
 20
78.550558
 30
0.0
 10
180.160308
 20
78.307221
 30
0.0
 10
179.596587
 20
77.430551
 30
0.0
 10
179.178175
 20
76.602405
 30
0.0
  0
SPLINE
  5
1b2
100
AcDbEntity
  8
0
 62
7
100
AcDbSpline
 70
8
 71
3
 72
8
 73
4
 74
0
 40
0
 40
0
 40
0
 40
0
 40
1
 40
1
 40
1
 40
1
 10
179.178175
 20
76.602405
 30
0.0
 10
178.759763
 20
75.774232
 30
0.0
 10
178.058405
 20
74.530532
 30
0.0
 10
177.619594
 20
73.838620
 30
0.0
  0
SPLINE
  5
1b3
100
AcDbEntity
  8
0
 62
7
100
AcDbSpline
 70
8
 71
3
 72
8
 73
4
 74
0
 40
0
 40
0
 40
0
 40
0
 40
1
 40
1
 40
1
 40
1
 10
177.619594
 20
73.838620
 30
0.0
 10
176.853943
 20
72.631300
 30
0.0
 10
176.618913
 20
71.652342
 30
0.0
 10
177.002586
 20
71.268669
 30
0.0
  0
SPLINE
  5
1b4
100
AcDbEntity
  8
0
 62
7
100
AcDbSpline
 70
8
 71
3
 72
8
 73
4
 74
0
 40
0
 40
0
 40
0
 40
0
 40
1
 40
1
 40
1
 40
1
 10
177.002586
 20
71.268669
 30
0.0
 10
177.226741
 20
71.044514
 30
0.0
 10
177.190704
 20
71.002102
 30
0.0
 10
179.160368
 20
73.807770
 30
0.0
  0
LWPOLYLINE
  5
1b5
100
AcDbEntity
  8
0
 62
7
100
AcDbPolyline
 90
1
 70
1
 10
147.849921
 20
45.985007
 30
0.0
  0
SPLINE
  5
1b6
100
AcDbEntity
  8
0
 62
7
100
AcDbSpline
 70
8
 71
3
 72
8
 73
4
 74
0
 40
0
 40
0
 40
0
 40
0
 40
1
 40
1
 40
1
 40
1
 10
175.905570
 20
73.048627
 30
0.0
 10
176.622353
 20
73.796710
 30
0.0
 10
177.285557
 20
74.896477
 30
0.0
 10
177.778450
 20
76.154412
 30
0.0
  0
SPLINE
  5
1b7
100
AcDbEntity
  8
0
 62
7
100
AcDbSpline
 70
8
 71
3
 72
8
 73
4
 74
0
 40
0
 40
0
 40
0
 40
0
 40
1
 40
1
 40
1
 40
1
 10
177.778450
 20
76.154412
 30
0.0
 10
178.198158
 20
77.225578
 30
0.0
 10
178.575507
 20
78.175406
 30
0.0
 10
178.616967
 20
78.265126
 30
0.0
  0
SPLINE
  5
1b8
100
AcDbEntity
  8
0
 62
7
100
AcDbSpline
 70
8
 71
3
 72
8
 73
4
 74
0
 40
0
 40
0
 40
0
 40
0
 40
1
 40
1
 40
1
 40
1
 10
178.616967
 20
78.265126
 30
0.0
 10
178.717932
 20
78.483566
 30
0.0
 10
175.921366
 20
79.034190
 30
0.0
 10
174.710871
 20
79.034190
 30
0.0
  0
SPLINE
  5
1b9
100
AcDbEntity
  8
0
 62
7
100
AcDbSpline
 70
8
 71
3
 72
8
 73
4
 74
0
 40
0
 40
0
 40
0
 40
0
 40
1
 40
1
 40
1
 40
1
 10
174.710871
 20
79.034190
 30
0.0
 10
173.068178
 20
79.034190
 30
0.0
 10
171.870013
 20
77.404330
 30
0.0
 10
171.228134
 20
74.296640
 30
0.0
  0
SPLINE
  5
1ba
100
AcDbEntity
  8
0
 62
7
100
AcDbSpline
 70
8
 71
3
 72
8
 73
4
 74
0
 40
0
 40
0
 40
0
 40
0
 40
1
 40
1
 40
1
 40
1
 10
171.228134
 20
74.296640
 30
0.0
 10
170.906744
 20
72.740679
 30
0.0
 10
170.917460
 20
72.605847
 30
0.0
 10
171.389900
 20
72.260407
 30
0.0
  0
SPLINE
  5
1bb
100
AcDbEntity
  8
0
 62
7
100
AcDbSpline
 70
8
 71
3
 72
8
 73
4
 74
0
 40
0
 40
0
 40
0
 40
0
 40
1
 40
1
 40
1
 40
1
 10
171.389900
 20
72.260407
 30
0.0
 10
171.677555
 20
72.050063
 30
0.0
 10
172.521470
 20
71.890440
 30
0.0
 10
173.345832
 20
71.890440
 30
0.0
  0
SPLINE
  5
1bc
100
AcDbEntity
  8
0
 62
7
100
AcDbSpline
 70
8
 71
3
 72
8
 73
4
 74
0
 40
0
 40
0
 40
0
 40
0
 40
1
 40
1
 40
1
 40
1
 10
173.345832
 20
71.890440
 30
0.0
 10
174.712934
 20
71.890440
 30
0.0
 10
174.859275
 20
71.956665
 30
0.0
 10
175.905570
 20
73.048627
 30
0.0
  0
LWPOLYLINE
  5
1bd
100
AcDbEntity
  8
0
 62
7
100
AcDbPolyline
 90
1
 70
1
 10
179.160368
 20
73.807770
 30
0.0
  0
SPLINE
  5
1be
100
AcDbEntity
  8
0
 62
7
100
AcDbSpline
 70
8
 71
3
 72
8
 73
4
 74
0
 40
0
 40
0
 40
0
 40
0
 40
1
 40
1
 40
1
 40
1
 10
165.914030
 20
74.355881
 30
0.0
 10
167.323413
 20
76.662254
 30
0.0
 10
168.091101
 20
77.554164
 30
0.0
 10
168.089858
 20
76.883763
 30
0.0
  0
SPLINE
  5
1bf
100
AcDbEntity
  8
0
 62
7
100
AcDbSpline
 70
8
 71
3
 72
8
 73
4
 74
0
 40
0
 40
0
 40
0
 40
0
 40
1
 40
1
 40
1
 40
1
 10
168.089858
 20
76.883763
 30
0.0
 10
168.089593
 20
76.684055
 30
0.0
 10
167.700206
 20
75.865805
 30
0.0
 10
167.224776
 20
75.065440
 30
0.0
  0
SPLINE
  5
1c0
100
AcDbEntity
  8
0
 62
7
100
AcDbSpline
 70
8
 71
3
 72
8
 73
4
 74
0
 40
0
 40
0
 40
0
 40
0
 40
1
 40
1
 40
1
 40
1
 10
167.224776
 20
75.065440
 30
0.0
 10
165.880481
 20
72.802327
 30
0.0
 10
165.636324
 20
72.155024
 30
0.0
 10
166.126967
 20
72.155024
 30
0.0
  0
SPLINE
  5
1c1
100
AcDbEntity
  8
0
 62
7
100
AcDbSpline
 70
8
 71
3
 72
8
 73
4
 74
0
 40
0
 40
0
 40
0
 40
0
 40
1
 40
1
 40
1
 40
1
 10
166.126967
 20
72.155024
 30
0.0
 10
167.340531
 20
72.155024
 30
0.0
 10
168.946949
 20
72.814365
 30
0.0
 10
169.590019
 20
73.576418
 30
0.0
  0
SPLINE
  5
1c2
100
AcDbEntity
  8
0
 62
7
100
AcDbSpline
 70
8
 71
3
 72
8
 73
4
 74
0
 40
0
 40
0
 40
0
 40
0
 40
1
 40
1
 40
1
 40
1
 10
169.590019
 20
73.576418
 30
0.0
 10
170.305558
 20
74.424355
 30
0.0
 10
172.059296
 20
77.849677
 30
0.0
 10
172.059296
 20
78.399322
 30
0.0
  0
SPLINE
  5
1c3
100
AcDbEntity
  8
0
 62
7
100
AcDbSpline
 70
8
 71
3
 72
8
 73
4
 74
0
 40
0
 40
0
 40
0
 40
0
 40
1
 40
1
 40
1
 40
1
 10
172.059296
 20
78.399322
 30
0.0
 10
172.059296
 20
79.431610
 30
0.0
 10
167.841229
 20
79.808562
 30
0.0
 10
166.606366
 20
78.886632
 30
0.0
  0
SPLINE
  5
1c4
100
AcDbEntity
  8
0
 62
7
100
AcDbSpline
 70
8
 71
3
 72
8
 73
4
 74
0
 40
0
 40
0
 40
0
 40
0
 40
1
 40
1
 40
1
 40
1
 10
166.606366
 20
78.886632
 30
0.0
 10
165.642938
 20
78.167309
 30
0.0
 10
163.370829
 20
74.816441
 30
0.0
 10
163.171809
 20
73.821369
 30
0.0
  0
SPLINE
  5
1c5
100
AcDbEntity
  8
0
 62
7
100
AcDbSpline
 70
8
 71
3
 72
8
 73
4
 74
0
 40
0
 40
0
 40
0
 40
0
 40
1
 40
1
 40
1
 40
1
 10
163.171809
 20
73.821369
 30
0.0
 10
163.008535
 20
73.004892
 30
0.0
 10
163.549264
 20
72.155024
 30
0.0
 10
164.232048
 20
72.155024
 30
0.0
  0
SPLINE
  5
1c6
100
AcDbEntity
  8
0
 62
7
100
AcDbSpline
 70
8
 71
3
 72
8
 73
4
 74
0
 40
0
 40
0
 40
0
 40
0
 40
1
 40
1
 40
1
 40
1
 10
164.232048
 20
72.155024
 30
0.0
 10
164.417441
 20
72.155024
 30
0.0
 10
165.174335
 20
73.145412
 30
0.0
 10
165.914030
 20
74.355881
 30
0.0
  0
LWPOLYLINE
  5
1c7
100
AcDbEntity
  8
0
 62
7
100
AcDbPolyline
 90
1
 70
1
 10
175.905570
 20
73.048627
 30
0.0
  0
SPLINE
  5
1c8
100
AcDbEntity
  8
0
 62
7
100
AcDbSpline
 70
8
 71
3
 72
8
 73
4
 74
0
 40
0
 40
0
 40
0
 40
0
 40
1
 40
1
 40
1
 40
1
 10
161.186270
 20
73.629732
 30
0.0
 10
161.631352
 20
74.004249
 30
0.0
 10
162.510324
 20
75.224640
 30
0.0
 10
163.139530
 20
76.341711
 30
0.0
  0
SPLINE
  5
1c9
100
AcDbEntity
  8
0
 62
7
100
AcDbSpline
 70
8
 71
3
 72
8
 73
4
 74
0
 40
0
 40
0
 40
0
 40
0
 40
1
 40
1
 40
1
 40
1
 10
163.139530
 20
76.341711
 30
0.0
 10
163.768736
 20
77.458755
 30
0.0
 10
164.491736
 20
78.689121
 30
0.0
 10
164.746186
 20
79.075836
 30
0.0
  0
SPLINE
  5
1ca
100
AcDbEntity
  8
0
 62
7
100
AcDbSpline
 70
8
 71
3
 72
8
 73
4
 74
0
 40
0
 40
0
 40
0
 40
0
 40
1
 40
1
 40
1
 40
1
 10
164.746186
 20
79.075836
 30
0.0
 10
165.044213
 20
79.528712
 30
0.0
 10
165.111179
 20
79.839307
 30
0.0
 10
164.934358
 20
79.948606
 30
0.0
  0
SPLINE
  5
1cb
100
AcDbEntity
  8
0
 62
7
100
AcDbSpline
 70
8
 71
3
 72
8
 73
4
 74
0
 40
0
 40
0
 40
0
 40
0
 40
1
 40
1
 40
1
 40
1
 10
164.934358
 20
79.948606
 30
0.0
 10
164.783360
 20
80.041898
 30
0.0
 10
163.556487
 20
80.231181
 30
0.0
 10
162.207985
 20
80.369188
 30
0.0
  0
SPLINE
  5
1cc
100
AcDbEntity
  8
0
 62
7
100
AcDbSpline
 70
8
 71
3
 72
8
 73
4
 74
0
 40
0
 40
0
 40
0
 40
0
 40
1
 40
1
 40
1
 40
1
 10
162.207985
 20
80.369188
 30
0.0
 10
160.859483
 20
80.507221
 30
0.0
 10
159.385146
 20
80.669940
 30
0.0
 10
158.931676
 20
80.730820
 30
0.0
  0
SPLINE
  5
1cd
100
AcDbEntity
  8
0
 62
7
100
AcDbSpline
 70
8
 71
3
 72
8
 73
4
 74
0
 40
0
 40
0
 40
0
 40
0
 40
1
 40
1
 40
1
 40
1
 10
158.931676
 20
80.730820
 30
0.0
 10
158.164940
 20
80.833743
 30
0.0
 10
158.040507
 20
80.728174
 30
0.0
 10
157.155369
 20
79.232548
 30
0.0
  0
SPLINE
  5
1ce
100
AcDbEntity
  8
0
 62
7
100
AcDbSpline
 70
8
 71
3
 72
8
 73
4
 74
0
 40
0
 40
0
 40
0
 40
0
 40
1
 40
1
 40
1
 40
1
 10
157.155369
 20
79.232548
 30
0.0
 10
155.967417
 20
77.224414
 30
0.0
 10
155.688149
 20
75.671362
 30
0.0
 10
156.322091
 20
74.598212
 30
0.0
  0
SPLINE
  5
1cf
100
AcDbEntity
  8
0
 62
7
100
AcDbSpline
 70
8
 71
3
 72
8
 73
4
 74
0
 40
0
 40
0
 40
0
 40
0
 40
1
 40
1
 40
1
 40
1
 10
156.322091
 20
74.598212
 30
0.0
 10
157.348198
 20
72.861144
 30
0.0
 10
159.713255
 20
72.390238
 30
0.0
 10
161.186270
 20
73.629732
 30
0.0
  0
LWPOLYLINE
  5
1d0
100
AcDbEntity
  8
0
 62
7
100
AcDbPolyline
 90
1
 70
1
 10
165.914030
 20
74.355881
 30
0.0
  0
SPLINE
  5
1d1
100
AcDbEntity
  8
0
 62
7
100
AcDbSpline
 70
8
 71
3
 72
8
 73
4
 74
0
 40
0
 40
0
 40
0
 40
0
 40
1
 40
1
 40
1
 40
1
 10
153.545712
 20
75.255729
 30
0.0
 10
153.905519
 20
75.505919
 30
0.0
 10
154.409418
 20
75.952403
 30
0.0
 10
154.665508
 20
76.247916
 30
0.0
  0
SPLINE
  5
1d2
100
AcDbEntity
  8
0
 62
7
100
AcDbSpline
 70
8
 71
3
 72
8
 73
4
 74
0
 40
0
 40
0
 40
0
 40
0
 40
1
 40
1
 40
1
 40
1
 10
154.665508
 20
76.247916
 30
0.0
 10
155.213090
 20
76.879847
 30
0.0
 10
156.978046
 20
80.401731
 30
0.0
 10
156.978046
 20
80.862530
 30
0.0
  0
SPLINE
  5
1d3
100
AcDbEntity
  8
0
 62
7
100
AcDbSpline
 70
8
 71
3
 72
8
 73
4
 74
0
 40
0
 40
0
 40
0
 40
0
 40
1
 40
1
 40
1
 40
1
 10
156.978046
 20
80.862530
 30
0.0
 10
156.978046
 20
81.507266
 30
0.0
 10
154.092526
 20
82.532553
 30
0.0
 10
151.723050
 20
82.729774
 30
0.0
  0
SPLINE
  5
1d4
100
AcDbEntity
  8
0
 62
7
100
AcDbSpline
 70
8
 71
3
 72
8
 73
4
 74
0
 40
0
 40
0
 40
0
 40
0
 40
1
 40
1
 40
1
 40
1
 10
151.723050
 20
82.729774
 30
0.0
 10
149.058379
 20
82.951548
 30
0.0
 10
148.745112
 20
82.798380
 30
0.0
 10
148.250553
 20
81.032048
 30
0.0
  0
SPLINE
  5
1d5
100
AcDbEntity
  8
0
 62
7
100
AcDbSpline
 70
8
 71
3
 72
8
 73
4
 74
0
 40
0
 40
0
 40
0
 40
0
 40
1
 40
1
 40
1
 40
1
 10
148.250553
 20
81.032048
 30
0.0
 10
147.491701
 20
78.321720
 30
0.0
 10
149.560769
 20
74.800857
 30
0.0
 10
151.912386
 20
74.800857
 30
0.0
  0
SPLINE
  5
1d6
100
AcDbEntity
  8
0
 62
7
100
AcDbSpline
 70
8
 71
3
 72
8
 73
4
 74
0
 40
0
 40
0
 40
0
 40
0
 40
1
 40
1
 40
1
 40
1
 10
151.912386
 20
74.800857
 30
0.0
 10
152.450919
 20
74.800857
 30
0.0
 10
153.185932
 20
75.005565
 30
0.0
 10
153.545712
 20
75.255729
 30
0.0
  0
LWPOLYLINE
  5
1d7
100
AcDbEntity
  8
0
 62
7
100
AcDbPolyline
 90
1
 70
1
 10
161.186270
 20
73.629732
 30
0.0
  0
SPLINE
  5
1d8
100
AcDbEntity
  8
0
 62
7
100
AcDbSpline
 70
8
 71
3
 72
8
 73
4
 74
0
 40
0
 40
0
 40
0
 40
0
 40
1
 40
1
 40
1
 40
1
 10
144.789697
 20
78.444804
 30
0.0
 10
146.310178
 20
80.033934
 30
0.0
 10
148.359058
 20
83.739450
 30
0.0
 10
147.973878
 20
84.203582
 30
0.0
  0
SPLINE
  5
1d9
100
AcDbEntity
  8
0
 62
7
100
AcDbSpline
 70
8
 71
3
 72
8
 73
4
 74
0
 40
0
 40
0
 40
0
 40
0
 40
1
 40
1
 40
1
 40
1
 10
147.973878
 20
84.203582
 30
0.0
 10
147.595815
 20
84.659115
 30
0.0
 10
144.464048
 20
85.612700
 30
0.0
 10
142.493325
 20
85.872309
 30
0.0
  0
SPLINE
  5
1da
100
AcDbEntity
  8
0
 62
7
100
AcDbSpline
 70
8
 71
3
 72
8
 73
4
 74
0
 40
0
 40
0
 40
0
 40
0
 40
1
 40
1
 40
1
 40
1
 10
142.493325
 20
85.872309
 30
0.0
 10
140.626611
 20
86.118240
 30
0.0
 10
140.375151
 20
85.975126
 30
0.0
 10
139.657918
 20
84.258510
 30
0.0
  0
SPLINE
  5
1db
100
AcDbEntity
  8
0
 62
7
100
AcDbSpline
 70
8
 71
3
 72
8
 73
4
 74
0
 40
0
 40
0
 40
0
 40
0
 40
1
 40
1
 40
1
 40
1
 10
139.657918
 20
84.258510
 30
0.0
 10
139.183017
 20
83.121913
 30
0.0
 10
139.120391
 20
80.577335
 30
0.0
 10
139.546819
 20
79.744401
 30
0.0
  0
SPLINE
  5
1dc
100
AcDbEntity
  8
0
 62
7
100
AcDbSpline
 70
8
 71
3
 72
8
 73
4
 74
0
 40
0
 40
0
 40
0
 40
0
 40
1
 40
1
 40
1
 40
1
 10
139.546819
 20
79.744401
 30
0.0
 10
139.709538
 20
79.426530
 30
0.0
 10
140.269476
 20
78.719997
 30
0.0
 10
140.791128
 20
78.174294
 30
0.0
  0
SPLINE
  5
1dd
100
AcDbEntity
  8
0
 62
7
100
AcDbSpline
 70
8
 71
3
 72
8
 73
4
 74
0
 40
0
 40
0
 40
0
 40
0
 40
1
 40
1
 40
1
 40
1
 10
140.791128
 20
78.174294
 30
0.0
 10
142.188234
 20
76.712789
 30
0.0
 10
143.197884
 20
76.781078
 30
0.0
 10
144.789697
 20
78.444804
 30
0.0
  0
LWPOLYLINE
  5
1de
100
AcDbEntity
  8
0
 62
7
100
AcDbPolyline
 90
1
 70
1
 10
153.545712
 20
75.255729
 30
0.0
  0
SPLINE
  5
1df
100
AcDbEntity
  8
0
 62
7
100
AcDbSpline
 70
8
 71
3
 72
8
 73
4
 74
0
 40
0
 40
0
 40
0
 40
0
 40
1
 40
1
 40
1
 40
1
 10
176.705511
 20
80.681793
 30
0.0
 10
177.044548
 20
81.020830
 30
0.0
 10
177.920108
 20
87.469916
 30
0.0
 10
177.820386
 20
88.893454
 30
0.0
  0
SPLINE
  5
1e0
100
AcDbEntity
  8
0
 62
7
100
AcDbSpline
 70
8
 71
3
 72
8
 73
4
 74
0
 40
0
 40
0
 40
0
 40
0
 40
1
 40
1
 40
1
 40
1
 10
177.820386
 20
88.893454
 30
0.0
 10
177.664573
 20
91.117304
 30
0.0
 10
177.041135
 20
91.844828
 30
0.0
 10
175.207335
 20
91.942751
 30
0.0
  0
SPLINE
  5
1e1
100
AcDbEntity
  8
0
 62
7
100
AcDbSpline
 70
8
 71
3
 72
8
 73
4
 74
0
 40
0
 40
0
 40
0
 40
0
 40
1
 40
1
 40
1
 40
1
 10
175.207335
 20
91.942751
 30
0.0
 10
174.031473
 20
92.005536
 30
0.0
 10
173.588640
 20
91.895258
 30
0.0
 10
172.701466
 20
91.318704
 30
0.0
  0
SPLINE
  5
1e2
100
AcDbEntity
  8
0
 62
7
100
AcDbSpline
 70
8
 71
3
 72
8
 73
4
 74
0
 40
0
 40
0
 40
0
 40
0
 40
1
 40
1
 40
1
 40
1
 10
172.701466
 20
91.318704
 30
0.0
 10
170.698411
 20
90.016981
 30
0.0
 10
169.511623
 20
87.205413
 30
0.0
 10
169.226376
 20
83.086035
 30
0.0
  0
LWPOLYLINE
  5
1e3
100
AcDbEntity
  8
0
 62
7
100
AcDbPolyline
 90
1
 70
1
 10
144.789697
 20
78.444804
 30
0.0
  0
SPLINE
  5
1e4
100
AcDbEntity
  8
0
 62
7
100
AcDbSpline
 70
8
 71
3
 72
8
 73
4
 74
0
 40
0
 40
0
 40
0
 40
0
 40
1
 40
1
 40
1
 40
1
 10
169.972527
 20
80.646392
 30
0.0
 10
170.878143
 20
80.369717
 30
0.0
 10
176.422592
 20
80.398874
 30
0.0
 10
176.705511
 20
80.681793
 30
0.0
  0
LWPOLYLINE
  5
1e5
100
AcDbEntity
  8
0
 62
7
100
AcDbPolyline
 90
3
 70
0
 10
169.226376
 20
83.086035
 30
0.0
 10
169.076383
 20
80.920183
 30
0.0
 10
169.972527
 20
80.646392
 30
0.0
  0
SPLINE
  5
1e6
100
AcDbEntity
  8
0
 62
7
100
AcDbSpline
 70
8
 71
3
 72
8
 73
4
 74
0
 40
0
 40
0
 40
0
 40
0
 40
1
 40
1
 40
1
 40
1
 10
182.180296
 20
81.343357
 30
0.0
 10
183.278926
 20
81.805505
 30
0.0
 10
183.442914
 20
82.187537
 30
0.0
 10
183.971711
 20
85.516471
 30
0.0
  0
SPLINE
  5
1e7
100
AcDbEntity
  8
0
 62
7
100
AcDbSpline
 70
8
 71
3
 72
8
 73
4
 74
0
 40
0
 40
0
 40
0
 40
0
 40
1
 40
1
 40
1
 40
1
 10
183.971711
 20
85.516471
 30
0.0
 10
184.479578
 20
88.713776
 30
0.0
 10
183.783698
 20
90.643964
 30
0.0
 10
181.957914
 20
91.102196
 30
0.0
  0
SPLINE
  5
1e8
100
AcDbEntity
  8
0
 62
7
100
AcDbSpline
 70
8
 71
3
 72
8
 73
4
 74
0
 40
0
 40
0
 40
0
 40
0
 40
1
 40
1
 40
1
 40
1
 10
181.957914
 20
91.102196
 30
0.0
 10
181.353870
 20
91.253802
 30
0.0
 10
181.122227
 20
91.153075
 30
0.0
 10
180.613592
 20
90.517573
 30
0.0
  0
SPLINE
  5
1e9
100
AcDbEntity
  8
0
 62
7
100
AcDbSpline
 70
8
 71
3
 72
8
 73
4
 74
0
 40
0
 40
0
 40
0
 40
0
 40
1
 40
1
 40
1
 40
1
 10
180.613592
 20
90.517573
 30
0.0
 10
179.643207
 20
89.305225
 30
0.0
 10
178.746957
 20
86.161525
 30
0.0
 10
178.269754
 20
82.296598
 30
0.0
  0
SPLINE
  5
1ea
100
AcDbEntity
  8
0
 62
7
100
AcDbSpline
 70
8
 71
3
 72
8
 73
4
 74
0
 40
0
 40
0
 40
0
 40
0
 40
1
 40
1
 40
1
 40
1
 10
178.269754
 20
82.296598
 30
0.0
 10
178.110952
 20
81.010326
 30
0.0
 10
178.137674
 20
80.922643
 30
0.0
 10
178.718117
 20
80.825382
 30
0.0
  0
SPLINE
  5
1eb
100
AcDbEntity
  8
0
 62
7
100
AcDbSpline
 70
8
 71
3
 72
8
 73
4
 74
0
 40
0
 40
0
 40
0
 40
0
 40
1
 40
1
 40
1
 40
1
 10
178.718117
 20
80.825382
 30
0.0
 10
179.659637
 20
80.667585
 30
0.0
 10
181.078465
 20
80.879860
 30
0.0
 10
182.180296
 20
81.343357
 30
0.0
  0
LWPOLYLINE
  5
1ec
100
AcDbEntity
  8
0
 62
7
100
AcDbPolyline
 90
1
 70
1
 10
176.705511
 20
80.681793
 30
0.0
  0
SPLINE
  5
1ed
100
AcDbEntity
  8
0
 62
7
100
AcDbSpline
 70
8
 71
3
 72
8
 73
4
 74
0
 40
0
 40
0
 40
0
 40
0
 40
1
 40
1
 40
1
 40
1
 10
167.184798
 20
82.343667
 30
0.0
 10
167.603977
 20
83.796733
 30
0.0
 10
168.355129
 20
89.047521
 30
0.0
 10
168.355129
 20
90.524769
 30
0.0
  0
SPLINE
  5
1ee
100
AcDbEntity
  8
0
 62
7
100
AcDbSpline
 70
8
 71
3
 72
8
 73
4
 74
0
 40
0
 40
0
 40
0
 40
0
 40
1
 40
1
 40
1
 40
1
 10
168.355129
 20
90.524769
 30
0.0
 10
168.355129
 20
91.540452
 30
0.0
 10
168.203232
 20
91.900788
 30
0.0
 10
167.400565
 20
92.789232
 30
0.0
  0
SPLINE
  5
1ef
100
AcDbEntity
  8
0
 62
7
100
AcDbSpline
 70
8
 71
3
 72
8
 73
4
 74
0
 40
0
 40
0
 40
0
 40
0
 40
1
 40
1
 40
1
 40
1
 10
167.400565
 20
92.789232
 30
0.0
 10
165.880640
 20
94.471612
 30
0.0
 10
163.904732
 20
94.686718
 30
0.0
 10
161.684163
 20
93.411585
 30
0.0
  0
SPLINE
  5
1f0
100
AcDbEntity
  8
0
 62
7
100
AcDbSpline
 70
8
 71
3
 72
8
 73
4
 74
0
 40
0
 40
0
 40
0
 40
0
 40
1
 40
1
 40
1
 40
1
 10
161.684163
 20
93.411585
 30
0.0
 10
160.081555
 20
92.491258
 30
0.0
 10
158.477254
 20
87.909813
 30
0.0
 10
158.619521
 20
84.659645
 30
0.0
  0
LWPOLYLINE
  5
1f1
100
AcDbEntity
  8
0
 62
7
100
AcDbPolyline
 90
1
 70
1
 10
182.180296
 20
81.343357
 30
0.0
  0
SPLINE
  5
1f2
100
AcDbEntity
  8
0
 62
7
100
AcDbSpline
 70
8
 71
3
 72
8
 73
4
 74
0
 40
0
 40
0
 40
0
 40
0
 40
1
 40
1
 40
1
 40
1
 10
160.120925
 20
82.398701
 30
0.0
 10
161.667706
 20
81.885726
 30
0.0
 10
165.526178
 20
81.168732
 30
0.0
 10
166.360224
 20
81.239270
 30
0.0
  0
SPLINE
  5
1f3
100
AcDbEntity
  8
0
 62
7
100
AcDbSpline
 70
8
 71
3
 72
8
 73
4
 74
0
 40
0
 40
0
 40
0
 40
0
 40
1
 40
1
 40
1
 40
1
 10
166.360224
 20
81.239270
 30
0.0
 10
166.722862
 20
81.269935
 30
0.0
 10
166.970856
 20
81.602093
 30
0.0
 10
167.184798
 20
82.343667
 30
0.0
  0
LWPOLYLINE
  5
1f4
100
AcDbEntity
  8
0
 62
7
100
AcDbPolyline
 90
3
 70
0
 10
158.619521
 20
84.659645
 30
0.0
 10
158.697837
 20
82.870638
 30
0.0
 10
160.120925
 20
82.398701
 30
0.0
  0
SPLINE
  5
1f5
100
AcDbEntity
  8
0
 62
7
100
AcDbSpline
 70
8
 71
3
 72
8
 73
4
 74
0
 40
0
 40
0
 40
0
 40
0
 40
1
 40
1
 40
1
 40
1
 10
135.905624
 20
82.491120
 30
0.0
 10
136.613754
 20
83.048147
 30
0.0
 10
137.569853
 20
85.615320
 30
0.0
 10
137.315747
 20
86.277466
 30
0.0
  0
SPLINE
  5
1f6
100
AcDbEntity
  8
0
 62
7
100
AcDbSpline
 70
8
 71
3
 72
8
 73
4
 74
0
 40
0
 40
0
 40
0
 40
0
 40
1
 40
1
 40
1
 40
1
 10
137.315747
 20
86.277466
 30
0.0
 10
137.206051
 20
86.563348
 30
0.0
 10
131.817811
 20
88.823763
 30
0.0
 10
131.246020
 20
88.823763
 30
0.0
  0
SPLINE
  5
1f7
100
AcDbEntity
  8
0
 62
7
100
AcDbSpline
 70
8
 71
3
 72
8
 73
4
 74
0
 40
0
 40
0
 40
0
 40
0
 40
1
 40
1
 40
1
 40
1
 10
131.246020
 20
88.823763
 30
0.0
 10
131.137594
 20
88.823763
 30
0.0
 10
131.048879
 20
87.646341
 30
0.0
 10
131.048879
 20
86.207245
 30
0.0
  0
SPLINE
  5
1f8
100
AcDbEntity
  8
0
 62
7
100
AcDbSpline
 70
8
 71
3
 72
8
 73
4
 74
0
 40
0
 40
0
 40
0
 40
0
 40
1
 40
1
 40
1
 40
1
 10
131.048879
 20
86.207245
 30
0.0
 10
131.048879
 20
83.160330
 30
0.0
 10
131.363760
 20
82.530595
 30
0.0
 10
133.049632
 20
82.206058
 30
0.0
  0
SPLINE
  5
1f9
100
AcDbEntity
  8
0
 62
7
100
AcDbSpline
 70
8
 71
3
 72
8
 73
4
 74
0
 40
0
 40
0
 40
0
 40
0
 40
1
 40
1
 40
1
 40
1
 10
133.049632
 20
82.206058
 30
0.0
 10
134.760904
 20
81.876598
 30
0.0
 10
135.177199
 20
81.918138
 30
0.0
 10
135.905624
 20
82.491120
 30
0.0
  0
LWPOLYLINE
  5
1fa
100
AcDbEntity
  8
0
 62
7
100
AcDbPolyline
 90
1
 70
1
 10
167.184798
 20
82.343667
 30
0.0
  0
SPLINE
  5
1fb
100
AcDbEntity
  8
0
 62
7
100
AcDbSpline
 70
8
 71
3
 72
8
 73
4
 74
0
 40
0
 40
0
 40
0
 40
0
 40
1
 40
1
 40
1
 40
1
 10
186.165477
 20
83.201367
 30
0.0
 10
186.541899
 20
83.747070
 30
0.0
 10
187.183170
 20
84.907930
 30
0.0
 10
187.590523
 20
85.781055
 30
0.0
  0
SPLINE
  5
1fc
100
AcDbEntity
  8
0
 62
7
100
AcDbSpline
 70
8
 71
3
 72
8
 73
4
 74
0
 40
0
 40
0
 40
0
 40
0
 40
1
 40
1
 40
1
 40
1
 10
187.590523
 20
85.781055
 30
0.0
 10
188.222559
 20
87.135801
 30
0.0
 10
188.331171
 20
87.704761
 30
0.0
 10
188.331171
 20
89.661619
 30
0.0
  0
SPLINE
  5
1fd
100
AcDbEntity
  8
0
 62
7
100
AcDbSpline
 70
8
 71
3
 72
8
 73
4
 74
0
 40
0
 40
0
 40
0
 40
0
 40
1
 40
1
 40
1
 40
1
 10
188.331171
 20
89.661619
 30
0.0
 10
188.331171
 20
90.922782
 30
0.0
 10
188.242588
 20
92.043239
 30
0.0
 10
188.134347
 20
92.151480
 30
0.0
  0
SPLINE
  5
1fe
100
AcDbEntity
  8
0
 62
7
100
AcDbSpline
 70
8
 71
3
 72
8
 73
4
 74
0
 40
0
 40
0
 40
0
 40
0
 40
1
 40
1
 40
1
 40
1
 10
188.134347
 20
92.151480
 30
0.0
 10
187.730567
 20
92.555261
 30
0.0
 10
186.864744
 20
91.336564
 30
0.0
 10
186.353860
 20
89.645268
 30
0.0
  0
SPLINE
  5
1ff
100
AcDbEntity
  8
0
 62
7
100
AcDbSpline
 70
8
 71
3
 72
8
 73
4
 74
0
 40
0
 40
0
 40
0
 40
0
 40
1
 40
1
 40
1
 40
1
 10
186.353860
 20
89.645268
 30
0.0
 10
185.512882
 20
86.861269
 30
0.0
 10
184.741410
 20
83.092782
 30
0.0
 10
184.918178
 20
82.632169
 30
0.0
  0
SPLINE
  5
200
100
AcDbEntity
  8
0
 62
7
100
AcDbSpline
 70
8
 71
3
 72
8
 73
4
 74
0
 40
0
 40
0
 40
0
 40
0
 40
1
 40
1
 40
1
 40
1
 10
184.918178
 20
82.632169
 30
0.0
 10
185.162256
 20
81.996058
 30
0.0
 10
185.412975
 20
82.110490
 30
0.0
 10
186.165477
 20
83.201367
 30
0.0
  0
LWPOLYLINE
  5
201
100
AcDbEntity
  8
0
 62
7
100
AcDbPolyline
 90
1
 70
1
 10
135.905624
 20
82.491120
 30
0.0
  0
SPLINE
  5
202
100
AcDbEntity
  8
0
 62
7
100
AcDbSpline
 70
8
 71
3
 72
8
 73
4
 74
0
 40
0
 40
0
 40
0
 40
0
 40
1
 40
1
 40
1
 40
1
 10
41.938382
 20
85.040698
 30
0.0
 10
42.633363
 20
87.107623
 30
0.0
 10
42.944822
 20
90.364141
 30
0.0
 10
42.919510
 20
95.299123
 30
0.0
  0
LWPOLYLINE
  5
203
100
AcDbEntity
  8
0
 62
7
100
AcDbPolyline
 90
1
 70
1
 10
186.165477
 20
83.201367
 30
0.0
  0
SPLINE
  5
204
100
AcDbEntity
  8
0
 62
7
100
AcDbSpline
 70
8
 71
3
 72
8
 73
4
 74
0
 40
0
 40
0
 40
0
 40
0
 40
1
 40
1
 40
1
 40
1
 10
42.148689
 20
96.364388
 30
0.0
 10
41.313129
 20
92.520759
 30
0.0
 10
40.792474
 20
90.885185
 30
0.0
 10
40.358430
 20
90.740484
 30
0.0
  0
SPLINE
  5
205
100
AcDbEntity
  8
0
 62
7
100
AcDbSpline
 70
8
 71
3
 72
8
 73
4
 74
0
 40
0
 40
0
 40
0
 40
0
 40
1
 40
1
 40
1
 40
1
 10
40.358430
 20
90.740484
 30
0.0
 10
40.016729
 20
90.626581
 30
0.0
 10
39.516129
 20
92.253715
 30
0.0
 10
39.482898
 20
93.586263
 30
0.0
  0
SPLINE
  5
206
100
AcDbEntity
  8
0
 62
7
100
AcDbSpline
 70
8
 71
3
 72
8
 73
4
 74
0
 40
0
 40
0
 40
0
 40
0
 40
1
 40
1
 40
1
 40
1
 10
39.482898
 20
93.586263
 30
0.0
 10
39.470198
 20
94.095586
 30
0.0
 10
39.187853
 20
93.083555
 30
0.0
 10
38.855467
 20
91.337305
 30
0.0
  0
SPLINE
  5
207
100
AcDbEntity
  8
0
 62
7
100
AcDbSpline
 70
8
 71
3
 72
8
 73
4
 74
0
 40
0
 40
0
 40
0
 40
0
 40
1
 40
1
 40
1
 40
1
 10
38.855467
 20
91.337305
 30
0.0
 10
38.523082
 20
89.591055
 30
0.0
 10
38.005922
 20
87.270368
 30
0.0
 10
37.706221
 20
86.180205
 30
0.0
  0
SPLINE
  5
208
100
AcDbEntity
  8
0
 62
7
100
AcDbSpline
 70
8
 71
3
 72
8
 73
4
 74
0
 40
0
 40
0
 40
0
 40
0
 40
1
 40
1
 40
1
 40
1
 10
37.706221
 20
86.180205
 30
0.0
 10
37.406522
 20
85.090069
 30
0.0
 10
37.195935
 20
84.163498
 30
0.0
 10
37.238249
 20
84.121191
 30
0.0
  0
SPLINE
  5
209
100
AcDbEntity
  8
0
 62
7
100
AcDbSpline
 70
8
 71
3
 72
8
 73
4
 74
0
 40
0
 40
0
 40
0
 40
0
 40
1
 40
1
 40
1
 40
1
 10
37.238249
 20
84.121191
 30
0.0
 10
37.280564
 20
84.078884
 30
0.0
 10
37.868378
 20
84.192205
 30
0.0
 10
38.544500
 20
84.373048
 30
0.0
  0
SPLINE
  5
20a
100
AcDbEntity
  8
0
 62
7
100
AcDbSpline
 70
8
 71
3
 72
8
 73
4
 74
0
 40
0
 40
0
 40
0
 40
0
 40
1
 40
1
 40
1
 40
1
 10
38.544500
 20
84.373048
 30
0.0
 10
39.691641
 20
84.679859
 30
0.0
 10
39.813026
 20
84.662608
 30
0.0
 10
40.360518
 20
84.115132
 30
0.0
  0
SPLINE
  5
20b
100
AcDbEntity
  8
0
 62
7
100
AcDbSpline
 70
8
 71
3
 72
8
 73
4
 74
0
 40
0
 40
0
 40
0
 40
0
 40
1
 40
1
 40
1
 40
1
 10
40.360518
 20
84.115132
 30
0.0
 10
40.683206
 20
83.792446
 30
0.0
 10
41.068768
 20
83.566915
 30
0.0
 10
41.217321
 20
83.613958
 30
0.0
  0
SPLINE
  5
20c
100
AcDbEntity
  8
0
 62
7
100
AcDbSpline
 70
8
 71
3
 72
8
 73
4
 74
0
 40
0
 40
0
 40
0
 40
0
 40
1
 40
1
 40
1
 40
1
 10
41.217321
 20
83.613958
 30
0.0
 10
41.365871
 20
83.661001
 30
0.0
 10
41.690354
 20
84.303039
 30
0.0
 10
41.938390
 20
85.040698
 30
0.0
  0
LWPOLYLINE
  5
20d
100
AcDbEntity
  8
0
 62
7
100
AcDbPolyline
 90
3
 70
0
 10
42.919510
 20
95.299123
 30
0.0
 10
42.896412
 20
99.803971
 30
0.0
 10
42.148689
 20
96.364388
 30
0.0
  0
LWPOLYLINE
  5
20e
100
AcDbEntity
  8
0
 62
7
100
AcDbPolyline
 90
1
 70
1
 10
41.938390
 20
85.040698
 30
0.0
  0
SPLINE
  5
20f
100
AcDbEntity
  8
0
 62
7
100
AcDbSpline
 70
8
 71
3
 72
8
 73
4
 74
0
 40
0
 40
0
 40
0
 40
0
 40
1
 40
1
 40
1
 40
1
 10
156.560586
 20
88.004719
 30
0.0
 10
157.098193
 20
92.382779
 30
0.0
 10
157.011833
 20
93.478286
 30
0.0
 10
156.058460
 20
94.373954
 30
0.0
  0
SPLINE
  5
210
100
AcDbEntity
  8
0
 62
7
100
AcDbSpline
 70
8
 71
3
 72
8
 73
4
 74
0
 40
0
 40
0
 40
0
 40
0
 40
1
 40
1
 40
1
 40
1
 10
156.058460
 20
94.373954
 30
0.0
 10
155.529267
 20
94.871080
 30
0.0
 10
155.215259
 20
94.955349
 30
0.0
 10
154.332794
 20
94.836975
 30
0.0
  0
SPLINE
  5
211
100
AcDbEntity
  8
0
 62
7
100
AcDbSpline
 70
8
 71
3
 72
8
 73
4
 74
0
 40
0
 40
0
 40
0
 40
0
 40
1
 40
1
 40
1
 40
1
 10
154.332794
 20
94.836975
 30
0.0
 10
152.810885
 20
94.632849
 30
0.0
 10
151.663069
 20
93.644180
 30
0.0
 10
150.685407
 20
91.695339
 30
0.0
  0
SPLINE
  5
212
100
AcDbEntity
  8
0
 62
7
100
AcDbSpline
 70
8
 71
3
 72
8
 73
4
 74
0
 40
0
 40
0
 40
0
 40
0
 40
1
 40
1
 40
1
 40
1
 10
150.685407
 20
91.695339
 30
0.0
 10
149.734733
 20
89.800234
 30
0.0
 10
148.622213
 20
85.901837
 30
0.0
 10
148.857269
 20
85.289300
 30
0.0
  0
SPLINE
  5
213
100
AcDbEntity
  8
0
 62
7
100
AcDbSpline
 70
8
 71
3
 72
8
 73
4
 74
0
 40
0
 40
0
 40
0
 40
0
 40
1
 40
1
 40
1
 40
1
 10
148.857269
 20
85.289300
 30
0.0
 10
149.368206
 20
83.957837
 30
0.0
 10
152.791306
 20
83.143714
 30
0.0
 10
155.137816
 20
83.795595
 30
0.0
  0
LWPOLYLINE
  5
214
100
AcDbEntity
  8
0
 62
7
100
AcDbPolyline
 90
3
 70
0
 10
155.137816
 20
83.795595
 30
0.0
 10
156.075711
 20
84.056156
 30
0.0
 10
156.560586
 20
88.004719
 30
0.0
  0
SPLINE
  5
215
100
AcDbEntity
  8
0
 62
7
100
AcDbSpline
 70
8
 71
3
 72
8
 73
4
 74
0
 40
0
 40
0
 40
0
 40
0
 40
1
 40
1
 40
1
 40
1
 10
35.905911
 20
85.053450
 30
0.0
 10
36.316849
 20
86.386765
 30
0.0
 10
37.257945
 20
93.321680
 30
0.0
 10
37.027948
 20
93.321680
 30
0.0
  0
SPLINE
  5
216
100
AcDbEntity
  8
0
 62
7
100
AcDbSpline
 70
8
 71
3
 72
8
 73
4
 74
0
 40
0
 40
0
 40
0
 40
0
 40
1
 40
1
 40
1
 40
1
 10
37.027948
 20
93.321680
 30
0.0
 10
36.955397
 20
93.321680
 30
0.0
 10
36.529354
 20
92.680779
 30
0.0
 10
36.081187
 20
91.897480
 30
0.0
  0
SPLINE
  5
217
100
AcDbEntity
  8
0
 62
7
100
AcDbSpline
 70
8
 71
3
 72
8
 73
4
 74
0
 40
0
 40
0
 40
0
 40
0
 40
1
 40
1
 40
1
 40
1
 10
36.081187
 20
91.897480
 30
0.0
 10
35.633020
 20
91.114155
 30
0.0
 10
35.093407
 20
90.329745
 30
0.0
 10
34.882045
 20
90.154326
 30
0.0
  0
SPLINE
  5
218
100
AcDbEntity
  8
0
 62
7
100
AcDbSpline
 70
8
 71
3
 72
8
 73
4
 74
0
 40
0
 40
0
 40
0
 40
0
 40
1
 40
1
 40
1
 40
1
 10
34.882045
 20
90.154326
 30
0.0
 10
34.344094
 20
89.707868
 30
0.0
 10
34.223076
 20
90.379037
 30
0.0
 10
34.143984
 20
94.247721
 30
0.0
  0
LWPOLYLINE
  5
219
100
AcDbEntity
  8
0
 62
7
100
AcDbPolyline
 90
1
 70
1
 10
155.137816
 20
83.795595
 30
0.0
  0
SPLINE
  5
21a
100
AcDbEntity
  8
0
 62
7
100
AcDbSpline
 70
8
 71
3
 72
8
 73
4
 74
0
 40
0
 40
0
 40
0
 40
0
 40
1
 40
1
 40
1
 40
1
 10
33.327377
 20
94.380013
 30
0.0
 10
32.913942
 20
92.706523
 30
0.0
 10
32.334356
 20
90.580146
 30
0.0
 10
32.039407
 20
89.654713
 30
0.0
  0
LWPOLYLINE
  5
21b
100
AcDbEntity
  8
0
 62
7
100
AcDbPolyline
 90
3
 70
0
 10
34.143984
 20
94.247721
 30
0.0
 10
34.079074
 20
97.422721
 30
0.0
 10
33.327377
 20
94.380013
 30
0.0
  0
SPLINE
  5
21c
100
AcDbEntity
  8
0
 62
7
100
AcDbSpline
 70
8
 71
3
 72
8
 73
4
 74
0
 40
0
 40
0
 40
0
 40
0
 40
1
 40
1
 40
1
 40
1
 10
32.129645
 20
87.352997
 30
0.0
 10
32.474228
 20
87.012452
 30
0.0
 10
33.098187
 20
86.673521
 30
0.0
 10
33.516223
 20
86.599808
 30
0.0
  0
SPLINE
  5
21d
100
AcDbEntity
  8
0
 62
7
100
AcDbSpline
 70
8
 71
3
 72
8
 73
4
 74
0
 40
0
 40
0
 40
0
 40
0
 40
1
 40
1
 40
1
 40
1
 10
33.516223
 20
86.599808
 30
0.0
 10
34.402541
 20
86.443518
 30
0.0
 10
34.292471
 20
86.538663
 30
0.0
 10
34.845969
 20
85.450325
 30
0.0
  0
SPLINE
  5
21e
100
AcDbEntity
  8
0
 62
7
100
AcDbSpline
 70
8
 71
3
 72
8
 73
4
 74
0
 40
0
 40
0
 40
0
 40
0
 40
1
 40
1
 40
1
 40
1
 10
34.845969
 20
85.450325
 30
0.0
 10
35.333255
 20
84.492190
 30
0.0
 10
35.691575
 20
84.358020
 30
0.0
 10
35.905911
 20
85.053450
 30
0.0
  0
LWPOLYLINE
  5
21f
100
AcDbEntity
  8
0
 62
7
100
AcDbPolyline
 90
3
 70
0
 10
32.039407
 20
89.654713
 30
0.0
 10
31.503133
 20
87.972149
 30
0.0
 10
32.129645
 20
87.352997
 30
0.0
  0
SPLINE
  5
220
100
AcDbEntity
  8
0
 62
7
100
AcDbSpline
 70
8
 71
3
 72
8
 73
4
 74
0
 40
0
 40
0
 40
0
 40
0
 40
1
 40
1
 40
1
 40
1
 10
128.119518
 20
86.829598
 30
0.0
 10
128.531236
 20
87.042509
 30
0.0
 10
128.942028
 20
87.409433
 30
0.0
 10
129.032437
 20
87.644991
 30
0.0
  0
SPLINE
  5
221
100
AcDbEntity
  8
0
 62
7
100
AcDbSpline
 70
8
 71
3
 72
8
 73
4
 74
0
 40
0
 40
0
 40
0
 40
0
 40
1
 40
1
 40
1
 40
1
 10
129.032437
 20
87.644991
 30
0.0
 10
129.315779
 20
88.383390
 30
0.0
 10
129.211665
 20
90.113104
 30
0.0
 10
128.866067
 20
90.408696
 30
0.0
  0
SPLINE
  5
222
100
AcDbEntity
  8
0
 62
7
100
AcDbSpline
 70
8
 71
3
 72
8
 73
4
 74
0
 40
0
 40
0
 40
0
 40
0
 40
1
 40
1
 40
1
 40
1
 10
128.866067
 20
90.408696
 30
0.0
 10
128.684166
 20
90.564298
 30
0.0
 10
127.414642
 20
91.229275
 30
0.0
 10
126.044894
 20
91.886474
 30
0.0
  0
SPLINE
  5
223
100
AcDbEntity
  8
0
 62
7
100
AcDbSpline
 70
8
 71
3
 72
8
 73
4
 74
0
 40
0
 40
0
 40
0
 40
0
 40
1
 40
1
 40
1
 40
1
 10
126.044894
 20
91.886474
 30
0.0
 10
124.128384
 20
92.806007
 30
0.0
 10
123.504365
 20
93.002354
 30
0.0
 10
123.336963
 20
92.738511
 30
0.0
  0
SPLINE
  5
224
100
AcDbEntity
  8
0
 62
7
100
AcDbSpline
 70
8
 71
3
 72
8
 73
4
 74
0
 40
0
 40
0
 40
0
 40
0
 40
1
 40
1
 40
1
 40
1
 10
123.336963
 20
92.738511
 30
0.0
 10
122.972155
 20
92.163387
 30
0.0
 10
123.086376
 20
89.520517
 30
0.0
 10
123.532702
 20
88.210670
 30
0.0
  0
SPLINE
  5
225
100
AcDbEntity
  8
0
 62
7
100
AcDbSpline
 70
8
 71
3
 72
8
 73
4
 74
0
 40
0
 40
0
 40
0
 40
0
 40
1
 40
1
 40
1
 40
1
 10
123.532702
 20
88.210670
 30
0.0
 10
123.876157
 20
87.202687
 30
0.0
 10
124.108435
 20
86.929426
 30
0.0
 10
124.789472
 20
86.732179
 30
0.0
  0
SPLINE
  5
226
100
AcDbEntity
  8
0
 62
7
100
AcDbSpline
 70
8
 71
3
 72
8
 73
4
 74
0
 40
0
 40
0
 40
0
 40
0
 40
1
 40
1
 40
1
 40
1
 10
124.789472
 20
86.732179
 30
0.0
 10
126.059393
 20
86.364408
 30
0.0
 10
127.289520
 20
86.400391
 30
0.0
 10
128.119518
 20
86.829598
 30
0.0
  0
LWPOLYLINE
  5
227
100
AcDbEntity
  8
0
 62
7
100
AcDbPolyline
 90
1
 70
1
 10
35.905911
 20
85.053450
 30
0.0
  0
SPLINE
  5
228
100
AcDbEntity
  8
0
 62
7
100
AcDbSpline
 70
8
 71
3
 72
8
 73
4
 74
0
 40
0
 40
0
 40
0
 40
0
 40
1
 40
1
 40
1
 40
1
 10
147.314457
 20
87.836894
 30
0.0
 10
148.018857
 20
90.260001
 30
0.0
 10
148.502013
 20
92.877338
 30
0.0
 10
148.506775
 20
94.295849
 30
0.0
  0
SPLINE
  5
229
100
AcDbEntity
  8
0
 62
7
100
AcDbSpline
 70
8
 71
3
 72
8
 73
4
 74
0
 40
0
 40
0
 40
0
 40
0
 40
1
 40
1
 40
1
 40
1
 10
148.506775
 20
94.295849
 30
0.0
 10
148.510744
 20
95.494835
 30
0.0
 10
148.420045
 20
95.730526
 30
0.0
 10
147.783775
 20
96.173835
 30
0.0
  0
SPLINE
  5
22a
100
AcDbEntity
  8
0
 62
7
100
AcDbSpline
 70
8
 71
3
 72
8
 73
4
 74
0
 40
0
 40
0
 40
0
 40
0
 40
1
 40
1
 40
1
 40
1
 10
147.783775
 20
96.173835
 30
0.0
 10
146.087187
 20
97.355888
 30
0.0
 10
144.461428
 20
97.041959
 30
0.0
 10
142.659166
 20
95.184293
 30
0.0
  0
SPLINE
  5
22b
100
AcDbEntity
  8
0
 62
7
100
AcDbSpline
 70
8
 71
3
 72
8
 73
4
 74
0
 40
0
 40
0
 40
0
 40
0
 40
1
 40
1
 40
1
 40
1
 10
142.659166
 20
95.184293
 30
0.0
 10
141.343869
 20
93.828595
 30
0.0
 10
139.859557
 20
91.105847
 30
0.0
 10
139.615320
 20
89.600818
 30
0.0
  0
SPLINE
  5
22c
100
AcDbEntity
  8
0
 62
7
100
AcDbSpline
 70
8
 71
3
 72
8
 73
4
 74
0
 40
0
 40
0
 40
0
 40
0
 40
1
 40
1
 40
1
 40
1
 10
139.615320
 20
89.600818
 30
0.0
 10
139.469958
 20
88.704991
 30
0.0
 10
139.513667
 20
88.644296
 30
0.0
 10
140.814015
 20
87.936562
 30
0.0
  0
SPLINE
  5
22d
100
AcDbEntity
  8
0
 62
7
100
AcDbSpline
 70
8
 71
3
 72
8
 73
4
 74
0
 40
0
 40
0
 40
0
 40
0
 40
1
 40
1
 40
1
 40
1
 10
140.814015
 20
87.936562
 30
0.0
 10
142.597598
 20
86.965806
 30
0.0
 10
144.133213
 20
86.500642
 30
0.0
 10
145.659700
 20
86.468680
 30
0.0
  0
LWPOLYLINE
  5
22e
100
AcDbEntity
  8
0
 62
7
100
AcDbPolyline
 90
1
 70
1
 10
128.119518
 20
86.829598
 30
0.0
  0
SPLINE
  5
22f
100
AcDbEntity
  8
0
 62
7
100
AcDbSpline
 70
8
 71
3
 72
8
 73
4
 74
0
 40
0
 40
0
 40
0
 40
0
 40
1
 40
1
 40
1
 40
1
 10
138.367492
 20
90.741992
 30
0.0
 10
139.278532
 20
93.477149
 30
0.0
 10
139.433022
 20
97.759959
 30
0.0
 10
138.663058
 20
98.935080
 30
0.0
  0
SPLINE
  5
230
100
AcDbEntity
  8
0
 62
7
100
AcDbSpline
 70
8
 71
3
 72
8
 73
4
 74
0
 40
0
 40
0
 40
0
 40
0
 40
1
 40
1
 40
1
 40
1
 10
138.663058
 20
98.935080
 30
0.0
 10
137.983767
 20
99.971823
 30
0.0
 10
135.727691
 20
100.437066
 30
0.0
 10
134.410516
 20
99.812041
 30
0.0
  0
SPLINE
  5
231
100
AcDbEntity
  8
0
 62
7
100
AcDbSpline
 70
8
 71
3
 72
8
 73
4
 74
0
 40
0
 40
0
 40
0
 40
0
 40
1
 40
1
 40
1
 40
1
 10
134.410516
 20
99.812041
 30
0.0
 10
133.259049
 20
99.265624
 30
0.0
 10
132.190953
 20
97.675345
 30
0.0
 10
131.068485
 20
94.836155
 30
0.0
  0
SPLINE
  5
232
100
AcDbEntity
  8
0
 62
7
100
AcDbSpline
 70
8
 71
3
 72
8
 73
4
 74
0
 40
0
 40
0
 40
0
 40
0
 40
1
 40
1
 40
1
 40
1
 10
131.068485
 20
94.836155
 30
0.0
 10
130.103232
 20
92.394580
 30
0.0
 10
130.094289
 20
92.274591
 30
0.0
 10
130.809299
 20
91.365615
 30
0.0
  0
SPLINE
  5
233
100
AcDbEntity
  8
0
 62
7
100
AcDbSpline
 70
8
 71
3
 72
8
 73
4
 74
0
 40
0
 40
0
 40
0
 40
0
 40
1
 40
1
 40
1
 40
1
 10
130.809299
 20
91.365615
 30
0.0
 10
131.667448
 20
90.274632
 30
0.0
 10
135.292161
 20
88.622574
 30
0.0
 10
136.924322
 20
88.578521
 30
0.0
  0
SPLINE
  5
234
100
AcDbEntity
  8
0
 62
7
100
AcDbSpline
 70
8
 71
3
 72
8
 73
4
 74
0
 40
0
 40
0
 40
0
 40
0
 40
1
 40
1
 40
1
 40
1
 10
136.924322
 20
88.578521
 30
0.0
 10
137.590279
 20
88.560529
 30
0.0
 10
137.691349
 20
88.712056
 30
0.0
 10
138.367492
 20
90.741992
 30
0.0
  0
LWPOLYLINE
  5
235
100
AcDbEntity
  8
0
 62
7
100
AcDbPolyline
 90
4
 70
0
 10
145.659700
 20
86.468680
 30
0.0
 10
146.909089
 20
86.442486
 30
0.0
 10
147.314457
 20
87.836867
 30
0.0
 10
147.314457
 20
87.836894
 30
0.0
  0
SPLINE
  5
236
100
AcDbEntity
  8
0
 62
7
100
AcDbSpline
 70
8
 71
3
 72
8
 73
4
 74
0
 40
0
 40
0
 40
0
 40
0
 40
1
 40
1
 40
1
 40
1
 10
29.865860
 20
90.609700
 30
0.0
 10
29.955231
 20
91.009883
 30
0.0
 10
30.255154
 20
92.178336
 30
0.0
 10
30.532358
 20
93.206268
 30
0.0
  0
SPLINE
  5
237
100
AcDbEntity
  8
0
 62
7
100
AcDbSpline
 70
8
 71
3
 72
8
 73
4
 74
0
 40
0
 40
0
 40
0
 40
0
 40
1
 40
1
 40
1
 40
1
 10
30.532358
 20
93.206268
 30
0.0
 10
31.032384
 20
95.060468
 30
0.0
 10
31.171002
 20
96.232096
 30
0.0
 10
30.890348
 20
96.232096
 30
0.0
  0
SPLINE
  5
238
100
AcDbEntity
  8
0
 62
7
100
AcDbSpline
 70
8
 71
3
 72
8
 73
4
 74
0
 40
0
 40
0
 40
0
 40
0
 40
1
 40
1
 40
1
 40
1
 10
30.890348
 20
96.232096
 30
0.0
 10
30.810036
 20
96.232096
 30
0.0
 10
30.276916
 20
95.964206
 30
0.0
 10
29.705639
 20
95.636784
 30
0.0
  0
SPLINE
  5
239
100
AcDbEntity
  8
0
 62
7
100
AcDbSpline
 70
8
 71
3
 72
8
 73
4
 74
0
 40
0
 40
0
 40
0
 40
0
 40
1
 40
1
 40
1
 40
1
 10
29.705639
 20
95.636784
 30
0.0
 10
28.415030
 20
94.897088
 30
0.0
 10
28.060195
 20
95.078830
 30
0.0
 10
27.029767
 20
97.007299
 30
0.0
  0
SPLINE
  5
23a
100
AcDbEntity
  8
0
 62
7
100
AcDbSpline
 70
8
 71
3
 72
8
 73
4
 74
0
 40
0
 40
0
 40
0
 40
0
 40
1
 40
1
 40
1
 40
1
 10
27.029767
 20
97.007299
 30
0.0
 10
26.346926
 20
98.285263
 30
0.0
 10
26.272044
 20
98.680550
 30
0.0
 10
26.255018
 20
101.097360
 30
0.0
  0
LWPOLYLINE
  5
23b
100
AcDbEntity
  8
0
 62
7
100
AcDbPolyline
 90
1
 70
1
 10
138.367492
 20
90.741992
 30
0.0
  0
SPLINE
  5
23c
100
AcDbEntity
  8
0
 62
7
100
AcDbSpline
 70
8
 71
3
 72
8
 73
4
 74
0
 40
0
 40
0
 40
0
 40
0
 40
1
 40
1
 40
1
 40
1
 10
25.773823
 20
102.185221
 30
0.0
 10
24.912485
 20
99.227815
 30
0.0
 10
23.418923
 20
97.126758
 30
0.0
 10
22.064481
 20
96.967109
 30
0.0
  0
SPLINE
  5
23d
100
AcDbEntity
  8
0
 62
7
100
AcDbSpline
 70
8
 71
3
 72
8
 73
4
 74
0
 40
0
 40
0
 40
0
 40
0
 40
1
 40
1
 40
1
 40
1
 10
22.064481
 20
96.967109
 30
0.0
 10
21.562876
 20
96.907974
 30
0.0
 10
21.378956
 20
97.072095
 30
0.0
 10
21.126962
 20
97.803615
 30
0.0
  0
SPLINE
  5
23e
100
AcDbEntity
  8
0
 62
7
100
AcDbSpline
 70
8
 71
3
 72
8
 73
4
 74
0
 40
0
 40
0
 40
0
 40
0
 40
1
 40
1
 40
1
 40
1
 10
21.126962
 20
97.803615
 30
0.0
 10
20.765443
 20
98.853085
 30
0.0
 10
20.458341
 20
99.016465
 30
0.0
 10
19.455234
 20
98.692906
 30
0.0
  0
SPLINE
  5
23f
100
AcDbEntity
  8
0
 62
7
100
AcDbSpline
 70
8
 71
3
 72
8
 73
4
 74
0
 40
0
 40
0
 40
0
 40
0
 40
1
 40
1
 40
1
 40
1
 10
19.455234
 20
98.692906
 30
0.0
 10
18.340561
 20
98.333338
 30
0.0
 10
17.603945
 20
98.561700
 30
0.0
 10
17.341835
 20
99.348015
 30
0.0
  0
SPLINE
  5
240
100
AcDbEntity
  8
0
 62
7
100
AcDbSpline
 70
8
 71
3
 72
8
 73
4
 74
0
 40
0
 40
0
 40
0
 40
0
 40
1
 40
1
 40
1
 40
1
 10
17.341835
 20
99.348015
 30
0.0
 10
17.141345
 20
99.949492
 30
0.0
 10
16.989415
 20
99.577885
 30
0.0
 10
16.282949
 20
96.758061
 30
0.0
  0
SPLINE
  5
241
100
AcDbEntity
  8
0
 62
7
100
AcDbSpline
 70
8
 71
3
 72
8
 73
4
 74
0
 40
0
 40
0
 40
0
 40
0
 40
1
 40
1
 40
1
 40
1
 10
16.282949
 20
96.758061
 30
0.0
 10
15.829305
 20
94.947359
 30
0.0
 10
15.495425
 20
93.428598
 30
0.0
 10
15.540996
 20
93.383036
 30
0.0
  0
SPLINE
  5
242
100
AcDbEntity
  8
0
 62
7
100
AcDbSpline
 70
8
 71
3
 72
8
 73
4
 74
0
 40
0
 40
0
 40
0
 40
0
 40
1
 40
1
 40
1
 40
1
 10
15.540996
 20
93.383036
 30
0.0
 10
15.586568
 20
93.337475
 30
0.0
 10
16.057720
 20
93.556153
 30
0.0
 10
16.588000
 20
93.869050
 30
0.0
  0
LWPOLYLINE
  5
243
100
AcDbEntity
  8
0
 62
7
100
AcDbPolyline
 90
3
 70
0
 10
26.255018
 20
101.097360
 30
0.0
 10
26.236180
 20
103.772721
 30
0.0
 10
25.773823
 20
102.185221
 30
0.0
  0
SPLINE
  5
244
100
AcDbEntity
  8
0
 62
7
100
AcDbSpline
 70
8
 71
3
 72
8
 73
4
 74
0
 40
0
 40
0
 40
0
 40
0
 40
1
 40
1
 40
1
 40
1
 10
28.114744
 20
91.206865
 30
0.0
 10
28.775758
 20
90.480293
 30
0.0
 10
29.403614
 20
89.884980
 30
0.0
 10
29.509982
 20
89.883948
 30
0.0
  0
SPLINE
  5
245
100
AcDbEntity
  8
0
 62
7
100
AcDbSpline
 70
8
 71
3
 72
8
 73
4
 74
0
 40
0
 40
0
 40
0
 40
0
 40
1
 40
1
 40
1
 40
1
 10
29.509982
 20
89.883948
 30
0.0
 10
29.616350
 20
89.883948
 30
0.0
 10
29.776499
 20
90.209518
 30
0.0
 10
29.865870
 20
90.609700
 30
0.0
  0
LWPOLYLINE
  5
246
100
AcDbEntity
  8
0
 62
7
100
AcDbPolyline
 90
7
 70
0
 10
16.588000
 20
93.869050
 30
0.0
 10
17.552147
 20
94.437904
 30
0.0
 10
18.938741
 20
93.482917
 30
0.0
 10
20.325335
 20
92.527930
 30
0.0
 10
23.619120
 20
92.527930
 30
0.0
 10
26.912906
 20
92.527930
 30
0.0
 10
28.114744
 20
91.206865
 30
0.0
  0
SPLINE
  5
247
100
AcDbEntity
  8
0
 62
7
100
AcDbSpline
 70
8
 71
3
 72
8
 73
4
 74
0
 40
0
 40
0
 40
0
 40
0
 40
1
 40
1
 40
1
 40
1
 10
63.210480
 20
95.041471
 30
0.0
 10
63.533189
 20
97.037170
 30
0.0
 10
63.670640
 20
100.328481
 30
0.0
 10
63.769872
 20
108.436241
 30
0.0
  0
SPLINE
  5
248
100
AcDbEntity
  8
0
 62
7
100
AcDbSpline
 70
8
 71
3
 72
8
 73
4
 74
0
 40
0
 40
0
 40
0
 40
0
 40
1
 40
1
 40
1
 40
1
 10
63.769872
 20
108.436241
 30
0.0
 10
63.935586
 20
121.976028
 30
0.0
 10
63.395289
 20
133.977422
 30
0.0
 10
62.097817
 20
145.576888
 30
0.0
  0
SPLINE
  5
249
100
AcDbEntity
  8
0
 62
7
100
AcDbSpline
 70
8
 71
3
 72
8
 73
4
 74
0
 40
0
 40
0
 40
0
 40
0
 40
1
 40
1
 40
1
 40
1
 10
62.097817
 20
145.576888
 30
0.0
 10
61.647141
 20
149.605936
 30
0.0
 10
61.299370
 20
150.839847
 30
0.0
 10
61.575818
 20
147.428971
 30
0.0
  0
SPLINE
  5
24a
100
AcDbEntity
  8
0
 62
7
100
AcDbSpline
 70
8
 71
3
 72
8
 73
4
 74
0
 40
0
 40
0
 40
0
 40
0
 40
1
 40
1
 40
1
 40
1
 10
61.575818
 20
147.428971
 30
0.0
 10
61.982996
 20
142.405142
 30
0.0
 10
62.252765
 20
128.083008
 30
0.0
 10
62.281009
 20
109.990430
 30
0.0
  0
SPLINE
  5
24b
100
AcDbEntity
  8
0
 62
7
100
AcDbSpline
 70
8
 71
3
 72
8
 73
4
 74
0
 40
0
 40
0
 40
0
 40
0
 40
1
 40
1
 40
1
 40
1
 10
62.281009
 20
109.990430
 30
0.0
 10
62.299662
 20
98.038486
 30
0.0
 10
62.402183
 20
90.900451
 30
0.0
 10
62.547005
 20
91.469596
 30
0.0
  0
SPLINE
  5
24c
100
AcDbEntity
  8
0
 62
7
100
AcDbSpline
 70
8
 71
3
 72
8
 73
4
 74
0
 40
0
 40
0
 40
0
 40
0
 40
1
 40
1
 40
1
 40
1
 10
62.547005
 20
91.469596
 30
0.0
 10
62.676606
 20
91.978919
 30
0.0
 10
62.975170
 20
93.586263
 30
0.0
 10
63.210480
 20
95.041471
 30
0.0
  0
LWPOLYLINE
  5
24d
100
AcDbEntity
  8
0
 62
7
100
AcDbPolyline
 90
1
 70
1
 10
29.865870
 20
90.609700
 30
0.0
  0
SPLINE
  5
24e
100
AcDbEntity
  8
0
 62
7
100
AcDbSpline
 70
8
 71
3
 72
8
 73
4
 74
0
 40
0
 40
0
 40
0
 40
0
 40
1
 40
1
 40
1
 40
1
 10
119.572842
 20
91.163526
 30
0.0
 10
120.391859
 20
91.847950
 30
0.0
 10
120.968095
 20
93.104271
 30
0.0
 10
121.052815
 20
94.390173
 30
0.0
  0
SPLINE
  5
24f
100
AcDbEntity
  8
0
 62
7
100
AcDbSpline
 70
8
 71
3
 72
8
 73
4
 74
0
 40
0
 40
0
 40
0
 40
0
 40
1
 40
1
 40
1
 40
1
 10
121.052815
 20
94.390173
 30
0.0
 10
121.125840
 20
95.498539
 30
0.0
 10
121.101472
 20
95.533570
 30
0.0
 10
119.478518
 20
96.652625
 30
0.0
  0
SPLINE
  5
250
100
AcDbEntity
  8
0
 62
7
100
AcDbSpline
 70
8
 71
3
 72
8
 73
4
 74
0
 40
0
 40
0
 40
0
 40
0
 40
1
 40
1
 40
1
 40
1
 10
119.478518
 20
96.652625
 30
0.0
 10
118.571870
 20
97.277783
 30
0.0
 10
117.165107
 20
97.998904
 30
0.0
 10
116.352360
 20
98.255100
 30
0.0
  0
SPLINE
  5
251
100
AcDbEntity
  8
0
 62
7
100
AcDbSpline
 70
8
 71
3
 72
8
 73
4
 74
0
 40
0
 40
0
 40
0
 40
0
 40
1
 40
1
 40
1
 40
1
 10
116.352360
 20
98.255100
 30
0.0
 10
114.489217
 20
98.842396
 30
0.0
 10
114.389628
 20
98.715952
 30
0.0
 10
114.384177
 20
95.755926
 30
0.0
  0
SPLINE
  5
252
100
AcDbEntity
  8
0
 62
7
100
AcDbSpline
 70
8
 71
3
 72
8
 73
4
 74
0
 40
0
 40
0
 40
0
 40
0
 40
1
 40
1
 40
1
 40
1
 10
114.384177
 20
95.755926
 30
0.0
 10
114.379679
 20
93.302048
 30
0.0
 10
114.687416
 20
92.455143
 30
0.0
 10
115.978424
 20
91.368816
 30
0.0
  0
SPLINE
  5
253
100
AcDbEntity
  8
0
 62
7
100
AcDbSpline
 70
8
 71
3
 72
8
 73
4
 74
0
 40
0
 40
0
 40
0
 40
0
 40
1
 40
1
 40
1
 40
1
 10
115.978424
 20
91.368816
 30
0.0
 10
116.975612
 20
90.529743
 30
0.0
 10
118.696780
 20
90.431424
 30
0.0
 10
119.572842
 20
91.163526
 30
0.0
  0
LWPOLYLINE
  5
254
100
AcDbEntity
  8
0
 62
7
100
AcDbPolyline
 90
1
 70
1
 10
63.210480
 20
95.041471
 30
0.0
  0
SPLINE
  5
255
100
AcDbEntity
  8
0
 62
7
100
AcDbSpline
 70
8
 71
3
 72
8
 73
4
 74
0
 40
0
 40
0
 40
0
 40
0
 40
1
 40
1
 40
1
 40
1
 10
128.085202
 20
94.020973
 30
0.0
 10
129.037384
 20
94.276032
 30
0.0
 10
130.090638
 20
96.561979
 30
0.0
 10
130.103470
 20
98.401415
 30
0.0
  0
SPLINE
  5
256
100
AcDbEntity
  8
0
 62
7
100
AcDbSpline
 70
8
 71
3
 72
8
 73
4
 74
0
 40
0
 40
0
 40
0
 40
0
 40
1
 40
1
 40
1
 40
1
 10
130.103470
 20
98.401415
 30
0.0
 10
130.118287
 20
100.511943
 30
0.0
 10
129.562873
 20
101.165411
 30
0.0
 10
126.805412
 20
102.282270
 30
0.0
  0
SPLINE
  5
257
100
AcDbEntity
  8
0
 62
7
100
AcDbSpline
 70
8
 71
3
 72
8
 73
4
 74
0
 40
0
 40
0
 40
0
 40
0
 40
1
 40
1
 40
1
 40
1
 10
126.805412
 20
102.282270
 30
0.0
 10
123.663697
 20
103.554731
 30
0.0
 10
122.859946
 20
103.618522
 30
0.0
 10
121.818651
 20
102.678034
 30
0.0
  0
SPLINE
  5
258
100
AcDbEntity
  8
0
 62
7
100
AcDbSpline
 70
8
 71
3
 72
8
 73
4
 74
0
 40
0
 40
0
 40
0
 40
0
 40
1
 40
1
 40
1
 40
1
 10
121.818651
 20
102.678034
 30
0.0
 10
121.357403
 20
102.261474
 30
0.0
 10
120.685679
 20
101.206263
 30
0.0
 10
120.325925
 20
100.333138
 30
0.0
  0
LWPOLYLINE
  5
259
100
AcDbEntity
  8
0
 62
7
100
AcDbPolyline
 90
1
 70
1
 10
119.572842
 20
91.163526
 30
0.0
  0
SPLINE
  5
25a
100
AcDbEntity
  8
0
 62
7
100
AcDbSpline
 70
8
 71
3
 72
8
 73
4
 74
0
 40
0
 40
0
 40
0
 40
0
 40
1
 40
1
 40
1
 40
1
 10
120.820696
 20
97.682145
 30
0.0
 10
122.394411
 20
96.225323
 30
0.0
 10
124.680411
 20
94.682167
 30
0.0
 10
125.918529
 20
94.240921
 30
0.0
  0
SPLINE
  5
25b
100
AcDbEntity
  8
0
 62
7
100
AcDbSpline
 70
8
 71
3
 72
8
 73
4
 74
0
 40
0
 40
0
 40
0
 40
0
 40
1
 40
1
 40
1
 40
1
 10
125.918529
 20
94.240921
 30
0.0
 10
127.108069
 20
93.816953
 30
0.0
 10
127.264306
 20
93.801105
 30
0.0
 10
128.085202
 20
94.020973
 30
0.0
  0
LWPOLYLINE
  5
25c
100
AcDbEntity
  8
0
 62
7
100
AcDbPolyline
 90
3
 70
0
 10
120.325925
 20
100.333138
 30
0.0
 10
119.671849
 20
98.745638
 30
0.0
 10
120.820696
 20
97.682145
 30
0.0
  0
SPLINE
  5
25d
100
AcDbEntity
  8
0
 62
7
100
AcDbSpline
 70
8
 71
3
 72
8
 73
4
 74
0
 40
0
 40
0
 40
0
 40
0
 40
1
 40
1
 40
1
 40
1
 10
187.558402
 20
96.003364
 30
0.0
 10
189.309097
 20
96.651514
 30
0.0
 10
190.916891
 20
98.048858
 30
0.0
 10
191.646770
 20
99.556559
 30
0.0
  0
SPLINE
  5
25e
100
AcDbEntity
  8
0
 62
7
100
AcDbSpline
 70
8
 71
3
 72
8
 73
4
 74
0
 40
0
 40
0
 40
0
 40
0
 40
1
 40
1
 40
1
 40
1
 10
191.646770
 20
99.556559
 30
0.0
 10
192.155934
 20
100.608358
 30
0.0
 10
192.212979
 20
101.057514
 30
0.0
 10
192.091958
 20
103.061574
 30
0.0
  0
SPLINE
  5
25f
100
AcDbEntity
  8
0
 62
7
100
AcDbSpline
 70
8
 71
3
 72
8
 73
4
 74
0
 40
0
 40
0
 40
0
 40
0
 40
1
 40
1
 40
1
 40
1
 10
192.091958
 20
103.061574
 30
0.0
 10
192.015599
 20
104.325833
 30
0.0
 10
191.754826
 20
106.729440
 30
0.0
 10
191.512441
 20
108.402930
 30
0.0
  0
SPLINE
  5
260
100
AcDbEntity
  8
0
 62
7
100
AcDbSpline
 70
8
 71
3
 72
8
 73
4
 74
0
 40
0
 40
0
 40
0
 40
0
 40
1
 40
1
 40
1
 40
1
 10
191.512441
 20
108.402930
 30
0.0
 10
191.267014
 20
110.097374
 30
0.0
 10
191.050743
 20
113.409402
 30
0.0
 10
191.024364
 20
115.877382
 30
0.0
  0
SPLINE
  5
261
100
AcDbEntity
  8
0
 62
7
100
AcDbSpline
 70
8
 71
3
 72
8
 73
4
 74
0
 40
0
 40
0
 40
0
 40
0
 40
1
 40
1
 40
1
 40
1
 10
191.024364
 20
115.877382
 30
0.0
 10
190.998171
 20
118.314830
 30
0.0
 10
190.900037
 20
120.309127
 30
0.0
 10
190.805951
 20
120.309153
 30
0.0
  0
SPLINE
  5
262
100
AcDbEntity
  8
0
 62
7
100
AcDbSpline
 70
8
 71
3
 72
8
 73
4
 74
0
 40
0
 40
0
 40
0
 40
0
 40
1
 40
1
 40
1
 40
1
 10
190.805951
 20
120.309153
 30
0.0
 10
190.711892
 20
120.309153
 30
0.0
 10
190.277631
 20
119.902224
 30
0.0
 10
189.840910
 20
119.404834
 30
0.0
  0
SPLINE
  5
263
100
AcDbEntity
  8
0
 62
7
100
AcDbSpline
 70
8
 71
3
 72
8
 73
4
 74
0
 40
0
 40
0
 40
0
 40
0
 40
1
 40
1
 40
1
 40
1
 10
189.840910
 20
119.404834
 30
0.0
 10
188.244890
 20
117.587067
 30
0.0
 10
187.152293
 20
113.481765
 30
0.0
 10
187.145123
 20
109.275843
 30
0.0
  0
SPLINE
  5
264
100
AcDbEntity
  8
0
 62
7
100
AcDbSpline
 70
8
 71
3
 72
8
 73
4
 74
0
 40
0
 40
0
 40
0
 40
0
 40
1
 40
1
 40
1
 40
1
 10
187.145123
 20
109.275843
 30
0.0
 10
187.139567
 20
106.019775
 30
0.0
 10
187.456432
 20
104.348957
 30
0.0
 10
188.528074
 20
101.983424
 30
0.0
  0
SPLINE
  5
265
100
AcDbEntity
  8
0
 62
7
100
AcDbSpline
 70
8
 71
3
 72
8
 73
4
 74
0
 40
0
 40
0
 40
0
 40
0
 40
1
 40
1
 40
1
 40
1
 10
188.528074
 20
101.983424
 30
0.0
 10
188.973897
 20
100.999279
 30
0.0
 10
189.268775
 20
100.124223
 30
0.0
 10
189.183367
 20
100.038815
 30
0.0
  0
SPLINE
  5
266
100
AcDbEntity
  8
0
 62
7
100
AcDbSpline
 70
8
 71
3
 72
8
 73
4
 74
0
 40
0
 40
0
 40
0
 40
0
 40
1
 40
1
 40
1
 40
1
 10
189.183367
 20
100.038815
 30
0.0
 10
188.844436
 20
99.699911
 30
0.0
 10
187.097313
 20
100.557399
 30
0.0
 10
186.481336
 20
101.364986
 30
0.0
  0
SPLINE
  5
267
100
AcDbEntity
  8
0
 62
7
100
AcDbSpline
 70
8
 71
3
 72
8
 73
4
 74
0
 40
0
 40
0
 40
0
 40
0
 40
1
 40
1
 40
1
 40
1
 10
186.481336
 20
101.364986
 30
0.0
 10
185.002792
 20
103.303483
 30
0.0
 10
184.273838
 20
107.436962
 30
0.0
 10
184.737706
 20
111.252148
 30
0.0
  0
SPLINE
  5
268
100
AcDbEntity
  8
0
 62
7
100
AcDbSpline
 70
8
 71
3
 72
8
 73
4
 74
0
 40
0
 40
0
 40
0
 40
0
 40
1
 40
1
 40
1
 40
1
 10
184.737706
 20
111.252148
 30
0.0
 10
185.308042
 20
115.942761
 30
0.0
 10
186.458979
 20
119.314849
 30
0.0
 10
188.314740
 20
121.732241
 30
0.0
  0
LWPOLYLINE
  5
269
100
AcDbEntity
  8
0
 62
7
100
AcDbPolyline
 90
1
 70
1
 10
128.085202
 20
94.020973
 30
0.0
  0
SPLINE
  5
26a
100
AcDbEntity
  8
0
 62
7
100
AcDbSpline
 70
8
 71
3
 72
8
 73
4
 74
0
 40
0
 40
0
 40
0
 40
0
 40
1
 40
1
 40
1
 40
1
 10
187.760068
 20
124.584926
 30
0.0
 10
184.757655
 20
127.619035
 30
0.0
 10
182.986905
 20
127.880523
 30
0.0
 10
179.874056
 20
125.749383
 30
0.0
  0
SPLINE
  5
26b
100
AcDbEntity
  8
0
 62
7
100
AcDbSpline
 70
8
 71
3
 72
8
 73
4
 74
0
 40
0
 40
0
 40
0
 40
0
 40
1
 40
1
 40
1
 40
1
 10
179.874056
 20
125.749383
 30
0.0
 10
178.364872
 20
124.716159
 30
0.0
 10
177.902116
 20
124.523516
 30
0.0
 10
177.234466
 20
124.650622
 30
0.0
  0
SPLINE
  5
26c
100
AcDbEntity
  8
0
 62
7
100
AcDbSpline
 70
8
 71
3
 72
8
 73
4
 74
0
 40
0
 40
0
 40
0
 40
0
 40
1
 40
1
 40
1
 40
1
 10
177.234466
 20
124.650622
 30
0.0
 10
175.704910
 20
124.941849
 30
0.0
 10
172.189762
 20
126.904554
 30
0.0
 10
170.537942
 20
128.389687
 30
0.0
  0
SPLINE
  5
26d
100
AcDbEntity
  8
0
 62
7
100
AcDbSpline
 70
8
 71
3
 72
8
 73
4
 74
0
 40
0
 40
0
 40
0
 40
0
 40
1
 40
1
 40
1
 40
1
 10
170.537942
 20
128.389687
 30
0.0
 10
169.628436
 20
129.207408
 30
0.0
 10
168.884296
 20
129.799519
 30
0.0
 10
168.884296
 20
129.705513
 30
0.0
  0
SPLINE
  5
26e
100
AcDbEntity
  8
0
 62
7
100
AcDbSpline
 70
8
 71
3
 72
8
 73
4
 74
0
 40
0
 40
0
 40
0
 40
0
 40
1
 40
1
 40
1
 40
1
 10
168.884296
 20
129.705513
 30
0.0
 10
168.884296
 20
129.611480
 30
0.0
 10
169.969246
 20
127.250497
 30
0.0
 10
171.295338
 20
124.458852
 30
0.0
  0
SPLINE
  5
26f
100
AcDbEntity
  8
0
 62
7
100
AcDbSpline
 70
8
 71
3
 72
8
 73
4
 74
0
 40
0
 40
0
 40
0
 40
0
 40
1
 40
1
 40
1
 40
1
 10
171.295338
 20
124.458852
 30
0.0
 10
172.621403
 20
121.667206
 30
0.0
 10
174.060763
 20
118.565020
 30
0.0
 10
174.493912
 20
117.565080
 30
0.0
  0
SPLINE
  5
270
100
AcDbEntity
  8
0
 62
7
100
AcDbSpline
 70
8
 71
3
 72
8
 73
4
 74
0
 40
0
 40
0
 40
0
 40
0
 40
1
 40
1
 40
1
 40
1
 10
174.493912
 20
117.565080
 30
0.0
 10
175.654242
 20
114.886465
 30
0.0
 10
176.870797
 20
108.785835
 30
0.0
 10
177.734926
 20
101.312308
 30
0.0
  0
SPLINE
  5
271
100
AcDbEntity
  8
0
 62
7
100
AcDbSpline
 70
8
 71
3
 72
8
 73
4
 74
0
 40
0
 40
0
 40
0
 40
0
 40
1
 40
1
 40
1
 40
1
 10
177.734926
 20
101.312308
 30
0.0
 10
178.115000
 20
98.025151
 30
0.0
 10
178.564527
 20
96.734937
 30
0.0
 10
179.541289
 20
96.127745
 30
0.0
  0
SPLINE
  5
272
100
AcDbEntity
  8
0
 62
7
100
AcDbSpline
 70
8
 71
3
 72
8
 73
4
 74
0
 40
0
 40
0
 40
0
 40
0
 40
1
 40
1
 40
1
 40
1
 10
179.541289
 20
96.127745
 30
0.0
 10
180.151656
 20
95.748306
 30
0.0
 10
180.432803
 20
96.180423
 30
0.0
 10
180.662567
 20
97.851029
 30
0.0
  0
SPLINE
  5
273
100
AcDbEntity
  8
0
 62
7
100
AcDbSpline
 70
8
 71
3
 72
8
 73
4
 74
0
 40
0
 40
0
 40
0
 40
0
 40
1
 40
1
 40
1
 40
1
 10
180.662567
 20
97.851029
 30
0.0
 10
180.860105
 20
99.287372
 30
0.0
 10
180.734322
 20
100.567003
 30
0.0
 10
179.820372
 20
106.418555
 30
0.0
  0
SPLINE
  5
274
100
AcDbEntity
  8
0
 62
7
100
AcDbSpline
 70
8
 71
3
 72
8
 73
4
 74
0
 40
0
 40
0
 40
0
 40
0
 40
1
 40
1
 40
1
 40
1
 10
179.820372
 20
106.418555
 30
0.0
 10
179.287765
 20
109.828425
 30
0.0
 10
179.179074
 20
111.346684
 30
0.0
 10
179.261492
 20
114.223763
 30
0.0
  0
SPLINE
  5
275
100
AcDbEntity
  8
0
 62
7
100
AcDbSpline
 70
8
 71
3
 72
8
 73
4
 74
0
 40
0
 40
0
 40
0
 40
0
 40
1
 40
1
 40
1
 40
1
 10
179.261492
 20
114.223763
 30
0.0
 10
179.353541
 20
117.437154
 30
0.0
 10
179.434953
 20
117.943249
 30
0.0
 10
180.072493
 20
119.266457
 30
0.0
  0
SPLINE
  5
276
100
AcDbEntity
  8
0
 62
7
100
AcDbSpline
 70
8
 71
3
 72
8
 73
4
 74
0
 40
0
 40
0
 40
0
 40
0
 40
1
 40
1
 40
1
 40
1
 10
180.072493
 20
119.266457
 30
0.0
 10
180.462251
 20
120.075420
 30
0.0
 10
181.097092
 20
121.027920
 30
0.0
 10
181.483251
 20
121.383123
 30
0.0
  0
LWPOLYLINE
  5
277
100
AcDbEntity
  8
0
 62
7
100
AcDbPolyline
 90
3
 70
0
 10
188.314740
 20
121.732241
 30
0.0
 10
189.305631
 20
123.023037
 30
0.0
 10
187.760068
 20
124.584926
 30
0.0
  0
SPLINE
  5
278
100
AcDbEntity
  8
0
 62
7
100
AcDbSpline
 70
8
 71
3
 72
8
 73
4
 74
0
 40
0
 40
0
 40
0
 40
0
 40
1
 40
1
 40
1
 40
1
 10
182.017048
 20
119.383138
 30
0.0
 10
181.253593
 20
107.380527
 30
0.0
 10
181.756196
 20
102.098015
 30
0.0
 10
184.139165
 20
97.079266
 30
0.0
  0
SPLINE
  5
279
100
AcDbEntity
  8
0
 62
7
100
AcDbSpline
 70
8
 71
3
 72
8
 73
4
 74
0
 40
0
 40
0
 40
0
 40
0
 40
1
 40
1
 40
1
 40
1
 10
184.139165
 20
97.079266
 30
0.0
 10
185.157679
 20
94.934130
 30
0.0
 10
184.894260
 20
95.017024
 30
0.0
 10
187.558402
 20
96.003364
 30
0.0
  0
LWPOLYLINE
  5
27a
100
AcDbEntity
  8
0
 62
7
100
AcDbPolyline
 90
3
 70
0
 10
181.483251
 20
121.383123
 30
0.0
 10
182.185323
 20
122.028971
 30
0.0
 10
182.017048
 20
119.383138
 30
0.0
  0
SPLINE
  5
27b
100
AcDbEntity
  8
0
 62
7
100
AcDbSpline
 70
8
 71
3
 72
8
 73
4
 74
0
 40
0
 40
0
 40
0
 40
0
 40
1
 40
1
 40
1
 40
1
 10
172.498107
 20
97.356575
 30
0.0
 10
174.357599
 20
100.301441
 30
0.0
 10
175.192492
 20
104.093079
 30
0.0
 10
174.723676
 20
107.463791
 30
0.0
  0
SPLINE
  5
27c
100
AcDbEntity
  8
0
 62
7
100
AcDbSpline
 70
8
 71
3
 72
8
 73
4
 74
0
 40
0
 40
0
 40
0
 40
0
 40
1
 40
1
 40
1
 40
1
 10
174.723676
 20
107.463791
 30
0.0
 10
174.352545
 20
110.132061
 30
0.0
 10
173.624544
 20
112.223778
 30
0.0
 10
171.940366
 20
115.460637
 30
0.0
  0
SPLINE
  5
27d
100
AcDbEntity
  8
0
 62
7
100
AcDbSpline
 70
8
 71
3
 72
8
 73
4
 74
0
 40
0
 40
0
 40
0
 40
0
 40
1
 40
1
 40
1
 40
1
 10
171.940366
 20
115.460637
 30
0.0
 10
170.531089
 20
118.169150
 30
0.0
 10
165.986817
 20
125.327902
 30
0.0
 10
165.673286
 20
125.333326
 30
0.0
  0
SPLINE
  5
27e
100
AcDbEntity
  8
0
 62
7
100
AcDbSpline
 70
8
 71
3
 72
8
 73
4
 74
0
 40
0
 40
0
 40
0
 40
0
 40
1
 40
1
 40
1
 40
1
 10
165.673286
 20
125.333326
 30
0.0
 10
165.580735
 20
125.335972
 30
0.0
 10
165.298451
 20
124.900997
 30
0.0
 10
165.046012
 20
124.368999
 30
0.0
  0
SPLINE
  5
27f
100
AcDbEntity
  8
0
 62
7
100
AcDbSpline
 70
8
 71
3
 72
8
 73
4
 74
0
 40
0
 40
0
 40
0
 40
0
 40
1
 40
1
 40
1
 40
1
 10
165.046012
 20
124.368999
 30
0.0
 10
164.424294
 20
123.058888
 30
0.0
 10
164.619159
 20
121.690728
 30
0.0
 10
165.983457
 20
117.786695
 30
0.0
  0
SPLINE
  5
280
100
AcDbEntity
  8
0
 62
7
100
AcDbSpline
 70
8
 71
3
 72
8
 73
4
 74
0
 40
0
 40
0
 40
0
 40
0
 40
1
 40
1
 40
1
 40
1
 10
165.983457
 20
117.786695
 30
0.0
 10
167.951163
 20
112.156018
 30
0.0
 10
168.619712
 20
109.533812
 30
0.0
 10
168.619712
 20
107.446408
 30
0.0
  0
SPLINE
  5
281
100
AcDbEntity
  8
0
 62
7
100
AcDbSpline
 70
8
 71
3
 72
8
 73
4
 74
0
 40
0
 40
0
 40
0
 40
0
 40
1
 40
1
 40
1
 40
1
 10
168.619712
 20
107.446408
 30
0.0
 10
168.619712
 20
105.560458
 30
0.0
 10
168.326475
 20
104.778694
 30
0.0
 10
167.961799
 20
105.692459
 30
0.0
  0
SPLINE
  5
282
100
AcDbEntity
  8
0
 62
7
100
AcDbSpline
 70
8
 71
3
 72
8
 73
4
 74
0
 40
0
 40
0
 40
0
 40
0
 40
1
 40
1
 40
1
 40
1
 10
167.961799
 20
105.692459
 30
0.0
 10
167.860517
 20
105.946300
 30
0.0
 10
166.971014
 20
108.297096
 30
0.0
 10
165.985124
 20
110.916471
 30
0.0
  0
SPLINE
  5
283
100
AcDbEntity
  8
0
 62
7
100
AcDbSpline
 70
8
 71
3
 72
8
 73
4
 74
0
 40
0
 40
0
 40
0
 40
0
 40
1
 40
1
 40
1
 40
1
 10
165.985124
 20
110.916471
 30
0.0
 10
163.145827
 20
118.460139
 30
0.0
 10
162.363719
 20
119.823061
 30
0.0
 10
159.401444
 20
122.389334
 30
0.0
  0
SPLINE
  5
284
100
AcDbEntity
  8
0
 62
7
100
AcDbSpline
 70
8
 71
3
 72
8
 73
4
 74
0
 40
0
 40
0
 40
0
 40
0
 40
1
 40
1
 40
1
 40
1
 10
159.401444
 20
122.389334
 30
0.0
 10
157.423260
 20
124.103040
 30
0.0
 10
156.880018
 20
124.960264
 30
0.0
 10
156.294495
 20
127.291798
 30
0.0
  0
SPLINE
  5
285
100
AcDbEntity
  8
0
 62
7
100
AcDbSpline
 70
8
 71
3
 72
8
 73
4
 74
0
 40
0
 40
0
 40
0
 40
0
 40
1
 40
1
 40
1
 40
1
 10
156.294495
 20
127.291798
 30
0.0
 10
155.843089
 20
129.089298
 30
0.0
 10
155.814276
 20
129.128536
 30
0.0
 10
154.255616
 20
130.069923
 30
0.0
  0
SPLINE
  5
286
100
AcDbEntity
  8
0
 62
7
100
AcDbSpline
 70
8
 71
3
 72
8
 73
4
 74
0
 40
0
 40
0
 40
0
 40
0
 40
1
 40
1
 40
1
 40
1
 10
154.255616
 20
130.069923
 30
0.0
 10
151.796710
 20
131.555030
 30
0.0
 10
150.870139
 20
132.430615
 30
0.0
 10
151.040267
 20
133.108425
 30
0.0
  0
SPLINE
  5
287
100
AcDbEntity
  8
0
 62
7
100
AcDbSpline
 70
8
 71
3
 72
8
 73
4
 74
0
 40
0
 40
0
 40
0
 40
0
 40
1
 40
1
 40
1
 40
1
 10
151.040267
 20
133.108425
 30
0.0
 10
151.379066
 20
134.458382
 30
0.0
 10
149.177547
 20
135.217657
 30
0.0
 10
139.869823
 20
136.960970
 30
0.0
  0
SPLINE
  5
288
100
AcDbEntity
  8
0
 62
7
100
AcDbSpline
 70
8
 71
3
 72
8
 73
4
 74
0
 40
0
 40
0
 40
0
 40
0
 40
1
 40
1
 40
1
 40
1
 10
139.869823
 20
136.960970
 30
0.0
 10
138.245678
 20
137.265161
 30
0.0
 10
136.162084
 20
137.759165
 30
0.0
 10
135.239614
 20
138.058753
 30
0.0
  0
SPLINE
  5
289
100
AcDbEntity
  8
0
 62
7
100
AcDbSpline
 70
8
 71
3
 72
8
 73
4
 74
0
 40
0
 40
0
 40
0
 40
0
 40
1
 40
1
 40
1
 40
1
 10
135.239614
 20
138.058753
 30
0.0
 10
134.317145
 20
138.358340
 30
0.0
 10
132.590950
 20
138.888883
 30
0.0
 10
131.403632
 20
139.237762
 30
0.0
  0
SPLINE
  5
28a
100
AcDbEntity
  8
0
 62
7
100
AcDbSpline
 70
8
 71
3
 72
8
 73
4
 74
0
 40
0
 40
0
 40
0
 40
0
 40
1
 40
1
 40
1
 40
1
 10
131.403632
 20
139.237762
 30
0.0
 10
121.069854
 20
142.274226
 30
0.0
 10
112.579110
 20
146.294861
 30
0.0
 10
108.627982
 20
150.022788
 30
0.0
  0
SPLINE
  5
28b
100
AcDbEntity
  8
0
 62
7
100
AcDbSpline
 70
8
 71
3
 72
8
 73
4
 74
0
 40
0
 40
0
 40
0
 40
0
 40
1
 40
1
 40
1
 40
1
 10
108.627982
 20
150.022788
 30
0.0
 10
105.246977
 20
153.212789
 30
0.0
 10
103.844897
 20
155.719505
 30
0.0
 10
100.977422
 20
163.700846
 30
0.0
  0
SPLINE
  5
28c
100
AcDbEntity
  8
0
 62
7
100
AcDbSpline
 70
8
 71
3
 72
8
 73
4
 74
0
 40
0
 40
0
 40
0
 40
0
 40
1
 40
1
 40
1
 40
1
 10
100.977422
 20
163.700846
 30
0.0
 10
99.905648
 20
166.684023
 30
0.0
 10
98.929627
 20
169.300356
 30
0.0
 10
98.808500
 20
169.514906
 30
0.0
  0
SPLINE
  5
28d
100
AcDbEntity
  8
0
 62
7
100
AcDbSpline
 70
8
 71
3
 72
8
 73
4
 74
0
 40
0
 40
0
 40
0
 40
0
 40
1
 40
1
 40
1
 40
1
 10
98.808500
 20
169.514906
 30
0.0
 10
98.397999
 20
170.242061
 30
0.0
 10
96.124646
 20
171.137014
 30
0.0
 10
92.744568
 20
171.902136
 30
0.0
  0
SPLINE
  5
28e
100
AcDbEntity
  8
0
 62
7
100
AcDbSpline
 70
8
 71
3
 72
8
 73
4
 74
0
 40
0
 40
0
 40
0
 40
0
 40
1
 40
1
 40
1
 40
1
 10
92.744568
 20
171.902136
 30
0.0
 10
89.402007
 20
172.658738
 30
0.0
 10
86.598879
 20
173.632088
 30
0.0
 10
86.598879
 20
174.036106
 30
0.0
  0
SPLINE
  5
28f
100
AcDbEntity
  8
0
 62
7
100
AcDbSpline
 70
8
 71
3
 72
8
 73
4
 74
0
 40
0
 40
0
 40
0
 40
0
 40
1
 40
1
 40
1
 40
1
 10
86.598879
 20
174.036106
 30
0.0
 10
86.598879
 20
174.151914
 30
0.0
 10
87.267455
 20
174.385462
 30
0.0
 10
88.084620
 20
174.555113
 30
0.0
  0
LWPOLYLINE
  5
290
100
AcDbEntity
  8
0
 62
7
100
AcDbPolyline
 90
1
 70
1
 10
187.558402
 20
96.003364
 30
0.0
  0
SPLINE
  5
291
100
AcDbEntity
  8
0
 62
7
100
AcDbSpline
 70
8
 71
3
 72
8
 73
4
 74
0
 40
0
 40
0
 40
0
 40
0
 40
1
 40
1
 40
1
 40
1
 10
89.417009
 20
175.808576
 30
0.0
 10
88.657046
 20
180.491675
 30
0.0
 10
80.815564
 20
186.705997
 30
0.0
 10
73.164512
 20
188.688573
 30
0.0
  0
SPLINE
  5
292
100
AcDbEntity
  8
0
 62
7
100
AcDbSpline
 70
8
 71
3
 72
8
 73
4
 74
0
 40
0
 40
0
 40
0
 40
0
 40
1
 40
1
 40
1
 40
1
 10
73.164512
 20
188.688573
 30
0.0
 10
71.478254
 20
189.125532
 30
0.0
 10
69.400949
 20
189.239356
 30
0.0
 10
69.400949
 20
188.894815
 30
0.0
  0
SPLINE
  5
293
100
AcDbEntity
  8
0
 62
7
100
AcDbSpline
 70
8
 71
3
 72
8
 73
4
 74
0
 40
0
 40
0
 40
0
 40
0
 40
1
 40
1
 40
1
 40
1
 10
69.400949
 20
188.894815
 30
0.0
 10
69.400949
 20
188.781494
 30
0.0
 10
71.607008
 20
184.716912
 30
0.0
 10
74.303300
 20
179.862443
 30
0.0
  0
SPLINE
  5
294
100
AcDbEntity
  8
0
 62
7
100
AcDbSpline
 70
8
 71
3
 72
8
 73
4
 74
0
 40
0
 40
0
 40
0
 40
0
 40
1
 40
1
 40
1
 40
1
 10
74.303300
 20
179.862443
 30
0.0
 10
76.999595
 20
175.007947
 30
0.0
 10
79.159537
 20
170.989985
 30
0.0
 10
79.103180
 20
170.933629
 30
0.0
  0
SPLINE
  5
295
100
AcDbEntity
  8
0
 62
7
100
AcDbSpline
 70
8
 71
3
 72
8
 73
4
 74
0
 40
0
 40
0
 40
0
 40
0
 40
1
 40
1
 40
1
 40
1
 10
79.103180
 20
170.933629
 30
0.0
 10
79.046798
 20
170.877246
 30
0.0
 10
78.477864
 20
171.516823
 30
0.0
 10
77.838837
 20
172.354891
 30
0.0
  0
SPLINE
  5
296
100
AcDbEntity
  8
0
 62
7
100
AcDbSpline
 70
8
 71
3
 72
8
 73
4
 74
0
 40
0
 40
0
 40
0
 40
0
 40
1
 40
1
 40
1
 40
1
 10
77.838837
 20
172.354891
 30
0.0
 10
76.543686
 20
174.053463
 30
0.0
 10
69.380312
 20
183.326685
 30
0.0
 10
65.554622
 20
188.257222
 30
0.0
  0
SPLINE
  5
297
100
AcDbEntity
  8
0
 62
7
100
AcDbSpline
 70
8
 71
3
 72
8
 73
4
 74
0
 40
0
 40
0
 40
0
 40
0
 40
1
 40
1
 40
1
 40
1
 10
65.554622
 20
188.257222
 30
0.0
 10
64.729066
 20
189.321191
 30
0.0
 10
64.001867
 20
190.139971
 30
0.0
 10
63.938626
 20
190.076709
 30
0.0
  0
SPLINE
  5
298
100
AcDbEntity
  8
0
 62
7
100
AcDbSpline
 70
8
 71
3
 72
8
 73
4
 74
0
 40
0
 40
0
 40
0
 40
0
 40
1
 40
1
 40
1
 40
1
 10
63.938626
 20
190.076709
 30
0.0
 10
63.656935
 20
189.795034
 30
0.0
 10
64.709490
 20
185.950479
 30
0.0
 10
65.654759
 20
183.808386
 30
0.0
  0
SPLINE
  5
299
100
AcDbEntity
  8
0
 62
7
100
AcDbSpline
 70
8
 71
3
 72
8
 73
4
 74
0
 40
0
 40
0
 40
0
 40
0
 40
1
 40
1
 40
1
 40
1
 10
65.654759
 20
183.808386
 30
0.0
 10
66.729721
 20
181.372394
 30
0.0
 10
67.845496
 20
179.421647
 30
0.0
 10
71.792880
 20
173.076886
 30
0.0
  0
SPLINE
  5
29a
100
AcDbEntity
  8
0
 62
7
100
AcDbSpline
 70
8
 71
3
 72
8
 73
4
 74
0
 40
0
 40
0
 40
0
 40
0
 40
1
 40
1
 40
1
 40
1
 10
71.792880
 20
173.076886
 30
0.0
 10
75.722647
 20
166.760435
 30
0.0
 10
77.077980
 20
163.643405
 30
0.0
 10
77.069815
 20
160.940845
 30
0.0
  0
SPLINE
  5
29b
100
AcDbEntity
  8
0
 62
7
100
AcDbSpline
 70
8
 71
3
 72
8
 73
4
 74
0
 40
0
 40
0
 40
0
 40
0
 40
1
 40
1
 40
1
 40
1
 10
77.069815
 20
160.940845
 30
0.0
 10
77.066137
 20
159.720931
 30
0.0
 10
76.736554
 20
158.635901
 30
0.0
 10
76.463885
 20
158.946019
 30
0.0
  0
SPLINE
  5
29c
100
AcDbEntity
  8
0
 62
7
100
AcDbSpline
 70
8
 71
3
 72
8
 73
4
 74
0
 40
0
 40
0
 40
0
 40
0
 40
1
 40
1
 40
1
 40
1
 10
76.463885
 20
158.946019
 30
0.0
 10
76.403613
 20
159.014546
 30
0.0
 10
75.781681
 20
160.201732
 30
0.0
 10
75.081813
 20
161.584180
 30
0.0
  0
SPLINE
  5
29d
100
AcDbEntity
  8
0
 62
7
100
AcDbSpline
 70
8
 71
3
 72
8
 73
4
 74
0
 40
0
 40
0
 40
0
 40
0
 40
1
 40
1
 40
1
 40
1
 10
75.081813
 20
161.584180
 30
0.0
 10
74.381945
 20
162.966628
 30
0.0
 10
73.513048
 20
164.616463
 30
0.0
 10
73.150931
 20
165.250458
 30
0.0
  0
SPLINE
  5
29e
100
AcDbEntity
  8
0
 62
7
100
AcDbSpline
 70
8
 71
3
 72
8
 73
4
 74
0
 40
0
 40
0
 40
0
 40
0
 40
1
 40
1
 40
1
 40
1
 10
73.150931
 20
165.250458
 30
0.0
 10
72.493137
 20
166.402163
 30
0.0
 10
72.492216
 20
166.402639
 30
0.0
 10
72.146742
 20
165.779625
 30
0.0
  0
SPLINE
  5
29f
100
AcDbEntity
  8
0
 62
7
100
AcDbSpline
 70
8
 71
3
 72
8
 73
4
 74
0
 40
0
 40
0
 40
0
 40
0
 40
1
 40
1
 40
1
 40
1
 10
72.146742
 20
165.779625
 30
0.0
 10
71.633972
 20
164.854932
 30
0.0
 10
71.710553
 20
162.841294
 30
0.0
 10
72.329260
 20
160.980533
 30
0.0
  0
SPLINE
  5
2a0
100
AcDbEntity
  8
0
 62
7
100
AcDbSpline
 70
8
 71
3
 72
8
 73
4
 74
0
 40
0
 40
0
 40
0
 40
0
 40
1
 40
1
 40
1
 40
1
 10
72.329260
 20
160.980533
 30
0.0
 10
73.318629
 20
158.004949
 30
0.0
 10
76.038326
 20
153.909120
 30
0.0
 10
80.888483
 20
148.090430
 30
0.0
  0
SPLINE
  5
2a1
100
AcDbEntity
  8
0
 62
7
100
AcDbSpline
 70
8
 71
3
 72
8
 73
4
 74
0
 40
0
 40
0
 40
0
 40
0
 40
1
 40
1
 40
1
 40
1
 10
80.888483
 20
148.090430
 30
0.0
 10
82.162108
 20
146.562461
 30
0.0
 10
84.054011
 20
144.181211
 30
0.0
 10
85.092738
 20
142.798763
 30
0.0
  0
SPLINE
  5
2a2
100
AcDbEntity
  8
0
 62
7
100
AcDbSpline
 70
8
 71
3
 72
8
 73
4
 74
0
 40
0
 40
0
 40
0
 40
0
 40
1
 40
1
 40
1
 40
1
 10
85.092738
 20
142.798763
 30
0.0
 10
90.277408
 20
135.898324
 30
0.0
 10
93.401290
 20
134.019491
 30
0.0
 10
103.796796
 20
131.549341
 30
0.0
  0
SPLINE
  5
2a3
100
AcDbEntity
  8
0
 62
7
100
AcDbSpline
 70
8
 71
3
 72
8
 73
4
 74
0
 40
0
 40
0
 40
0
 40
0
 40
1
 40
1
 40
1
 40
1
 10
103.796796
 20
131.549341
 30
0.0
 10
114.699878
 20
128.958594
 30
0.0
 10
119.386945
 20
127.735028
 30
0.0
 10
120.597414
 20
127.163502
 30
0.0
  0
SPLINE
  5
2a4
100
AcDbEntity
  8
0
 62
7
100
AcDbSpline
 70
8
 71
3
 72
8
 73
4
 74
0
 40
0
 40
0
 40
0
 40
0
 40
1
 40
1
 40
1
 40
1
 10
120.597414
 20
127.163502
 30
0.0
 10
122.463123
 20
126.282625
 30
0.0
 10
125.752609
 20
123.057142
 30
0.0
 10
126.811656
 20
121.070148
 30
0.0
  0
SPLINE
  5
2a5
100
AcDbEntity
  8
0
 62
7
100
AcDbSpline
 70
8
 71
3
 72
8
 73
4
 74
0
 40
0
 40
0
 40
0
 40
0
 40
1
 40
1
 40
1
 40
1
 10
126.811656
 20
121.070148
 30
0.0
 10
128.433261
 20
118.027704
 30
0.0
 10
128.227362
 20
115.291119
 30
0.0
 10
126.019335
 20
110.539599
 30
0.0
  0
SPLINE
  5
2a6
100
AcDbEntity
  8
0
 62
7
100
AcDbSpline
 70
8
 71
3
 72
8
 73
4
 74
0
 40
0
 40
0
 40
0
 40
0
 40
1
 40
1
 40
1
 40
1
 10
126.019335
 20
110.539599
 30
0.0
 10
125.293080
 20
108.976758
 30
0.0
 10
124.699620
 20
107.529223
 30
0.0
 10
124.700546
 20
107.322874
 30
0.0
  0
SPLINE
  5
2a7
100
AcDbEntity
  8
0
 62
7
100
AcDbSpline
 70
8
 71
3
 72
8
 73
4
 74
0
 40
0
 40
0
 40
0
 40
0
 40
1
 40
1
 40
1
 40
1
 10
124.700546
 20
107.322874
 30
0.0
 10
124.703192
 20
106.957220
 30
0.0
 10
125.313877
 20
106.514016
 30
0.0
 10
127.477004
 20
105.311168
 30
0.0
  0
SPLINE
  5
2a8
100
AcDbEntity
  8
0
 62
7
100
AcDbSpline
 70
8
 71
3
 72
8
 73
4
 74
0
 40
0
 40
0
 40
0
 40
0
 40
1
 40
1
 40
1
 40
1
 10
127.477004
 20
105.311168
 30
0.0
 10
129.606133
 20
104.127236
 30
0.0
 10
129.458125
 20
103.407781
 30
0.0
 10
129.487467
 20
115.083659
 30
0.0
  0
LWPOLYLINE
  5
2a9
100
AcDbEntity
  8
0
 62
7
100
AcDbPolyline
 90
3
 70
0
 10
88.084620
 20
174.555113
 30
0.0
 10
89.570388
 20
174.863538
 30
0.0
 10
89.417009
 20
175.808576
 30
0.0
  0
SPLINE
  5
2aa
100
AcDbEntity
  8
0
 62
7
100
AcDbSpline
 70
8
 71
3
 72
8
 73
4
 74
0
 40
0
 40
0
 40
0
 40
0
 40
1
 40
1
 40
1
 40
1
 10
130.144851
 20
123.544558
 30
0.0
 10
130.936140
 20
121.132669
 30
0.0
 10
131.238982
 20
119.197004
 30
0.0
 10
131.471816
 20
115.062863
 30
0.0
  0
LWPOLYLINE
  5
2ab
100
AcDbEntity
  8
0
 62
7
100
AcDbPolyline
 90
3
 70
0
 10
129.487467
 20
115.083659
 30
0.0
 10
129.513661
 20
125.468555
 30
0.0
 10
130.144851
 20
123.544558
 30
0.0
  0
SPLINE
  5
2ac
100
AcDbEntity
  8
0
 62
7
100
AcDbSpline
 70
8
 71
3
 72
8
 73
4
 74
0
 40
0
 40
0
 40
0
 40
0
 40
1
 40
1
 40
1
 40
1
 10
133.776495
 20
115.923870
 30
0.0
 10
134.943043
 20
118.191481
 30
0.0
 10
135.939596
 20
120.004671
 30
0.0
 10
135.991084
 20
119.953183
 30
0.0
  0
SPLINE
  5
2ad
100
AcDbEntity
  8
0
 62
7
100
AcDbSpline
 70
8
 71
3
 72
8
 73
4
 74
0
 40
0
 40
0
 40
0
 40
0
 40
1
 40
1
 40
1
 40
1
 10
135.991084
 20
119.953183
 30
0.0
 10
136.042546
 20
119.901695
 30
0.0
 10
135.788334
 20
118.740359
 30
0.0
 10
135.426146
 20
117.372410
 30
0.0
  0
SPLINE
  5
2ae
100
AcDbEntity
  8
0
 62
7
100
AcDbSpline
 70
8
 71
3
 72
8
 73
4
 74
0
 40
0
 40
0
 40
0
 40
0
 40
1
 40
1
 40
1
 40
1
 10
135.426146
 20
117.372410
 30
0.0
 10
135.063958
 20
116.004462
 30
0.0
 10
134.521959
 20
112.864836
 30
0.0
 10
134.221709
 20
110.395507
 30
0.0
  0
SPLINE
  5
2af
100
AcDbEntity
  8
0
 62
7
100
AcDbSpline
 70
8
 71
3
 72
8
 73
4
 74
0
 40
0
 40
0
 40
0
 40
0
 40
1
 40
1
 40
1
 40
1
 10
134.221709
 20
110.395507
 30
0.0
 10
133.921460
 20
107.926150
 30
0.0
 10
133.612004
 20
105.651607
 30
0.0
 10
133.534031
 20
105.340933
 30
0.0
  0
SPLINE
  5
2b0
100
AcDbEntity
  8
0
 62
7
100
AcDbSpline
 70
8
 71
3
 72
8
 73
4
 74
0
 40
0
 40
0
 40
0
 40
0
 40
1
 40
1
 40
1
 40
1
 10
133.534031
 20
105.340933
 30
0.0
 10
133.405311
 20
104.828091
 30
0.0
 10
133.529004
 20
104.760014
 30
0.0
 10
134.876844
 20
104.601608
 30
0.0
  0
SPLINE
  5
2b1
100
AcDbEntity
  8
0
 62
7
100
AcDbSpline
 70
8
 71
3
 72
8
 73
4
 74
0
 40
0
 40
0
 40
0
 40
0
 40
1
 40
1
 40
1
 40
1
 10
134.876844
 20
104.601608
 30
0.0
 10
136.771684
 20
104.378908
 30
0.0
 10
138.073011
 20
103.750973
 30
0.0
 10
140.706277
 20
101.788770
 30
0.0
  0
SPLINE
  5
2b2
100
AcDbEntity
  8
0
 62
7
100
AcDbSpline
 70
8
 71
3
 72
8
 73
4
 74
0
 40
0
 40
0
 40
0
 40
0
 40
1
 40
1
 40
1
 40
1
 10
140.706277
 20
101.788770
 30
0.0
 10
141.870443
 20
100.921280
 30
0.0
 10
142.967485
 20
100.209128
 30
0.0
 10
143.144174
 20
100.206191
 30
0.0
  0
SPLINE
  5
2b3
100
AcDbEntity
  8
0
 62
7
100
AcDbSpline
 70
8
 71
3
 72
8
 73
4
 74
0
 40
0
 40
0
 40
0
 40
0
 40
1
 40
1
 40
1
 40
1
 10
143.144174
 20
100.206191
 30
0.0
 10
143.737925
 20
100.196401
 30
0.0
 10
146.407994
 20
109.378686
 30
0.0
 10
147.143324
 20
113.959180
 30
0.0
  0
SPLINE
  5
2b4
100
AcDbEntity
  8
0
 62
7
100
AcDbSpline
 70
8
 71
3
 72
8
 73
4
 74
0
 40
0
 40
0
 40
0
 40
0
 40
1
 40
1
 40
1
 40
1
 10
147.143324
 20
113.959180
 30
0.0
 10
147.875109
 20
118.517792
 30
0.0
 10
147.732261
 20
124.447871
 30
0.0
 10
146.804446
 20
128.024588
 30
0.0
  0
SPLINE
  5
2b5
100
AcDbEntity
  8
0
 62
7
100
AcDbSpline
 70
8
 71
3
 72
8
 73
4
 74
0
 40
0
 40
0
 40
0
 40
0
 40
1
 40
1
 40
1
 40
1
 10
146.804446
 20
128.024588
 30
0.0
 10
146.301685
 20
129.962846
 30
0.0
 10
146.749042
 20
129.559066
 30
0.0
 10
147.657648
 20
127.254492
 30
0.0
  0
SPLINE
  5
2b6
100
AcDbEntity
  8
0
 62
7
100
AcDbSpline
 70
8
 71
3
 72
8
 73
4
 74
0
 40
0
 40
0
 40
0
 40
0
 40
1
 40
1
 40
1
 40
1
 10
147.657648
 20
127.254492
 30
0.0
 10
149.459381
 20
122.684635
 30
0.0
 10
149.959682
 20
119.235765
 30
0.0
 10
149.755265
 20
112.793928
 30
0.0
  0
SPLINE
  5
2b7
100
AcDbEntity
  8
0
 62
7
100
AcDbSpline
 70
8
 71
3
 72
8
 73
4
 74
0
 40
0
 40
0
 40
0
 40
0
 40
1
 40
1
 40
1
 40
1
 10
149.755265
 20
112.793928
 30
0.0
 10
149.671709
 20
110.160610
 30
0.0
 10
149.420461
 20
106.608261
 30
0.0
 10
149.196967
 20
104.899846
 30
0.0
  0
SPLINE
  5
2b8
100
AcDbEntity
  8
0
 62
7
100
AcDbSpline
 70
8
 71
3
 72
8
 73
4
 74
0
 40
0
 40
0
 40
0
 40
0
 40
1
 40
1
 40
1
 40
1
 10
149.196967
 20
104.899846
 30
0.0
 10
148.786890
 20
101.765089
 30
0.0
 10
148.830837
 20
100.994596
 30
0.0
 10
149.419694
 20
100.994596
 30
0.0
  0
SPLINE
  5
2b9
100
AcDbEntity
  8
0
 62
7
100
AcDbSpline
 70
8
 71
3
 72
8
 73
4
 74
0
 40
0
 40
0
 40
0
 40
0
 40
1
 40
1
 40
1
 40
1
 10
149.419694
 20
100.994596
 30
0.0
 10
150.333935
 20
100.994596
 30
0.0
 10
151.868042
 20
103.646489
 30
0.0
 10
153.103091
 20
107.361768
 30
0.0
  0
SPLINE
  5
2ba
100
AcDbEntity
  8
0
 62
7
100
AcDbSpline
 70
8
 71
3
 72
8
 73
4
 74
0
 40
0
 40
0
 40
0
 40
0
 40
1
 40
1
 40
1
 40
1
 10
153.103091
 20
107.361768
 30
0.0
 10
155.051667
 20
113.223506
 30
0.0
 10
155.349535
 20
117.574817
 30
0.0
 10
153.992196
 20
120.349158
 30
0.0
  0
SPLINE
  5
2bb
100
AcDbEntity
  8
0
 62
7
100
AcDbSpline
 70
8
 71
3
 72
8
 73
4
 74
0
 40
0
 40
0
 40
0
 40
0
 40
1
 40
1
 40
1
 40
1
 10
153.992196
 20
120.349158
 30
0.0
 10
153.609609
 20
121.131134
 30
0.0
 10
152.461317
 20
122.900562
 30
0.0
 10
151.440475
 20
124.281210
 30
0.0
  0
SPLINE
  5
2bc
100
AcDbEntity
  8
0
 62
7
100
AcDbSpline
 70
8
 71
3
 72
8
 73
4
 74
0
 40
0
 40
0
 40
0
 40
0
 40
1
 40
1
 40
1
 40
1
 10
151.440475
 20
124.281210
 30
0.0
 10
149.481421
 20
126.930695
 30
0.0
 10
148.776068
 20
128.483323
 30
0.0
 10
148.776068
 20
130.145885
 30
0.0
  0
SPLINE
  5
2bd
100
AcDbEntity
  8
0
 62
7
100
AcDbSpline
 70
8
 71
3
 72
8
 73
4
 74
0
 40
0
 40
0
 40
0
 40
0
 40
1
 40
1
 40
1
 40
1
 10
148.776068
 20
130.145885
 30
0.0
 10
148.776068
 20
131.409059
 30
0.0
 10
149.208609
 20
131.458060
 30
0.0
 10
150.482869
 20
130.339269
 30
0.0
  0
SPLINE
  5
2be
100
AcDbEntity
  8
0
 62
7
100
AcDbSpline
 70
8
 71
3
 72
8
 73
4
 74
0
 40
0
 40
0
 40
0
 40
0
 40
1
 40
1
 40
1
 40
1
 10
150.482869
 20
130.339269
 30
0.0
 10
153.054248
 20
128.081553
 30
0.0
 10
157.507318
 20
118.153487
 30
0.0
 10
157.507318
 20
114.678291
 30
0.0
  0
SPLINE
  5
2bf
100
AcDbEntity
  8
0
 62
7
100
AcDbSpline
 70
8
 71
3
 72
8
 73
4
 74
0
 40
0
 40
0
 40
0
 40
0
 40
1
 40
1
 40
1
 40
1
 10
157.507318
 20
114.678291
 30
0.0
 10
157.507318
 20
112.924183
 30
0.0
 10
156.606597
 20
110.085838
 30
0.0
 10
154.698978
 20
105.828587
 30
0.0
  0
SPLINE
  5
2c0
100
AcDbEntity
  8
0
 62
7
100
AcDbSpline
 70
8
 71
3
 72
8
 73
4
 74
0
 40
0
 40
0
 40
0
 40
0
 40
1
 40
1
 40
1
 40
1
 10
154.698978
 20
105.828587
 30
0.0
 10
152.326962
 20
100.534856
 30
0.0
 10
152.120454
 20
99.846358
 30
0.0
 10
152.694309
 20
99.144444
 30
0.0
  0
SPLINE
  5
2c1
100
AcDbEntity
  8
0
 62
7
100
AcDbSpline
 70
8
 71
3
 72
8
 73
4
 74
0
 40
0
 40
0
 40
0
 40
0
 40
1
 40
1
 40
1
 40
1
 10
152.694309
 20
99.144444
 30
0.0
 10
152.940372
 20
98.843481
 30
0.0
 10
153.564974
 20
98.529526
 30
0.0
 10
154.082366
 20
98.446738
 30
0.0
  0
SPLINE
  5
2c2
100
AcDbEntity
  8
0
 62
7
100
AcDbSpline
 70
8
 71
3
 72
8
 73
4
 74
0
 40
0
 40
0
 40
0
 40
0
 40
1
 40
1
 40
1
 40
1
 10
154.082366
 20
98.446738
 30
0.0
 10
154.838942
 20
98.325691
 30
0.0
 10
155.180202
 20
98.428482
 30
0.0
 10
155.826050
 20
98.971936
 30
0.0
  0
SPLINE
  5
2c3
100
AcDbEntity
  8
0
 62
7
100
AcDbSpline
 70
8
 71
3
 72
8
 73
4
 74
0
 40
0
 40
0
 40
0
 40
0
 40
1
 40
1
 40
1
 40
1
 10
155.826050
 20
98.971936
 30
0.0
 10
157.369629
 20
100.270776
 30
0.0
 10
158.980068
 20
104.417379
 30
0.0
 10
160.567754
 20
111.181055
 30
0.0
  0
LWPOLYLINE
  5
2c4
100
AcDbEntity
  8
0
 62
7
100
AcDbPolyline
 90
3
 70
0
 10
131.471816
 20
115.062863
 30
0.0
 10
131.655542
 20
111.800947
 30
0.0
 10
133.776495
 20
115.923870
 30
0.0
  0
SPLINE
  5
2c5
100
AcDbEntity
  8
0
 62
7
100
AcDbSpline
 70
8
 71
3
 72
8
 73
4
 74
0
 40
0
 40
0
 40
0
 40
0
 40
1
 40
1
 40
1
 40
1
 10
161.894692
 20
108.535221
 30
0.0
 10
162.214600
 20
105.333763
 30
0.0
 10
162.566284
 20
101.761888
 30
0.0
 10
162.676218
 20
100.597721
 30
0.0
  0
LWPOLYLINE
  5
2c6
100
AcDbEntity
  8
0
 62
7
100
AcDbPolyline
 90
3
 70
0
 10
160.567754
 20
111.181055
 30
0.0
 10
161.313032
 20
114.356055
 30
0.0
 10
161.894692
 20
108.535221
 30
0.0
  0
SPLINE
  5
2c7
100
AcDbEntity
  8
0
 62
7
100
AcDbSpline
 70
8
 71
3
 72
8
 73
4
 74
0
 40
0
 40
0
 40
0
 40
0
 40
1
 40
1
 40
1
 40
1
 10
163.275526
 20
99.803971
 30
0.0
 10
163.565853
 20
100.765388
 30
0.0
 10
163.681820
 20
102.487640
 30
0.0
 10
163.699997
 20
106.106664
 30
0.0
  0
SPLINE
  5
2c8
100
AcDbEntity
  8
0
 62
7
100
AcDbSpline
 70
8
 71
3
 72
8
 73
4
 74
0
 40
0
 40
0
 40
0
 40
0
 40
1
 40
1
 40
1
 40
1
 10
163.699997
 20
106.106664
 30
0.0
 10
163.727725
 20
111.626084
 30
0.0
 10
163.737144
 20
111.633148
 30
0.0
 10
165.084271
 20
107.142772
 30
0.0
  0
SPLINE
  5
2c9
100
AcDbEntity
  8
0
 62
7
100
AcDbSpline
 70
8
 71
3
 72
8
 73
4
 74
0
 40
0
 40
0
 40
0
 40
0
 40
1
 40
1
 40
1
 40
1
 10
165.084271
 20
107.142772
 30
0.0
 10
165.618967
 20
105.360486
 30
0.0
 10
165.800233
 20
104.107737
 30
0.0
 10
165.875719
 20
101.672644
 30
0.0
  0
LWPOLYLINE
  5
2ca
100
AcDbEntity
  8
0
 62
7
100
AcDbPolyline
 90
3
 70
0
 10
162.676218
 20
100.597721
 30
0.0
 10
162.876058
 20
98.481055
 30
0.0
 10
163.275526
 20
99.803971
 30
0.0
  0
SPLINE
  5
2cb
100
AcDbEntity
  8
0
 62
7
100
AcDbSpline
 70
8
 71
3
 72
8
 73
4
 74
0
 40
0
 40
0
 40
0
 40
0
 40
1
 40
1
 40
1
 40
1
 10
166.883781
 20
97.764007
 30
0.0
 10
168.125656
 20
96.740361
 30
0.0
 10
169.333029
 20
96.254771
 30
0.0
 10
170.667005
 20
96.242441
 30
0.0
  0
SPLINE
  5
2cc
100
AcDbEntity
  8
0
 62
7
100
AcDbSpline
 70
8
 71
3
 72
8
 73
4
 74
0
 40
0
 40
0
 40
0
 40
0
 40
1
 40
1
 40
1
 40
1
 10
170.667005
 20
96.242441
 30
0.0
 10
171.702558
 20
96.232916
 30
0.0
 10
171.842390
 20
96.317954
 30
0.0
 10
172.498213
 20
97.356575
 30
0.0
  0
LWPOLYLINE
  5
2cd
100
AcDbEntity
  8
0
 62
7
100
AcDbPolyline
 90
3
 70
0
 10
165.875719
 20
101.672644
 30
0.0
 10
165.973667
 20
98.514233
 30
0.0
 10
166.883781
 20
97.764007
 30
0.0
  0
SPLINE
  5
2ce
100
AcDbEntity
  8
0
 62
7
100
AcDbSpline
 70
8
 71
3
 72
8
 73
4
 74
0
 40
0
 40
0
 40
0
 40
0
 40
1
 40
1
 40
1
 40
1
 10
140.829599
 20
105.509049
 30
0.0
 10
140.425712
 20
106.263720
 30
0.0
 10
140.443651
 20
106.952960
 30
0.0
 10
140.973770
 20
111.048763
 30
0.0
  0
SPLINE
  5
2cf
100
AcDbEntity
  8
0
 62
7
100
AcDbSpline
 70
8
 71
3
 72
8
 73
4
 74
0
 40
0
 40
0
 40
0
 40
0
 40
1
 40
1
 40
1
 40
1
 10
140.973770
 20
111.048763
 30
0.0
 10
141.520717
 20
115.274529
 30
0.0
 10
141.407184
 20
119.286380
 30
0.0
 10
140.689211
 20
121.102930
 30
0.0
  0
SPLINE
  5
2d0
100
AcDbEntity
  8
0
 62
7
100
AcDbSpline
 70
8
 71
3
 72
8
 73
4
 74
0
 40
0
 40
0
 40
0
 40
0
 40
1
 40
1
 40
1
 40
1
 10
140.689211
 20
121.102930
 30
0.0
 10
139.619792
 20
123.808691
 30
0.0
 10
138.248297
 20
125.207146
 30
0.0
 10
135.614264
 20
126.277703
 30
0.0
  0
LWPOLYLINE
  5
2d1
100
AcDbEntity
  8
0
 62
7
100
AcDbPolyline
 90
2
 70
0
 10
172.498213
 20
97.356575
 30
0.0
 10
172.498107
 20
97.356575
 30
0.0
  0
SPLINE
  5
2d2
100
AcDbEntity
  8
0
 62
7
100
AcDbSpline
 70
8
 71
3
 72
8
 73
4
 74
0
 40
0
 40
0
 40
0
 40
0
 40
1
 40
1
 40
1
 40
1
 10
135.105577
 20
127.173715
 30
0.0
 10
138.350374
 20
128.244589
 30
0.0
 10
142.145557
 20
124.191755
 30
0.0
 10
144.187691
 20
117.475042
 30
0.0
  0
SPLINE
  5
2d3
100
AcDbEntity
  8
0
 62
7
100
AcDbSpline
 70
8
 71
3
 72
8
 73
4
 74
0
 40
0
 40
0
 40
0
 40
0
 40
1
 40
1
 40
1
 40
1
 10
144.187691
 20
117.475042
 30
0.0
 10
144.783268
 20
115.516173
 30
0.0
 10
144.898176
 20
114.628708
 30
0.0
 10
144.917067
 20
111.842513
 30
0.0
  0
SPLINE
  5
2d4
100
AcDbEntity
  8
0
 62
7
100
AcDbSpline
 70
8
 71
3
 72
8
 73
4
 74
0
 40
0
 40
0
 40
0
 40
0
 40
1
 40
1
 40
1
 40
1
 10
144.917067
 20
111.842513
 30
0.0
 10
144.938234
 20
108.728738
 30
0.0
 10
144.897224
 20
108.455026
 30
0.0
 10
144.216768
 20
107.164574
 30
0.0
  0
SPLINE
  5
2d5
100
AcDbEntity
  8
0
 62
7
100
AcDbSpline
 70
8
 71
3
 72
8
 73
4
 74
0
 40
0
 40
0
 40
0
 40
0
 40
1
 40
1
 40
1
 40
1
 10
144.216768
 20
107.164574
 30
0.0
 10
143.110704
 20
105.066931
 30
0.0
 10
141.490105
 20
104.274848
 30
0.0
 10
140.829599
 20
105.509049
 30
0.0
  0
LWPOLYLINE
  5
2d6
100
AcDbEntity
  8
0
 62
7
100
AcDbPolyline
 90
3
 70
0
 10
135.614264
 20
126.277703
 30
0.0
 10
134.169666
 20
126.864840
 30
0.0
 10
135.105577
 20
127.173715
 30
0.0
  0
SPLINE
  5
2d7
100
AcDbEntity
  8
0
 62
7
100
AcDbSpline
 70
8
 71
3
 72
8
 73
4
 74
0
 40
0
 40
0
 40
0
 40
0
 40
1
 40
1
 40
1
 40
1
 10
127.080129
 20
128.170030
 30
0.0
 10
126.716327
 20
128.233768
 30
0.0
 10
125.108983
 20
128.702001
 30
0.0
 10
123.508254
 20
129.210557
 30
0.0
  0
SPLINE
  5
2d8
100
AcDbEntity
  8
0
 62
7
100
AcDbSpline
 70
8
 71
3
 72
8
 73
4
 74
0
 40
0
 40
0
 40
0
 40
0
 40
1
 40
1
 40
1
 40
1
 10
123.508254
 20
129.210557
 30
0.0
 10
121.251861
 20
129.927419
 30
0.0
 10
119.884336
 20
130.185361
 30
0.0
 10
117.422837
 20
130.358372
 30
0.0
  0
SPLINE
  5
2d9
100
AcDbEntity
  8
0
 62
7
100
AcDbSpline
 70
8
 71
3
 72
8
 73
4
 74
0
 40
0
 40
0
 40
0
 40
0
 40
1
 40
1
 40
1
 40
1
 10
117.422837
 20
130.358372
 30
0.0
 10
114.343828
 20
130.574775
 30
0.0
 10
109.184136
 20
131.600776
 30
0.0
 10
105.252004
 20
132.778489
 30
0.0
  0
SPLINE
  5
2da
100
AcDbEntity
  8
0
 62
7
100
AcDbSpline
 70
8
 71
3
 72
8
 73
4
 74
0
 40
0
 40
0
 40
0
 40
0
 40
1
 40
1
 40
1
 40
1
 10
105.252004
 20
132.778489
 30
0.0
 10
99.936366
 20
134.370593
 30
0.0
 10
91.625962
 20
138.654091
 30
0.0
 10
91.625962
 20
139.801880
 30
0.0
  0
SPLINE
  5
2db
100
AcDbEntity
  8
0
 62
7
100
AcDbSpline
 70
8
 71
3
 72
8
 73
4
 74
0
 40
0
 40
0
 40
0
 40
0
 40
1
 40
1
 40
1
 40
1
 10
91.625962
 20
139.801880
 30
0.0
 10
91.625962
 20
140.656141
 30
0.0
 10
93.984299
 20
139.964784
 30
0.0
 10
98.505129
 20
137.785279
 30
0.0
  0
SPLINE
  5
2dc
100
AcDbEntity
  8
0
 62
7
100
AcDbSpline
 70
8
 71
3
 72
8
 73
4
 74
0
 40
0
 40
0
 40
0
 40
0
 40
1
 40
1
 40
1
 40
1
 10
98.505129
 20
137.785279
 30
0.0
 10
103.408731
 20
135.421227
 30
0.0
 10
105.345137
 20
134.758869
 30
0.0
 10
106.296023
 20
135.120396
 30
0.0
  0
SPLINE
  5
2dd
100
AcDbEntity
  8
0
 62
7
100
AcDbSpline
 70
8
 71
3
 72
8
 73
4
 74
0
 40
0
 40
0
 40
0
 40
0
 40
1
 40
1
 40
1
 40
1
 10
106.296023
 20
135.120396
 30
0.0
 10
106.639426
 20
135.250968
 30
0.0
 10
106.998492
 20
135.484198
 30
0.0
 10
107.093980
 20
135.638688
 30
0.0
  0
SPLINE
  5
2de
100
AcDbEntity
  8
0
 62
7
100
AcDbSpline
 70
8
 71
3
 72
8
 73
4
 74
0
 40
0
 40
0
 40
0
 40
0
 40
1
 40
1
 40
1
 40
1
 10
107.093980
 20
135.638688
 30
0.0
 10
107.398410
 20
136.131236
 30
0.0
 10
110.171799
 20
135.942880
 30
0.0
 10
114.644712
 20
135.125846
 30
0.0
  0
SPLINE
  5
2df
100
AcDbEntity
  8
0
 62
7
100
AcDbSpline
 70
8
 71
3
 72
8
 73
4
 74
0
 40
0
 40
0
 40
0
 40
0
 40
1
 40
1
 40
1
 40
1
 10
114.644712
 20
135.125846
 30
0.0
 10
117.034694
 20
134.689284
 30
0.0
 10
119.281033
 20
134.332096
 30
0.0
 10
119.636553
 20
134.332096
 30
0.0
  0
SPLINE
  5
2e0
100
AcDbEntity
  8
0
 62
7
100
AcDbSpline
 70
8
 71
3
 72
8
 73
4
 74
0
 40
0
 40
0
 40
0
 40
0
 40
1
 40
1
 40
1
 40
1
 10
119.636553
 20
134.332096
 30
0.0
 10
120.277877
 20
134.332096
 30
0.0
 10
120.279014
 20
134.336594
 30
0.0
 10
119.778926
 20
134.900871
 30
0.0
  0
SPLINE
  5
2e1
100
AcDbEntity
  8
0
 62
7
100
AcDbSpline
 70
8
 71
3
 72
8
 73
4
 74
0
 40
0
 40
0
 40
0
 40
0
 40
1
 40
1
 40
1
 40
1
 10
119.778926
 20
134.900871
 30
0.0
 10
119.501722
 20
135.213688
 30
0.0
 10
117.965233
 20
136.116446
 30
0.0
 10
116.364504
 20
136.906995
 30
0.0
  0
SPLINE
  5
2e2
100
AcDbEntity
  8
0
 62
7
100
AcDbSpline
 70
8
 71
3
 72
8
 73
4
 74
0
 40
0
 40
0
 40
0
 40
0
 40
1
 40
1
 40
1
 40
1
 10
116.364504
 20
136.906995
 30
0.0
 10
113.824663
 20
138.161358
 30
0.0
 10
113.598629
 20
138.324156
 30
0.0
 10
114.589282
 20
138.185488
 30
0.0
  0
SPLINE
  5
2e3
100
AcDbEntity
  8
0
 62
7
100
AcDbSpline
 70
8
 71
3
 72
8
 73
4
 74
0
 40
0
 40
0
 40
0
 40
0
 40
1
 40
1
 40
1
 40
1
 10
114.589282
 20
138.185488
 30
0.0
 10
115.213646
 20
138.098096
 30
0.0
 10
118.368802
 20
137.671799
 30
0.0
 10
121.600741
 20
137.238174
 30
0.0
  0
SPLINE
  5
2e4
100
AcDbEntity
  8
0
 62
7
100
AcDbSpline
 70
8
 71
3
 72
8
 73
4
 74
0
 40
0
 40
0
 40
0
 40
0
 40
1
 40
1
 40
1
 40
1
 10
121.600741
 20
137.238174
 30
0.0
 10
124.832679
 20
136.804548
 30
0.0
 10
128.102082
 20
136.348274
 30
0.0
 10
128.866067
 20
136.224185
 30
0.0
  0
SPLINE
  5
2e5
100
AcDbEntity
  8
0
 62
7
100
AcDbSpline
 70
8
 71
3
 72
8
 73
4
 74
0
 40
0
 40
0
 40
0
 40
0
 40
1
 40
1
 40
1
 40
1
 10
128.866067
 20
136.224185
 30
0.0
 10
129.630051
 20
136.100121
 30
0.0
 10
130.255129
 20
136.085252
 30
0.0
 10
130.255129
 20
136.191112
 30
0.0
  0
SPLINE
  5
2e6
100
AcDbEntity
  8
0
 62
7
100
AcDbSpline
 70
8
 71
3
 72
8
 73
4
 74
0
 40
0
 40
0
 40
0
 40
0
 40
1
 40
1
 40
1
 40
1
 10
130.255129
 20
136.191112
 30
0.0
 10
130.255129
 20
136.686253
 30
0.0
 10
126.307069
 20
138.006391
 30
0.0
 10
119.936379
 20
139.641411
 30
0.0
  0
SPLINE
  5
2e7
100
AcDbEntity
  8
0
 62
7
100
AcDbSpline
 70
8
 71
3
 72
8
 73
4
 74
0
 40
0
 40
0
 40
0
 40
0
 40
1
 40
1
 40
1
 40
1
 10
119.936379
 20
139.641411
 30
0.0
 10
117.535285
 20
140.257652
 30
0.0
 10
115.273098
 20
140.926174
 30
0.0
 10
114.909296
 20
141.126993
 30
0.0
  0
SPLINE
  5
2e8
100
AcDbEntity
  8
0
 62
7
100
AcDbSpline
 70
8
 71
3
 72
8
 73
4
 74
0
 40
0
 40
0
 40
0
 40
0
 40
1
 40
1
 40
1
 40
1
 10
114.909296
 20
141.126993
 30
0.0
 10
114.302262
 20
141.462088
 30
0.0
 10
114.367588
 20
141.478413
 30
0.0
 10
115.703046
 20
141.325351
 30
0.0
  0
SPLINE
  5
2e9
100
AcDbEntity
  8
0
 62
7
100
AcDbSpline
 70
8
 71
3
 72
8
 73
4
 74
0
 40
0
 40
0
 40
0
 40
0
 40
1
 40
1
 40
1
 40
1
 10
115.703046
 20
141.325351
 30
0.0
 10
118.588618
 20
140.994596
 30
0.0
 10
132.806612
 20
137.992448
 30
0.0
 10
138.721796
 20
136.464903
 30
0.0
  0
SPLINE
  5
2ea
100
AcDbEntity
  8
0
 62
7
100
AcDbSpline
 70
8
 71
3
 72
8
 73
4
 74
0
 40
0
 40
0
 40
0
 40
0
 40
1
 40
1
 40
1
 40
1
 10
138.721796
 20
136.464903
 30
0.0
 10
139.813202
 20
136.183068
 30
0.0
 10
141.215758
 20
135.820457
 30
0.0
 10
141.838614
 20
135.659114
 30
0.0
  0
SPLINE
  5
2eb
100
AcDbEntity
  8
0
 62
7
100
AcDbSpline
 70
8
 71
3
 72
8
 73
4
 74
0
 40
0
 40
0
 40
0
 40
0
 40
1
 40
1
 40
1
 40
1
 10
141.838614
 20
135.659114
 30
0.0
 10
143.968589
 20
135.107325
 30
0.0
 10
142.823076
 20
134.813611
 30
0.0
 10
139.289909
 20
135.005593
 30
0.0
  0
SPLINE
  5
2ec
100
AcDbEntity
  8
0
 62
7
100
AcDbSpline
 70
8
 71
3
 72
8
 73
4
 74
0
 40
0
 40
0
 40
0
 40
0
 40
1
 40
1
 40
1
 40
1
 10
139.289909
 20
135.005593
 30
0.0
 10
135.389422
 20
135.217551
 30
0.0
 10
135.258400
 20
134.941432
 30
0.0
 10
138.854087
 20
134.087171
 30
0.0
  0
SPLINE
  5
2ed
100
AcDbEntity
  8
0
 62
7
100
AcDbSpline
 70
8
 71
3
 72
8
 73
4
 74
0
 40
0
 40
0
 40
0
 40
0
 40
1
 40
1
 40
1
 40
1
 10
138.854087
 20
134.087171
 30
0.0
 10
144.008118
 20
132.862653
 30
0.0
 10
146.659296
 20
132.125921
 30
0.0
 10
146.659296
 20
131.918197
 30
0.0
  0
SPLINE
  5
2ee
100
AcDbEntity
  8
0
 62
7
100
AcDbSpline
 70
8
 71
3
 72
8
 73
4
 74
0
 40
0
 40
0
 40
0
 40
0
 40
1
 40
1
 40
1
 40
1
 10
146.659296
 20
131.918197
 30
0.0
 10
146.659296
 20
131.798631
 30
0.0
 10
144.982763
 20
131.667769
 30
0.0
 10
142.933698
 20
131.627393
 30
0.0
  0
LWPOLYLINE
  5
2ef
100
AcDbEntity
  8
0
 62
7
100
AcDbPolyline
 90
1
 70
1
 10
140.829599
 20
105.509049
 30
0.0
  0
SPLINE
  5
2f0
100
AcDbEntity
  8
0
 62
7
100
AcDbSpline
 70
8
 71
3
 72
8
 73
4
 74
0
 40
0
 40
0
 40
0
 40
0
 40
1
 40
1
 40
1
 40
1
 10
141.544635
 20
130.655049
 30
0.0
 10
142.829717
 20
130.160649
 30
0.0
 10
144.000233
 20
129.639923
 30
0.0
 10
144.145754
 20
129.497894
 30
0.0
  0
SPLINE
  5
2f1
100
AcDbEntity
  8
0
 62
7
100
AcDbSpline
 70
8
 71
3
 72
8
 73
4
 74
0
 40
0
 40
0
 40
0
 40
0
 40
1
 40
1
 40
1
 40
1
 10
144.145754
 20
129.497894
 30
0.0
 10
144.491326
 20
129.160577
 30
0.0
 10
141.629619
 20
129.398808
 30
0.0
 10
135.057211
 20
130.254523
 30
0.0
  0
SPLINE
  5
2f2
100
AcDbEntity
  8
0
 62
7
100
AcDbSpline
 70
8
 71
3
 72
8
 73
4
 74
0
 40
0
 40
0
 40
0
 40
0
 40
1
 40
1
 40
1
 40
1
 10
135.057211
 20
130.254523
 30
0.0
 10
132.241356
 20
130.621130
 30
0.0
 10
129.741044
 20
130.875421
 30
0.0
 10
129.500961
 20
130.819620
 30
0.0
  0
SPLINE
  5
2f3
100
AcDbEntity
  8
0
 62
7
100
AcDbSpline
 70
8
 71
3
 72
8
 73
4
 74
0
 40
0
 40
0
 40
0
 40
0
 40
1
 40
1
 40
1
 40
1
 10
129.500961
 20
130.819620
 30
0.0
 10
129.260904
 20
130.763820
 30
0.0
 10
129.897942
 20
130.627400
 30
0.0
 10
130.916587
 20
130.516461
 30
0.0
  0
SPLINE
  5
2f4
100
AcDbEntity
  8
0
 62
7
100
AcDbSpline
 70
8
 71
3
 72
8
 73
4
 74
0
 40
0
 40
0
 40
0
 40
0
 40
1
 40
1
 40
1
 40
1
 10
130.916587
 20
130.516461
 30
0.0
 10
133.325724
 20
130.254073
 30
0.0
 10
136.210768
 20
129.671302
 30
0.0
 10
136.800471
 20
129.327952
 30
0.0
  0
SPLINE
  5
2f5
100
AcDbEntity
  8
0
 62
7
100
AcDbSpline
 70
8
 71
3
 72
8
 73
4
 74
0
 40
0
 40
0
 40
0
 40
0
 40
1
 40
1
 40
1
 40
1
 10
136.800471
 20
129.327952
 30
0.0
 10
137.667643
 20
128.822995
 30
0.0
 10
134.555402
 20
129.034450
 30
0.0
 10
129.593671
 20
129.817590
 30
0.0
  0
SPLINE
  5
2f6
100
AcDbEntity
  8
0
 62
7
100
AcDbSpline
 70
8
 71
3
 72
8
 73
4
 74
0
 40
0
 40
0
 40
0
 40
0
 40
1
 40
1
 40
1
 40
1
 10
129.593671
 20
129.817590
 30
0.0
 10
126.974296
 20
130.231028
 30
0.0
 10
124.784604
 20
130.526012
 30
0.0
 10
124.727692
 20
130.473095
 30
0.0
  0
SPLINE
  5
2f7
100
AcDbEntity
  8
0
 62
7
100
AcDbSpline
 70
8
 71
3
 72
8
 73
4
 74
0
 40
0
 40
0
 40
0
 40
0
 40
1
 40
1
 40
1
 40
1
 10
124.727692
 20
130.473095
 30
0.0
 10
124.670780
 20
130.420179
 30
0.0
 10
125.593515
 20
129.940066
 30
0.0
 10
126.778213
 20
129.406137
 30
0.0
  0
SPLINE
  5
2f8
100
AcDbEntity
  8
0
 62
7
100
AcDbSpline
 70
8
 71
3
 72
8
 73
4
 74
0
 40
0
 40
0
 40
0
 40
0
 40
1
 40
1
 40
1
 40
1
 10
126.778213
 20
129.406137
 30
0.0
 10
129.486462
 20
128.185614
 30
0.0
 10
129.598010
 20
127.728943
 30
0.0
 10
127.080129
 20
128.170030
 30
0.0
  0
LWPOLYLINE
  5
2f9
100
AcDbEntity
  8
0
 62
7
100
AcDbPolyline
 90
3
 70
0
 10
142.933698
 20
131.627393
 30
0.0
 10
139.208126
 20
131.553971
 30
0.0
 10
141.544635
 20
130.655049
 30
0.0
  0
SPLINE
  5
2fa
100
AcDbEntity
  8
0
 62
7
100
AcDbSpline
 70
8
 71
3
 72
8
 73
4
 74
0
 40
0
 40
0
 40
0
 40
0
 40
1
 40
1
 40
1
 40
1
 10
112.087091
 20
97.353030
 30
0.0
 10
112.813108
 20
98.328337
 30
0.0
 10
113.022605
 20
101.001052
 30
0.0
 10
112.442453
 20
101.886480
 30
0.0
  0
SPLINE
  5
2fb
100
AcDbEntity
  8
0
 62
7
100
AcDbSpline
 70
8
 71
3
 72
8
 73
4
 74
0
 40
0
 40
0
 40
0
 40
0
 40
1
 40
1
 40
1
 40
1
 10
112.442453
 20
101.886480
 30
0.0
 10
112.117968
 20
102.381727
 30
0.0
 10
107.166079
 20
105.227930
 30
0.0
 10
106.628949
 20
105.227930
 30
0.0
  0
SPLINE
  5
2fc
100
AcDbEntity
  8
0
 62
7
100
AcDbSpline
 70
8
 71
3
 72
8
 73
4
 74
0
 40
0
 40
0
 40
0
 40
0
 40
1
 40
1
 40
1
 40
1
 10
106.628949
 20
105.227930
 30
0.0
 10
106.358994
 20
105.227930
 30
0.0
 10
105.913780
 20
102.789159
 30
0.0
 10
105.919257
 20
101.340460
 30
0.0
  0
SPLINE
  5
2fd
100
AcDbEntity
  8
0
 62
7
100
AcDbSpline
 70
8
 71
3
 72
8
 73
4
 74
0
 40
0
 40
0
 40
0
 40
0
 40
1
 40
1
 40
1
 40
1
 10
105.919257
 20
101.340460
 30
0.0
 10
105.931163
 20
98.173344
 30
0.0
 10
107.467281
 20
96.424263
 30
0.0
 10
110.119835
 20
96.557322
 30
0.0
  0
SPLINE
  5
2fe
100
AcDbEntity
  8
0
 62
7
100
AcDbSpline
 70
8
 71
3
 72
8
 73
4
 74
0
 40
0
 40
0
 40
0
 40
0
 40
1
 40
1
 40
1
 40
1
 10
110.119835
 20
96.557322
 30
0.0
 10
111.325012
 20
96.617779
 30
0.0
 10
111.632299
 20
96.742081
 30
0.0
 10
112.087091
 20
97.353030
 30
0.0
  0
LWPOLYLINE
  5
2ff
100
AcDbEntity
  8
0
 62
7
100
AcDbPolyline
 90
1
 70
1
 10
127.080129
 20
128.170030
 30
0.0
  0
SPLINE
  5
300
100
AcDbEntity
  8
0
 62
7
100
AcDbSpline
 70
8
 71
3
 72
8
 73
4
 74
0
 40
0
 40
0
 40
0
 40
0
 40
1
 40
1
 40
1
 40
1
 10
118.397668
 20
100.618994
 30
0.0
 10
119.253754
 20
102.448429
 30
0.0
 10
119.588796
 20
104.203833
 30
0.0
 10
119.300823
 20
105.351146
 30
0.0
  0
SPLINE
  5
301
100
AcDbEntity
  8
0
 62
7
100
AcDbSpline
 70
8
 71
3
 72
8
 73
4
 74
0
 40
0
 40
0
 40
0
 40
0
 40
1
 40
1
 40
1
 40
1
 10
119.300823
 20
105.351146
 30
0.0
 10
119.206420
 20
105.727278
 30
0.0
 10
118.694663
 20
106.515974
 30
0.0
 10
118.163591
 20
107.103799
 30
0.0
  0
SPLINE
  5
302
100
AcDbEntity
  8
0
 62
7
100
AcDbSpline
 70
8
 71
3
 72
8
 73
4
 74
0
 40
0
 40
0
 40
0
 40
0
 40
1
 40
1
 40
1
 40
1
 10
118.163591
 20
107.103799
 30
0.0
 10
115.709978
 20
109.819668
 30
0.0
 10
113.679909
 20
109.481186
 30
0.0
 10
112.165355
 20
106.103700
 30
0.0
  0
LWPOLYLINE
  5
303
100
AcDbEntity
  8
0
 62
7
100
AcDbPolyline
 90
1
 70
1
 10
112.087091
 20
97.353030
 30
0.0
  0
SPLINE
  5
304
100
AcDbEntity
  8
0
 62
7
100
AcDbSpline
 70
8
 71
3
 72
8
 73
4
 74
0
 40
0
 40
0
 40
0
 40
0
 40
1
 40
1
 40
1
 40
1
 10
113.284939
 20
103.024056
 30
0.0
 10
114.681648
 20
101.314769
 30
0.0
 10
117.143702
 20
98.877930
 30
0.0
 10
117.473981
 20
98.877930
 30
0.0
  0
SPLINE
  5
305
100
AcDbEntity
  8
0
 62
7
100
AcDbSpline
 70
8
 71
3
 72
8
 73
4
 74
0
 40
0
 40
0
 40
0
 40
0
 40
1
 40
1
 40
1
 40
1
 10
117.473981
 20
98.877930
 30
0.0
 10
117.533883
 20
98.877930
 30
0.0
 10
117.949543
 20
99.661414
 30
0.0
 10
118.397668
 20
100.618994
 30
0.0
  0
LWPOLYLINE
  5
306
100
AcDbEntity
  8
0
 62
7
100
AcDbPolyline
 90
3
 70
0
 10
112.165355
 20
106.103700
 30
0.0
 10
111.670399
 20
104.999912
 30
0.0
 10
113.284939
 20
103.024056
 30
0.0
  0
SPLINE
  5
307
100
AcDbEntity
  8
0
 62
7
100
AcDbSpline
 70
8
 71
3
 72
8
 73
4
 74
0
 40
0
 40
0
 40
0
 40
0
 40
1
 40
1
 40
1
 40
1
 10
11.694053
 20
100.266992
 30
0.0
 10
13.117040
 20
104.670241
 30
0.0
 10
12.921108
 20
121.545339
 30
0.0
 10
11.195443
 20
143.210693
 30
0.0
  0
SPLINE
  5
308
100
AcDbEntity
  8
0
 62
7
100
AcDbSpline
 70
8
 71
3
 72
8
 73
4
 74
0
 40
0
 40
0
 40
0
 40
0
 40
1
 40
1
 40
1
 40
1
 10
11.195443
 20
143.210693
 30
0.0
 10
10.261553
 20
154.935491
 30
0.0
 10
8.774979
 20
166.695400
 30
0.0
 10
7.911426
 20
169.189707
 30
0.0
  0
SPLINE
  5
309
100
AcDbEntity
  8
0
 62
7
100
AcDbSpline
 70
8
 71
3
 72
8
 73
4
 74
0
 40
0
 40
0
 40
0
 40
0
 40
1
 40
1
 40
1
 40
1
 10
7.911426
 20
169.189707
 30
0.0
 10
7.599009
 20
170.092095
 30
0.0
 10
7.548688
 20
170.128607
 30
0.0
 10
7.288206
 20
169.641906
 30
0.0
  0
SPLINE
  5
30a
100
AcDbEntity
  8
0
 62
7
100
AcDbSpline
 70
8
 71
3
 72
8
 73
4
 74
0
 40
0
 40
0
 40
0
 40
0
 40
1
 40
1
 40
1
 40
1
 10
7.288206
 20
169.641906
 30
0.0
 10
5.688805
 20
166.653385
 30
0.0
 10
5.235063
 20
156.823638
 30
0.0
 10
6.018595
 20
142.137305
 30
0.0
  0
SPLINE
  5
30b
100
AcDbEntity
  8
0
 62
7
100
AcDbSpline
 70
8
 71
3
 72
8
 73
4
 74
0
 40
0
 40
0
 40
0
 40
0
 40
1
 40
1
 40
1
 40
1
 10
6.018595
 20
142.137305
 30
0.0
 10
6.228213
 20
138.208242
 30
0.0
 10
6.472194
 20
132.374180
 30
0.0
 10
6.560771
 20
129.172721
 30
0.0
  0
SPLINE
  5
30c
100
AcDbEntity
  8
0
 62
7
100
AcDbSpline
 70
8
 71
3
 72
8
 73
4
 74
0
 40
0
 40
0
 40
0
 40
0
 40
1
 40
1
 40
1
 40
1
 10
6.560771
 20
129.172721
 30
0.0
 10
7.011481
 20
112.882696
 30
0.0
 10
8.364920
 20
103.132165
 30
0.0
 10
10.602736
 20
100.053288
 30
0.0
  0
SPLINE
  5
30d
100
AcDbEntity
  8
0
 62
7
100
AcDbSpline
 70
8
 71
3
 72
8
 73
4
 74
0
 40
0
 40
0
 40
0
 40
0
 40
1
 40
1
 40
1
 40
1
 10
10.602736
 20
100.053288
 30
0.0
 10
11.210185
 20
99.217549
 30
0.0
 10
11.364681
 20
99.247791
 30
0.0
 10
11.694053
 20
100.266992
 30
0.0
  0
LWPOLYLINE
  5
30e
100
AcDbEntity
  8
0
 62
7
100
AcDbPolyline
 90
1
 70
1
 10
118.397668
 20
100.618994
 30
0.0
  0
SPLINE
  5
30f
100
AcDbEntity
  8
0
 62
7
100
AcDbSpline
 70
8
 71
3
 72
8
 73
4
 74
0
 40
0
 40
0
 40
0
 40
0
 40
1
 40
1
 40
1
 40
1
 10
18.032974
 20
106.156247
 30
0.0
 10
18.964766
 20
110.804605
 30
0.0
 10
19.211243
 20
114.996902
 30
0.0
 10
19.064693
 20
123.704392
 30
0.0
  0
SPLINE
  5
310
100
AcDbEntity
  8
0
 62
7
100
AcDbSpline
 70
8
 71
3
 72
8
 73
4
 74
0
 40
0
 40
0
 40
0
 40
0
 40
1
 40
1
 40
1
 40
1
 10
19.064693
 20
123.704392
 30
0.0
 10
18.989581
 20
128.167172
 30
0.0
 10
18.705686
 20
134.437930
 30
0.0
 10
18.433810
 20
137.639388
 30
0.0
  0
LWPOLYLINE
  5
311
100
AcDbEntity
  8
0
 62
7
100
AcDbPolyline
 90
1
 70
1
 10
11.694053
 20
100.266992
 30
0.0
  0
SPLINE
  5
312
100
AcDbEntity
  8
0
 62
7
100
AcDbSpline
 70
8
 71
3
 72
8
 73
4
 74
0
 40
0
 40
0
 40
0
 40
0
 40
1
 40
1
 40
1
 40
1
 10
17.777310
 20
128.378971
 30
0.0
 10
17.688111
 20
120.084284
 30
0.0
 10
17.523138
 20
111.035534
 30
0.0
 10
17.410704
 20
108.270638
 30
0.0
  0
SPLINE
  5
313
100
AcDbEntity
  8
0
 62
7
100
AcDbSpline
 70
8
 71
3
 72
8
 73
4
 74
0
 40
0
 40
0
 40
0
 40
0
 40
1
 40
1
 40
1
 40
1
 10
17.410704
 20
108.270638
 30
0.0
 10
17.298269
 20
105.505742
 30
0.0
 10
17.273054
 20
103.304118
 30
0.0
 10
17.354670
 20
103.378122
 30
0.0
  0
SPLINE
  5
314
100
AcDbEntity
  8
0
 62
7
100
AcDbSpline
 70
8
 71
3
 72
8
 73
4
 74
0
 40
0
 40
0
 40
0
 40
0
 40
1
 40
1
 40
1
 40
1
 10
17.354670
 20
103.378122
 30
0.0
 10
17.436283
 20
103.452126
 30
0.0
 10
17.741523
 20
104.702282
 30
0.0
 10
18.032974
 20
106.156247
 30
0.0
  0
LWPOLYLINE
  5
315
100
AcDbEntity
  8
0
 62
7
100
AcDbPolyline
 90
3
 70
0
 10
18.433810
 20
137.639388
 30
0.0
 10
17.939492
 20
143.460221
 30
0.0
 10
17.777310
 20
128.378971
 30
0.0
  0
SPLINE
  5
316
100
AcDbEntity
  8
0
 62
7
100
AcDbSpline
 70
8
 71
3
 72
8
 73
4
 74
0
 40
0
 40
0
 40
0
 40
0
 40
1
 40
1
 40
1
 40
1
 10
195.484657
 20
111.427223
 30
0.0
 10
194.932472
 20
118.745624
 30
0.0
 10
195.031056
 20
119.492040
 30
0.0
 10
196.634563
 20
120.133629
 30
0.0
  0
SPLINE
  5
317
100
AcDbEntity
  8
0
 62
7
100
AcDbSpline
 70
8
 71
3
 72
8
 73
4
 74
0
 40
0
 40
0
 40
0
 40
0
 40
1
 40
1
 40
1
 40
1
 10
196.634563
 20
120.133629
 30
0.0
 10
197.333248
 20
120.413187
 30
0.0
 10
198.110091
 20
120.495658
 30
0.0
 10
199.090928
 20
120.394428
 30
0.0
  0
SPLINE
  5
318
100
AcDbEntity
  8
0
 62
7
100
AcDbSpline
 70
8
 71
3
 72
8
 73
4
 74
0
 40
0
 40
0
 40
0
 40
0
 40
1
 40
1
 40
1
 40
1
 10
199.090928
 20
120.394428
 30
0.0
 10
200.191939
 20
120.280790
 30
0.0
 10
200.799554
 20
120.369293
 30
0.0
 10
201.704350
 20
120.775428
 30
0.0
  0
SPLINE
  5
319
100
AcDbEntity
  8
0
 62
7
100
AcDbSpline
 70
8
 71
3
 72
8
 73
4
 74
0
 40
0
 40
0
 40
0
 40
0
 40
1
 40
1
 40
1
 40
1
 10
201.704350
 20
120.775428
 30
0.0
 10
202.352738
 20
121.066391
 30
0.0
 10
203.131804
 20
121.380054
 30
0.0
 10
203.435598
 20
121.472473
 30
0.0
  0
SPLINE
  5
31a
100
AcDbEntity
  8
0
 62
7
100
AcDbSpline
 70
8
 71
3
 72
8
 73
4
 74
0
 40
0
 40
0
 40
0
 40
0
 40
1
 40
1
 40
1
 40
1
 10
203.435598
 20
121.472473
 30
0.0
 10
203.967649
 20
121.634319
 30
0.0
 10
205.926068
 20
123.219596
 30
0.0
 10
205.593963
 20
123.219596
 30
0.0
  0
SPLINE
  5
31b
100
AcDbEntity
  8
0
 62
7
100
AcDbSpline
 70
8
 71
3
 72
8
 73
4
 74
0
 40
0
 40
0
 40
0
 40
0
 40
1
 40
1
 40
1
 40
1
 10
205.593963
 20
123.219596
 30
0.0
 10
205.504455
 20
123.219596
 30
0.0
 10
205.096070
 20
123.086802
 30
0.0
 10
204.686416
 20
122.924480
 30
0.0
  0
SPLINE
  5
31c
100
AcDbEntity
  8
0
 62
7
100
AcDbSpline
 70
8
 71
3
 72
8
 73
4
 74
0
 40
0
 40
0
 40
0
 40
0
 40
1
 40
1
 40
1
 40
1
 10
204.686416
 20
122.924480
 30
0.0
 10
204.276735
 20
122.762185
 30
0.0
 10
201.878419
 20
122.530886
 30
0.0
 10
199.356755
 20
122.410500
 30
0.0
  0
SPLINE
  5
31d
100
AcDbEntity
  8
0
 62
7
100
AcDbSpline
 70
8
 71
3
 72
8
 73
4
 74
0
 40
0
 40
0
 40
0
 40
0
 40
1
 40
1
 40
1
 40
1
 10
199.356755
 20
122.410500
 30
0.0
 10
194.606399
 20
122.183700
 30
0.0
 10
194.027544
 20
122.031273
 30
0.0
 10
194.033656
 20
121.008764
 30
0.0
  0
SPLINE
  5
31e
100
AcDbEntity
  8
0
 62
7
100
AcDbSpline
 70
8
 71
3
 72
8
 73
4
 74
0
 40
0
 40
0
 40
0
 40
0
 40
1
 40
1
 40
1
 40
1
 10
194.033656
 20
121.008764
 30
0.0
 10
194.036302
 20
120.696768
 30
0.0
 10
194.031010
 20
119.131784
 30
0.0
 10
194.025189
 20
117.531055
 30
0.0
  0
SPLINE
  5
31f
100
AcDbEntity
  8
0
 62
7
100
AcDbSpline
 70
8
 71
3
 72
8
 73
4
 74
0
 40
0
 40
0
 40
0
 40
0
 40
1
 40
1
 40
1
 40
1
 10
194.025189
 20
117.531055
 30
0.0
 10
194.018310
 20
115.840341
 30
0.0
 10
194.244449
 20
113.123705
 30
0.0
 10
194.564648
 20
111.048763
 30
0.0
  0
SPLINE
  5
320
100
AcDbEntity
  8
0
 62
7
100
AcDbSpline
 70
8
 71
3
 72
8
 73
4
 74
0
 40
0
 40
0
 40
0
 40
0
 40
1
 40
1
 40
1
 40
1
 10
194.564648
 20
111.048763
 30
0.0
 10
194.867808
 20
109.084232
 30
0.0
 10
195.185784
 20
106.643450
 30
0.0
 10
195.271271
 20
105.624805
 30
0.0
  0
SPLINE
  5
321
100
AcDbEntity
  8
0
 62
7
100
AcDbSpline
 70
8
 71
3
 72
8
 73
4
 74
0
 40
0
 40
0
 40
0
 40
0
 40
1
 40
1
 40
1
 40
1
 10
195.271271
 20
105.624805
 30
0.0
 10
195.410257
 20
103.968460
 30
0.0
 10
195.454098
 20
103.854345
 30
0.0
 10
195.686111
 20
104.545014
 30
0.0
  0
SPLINE
  5
322
100
AcDbEntity
  8
0
 62
7
100
AcDbSpline
 70
8
 71
3
 72
8
 73
4
 74
0
 40
0
 40
0
 40
0
 40
0
 40
1
 40
1
 40
1
 40
1
 10
195.686111
 20
104.545014
 30
0.0
 10
195.865022
 20
105.077620
 30
0.0
 10
195.802475
 20
107.213575
 30
0.0
 10
195.484552
 20
111.427223
 30
0.0
  0
LWPOLYLINE
  5
323
100
AcDbEntity
  8
0
 62
7
100
AcDbPolyline
 90
1
 70
1
 10
18.032974
 20
106.156247
 30
0.0
  0
SPLINE
  5
324
100
AcDbEntity
  8
0
 62
7
100
AcDbSpline
 70
8
 71
3
 72
8
 73
4
 74
0
 40
0
 40
0
 40
0
 40
0
 40
1
 40
1
 40
1
 40
1
 10
42.650394
 20
114.488346
 30
0.0
 10
42.717048
 20
133.413569
 30
0.0
 10
39.915269
 20
166.494000
 30
0.0
 10
37.614942
 20
173.941597
 30
0.0
  0
SPLINE
  5
325
100
AcDbEntity
  8
0
 62
7
100
AcDbSpline
 70
8
 71
3
 72
8
 73
4
 74
0
 40
0
 40
0
 40
0
 40
0
 40
1
 40
1
 40
1
 40
1
 10
37.614942
 20
173.941597
 30
0.0
 10
37.332010
 20
174.857611
 30
0.0
 10
37.027252
 20
175.607096
 30
0.0
 10
36.937704
 20
175.607096
 30
0.0
  0
SPLINE
  5
326
100
AcDbEntity
  8
0
 62
7
100
AcDbSpline
 70
8
 71
3
 72
8
 73
4
 74
0
 40
0
 40
0
 40
0
 40
0
 40
1
 40
1
 40
1
 40
1
 10
36.937704
 20
175.607096
 30
0.0
 10
36.560641
 20
175.607096
 30
0.0
 10
37.549696
 20
162.027621
 30
0.0
 10
39.230504
 20
144.127527
 30
0.0
  0
SPLINE
  5
327
100
AcDbEntity
  8
0
 62
7
100
AcDbSpline
 70
8
 71
3
 72
8
 73
4
 74
0
 40
0
 40
0
 40
0
 40
0
 40
1
 40
1
 40
1
 40
1
 10
39.230504
 20
144.127527
 30
0.0
 10
39.510925
 20
141.141148
 30
0.0
 10
39.868073
 20
136.316471
 30
0.0
 10
40.024166
 20
133.406055
 30
0.0
  0
SPLINE
  5
328
100
AcDbEntity
  8
0
 62
7
100
AcDbSpline
 70
8
 71
3
 72
8
 73
4
 74
0
 40
0
 40
0
 40
0
 40
0
 40
1
 40
1
 40
1
 40
1
 10
40.024166
 20
133.406055
 30
0.0
 10
40.680127
 20
121.175373
 30
0.0
 10
41.803365
 20
105.608162
 30
0.0
 10
42.076426
 20
104.963346
 30
0.0
  0
SPLINE
  5
329
100
AcDbEntity
  8
0
 62
7
100
AcDbSpline
 70
8
 71
3
 72
8
 73
4
 74
0
 40
0
 40
0
 40
0
 40
0
 40
1
 40
1
 40
1
 40
1
 10
42.076426
 20
104.963346
 30
0.0
 10
42.416095
 20
104.161235
 30
0.0
 10
42.626309
 20
107.649740
 30
0.0
 10
42.650394
 20
114.488346
 30
0.0
  0
LWPOLYLINE
  5
32a
100
AcDbEntity
  8
0
 62
7
100
AcDbPolyline
 90
2
 70
0
 10
195.484552
 20
111.427223
 30
0.0
 10
195.484657
 20
111.427223
 30
0.0
  0
SPLINE
  5
32b
100
AcDbEntity
  8
0
 62
7
100
AcDbSpline
 70
8
 71
3
 72
8
 73
4
 74
0
 40
0
 40
0
 40
0
 40
0
 40
1
 40
1
 40
1
 40
1
 10
110.696018
 20
107.679532
 30
0.0
 10
111.067440
 20
109.053752
 30
0.0
 10
110.873130
 20
111.215821
 30
0.0
 10
110.271071
 20
112.408060
 30
0.0
  0
SPLINE
  5
32c
100
AcDbEntity
  8
0
 62
7
100
AcDbSpline
 70
8
 71
3
 72
8
 73
4
 74
0
 40
0
 40
0
 40
0
 40
0
 40
1
 40
1
 40
1
 40
1
 10
110.271071
 20
112.408060
 30
0.0
 10
109.721796
 20
113.495709
 30
0.0
 10
108.576467
 20
114.752930
 30
0.0
 10
108.134825
 20
114.752930
 30
0.0
  0
SPLINE
  5
32d
100
AcDbEntity
  8
0
 62
7
100
AcDbSpline
 70
8
 71
3
 72
8
 73
4
 74
0
 40
0
 40
0
 40
0
 40
0
 40
1
 40
1
 40
1
 40
1
 10
108.134825
 20
114.752930
 30
0.0
 10
107.735198
 20
114.752930
 30
0.0
 10
107.264504
 20
112.657165
 30
0.0
 10
107.053578
 20
109.938756
 30
0.0
  0
SPLINE
  5
32e
100
AcDbEntity
  8
0
 62
7
100
AcDbSpline
 70
8
 71
3
 72
8
 73
4
 74
0
 40
0
 40
0
 40
0
 40
0
 40
1
 40
1
 40
1
 40
1
 10
107.053578
 20
109.938756
 30
0.0
 10
106.866756
 20
107.531313
 30
0.0
 10
107.182854
 20
106.544126
 30
0.0
 10
108.389777
 20
105.765536
 30
0.0
  0
LWPOLYLINE
  5
32f
100
AcDbEntity
  8
0
 62
7
100
AcDbPolyline
 90
1
 70
1
 10
42.650394
 20
114.488346
 30
0.0
  0
SPLINE
  5
330
100
AcDbEntity
  8
0
 62
7
100
AcDbSpline
 70
8
 71
3
 72
8
 73
4
 74
0
 40
0
 40
0
 40
0
 40
0
 40
1
 40
1
 40
1
 40
1
 10
109.806991
 20
105.894389
 30
0.0
 10
110.129439
 20
106.260069
 30
0.0
 10
110.529489
 20
107.063397
 30
0.0
 10
110.696018
 20
107.679532
 30
0.0
  0
LWPOLYLINE
  5
331
100
AcDbEntity
  8
0
 62
7
100
AcDbPolyline
 90
3
 70
0
 10
108.389777
 20
105.765536
 30
0.0
 10
109.220754
 20
105.229491
 30
0.0
 10
109.806991
 20
105.894389
 30
0.0
  0
SPLINE
  5
332
100
AcDbEntity
  8
0
 62
7
100
AcDbSpline
 70
8
 71
3
 72
8
 73
4
 74
0
 40
0
 40
0
 40
0
 40
0
 40
1
 40
1
 40
1
 40
1
 10
123.404881
 20
109.959076
 30
0.0
 10
123.806043
 20
111.842804
 30
0.0
 10
123.834882
 20
116.251926
 30
0.0
 10
123.448564
 20
116.638218
 30
0.0
  0
SPLINE
  5
333
100
AcDbEntity
  8
0
 62
7
100
AcDbSpline
 70
8
 71
3
 72
8
 73
4
 74
0
 40
0
 40
0
 40
0
 40
0
 40
1
 40
1
 40
1
 40
1
 10
123.448564
 20
116.638218
 30
0.0
 10
123.079682
 20
117.007100
 30
0.0
 10
122.764299
 20
116.421551
 30
0.0
 10
122.326202
 20
114.554492
 30
0.0
  0
SPLINE
  5
334
100
AcDbEntity
  8
0
 62
7
100
AcDbSpline
 70
8
 71
3
 72
8
 73
4
 74
0
 40
0
 40
0
 40
0
 40
0
 40
1
 40
1
 40
1
 40
1
 10
122.326202
 20
114.554492
 30
0.0
 10
122.146920
 20
113.790508
 30
0.0
 10
121.901598
 20
113.165430
 30
0.0
 10
121.781028
 20
113.165430
 30
0.0
  0
SPLINE
  5
335
100
AcDbEntity
  8
0
 62
7
100
AcDbSpline
 70
8
 71
3
 72
8
 73
4
 74
0
 40
0
 40
0
 40
0
 40
0
 40
1
 40
1
 40
1
 40
1
 10
121.781028
 20
113.165430
 30
0.0
 10
121.660457
 20
113.165430
 30
0.0
 10
121.420797
 20
113.850039
 30
0.0
 10
121.248421
 20
114.686784
 30
0.0
  0
SPLINE
  5
336
100
AcDbEntity
  8
0
 62
7
100
AcDbSpline
 70
8
 71
3
 72
8
 73
4
 74
0
 40
0
 40
0
 40
0
 40
0
 40
1
 40
1
 40
1
 40
1
 10
121.248421
 20
114.686784
 30
0.0
 10
120.630646
 20
117.685942
 30
0.0
 10
119.918493
 20
120.097486
 30
0.0
 10
119.276455
 20
121.364470
 30
0.0
  0
SPLINE
  5
337
100
AcDbEntity
  8
0
 62
7
100
AcDbSpline
 70
8
 71
3
 72
8
 73
4
 74
0
 40
0
 40
0
 40
0
 40
0
 40
1
 40
1
 40
1
 40
1
 10
119.276455
 20
121.364470
 30
0.0
 10
118.185499
 20
123.517385
 30
0.0
 10
118.161845
 20
123.494181
 30
0.0
 10
117.527030
 20
119.647721
 30
0.0
  0
SPLINE
  5
338
100
AcDbEntity
  8
0
 62
7
100
AcDbSpline
 70
8
 71
3
 72
8
 73
4
 74
0
 40
0
 40
0
 40
0
 40
0
 40
1
 40
1
 40
1
 40
1
 10
117.527030
 20
119.647721
 30
0.0
 10
117.018660
 20
116.567469
 30
0.0
 10
116.005359
 20
115.017513
 30
0.0
 10
114.499959
 20
115.017513
 30
0.0
  0
SPLINE
  5
339
100
AcDbEntity
  8
0
 62
7
100
AcDbSpline
 70
8
 71
3
 72
8
 73
4
 74
0
 40
0
 40
0
 40
0
 40
0
 40
1
 40
1
 40
1
 40
1
 10
114.499959
 20
115.017513
 30
0.0
 10
113.995663
 20
115.017513
 30
0.0
 10
114.002622
 20
116.093494
 30
0.0
 10
114.524830
 20
118.880826
 30
0.0
  0
SPLINE
  5
33a
100
AcDbEntity
  8
0
 62
7
100
AcDbSpline
 70
8
 71
3
 72
8
 73
4
 74
0
 40
0
 40
0
 40
0
 40
0
 40
1
 40
1
 40
1
 40
1
 10
114.524830
 20
118.880826
 30
0.0
 10
114.749990
 20
120.082458
 30
0.0
 10
114.898818
 20
121.877683
 30
0.0
 10
114.855559
 20
122.870214
 30
0.0
  0
LWPOLYLINE
  5
33b
100
AcDbEntity
  8
0
 62
7
100
AcDbPolyline
 90
1
 70
1
 10
110.696018
 20
107.679532
 30
0.0
  0
SPLINE
  5
33c
100
AcDbEntity
  8
0
 62
7
100
AcDbSpline
 70
8
 71
3
 72
8
 73
4
 74
0
 40
0
 40
0
 40
0
 40
0
 40
1
 40
1
 40
1
 40
1
 10
114.176188
 20
123.550325
 30
0.0
 10
113.546401
 20
122.371369
 30
0.0
 10
113.333437
 20
122.259344
 30
0.0
 10
112.534660
 20
122.686831
 30
0.0
  0
SPLINE
  5
33d
100
AcDbEntity
  8
0
 62
7
100
AcDbSpline
 70
8
 71
3
 72
8
 73
4
 74
0
 40
0
 40
0
 40
0
 40
0
 40
1
 40
1
 40
1
 40
1
 10
112.534660
 20
122.686831
 30
0.0
 10
112.148818
 20
122.893312
 30
0.0
 10
111.870424
 20
122.782849
 30
0.0
 10
111.201160
 20
122.157665
 30
0.0
  0
SPLINE
  5
33e
100
AcDbEntity
  8
0
 62
7
100
AcDbSpline
 70
8
 71
3
 72
8
 73
4
 74
0
 40
0
 40
0
 40
0
 40
0
 40
1
 40
1
 40
1
 40
1
 10
111.201160
 20
122.157665
 30
0.0
 10
110.665591
 20
121.657364
 30
0.0
 10
110.074406
 20
121.367513
 30
0.0
 10
109.589530
 20
121.367513
 30
0.0
  0
SPLINE
  5
33f
100
AcDbEntity
  8
0
 62
7
100
AcDbSpline
 70
8
 71
3
 72
8
 73
4
 74
0
 40
0
 40
0
 40
0
 40
0
 40
1
 40
1
 40
1
 40
1
 10
109.589530
 20
121.367513
 30
0.0
 10
108.841818
 20
121.367513
 30
0.0
 10
108.823826
 20
121.334784
 30
0.0
 10
108.826340
 20
119.978450
 30
0.0
  0
SPLINE
  5
340
100
AcDbEntity
  8
0
 62
7
100
AcDbSpline
 70
8
 71
3
 72
8
 73
4
 74
0
 40
0
 40
0
 40
0
 40
0
 40
1
 40
1
 40
1
 40
1
 10
108.826340
 20
119.978450
 30
0.0
 10
108.830044
 20
118.044426
 30
0.0
 10
109.732670
 20
116.260076
 30
0.0
 10
111.834864
 20
114.031596
 30
0.0
  0
SPLINE
  5
341
100
AcDbEntity
  8
0
 62
7
100
AcDbSpline
 70
8
 71
3
 72
8
 73
4
 74
0
 40
0
 40
0
 40
0
 40
0
 40
1
 40
1
 40
1
 40
1
 10
111.834864
 20
114.031596
 30
0.0
 10
114.335388
 20
111.380921
 30
0.0
 10
117.827253
 20
109.125057
 30
0.0
 10
120.994607
 20
108.114137
 30
0.0
  0
SPLINE
  5
342
100
AcDbEntity
  8
0
 62
7
100
AcDbSpline
 70
8
 71
3
 72
8
 73
4
 74
0
 40
0
 40
0
 40
0
 40
0
 40
1
 40
1
 40
1
 40
1
 10
120.994607
 20
108.114137
 30
0.0
 10
122.747736
 20
107.554570
 30
0.0
 10
122.920932
 20
107.687152
 30
0.0
 10
123.404776
 20
109.959076
 30
0.0
  0
LWPOLYLINE
  5
343
100
AcDbEntity
  8
0
 62
7
100
AcDbPolyline
 90
3
 70
0
 10
114.855559
 20
122.870214
 30
0.0
 10
114.776898
 20
124.674805
 30
0.0
 10
114.176188
 20
123.550325
 30
0.0
  0
SPLINE
  5
344
100
AcDbEntity
  8
0
 62
7
100
AcDbSpline
 70
8
 71
3
 72
8
 73
4
 74
0
 40
0
 40
0
 40
0
 40
0
 40
1
 40
1
 40
1
 40
1
 10
81.447230
 20
112.437825
 30
0.0
 10
80.965397
 20
116.279496
 30
0.0
 10
78.275326
 20
133.294559
 30
0.0
 10
77.692917
 20
136.184180
 30
0.0
  0
SPLINE
  5
345
100
AcDbEntity
  8
0
 62
7
100
AcDbSpline
 70
8
 71
3
 72
8
 73
4
 74
0
 40
0
 40
0
 40
0
 40
0
 40
1
 40
1
 40
1
 40
1
 10
77.692917
 20
136.184180
 30
0.0
 10
76.971091
 20
139.765527
 30
0.0
 10
75.718950
 20
143.967057
 30
0.0
 10
75.135766
 20
144.764591
 30
0.0
  0
SPLINE
  5
346
100
AcDbEntity
  8
0
 62
7
100
AcDbSpline
 70
8
 71
3
 72
8
 73
4
 74
0
 40
0
 40
0
 40
0
 40
0
 40
1
 40
1
 40
1
 40
1
 10
75.135766
 20
144.764591
 30
0.0
 10
74.804326
 20
145.217875
 30
0.0
 10
74.757232
 20
145.146226
 30
0.0
 10
74.609881
 20
143.964464
 30
0.0
  0
SPLINE
  5
347
100
AcDbEntity
  8
0
 62
7
100
AcDbSpline
 70
8
 71
3
 72
8
 73
4
 74
0
 40
0
 40
0
 40
0
 40
0
 40
1
 40
1
 40
1
 40
1
 10
74.609881
 20
143.964464
 30
0.0
 10
74.520864
 20
143.250565
 30
0.0
 10
74.370036
 20
140.821003
 30
0.0
 10
74.274701
 20
138.565430
 30
0.0
  0
LWPOLYLINE
  5
348
100
AcDbEntity
  8
0
 62
7
100
AcDbPolyline
 90
2
 70
0
 10
123.404776
 20
109.959076
 30
0.0
 10
123.404881
 20
109.959076
 30
0.0
  0
SPLINE
  5
349
100
AcDbEntity
  8
0
 62
7
100
AcDbSpline
 70
8
 71
3
 72
8
 73
4
 74
0
 40
0
 40
0
 40
0
 40
0
 40
1
 40
1
 40
1
 40
1
 10
74.955609
 20
133.969009
 30
0.0
 10
76.282328
 20
133.199653
 30
0.0
 10
76.979410
 20
131.329949
 30
0.0
 10
77.740907
 20
126.498392
 30
0.0
  0
SPLINE
  5
34a
100
AcDbEntity
  8
0
 62
7
100
AcDbSpline
 70
8
 71
3
 72
8
 73
4
 74
0
 40
0
 40
0
 40
0
 40
0
 40
1
 40
1
 40
1
 40
1
 10
77.740907
 20
126.498392
 30
0.0
 10
78.105410
 20
124.185722
 30
0.0
 10
78.622194
 20
121.460117
 30
0.0
 10
78.889344
 20
120.441471
 30
0.0
  0
SPLINE
  5
34b
100
AcDbEntity
  8
0
 62
7
100
AcDbSpline
 70
8
 71
3
 72
8
 73
4
 74
0
 40
0
 40
0
 40
0
 40
0
 40
1
 40
1
 40
1
 40
1
 10
78.889344
 20
120.441471
 30
0.0
 10
80.038403
 20
116.059945
 30
0.0
 10
81.446489
 20
111.053737
 30
0.0
 10
81.530468
 20
111.051356
 30
0.0
  0
SPLINE
  5
34c
100
AcDbEntity
  8
0
 62
7
100
AcDbSpline
 70
8
 71
3
 72
8
 73
4
 74
0
 40
0
 40
0
 40
0
 40
0
 40
1
 40
1
 40
1
 40
1
 10
81.530468
 20
111.051356
 30
0.0
 10
81.580501
 20
111.048710
 30
0.0
 10
81.543168
 20
111.673841
 30
0.0
 10
81.447230
 20
112.437825
 30
0.0
  0
LWPOLYLINE
  5
34d
100
AcDbEntity
  8
0
 62
7
100
AcDbPolyline
 90
3
 70
0
 10
74.274701
 20
138.565430
 30
0.0
 10
74.101370
 20
134.464388
 30
0.0
 10
74.955609
 20
133.969009
 30
0.0
  0
SPLINE
  5
34e
100
AcDbEntity
  8
0
 62
7
100
AcDbSpline
 70
8
 71
3
 72
8
 73
4
 74
0
 40
0
 40
0
 40
0
 40
0
 40
1
 40
1
 40
1
 40
1
 10
55.010910
 20
122.425846
 30
0.0
 10
55.342859
 20
136.813332
 30
0.0
 10
53.428030
 20
163.432665
 30
0.0
 10
51.128983
 20
176.391110
 30
0.0
  0
SPLINE
  5
34f
100
AcDbEntity
  8
0
 62
7
100
AcDbSpline
 70
8
 71
3
 72
8
 73
4
 74
0
 40
0
 40
0
 40
0
 40
0
 40
1
 40
1
 40
1
 40
1
 10
51.128983
 20
176.391110
 30
0.0
 10
50.066858
 20
182.377757
 30
0.0
 10
50.128543
 20
180.534114
 30
0.0
 10
51.540299
 20
164.097721
 30
0.0
  0
SPLINE
  5
350
100
AcDbEntity
  8
0
 62
7
100
AcDbSpline
 70
8
 71
3
 72
8
 73
4
 74
0
 40
0
 40
0
 40
0
 40
0
 40
1
 40
1
 40
1
 40
1
 10
51.540299
 20
164.097721
 30
0.0
 10
51.911864
 20
159.771757
 30
0.0
 10
52.953573
 20
145.907696
 30
0.0
 10
53.528312
 20
137.639388
 30
0.0
  0
SPLINE
  5
351
100
AcDbEntity
  8
0
 62
7
100
AcDbSpline
 70
8
 71
3
 72
8
 73
4
 74
0
 40
0
 40
0
 40
0
 40
0
 40
1
 40
1
 40
1
 40
1
 10
53.528312
 20
137.639388
 30
0.0
 10
53.966126
 20
131.340876
 30
0.0
 10
54.313479
 20
122.730117
 30
0.0
 10
54.355479
 20
117.134180
 30
0.0
  0
SPLINE
  5
352
100
AcDbEntity
  8
0
 62
7
100
AcDbSpline
 70
8
 71
3
 72
8
 73
4
 74
0
 40
0
 40
0
 40
0
 40
0
 40
1
 40
1
 40
1
 40
1
 10
54.355479
 20
117.134180
 30
0.0
 10
54.410660
 20
109.782414
 30
0.0
 10
54.789829
 20
112.843643
 30
0.0
 10
55.010910
 20
122.425846
 30
0.0
  0
LWPOLYLINE
  5
353
100
AcDbEntity
  8
0
 62
7
100
AcDbPolyline
 90
1
 70
1
 10
81.447230
 20
112.437825
 30
0.0
  0
SPLINE
  5
354
100
AcDbEntity
  8
0
 62
7
100
AcDbSpline
 70
8
 71
3
 72
8
 73
4
 74
0
 40
0
 40
0
 40
0
 40
0
 40
1
 40
1
 40
1
 40
1
 10
203.521456
 20
125.181455
 30
0.0
 10
203.964077
 20
125.605662
 30
0.0
 10
204.459906
 20
126.357766
 30
0.0
 10
204.623286
 20
126.852828
 30
0.0
  0
SPLINE
  5
355
100
AcDbEntity
  8
0
 62
7
100
AcDbSpline
 70
8
 71
3
 72
8
 73
4
 74
0
 40
0
 40
0
 40
0
 40
0
 40
1
 40
1
 40
1
 40
1
 10
204.623286
 20
126.852828
 30
0.0
 10
204.880117
 20
127.631074
 30
0.0
 10
204.854109
 20
127.803053
 30
0.0
 10
204.430961
 20
128.123304
 30
0.0
  0
SPLINE
  5
356
100
AcDbEntity
  8
0
 62
7
100
AcDbSpline
 70
8
 71
3
 72
8
 73
4
 74
0
 40
0
 40
0
 40
0
 40
0
 40
1
 40
1
 40
1
 40
1
 10
204.430961
 20
128.123304
 30
0.0
 10
203.559688
 20
128.782752
 30
0.0
 10
202.171022
 20
129.362163
 30
0.0
 10
201.125971
 20
129.502339
 30
0.0
  0
SPLINE
  5
357
100
AcDbEntity
  8
0
 62
7
100
AcDbSpline
 70
8
 71
3
 72
8
 73
4
 74
0
 40
0
 40
0
 40
0
 40
0
 40
1
 40
1
 40
1
 40
1
 10
201.125971
 20
129.502339
 30
0.0
 10
200.188129
 20
129.628149
 30
0.0
 10
200.005566
 20
129.539672
 30
0.0
 10
198.879711
 20
128.413817
 30
0.0
  0
SPLINE
  5
358
100
AcDbEntity
  8
0
 62
7
100
AcDbSpline
 70
8
 71
3
 72
8
 73
4
 74
0
 40
0
 40
0
 40
0
 40
0
 40
1
 40
1
 40
1
 40
1
 10
198.879711
 20
128.413817
 30
0.0
 10
198.205685
 20
127.739791
 30
0.0
 10
197.593731
 20
127.188346
 30
0.0
 10
197.519779
 20
127.188346
 30
0.0
  0
SPLINE
  5
359
100
AcDbEntity
  8
0
 62
7
100
AcDbSpline
 70
8
 71
3
 72
8
 73
4
 74
0
 40
0
 40
0
 40
0
 40
0
 40
1
 40
1
 40
1
 40
1
 10
197.519779
 20
127.188346
 30
0.0
 10
197.239639
 20
127.188346
 30
0.0
 10
196.681553
 20
128.136057
 30
0.0
 10
196.662847
 20
128.643555
 30
0.0
  0
SPLINE
  5
35a
100
AcDbEntity
  8
0
 62
7
100
AcDbSpline
 70
8
 71
3
 72
8
 73
4
 74
0
 40
0
 40
0
 40
0
 40
0
 40
1
 40
1
 40
1
 40
1
 10
196.662847
 20
128.643555
 30
0.0
 10
196.644591
 20
129.140945
 30
0.0
 10
195.642164
 20
131.243721
 30
0.0
 10
195.618298
 20
130.834887
 30
0.0
  0
SPLINE
  5
35b
100
AcDbEntity
  8
0
 62
7
100
AcDbSpline
 70
8
 71
3
 72
8
 73
4
 74
0
 40
0
 40
0
 40
0
 40
0
 40
1
 40
1
 40
1
 40
1
 10
195.618298
 20
130.834887
 30
0.0
 10
195.612213
 20
130.730456
 30
0.0
 10
195.339295
 20
130.743367
 30
0.0
 10
195.011900
 20
130.863594
 30
0.0
  0
SPLINE
  5
35c
100
AcDbEntity
  8
0
 62
7
100
AcDbSpline
 70
8
 71
3
 72
8
 73
4
 74
0
 40
0
 40
0
 40
0
 40
0
 40
1
 40
1
 40
1
 40
1
 10
195.011900
 20
130.863594
 30
0.0
 10
194.538402
 20
131.037452
 30
0.0
 10
194.386875
 20
131.347067
 30
0.0
 10
194.271490
 20
132.376402
 30
0.0
  0
SPLINE
  5
35d
100
AcDbEntity
  8
0
 62
7
100
AcDbSpline
 70
8
 71
3
 72
8
 73
4
 74
0
 40
0
 40
0
 40
0
 40
0
 40
1
 40
1
 40
1
 40
1
 10
194.271490
 20
132.376402
 30
0.0
 10
194.133589
 20
133.606635
 30
0.0
 10
194.115597
 20
133.631400
 30
0.0
 10
193.907661
 20
132.876888
 30
0.0
  0
SPLINE
  5
35e
100
AcDbEntity
  8
0
 62
7
100
AcDbSpline
 70
8
 71
3
 72
8
 73
4
 74
0
 40
0
 40
0
 40
0
 40
0
 40
1
 40
1
 40
1
 40
1
 10
193.907661
 20
132.876888
 30
0.0
 10
193.787329
 20
132.440325
 30
0.0
 10
193.333383
 20
131.259199
 30
0.0
 10
192.898911
 20
130.252168
 30
0.0
  0
SPLINE
  5
35f
100
AcDbEntity
  8
0
 62
7
100
AcDbSpline
 70
8
 71
3
 72
8
 73
4
 74
0
 40
0
 40
0
 40
0
 40
0
 40
1
 40
1
 40
1
 40
1
 10
192.898911
 20
130.252168
 30
0.0
 10
191.962259
 20
128.081209
 30
0.0
 10
191.989644
 20
126.502890
 30
0.0
 10
192.982281
 20
125.446277
 30
0.0
  0
SPLINE
  5
360
100
AcDbEntity
  8
0
 62
7
100
AcDbSpline
 70
8
 71
3
 72
8
 73
4
 74
0
 40
0
 40
0
 40
0
 40
0
 40
1
 40
1
 40
1
 40
1
 10
192.982281
 20
125.446277
 30
0.0
 10
193.867815
 20
124.503672
 30
0.0
 10
194.769938
 20
124.342594
 30
0.0
 10
198.963505
 20
124.378286
 30
0.0
  0
LWPOLYLINE
  5
361
100
AcDbEntity
  8
0
 62
7
100
AcDbPolyline
 90
1
 70
1
 10
55.010910
 20
122.425846
 30
0.0
  0
SPLINE
  5
362
100
AcDbEntity
  8
0
 62
7
100
AcDbSpline
 70
8
 71
3
 72
8
 73
4
 74
0
 40
0
 40
0
 40
0
 40
0
 40
1
 40
1
 40
1
 40
1
 10
190.232334
 20
125.911546
 30
0.0
 10
190.707976
 20
126.358401
 30
0.0
 10
190.844712
 20
126.771231
 30
0.0
 10
190.844712
 20
127.760693
 30
0.0
  0
SPLINE
  5
363
100
AcDbEntity
  8
0
 62
7
100
AcDbSpline
 70
8
 71
3
 72
8
 73
4
 74
0
 40
0
 40
0
 40
0
 40
0
 40
1
 40
1
 40
1
 40
1
 10
190.844712
 20
127.760693
 30
0.0
 10
190.844712
 20
128.461283
 30
0.0
 10
191.099242
 20
129.958587
 30
0.0
 10
191.410365
 20
131.087987
 30
0.0
  0
SPLINE
  5
364
100
AcDbEntity
  8
0
 62
7
100
AcDbSpline
 70
8
 71
3
 72
8
 73
4
 74
0
 40
0
 40
0
 40
0
 40
0
 40
1
 40
1
 40
1
 40
1
 10
191.410365
 20
131.087987
 30
0.0
 10
192.018457
 20
133.295432
 30
0.0
 10
192.075078
 20
135.037184
 30
0.0
 10
191.666508
 20
138.968496
 30
0.0
  0
SPLINE
  5
365
100
AcDbEntity
  8
0
 62
7
100
AcDbSpline
 70
8
 71
3
 72
8
 73
4
 74
0
 40
0
 40
0
 40
0
 40
0
 40
1
 40
1
 40
1
 40
1
 10
191.666508
 20
138.968496
 30
0.0
 10
191.394226
 20
141.588426
 30
0.0
 10
191.618804
 20
145.347600
 30
0.0
 10
192.296349
 20
149.511321
 30
0.0
  0
SPLINE
  5
366
100
AcDbEntity
  8
0
 62
7
100
AcDbSpline
 70
8
 71
3
 72
8
 73
4
 74
0
 40
0
 40
0
 40
0
 40
0
 40
1
 40
1
 40
1
 40
1
 10
192.296349
 20
149.511321
 30
0.0
 10
192.530082
 20
150.947665
 30
0.0
 10
192.673063
 20
152.171098
 30
0.0
 10
192.614113
 20
152.230048
 30
0.0
  0
SPLINE
  5
367
100
AcDbEntity
  8
0
 62
7
100
AcDbSpline
 70
8
 71
3
 72
8
 73
4
 74
0
 40
0
 40
0
 40
0
 40
0
 40
1
 40
1
 40
1
 40
1
 10
192.614113
 20
152.230048
 30
0.0
 10
192.555164
 20
152.288997
 30
0.0
 10
191.997555
 20
151.676989
 30
0.0
 10
191.374990
 20
150.870010
 30
0.0
  0
SPLINE
  5
368
100
AcDbEntity
  8
0
 62
7
100
AcDbSpline
 70
8
 71
3
 72
8
 73
4
 74
0
 40
0
 40
0
 40
0
 40
0
 40
1
 40
1
 40
1
 40
1
 10
191.374990
 20
150.870010
 30
0.0
 10
190.314276
 20
149.495129
 30
0.0
 10
190.270302
 20
149.372680
 30
0.0
 10
190.676173
 20
148.924211
 30
0.0
  0
SPLINE
  5
369
100
AcDbEntity
  8
0
 62
7
100
AcDbSpline
 70
8
 71
3
 72
8
 73
4
 74
0
 40
0
 40
0
 40
0
 40
0
 40
1
 40
1
 40
1
 40
1
 10
190.676173
 20
148.924211
 30
0.0
 10
191.292123
 20
148.243597
 30
0.0
 10
191.220527
 20
147.749990
 30
0.0
 10
190.285410
 20
146.230250
 30
0.0
  0
SPLINE
  5
36a
100
AcDbEntity
  8
0
 62
7
100
AcDbSpline
 70
8
 71
3
 72
8
 73
4
 74
0
 40
0
 40
0
 40
0
 40
0
 40
1
 40
1
 40
1
 40
1
 10
190.285410
 20
146.230250
 30
0.0
 10
189.832284
 20
145.493835
 30
0.0
 10
189.227764
 20
143.978725
 30
0.0
 10
188.942041
 20
142.863374
 30
0.0
  0
SPLINE
  5
36b
100
AcDbEntity
  8
0
 62
7
100
AcDbSpline
 70
8
 71
3
 72
8
 73
4
 74
0
 40
0
 40
0
 40
0
 40
0
 40
1
 40
1
 40
1
 40
1
 10
188.942041
 20
142.863374
 30
0.0
 10
188.308311
 20
140.389546
 30
0.0
 10
188.248965
 20
140.276331
 30
0.0
 10
186.302028
 20
137.826316
 30
0.0
  0
SPLINE
  5
36c
100
AcDbEntity
  8
0
 62
7
100
AcDbSpline
 70
8
 71
3
 72
8
 73
4
 74
0
 40
0
 40
0
 40
0
 40
0
 40
1
 40
1
 40
1
 40
1
 10
186.302028
 20
137.826316
 30
0.0
 10
184.487172
 20
135.542512
 30
0.0
 10
183.779676
 20
134.256187
 30
0.0
 10
183.550653
 20
132.823918
 30
0.0
  0
SPLINE
  5
36d
100
AcDbEntity
  8
0
 62
7
100
AcDbSpline
 70
8
 71
3
 72
8
 73
4
 74
0
 40
0
 40
0
 40
0
 40
0
 40
1
 40
1
 40
1
 40
1
 10
183.550653
 20
132.823918
 30
0.0
 10
183.184416
 20
130.533659
 30
0.0
 10
184.535167
 20
128.293723
 30
0.0
 10
187.493209
 20
126.285879
 30
0.0
  0
SPLINE
  5
36e
100
AcDbEntity
  8
0
 62
7
100
AcDbSpline
 70
8
 71
3
 72
8
 73
4
 74
0
 40
0
 40
0
 40
0
 40
0
 40
1
 40
1
 40
1
 40
1
 10
187.493209
 20
126.285879
 30
0.0
 10
189.106215
 20
125.191033
 30
0.0
 10
189.419772
 20
125.148171
 30
0.0
 10
190.232334
 20
125.911546
 30
0.0
  0
LWPOLYLINE
  5
36f
100
AcDbEntity
  8
0
 62
7
100
AcDbPolyline
 90
3
 70
0
 10
198.963505
 20
124.378286
 30
0.0
 10
202.716699
 20
124.410221
 30
0.0
 10
203.521456
 20
125.181455
 30
0.0
  0
SPLINE
  5
370
100
AcDbEntity
  8
0
 62
7
100
AcDbSpline
 70
8
 71
3
 72
8
 73
4
 74
0
 40
0
 40
0
 40
0
 40
0
 40
1
 40
1
 40
1
 40
1
 10
86.874257
 20
130.542284
 30
0.0
 10
87.741429
 20
132.314172
 30
0.0
 10
88.450962
 20
133.884712
 30
0.0
 10
88.450962
 20
134.032350
 30
0.0
  0
SPLINE
  5
371
100
AcDbEntity
  8
0
 62
7
100
AcDbSpline
 70
8
 71
3
 72
8
 73
4
 74
0
 40
0
 40
0
 40
0
 40
0
 40
1
 40
1
 40
1
 40
1
 10
88.450962
 20
134.032350
 30
0.0
 10
88.450962
 20
134.180014
 30
0.0
 10
86.813853
 20
135.786564
 30
0.0
 10
84.812942
 20
137.602479
 30
0.0
  0
LWPOLYLINE
  5
372
100
AcDbEntity
  8
0
 62
7
100
AcDbPolyline
 90
1
 70
1
 10
190.232334
 20
125.911546
 30
0.0
  0
SPLINE
  5
373
100
AcDbEntity
  8
0
 62
7
100
AcDbSpline
 70
8
 71
3
 72
8
 73
4
 74
0
 40
0
 40
0
 40
0
 40
0
 40
1
 40
1
 40
1
 40
1
 10
81.089778
 20
139.948751
 30
0.0
 10
80.891631
 20
137.725351
 30
0.0
 10
82.367742
 20
128.691735
 30
0.0
 10
83.287037
 20
126.501726
 30
0.0
  0
LWPOLYLINE
  5
374
100
AcDbEntity
  8
0
 62
7
100
AcDbPolyline
 90
3
 70
0
 10
84.812942
 20
137.602479
 30
0.0
 10
81.174921
 20
140.904135
 30
0.0
 10
81.089778
 20
139.948751
 30
0.0
  0
SPLINE
  5
375
100
AcDbEntity
  8
0
 62
7
100
AcDbSpline
 70
8
 71
3
 72
8
 73
4
 74
0
 40
0
 40
0
 40
0
 40
0
 40
1
 40
1
 40
1
 40
1
 10
84.509147
 20
126.394596
 30
0.0
 10
84.942773
 20
126.903919
 30
0.0
 10
86.007059
 20
128.770369
 30
0.0
 10
86.874257
 20
130.542284
 30
0.0
  0
LWPOLYLINE
  5
376
100
AcDbEntity
  8
0
 62
7
100
AcDbPolyline
 90
3
 70
0
 10
83.287037
 20
126.501726
 30
0.0
 10
83.720715
 20
125.468555
 30
0.0
 10
84.509147
 20
126.394596
 30
0.0
  0
SPLINE
  5
377
100
AcDbEntity
  8
0
 62
7
100
AcDbSpline
 70
8
 71
3
 72
8
 73
4
 74
0
 40
0
 40
0
 40
0
 40
0
 40
1
 40
1
 40
1
 40
1
 10
36.598148
 20
141.211263
 30
0.0
 10
36.014266
 20
150.382621
 30
0.0
 10
35.493852
 20
156.040339
 30
0.0
 10
34.456484
 20
164.494596
 30
0.0
  0
SPLINE
  5
378
100
AcDbEntity
  8
0
 62
7
100
AcDbSpline
 70
8
 71
3
 72
8
 73
4
 74
0
 40
0
 40
0
 40
0
 40
0
 40
1
 40
1
 40
1
 40
1
 10
34.456484
 20
164.494596
 30
0.0
 10
32.912357
 20
177.078762
 30
0.0
 10
32.908409
 20
177.097626
 30
0.0
 10
31.522816
 20
178.526191
 30
0.0
  0
SPLINE
  5
379
100
AcDbEntity
  8
0
 62
7
100
AcDbSpline
 70
8
 71
3
 72
8
 73
4
 74
0
 40
0
 40
0
 40
0
 40
0
 40
1
 40
1
 40
1
 40
1
 10
31.522816
 20
178.526191
 30
0.0
 10
30.891467
 20
179.177119
 30
0.0
 10
30.046568
 20
180.096308
 30
0.0
 10
29.645263
 20
180.568801
 30
0.0
  0
SPLINE
  5
37a
100
AcDbEntity
  8
0
 62
7
100
AcDbSpline
 70
8
 71
3
 72
8
 73
4
 74
0
 40
0
 40
0
 40
0
 40
0
 40
1
 40
1
 40
1
 40
1
 10
29.645263
 20
180.568801
 30
0.0
 10
28.609412
 20
181.788477
 30
0.0
 10
27.863181
 20
181.706536
 30
0.0
 10
27.200773
 20
180.300408
 30
0.0
  0
SPLINE
  5
37b
100
AcDbEntity
  8
0
 62
7
100
AcDbSpline
 70
8
 71
3
 72
8
 73
4
 74
0
 40
0
 40
0
 40
0
 40
0
 40
1
 40
1
 40
1
 40
1
 10
27.200773
 20
180.300408
 30
0.0
 10
26.910207
 20
179.683611
 30
0.0
 10
25.456974
 20
177.350356
 30
0.0
 10
23.971362
 20
175.115368
 30
0.0
  0
SPLINE
  5
37c
100
AcDbEntity
  8
0
 62
7
100
AcDbSpline
 70
8
 71
3
 72
8
 73
4
 74
0
 40
0
 40
0
 40
0
 40
0
 40
1
 40
1
 40
1
 40
1
 10
23.971362
 20
175.115368
 30
0.0
 10
22.485751
 20
172.880406
 30
0.0
 10
21.056612
 20
170.439625
 30
0.0
 10
20.795497
 20
169.691410
 30
0.0
  0
SPLINE
  5
37d
100
AcDbEntity
  8
0
 62
7
100
AcDbSpline
 70
8
 71
3
 72
8
 73
4
 74
0
 40
0
 40
0
 40
0
 40
0
 40
1
 40
1
 40
1
 40
1
 10
20.795497
 20
169.691410
 30
0.0
 10
20.035548
 20
167.513836
 30
0.0
 10
20.189027
 20
163.776067
 30
0.0
 10
21.313091
 20
157.086263
 30
0.0
  0
SPLINE
  5
37e
100
AcDbEntity
  8
0
 62
7
100
AcDbSpline
 70
8
 71
3
 72
8
 73
4
 74
0
 40
0
 40
0
 40
0
 40
0
 40
1
 40
1
 40
1
 40
1
 10
21.313091
 20
157.086263
 30
0.0
 10
21.838794
 20
153.957565
 30
0.0
 10
22.459800
 20
149.968971
 30
0.0
 10
22.693105
 20
148.222721
 30
0.0
  0
SPLINE
  5
37f
100
AcDbEntity
  8
0
 62
7
100
AcDbSpline
 70
8
 71
3
 72
8
 73
4
 74
0
 40
0
 40
0
 40
0
 40
0
 40
1
 40
1
 40
1
 40
1
 10
22.693105
 20
148.222721
 30
0.0
 10
23.493226
 20
142.233930
 30
0.0
 10
25.119522
 20
134.873063
 30
0.0
 10
25.983743
 20
133.328796
 30
0.0
  0
SPLINE
  5
380
100
AcDbEntity
  8
0
 62
7
100
AcDbSpline
 70
8
 71
3
 72
8
 73
4
 74
0
 40
0
 40
0
 40
0
 40
0
 40
1
 40
1
 40
1
 40
1
 10
25.983743
 20
133.328796
 30
0.0
 10
26.398594
 20
132.587487
 30
0.0
 10
26.562431
 20
138.669490
 30
0.0
 10
26.288739
 20
144.650846
 30
0.0
  0
SPLINE
  5
381
100
AcDbEntity
  8
0
 62
7
100
AcDbSpline
 70
8
 71
3
 72
8
 73
4
 74
0
 40
0
 40
0
 40
0
 40
0
 40
1
 40
1
 40
1
 40
1
 10
26.288739
 20
144.650846
 30
0.0
 10
25.955769
 20
151.927682
 30
0.0
 10
25.954941
 20
155.454948
 30
0.0
 10
26.286358
 20
154.308138
 30
0.0
  0
SPLINE
  5
382
100
AcDbEntity
  8
0
 62
7
100
AcDbSpline
 70
8
 71
3
 72
8
 73
4
 74
0
 40
0
 40
0
 40
0
 40
0
 40
1
 40
1
 40
1
 40
1
 10
26.286358
 20
154.308138
 30
0.0
 10
26.412564
 20
153.871575
 30
0.0
 10
27.355858
 20
148.513763
 30
0.0
 10
28.382571
 20
142.401888
 30
0.0
  0
SPLINE
  5
383
100
AcDbEntity
  8
0
 62
7
100
AcDbSpline
 70
8
 71
3
 72
8
 73
4
 74
0
 40
0
 40
0
 40
0
 40
0
 40
1
 40
1
 40
1
 40
1
 10
28.382571
 20
142.401888
 30
0.0
 10
29.409282
 20
136.290013
 30
0.0
 10
30.290582
 20
131.170325
 30
0.0
 10
30.341012
 20
131.024805
 30
0.0
  0
SPLINE
  5
384
100
AcDbEntity
  8
0
 62
7
100
AcDbSpline
 70
8
 71
3
 72
8
 73
4
 74
0
 40
0
 40
0
 40
0
 40
0
 40
1
 40
1
 40
1
 40
1
 10
30.341012
 20
131.024805
 30
0.0
 10
30.522963
 20
130.499792
 30
0.0
 10
31.022311
 20
147.995947
 30
0.0
 10
31.033847
 20
155.300325
 30
0.0
  0
SPLINE
  5
385
100
AcDbEntity
  8
0
 62
7
100
AcDbSpline
 70
8
 71
3
 72
8
 73
4
 74
0
 40
0
 40
0
 40
0
 40
0
 40
1
 40
1
 40
1
 40
1
 10
31.033847
 20
155.300325
 30
0.0
 10
31.035170
 20
156.137070
 30
0.0
 10
31.136296
 20
156.821680
 30
0.0
 10
31.258576
 20
156.821680
 30
0.0
  0
SPLINE
  5
386
100
AcDbEntity
  8
0
 62
7
100
AcDbSpline
 70
8
 71
3
 72
8
 73
4
 74
0
 40
0
 40
0
 40
0
 40
0
 40
1
 40
1
 40
1
 40
1
 10
31.258576
 20
156.821680
 30
0.0
 10
31.380853
 20
156.821680
 30
0.0
 10
31.632655
 20
156.137070
 30
0.0
 10
31.818133
 20
155.300325
 30
0.0
  0
SPLINE
  5
387
100
AcDbEntity
  8
0
 62
7
100
AcDbSpline
 70
8
 71
3
 72
8
 73
4
 74
0
 40
0
 40
0
 40
0
 40
0
 40
1
 40
1
 40
1
 40
1
 10
31.818133
 20
155.300325
 30
0.0
 10
32.003611
 20
154.463581
 30
0.0
 10
32.256931
 20
153.421784
 30
0.0
 10
32.381066
 20
152.985221
 30
0.0
  0
SPLINE
  5
388
100
AcDbEntity
  8
0
 62
7
100
AcDbSpline
 70
8
 71
3
 72
8
 73
4
 74
0
 40
0
 40
0
 40
0
 40
0
 40
1
 40
1
 40
1
 40
1
 10
32.381066
 20
152.985221
 30
0.0
 10
33.370851
 20
149.504284
 30
0.0
 10
35.517474
 20
137.351283
 30
0.0
 10
36.259460
 20
131.027874
 30
0.0
  0
LWPOLYLINE
  5
389
100
AcDbEntity
  8
0
 62
7
100
AcDbPolyline
 90
1
 70
1
 10
86.874257
 20
130.542284
 30
0.0
  0
SPLINE
  5
38a
100
AcDbEntity
  8
0
 62
7
100
AcDbSpline
 70
8
 71
3
 72
8
 73
4
 74
0
 40
0
 40
0
 40
0
 40
0
 40
1
 40
1
 40
1
 40
1
 10
36.808799
 20
131.821624
 30
0.0
 10
36.855120
 20
134.439305
 30
0.0
 10
36.760274
 20
138.664648
 30
0.0
 10
36.598148
 20
141.211263
 30
0.0
  0
LWPOLYLINE
  5
38b
100
AcDbEntity
  8
0
 62
7
100
AcDbPolyline
 90
3
 70
0
 10
36.259460
 20
131.027874
 30
0.0
 10
36.724791
 20
127.062193
 30
0.0
 10
36.808799
 20
131.821624
 30
0.0
  0
SPLINE
  5
38c
100
AcDbEntity
  8
0
 62
7
100
AcDbSpline
 70
8
 71
3
 72
8
 73
4
 74
0
 40
0
 40
0
 40
0
 40
0
 40
1
 40
1
 40
1
 40
1
 10
177.736116
 20
132.502291
 30
0.0
 10
179.000613
 20
133.096677
 30
0.0
 10
180.261379
 20
134.136014
 30
0.0
 10
180.261379
 20
134.584033
 30
0.0
  0
SPLINE
  5
38d
100
AcDbEntity
  8
0
 62
7
100
AcDbSpline
 70
8
 71
3
 72
8
 73
4
 74
0
 40
0
 40
0
 40
0
 40
0
 40
1
 40
1
 40
1
 40
1
 10
180.261379
 20
134.584033
 30
0.0
 10
180.261379
 20
135.061420
 30
0.0
 10
179.643418
 20
134.881160
 30
0.0
 10
178.409296
 20
134.043753
 30
0.0
  0
SPLINE
  5
38e
100
AcDbEntity
  8
0
 62
7
100
AcDbSpline
 70
8
 71
3
 72
8
 73
4
 74
0
 40
0
 40
0
 40
0
 40
0
 40
1
 40
1
 40
1
 40
1
 10
178.409296
 20
134.043753
 30
0.0
 10
177.754452
 20
133.599412
 30
0.0
 10
176.891249
 20
133.169993
 30
0.0
 10
176.491067
 20
133.089454
 30
0.0
  0
SPLINE
  5
38f
100
AcDbEntity
  8
0
 62
7
100
AcDbSpline
 70
8
 71
3
 72
8
 73
4
 74
0
 40
0
 40
0
 40
0
 40
0
 40
1
 40
1
 40
1
 40
1
 10
176.491067
 20
133.089454
 30
0.0
 10
176.008070
 20
132.992246
 30
0.0
 10
175.763462
 20
132.776240
 30
0.0
 10
175.763462
 20
132.446940
 30
0.0
  0
SPLINE
  5
390
100
AcDbEntity
  8
0
 62
7
100
AcDbSpline
 70
8
 71
3
 72
8
 73
4
 74
0
 40
0
 40
0
 40
0
 40
0
 40
1
 40
1
 40
1
 40
1
 10
175.763462
 20
132.446940
 30
0.0
 10
175.763462
 20
131.805511
 30
0.0
 10
176.284903
 20
131.820142
 30
0.0
 10
177.736116
 20
132.502291
 30
0.0
  0
LWPOLYLINE
  5
391
100
AcDbEntity
  8
0
 62
7
100
AcDbPolyline
 90
1
 70
1
 10
36.598148
 20
141.211263
 30
0.0
  0
SPLINE
  5
392
100
AcDbEntity
  8
0
 62
7
100
AcDbSpline
 70
8
 71
3
 72
8
 73
4
 74
0
 40
0
 40
0
 40
0
 40
0
 40
1
 40
1
 40
1
 40
1
 10
208.117480
 20
133.075325
 30
0.0
 10
208.189817
 20
133.257226
 30
0.0
 10
208.755152
 20
134.656211
 30
0.0
 10
209.373801
 20
136.184180
 30
0.0
  0
SPLINE
  5
393
100
AcDbEntity
  8
0
 62
7
100
AcDbSpline
 70
8
 71
3
 72
8
 73
4
 74
0
 40
0
 40
0
 40
0
 40
0
 40
1
 40
1
 40
1
 40
1
 10
209.373801
 20
136.184180
 30
0.0
 10
209.992449
 20
137.712148
 30
0.0
 10
211.325844
 20
141.224492
 30
0.0
 10
212.336896
 20
143.989388
 30
0.0
  0
SPLINE
  5
394
100
AcDbEntity
  8
0
 62
7
100
AcDbSpline
 70
8
 71
3
 72
8
 73
4
 74
0
 40
0
 40
0
 40
0
 40
0
 40
1
 40
1
 40
1
 40
1
 10
212.336896
 20
143.989388
 30
0.0
 10
213.347922
 20
146.754284
 30
0.0
 10
215.524358
 20
152.707409
 30
0.0
 10
217.173373
 20
157.218555
 30
0.0
  0
SPLINE
  5
395
100
AcDbEntity
  8
0
 62
7
100
AcDbSpline
 70
8
 71
3
 72
8
 73
4
 74
0
 40
0
 40
0
 40
0
 40
0
 40
1
 40
1
 40
1
 40
1
 10
217.173373
 20
157.218555
 30
0.0
 10
218.822389
 20
161.729700
 30
0.0
 10
220.366577
 20
165.879981
 30
0.0
 10
220.604887
 20
166.441427
 30
0.0
  0
SPLINE
  5
396
100
AcDbEntity
  8
0
 62
7
100
AcDbSpline
 70
8
 71
3
 72
8
 73
4
 74
0
 40
0
 40
0
 40
0
 40
0
 40
1
 40
1
 40
1
 40
1
 10
220.604887
 20
166.441427
 30
0.0
 10
220.843197
 20
167.002846
 30
0.0
 10
220.995915
 20
167.504496
 30
0.0
 10
220.944215
 20
167.556196
 30
0.0
  0
SPLINE
  5
397
100
AcDbEntity
  8
0
 62
7
100
AcDbSpline
 70
8
 71
3
 72
8
 73
4
 74
0
 40
0
 40
0
 40
0
 40
0
 40
1
 40
1
 40
1
 40
1
 10
220.944215
 20
167.556196
 30
0.0
 10
220.892516
 20
167.607895
 30
0.0
 10
220.260452
 20
167.461607
 30
0.0
 10
219.539648
 20
167.231129
 30
0.0
  0
SPLINE
  5
398
100
AcDbEntity
  8
0
 62
7
100
AcDbSpline
 70
8
 71
3
 72
8
 73
4
 74
0
 40
0
 40
0
 40
0
 40
0
 40
1
 40
1
 40
1
 40
1
 10
219.539648
 20
167.231129
 30
0.0
 10
217.697248
 20
166.642034
 30
0.0
 10
211.068563
 20
166.645050
 30
0.0
 10
208.066230
 20
167.236420
 30
0.0
  0
SPLINE
  5
399
100
AcDbEntity
  8
0
 62
7
100
AcDbSpline
 70
8
 71
3
 72
8
 73
4
 74
0
 40
0
 40
0
 40
0
 40
0
 40
1
 40
1
 40
1
 40
1
 10
208.066230
 20
167.236420
 30
0.0
 10
205.391874
 20
167.763153
 30
0.0
 10
205.304403
 20
167.715528
 30
0.0
 10
204.054459
 20
165.052311
 30
0.0
  0
SPLINE
  5
39a
100
AcDbEntity
  8
0
 62
7
100
AcDbSpline
 70
8
 71
3
 72
8
 73
4
 74
0
 40
0
 40
0
 40
0
 40
0
 40
1
 40
1
 40
1
 40
1
 10
204.054459
 20
165.052311
 30
0.0
 10
202.810785
 20
162.402456
 30
0.0
 10
202.817267
 20
162.420184
 30
0.0
 10
202.106728
 20
159.732176
 30
0.0
  0
SPLINE
  5
39b
100
AcDbEntity
  8
0
 62
7
100
AcDbSpline
 70
8
 71
3
 72
8
 73
4
 74
0
 40
0
 40
0
 40
0
 40
0
 40
1
 40
1
 40
1
 40
1
 10
202.106728
 20
159.732176
 30
0.0
 10
199.604246
 20
150.265014
 30
0.0
 10
200.021441
 20
140.609230
 30
0.0
 10
203.131645
 20
136.010798
 30
0.0
  0
SPLINE
  5
39c
100
AcDbEntity
  8
0
 62
7
100
AcDbSpline
 70
8
 71
3
 72
8
 73
4
 74
0
 40
0
 40
0
 40
0
 40
0
 40
1
 40
1
 40
1
 40
1
 10
203.131645
 20
136.010798
 30
0.0
 10
204.649454
 20
133.766761
 30
0.0
 10
207.682425
 20
131.981088
 30
0.0
 10
208.117480
 20
133.075405
 30
0.0
  0
LWPOLYLINE
  5
39d
100
AcDbEntity
  8
0
 62
7
100
AcDbPolyline
 90
1
 70
1
 10
177.736116
 20
132.502291
 30
0.0
  0
SPLINE
  5
39e
100
AcDbEntity
  8
0
 62
7
100
AcDbSpline
 70
8
 71
3
 72
8
 73
4
 74
0
 40
0
 40
0
 40
0
 40
0
 40
1
 40
1
 40
1
 40
1
 10
216.376210
 20
136.447784
 30
0.0
 10
219.536208
 20
140.408253
 30
0.0
 10
223.374863
 20
146.839294
 30
0.0
 10
226.800079
 20
153.911263
 30
0.0
  0
SPLINE
  5
39f
100
AcDbEntity
  8
0
 62
7
100
AcDbSpline
 70
8
 71
3
 72
8
 73
4
 74
0
 40
0
 40
0
 40
0
 40
0
 40
1
 40
1
 40
1
 40
1
 10
226.800079
 20
153.911263
 30
0.0
 10
229.710178
 20
159.919739
 30
0.0
 10
231.023014
 20
164.006705
 30
0.0
 10
230.577747
 20
165.671622
 30
0.0
  0
SPLINE
  5
3a0
100
AcDbEntity
  8
0
 62
7
100
AcDbSpline
 70
8
 71
3
 72
8
 73
4
 74
0
 40
0
 40
0
 40
0
 40
0
 40
1
 40
1
 40
1
 40
1
 10
230.577747
 20
165.671622
 30
0.0
 10
230.414261
 20
166.282915
 30
0.0
 10
230.278451
 20
166.008013
 30
0.0
 10
229.664141
 20
163.822369
 30
0.0
  0
SPLINE
  5
3a1
100
AcDbEntity
  8
0
 62
7
100
AcDbSpline
 70
8
 71
3
 72
8
 73
4
 74
0
 40
0
 40
0
 40
0
 40
0
 40
1
 40
1
 40
1
 40
1
 10
229.664141
 20
163.822369
 30
0.0
 10
227.738953
 20
156.972889
 30
0.0
 10
222.719913
 20
146.976878
 30
0.0
 10
216.517524
 20
137.639388
 30
0.0
  0
SPLINE
  5
3a2
100
AcDbEntity
  8
0
 62
7
100
AcDbSpline
 70
8
 71
3
 72
8
 73
4
 74
0
 40
0
 40
0
 40
0
 40
0
 40
1
 40
1
 40
1
 40
1
 10
216.517524
 20
137.639388
 30
0.0
 10
214.264068
 20
134.246874
 30
0.0
 10
214.240176
 20
134.206657
 30
0.0
 10
214.618663
 20
134.440575
 30
0.0
  0
SPLINE
  5
3a3
100
AcDbEntity
  8
0
 62
7
100
AcDbSpline
 70
8
 71
3
 72
8
 73
4
 74
0
 40
0
 40
0
 40
0
 40
0
 40
1
 40
1
 40
1
 40
1
 10
214.618663
 20
134.440575
 30
0.0
 10
214.787969
 20
134.545192
 30
0.0
 10
215.578862
 20
135.448453
 30
0.0
 10
216.376210
 20
136.447784
 30
0.0
  0
LWPOLYLINE
  5
3a4
100
AcDbEntity
  8
0
 62
7
100
AcDbPolyline
 90
1
 70
1
 10
208.117480
 20
133.075405
 30
0.0
  0
SPLINE
  5
3a5
100
AcDbEntity
  8
0
 62
7
100
AcDbSpline
 70
8
 71
3
 72
8
 73
4
 74
0
 40
0
 40
0
 40
0
 40
0
 40
1
 40
1
 40
1
 40
1
 10
169.154912
 20
142.029566
 30
0.0
 10
172.306999
 20
143.709618
 30
0.0
 10
176.202591
 20
148.034788
 30
0.0
 10
179.866039
 20
153.921820
 30
0.0
  0
SPLINE
  5
3a6
100
AcDbEntity
  8
0
 62
7
100
AcDbSpline
 70
8
 71
3
 72
8
 73
4
 74
0
 40
0
 40
0
 40
0
 40
0
 40
1
 40
1
 40
1
 40
1
 10
179.866039
 20
153.921820
 30
0.0
 10
183.135389
 20
159.175519
 30
0.0
 10
187.312684
 20
168.108778
 30
0.0
 10
188.295134
 20
171.947618
 30
0.0
  0
LWPOLYLINE
  5
3a7
100
AcDbEntity
  8
0
 62
7
100
AcDbPolyline
 90
1
 70
1
 10
216.376210
 20
136.447784
 30
0.0
  0
SPLINE
  5
3a8
100
AcDbEntity
  8
0
 62
7
100
AcDbSpline
 70
8
 71
3
 72
8
 73
4
 74
0
 40
0
 40
0
 40
0
 40
0
 40
1
 40
1
 40
1
 40
1
 10
185.317646
 20
174.340827
 30
0.0
 10
183.482575
 20
174.885604
 30
0.0
 10
181.848773
 20
175.333835
 30
0.0
 10
181.686954
 20
175.336904
 30
0.0
  0
SPLINE
  5
3a9
100
AcDbEntity
  8
0
 62
7
100
AcDbSpline
 70
8
 71
3
 72
8
 73
4
 74
0
 40
0
 40
0
 40
0
 40
0
 40
1
 40
1
 40
1
 40
1
 10
181.686954
 20
175.336904
 30
0.0
 10
181.519235
 20
175.340079
 30
0.0
 10
181.319263
 20
174.624989
 30
0.0
 10
181.221764
 20
173.673257
 30
0.0
  0
SPLINE
  5
3aa
100
AcDbEntity
  8
0
 62
7
100
AcDbSpline
 70
8
 71
3
 72
8
 73
4
 74
0
 40
0
 40
0
 40
0
 40
0
 40
1
 40
1
 40
1
 40
1
 10
181.221764
 20
173.673257
 30
0.0
 10
180.650899
 20
168.101290
 30
0.0
 10
177.594617
 20
159.417136
 30
0.0
 10
174.026155
 20
153.227474
 30
0.0
  0
SPLINE
  5
3ab
100
AcDbEntity
  8
0
 62
7
100
AcDbSpline
 70
8
 71
3
 72
8
 73
4
 74
0
 40
0
 40
0
 40
0
 40
0
 40
1
 40
1
 40
1
 40
1
 10
174.026155
 20
153.227474
 30
0.0
 10
171.321584
 20
148.536332
 30
0.0
 10
167.373604
 20
143.900753
 30
0.0
 10
164.693613
 20
142.269596
 30
0.0
  0
SPLINE
  5
3ac
100
AcDbEntity
  8
0
 62
7
100
AcDbSpline
 70
8
 71
3
 72
8
 73
4
 74
0
 40
0
 40
0
 40
0
 40
0
 40
1
 40
1
 40
1
 40
1
 10
164.693613
 20
142.269596
 30
0.0
 10
163.447214
 20
141.510956
 30
0.0
 10
163.354292
 20
141.299607
 30
0.0
 10
164.187942
 20
141.119294
 30
0.0
  0
SPLINE
  5
3ad
100
AcDbEntity
  8
0
 62
7
100
AcDbSpline
 70
8
 71
3
 72
8
 73
4
 74
0
 40
0
 40
0
 40
0
 40
0
 40
1
 40
1
 40
1
 40
1
 10
164.187942
 20
141.119294
 30
0.0
 10
165.491358
 20
140.837380
 30
0.0
 10
167.665731
 20
141.235869
 30
0.0
 10
169.154912
 20
142.029566
 30
0.0
  0
LWPOLYLINE
  5
3ae
100
AcDbEntity
  8
0
 62
7
100
AcDbPolyline
 90
3
 70
0
 10
188.295134
 20
171.947618
 30
0.0
 10
188.654121
 20
173.350359
 30
0.0
 10
185.317646
 20
174.340827
 30
0.0
  0
SPLINE
  5
3af
100
AcDbEntity
  8
0
 62
7
100
AcDbSpline
 70
8
 71
3
 72
8
 73
4
 74
0
 40
0
 40
0
 40
0
 40
0
 40
1
 40
1
 40
1
 40
1
 10
180.048257
 20
142.864935
 30
0.0
 10
183.624868
 20
145.924841
 30
0.0
 10
187.158246
 20
150.017258
 30
0.0
 10
190.750230
 20
155.260082
 30
0.0
  0
SPLINE
  5
3b0
100
AcDbEntity
  8
0
 62
7
100
AcDbSpline
 70
8
 71
3
 72
8
 73
4
 74
0
 40
0
 40
0
 40
0
 40
0
 40
1
 40
1
 40
1
 40
1
 10
190.750230
 20
155.260082
 30
0.0
 10
192.220466
 20
157.406012
 30
0.0
 10
194.284296
 20
161.010510
 30
0.0
 10
194.284296
 20
161.432362
 30
0.0
  0
SPLINE
  5
3b1
100
AcDbEntity
  8
0
 62
7
100
AcDbSpline
 70
8
 71
3
 72
8
 73
4
 74
0
 40
0
 40
0
 40
0
 40
0
 40
1
 40
1
 40
1
 40
1
 10
194.284296
 20
161.432362
 30
0.0
 10
194.284296
 20
161.524569
 30
0.0
 10
193.925256
 20
161.334572
 30
0.0
 10
193.486418
 20
161.010140
 30
0.0
  0
SPLINE
  5
3b2
100
AcDbEntity
  8
0
 62
7
100
AcDbSpline
 70
8
 71
3
 72
8
 73
4
 74
0
 40
0
 40
0
 40
0
 40
0
 40
1
 40
1
 40
1
 40
1
 10
193.486418
 20
161.010140
 30
0.0
 10
192.315452
 20
160.144396
 30
0.0
 10
189.183156
 20
156.342466
 30
0.0
 10
184.813429
 20
150.482977
 30
0.0
  0
SPLINE
  5
3b3
100
AcDbEntity
  8
0
 62
7
100
AcDbSpline
 70
8
 71
3
 72
8
 73
4
 74
0
 40
0
 40
0
 40
0
 40
0
 40
1
 40
1
 40
1
 40
1
 10
184.813429
 20
150.482977
 30
0.0
 10
182.692609
 20
147.639103
 30
0.0
 10
180.360757
 20
144.597930
 30
0.0
 10
179.631538
 20
143.724805
 30
0.0
  0
SPLINE
  5
3b4
100
AcDbEntity
  8
0
 62
7
100
AcDbSpline
 70
8
 71
3
 72
8
 73
4
 74
0
 40
0
 40
0
 40
0
 40
0
 40
1
 40
1
 40
1
 40
1
 10
179.631538
 20
143.724805
 30
0.0
 10
178.902347
 20
142.851680
 30
0.0
 10
178.131959
 20
141.928945
 30
0.0
 10
177.919605
 20
141.674284
 30
0.0
  0
SPLINE
  5
3b5
100
AcDbEntity
  8
0
 62
7
100
AcDbSpline
 70
8
 71
3
 72
8
 73
4
 74
0
 40
0
 40
0
 40
0
 40
0
 40
1
 40
1
 40
1
 40
1
 10
177.919605
 20
141.674284
 30
0.0
 10
177.069261
 20
140.654527
 30
0.0
 10
178.211123
 20
141.293204
 30
0.0
 10
180.048257
 20
142.864935
 30
0.0
  0
LWPOLYLINE
  5
3b6
100
AcDbEntity
  8
0
 62
7
100
AcDbPolyline
 90
1
 70
1
 10
169.154912
 20
142.029566
 30
0.0
  0
SPLINE
  5
3b7
100
AcDbEntity
  8
0
 62
7
100
AcDbSpline
 70
8
 71
3
 72
8
 73
4
 74
0
 40
0
 40
0
 40
0
 40
0
 40
1
 40
1
 40
1
 40
1
 10
43.442792
 20
151.926888
 30
0.0
 10
43.490896
 20
159.962786
 30
0.0
 10
42.048980
 20
174.279285
 30
0.0
 10
40.511508
 20
181.031055
 30
0.0
  0
SPLINE
  5
3b8
100
AcDbEntity
  8
0
 62
7
100
AcDbSpline
 70
8
 71
3
 72
8
 73
4
 74
0
 40
0
 40
0
 40
0
 40
0
 40
1
 40
1
 40
1
 40
1
 10
40.511508
 20
181.031055
 30
0.0
 10
40.213272
 20
182.340742
 30
0.0
 10
39.894126
 20
183.552825
 30
0.0
 10
39.802292
 20
183.724566
 30
0.0
  0
SPLINE
  5
3b9
100
AcDbEntity
  8
0
 62
7
100
AcDbSpline
 70
8
 71
3
 72
8
 73
4
 74
0
 40
0
 40
0
 40
0
 40
0
 40
1
 40
1
 40
1
 40
1
 10
39.802292
 20
183.724566
 30
0.0
 10
39.710461
 20
183.896307
 30
0.0
 10
39.635324
 20
182.686341
 30
0.0
 10
39.635324
 20
181.035764
 30
0.0
  0
SPLINE
  5
3ba
100
AcDbEntity
  8
0
 62
7
100
AcDbSpline
 70
8
 71
3
 72
8
 73
4
 74
0
 40
0
 40
0
 40
0
 40
0
 40
1
 40
1
 40
1
 40
1
 10
39.635324
 20
181.035764
 30
0.0
 10
39.635324
 20
179.385214
 30
0.0
 10
39.545559
 20
177.944452
 30
0.0
 10
39.435844
 20
177.834121
 30
0.0
  0
SPLINE
  5
3bb
100
AcDbEntity
  8
0
 62
7
100
AcDbSpline
 70
8
 71
3
 72
8
 73
4
 74
0
 40
0
 40
0
 40
0
 40
0
 40
1
 40
1
 40
1
 40
1
 10
39.435844
 20
177.834121
 30
0.0
 10
39.326129
 20
177.723763
 30
0.0
 10
38.963952
 20
177.889392
 30
0.0
 10
38.631008
 20
178.202183
 30
0.0
  0
SPLINE
  5
3bc
100
AcDbEntity
  8
0
 62
7
100
AcDbSpline
 70
8
 71
3
 72
8
 73
4
 74
0
 40
0
 40
0
 40
0
 40
0
 40
1
 40
1
 40
1
 40
1
 10
38.631008
 20
178.202183
 30
0.0
 10
38.038318
 20
178.758998
 30
0.0
 10
38.048711
 20
178.655784
 30
0.0
 10
39.127816
 20
173.270164
 30
0.0
  0
SPLINE
  5
3bd
100
AcDbEntity
  8
0
 62
7
100
AcDbSpline
 70
8
 71
3
 72
8
 73
4
 74
0
 40
0
 40
0
 40
0
 40
0
 40
1
 40
1
 40
1
 40
1
 10
39.127816
 20
173.270164
 30
0.0
 10
39.734006
 20
170.244759
 30
0.0
 10
40.303545
 20
167.181414
 30
0.0
 10
40.393456
 20
166.462752
 30
0.0
  0
SPLINE
  5
3be
100
AcDbEntity
  8
0
 62
7
100
AcDbSpline
 70
8
 71
3
 72
8
 73
4
 74
0
 40
0
 40
0
 40
0
 40
0
 40
1
 40
1
 40
1
 40
1
 10
40.393456
 20
166.462752
 30
0.0
 10
40.483369
 20
165.744065
 30
0.0
 10
40.738475
 20
164.045784
 30
0.0
 10
40.960358
 20
162.688789
 30
0.0
  0
SPLINE
  5
3bf
100
AcDbEntity
  8
0
 62
7
100
AcDbSpline
 70
8
 71
3
 72
8
 73
4
 74
0
 40
0
 40
0
 40
0
 40
0
 40
1
 40
1
 40
1
 40
1
 10
40.960358
 20
162.688789
 30
0.0
 10
41.182240
 20
161.331767
 30
0.0
 10
41.658551
 20
157.587304
 30
0.0
 10
42.018823
 20
154.367749
 30
0.0
  0
SPLINE
  5
3c0
100
AcDbEntity
  8
0
 62
7
100
AcDbSpline
 70
8
 71
3
 72
8
 73
4
 74
0
 40
0
 40
0
 40
0
 40
0
 40
1
 40
1
 40
1
 40
1
 10
42.018823
 20
154.367749
 30
0.0
 10
42.379096
 20
151.148193
 30
0.0
 10
42.755923
 20
148.091276
 30
0.0
 10
42.856216
 20
147.574598
 30
0.0
  0
SPLINE
  5
3c1
100
AcDbEntity
  8
0
 62
7
100
AcDbSpline
 70
8
 71
3
 72
8
 73
4
 74
0
 40
0
 40
0
 40
0
 40
0
 40
1
 40
1
 40
1
 40
1
 10
42.856216
 20
147.574598
 30
0.0
 10
43.029447
 20
146.682211
 30
0.0
 10
43.048081
 20
146.668294
 30
0.0
 10
43.228800
 20
147.296680
 30
0.0
  0
SPLINE
  5
3c2
100
AcDbEntity
  8
0
 62
7
100
AcDbSpline
 70
8
 71
3
 72
8
 73
4
 74
0
 40
0
 40
0
 40
0
 40
0
 40
1
 40
1
 40
1
 40
1
 10
43.228800
 20
147.296680
 30
0.0
 10
43.333429
 20
147.660482
 30
0.0
 10
43.429727
 20
149.744075
 30
0.0
 10
43.442792
 20
151.926888
 30
0.0
  0
LWPOLYLINE
  5
3c3
100
AcDbEntity
  8
0
 62
7
100
AcDbPolyline
 90
1
 70
1
 10
180.048257
 20
142.864935
 30
0.0
  0
SPLINE
  5
3c4
100
AcDbEntity
  8
0
 62
7
100
AcDbSpline
 70
8
 71
3
 72
8
 73
4
 74
0
 40
0
 40
0
 40
0
 40
0
 40
1
 40
1
 40
1
 40
1
 10
140.408514
 20
148.326253
 30
0.0
 10
142.530288
 20
155.470982
 30
0.0
 10
145.600962
 20
175.477636
 30
0.0
 10
145.600962
 20
182.157042
 30
0.0
  0
LWPOLYLINE
  5
3c5
100
AcDbEntity
  8
0
 62
7
100
AcDbPolyline
 90
1
 70
1
 10
43.442792
 20
151.926888
 30
0.0
  0
SPLINE
  5
3c6
100
AcDbEntity
  8
0
 62
7
100
AcDbSpline
 70
8
 71
3
 72
8
 73
4
 74
0
 40
0
 40
0
 40
0
 40
0
 40
1
 40
1
 40
1
 40
1
 10
143.815025
 20
185.444172
 30
0.0
 10
137.931591
 20
187.720198
 30
0.0
 10
125.217515
 20
190.684298
 30
0.0
 10
121.325442
 20
190.687288
 30
0.0
  0
LWPOLYLINE
  5
3c7
100
AcDbEntity
  8
0
 62
7
100
AcDbPolyline
 90
3
 70
0
 10
145.600962
 20
182.157042
 30
0.0
 10
145.600962
 20
184.753266
 30
0.0
 10
143.815025
 20
185.444172
 30
0.0
  0
SPLINE
  5
3c8
100
AcDbEntity
  8
0
 62
7
100
AcDbSpline
 70
8
 71
3
 72
8
 73
4
 74
0
 40
0
 40
0
 40
0
 40
0
 40
1
 40
1
 40
1
 40
1
 10
119.939289
 20
185.990934
 30
0.0
 10
119.945375
 20
175.752220
 30
0.0
 10
121.767322
 20
153.263616
 30
0.0
 10
122.659286
 20
152.415415
 30
0.0
  0
SPLINE
  5
3c9
100
AcDbEntity
  8
0
 62
7
100
AcDbSpline
 70
8
 71
3
 72
8
 73
4
 74
0
 40
0
 40
0
 40
0
 40
0
 40
1
 40
1
 40
1
 40
1
 10
122.659286
 20
152.415415
 30
0.0
 10
123.025707
 20
152.066985
 30
0.0
 10
130.064153
 20
149.229646
 30
0.0
 10
132.636432
 20
148.393430
 30
0.0
  0
SPLINE
  5
3ca
100
AcDbEntity
  8
0
 62
7
100
AcDbSpline
 70
8
 71
3
 72
8
 73
4
 74
0
 40
0
 40
0
 40
0
 40
0
 40
1
 40
1
 40
1
 40
1
 10
132.636432
 20
148.393430
 30
0.0
 10
135.236307
 20
147.548245
 30
0.0
 10
137.392873
 20
147.077578
 30
0.0
 10
138.777755
 20
147.053078
 30
0.0
  0
LWPOLYLINE
  5
3cb
100
AcDbEntity
  8
0
 62
7
100
AcDbPolyline
 90
3
 70
0
 10
121.325442
 20
190.687288
 30
0.0
 10
119.936379
 20
190.687288
 30
0.0
 10
119.939289
 20
185.990934
 30
0.0
  0
SPLINE
  5
3cc
100
AcDbEntity
  8
0
 62
7
100
AcDbSpline
 70
8
 71
3
 72
8
 73
4
 74
0
 40
0
 40
0
 40
0
 40
0
 40
1
 40
1
 40
1
 40
1
 10
17.691810
 20
154.241992
 30
0.0
 10
17.180058
 20
160.322249
 30
0.0
 10
15.470797
 20
169.474451
 30
0.0
 10
13.948739
 20
174.284180
 30
0.0
  0
SPLINE
  5
3cd
100
AcDbEntity
  8
0
 62
7
100
AcDbSpline
 70
8
 71
3
 72
8
 73
4
 74
0
 40
0
 40
0
 40
0
 40
0
 40
1
 40
1
 40
1
 40
1
 10
13.948739
 20
174.284180
 30
0.0
 10
13.001735
 20
177.276749
 30
0.0
 10
12.136081
 20
179.311263
 30
0.0
 10
11.809802
 20
179.311263
 30
0.0
  0
SPLINE
  5
3ce
100
AcDbEntity
  8
0
 62
7
100
AcDbSpline
 70
8
 71
3
 72
8
 73
4
 74
0
 40
0
 40
0
 40
0
 40
0
 40
1
 40
1
 40
1
 40
1
 10
11.809802
 20
179.311263
 30
0.0
 10
11.417952
 20
179.311263
 30
0.0
 10
9.298544
 20
177.351706
 30
0.0
 10
8.939552
 20
176.657492
 30
0.0
  0
SPLINE
  5
3cf
100
AcDbEntity
  8
0
 62
7
100
AcDbSpline
 70
8
 71
3
 72
8
 73
4
 74
0
 40
0
 40
0
 40
0
 40
0
 40
1
 40
1
 40
1
 40
1
 10
8.939552
 20
176.657492
 30
0.0
 10
8.314990
 20
175.449722
 30
0.0
 10
8.467247
 20
174.755138
 30
0.0
 10
9.728653
 20
173.057677
 30
0.0
  0
SPLINE
  5
3d0
100
AcDbEntity
  8
0
 62
7
100
AcDbSpline
 70
8
 71
3
 72
8
 73
4
 74
0
 40
0
 40
0
 40
0
 40
0
 40
1
 40
1
 40
1
 40
1
 10
9.728653
 20
173.057677
 30
0.0
 10
11.913056
 20
170.118130
 30
0.0
 10
13.508430
 20
166.024761
 30
0.0
 10
13.602013
 20
163.119451
 30
0.0
  0
LWPOLYLINE
  5
3d1
100
AcDbEntity
  8
0
 62
7
100
AcDbPolyline
 90
4
 70
0
 10
138.777755
 20
147.053078
 30
0.0
 10
140.024260
 20
147.031117
 30
0.0
 10
140.408594
 20
148.325274
 30
0.0
 10
140.408514
 20
148.326253
 30
0.0
  0
SPLINE
  5
3d2
100
AcDbEntity
  8
0
 62
7
100
AcDbSpline
 70
8
 71
3
 72
8
 73
4
 74
0
 40
0
 40
0
 40
0
 40
0
 40
1
 40
1
 40
1
 40
1
 10
13.917672
 20
162.973242
 30
0.0
 10
14.075805
 20
163.373424
 30
0.0
 10
14.357737
 20
163.700846
 30
0.0
 10
14.544189
 20
163.700846
 30
0.0
  0
SPLINE
  5
3d3
100
AcDbEntity
  8
0
 62
7
100
AcDbSpline
 70
8
 71
3
 72
8
 73
4
 74
0
 40
0
 40
0
 40
0
 40
0
 40
1
 40
1
 40
1
 40
1
 10
14.544189
 20
163.700846
 30
0.0
 10
15.156017
 20
163.700846
 30
0.0
 10
15.595477
 20
162.315197
 30
0.0
 10
16.621044
 20
157.152409
 30
0.0
  0
SPLINE
  5
3d4
100
AcDbEntity
  8
0
 62
7
100
AcDbSpline
 70
8
 71
3
 72
8
 73
4
 74
0
 40
0
 40
0
 40
0
 40
0
 40
1
 40
1
 40
1
 40
1
 10
16.621044
 20
157.152409
 30
0.0
 10
17.177502
 20
154.351133
 30
0.0
 10
17.687405
 20
152.059180
 30
0.0
 10
17.754159
 20
152.059180
 30
0.0
  0
SPLINE
  5
3d5
100
AcDbEntity
  8
0
 62
7
100
AcDbSpline
 70
8
 71
3
 72
8
 73
4
 74
0
 40
0
 40
0
 40
0
 40
0
 40
1
 40
1
 40
1
 40
1
 10
17.754159
 20
152.059180
 30
0.0
 10
17.820914
 20
152.059180
 30
0.0
 10
17.792855
 20
153.041445
 30
0.0
 10
17.691810
 20
154.241992
 30
0.0
  0
LWPOLYLINE
  5
3d6
100
AcDbEntity
  8
0
 62
7
100
AcDbPolyline
 90
3
 70
0
 10
13.602013
 20
163.119451
 30
0.0
 10
13.630160
 20
162.245638
 30
0.0
 10
13.917672
 20
162.973242
 30
0.0
  0
SPLINE
  5
3d7
100
AcDbEntity
  8
0
 62
7
100
AcDbSpline
 70
8
 71
3
 72
8
 73
4
 74
0
 40
0
 40
0
 40
0
 40
0
 40
1
 40
1
 40
1
 40
1
 10
105.382867
 20
169.124805
 30
0.0
 10
106.397862
 20
178.416945
 30
0.0
 10
108.668674
 20
185.497803
 30
0.0
 10
112.095267
 20
190.055595
 30
0.0
  0
SPLINE
  5
3d8
100
AcDbEntity
  8
0
 62
7
100
AcDbSpline
 70
8
 71
3
 72
8
 73
4
 74
0
 40
0
 40
0
 40
0
 40
0
 40
1
 40
1
 40
1
 40
1
 10
112.095267
 20
190.055595
 30
0.0
 10
112.763551
 20
190.944489
 30
0.0
 10
114.157641
 20
192.471082
 30
0.0
 10
115.193247
 20
193.448030
 30
0.0
  0
SPLINE
  5
3d9
100
AcDbEntity
  8
0
 62
7
100
AcDbSpline
 70
8
 71
3
 72
8
 73
4
 74
0
 40
0
 40
0
 40
0
 40
0
 40
1
 40
1
 40
1
 40
1
 10
115.193247
 20
193.448030
 30
0.0
 10
116.228852
 20
194.424951
 30
0.0
 10
117.011992
 20
195.288419
 30
0.0
 10
116.933570
 20
195.366841
 30
0.0
  0
SPLINE
  5
3da
100
AcDbEntity
  8
0
 62
7
100
AcDbSpline
 70
8
 71
3
 72
8
 73
4
 74
0
 40
0
 40
0
 40
0
 40
0
 40
1
 40
1
 40
1
 40
1
 10
116.933570
 20
195.366841
 30
0.0
 10
116.855174
 20
195.445237
 30
0.0
 10
116.040204
 20
195.568295
 30
0.0
 10
115.122550
 20
195.640262
 30
0.0
  0
SPLINE
  5
3db
100
AcDbEntity
  8
0
 62
7
100
AcDbSpline
 70
8
 71
3
 72
8
 73
4
 74
0
 40
0
 40
0
 40
0
 40
0
 40
1
 40
1
 40
1
 40
1
 10
115.122550
 20
195.640262
 30
0.0
 10
113.454669
 20
195.771098
 30
0.0
 10
113.453399
 20
195.770648
 30
0.0
 10
111.602004
 20
194.411854
 30
0.0
  0
SPLINE
  5
3dc
100
AcDbEntity
  8
0
 62
7
100
AcDbSpline
 70
8
 71
3
 72
8
 73
4
 74
0
 40
0
 40
0
 40
0
 40
0
 40
1
 40
1
 40
1
 40
1
 10
111.602004
 20
194.411854
 30
0.0
 10
110.583358
 20
193.664247
 30
0.0
 10
109.511796
 20
193.006387
 30
0.0
 10
109.220754
 20
192.949952
 30
0.0
  0
SPLINE
  5
3dd
100
AcDbEntity
  8
0
 62
7
100
AcDbSpline
 70
8
 71
3
 72
8
 73
4
 74
0
 40
0
 40
0
 40
0
 40
0
 40
1
 40
1
 40
1
 40
1
 10
109.220754
 20
192.949952
 30
0.0
 10
107.770573
 20
192.668753
 30
0.0
 10
105.017530
 20
191.997267
 30
0.0
 10
104.921645
 20
191.901408
 30
0.0
  0
SPLINE
  5
3de
100
AcDbEntity
  8
0
 62
7
100
AcDbSpline
 70
8
 71
3
 72
8
 73
4
 74
0
 40
0
 40
0
 40
0
 40
0
 40
1
 40
1
 40
1
 40
1
 10
104.921645
 20
191.901408
 30
0.0
 10
104.861797
 20
191.841559
 30
0.0
 10
105.017081
 20
191.480879
 30
0.0
 10
105.266688
 20
191.099932
 30
0.0
  0
SPLINE
  5
3df
100
AcDbEntity
  8
0
 62
7
100
AcDbSpline
 70
8
 71
3
 72
8
 73
4
 74
0
 40
0
 40
0
 40
0
 40
0
 40
1
 40
1
 40
1
 40
1
 10
105.266688
 20
191.099932
 30
0.0
 10
105.516323
 20
190.718959
 30
0.0
 10
105.674649
 20
190.372460
 30
0.0
 10
105.618558
 20
190.329942
 30
0.0
  0
SPLINE
  5
3e0
100
AcDbEntity
  8
0
 62
7
100
AcDbSpline
 70
8
 71
3
 72
8
 73
4
 74
0
 40
0
 40
0
 40
0
 40
0
 40
1
 40
1
 40
1
 40
1
 10
105.618558
 20
190.329942
 30
0.0
 10
105.384296
 20
190.152353
 30
0.0
 10
102.819398
 20
189.574609
 30
0.0
 10
102.209296
 20
189.561962
 30
0.0
  0
SPLINE
  5
3e1
100
AcDbEntity
  8
0
 62
7
100
AcDbSpline
 70
8
 71
3
 72
8
 73
4
 74
0
 40
0
 40
0
 40
0
 40
0
 40
1
 40
1
 40
1
 40
1
 10
102.209296
 20
189.561962
 30
0.0
 10
101.845494
 20
189.554554
 30
0.0
 10
100.630924
 20
189.798447
 30
0.0
 10
99.510281
 20
190.104173
 30
0.0
  0
SPLINE
  5
3e2
100
AcDbEntity
  8
0
 62
7
100
AcDbSpline
 70
8
 71
3
 72
8
 73
4
 74
0
 40
0
 40
0
 40
0
 40
0
 40
1
 40
1
 40
1
 40
1
 10
99.510281
 20
190.104173
 30
0.0
 10
95.489038
 20
191.201268
 30
0.0
 10
82.243652
 20
193.096875
 30
0.0
 10
72.443658
 20
193.977832
 30
0.0
  0
SPLINE
  5
3e3
100
AcDbEntity
  8
0
 62
7
100
AcDbSpline
 70
8
 71
3
 72
8
 73
4
 74
0
 40
0
 40
0
 40
0
 40
0
 40
1
 40
1
 40
1
 40
1
 10
72.443658
 20
193.977832
 30
0.0
 10
69.969803
 20
194.200214
 30
0.0
 10
67.171835
 20
194.455775
 30
0.0
 10
66.225949
 20
194.545733
 30
0.0
  0
SPLINE
  5
3e4
100
AcDbEntity
  8
0
 62
7
100
AcDbSpline
 70
8
 71
3
 72
8
 73
4
 74
0
 40
0
 40
0
 40
0
 40
0
 40
1
 40
1
 40
1
 40
1
 10
66.225949
 20
194.545733
 30
0.0
 10
65.280064
 20
194.635692
 30
0.0
 10
64.570681
 20
194.642941
 30
0.0
 10
64.649543
 20
194.561873
 30
0.0
  0
SPLINE
  5
3e5
100
AcDbEntity
  8
0
 62
7
100
AcDbSpline
 70
8
 71
3
 72
8
 73
4
 74
0
 40
0
 40
0
 40
0
 40
0
 40
1
 40
1
 40
1
 40
1
 10
64.649543
 20
194.561873
 30
0.0
 10
64.842890
 20
194.363065
 30
0.0
 10
68.577505
 20
193.718222
 30
0.0
 10
74.031158
 20
192.941961
 30
0.0
  0
SPLINE
  5
3e6
100
AcDbEntity
  8
0
 62
7
100
AcDbSpline
 70
8
 71
3
 72
8
 73
4
 74
0
 40
0
 40
0
 40
0
 40
0
 40
1
 40
1
 40
1
 40
1
 10
74.031158
 20
192.941961
 30
0.0
 10
91.036338
 20
190.521500
 30
0.0
 10
99.206275
 20
188.628803
 30
0.0
 10
102.738039
 20
186.291580
 30
0.0
  0
LWPOLYLINE
  5
3e7
100
AcDbEntity
  8
0
 62
7
100
AcDbPolyline
 90
1
 70
1
 10
17.691810
 20
154.241992
 30
0.0
  0
SPLINE
  5
3e8
100
AcDbEntity
  8
0
 62
7
100
AcDbSpline
 70
8
 71
3
 72
8
 73
4
 74
0
 40
0
 40
0
 40
0
 40
0
 40
1
 40
1
 40
1
 40
1
 10
103.802881
 20
176.034980
 30
0.0
 10
103.811348
 20
162.674528
 30
0.0
 10
104.520775
 20
153.780135
 30
0.0
 10
104.902860
 20
162.245638
 30
0.0
  0
SPLINE
  5
3e9
100
AcDbEntity
  8
0
 62
7
100
AcDbSpline
 70
8
 71
3
 72
8
 73
4
 74
0
 40
0
 40
0
 40
0
 40
0
 40
1
 40
1
 40
1
 40
1
 10
104.902860
 20
162.245638
 30
0.0
 10
105.007952
 20
164.573971
 30
0.0
 10
105.223985
 20
167.669596
 30
0.0
 10
105.382946
 20
169.124805
 30
0.0
  0
LWPOLYLINE
  5
3ea
100
AcDbEntity
  8
0
 62
7
100
AcDbPolyline
 90
3
 70
0
 10
102.738039
 20
186.291580
 30
0.0
 10
103.796796
 20
185.590963
 30
0.0
 10
103.802881
 20
176.034980
 30
0.0
  0
SPLINE
  5
3eb
100
AcDbEntity
  8
0
 62
7
100
AcDbSpline
 70
8
 71
3
 72
8
 73
4
 74
0
 40
0
 40
0
 40
0
 40
0
 40
1
 40
1
 40
1
 40
1
 10
222.272185
 20
170.858064
 30
0.0
 10
225.579874
 20
171.296081
 30
0.0
 10
232.494362
 20
172.712025
 30
0.0
 10
232.781171
 20
173.010105
 30
0.0
  0
SPLINE
  5
3ec
100
AcDbEntity
  8
0
 62
7
100
AcDbSpline
 70
8
 71
3
 72
8
 73
4
 74
0
 40
0
 40
0
 40
0
 40
0
 40
1
 40
1
 40
1
 40
1
 10
232.781171
 20
173.010105
 30
0.0
 10
233.168600
 20
173.412801
 30
0.0
 10
223.360734
 20
173.102789
 30
0.0
 10
218.493671
 20
172.558514
 30
0.0
  0
SPLINE
  5
3ed
100
AcDbEntity
  8
0
 62
7
100
AcDbSpline
 70
8
 71
3
 72
8
 73
4
 74
0
 40
0
 40
0
 40
0
 40
0
 40
1
 40
1
 40
1
 40
1
 10
218.493671
 20
172.558514
 30
0.0
 10
212.838652
 20
171.926134
 30
0.0
 10
207.128070
 20
172.117110
 30
0.0
 10
202.883254
 20
173.080590
 30
0.0
  0
SPLINE
  5
3ee
100
AcDbEntity
  8
0
 62
7
100
AcDbSpline
 70
8
 71
3
 72
8
 73
4
 74
0
 40
0
 40
0
 40
0
 40
0
 40
1
 40
1
 40
1
 40
1
 10
202.883254
 20
173.080590
 30
0.0
 10
197.257419
 20
174.357522
 30
0.0
 10
192.140403
 20
176.165552
 30
0.0
 10
182.153335
 20
180.405209
 30
0.0
  0
SPLINE
  5
3ef
100
AcDbEntity
  8
0
 62
7
100
AcDbSpline
 70
8
 71
3
 72
8
 73
4
 74
0
 40
0
 40
0
 40
0
 40
0
 40
1
 40
1
 40
1
 40
1
 10
182.153335
 20
180.405209
 30
0.0
 10
175.997857
 20
183.018314
 30
0.0
 10
174.321536
 20
183.611483
 30
0.0
 10
167.697454
 20
185.520319
 30
0.0
  0
SPLINE
  5
3f0
100
AcDbEntity
  8
0
 62
7
100
AcDbSpline
 70
8
 71
3
 72
8
 73
4
 74
0
 40
0
 40
0
 40
0
 40
0
 40
1
 40
1
 40
1
 40
1
 10
167.697454
 20
185.520319
 30
0.0
 10
153.922611
 20
189.489810
 30
0.0
 10
137.129877
 20
193.304758
 30
0.0
 10
127.545187
 20
194.642041
 30
0.0
  0
SPLINE
  5
3f1
100
AcDbEntity
  8
0
 62
7
100
AcDbSpline
 70
8
 71
3
 72
8
 73
4
 74
0
 40
0
 40
0
 40
0
 40
0
 40
1
 40
1
 40
1
 40
1
 10
127.545187
 20
194.642041
 30
0.0
 10
123.200120
 20
195.248281
 30
0.0
 10
120.231919
 20
195.360253
 30
0.0
 10
123.905129
 20
194.779360
 30
0.0
  0
SPLINE
  5
3f2
100
AcDbEntity
  8
0
 62
7
100
AcDbSpline
 70
8
 71
3
 72
8
 73
4
 74
0
 40
0
 40
0
 40
0
 40
0
 40
1
 40
1
 40
1
 40
1
 10
123.905129
 20
194.779360
 30
0.0
 10
132.857306
 20
193.363601
 30
0.0
 10
158.969617
 20
187.014263
 30
0.0
 10
171.794712
 20
183.134757
 30
0.0
  0
SPLINE
  5
3f3
100
AcDbEntity
  8
0
 62
7
100
AcDbSpline
 70
8
 71
3
 72
8
 73
4
 74
0
 40
0
 40
0
 40
0
 40
0
 40
1
 40
1
 40
1
 40
1
 10
171.794712
 20
183.134757
 30
0.0
 10
178.281079
 20
181.172660
 30
0.0
 10
181.103230
 20
180.151950
 30
0.0
 10
192.916664
 20
175.495336
 30
0.0
  0
SPLINE
  5
3f4
100
AcDbEntity
  8
0
 62
7
100
AcDbSpline
 70
8
 71
3
 72
8
 73
4
 74
0
 40
0
 40
0
 40
0
 40
0
 40
1
 40
1
 40
1
 40
1
 10
192.916664
 20
175.495336
 30
0.0
 10
200.405590
 20
172.543354
 30
0.0
 10
205.345652
 20
171.141538
 30
0.0
 10
210.291587
 20
170.564932
 30
0.0
  0
SPLINE
  5
3f5
100
AcDbEntity
  8
0
 62
7
100
AcDbSpline
 70
8
 71
3
 72
8
 73
4
 74
0
 40
0
 40
0
 40
0
 40
0
 40
1
 40
1
 40
1
 40
1
 10
210.291587
 20
170.564932
 30
0.0
 10
212.493582
 20
170.308206
 30
0.0
 10
219.395053
 20
170.477064
 30
0.0
 10
222.272185
 20
170.858064
 30
0.0
  0
LWPOLYLINE
  5
3f6
100
AcDbEntity
  8
0
 62
7
100
AcDbPolyline
 90
1
 70
1
 10
105.382946
 20
169.124805
 30
0.0
  0
SPLINE
  5
3f7
100
AcDbEntity
  8
0
 62
7
100
AcDbSpline
 70
8
 71
3
 72
8
 73
4
 74
0
 40
0
 40
0
 40
0
 40
0
 40
1
 40
1
 40
1
 40
1
 10
199.563977
 20
179.377171
 30
0.0
 10
200.516450
 20
179.990872
 30
0.0
 10
202.010129
 20
181.044892
 30
0.0
 10
202.883254
 20
181.719421
 30
0.0
  0
SPLINE
  5
3f8
100
AcDbEntity
  8
0
 62
7
100
AcDbSpline
 70
8
 71
3
 72
8
 73
4
 74
0
 40
0
 40
0
 40
0
 40
0
 40
1
 40
1
 40
1
 40
1
 10
202.883254
 20
181.719421
 30
0.0
 10
205.308822
 20
183.593359
 30
0.0
 10
208.279881
 20
185.495819
 30
0.0
 10
209.894712
 20
186.209109
 30
0.0
  0
SPLINE
  5
3f9
100
AcDbEntity
  8
0
 62
7
100
AcDbSpline
 70
8
 71
3
 72
8
 73
4
 74
0
 40
0
 40
0
 40
0
 40
0
 40
1
 40
1
 40
1
 40
1
 10
209.894712
 20
186.209109
 30
0.0
 10
211.286923
 20
186.824080
 30
0.0
 10
211.558889
 20
186.848739
 30
0.0
 10
216.178567
 20
186.778916
 30
0.0
  0
LWPOLYLINE
  5
3fa
100
AcDbEntity
  8
0
 62
7
100
AcDbPolyline
 90
1
 70
1
 10
222.272185
 20
170.858064
 30
0.0
  0
SPLINE
  5
3fb
100
AcDbEntity
  8
0
 62
7
100
AcDbSpline
 70
8
 71
3
 72
8
 73
4
 74
0
 40
0
 40
0
 40
0
 40
0
 40
1
 40
1
 40
1
 40
1
 10
221.007212
 20
187.490116
 30
0.0
 10
221.007212
 20
187.921387
 30
0.0
 10
220.833275
 20
189.025784
 30
0.0
 10
220.620683
 20
189.944311
 30
0.0
  0
SPLINE
  5
3fc
100
AcDbEntity
  8
0
 62
7
100
AcDbSpline
 70
8
 71
3
 72
8
 73
4
 74
0
 40
0
 40
0
 40
0
 40
0
 40
1
 40
1
 40
1
 40
1
 10
220.620683
 20
189.944311
 30
0.0
 10
220.408090
 20
190.862865
 30
0.0
 10
220.126018
 20
192.566888
 30
0.0
 10
219.993832
 20
193.731055
 30
0.0
  0
LWPOLYLINE
  5
3fd
100
AcDbEntity
  8
0
 62
7
100
AcDbPolyline
 90
3
 70
0
 10
216.178567
 20
186.778916
 30
0.0
 10
221.007212
 20
186.705970
 30
0.0
 10
221.007212
 20
187.490116
 30
0.0
  0
SPLINE
  5
3fe
100
AcDbEntity
  8
0
 62
7
100
AcDbSpline
 70
8
 71
3
 72
8
 73
4
 74
0
 40
0
 40
0
 40
0
 40
0
 40
1
 40
1
 40
1
 40
1
 10
219.725200
 20
194.127930
 30
0.0
 10
219.709590
 20
193.182044
 30
0.0
 10
219.800580
 20
191.961654
 30
0.0
 10
219.927316
 20
191.415950
 30
0.0
  0
LWPOLYLINE
  5
3ff
100
AcDbEntity
  8
0
 62
7
100
AcDbPolyline
 90
3
 70
0
 10
219.993832
 20
193.731055
 30
0.0
 10
219.753484
 20
195.847721
 30
0.0
 10
219.725200
 20
194.127930
 30
0.0
  0
SPLINE
  5
400
100
AcDbEntity
  8
0
 62
7
100
AcDbSpline
 70
8
 71
3
 72
8
 73
4
 74
0
 40
0
 40
0
 40
0
 40
0
 40
1
 40
1
 40
1
 40
1
 10
217.865153
 20
190.423763
 30
0.0
 10
216.373168
 20
190.423763
 30
0.0
 10
214.881500
 20
190.234242
 30
0.0
 10
213.593561
 20
189.881050
 30
0.0
  0
SPLINE
  5
401
100
AcDbEntity
  8
0
 62
7
100
AcDbSpline
 70
8
 71
3
 72
8
 73
4
 74
0
 40
0
 40
0
 40
0
 40
0
 40
1
 40
1
 40
1
 40
1
 10
213.593561
 20
189.881050
 30
0.0
 10
210.910527
 20
189.145323
 30
0.0
 10
204.874984
 20
186.164262
 30
0.0
 10
200.773414
 20
183.548962
 30
0.0
  0
SPLINE
  5
402
100
AcDbEntity
  8
0
 62
7
100
AcDbSpline
 70
8
 71
3
 72
8
 73
4
 74
0
 40
0
 40
0
 40
0
 40
0
 40
1
 40
1
 40
1
 40
1
 10
200.773414
 20
183.548962
 30
0.0
 10
198.918393
 20
182.366142
 30
0.0
 10
197.355473
 20
181.443540
 30
0.0
 10
197.300281
 20
181.498732
 30
0.0
  0
SPLINE
  5
403
100
AcDbEntity
  8
0
 62
7
100
AcDbSpline
 70
8
 71
3
 72
8
 73
4
 74
0
 40
0
 40
0
 40
0
 40
0
 40
1
 40
1
 40
1
 40
1
 10
197.300281
 20
181.498732
 30
0.0
 10
197.245089
 20
181.553924
 30
0.0
 10
197.506392
 20
182.214113
 30
0.0
 10
197.880962
 20
182.965767
 30
0.0
  0
SPLINE
  5
404
100
AcDbEntity
  8
0
 62
7
100
AcDbSpline
 70
8
 71
3
 72
8
 73
4
 74
0
 40
0
 40
0
 40
0
 40
0
 40
1
 40
1
 40
1
 40
1
 10
197.880962
 20
182.965767
 30
0.0
 10
198.722522
 20
184.654523
 30
0.0
 10
200.094916
 20
185.878830
 30
0.0
 10
204.338462
 20
188.726355
 30
0.0
  0
SPLINE
  5
405
100
AcDbEntity
  8
0
 62
7
100
AcDbSpline
 70
8
 71
3
 72
8
 73
4
 74
0
 40
0
 40
0
 40
0
 40
0
 40
1
 40
1
 40
1
 40
1
 10
204.338462
 20
188.726355
 30
0.0
 10
207.983601
 20
191.172349
 30
0.0
 10
209.894712
 20
192.788106
 30
0.0
 10
209.894712
 20
193.423926
 30
0.0
  0
SPLINE
  5
406
100
AcDbEntity
  8
0
 62
7
100
AcDbSpline
 70
8
 71
3
 72
8
 73
4
 74
0
 40
0
 40
0
 40
0
 40
0
 40
1
 40
1
 40
1
 40
1
 10
209.894712
 20
193.423926
 30
0.0
 10
209.894712
 20
193.841254
 30
0.0
 10
209.185470
 20
194.047338
 30
0.0
 10
207.253139
 20
194.191456
 30
0.0
  0
SPLINE
  5
407
100
AcDbEntity
  8
0
 62
7
100
AcDbSpline
 70
8
 71
3
 72
8
 73
4
 74
0
 40
0
 40
0
 40
0
 40
0
 40
1
 40
1
 40
1
 40
1
 10
207.253139
 20
194.191456
 30
0.0
 10
206.432825
 20
194.252654
 30
0.0
 10
206.869625
 20
194.526974
 30
0.0
 10
211.221889
 20
196.683990
 30
0.0
  0
SPLINE
  5
408
100
AcDbEntity
  8
0
 62
7
100
AcDbSpline
 70
8
 71
3
 72
8
 73
4
 74
0
 40
0
 40
0
 40
0
 40
0
 40
1
 40
1
 40
1
 40
1
 10
211.221889
 20
196.683990
 30
0.0
 10
215.250832
 20
198.680774
 30
0.0
 10
218.749867
 20
200.213346
 30
0.0
 10
219.279748
 20
200.213346
 30
0.0
  0
SPLINE
  5
409
100
AcDbEntity
  8
0
 62
7
100
AcDbSpline
 70
8
 71
3
 72
8
 73
4
 74
0
 40
0
 40
0
 40
0
 40
0
 40
1
 40
1
 40
1
 40
1
 10
219.279748
 20
200.213346
 30
0.0
 10
219.337401
 20
200.213346
 30
0.0
 10
219.444081
 20
199.885924
 30
0.0
 10
219.516841
 20
199.485742
 30
0.0
  0
SPLINE
  5
40a
100
AcDbEntity
  8
0
 62
7
100
AcDbSpline
 70
8
 71
3
 72
8
 73
4
 74
0
 40
0
 40
0
 40
0
 40
0
 40
1
 40
1
 40
1
 40
1
 10
219.516841
 20
199.485742
 30
0.0
 10
219.589575
 20
199.085560
 30
0.0
 10
219.600158
 20
201.258450
 30
0.0
 10
219.540389
 20
204.314388
 30
0.0
  0
SPLINE
  5
40b
100
AcDbEntity
  8
0
 62
7
100
AcDbSpline
 70
8
 71
3
 72
8
 73
4
 74
0
 40
0
 40
0
 40
0
 40
0
 40
1
 40
1
 40
1
 40
1
 10
219.540389
 20
204.314388
 30
0.0
 10
219.432703
 20
209.813401
 30
0.0
 10
219.040538
 20
213.832054
 30
0.0
 10
218.236469
 20
217.675846
 30
0.0
  0
SPLINE
  5
40c
100
AcDbEntity
  8
0
 62
7
100
AcDbSpline
 70
8
 71
3
 72
8
 73
4
 74
0
 40
0
 40
0
 40
0
 40
0
 40
1
 40
1
 40
1
 40
1
 10
218.236469
 20
217.675846
 30
0.0
 10
216.674951
 20
225.140631
 30
0.0
 10
212.175421
 20
233.443415
 30
0.0
 10
205.422725
 20
241.320534
 30
0.0
  0
SPLINE
  5
40d
100
AcDbEntity
  8
0
 62
7
100
AcDbSpline
 70
8
 71
3
 72
8
 73
4
 74
0
 40
0
 40
0
 40
0
 40
0
 40
1
 40
1
 40
1
 40
1
 10
205.422725
 20
241.320534
 30
0.0
 10
203.908991
 20
243.086321
 30
0.0
 10
202.186103
 20
245.185898
 30
0.0
 10
201.594098
 20
245.986263
 30
0.0
  0
SPLINE
  5
40e
100
AcDbEntity
  8
0
 62
7
100
AcDbSpline
 70
8
 71
3
 72
8
 73
4
 74
0
 40
0
 40
0
 40
0
 40
0
 40
1
 40
1
 40
1
 40
1
 10
201.594098
 20
245.986263
 30
0.0
 10
197.268690
 20
251.833885
 30
0.0
 10
191.810151
 20
257.440724
 30
0.0
 10
187.737155
 20
260.219645
 30
0.0
  0
SPLINE
  5
40f
100
AcDbEntity
  8
0
 62
7
100
AcDbSpline
 70
8
 71
3
 72
8
 73
4
 74
0
 40
0
 40
0
 40
0
 40
0
 40
1
 40
1
 40
1
 40
1
 10
187.737155
 20
260.219645
 30
0.0
 10
186.394421
 20
261.135765
 30
0.0
 10
182.883162
 20
263.119105
 30
0.0
 10
179.934354
 20
264.627072
 30
0.0
  0
SPLINE
  5
410
100
AcDbEntity
  8
0
 62
7
100
AcDbSpline
 70
8
 71
3
 72
8
 73
4
 74
0
 40
0
 40
0
 40
0
 40
0
 40
1
 40
1
 40
1
 40
1
 10
179.934354
 20
264.627072
 30
0.0
 10
168.963697
 20
270.237257
 30
0.0
 10
161.653339
 20
272.757805
 30
0.0
 10
154.198915
 20
273.500435
 30
0.0
  0
SPLINE
  5
411
100
AcDbEntity
  8
0
 62
7
100
AcDbSpline
 70
8
 71
3
 72
8
 73
4
 74
0
 40
0
 40
0
 40
0
 40
0
 40
1
 40
1
 40
1
 40
1
 10
154.198915
 20
273.500435
 30
0.0
 10
149.602309
 20
273.958360
 30
0.0
 10
147.941758
 20
273.656925
 30
0.0
 10
139.691203
 20
270.866920
 30
0.0
  0
SPLINE
  5
412
100
AcDbEntity
  8
0
 62
7
100
AcDbSpline
 70
8
 71
3
 72
8
 73
4
 74
0
 40
0
 40
0
 40
0
 40
0
 40
1
 40
1
 40
1
 40
1
 10
139.691203
 20
270.866920
 30
0.0
 10
135.785979
 20
269.546327
 30
0.0
 10
132.214104
 20
268.275234
 30
0.0
 10
131.753703
 20
268.042268
 30
0.0
  0
SPLINE
  5
413
100
AcDbEntity
  8
0
 62
7
100
AcDbSpline
 70
8
 71
3
 72
8
 73
4
 74
0
 40
0
 40
0
 40
0
 40
0
 40
1
 40
1
 40
1
 40
1
 10
131.753703
 20
268.042268
 30
0.0
 10
131.293328
 20
267.809305
 30
0.0
 10
127.999609
 20
264.685169
 30
0.0
 10
124.434349
 20
261.099742
 30
0.0
  0
SPLINE
  5
414
100
AcDbEntity
  8
0
 62
7
100
AcDbSpline
 70
8
 71
3
 72
8
 73
4
 74
0
 40
0
 40
0
 40
0
 40
0
 40
1
 40
1
 40
1
 40
1
 10
124.434349
 20
261.099742
 30
0.0
 10
119.443566
 20
256.080747
 30
0.0
 10
117.373704
 20
254.190423
 30
0.0
 10
115.438515
 20
252.884252
 30
0.0
  0
SPLINE
  5
415
100
AcDbEntity
  8
0
 62
7
100
AcDbSpline
 70
8
 71
3
 72
8
 73
4
 74
0
 40
0
 40
0
 40
0
 40
0
 40
1
 40
1
 40
1
 40
1
 10
115.438515
 20
252.884252
 30
0.0
 10
111.997477
 20
250.561705
 30
0.0
 10
110.074062
 20
249.068725
 30
0.0
 10
109.228797
 20
248.064184
 30
0.0
  0
SPLINE
  5
416
100
AcDbEntity
  8
0
 62
7
100
AcDbSpline
 70
8
 71
3
 72
8
 73
4
 74
0
 40
0
 40
0
 40
0
 40
0
 40
1
 40
1
 40
1
 40
1
 10
109.228797
 20
248.064184
 30
0.0
 10
108.366811
 20
247.039786
 30
0.0
 10
108.385041
 20
245.959241
 30
0.0
 10
109.333017
 20
241.885221
 30
0.0
  0
SPLINE
  5
417
100
AcDbEntity
  8
0
 62
7
100
AcDbSpline
 70
8
 71
3
 72
8
 73
4
 74
0
 40
0
 40
0
 40
0
 40
0
 40
1
 40
1
 40
1
 40
1
 10
109.333017
 20
241.885221
 30
0.0
 10
110.124994
 20
238.481552
 30
0.0
 10
109.900760
 20
237.379354
 30
0.0
 10
108.095005
 20
235.799805
 30
0.0
  0
SPLINE
  5
418
100
AcDbEntity
  8
0
 62
7
100
AcDbSpline
 70
8
 71
3
 72
8
 73
4
 74
0
 40
0
 40
0
 40
0
 40
0
 40
1
 40
1
 40
1
 40
1
 10
108.095005
 20
235.799805
 30
0.0
 10
105.732117
 20
233.732940
 30
0.0
 10
104.946331
 20
232.820567
 30
0.0
 10
103.490144
 20
230.453001
 30
0.0
  0
LWPOLYLINE
  5
419
100
AcDbEntity
  8
0
 62
7
100
AcDbPolyline
 90
3
 70
0
 10
219.927316
 20
191.415950
 30
0.0
 10
220.157715
 20
190.423763
 30
0.0
 10
217.865153
 20
190.423763
 30
0.0
  0
SPLINE
  5
41a
100
AcDbEntity
  8
0
 62
7
100
AcDbSpline
 70
8
 71
3
 72
8
 73
4
 74
0
 40
0
 40
0
 40
0
 40
0
 40
1
 40
1
 40
1
 40
1
 10
103.001564
 20
227.761729
 30
0.0
 10
103.543404
 20
227.599388
 30
0.0
 10
104.528051
 20
226.960292
 30
0.0
 10
105.189642
 20
226.341519
 30
0.0
  0
SPLINE
  5
41b
100
AcDbEntity
  8
0
 62
7
100
AcDbSpline
 70
8
 71
3
 72
8
 73
4
 74
0
 40
0
 40
0
 40
0
 40
0
 40
1
 40
1
 40
1
 40
1
 10
105.189642
 20
226.341519
 30
0.0
 10
106.170479
 20
225.424167
 30
0.0
 10
106.498086
 20
224.867362
 30
0.0
 10
106.964308
 20
223.325394
 30
0.0
  0
SPLINE
  5
41c
100
AcDbEntity
  8
0
 62
7
100
AcDbSpline
 70
8
 71
3
 72
8
 73
4
 74
0
 40
0
 40
0
 40
0
 40
0
 40
1
 40
1
 40
1
 40
1
 10
106.964308
 20
223.325394
 30
0.0
 10
107.306256
 20
222.194379
 30
0.0
 10
107.881248
 20
221.024625
 30
0.0
 10
108.394963
 20
220.414977
 30
0.0
  0
SPLINE
  5
41d
100
AcDbEntity
  8
0
 62
7
100
AcDbSpline
 70
8
 71
3
 72
8
 73
4
 74
0
 40
0
 40
0
 40
0
 40
0
 40
1
 40
1
 40
1
 40
1
 10
108.394963
 20
220.414977
 30
0.0
 10
110.281072
 20
218.176541
 30
0.0
 10
110.475990
 20
217.366998
 30
0.0
 10
109.882424
 20
214.237178
 30
0.0
  0
SPLINE
  5
41e
100
AcDbEntity
  8
0
 62
7
100
AcDbSpline
 70
8
 71
3
 72
8
 73
4
 74
0
 40
0
 40
0
 40
0
 40
0
 40
1
 40
1
 40
1
 40
1
 10
109.882424
 20
214.237178
 30
0.0
 10
109.651178
 20
213.017809
 30
0.0
 10
109.684833
 20
212.734842
 30
0.0
 10
110.150764
 20
211.980941
 30
0.0
  0
SPLINE
  5
41f
100
AcDbEntity
  8
0
 62
7
100
AcDbSpline
 70
8
 71
3
 72
8
 73
4
 74
0
 40
0
 40
0
 40
0
 40
0
 40
1
 40
1
 40
1
 40
1
 10
110.150764
 20
211.980941
 30
0.0
 10
111.091940
 20
210.458100
 30
0.0
 10
115.812133
 20
206.149202
 30
0.0
 10
117.378837
 20
205.382678
 30
0.0
  0
SPLINE
  5
420
100
AcDbEntity
  8
0
 62
7
100
AcDbSpline
 70
8
 71
3
 72
8
 73
4
 74
0
 40
0
 40
0
 40
0
 40
0
 40
1
 40
1
 40
1
 40
1
 10
117.378837
 20
205.382678
 30
0.0
 10
120.175880
 20
204.014218
 30
0.0
 10
120.756667
 20
204.946181
 30
0.0
 10
120.917719
 20
211.061263
 30
0.0
  0
SPLINE
  5
421
100
AcDbEntity
  8
0
 62
7
100
AcDbSpline
 70
8
 71
3
 72
8
 73
4
 74
0
 40
0
 40
0
 40
0
 40
0
 40
1
 40
1
 40
1
 40
1
 10
120.917719
 20
211.061263
 30
0.0
 10
120.977118
 20
213.316836
 30
0.0
 10
120.924862
 20
215.698086
 30
0.0
 10
120.801540
 20
216.352930
 30
0.0
  0
LWPOLYLINE
  5
422
100
AcDbEntity
  8
0
 62
7
100
AcDbPolyline
 90
3
 70
0
 10
103.490144
 20
230.453001
 30
0.0
 10
102.016388
 20
228.056892
 30
0.0
 10
103.001564
 20
227.761729
 30
0.0
  0
SPLINE
  5
423
100
AcDbEntity
  8
0
 62
7
100
AcDbSpline
 70
8
 71
3
 72
8
 73
4
 74
0
 40
0
 40
0
 40
0
 40
0
 40
1
 40
1
 40
1
 40
1
 10
119.793848
 20
216.088346
 30
0.0
 10
119.362948
 20
215.287982
 30
0.0
 10
118.831797
 20
214.633138
 30
0.0
 10
118.613515
 20
214.633138
 30
0.0
  0
SPLINE
  5
424
100
AcDbEntity
  8
0
 62
7
100
AcDbSpline
 70
8
 71
3
 72
8
 73
4
 74
0
 40
0
 40
0
 40
0
 40
0
 40
1
 40
1
 40
1
 40
1
 10
118.613515
 20
214.633138
 30
0.0
 10
118.369305
 20
214.633138
 30
0.0
 10
118.024738
 20
215.192912
 30
0.0
 10
117.717821
 20
216.088346
 30
0.0
  0
SPLINE
  5
425
100
AcDbEntity
  8
0
 62
7
100
AcDbSpline
 70
8
 71
3
 72
8
 73
4
 74
0
 40
0
 40
0
 40
0
 40
0
 40
1
 40
1
 40
1
 40
1
 10
117.717821
 20
216.088346
 30
0.0
 10
117.290916
 20
217.333708
 30
0.0
 10
117.225247
 20
218.259366
 30
0.0
 10
117.262421
 20
222.507461
 30
0.0
  0
SPLINE
  5
426
100
AcDbEntity
  8
0
 62
7
100
AcDbSpline
 70
8
 71
3
 72
8
 73
4
 74
0
 40
0
 40
0
 40
0
 40
0
 40
1
 40
1
 40
1
 40
1
 10
117.262421
 20
222.507461
 30
0.0
 10
117.312215
 20
228.200334
 30
0.0
 10
116.968733
 20
230.757013
 30
0.0
 10
115.587767
 20
234.972736
 30
0.0
  0
SPLINE
  5
427
100
AcDbEntity
  8
0
 62
7
100
AcDbSpline
 70
8
 71
3
 72
8
 73
4
 74
0
 40
0
 40
0
 40
0
 40
0
 40
1
 40
1
 40
1
 40
1
 10
115.587767
 20
234.972736
 30
0.0
 10
114.584123
 20
238.036587
 30
0.0
 10
112.862267
 20
242.208140
 30
0.0
 10
111.667832
 20
244.469629
 30
0.0
  0
SPLINE
  5
428
100
AcDbEntity
  8
0
 62
7
100
AcDbSpline
 70
8
 71
3
 72
8
 73
4
 74
0
 40
0
 40
0
 40
0
 40
0
 40
1
 40
1
 40
1
 40
1
 10
111.667832
 20
244.469629
 30
0.0
 10
111.224549
 20
245.308967
 30
0.0
 10
110.934063
 20
246.067924
 30
0.0
 10
111.022328
 20
246.156197
 30
0.0
  0
SPLINE
  5
429
100
AcDbEntity
  8
0
 62
7
100
AcDbSpline
 70
8
 71
3
 72
8
 73
4
 74
0
 40
0
 40
0
 40
0
 40
0
 40
1
 40
1
 40
1
 40
1
 10
111.022328
 20
246.156197
 30
0.0
 10
111.110593
 20
246.244470
 30
0.0
 10
111.574805
 20
245.989012
 30
0.0
 10
112.053886
 20
245.588512
 30
0.0
  0
SPLINE
  5
42a
100
AcDbEntity
  8
0
 62
7
100
AcDbSpline
 70
8
 71
3
 72
8
 73
4
 74
0
 40
0
 40
0
 40
0
 40
0
 40
1
 40
1
 40
1
 40
1
 10
112.053886
 20
245.588512
 30
0.0
 10
115.000286
 20
243.125450
 30
0.0
 10
119.143105
 20
236.703500
 30
0.0
 10
123.109289
 20
228.451122
 30
0.0
  0
SPLINE
  5
42b
100
AcDbEntity
  8
0
 62
7
100
AcDbSpline
 70
8
 71
3
 72
8
 73
4
 74
0
 40
0
 40
0
 40
0
 40
0
 40
1
 40
1
 40
1
 40
1
 10
123.109289
 20
228.451122
 30
0.0
 10
126.288654
 20
221.835869
 30
0.0
 10
127.548812
 20
217.353994
 30
0.0
 10
127.251553
 20
213.718717
 30
0.0
  0
SPLINE
  5
42c
100
AcDbEntity
  8
0
 62
7
100
AcDbSpline
 70
8
 71
3
 72
8
 73
4
 74
0
 40
0
 40
0
 40
0
 40
0
 40
1
 40
1
 40
1
 40
1
 10
127.251553
 20
213.718717
 30
0.0
 10
126.966887
 20
210.237390
 30
0.0
 10
126.074818
 20
208.165036
 30
0.0
 10
123.085132
 20
204.039867
 30
0.0
  0
SPLINE
  5
42d
100
AcDbEntity
  8
0
 62
7
100
AcDbSpline
 70
8
 71
3
 72
8
 73
4
 74
0
 40
0
 40
0
 40
0
 40
0
 40
1
 40
1
 40
1
 40
1
 10
123.085132
 20
204.039867
 30
0.0
 10
121.443287
 20
201.774467
 30
0.0
 10
120.615459
 20
200.139395
 30
0.0
 10
120.333148
 20
198.604415
 30
0.0
  0
LWPOLYLINE
  5
42e
100
AcDbEntity
  8
0
 62
7
100
AcDbPolyline
 90
3
 70
0
 10
120.801540
 20
216.352930
 30
0.0
 10
120.577332
 20
217.543555
 30
0.0
 10
119.793848
 20
216.088346
 30
0.0
  0
SPLINE
  5
42f
100
AcDbEntity
  8
0
 62
7
100
AcDbSpline
 70
8
 71
3
 72
8
 73
4
 74
0
 40
0
 40
0
 40
0
 40
0
 40
1
 40
1
 40
1
 40
1
 10
127.125267
 20
196.811413
 30
0.0
 10
130.956751
 20
196.346355
 30
0.0
 10
134.426603
 20
195.969059
 30
0.0
 10
134.836046
 20
195.972949
 30
0.0
  0
SPLINE
  5
430
100
AcDbEntity
  8
0
 62
7
100
AcDbSpline
 70
8
 71
3
 72
8
 73
4
 74
0
 40
0
 40
0
 40
0
 40
0
 40
1
 40
1
 40
1
 40
1
 10
134.836046
 20
195.972949
 30
0.0
 10
135.245462
 20
195.976917
 30
0.0
 10
136.971868
 20
196.451950
 30
0.0
 10
138.672504
 20
197.028742
 30
0.0
  0
SPLINE
  5
431
100
AcDbEntity
  8
0
 62
7
100
AcDbSpline
 70
8
 71
3
 72
8
 73
4
 74
0
 40
0
 40
0
 40
0
 40
0
 40
1
 40
1
 40
1
 40
1
 10
138.672504
 20
197.028742
 30
0.0
 10
143.142163
 20
198.544725
 30
0.0
 10
145.608873
 20
198.910564
 30
0.0
 10
152.511403
 20
199.081194
 30
0.0
  0
SPLINE
  5
432
100
AcDbEntity
  8
0
 62
7
100
AcDbSpline
 70
8
 71
3
 72
8
 73
4
 74
0
 40
0
 40
0
 40
0
 40
0
 40
1
 40
1
 40
1
 40
1
 10
152.511403
 20
199.081194
 30
0.0
 10
161.110679
 20
199.293787
 30
0.0
 10
164.481285
 20
198.777929
 30
0.0
 10
172.720807
 20
195.988189
 30
0.0
  0
SPLINE
  5
433
100
AcDbEntity
  8
0
 62
7
100
AcDbSpline
 70
8
 71
3
 72
8
 73
4
 74
0
 40
0
 40
0
 40
0
 40
0
 40
1
 40
1
 40
1
 40
1
 10
172.720807
 20
195.988189
 30
0.0
 10
178.540979
 20
194.017598
 30
0.0
 10
185.036553
 20
192.464865
 30
0.0
 10
185.504071
 20
192.932410
 30
0.0
  0
SPLINE
  5
434
100
AcDbEntity
  8
0
 62
7
100
AcDbSpline
 70
8
 71
3
 72
8
 73
4
 74
0
 40
0
 40
0
 40
0
 40
0
 40
1
 40
1
 40
1
 40
1
 10
185.504071
 20
192.932410
 30
0.0
 10
185.839272
 20
193.267584
 30
0.0
 10
183.193465
 20
195.517865
 30
0.0
 10
181.332465
 20
196.480366
 30
0.0
  0
SPLINE
  5
435
100
AcDbEntity
  8
0
 62
7
100
AcDbSpline
 70
8
 71
3
 72
8
 73
4
 74
0
 40
0
 40
0
 40
0
 40
0
 40
1
 40
1
 40
1
 40
1
 10
181.332465
 20
196.480366
 30
0.0
 10
176.448918
 20
199.006158
 30
0.0
 10
170.103469
 20
200.184613
 30
0.0
 10
159.094765
 20
200.610301
 30
0.0
  0
SPLINE
  5
436
100
AcDbEntity
  8
0
 62
7
100
AcDbSpline
 70
8
 71
3
 72
8
 73
4
 74
0
 40
0
 40
0
 40
0
 40
0
 40
1
 40
1
 40
1
 40
1
 10
159.094765
 20
200.610301
 30
0.0
 10
153.521423
 20
200.825804
 30
0.0
 10
139.120047
 20
200.123758
 30
0.0
 10
136.737474
 20
199.520429
 30
0.0
  0
SPLINE
  5
437
100
AcDbEntity
  8
0
 62
7
100
AcDbSpline
 70
8
 71
3
 72
8
 73
4
 74
0
 40
0
 40
0
 40
0
 40
0
 40
1
 40
1
 40
1
 40
1
 10
136.737474
 20
199.520429
 30
0.0
 10
136.285751
 20
199.406050
 30
0.0
 10
136.305118
 20
199.466216
 30
0.0
 10
136.869765
 20
199.931459
 30
0.0
  0
SPLINE
  5
438
100
AcDbEntity
  8
0
 62
7
100
AcDbSpline
 70
8
 71
3
 72
8
 73
4
 74
0
 40
0
 40
0
 40
0
 40
0
 40
1
 40
1
 40
1
 40
1
 10
136.869765
 20
199.931459
 30
0.0
 10
137.631739
 20
200.559342
 30
0.0
 10
140.808221
 20
201.629555
 30
0.0
 10
143.568883
 20
202.188495
 30
0.0
  0
SPLINE
  5
439
100
AcDbEntity
  8
0
 62
7
100
AcDbSpline
 70
8
 71
3
 72
8
 73
4
 74
0
 40
0
 40
0
 40
0
 40
0
 40
1
 40
1
 40
1
 40
1
 10
143.568883
 20
202.188495
 30
0.0
 10
146.597489
 20
202.801694
 30
0.0
 10
151.071434
 20
203.335281
 30
0.0
 10
158.014763
 20
203.911385
 30
0.0
  0
SPLINE
  5
43a
100
AcDbEntity
  8
0
 62
7
100
AcDbSpline
 70
8
 71
3
 72
8
 73
4
 74
0
 40
0
 40
0
 40
0
 40
0
 40
1
 40
1
 40
1
 40
1
 10
158.014763
 20
203.911385
 30
0.0
 10
161.568090
 20
204.206216
 30
0.0
 10
164.509569
 20
204.481631
 30
0.0
 10
164.551347
 20
204.523417
 30
0.0
  0
SPLINE
  5
43b
100
AcDbEntity
  8
0
 62
7
100
AcDbSpline
 70
8
 71
3
 72
8
 73
4
 74
0
 40
0
 40
0
 40
0
 40
0
 40
1
 40
1
 40
1
 40
1
 10
164.551347
 20
204.523417
 30
0.0
 10
164.593151
 20
204.565205
 30
0.0
 10
162.727653
 20
204.817879
 30
0.0
 10
160.405829
 20
205.084915
 30
0.0
  0
SPLINE
  5
43c
100
AcDbEntity
  8
0
 62
7
100
AcDbSpline
 70
8
 71
3
 72
8
 73
4
 74
0
 40
0
 40
0
 40
0
 40
0
 40
1
 40
1
 40
1
 40
1
 10
160.405829
 20
205.084915
 30
0.0
 10
158.084004
 20
205.351951
 30
0.0
 10
156.184349
 20
205.671719
 30
0.0
 10
156.184349
 20
205.795512
 30
0.0
  0
SPLINE
  5
43d
100
AcDbEntity
  8
0
 62
7
100
AcDbSpline
 70
8
 71
3
 72
8
 73
4
 74
0
 40
0
 40
0
 40
0
 40
0
 40
1
 40
1
 40
1
 40
1
 10
156.184349
 20
205.795512
 30
0.0
 10
156.184349
 20
206.179798
 30
0.0
 10
157.579497
 20
206.765554
 30
0.0
 10
159.214833
 20
207.067862
 30
0.0
  0
SPLINE
  5
43e
100
AcDbEntity
  8
0
 62
7
100
AcDbSpline
 70
8
 71
3
 72
8
 73
4
 74
0
 40
0
 40
0
 40
0
 40
0
 40
1
 40
1
 40
1
 40
1
 10
159.214833
 20
207.067862
 30
0.0
 10
162.878254
 20
207.745087
 30
0.0
 10
174.444118
 20
207.126750
 30
0.0
 10
178.806224
 20
206.020466
 30
0.0
  0
SPLINE
  5
43f
100
AcDbEntity
  8
0
 62
7
100
AcDbSpline
 70
8
 71
3
 72
8
 73
4
 74
0
 40
0
 40
0
 40
0
 40
0
 40
1
 40
1
 40
1
 40
1
 10
178.806224
 20
206.020466
 30
0.0
 10
186.728351
 20
204.011305
 30
0.0
 10
193.464802
 20
197.464960
 30
0.0
 10
194.736389
 20
190.539836
 30
0.0
  0
LWPOLYLINE
  5
440
100
AcDbEntity
  8
0
 62
7
100
AcDbPolyline
 90
3
 70
0
 10
120.333148
 20
198.604415
 30
0.0
 10
120.158894
 20
197.656916
 30
0.0
 10
127.125267
 20
196.811413
 30
0.0
  0
SPLINE
  5
441
100
AcDbEntity
  8
0
 62
7
100
AcDbSpline
 70
8
 71
3
 72
8
 73
4
 74
0
 40
0
 40
0
 40
0
 40
0
 40
1
 40
1
 40
1
 40
1
 10
197.668634
 20
189.267693
 30
0.0
 10
201.409975
 20
190.621989
 30
0.0
 10
201.541208
 20
190.474245
 30
0.0
 10
199.109476
 20
187.645638
 30
0.0
  0
SPLINE
  5
442
100
AcDbEntity
  8
0
 62
7
100
AcDbSpline
 70
8
 71
3
 72
8
 73
4
 74
0
 40
0
 40
0
 40
0
 40
0
 40
1
 40
1
 40
1
 40
1
 10
199.109476
 20
187.645638
 30
0.0
 10
197.033026
 20
185.230310
 30
0.0
 10
194.633546
 20
181.813957
 30
0.0
 10
194.538375
 20
181.137338
 30
0.0
  0
SPLINE
  5
443
100
AcDbEntity
  8
0
 62
7
100
AcDbSpline
 70
8
 71
3
 72
8
 73
4
 74
0
 40
0
 40
0
 40
0
 40
0
 40
1
 40
1
 40
1
 40
1
 10
194.538375
 20
181.137338
 30
0.0
 10
194.396082
 20
180.125624
 30
0.0
 10
194.620158
 20
179.463901
 30
0.0
 10
195.353265
 20
178.730794
 30
0.0
  0
SPLINE
  5
444
100
AcDbEntity
  8
0
 62
7
100
AcDbSpline
 70
8
 71
3
 72
8
 73
4
 74
0
 40
0
 40
0
 40
0
 40
0
 40
1
 40
1
 40
1
 40
1
 10
195.353265
 20
178.730794
 30
0.0
 10
196.376753
 20
177.707306
 30
0.0
 10
197.158623
 20
177.827321
 30
0.0
 10
199.564030
 20
179.377171
 30
0.0
  0
LWPOLYLINE
  5
445
100
AcDbEntity
  8
0
 62
7
100
AcDbPolyline
 90
3
 70
0
 10
194.736389
 20
190.539836
 30
0.0
 10
195.138159
 20
188.351705
 30
0.0
 10
197.668634
 20
189.267693
 30
0.0
  0
SPLINE
  5
446
100
AcDbEntity
  8
0
 62
7
100
AcDbSpline
 70
8
 71
3
 72
8
 73
4
 74
0
 40
0
 40
0
 40
0
 40
0
 40
1
 40
1
 40
1
 40
1
 10
199.708254
 20
198.628942
 30
0.0
 10
198.980650
 20
198.747264
 30
0.0
 10
197.796745
 20
198.854499
 30
0.0
 10
197.077396
 20
198.867252
 30
0.0
  0
SPLINE
  5
447
100
AcDbEntity
  8
0
 62
7
100
AcDbSpline
 70
8
 71
3
 72
8
 73
4
 74
0
 40
0
 40
0
 40
0
 40
0
 40
1
 40
1
 40
1
 40
1
 10
197.077396
 20
198.867252
 30
0.0
 10
195.858328
 20
198.888948
 30
0.0
 10
195.678227
 20
198.984833
 30
0.0
 10
194.427144
 20
200.279492
 30
0.0
  0
SPLINE
  5
448
100
AcDbEntity
  8
0
 62
7
100
AcDbSpline
 70
8
 71
3
 72
8
 73
4
 74
0
 40
0
 40
0
 40
0
 40
0
 40
1
 40
1
 40
1
 40
1
 10
194.427144
 20
200.279492
 30
0.0
 10
193.688877
 20
201.043476
 30
0.0
 10
191.955724
 20
203.154325
 30
0.0
 10
190.575711
 20
204.970266
 30
0.0
  0
SPLINE
  5
449
100
AcDbEntity
  8
0
 62
7
100
AcDbSpline
 70
8
 71
3
 72
8
 73
4
 74
0
 40
0
 40
0
 40
0
 40
0
 40
1
 40
1
 40
1
 40
1
 10
190.575711
 20
204.970266
 30
0.0
 10
185.080262
 20
212.201591
 30
0.0
 10
182.338279
 20
214.067072
 30
0.0
 10
176.203173
 20
214.748446
 30
0.0
  0
SPLINE
  5
44a
100
AcDbEntity
  8
0
 62
7
100
AcDbSpline
 70
8
 71
3
 72
8
 73
4
 74
0
 40
0
 40
0
 40
0
 40
0
 40
1
 40
1
 40
1
 40
1
 10
176.203173
 20
214.748446
 30
0.0
 10
174.771513
 20
214.907445
 30
0.0
 10
173.298181
 20
215.195769
 30
0.0
 10
172.929061
 20
215.389166
 30
0.0
  0
LWPOLYLINE
  5
44b
100
AcDbEntity
  8
0
 62
7
100
AcDbPolyline
 90
1
 70
1
 10
199.564030
 20
179.377171
 30
0.0
  0
SPLINE
  5
44c
100
AcDbEntity
  8
0
 62
7
100
AcDbSpline
 70
8
 71
3
 72
8
 73
4
 74
0
 40
0
 40
0
 40
0
 40
0
 40
1
 40
1
 40
1
 40
1
 10
173.018516
 20
216.272861
 30
0.0
 10
175.835985
 20
218.243886
 30
0.0
 10
182.643582
 20
216.888015
 30
0.0
 10
186.214504
 20
213.644607
 30
0.0
  0
SPLINE
  5
44d
100
AcDbEntity
  8
0
 62
7
100
AcDbSpline
 70
8
 71
3
 72
8
 73
4
 74
0
 40
0
 40
0
 40
0
 40
0
 40
1
 40
1
 40
1
 40
1
 10
186.214504
 20
213.644607
 30
0.0
 10
187.052439
 20
212.883525
 30
0.0
 10
188.057565
 20
211.519220
 30
0.0
 10
188.956249
 20
209.923097
 30
0.0
  0
SPLINE
  5
44e
100
AcDbEntity
  8
0
 62
7
100
AcDbSpline
 70
8
 71
3
 72
8
 73
4
 74
0
 40
0
 40
0
 40
0
 40
0
 40
1
 40
1
 40
1
 40
1
 10
188.956249
 20
209.923097
 30
0.0
 10
189.736611
 20
208.537135
 30
0.0
 10
190.786160
 20
207.005849
 30
0.0
 10
191.288577
 20
206.520235
 30
0.0
  0
LWPOLYLINE
  5
44f
100
AcDbEntity
  8
0
 62
7
100
AcDbPolyline
 90
3
 70
0
 10
172.929061
 20
215.389166
 30
0.0
 10
172.257945
 20
215.740795
 30
0.0
 10
173.018516
 20
216.272861
 30
0.0
  0
SPLINE
  5
450
100
AcDbEntity
  8
0
 62
7
100
AcDbSpline
 70
8
 71
3
 72
8
 73
4
 74
0
 40
0
 40
0
 40
0
 40
0
 40
1
 40
1
 40
1
 40
1
 10
191.920244
 20
206.382133
 30
0.0
 10
191.502176
 20
207.487187
 30
0.0
 10
191.559987
 20
207.621680
 30
0.0
 10
192.453220
 20
207.621680
 30
0.0
  0
SPLINE
  5
451
100
AcDbEntity
  8
0
 62
7
100
AcDbSpline
 70
8
 71
3
 72
8
 73
4
 74
0
 40
0
 40
0
 40
0
 40
0
 40
1
 40
1
 40
1
 40
1
 10
192.453220
 20
207.621680
 30
0.0
 10
193.204002
 20
207.621680
 30
0.0
 10
193.255569
 20
207.678827
 30
0.0
 10
193.109890
 20
208.349284
 30
0.0
  0
SPLINE
  5
452
100
AcDbEntity
  8
0
 62
7
100
AcDbSpline
 70
8
 71
3
 72
8
 73
4
 74
0
 40
0
 40
0
 40
0
 40
0
 40
1
 40
1
 40
1
 40
1
 10
193.109890
 20
208.349284
 30
0.0
 10
192.444542
 20
211.411413
 30
0.0
 10
192.419407
 20
213.314489
 30
0.0
 10
193.047051
 20
213.105272
 30
0.0
  0
SPLINE
  5
453
100
AcDbEntity
  8
0
 62
7
100
AcDbSpline
 70
8
 71
3
 72
8
 73
4
 74
0
 40
0
 40
0
 40
0
 40
0
 40
1
 40
1
 40
1
 40
1
 10
193.047051
 20
213.105272
 30
0.0
 10
193.564947
 20
212.932637
 30
0.0
 10
195.024097
 20
210.562701
 30
0.0
 10
195.783478
 20
208.660794
 30
0.0
  0
SPLINE
  5
454
100
AcDbEntity
  8
0
 62
7
100
AcDbSpline
 70
8
 71
3
 72
8
 73
4
 74
0
 40
0
 40
0
 40
0
 40
0
 40
1
 40
1
 40
1
 40
1
 10
195.783478
 20
208.660794
 30
0.0
 10
196.438269
 20
207.020851
 30
0.0
 10
196.811305
 20
206.528919
 30
0.0
 10
198.728158
 20
204.777568
 30
0.0
  0
LWPOLYLINE
  5
455
100
AcDbEntity
  8
0
 62
7
100
AcDbPolyline
 90
3
 70
0
 10
191.288577
 20
206.520235
 30
0.0
 10
192.202025
 20
205.637305
 30
0.0
 10
191.920244
 20
206.382133
 30
0.0
  0
SPLINE
  5
456
100
AcDbEntity
  8
0
 62
7
100
AcDbSpline
 70
8
 71
3
 72
8
 73
4
 74
0
 40
0
 40
0
 40
0
 40
0
 40
1
 40
1
 40
1
 40
1
 10
202.679710
 20
203.095847
 30
0.0
 10
205.251354
 20
203.569689
 30
0.0
 10
208.338089
 20
204.843356
 30
0.0
 10
209.524560
 20
205.920205
 30
0.0
  0
LWPOLYLINE
  5
457
100
AcDbEntity
  8
0
 62
7
100
AcDbPolyline
 90
3
 70
0
 10
198.728158
 20
204.777568
 30
0.0
 10
200.923062
 20
202.772171
 30
0.0
 10
202.679710
 20
203.095847
 30
0.0
  0
SPLINE
  5
458
100
AcDbEntity
  8
0
 62
7
100
AcDbSpline
 70
8
 71
3
 72
8
 73
4
 74
0
 40
0
 40
0
 40
0
 40
0
 40
1
 40
1
 40
1
 40
1
 10
209.100962
 20
206.701189
 30
0.0
 10
208.300571
 20
206.615763
 30
0.0
 10
207.050442
 20
206.480828
 30
0.0
 10
206.322837
 20
206.401334
 30
0.0
  0
SPLINE
  5
459
100
AcDbEntity
  8
0
 62
7
100
AcDbSpline
 70
8
 71
3
 72
8
 73
4
 74
0
 40
0
 40
0
 40
0
 40
0
 40
1
 40
1
 40
1
 40
1
 10
206.322837
 20
206.401334
 30
0.0
 10
205.351367
 20
206.295194
 30
0.0
 10
204.859321
 20
206.366928
 30
0.0
 10
204.470754
 20
206.671347
 30
0.0
  0
SPLINE
  5
45a
100
AcDbEntity
  8
0
 62
7
100
AcDbSpline
 70
8
 71
3
 72
8
 73
4
 74
0
 40
0
 40
0
 40
0
 40
0
 40
1
 40
1
 40
1
 40
1
 10
204.470754
 20
206.671347
 30
0.0
 10
203.946403
 20
207.082104
 30
0.0
 10
203.947620
 20
207.090709
 30
0.0
 10
204.603046
 20
207.612234
 30
0.0
  0
SPLINE
  5
45b
100
AcDbEntity
  8
0
 62
7
100
AcDbSpline
 70
8
 71
3
 72
8
 73
4
 74
0
 40
0
 40
0
 40
0
 40
0
 40
1
 40
1
 40
1
 40
1
 10
204.603046
 20
207.612234
 30
0.0
 10
204.966848
 20
207.901720
 30
0.0
 10
206.376707
 20
208.511963
 30
0.0
 10
207.736056
 20
208.968332
 30
0.0
  0
SPLINE
  5
45c
100
AcDbEntity
  8
0
 62
7
100
AcDbSpline
 70
8
 71
3
 72
8
 73
4
 74
0
 40
0
 40
0
 40
0
 40
0
 40
1
 40
1
 40
1
 40
1
 10
207.736056
 20
208.968332
 30
0.0
 10
209.886325
 20
209.690224
 30
0.0
 10
210.241766
 20
209.895993
 30
0.0
 10
210.470155
 20
210.551160
 30
0.0
  0
SPLINE
  5
45d
100
AcDbEntity
  8
0
 62
7
100
AcDbSpline
 70
8
 71
3
 72
8
 73
4
 74
0
 40
0
 40
0
 40
0
 40
0
 40
1
 40
1
 40
1
 40
1
 10
210.470155
 20
210.551160
 30
0.0
 10
210.997416
 20
212.063629
 30
0.0
 10
212.918344
 20
211.886242
 30
0.0
 10
214.853480
 20
210.146381
 30
0.0
  0
SPLINE
  5
45e
100
AcDbEntity
  8
0
 62
7
100
AcDbSpline
 70
8
 71
3
 72
8
 73
4
 74
0
 40
0
 40
0
 40
0
 40
0
 40
1
 40
1
 40
1
 40
1
 10
214.853480
 20
210.146381
 30
0.0
 10
216.328929
 20
208.819821
 30
0.0
 10
217.357709
 20
206.924182
 30
0.0
 10
216.791950
 20
206.574525
 30
0.0
  0
SPLINE
  5
45f
100
AcDbEntity
  8
0
 62
7
100
AcDbSpline
 70
8
 71
3
 72
8
 73
4
 74
0
 40
0
 40
0
 40
0
 40
0
 40
1
 40
1
 40
1
 40
1
 10
216.791950
 20
206.574525
 30
0.0
 10
216.602217
 20
206.457256
 30
0.0
 10
215.538248
 20
206.215480
 30
0.0
 10
214.427607
 20
206.037244
 30
0.0
  0
SPLINE
  5
460
100
AcDbEntity
  8
0
 62
7
100
AcDbSpline
 70
8
 71
3
 72
8
 73
4
 74
0
 40
0
 40
0
 40
0
 40
0
 40
1
 40
1
 40
1
 40
1
 10
214.427607
 20
206.037244
 30
0.0
 10
212.120123
 20
205.666938
 30
0.0
 10
211.842125
 20
205.548561
 30
0.0
 10
210.014357
 20
204.158032
 30
0.0
  0
SPLINE
  5
461
100
AcDbEntity
  8
0
 62
7
100
AcDbSpline
 70
8
 71
3
 72
8
 73
4
 74
0
 40
0
 40
0
 40
0
 40
0
 40
1
 40
1
 40
1
 40
1
 10
210.014357
 20
204.158032
 30
0.0
 10
209.279794
 20
203.599195
 30
0.0
 10
207.980611
 20
202.833203
 30
0.0
 10
207.127303
 20
202.455822
 30
0.0
  0
SPLINE
  5
462
100
AcDbEntity
  8
0
 62
7
100
AcDbSpline
 70
8
 71
3
 72
8
 73
4
 74
0
 40
0
 40
0
 40
0
 40
0
 40
1
 40
1
 40
1
 40
1
 10
207.127303
 20
202.455822
 30
0.0
 10
206.114637
 20
202.007975
 30
0.0
 10
205.039370
 20
201.221462
 30
0.0
 10
204.031228
 20
200.191174
 30
0.0
  0
SPLINE
  5
463
100
AcDbEntity
  8
0
 62
7
100
AcDbSpline
 70
8
 71
3
 72
8
 73
4
 74
0
 40
0
 40
0
 40
0
 40
0
 40
1
 40
1
 40
1
 40
1
 10
204.031228
 20
200.191174
 30
0.0
 10
202.345197
 20
198.468102
 30
0.0
 10
201.833731
 20
198.283264
 30
0.0
 10
199.708254
 20
198.628942
 30
0.0
  0
LWPOLYLINE
  5
464
100
AcDbEntity
  8
0
 62
7
100
AcDbPolyline
 90
3
 70
0
 10
209.524560
 20
205.920205
 30
0.0
 10
210.556171
 20
206.856507
 30
0.0
 10
209.100962
 20
206.701189
 30
0.0
  0
SPLINE
  5
465
100
AcDbEntity
  8
0
 62
7
100
AcDbSpline
 70
8
 71
3
 72
8
 73
4
 74
0
 40
0
 40
0
 40
0
 40
0
 40
1
 40
1
 40
1
 40
1
 10
155.093974
 20
224.372834
 30
0.0
 10
146.108010
 20
233.331607
 30
0.0
 10
140.323927
 20
239.482945
 30
0.0
 10
141.103046
 20
239.252083
 30
0.0
  0
SPLINE
  5
466
100
AcDbEntity
  8
0
 62
7
100
AcDbSpline
 70
8
 71
3
 72
8
 73
4
 74
0
 40
0
 40
0
 40
0
 40
0
 40
1
 40
1
 40
1
 40
1
 10
141.103046
 20
239.252083
 30
0.0
 10
142.648503
 20
238.794129
 30
0.0
 10
145.405197
 20
236.845356
 30
0.0
 10
148.246796
 20
234.201989
 30
0.0
  0
SPLINE
  5
467
100
AcDbEntity
  8
0
 62
7
100
AcDbSpline
 70
8
 71
3
 72
8
 73
4
 74
0
 40
0
 40
0
 40
0
 40
0
 40
1
 40
1
 40
1
 40
1
 10
148.246796
 20
234.201989
 30
0.0
 10
151.810257
 20
230.887085
 30
0.0
 10
154.598489
 20
228.523763
 30
0.0
 10
154.945913
 20
228.523763
 30
0.0
  0
SPLINE
  5
468
100
AcDbEntity
  8
0
 62
7
100
AcDbSpline
 70
8
 71
3
 72
8
 73
4
 74
0
 40
0
 40
0
 40
0
 40
0
 40
1
 40
1
 40
1
 40
1
 10
154.945913
 20
228.523763
 30
0.0
 10
155.303392
 20
228.523763
 30
0.0
 10
154.951470
 20
230.003718
 30
0.0
 10
154.264691
 20
231.389023
 30
0.0
  0
SPLINE
  5
469
100
AcDbEntity
  8
0
 62
7
100
AcDbSpline
 70
8
 71
3
 72
8
 73
4
 74
0
 40
0
 40
0
 40
0
 40
0
 40
1
 40
1
 40
1
 40
1
 10
154.264691
 20
231.389023
 30
0.0
 10
153.938010
 20
232.047904
 30
0.0
 10
153.093248
 20
233.220575
 30
0.0
 10
152.387419
 20
233.994957
 30
0.0
  0
SPLINE
  5
46a
100
AcDbEntity
  8
0
 62
7
100
AcDbSpline
 70
8
 71
3
 72
8
 73
4
 74
0
 40
0
 40
0
 40
0
 40
0
 40
1
 40
1
 40
1
 40
1
 10
152.387419
 20
233.994957
 30
0.0
 10
151.681590
 20
234.769342
 30
0.0
 10
151.214706
 20
235.402930
 30
0.0
 10
151.349882
 20
235.402930
 30
0.0
  0
SPLINE
  5
46b
100
AcDbEntity
  8
0
 62
7
100
AcDbSpline
 70
8
 71
3
 72
8
 73
4
 74
0
 40
0
 40
0
 40
0
 40
0
 40
1
 40
1
 40
1
 40
1
 10
151.349882
 20
235.402930
 30
0.0
 10
151.984062
 20
235.402930
 30
0.0
 10
154.195264
 20
233.600493
 30
0.0
 10
155.776626
 20
231.794516
 30
0.0
  0
SPLINE
  5
46c
100
AcDbEntity
  8
0
 62
7
100
AcDbSpline
 70
8
 71
3
 72
8
 73
4
 74
0
 40
0
 40
0
 40
0
 40
0
 40
1
 40
1
 40
1
 40
1
 10
155.776626
 20
231.794516
 30
0.0
 10
158.003333
 20
229.251523
 30
0.0
 10
158.896381
 20
228.506536
 30
0.0
 10
159.794615
 20
228.442679
 30
0.0
  0
SPLINE
  5
46d
100
AcDbEntity
  8
0
 62
7
100
AcDbSpline
 70
8
 71
3
 72
8
 73
4
 74
0
 40
0
 40
0
 40
0
 40
0
 40
1
 40
1
 40
1
 40
1
 10
159.794615
 20
228.442679
 30
0.0
 10
160.416094
 20
228.398499
 30
0.0
 10
160.541269
 20
228.515767
 30
0.0
 10
160.706845
 20
229.297317
 30
0.0
  0
SPLINE
  5
46e
100
AcDbEntity
  8
0
 62
7
100
AcDbSpline
 70
8
 71
3
 72
8
 73
4
 74
0
 40
0
 40
0
 40
0
 40
0
 40
1
 40
1
 40
1
 40
1
 10
160.706845
 20
229.297317
 30
0.0
 10
160.972513
 20
230.551313
 30
0.0
 10
160.608394
 20
231.342274
 30
0.0
 10
159.022799
 20
232.955534
 30
0.0
  0
SPLINE
  5
46f
100
AcDbEntity
  8
0
 62
7
100
AcDbSpline
 70
8
 71
3
 72
8
 73
4
 74
0
 40
0
 40
0
 40
0
 40
0
 40
1
 40
1
 40
1
 40
1
 10
159.022799
 20
232.955534
 30
0.0
 10
157.944092
 20
234.053081
 30
0.0
 10
157.767086
 20
234.344596
 30
0.0
 10
158.179439
 20
234.344596
 30
0.0
  0
SPLINE
  5
470
100
AcDbEntity
  8
0
 62
7
100
AcDbSpline
 70
8
 71
3
 72
8
 73
4
 74
0
 40
0
 40
0
 40
0
 40
0
 40
1
 40
1
 40
1
 40
1
 10
158.179439
 20
234.344596
 30
0.0
 10
159.172764
 20
234.344596
 30
0.0
 10
160.500364
 20
233.826137
 30
0.0
 10
162.315723
 20
232.729294
 30
0.0
  0
SPLINE
  5
471
100
AcDbEntity
  8
0
 62
7
100
AcDbSpline
 70
8
 71
3
 72
8
 73
4
 74
0
 40
0
 40
0
 40
0
 40
0
 40
1
 40
1
 40
1
 40
1
 10
162.315723
 20
232.729294
 30
0.0
 10
163.318468
 20
232.123417
 30
0.0
 10
164.212945
 20
231.701732
 30
0.0
 10
164.303432
 20
231.792216
 30
0.0
  0
SPLINE
  5
472
100
AcDbEntity
  8
0
 62
7
100
AcDbSpline
 70
8
 71
3
 72
8
 73
4
 74
0
 40
0
 40
0
 40
0
 40
0
 40
1
 40
1
 40
1
 40
1
 10
164.303432
 20
231.792216
 30
0.0
 10
164.393920
 20
231.882701
 30
0.0
 10
163.248009
 20
233.148849
 30
0.0
 10
161.756976
 20
234.605875
 30
0.0
  0
SPLINE
  5
473
100
AcDbEntity
  8
0
 62
7
100
AcDbSpline
 70
8
 71
3
 72
8
 73
4
 74
0
 40
0
 40
0
 40
0
 40
0
 40
1
 40
1
 40
1
 40
1
 10
161.756976
 20
234.605875
 30
0.0
 10
160.265943
 20
236.062901
 30
0.0
 10
159.180755
 20
237.255013
 30
0.0
 10
159.345484
 20
237.255013
 30
0.0
  0
SPLINE
  5
474
100
AcDbEntity
  8
0
 62
7
100
AcDbSpline
 70
8
 71
3
 72
8
 73
4
 74
0
 40
0
 40
0
 40
0
 40
0
 40
1
 40
1
 40
1
 40
1
 10
159.345484
 20
237.255013
 30
0.0
 10
161.736894
 20
237.255013
 30
0.0
 10
173.912093
 20
226.104670
 30
0.0
 10
172.226830
 20
225.457970
 30
0.0
  0
SPLINE
  5
475
100
AcDbEntity
  8
0
 62
7
100
AcDbSpline
 70
8
 71
3
 72
8
 73
4
 74
0
 40
0
 40
0
 40
0
 40
0
 40
1
 40
1
 40
1
 40
1
 10
172.226830
 20
225.457970
 30
0.0
 10
171.713829
 20
225.261109
 30
0.0
 10
171.072744
 20
225.622649
 30
0.0
 10
169.222169
 20
227.152459
 30
0.0
  0
SPLINE
  5
476
100
AcDbEntity
  8
0
 62
7
100
AcDbSpline
 70
8
 71
3
 72
8
 73
4
 74
0
 40
0
 40
0
 40
0
 40
0
 40
1
 40
1
 40
1
 40
1
 10
169.222169
 20
227.152459
 30
0.0
 10
166.891798
 20
229.078883
 30
0.0
 10
166.467512
 20
229.317513
 30
0.0
 10
165.372693
 20
229.317513
 30
0.0
  0
SPLINE
  5
477
100
AcDbEntity
  8
0
 62
7
100
AcDbSpline
 70
8
 71
3
 72
8
 73
4
 74
0
 40
0
 40
0
 40
0
 40
0
 40
1
 40
1
 40
1
 40
1
 10
165.372693
 20
229.317513
 30
0.0
 10
164.122801
 20
229.317513
 30
0.0
 10
163.008429
 20
228.765584
 30
0.0
 10
161.532107
 20
227.415352
 30
0.0
  0
SPLINE
  5
478
100
AcDbEntity
  8
0
 62
7
100
AcDbSpline
 70
8
 71
3
 72
8
 73
4
 74
0
 40
0
 40
0
 40
0
 40
0
 40
1
 40
1
 40
1
 40
1
 10
161.532107
 20
227.415352
 30
0.0
 10
160.334338
 20
226.319890
 30
0.0
 10
160.097351
 20
226.295940
 30
0.0
 10
158.499400
 20
227.108869
 30
0.0
  0
SPLINE
  5
479
100
AcDbEntity
  8
0
 62
7
100
AcDbSpline
 70
8
 71
3
 72
8
 73
4
 74
0
 40
0
 40
0
 40
0
 40
0
 40
1
 40
1
 40
1
 40
1
 10
158.499400
 20
227.108869
 30
0.0
 10
157.402279
 20
227.666992
 30
0.0
 10
157.532348
 20
227.141302
 30
0.0
 10
159.351252
 20
223.665719
 30
0.0
  0
SPLINE
  5
47a
100
AcDbEntity
  8
0
 62
7
100
AcDbSpline
 70
8
 71
3
 72
8
 73
4
 74
0
 40
0
 40
0
 40
0
 40
0
 40
1
 40
1
 40
1
 40
1
 10
159.351252
 20
223.665719
 30
0.0
 10
160.697611
 20
221.093051
 30
0.0
 10
161.604312
 20
218.469596
 30
0.0
 10
161.147059
 20
218.469596
 30
0.0
  0
SPLINE
  5
47b
100
AcDbEntity
  8
0
 62
7
100
AcDbSpline
 70
8
 71
3
 72
8
 73
4
 74
0
 40
0
 40
0
 40
0
 40
0
 40
1
 40
1
 40
1
 40
1
 10
161.147059
 20
218.469596
 30
0.0
 10
161.074484
 20
218.469596
 30
0.0
 10
158.350598
 20
221.126053
 30
0.0
 10
155.093974
 20
224.372834
 30
0.0
  0
LWPOLYLINE
  5
47c
100
AcDbEntity
  8
0
 62
7
100
AcDbPolyline
 90
1
 70
1
 10
199.708254
 20
198.628942
 30
0.0
  0
SPLINE
  5
47d
100
AcDbEntity
  8
0
 62
7
100
AcDbSpline
 70
8
 71
3
 72
8
 73
4
 74
0
 40
0
 40
0
 40
0
 40
0
 40
1
 40
1
 40
1
 40
1
 10
198.833991
 20
227.651657
 30
0.0
 10
198.336813
 20
228.552179
 30
0.0
 10
195.912383
 20
231.879762
 30
0.0
 10
194.152004
 20
234.077796
 30
0.0
  0
SPLINE
  5
47e
100
AcDbEntity
  8
0
 62
7
100
AcDbSpline
 70
8
 71
3
 72
8
 73
4
 74
0
 40
0
 40
0
 40
0
 40
0
 40
1
 40
1
 40
1
 40
1
 10
194.152004
 20
234.077796
 30
0.0
 10
192.464412
 20
236.184919
 30
0.0
 10
185.562888
 20
243.173904
 30
0.0
 10
185.365086
 20
242.976085
 30
0.0
  0
SPLINE
  5
47f
100
AcDbEntity
  8
0
 62
7
100
AcDbSpline
 70
8
 71
3
 72
8
 73
4
 74
0
 40
0
 40
0
 40
0
 40
0
 40
1
 40
1
 40
1
 40
1
 10
185.365086
 20
242.976085
 30
0.0
 10
185.300501
 20
242.911500
 30
0.0
 10
186.267553
 20
241.069797
 30
0.0
 10
187.514084
 20
238.883407
 30
0.0
  0
SPLINE
  5
480
100
AcDbEntity
  8
0
 62
7
100
AcDbSpline
 70
8
 71
3
 72
8
 73
4
 74
0
 40
0
 40
0
 40
0
 40
0
 40
1
 40
1
 40
1
 40
1
 10
187.514084
 20
238.883407
 30
0.0
 10
190.633945
 20
233.411318
 30
0.0
 10
191.967869
 20
230.005768
 30
0.0
 10
189.749549
 20
233.176254
 30
0.0
  0
SPLINE
  5
481
100
AcDbEntity
  8
0
 62
7
100
AcDbSpline
 70
8
 71
3
 72
8
 73
4
 74
0
 40
0
 40
0
 40
0
 40
0
 40
1
 40
1
 40
1
 40
1
 10
189.749549
 20
233.176254
 30
0.0
 10
187.189547
 20
236.835101
 30
0.0
 10
185.334050
 20
239.043959
 30
0.0
 10
179.070754
 20
245.888708
 30
0.0
  0
SPLINE
  5
482
100
AcDbEntity
  8
0
 62
7
100
AcDbSpline
 70
8
 71
3
 72
8
 73
4
 74
0
 40
0
 40
0
 40
0
 40
0
 40
1
 40
1
 40
1
 40
1
 10
179.070754
 20
245.888708
 30
0.0
 10
177.615546
 20
247.479010
 30
0.0
 10
175.124758
 20
250.363350
 30
0.0
 10
173.535697
 20
252.298351
 30
0.0
  0
SPLINE
  5
483
100
AcDbEntity
  8
0
 62
7
100
AcDbSpline
 70
8
 71
3
 72
8
 73
4
 74
0
 40
0
 40
0
 40
0
 40
0
 40
1
 40
1
 40
1
 40
1
 10
173.535697
 20
252.298351
 30
0.0
 10
170.950824
 20
255.445945
 30
0.0
 10
168.465169
 20
257.912523
 30
0.0
 10
165.307552
 20
260.463329
 30
0.0
  0
SPLINE
  5
484
100
AcDbEntity
  8
0
 62
7
100
AcDbSpline
 70
8
 71
3
 72
8
 73
4
 74
0
 40
0
 40
0
 40
0
 40
0
 40
1
 40
1
 40
1
 40
1
 10
165.307552
 20
260.463329
 30
0.0
 10
162.617269
 20
262.636601
 30
0.0
 10
167.698962
 20
260.332339
 30
0.0
 10
171.794712
 20
257.521766
 30
0.0
  0
SPLINE
  5
485
100
AcDbEntity
  8
0
 62
7
100
AcDbSpline
 70
8
 71
3
 72
8
 73
4
 74
0
 40
0
 40
0
 40
0
 40
0
 40
1
 40
1
 40
1
 40
1
 10
171.794712
 20
257.521766
 30
0.0
 10
178.847763
 20
252.681817
 30
0.0
 10
180.986179
 20
251.295757
 30
0.0
 10
181.650442
 20
251.133602
 30
0.0
  0
SPLINE
  5
486
100
AcDbEntity
  8
0
 62
7
100
AcDbSpline
 70
8
 71
3
 72
8
 73
4
 74
0
 40
0
 40
0
 40
0
 40
0
 40
1
 40
1
 40
1
 40
1
 10
181.650442
 20
251.133602
 30
0.0
 10
182.050624
 20
251.035910
 30
0.0
 10
182.378046
 20
251.039805
 30
0.0
 10
182.378046
 20
251.142254
 30
0.0
  0
SPLINE
  5
487
100
AcDbEntity
  8
0
 62
7
100
AcDbSpline
 70
8
 71
3
 72
8
 73
4
 74
0
 40
0
 40
0
 40
0
 40
0
 40
1
 40
1
 40
1
 40
1
 10
182.378046
 20
251.142254
 30
0.0
 10
182.378046
 20
251.543018
 30
0.0
 10
181.123048
 20
253.095950
 30
0.0
 10
179.085756
 20
255.216149
 30
0.0
  0
SPLINE
  5
488
100
AcDbEntity
  8
0
 62
7
100
AcDbSpline
 70
8
 71
3
 72
8
 73
4
 74
0
 40
0
 40
0
 40
0
 40
0
 40
1
 40
1
 40
1
 40
1
 10
179.085756
 20
255.216149
 30
0.0
 10
177.065742
 20
257.318370
 30
0.0
 10
177.013698
 20
257.401531
 30
0.0
 10
178.092351
 20
256.803649
 30
0.0
  0
SPLINE
  5
489
100
AcDbEntity
  8
0
 62
7
100
AcDbSpline
 70
8
 71
3
 72
8
 73
4
 74
0
 40
0
 40
0
 40
0
 40
0
 40
1
 40
1
 40
1
 40
1
 10
178.092351
 20
256.803649
 30
0.0
 10
178.718408
 20
256.456638
 30
0.0
 10
180.325752
 20
255.349264
 30
0.0
 10
181.664226
 20
254.342821
 30
0.0
  0
SPLINE
  5
48a
100
AcDbEntity
  8
0
 62
7
100
AcDbSpline
 70
8
 71
3
 72
8
 73
4
 74
0
 40
0
 40
0
 40
0
 40
0
 40
1
 40
1
 40
1
 40
1
 10
181.664226
 20
254.342821
 30
0.0
 10
188.510003
 20
249.195265
 30
0.0
 10
194.808250
 20
242.869437
 30
0.0
 10
194.812325
 20
241.137157
 30
0.0
  0
SPLINE
  5
48b
100
AcDbEntity
  8
0
 62
7
100
AcDbSpline
 70
8
 71
3
 72
8
 73
4
 74
0
 40
0
 40
0
 40
0
 40
0
 40
1
 40
1
 40
1
 40
1
 10
194.812325
 20
241.137157
 30
0.0
 10
194.812325
 20
240.754686
 30
0.0
 10
194.523241
 20
240.895211
 30
0.0
 10
193.424400
 20
241.809781
 30
0.0
  0
SPLINE
  5
48c
100
AcDbEntity
  8
0
 62
7
100
AcDbSpline
 70
8
 71
3
 72
8
 73
4
 74
0
 40
0
 40
0
 40
0
 40
0
 40
1
 40
1
 40
1
 40
1
 10
193.424400
 20
241.809781
 30
0.0
 10
190.439556
 20
244.294028
 30
0.0
 10
186.587699
 20
247.109126
 30
0.0
 10
186.412756
 20
246.934180
 30
0.0
  0
SPLINE
  5
48d
100
AcDbEntity
  8
0
 62
7
100
AcDbSpline
 70
8
 71
3
 72
8
 73
4
 74
0
 40
0
 40
0
 40
0
 40
0
 40
1
 40
1
 40
1
 40
1
 10
186.412756
 20
246.934180
 30
0.0
 10
186.359628
 20
246.881060
 30
0.0
 10
187.424391
 20
245.379489
 30
0.0
 10
188.778872
 20
243.597353
 30
0.0
  0
SPLINE
  5
48e
100
AcDbEntity
  8
0
 62
7
100
AcDbSpline
 70
8
 71
3
 72
8
 73
4
 74
0
 40
0
 40
0
 40
0
 40
0
 40
1
 40
1
 40
1
 40
1
 10
188.778872
 20
243.597353
 30
0.0
 10
190.133354
 20
241.815215
 30
0.0
 10
191.866851
 20
239.534311
 30
0.0
 10
192.631073
 20
238.528670
 30
0.0
  0
SPLINE
  5
48f
100
AcDbEntity
  8
0
 62
7
100
AcDbSpline
 70
8
 71
3
 72
8
 73
4
 74
0
 40
0
 40
0
 40
0
 40
0
 40
1
 40
1
 40
1
 40
1
 10
192.631073
 20
238.528670
 30
0.0
 10
196.346511
 20
233.639495
 30
0.0
 10
199.451053
 20
228.469521
 30
0.0
 10
199.248593
 20
227.508483
 30
0.0
  0
SPLINE
  5
490
100
AcDbEntity
  8
0
 62
7
100
AcDbSpline
 70
8
 71
3
 72
8
 73
4
 74
0
 40
0
 40
0
 40
0
 40
0
 40
1
 40
1
 40
1
 40
1
 10
199.248593
 20
227.508483
 30
0.0
 10
199.171626
 20
227.143117
 30
0.0
 10
199.101353
 20
227.167382
 30
0.0
 10
198.833991
 20
227.651654
 30
0.0
  0
LWPOLYLINE
  5
491
100
AcDbEntity
  8
0
 62
7
100
AcDbPolyline
 90
1
 70
1
 10
155.093974
 20
224.372834
 30
0.0
  0
SPLINE
  5
492
100
AcDbEntity
  8
0
 62
7
100
AcDbSpline
 70
8
 71
3
 72
8
 73
4
 74
0
 40
0
 40
0
 40
0
 40
0
 40
1
 40
1
 40
1
 40
1
 10
38.180116
 20
184.855051
 30
0.0
 10
38.180116
 20
185.866871
 30
0.0
 10
38.315844
 20
186.992593
 30
0.0
 10
38.481736
 20
187.356686
 30
0.0
  0
SPLINE
  5
493
100
AcDbEntity
  8
0
 62
7
100
AcDbSpline
 70
8
 71
3
 72
8
 73
4
 74
0
 40
0
 40
0
 40
0
 40
0
 40
1
 40
1
 40
1
 40
1
 10
38.481736
 20
187.356686
 30
0.0
 10
38.712627
 20
187.863443
 30
0.0
 10
38.703713
 20
188.210947
 30
0.0
 10
38.443720
 20
188.838618
 30
0.0
  0
SPLINE
  5
494
100
AcDbEntity
  8
0
 62
7
100
AcDbSpline
 70
8
 71
3
 72
8
 73
4
 74
0
 40
0
 40
0
 40
0
 40
0
 40
1
 40
1
 40
1
 40
1
 10
38.443720
 20
188.838618
 30
0.0
 10
38.110131
 20
189.643983
 30
0.0
 10
38.079537
 20
189.655519
 30
0.0
 10
36.726511
 20
189.486477
 30
0.0
  0
LWPOLYLINE
  5
495
100
AcDbEntity
  8
0
 62
7
100
AcDbPolyline
 90
1
 70
1
 10
198.833991
 20
227.651654
 30
0.0
  0
SPLINE
  5
496
100
AcDbEntity
  8
0
 62
7
100
AcDbSpline
 70
8
 71
3
 72
8
 73
4
 74
0
 40
0
 40
0
 40
0
 40
0
 40
1
 40
1
 40
1
 40
1
 10
35.475915
 20
192.610359
 30
0.0
 10
35.613679
 20
196.186467
 30
0.0
 10
35.355440
 20
196.976540
 30
0.0
 10
34.636281
 20
195.179199
 30
0.0
  0
SPLINE
  5
497
100
AcDbEntity
  8
0
 62
7
100
AcDbSpline
 70
8
 71
3
 72
8
 73
4
 74
0
 40
0
 40
0
 40
0
 40
0
 40
1
 40
1
 40
1
 40
1
 10
34.636281
 20
195.179199
 30
0.0
 10
33.867209
 20
193.257080
 30
0.0
 10
34.206720
 20
188.727837
 30
0.0
 10
35.359663
 20
185.528971
 30
0.0
  0
SPLINE
  5
498
100
AcDbEntity
  8
0
 62
7
100
AcDbSpline
 70
8
 71
3
 72
8
 73
4
 74
0
 40
0
 40
0
 40
0
 40
0
 40
1
 40
1
 40
1
 40
1
 10
35.359663
 20
185.528971
 30
0.0
 10
35.569456
 20
184.946888
 30
0.0
 10
35.856283
 20
184.494768
 30
0.0
 10
35.997052
 20
184.524269
 30
0.0
  0
SPLINE
  5
499
100
AcDbEntity
  8
0
 62
7
100
AcDbSpline
 70
8
 71
3
 72
8
 73
4
 74
0
 40
0
 40
0
 40
0
 40
0
 40
1
 40
1
 40
1
 40
1
 10
35.997052
 20
184.524269
 30
0.0
 10
36.137818
 20
184.553770
 30
0.0
 10
36.589809
 20
184.226348
 30
0.0
 10
37.001474
 20
183.796665
 30
0.0
  0
SPLINE
  5
49a
100
AcDbEntity
  8
0
 62
7
100
AcDbSpline
 70
8
 71
3
 72
8
 73
4
 74
0
 40
0
 40
0
 40
0
 40
0
 40
1
 40
1
 40
1
 40
1
 10
37.001474
 20
183.796665
 30
0.0
 10
37.413136
 20
183.366982
 30
0.0
 10
37.846738
 20
183.015430
 30
0.0
 10
37.965033
 20
183.015430
 30
0.0
  0
SPLINE
  5
49b
100
AcDbEntity
  8
0
 62
7
100
AcDbSpline
 70
8
 71
3
 72
8
 73
4
 74
0
 40
0
 40
0
 40
0
 40
0
 40
1
 40
1
 40
1
 40
1
 10
37.965033
 20
183.015430
 30
0.0
 10
38.083329
 20
183.015430
 30
0.0
 10
38.180116
 20
183.843258
 30
0.0
 10
38.180116
 20
184.855051
 30
0.0
  0
LWPOLYLINE
  5
49c
100
AcDbEntity
  8
0
 62
7
100
AcDbPolyline
 90
3
 70
0
 10
36.726511
 20
189.486477
 30
0.0
 10
35.348945
 20
189.314365
 30
0.0
 10
35.475915
 20
192.610359
 30
0.0
  0
SPLINE
  5
49d
100
AcDbEntity
  8
0
 62
7
100
AcDbSpline
 70
8
 71
3
 72
8
 73
4
 74
0
 40
0
 40
0
 40
0
 40
0
 40
1
 40
1
 40
1
 40
1
 10
22.521218
 20
186.538145
 30
0.0
 10
23.944152
 20
187.232676
 30
0.0
 10
25.625889
 20
189.029568
 30
0.0
 10
26.318611
 20
190.595583
 30
0.0
  0
SPLINE
  5
49e
100
AcDbEntity
  8
0
 62
7
100
AcDbSpline
 70
8
 71
3
 72
8
 73
4
 74
0
 40
0
 40
0
 40
0
 40
0
 40
1
 40
1
 40
1
 40
1
 10
26.318611
 20
190.595583
 30
0.0
 10
27.296340
 20
192.805913
 30
0.0
 10
27.218516
 20
195.791100
 30
0.0
 10
26.146986
 20
197.178814
 30
0.0
  0
SPLINE
  5
49f
100
AcDbEntity
  8
0
 62
7
100
AcDbSpline
 70
8
 71
3
 72
8
 73
4
 74
0
 40
0
 40
0
 40
0
 40
0
 40
1
 40
1
 40
1
 40
1
 10
26.146986
 20
197.178814
 30
0.0
 10
25.747029
 20
197.696788
 30
0.0
 10
25.742345
 20
197.696762
 30
0.0
 10
25.338099
 20
197.172993
 30
0.0
  0
SPLINE
  5
4a0
100
AcDbEntity
  8
0
 62
7
100
AcDbSpline
 70
8
 71
3
 72
8
 73
4
 74
0
 40
0
 40
0
 40
0
 40
0
 40
1
 40
1
 40
1
 40
1
 10
25.338099
 20
197.172993
 30
0.0
 10
25.020390
 20
196.761301
 30
0.0
 10
24.969201
 20
196.263461
 30
0.0
 10
25.103959
 20
194.895883
 30
0.0
  0
SPLINE
  5
4a1
100
AcDbEntity
  8
0
 62
7
100
AcDbSpline
 70
8
 71
3
 72
8
 73
4
 74
0
 40
0
 40
0
 40
0
 40
0
 40
1
 40
1
 40
1
 40
1
 10
25.103959
 20
194.895883
 30
0.0
 10
25.319282
 20
192.710689
 30
0.0
 10
24.920253
 20
191.771762
 30
0.0
 10
22.818496
 20
189.518200
 30
0.0
  0
SPLINE
  5
4a2
100
AcDbEntity
  8
0
 62
7
100
AcDbSpline
 70
8
 71
3
 72
8
 73
4
 74
0
 40
0
 40
0
 40
0
 40
0
 40
1
 40
1
 40
1
 40
1
 10
22.818496
 20
189.518200
 30
0.0
 10
21.993737
 20
188.633857
 30
0.0
 10
21.056802
 20
187.393808
 30
0.0
 10
20.736421
 20
186.762512
 30
0.0
  0
LWPOLYLINE
  5
4a3
100
AcDbEntity
  8
0
 62
7
100
AcDbPolyline
 90
1
 70
1
 10
38.180116
 20
184.855051
 30
0.0
  0
SPLINE
  5
4a4
100
AcDbEntity
  8
0
 62
7
100
AcDbSpline
 70
8
 71
3
 72
8
 73
4
 74
0
 40
0
 40
0
 40
0
 40
0
 40
1
 40
1
 40
1
 40
1
 10
20.766493
 20
185.797735
 30
0.0
 10
21.103414
 20
185.898409
 30
0.0
 10
21.893039
 20
186.231625
 30
0.0
 10
22.521218
 20
186.538224
 30
0.0
  0
LWPOLYLINE
  5
4a5
100
AcDbEntity
  8
0
 62
7
100
AcDbPolyline
 90
3
 70
0
 10
20.736421
 20
186.762512
 30
0.0
 10
20.153912
 20
185.614723
 30
0.0
 10
20.766493
 20
185.797735
 30
0.0
  0
SPLINE
  5
4a6
100
AcDbEntity
  8
0
 62
7
100
AcDbSpline
 70
8
 71
3
 72
8
 73
4
 74
0
 40
0
 40
0
 40
0
 40
0
 40
1
 40
1
 40
1
 40
1
 10
44.473275
 20
195.866904
 30
0.0
 10
46.803961
 20
198.974594
 30
0.0
 10
47.422602
 20
199.988292
 30
0.0
 10
47.662282
 20
201.092424
 30
0.0
  0
SPLINE
  5
4a7
100
AcDbEntity
  8
0
 62
7
100
AcDbSpline
 70
8
 71
3
 72
8
 73
4
 74
0
 40
0
 40
0
 40
0
 40
0
 40
1
 40
1
 40
1
 40
1
 10
47.662282
 20
201.092424
 30
0.0
 10
48.286644
 20
203.968673
 30
0.0
 10
49.040632
 20
208.747754
 30
0.0
 10
49.694224
 20
213.971680
 30
0.0
  0
SPLINE
  5
4a8
100
AcDbEntity
  8
0
 62
7
100
AcDbSpline
 70
8
 71
3
 72
8
 73
4
 74
0
 40
0
 40
0
 40
0
 40
0
 40
1
 40
1
 40
1
 40
1
 10
49.694224
 20
213.971680
 30
0.0
 10
50.840251
 20
223.131451
 30
0.0
 10
51.943542
 20
228.626244
 30
0.0
 10
53.701812
 20
233.930923
 30
0.0
  0
SPLINE
  5
4a9
100
AcDbEntity
  8
0
 62
7
100
AcDbSpline
 70
8
 71
3
 72
8
 73
4
 74
0
 40
0
 40
0
 40
0
 40
0
 40
1
 40
1
 40
1
 40
1
 10
53.701812
 20
233.930923
 30
0.0
 10
55.798074
 20
240.255324
 30
0.0
 10
59.552078
 20
247.618980
 30
0.0
 10
63.422093
 20
252.997721
 30
0.0
  0
SPLINE
  5
4aa
100
AcDbEntity
  8
0
 62
7
100
AcDbSpline
 70
8
 71
3
 72
8
 73
4
 74
0
 40
0
 40
0
 40
0
 40
0
 40
1
 40
1
 40
1
 40
1
 10
63.422093
 20
252.997721
 30
0.0
 10
68.824832
 20
260.506718
 30
0.0
 10
71.025991
 20
262.772390
 30
0.0
 10
77.289115
 20
267.271177
 30
0.0
  0
LWPOLYLINE
  5
4ab
100
AcDbEntity
  8
0
 62
7
100
AcDbPolyline
 90
1
 70
1
 10
22.521218
 20
186.538224
 30
0.0
  0
SPLINE
  5
4ac
100
AcDbEntity
  8
0
 62
7
100
AcDbSpline
 70
8
 71
3
 72
8
 73
4
 74
0
 40
0
 40
0
 40
0
 40
0
 40
1
 40
1
 40
1
 40
1
 10
77.561223
 20
268.788613
 30
0.0
 10
76.937650
 20
269.067793
 30
0.0
 10
76.045063
 20
269.587882
 30
0.0
 10
75.577689
 20
269.944363
 30
0.0
  0
SPLINE
  5
4ad
100
AcDbEntity
  8
0
 62
7
100
AcDbSpline
 70
8
 71
3
 72
8
 73
4
 74
0
 40
0
 40
0
 40
0
 40
0
 40
1
 40
1
 40
1
 40
1
 10
75.577689
 20
269.944363
 30
0.0
 10
74.426043
 20
270.822769
 30
0.0
 10
73.750035
 20
270.762129
 30
0.0
 10
72.043250
 20
269.627318
 30
0.0
  0
SPLINE
  5
4ae
100
AcDbEntity
  8
0
 62
7
100
AcDbSpline
 70
8
 71
3
 72
8
 73
4
 74
0
 40
0
 40
0
 40
0
 40
0
 40
1
 40
1
 40
1
 40
1
 10
72.043250
 20
269.627318
 30
0.0
 10
63.252604
 20
263.782567
 30
0.0
 10
55.996631
 20
252.918648
 30
0.0
 10
49.184912
 20
235.402930
 30
0.0
  0
SPLINE
  5
4af
100
AcDbEntity
  8
0
 62
7
100
AcDbSpline
 70
8
 71
3
 72
8
 73
4
 74
0
 40
0
 40
0
 40
0
 40
0
 40
1
 40
1
 40
1
 40
1
 10
49.184912
 20
235.402930
 30
0.0
 10
46.374270
 20
228.175622
 30
0.0
 10
40.969311
 20
209.794703
 30
0.0
 10
39.654237
 20
202.991471
 30
0.0
  0
SPLINE
  5
4b0
100
AcDbEntity
  8
0
 62
7
100
AcDbSpline
 70
8
 71
3
 72
8
 73
4
 74
0
 40
0
 40
0
 40
0
 40
0
 40
1
 40
1
 40
1
 40
1
 10
39.654237
 20
202.991471
 30
0.0
 10
38.506958
 20
197.056311
 30
0.0
 10
38.682491
 20
192.756674
 30
0.0
 10
40.095313
 20
192.187502
 30
0.0
  0
SPLINE
  5
4b1
100
AcDbEntity
  8
0
 62
7
100
AcDbSpline
 70
8
 71
3
 72
8
 73
4
 74
0
 40
0
 40
0
 40
0
 40
0
 40
1
 40
1
 40
1
 40
1
 10
40.095313
 20
192.187502
 30
0.0
 10
41.244094
 20
191.724693
 30
0.0
 10
41.575770
 20
192.003431
 30
0.0
 10
44.473275
 20
195.866904
 30
0.0
  0
LWPOLYLINE
  5
4b2
100
AcDbEntity
  8
0
 62
7
100
AcDbPolyline
 90
3
 70
0
 10
77.289115
 20
267.271177
 30
0.0
 10
78.694981
 20
268.281012
 30
0.0
 10
77.561223
 20
268.788613
 30
0.0
  0
SPLINE
  5
4b3
100
AcDbEntity
  8
0
 62
7
100
AcDbSpline
 70
8
 71
3
 72
8
 73
4
 74
0
 40
0
 40
0
 40
0
 40
0
 40
1
 40
1
 40
1
 40
1
 10
90.832212
 20
194.738747
 30
0.0
 10
86.808667
 20
196.090424
 30
0.0
 10
87.501293
 20
196.429752
 30
0.0
 10
94.382021
 20
196.477879
 30
0.0
  0
SPLINE
  5
4b4
100
AcDbEntity
  8
0
 62
7
100
AcDbSpline
 70
8
 71
3
 72
8
 73
4
 74
0
 40
0
 40
0
 40
0
 40
0
 40
1
 40
1
 40
1
 40
1
 10
94.382021
 20
196.477879
 30
0.0
 10
96.843757
 20
196.495077
 30
0.0
 10
98.792943
 20
196.574135
 30
0.0
 10
98.713541
 20
196.653536
 30
0.0
  0
SPLINE
  5
4b5
100
AcDbEntity
  8
0
 62
7
100
AcDbSpline
 70
8
 71
3
 72
8
 73
4
 74
0
 40
0
 40
0
 40
0
 40
0
 40
1
 40
1
 40
1
 40
1
 10
98.713541
 20
196.653536
 30
0.0
 10
98.524179
 20
196.842899
 30
0.0
 10
88.213843
 20
197.941660
 30
0.0
 10
81.174921
 20
198.522632
 30
0.0
  0
SPLINE
  5
4b6
100
AcDbEntity
  8
0
 62
7
100
AcDbSpline
 70
8
 71
3
 72
8
 73
4
 74
0
 40
0
 40
0
 40
0
 40
0
 40
1
 40
1
 40
1
 40
1
 10
81.174921
 20
198.522632
 30
0.0
 10
73.380444
 20
199.165940
 30
0.0
 10
59.720168
 20
199.177291
 30
0.0
 10
56.039491
 20
198.543534
 30
0.0
  0
SPLINE
  5
4b7
100
AcDbEntity
  8
0
 62
7
100
AcDbSpline
 70
8
 71
3
 72
8
 73
4
 74
0
 40
0
 40
0
 40
0
 40
0
 40
1
 40
1
 40
1
 40
1
 10
56.039491
 20
198.543534
 30
0.0
 10
53.310459
 20
198.073608
 30
0.0
 10
50.274522
 20
196.852000
 30
0.0
 10
49.989436
 20
196.109077
 30
0.0
  0
SPLINE
  5
4b8
100
AcDbEntity
  8
0
 62
7
100
AcDbSpline
 70
8
 71
3
 72
8
 73
4
 74
0
 40
0
 40
0
 40
0
 40
0
 40
1
 40
1
 40
1
 40
1
 10
49.989436
 20
196.109077
 30
0.0
 10
49.906359
 20
195.892568
 30
0.0
 10
49.882354
 20
195.715456
 30
0.0
 10
49.936085
 20
195.715456
 30
0.0
  0
SPLINE
  5
4b9
100
AcDbEntity
  8
0
 62
7
100
AcDbSpline
 70
8
 71
3
 72
8
 73
4
 74
0
 40
0
 40
0
 40
0
 40
0
 40
1
 40
1
 40
1
 40
1
 10
49.936085
 20
195.715456
 30
0.0
 10
49.989819
 20
195.715456
 30
0.0
 10
51.419355
 20
195.952338
 30
0.0
 10
53.112837
 20
196.241845
 30
0.0
  0
SPLINE
  5
4ba
100
AcDbEntity
  8
0
 62
7
100
AcDbSpline
 70
8
 71
3
 72
8
 73
4
 74
0
 40
0
 40
0
 40
0
 40
0
 40
1
 40
1
 40
1
 40
1
 10
53.112837
 20
196.241845
 30
0.0
 10
59.055923
 20
197.257871
 30
0.0
 10
67.596634
 20
197.208420
 30
0.0
 10
77.073694
 20
196.103124
 30
0.0
  0
SPLINE
  5
4bb
100
AcDbEntity
  8
0
 62
7
100
AcDbSpline
 70
8
 71
3
 72
8
 73
4
 74
0
 40
0
 40
0
 40
0
 40
0
 40
1
 40
1
 40
1
 40
1
 10
77.073694
 20
196.103124
 30
0.0
 10
82.004495
 20
195.528052
 30
0.0
 10
88.060226
 20
194.699430
 30
0.0
 10
90.303046
 20
194.292924
 30
0.0
  0
SPLINE
  5
4bc
100
AcDbEntity
  8
0
 62
7
100
AcDbSpline
 70
8
 71
3
 72
8
 73
4
 74
0
 40
0
 40
0
 40
0
 40
0
 40
1
 40
1
 40
1
 40
1
 10
90.303046
 20
194.292924
 30
0.0
 10
93.418753
 20
193.728197
 30
0.0
 10
93.538926
 20
193.829453
 30
0.0
 10
90.832212
 20
194.738747
 30
0.0
  0
LWPOLYLINE
  5
4bd
100
AcDbEntity
  8
0
 62
7
100
AcDbPolyline
 90
1
 70
1
 10
44.473275
 20
195.866904
 30
0.0
  0
SPLINE
  5
4be
100
AcDbEntity
  8
0
 62
7
100
AcDbSpline
 70
8
 71
3
 72
8
 73
4
 74
0
 40
0
 40
0
 40
0
 40
0
 40
1
 40
1
 40
1
 40
1
 10
115.430975
 20
199.675237
 30
0.0
 10
114.569809
 20
201.125550
 30
0.0
 10
113.334654
 20
203.368592
 30
0.0
 10
112.686161
 20
204.659801
 30
0.0
  0
SPLINE
  5
4bf
100
AcDbEntity
  8
0
 62
7
100
AcDbSpline
 70
8
 71
3
 72
8
 73
4
 74
0
 40
0
 40
0
 40
0
 40
0
 40
1
 40
1
 40
1
 40
1
 10
112.686161
 20
204.659801
 30
0.0
 10
111.095644
 20
207.826734
 30
0.0
 10
110.353329
 20
208.680013
 30
0.0
 10
109.188713
 20
208.680013
 30
0.0
  0
SPLINE
  5
4c0
100
AcDbEntity
  8
0
 62
7
100
AcDbSpline
 70
8
 71
3
 72
8
 73
4
 74
0
 40
0
 40
0
 40
0
 40
0
 40
1
 40
1
 40
1
 40
1
 10
109.188713
 20
208.680013
 30
0.0
 10
108.238912
 20
208.680013
 30
0.0
 10
106.921816
 20
209.151627
 30
0.0
 10
106.087691
 20
209.790398
 30
0.0
  0
SPLINE
  5
4c1
100
AcDbEntity
  8
0
 62
7
100
AcDbSpline
 70
8
 71
3
 72
8
 73
4
 74
0
 40
0
 40
0
 40
0
 40
0
 40
1
 40
1
 40
1
 40
1
 10
106.087691
 20
209.790398
 30
0.0
 10
105.653218
 20
210.123114
 30
0.0
 10
105.634142
 20
210.290894
 30
0.0
 10
105.911584
 20
211.339994
 30
0.0
  0
SPLINE
  5
4c2
100
AcDbEntity
  8
0
 62
7
100
AcDbSpline
 70
8
 71
3
 72
8
 73
4
 74
0
 40
0
 40
0
 40
0
 40
0
 40
1
 40
1
 40
1
 40
1
 10
105.911584
 20
211.339994
 30
0.0
 10
106.082690
 20
211.987056
 30
0.0
 10
106.569841
 20
213.062677
 30
0.0
 10
106.994127
 20
213.730261
 30
0.0
  0
SPLINE
  5
4c3
100
AcDbEntity
  8
0
 62
7
100
AcDbSpline
 70
8
 71
3
 72
8
 73
4
 74
0
 40
0
 40
0
 40
0
 40
0
 40
1
 40
1
 40
1
 40
1
 10
106.994127
 20
213.730261
 30
0.0
 10
107.418386
 20
214.397844
 30
0.0
 10
107.765546
 20
215.242587
 30
0.0
 10
107.765546
 20
215.607469
 30
0.0
  0
SPLINE
  5
4c4
100
AcDbEntity
  8
0
 62
7
100
AcDbSpline
 70
8
 71
3
 72
8
 73
4
 74
0
 40
0
 40
0
 40
0
 40
0
 40
1
 40
1
 40
1
 40
1
 10
107.765546
 20
215.607469
 30
0.0
 10
107.765546
 20
216.283193
 30
0.0
 10
106.412414
 20
218.544423
 30
0.0
 10
104.865368
 20
220.453971
 30
0.0
  0
SPLINE
  5
4c5
100
AcDbEntity
  8
0
 62
7
100
AcDbSpline
 70
8
 71
3
 72
8
 73
4
 74
0
 40
0
 40
0
 40
0
 40
0
 40
1
 40
1
 40
1
 40
1
 10
104.865368
 20
220.453971
 30
0.0
 10
104.393802
 20
221.036055
 30
0.0
 10
103.717077
 20
222.084215
 30
0.0
 10
103.361583
 20
222.783217
 30
0.0
  0
SPLINE
  5
4c6
100
AcDbEntity
  8
0
 62
7
100
AcDbSpline
 70
8
 71
3
 72
8
 73
4
 74
0
 40
0
 40
0
 40
0
 40
0
 40
1
 40
1
 40
1
 40
1
 10
103.361583
 20
222.783217
 30
0.0
 10
102.807016
 20
223.873584
 30
0.0
 10
102.632285
 20
224.028138
 30
0.0
 10
102.131508
 20
223.871174
 30
0.0
  0
SPLINE
  5
4c7
100
AcDbEntity
  8
0
 62
7
100
AcDbSpline
 70
8
 71
3
 72
8
 73
4
 74
0
 40
0
 40
0
 40
0
 40
0
 40
1
 40
1
 40
1
 40
1
 10
102.131508
 20
223.871174
 30
0.0
 10
101.195571
 20
223.577811
 30
0.0
 10
96.445956
 20
220.318005
 30
0.0
 10
96.050140
 20
219.697353
 30
0.0
  0
SPLINE
  5
4c8
100
AcDbEntity
  8
0
 62
7
100
AcDbSpline
 70
8
 71
3
 72
8
 73
4
 74
0
 40
0
 40
0
 40
0
 40
0
 40
1
 40
1
 40
1
 40
1
 10
96.050140
 20
219.697353
 30
0.0
 10
95.335685
 20
218.577020
 30
0.0
 10
94.775377
 20
216.780581
 30
0.0
 10
94.276770
 20
214.011521
 30
0.0
  0
SPLINE
  5
4c9
100
AcDbEntity
  8
0
 62
7
100
AcDbSpline
 70
8
 71
3
 72
8
 73
4
 74
0
 40
0
 40
0
 40
0
 40
0
 40
1
 40
1
 40
1
 40
1
 10
94.276770
 20
214.011521
 30
0.0
 10
93.997661
 20
212.461639
 30
0.0
 10
93.572528
 20
210.486749
 30
0.0
 10
93.331996
 20
209.622877
 30
0.0
  0
SPLINE
  5
4ca
100
AcDbEntity
  8
0
 62
7
100
AcDbSpline
 70
8
 71
3
 72
8
 73
4
 74
0
 40
0
 40
0
 40
0
 40
0
 40
1
 40
1
 40
1
 40
1
 10
93.331996
 20
209.622877
 30
0.0
 10
92.786372
 20
207.663301
 30
0.0
 10
93.036774
 20
206.657506
 30
0.0
 10
94.540348
 20
204.769093
 30
0.0
  0
SPLINE
  5
4cb
100
AcDbEntity
  8
0
 62
7
100
AcDbSpline
 70
8
 71
3
 72
8
 73
4
 74
0
 40
0
 40
0
 40
0
 40
0
 40
1
 40
1
 40
1
 40
1
 10
94.540348
 20
204.769093
 30
0.0
 10
95.124151
 20
204.035864
 30
0.0
 10
95.801193
 20
202.978755
 30
0.0
 10
96.044901
 20
202.419961
 30
0.0
  0
LWPOLYLINE
  5
4cc
100
AcDbEntity
  8
0
 62
7
100
AcDbPolyline
 90
1
 70
1
 10
90.832212
 20
194.738747
 30
0.0
  0
SPLINE
  5
4cd
100
AcDbEntity
  8
0
 62
7
100
AcDbSpline
 70
8
 71
3
 72
8
 73
4
 74
0
 40
0
 40
0
 40
0
 40
0
 40
1
 40
1
 40
1
 40
1
 10
96.711863
 20
203.088306
 30
0.0
 10
97.110034
 20
206.083532
 30
0.0
 10
97.954002
 20
207.011659
 30
0.0
 10
100.021800
 20
206.728237
 30
0.0
  0
SPLINE
  5
4ce
100
AcDbEntity
  8
0
 62
7
100
AcDbSpline
 70
8
 71
3
 72
8
 73
4
 74
0
 40
0
 40
0
 40
0
 40
0
 40
1
 40
1
 40
1
 40
1
 10
100.021800
 20
206.728237
 30
0.0
 10
102.392070
 20
206.403353
 30
0.0
 10
103.544542
 20
205.152027
 30
0.0
 10
105.255047
 20
201.045990
 30
0.0
  0
SPLINE
  5
4cf
100
AcDbEntity
  8
0
 62
7
100
AcDbSpline
 70
8
 71
3
 72
8
 73
4
 74
0
 40
0
 40
0
 40
0
 40
0
 40
1
 40
1
 40
1
 40
1
 10
105.255047
 20
201.045990
 30
0.0
 10
106.706075
 20
197.562856
 30
0.0
 10
106.214267
 20
197.839822
 30
0.0
 10
111.647301
 20
197.446122
 30
0.0
  0
SPLINE
  5
4d0
100
AcDbEntity
  8
0
 62
7
100
AcDbSpline
 70
8
 71
3
 72
8
 73
4
 74
0
 40
0
 40
0
 40
0
 40
0
 40
1
 40
1
 40
1
 40
1
 10
111.647301
 20
197.446122
 30
0.0
 10
114.241752
 20
197.258109
 30
0.0
 10
116.506744
 20
197.089464
 30
0.0
 10
116.680602
 20
197.071313
 30
0.0
  0
SPLINE
  5
4d1
100
AcDbEntity
  8
0
 62
7
100
AcDbSpline
 70
8
 71
3
 72
8
 73
4
 74
0
 40
0
 40
0
 40
0
 40
0
 40
1
 40
1
 40
1
 40
1
 10
116.680602
 20
197.071313
 30
0.0
 10
116.854459
 20
197.053322
 30
0.0
 10
116.292141
 20
198.224950
 30
0.0
 10
115.430975
 20
199.675237
 30
0.0
  0
LWPOLYLINE
  5
4d2
100
AcDbEntity
  8
0
 62
7
100
AcDbPolyline
 90
3
 70
0
 10
96.044901
 20
202.419961
 30
0.0
 10
96.487972
 20
201.403971
 30
0.0
 10
96.711863
 20
203.088306
 30
0.0
  0
SPLINE
  5
4d3
100
AcDbEntity
  8
0
 62
7
100
AcDbSpline
 70
8
 71
3
 72
8
 73
4
 74
0
 40
0
 40
0
 40
0
 40
0
 40
1
 40
1
 40
1
 40
1
 10
100.346179
 20
198.559700
 30
0.0
 10
100.340094
 20
198.668841
 30
0.0
 10
99.923402
 20
199.224466
 30
0.0
 10
99.420138
 20
199.794405
 30
0.0
  0
SPLINE
  5
4d4
100
AcDbEntity
  8
0
 62
7
100
AcDbSpline
 70
8
 71
3
 72
8
 73
4
 74
0
 40
0
 40
0
 40
0
 40
0
 40
1
 40
1
 40
1
 40
1
 10
99.420138
 20
199.794405
 30
0.0
 10
98.522592
 20
200.810881
 30
0.0
 10
98.505129
 20
200.817496
 30
0.0
 10
98.505129
 20
200.140745
 30
0.0
  0
SPLINE
  5
4d5
100
AcDbEntity
  8
0
 62
7
100
AcDbSpline
 70
8
 71
3
 72
8
 73
4
 74
0
 40
0
 40
0
 40
0
 40
0
 40
1
 40
1
 40
1
 40
1
 10
98.505129
 20
200.140745
 30
0.0
 10
98.505129
 20
199.761306
 30
0.0
 10
98.386067
 20
199.377236
 30
0.0
 10
98.240546
 20
199.287305
 30
0.0
  0
SPLINE
  5
4d6
100
AcDbEntity
  8
0
 62
7
100
AcDbSpline
 70
8
 71
3
 72
8
 73
4
 74
0
 40
0
 40
0
 40
0
 40
0
 40
1
 40
1
 40
1
 40
1
 10
98.240546
 20
199.287305
 30
0.0
 10
97.730059
 20
198.971815
 30
0.0
 10
97.984059
 20
198.658364
 30
0.0
 10
98.835858
 20
198.552663
 30
0.0
  0
SPLINE
  5
4d7
100
AcDbEntity
  8
0
 62
7
100
AcDbSpline
 70
8
 71
3
 72
8
 73
4
 74
0
 40
0
 40
0
 40
0
 40
0
 40
1
 40
1
 40
1
 40
1
 10
98.835858
 20
198.552663
 30
0.0
 10
99.308801
 20
198.493978
 30
0.0
 10
99.844582
 20
198.426906
 30
0.0
 10
100.026483
 20
198.403596
 30
0.0
  0
SPLINE
  5
4d8
100
AcDbEntity
  8
0
 62
7
100
AcDbSpline
 70
8
 71
3
 72
8
 73
4
 74
0
 40
0
 40
0
 40
0
 40
0
 40
1
 40
1
 40
1
 40
1
 10
100.026483
 20
198.403596
 30
0.0
 10
100.208384
 20
198.380313
 30
0.0
 10
100.352238
 20
198.450560
 30
0.0
 10
100.346179
 20
198.559700
 30
0.0
  0
LWPOLYLINE
  5
4d9
100
AcDbEntity
  8
0
 62
7
100
AcDbPolyline
 90
1
 70
1
 10
115.430975
 20
199.675237
 30
0.0
  0
SPLINE
  5
4da
100
AcDbEntity
  8
0
 62
7
100
AcDbSpline
 70
8
 71
3
 72
8
 73
4
 74
0
 40
0
 40
0
 40
0
 40
0
 40
1
 40
1
 40
1
 40
1
 10
92.419712
 20
199.786864
 30
0.0
 10
92.419712
 20
201.444241
 30
0.0
 10
89.904742
 20
208.507370
 30
0.0
 10
87.526852
 20
213.528114
 30
0.0
  0
SPLINE
  5
4db
100
AcDbEntity
  8
0
 62
7
100
AcDbSpline
 70
8
 71
3
 72
8
 73
4
 74
0
 40
0
 40
0
 40
0
 40
0
 40
1
 40
1
 40
1
 40
1
 10
87.526852
 20
213.528114
 30
0.0
 10
86.654415
 20
215.370198
 30
0.0
 10
85.851299
 20
216.563691
 30
0.0
 10
84.447129
 20
218.104717
 30
0.0
  0
SPLINE
  5
4dc
100
AcDbEntity
  8
0
 62
7
100
AcDbSpline
 70
8
 71
3
 72
8
 73
4
 74
0
 40
0
 40
0
 40
0
 40
0
 40
1
 40
1
 40
1
 40
1
 10
84.447129
 20
218.104717
 30
0.0
 10
82.123346
 20
220.655018
 30
0.0
 10
81.167751
 20
221.946877
 30
0.0
 10
80.517299
 20
223.417336
 30
0.0
  0
SPLINE
  5
4dd
100
AcDbEntity
  8
0
 62
7
100
AcDbSpline
 70
8
 71
3
 72
8
 73
4
 74
0
 40
0
 40
0
 40
0
 40
0
 40
1
 40
1
 40
1
 40
1
 10
80.517299
 20
223.417336
 30
0.0
 10
80.242979
 20
224.037435
 30
0.0
 10
79.707727
 20
224.855633
 30
0.0
 10
79.327785
 20
225.235553
 30
0.0
  0
SPLINE
  5
4de
100
AcDbEntity
  8
0
 62
7
100
AcDbSpline
 70
8
 71
3
 72
8
 73
4
 74
0
 40
0
 40
0
 40
0
 40
0
 40
1
 40
1
 40
1
 40
1
 10
79.327785
 20
225.235553
 30
0.0
 10
78.677095
 20
225.886251
 30
0.0
 10
78.603197
 20
225.901787
 30
0.0
 10
78.053896
 20
225.503422
 30
0.0
  0
SPLINE
  5
4df
100
AcDbEntity
  8
0
 62
7
100
AcDbSpline
 70
8
 71
3
 72
8
 73
4
 74
0
 40
0
 40
0
 40
0
 40
0
 40
1
 40
1
 40
1
 40
1
 10
78.053896
 20
225.503422
 30
0.0
 10
76.077622
 20
224.070243
 30
0.0
 10
76.365640
 20
224.076519
 30
0.0
 10
75.114401
 20
225.439375
 30
0.0
  0
SPLINE
  5
4e0
100
AcDbEntity
  8
0
 62
7
100
AcDbSpline
 70
8
 71
3
 72
8
 73
4
 74
0
 40
0
 40
0
 40
0
 40
0
 40
1
 40
1
 40
1
 40
1
 10
75.114401
 20
225.439375
 30
0.0
 10
73.752998
 20
226.922224
 30
0.0
 10
73.114035
 20
226.994953
 30
0.0
 10
72.182109
 20
225.773136
 30
0.0
  0
SPLINE
  5
4e1
100
AcDbEntity
  8
0
 62
7
100
AcDbSpline
 70
8
 71
3
 72
8
 73
4
 74
0
 40
0
 40
0
 40
0
 40
0
 40
1
 40
1
 40
1
 40
1
 10
72.182109
 20
225.773136
 30
0.0
 10
71.676715
 20
225.110529
 30
0.0
 10
71.353474
 20
224.912060
 30
0.0
 10
70.951079
 20
225.017290
 30
0.0
  0
SPLINE
  5
4e2
100
AcDbEntity
  8
0
 62
7
100
AcDbSpline
 70
8
 71
3
 72
8
 73
4
 74
0
 40
0
 40
0
 40
0
 40
0
 40
1
 40
1
 40
1
 40
1
 10
70.951079
 20
225.017290
 30
0.0
 10
70.480383
 20
225.140380
 30
0.0
 10
69.608999
 20
226.228479
 30
0.0
 10
69.308364
 20
227.068555
 30
0.0
  0
SPLINE
  5
4e3
100
AcDbEntity
  8
0
 62
7
100
AcDbSpline
 70
8
 71
3
 72
8
 73
4
 74
0
 40
0
 40
0
 40
0
 40
0
 40
1
 40
1
 40
1
 40
1
 10
69.308364
 20
227.068555
 30
0.0
 10
69.137940
 20
227.544773
 30
0.0
 10
68.140046
 20
226.398280
 30
0.0
 10
67.507186
 20
224.999169
 30
0.0
  0
SPLINE
  5
4e4
100
AcDbEntity
  8
0
 62
7
100
AcDbSpline
 70
8
 71
3
 72
8
 73
4
 74
0
 40
0
 40
0
 40
0
 40
0
 40
1
 40
1
 40
1
 40
1
 10
67.507186
 20
224.999169
 30
0.0
 10
66.927434
 20
223.717459
 30
0.0
 10
66.889392
 20
223.326592
 30
0.0
 10
66.918147
 20
218.946775
 30
0.0
  0
LWPOLYLINE
  5
4e5
100
AcDbEntity
  8
0
 62
7
100
AcDbPolyline
 90
1
 70
1
 10
100.346179
 20
198.559700
 30
0.0
  0
SPLINE
  5
4e6
100
AcDbEntity
  8
0
 62
7
100
AcDbSpline
 70
8
 71
3
 72
8
 73
4
 74
0
 40
0
 40
0
 40
0
 40
0
 40
1
 40
1
 40
1
 40
1
 10
66.256688
 20
214.184275
 30
0.0
 10
65.692502
 20
214.118822
 30
0.0
 10
65.577760
 20
213.981646
 30
0.0
 10
65.636238
 20
213.442513
 30
0.0
  0
SPLINE
  5
4e7
100
AcDbEntity
  8
0
 62
7
100
AcDbSpline
 70
8
 71
3
 72
8
 73
4
 74
0
 40
0
 40
0
 40
0
 40
0
 40
1
 40
1
 40
1
 40
1
 10
65.636238
 20
213.442513
 30
0.0
 10
65.758608
 20
212.314348
 30
0.0
 10
67.475171
 20
208.991991
 30
0.0
 10
69.289864
 20
206.371031
 30
0.0
  0
SPLINE
  5
4e8
100
AcDbEntity
  8
0
 62
7
100
AcDbSpline
 70
8
 71
3
 72
8
 73
4
 74
0
 40
0
 40
0
 40
0
 40
0
 40
1
 40
1
 40
1
 40
1
 10
69.289864
 20
206.371031
 30
0.0
 10
70.243986
 20
204.992989
 30
0.0
 10
70.962337
 20
203.803208
 30
0.0
 10
70.886201
 20
203.727071
 30
0.0
  0
SPLINE
  5
4e9
100
AcDbEntity
  8
0
 62
7
100
AcDbSpline
 70
8
 71
3
 72
8
 73
4
 74
0
 40
0
 40
0
 40
0
 40
0
 40
1
 40
1
 40
1
 40
1
 10
70.886201
 20
203.727071
 30
0.0
 10
70.810064
 20
203.650932
 30
0.0
 10
70.235236
 20
203.889001
 30
0.0
 10
69.608808
 20
204.256113
 30
0.0
  0
SPLINE
  5
4ea
100
AcDbEntity
  8
0
 62
7
100
AcDbSpline
 70
8
 71
3
 72
8
 73
4
 74
0
 40
0
 40
0
 40
0
 40
0
 40
1
 40
1
 40
1
 40
1
 10
69.608808
 20
204.256113
 30
0.0
 10
67.332368
 20
205.590198
 30
0.0
 10
65.677497
 20
208.740769
 30
0.0
 10
63.181214
 20
216.493077
 30
0.0
  0
SPLINE
  5
4eb
100
AcDbEntity
  8
0
 62
7
100
AcDbSpline
 70
8
 71
3
 72
8
 73
4
 74
0
 40
0
 40
0
 40
0
 40
0
 40
1
 40
1
 40
1
 40
1
 10
63.181214
 20
216.493077
 30
0.0
 10
60.009048
 20
226.344366
 30
0.0
 10
60.458546
 20
223.508893
 30
0.0
 10
64.224583
 20
209.911431
 30
0.0
  0
SPLINE
  5
4ec
100
AcDbEntity
  8
0
 62
7
100
AcDbSpline
 70
8
 71
3
 72
8
 73
4
 74
0
 40
0
 40
0
 40
0
 40
0
 40
1
 40
1
 40
1
 40
1
 10
64.224583
 20
209.911431
 30
0.0
 10
65.282112
 20
206.093166
 30
0.0
 10
65.174236
 20
204.982466
 30
0.0
 10
63.592207
 20
203.400438
 30
0.0
  0
SPLINE
  5
4ed
100
AcDbEntity
  8
0
 62
7
100
AcDbSpline
 70
8
 71
3
 72
8
 73
4
 74
0
 40
0
 40
0
 40
0
 40
0
 40
1
 40
1
 40
1
 40
1
 10
63.592207
 20
203.400438
 30
0.0
 10
62.753348
 20
202.561579
 30
0.0
 10
62.217033
 20
202.311976
 30
0.0
 10
60.113714
 20
201.781558
 30
0.0
  0
LWPOLYLINE
  5
4ee
100
AcDbEntity
  8
0
 62
7
100
AcDbPolyline
 90
3
 70
0
 10
66.918147
 20
218.946775
 30
0.0
 10
66.948883
 20
214.264579
 30
0.0
 10
66.256688
 20
214.184275
 30
0.0
  0
SPLINE
  5
4ef
100
AcDbEntity
  8
0
 62
7
100
AcDbSpline
 70
8
 71
3
 72
8
 73
4
 74
0
 40
0
 40
0
 40
0
 40
0
 40
1
 40
1
 40
1
 40
1
 10
59.743657
 20
200.940448
 30
0.0
 10
60.907824
 20
200.822761
 30
0.0
 10
64.250559
 20
200.759843
 30
0.0
 10
67.171956
 20
200.800642
 30
0.0
  0
SPLINE
  5
4f0
100
AcDbEntity
  8
0
 62
7
100
AcDbSpline
 70
8
 71
3
 72
8
 73
4
 74
0
 40
0
 40
0
 40
0
 40
0
 40
1
 40
1
 40
1
 40
1
 10
67.171956
 20
200.800642
 30
0.0
 10
72.468594
 20
200.874593
 30
0.0
 10
72.486695
 20
200.876868
 30
0.0
 10
73.582877
 20
201.602700
 30
0.0
  0
SPLINE
  5
4f1
100
AcDbEntity
  8
0
 62
7
100
AcDbSpline
 70
8
 71
3
 72
8
 73
4
 74
0
 40
0
 40
0
 40
0
 40
0
 40
1
 40
1
 40
1
 40
1
 10
73.582877
 20
201.602700
 30
0.0
 10
74.737759
 20
202.367417
 30
0.0
 10
75.378829
 20
203.398644
 30
0.0
 10
76.133603
 20
205.705813
 30
0.0
  0
SPLINE
  5
4f2
100
AcDbEntity
  8
0
 62
7
100
AcDbSpline
 70
8
 71
3
 72
8
 73
4
 74
0
 40
0
 40
0
 40
0
 40
0
 40
1
 40
1
 40
1
 40
1
 10
76.133603
 20
205.705813
 30
0.0
 10
76.734501
 20
207.542625
 30
0.0
 10
76.705068
 20
209.075803
 30
0.0
 10
76.040951
 20
210.532096
 30
0.0
  0
SPLINE
  5
4f3
100
AcDbEntity
  8
0
 62
7
100
AcDbSpline
 70
8
 71
3
 72
8
 73
4
 74
0
 40
0
 40
0
 40
0
 40
0
 40
1
 40
1
 40
1
 40
1
 10
76.040951
 20
210.532096
 30
0.0
 10
75.442448
 20
211.844512
 30
0.0
 10
75.337249
 20
212.648763
 30
0.0
 10
75.764088
 20
212.648763
 30
0.0
  0
SPLINE
  5
4f4
100
AcDbEntity
  8
0
 62
7
100
AcDbSpline
 70
8
 71
3
 72
8
 73
4
 74
0
 40
0
 40
0
 40
0
 40
0
 40
1
 40
1
 40
1
 40
1
 10
75.764088
 20
212.648763
 30
0.0
 10
76.881596
 20
212.648763
 30
0.0
 10
78.767318
 20
210.805263
 30
0.0
 10
81.817858
 20
206.730555
 30
0.0
  0
SPLINE
  5
4f5
100
AcDbEntity
  8
0
 62
7
100
AcDbSpline
 70
8
 71
3
 72
8
 73
4
 74
0
 40
0
 40
0
 40
0
 40
0
 40
1
 40
1
 40
1
 40
1
 10
81.817858
 20
206.730555
 30
0.0
 10
85.721177
 20
201.516790
 30
0.0
 10
88.698268
 20
199.205284
 30
0.0
 10
91.559817
 20
199.166628
 30
0.0
  0
SPLINE
  5
4f6
100
AcDbEntity
  8
0
 62
7
100
AcDbSpline
 70
8
 71
3
 72
8
 73
4
 74
0
 40
0
 40
0
 40
0
 40
0
 40
1
 40
1
 40
1
 40
1
 10
91.559817
 20
199.166628
 30
0.0
 10
92.293136
 20
199.156839
 30
0.0
 10
92.419712
 20
199.248014
 30
0.0
 10
92.419712
 20
199.786864
 30
0.0
  0
LWPOLYLINE
  5
4f7
100
AcDbEntity
  8
0
 62
7
100
AcDbPolyline
 90
3
 70
0
 10
60.113714
 20
201.781558
 30
0.0
 10
57.626991
 20
201.154416
 30
0.0
 10
59.743657
 20
200.940448
 30
0.0
  0
SPLINE
  5
4f8
100
AcDbEntity
  8
0
 62
7
100
AcDbSpline
 70
8
 71
3
 72
8
 73
4
 74
0
 40
0
 40
0
 40
0
 40
0
 40
1
 40
1
 40
1
 40
1
 10
33.497478
 20
202.498071
 30
0.0
 10
33.649060
 20
202.649653
 30
0.0
 10
32.519009
 20
203.486099
 30
0.0
 10
26.729462
 20
207.507652
 30
0.0
  0
SPLINE
  5
4f9
100
AcDbEntity
  8
0
 62
7
100
AcDbSpline
 70
8
 71
3
 72
8
 73
4
 74
0
 40
0
 40
0
 40
0
 40
0
 40
1
 40
1
 40
1
 40
1
 10
26.729462
 20
207.507652
 30
0.0
 10
25.743115
 20
208.192791
 30
0.0
 10
24.865910
 20
208.683167
 30
0.0
 10
24.780119
 20
208.597376
 30
0.0
  0
SPLINE
  5
4fa
100
AcDbEntity
  8
0
 62
7
100
AcDbSpline
 70
8
 71
3
 72
8
 73
4
 74
0
 40
0
 40
0
 40
0
 40
0
 40
1
 40
1
 40
1
 40
1
 10
24.780119
 20
208.597376
 30
0.0
 10
24.694328
 20
208.511584
 30
0.0
 10
25.322745
 20
207.706862
 30
0.0
 10
26.176603
 20
206.809107
 30
0.0
  0
SPLINE
  5
4fb
100
AcDbEntity
  8
0
 62
7
100
AcDbSpline
 70
8
 71
3
 72
8
 73
4
 74
0
 40
0
 40
0
 40
0
 40
0
 40
1
 40
1
 40
1
 40
1
 10
26.176603
 20
206.809107
 30
0.0
 10
28.860798
 20
203.986918
 30
0.0
 10
32.716073
 20
201.716656
 30
0.0
 10
33.497478
 20
202.498071
 30
0.0
  0
LWPOLYLINE
  5
4fc
100
AcDbEntity
  8
0
 62
7
100
AcDbPolyline
 90
1
 70
1
 10
92.419712
 20
199.786864
 30
0.0
  0
SPLINE
  5
4fd
100
AcDbEntity
  8
0
 62
7
100
AcDbSpline
 70
8
 71
3
 72
8
 73
4
 74
0
 40
0
 40
0
 40
0
 40
0
 40
1
 40
1
 40
1
 40
1
 10
53.771866
 20
210.773121
 30
0.0
 10
53.937561
 20
211.851568
 30
0.0
 10
54.137335
 20
213.399381
 30
0.0
 10
54.215808
 20
214.212704
 30
0.0
  0
SPLINE
  5
4fe
100
AcDbEntity
  8
0
 62
7
100
AcDbSpline
 70
8
 71
3
 72
8
 73
4
 74
0
 40
0
 40
0
 40
0
 40
0
 40
1
 40
1
 40
1
 40
1
 10
54.215808
 20
214.212704
 30
0.0
 10
54.748023
 20
219.728709
 30
0.0
 10
55.159809
 20
222.502632
 30
0.0
 10
55.598309
 20
223.525609
 30
0.0
  0
SPLINE
  5
4ff
100
AcDbEntity
  8
0
 62
7
100
AcDbSpline
 70
8
 71
3
 72
8
 73
4
 74
0
 40
0
 40
0
 40
0
 40
0
 40
1
 40
1
 40
1
 40
1
 10
55.598309
 20
223.525609
 30
0.0
 10
55.873277
 20
224.167078
 30
0.0
 10
56.291739
 20
225.827058
 30
0.0
 10
56.528229
 20
227.214451
 30
0.0
  0
SPLINE
  5
500
100
AcDbEntity
  8
0
 62
7
100
AcDbSpline
 70
8
 71
3
 72
8
 73
4
 74
0
 40
0
 40
0
 40
0
 40
0
 40
1
 40
1
 40
1
 40
1
 10
56.528229
 20
227.214451
 30
0.0
 10
57.004625
 20
230.009274
 30
0.0
 10
57.616037
 20
232.038644
 30
0.0
 10
58.995270
 20
235.402930
 30
0.0
  0
SPLINE
  5
501
100
AcDbEntity
  8
0
 62
7
100
AcDbSpline
 70
8
 71
3
 72
8
 73
4
 74
0
 40
0
 40
0
 40
0
 40
0
 40
1
 40
1
 40
1
 40
1
 10
58.995270
 20
235.402930
 30
0.0
 10
59.892711
 20
237.592002
 30
0.0
 10
61.885449
 20
241.415721
 30
0.0
 10
62.614836
 20
242.348242
 30
0.0
  0
SPLINE
  5
502
100
AcDbEntity
  8
0
 62
7
100
AcDbSpline
 70
8
 71
3
 72
8
 73
4
 74
0
 40
0
 40
0
 40
0
 40
0
 40
1
 40
1
 40
1
 40
1
 10
62.614836
 20
242.348242
 30
0.0
 10
62.969502
 20
242.801685
 30
0.0
 10
63.471928
 20
243.013786
 30
0.0
 10
63.217957
 20
242.602853
 30
0.0
  0
SPLINE
  5
503
100
AcDbEntity
  8
0
 62
7
100
AcDbSpline
 70
8
 71
3
 72
8
 73
4
 74
0
 40
0
 40
0
 40
0
 40
0
 40
1
 40
1
 40
1
 40
1
 10
63.217957
 20
242.602853
 30
0.0
 10
63.006060
 20
242.259996
 30
0.0
 10
61.530087
 20
234.601636
 30
0.0
 10
61.345911
 20
232.889388
 30
0.0
  0
SPLINE
  5
504
100
AcDbEntity
  8
0
 62
7
100
AcDbSpline
 70
8
 71
3
 72
8
 73
4
 74
0
 40
0
 40
0
 40
0
 40
0
 40
1
 40
1
 40
1
 40
1
 10
61.345911
 20
232.889388
 30
0.0
 10
61.183504
 20
231.379543
 30
0.0
 10
61.267070
 20
231.528385
 30
0.0
 10
63.054198
 20
235.932096
 30
0.0
  0
SPLINE
  5
505
100
AcDbEntity
  8
0
 62
7
100
AcDbSpline
 70
8
 71
3
 72
8
 73
4
 74
0
 40
0
 40
0
 40
0
 40
0
 40
1
 40
1
 40
1
 40
1
 10
63.054198
 20
235.932096
 30
0.0
 10
69.783653
 20
252.514317
 30
0.0
 10
75.145842
 20
259.410711
 30
0.0
 10
89.244712
 20
269.616097
 30
0.0
  0
SPLINE
  5
506
100
AcDbEntity
  8
0
 62
7
100
AcDbSpline
 70
8
 71
3
 72
8
 73
4
 74
0
 40
0
 40
0
 40
0
 40
0
 40
1
 40
1
 40
1
 40
1
 10
89.244712
 20
269.616097
 30
0.0
 10
89.608514
 20
269.879434
 30
0.0
 10
89.072733
 20
269.657399
 30
0.0
 10
88.054087
 20
269.122686
 30
0.0
  0
SPLINE
  5
507
100
AcDbEntity
  8
0
 62
7
100
AcDbSpline
 70
8
 71
3
 72
8
 73
4
 74
0
 40
0
 40
0
 40
0
 40
0
 40
1
 40
1
 40
1
 40
1
 10
88.054087
 20
269.122686
 30
0.0
 10
82.048945
 20
265.970443
 30
0.0
 10
75.686751
 20
260.489938
 30
0.0
 10
70.671981
 20
254.149421
 30
0.0
  0
SPLINE
  5
508
100
AcDbEntity
  8
0
 62
7
100
AcDbSpline
 70
8
 71
3
 72
8
 73
4
 74
0
 40
0
 40
0
 40
0
 40
0
 40
1
 40
1
 40
1
 40
1
 10
70.671981
 20
254.149421
 30
0.0
 10
68.486226
 20
251.385819
 30
0.0
 10
65.678428
 20
247.502296
 30
0.0
 10
65.184025
 20
246.558914
 30
0.0
  0
SPLINE
  5
509
100
AcDbEntity
  8
0
 62
7
100
AcDbSpline
 70
8
 71
3
 72
8
 73
4
 74
0
 40
0
 40
0
 40
0
 40
0
 40
1
 40
1
 40
1
 40
1
 10
65.184025
 20
246.558914
 30
0.0
 10
65.005897
 20
246.219030
 30
0.0
 10
64.802009
 20
245.999093
 30
0.0
 10
64.730937
 20
246.070165
 30
0.0
  0
SPLINE
  5
50a
100
AcDbEntity
  8
0
 62
7
100
AcDbSpline
 70
8
 71
3
 72
8
 73
4
 74
0
 40
0
 40
0
 40
0
 40
0
 40
1
 40
1
 40
1
 40
1
 10
64.730937
 20
246.070165
 30
0.0
 10
64.549872
 20
246.251227
 30
0.0
 10
66.126418
 20
249.970782
 30
0.0
 10
67.212292
 20
251.924444
 30
0.0
  0
SPLINE
  5
50b
100
AcDbEntity
  8
0
 62
7
100
AcDbSpline
 70
8
 71
3
 72
8
 73
4
 74
0
 40
0
 40
0
 40
0
 40
0
 40
1
 40
1
 40
1
 40
1
 10
67.212292
 20
251.924444
 30
0.0
 10
68.010887
 20
253.361246
 30
0.0
 10
69.219794
 20
255.109345
 30
0.0
 10
72.569927
 20
259.671672
 30
0.0
  0
LWPOLYLINE
  5
50c
100
AcDbEntity
  8
0
 62
7
100
AcDbPolyline
 90
1
 70
1
 10
33.497478
 20
202.498071
 30
0.0
  0
SPLINE
  5
50d
100
AcDbEntity
  8
0
 62
7
100
AcDbSpline
 70
8
 71
3
 72
8
 73
4
 74
0
 40
0
 40
0
 40
0
 40
0
 40
1
 40
1
 40
1
 40
1
 10
72.652033
 20
260.327939
 30
0.0
 10
70.013613
 20
258.449217
 30
0.0
 10
65.135175
 20
251.904714
 30
0.0
 10
62.158615
 20
246.250846
 30
0.0
  0
SPLINE
  5
50e
100
AcDbEntity
  8
0
 62
7
100
AcDbSpline
 70
8
 71
3
 72
8
 73
4
 74
0
 40
0
 40
0
 40
0
 40
0
 40
1
 40
1
 40
1
 40
1
 10
62.158615
 20
246.250846
 30
0.0
 10
56.020930
 20
234.592535
 30
0.0
 10
52.219958
 20
220.030564
 30
0.0
 10
52.875884
 20
210.687618
 30
0.0
  0
SPLINE
  5
50f
100
AcDbEntity
  8
0
 62
7
100
AcDbSpline
 70
8
 71
3
 72
8
 73
4
 74
0
 40
0
 40
0
 40
0
 40
0
 40
1
 40
1
 40
1
 40
1
 10
52.875884
 20
210.687618
 30
0.0
 10
53.080102
 20
207.778792
 30
0.0
 10
53.315259
 20
207.801231
 30
0.0
 10
53.771866
 20
210.773121
 30
0.0
  0
LWPOLYLINE
  5
510
100
AcDbEntity
  8
0
 62
7
100
AcDbPolyline
 90
3
 70
0
 10
72.569927
 20
259.671672
 30
0.0
 10
73.489947
 20
260.924588
 30
0.0
 10
72.652033
 20
260.327939
 30
0.0
  0
SPLINE
  5
511
100
AcDbEntity
  8
0
 62
7
100
AcDbSpline
 70
8
 71
3
 72
8
 73
4
 74
0
 40
0
 40
0
 40
0
 40
0
 40
1
 40
1
 40
1
 40
1
 10
36.590055
 20
216.617513
 30
0.0
 10
43.246932
 20
240.130483
 30
0.0
 10
50.777325
 20
255.791414
 30
0.0
 10
61.143925
 20
267.682096
 30
0.0
  0
SPLINE
  5
512
100
AcDbEntity
  8
0
 62
7
100
AcDbSpline
 70
8
 71
3
 72
8
 73
4
 74
0
 40
0
 40
0
 40
0
 40
0
 40
1
 40
1
 40
1
 40
1
 10
61.143925
 20
267.682096
 30
0.0
 10
68.117074
 20
275.680427
 30
0.0
 10
77.938037
 20
282.759915
 30
0.0
 10
89.224816
 20
287.924333
 30
0.0
  0
SPLINE
  5
513
100
AcDbEntity
  8
0
 62
7
100
AcDbSpline
 70
8
 71
3
 72
8
 73
4
 74
0
 40
0
 40
0
 40
0
 40
0
 40
1
 40
1
 40
1
 40
1
 10
89.224816
 20
287.924333
 30
0.0
 10
98.494810
 20
292.165955
 30
0.0
 10
105.702616
 20
294.424907
 30
0.0
 10
116.629087
 20
296.512925
 30
0.0
  0
SPLINE
  5
514
100
AcDbEntity
  8
0
 62
7
100
AcDbSpline
 70
8
 71
3
 72
8
 73
4
 74
0
 40
0
 40
0
 40
0
 40
0
 40
1
 40
1
 40
1
 40
1
 10
116.629087
 20
296.512925
 30
0.0
 10
117.659931
 20
296.709920
 30
0.0
 10
117.280253
 20
296.734685
 30
0.0
 10
114.909296
 20
296.625103
 30
0.0
  0
SPLINE
  5
515
100
AcDbEntity
  8
0
 62
7
100
AcDbSpline
 70
8
 71
3
 72
8
 73
4
 74
0
 40
0
 40
0
 40
0
 40
0
 40
1
 40
1
 40
1
 40
1
 10
114.909296
 20
296.625103
 30
0.0
 10
99.732346
 20
295.923655
 30
0.0
 10
83.984372
 20
289.859577
 30
0.0
 10
71.120741
 20
279.763429
 30
0.0
  0
SPLINE
  5
516
100
AcDbEntity
  8
0
 62
7
100
AcDbSpline
 70
8
 71
3
 72
8
 73
4
 74
0
 40
0
 40
0
 40
0
 40
0
 40
1
 40
1
 40
1
 40
1
 10
71.120741
 20
279.763429
 30
0.0
 10
51.720134
 20
264.536663
 30
0.0
 10
38.895663
 20
241.886896
 30
0.0
 10
35.441948
 20
216.749805
 30
0.0
  0
SPLINE
  5
517
100
AcDbEntity
  8
0
 62
7
100
AcDbSpline
 70
8
 71
3
 72
8
 73
4
 74
0
 40
0
 40
0
 40
0
 40
0
 40
1
 40
1
 40
1
 40
1
 10
35.441948
 20
216.749805
 30
0.0
 10
34.457545
 20
209.585049
 30
0.0
 10
34.594588
 20
209.569259
 30
0.0
 10
36.590055
 20
216.617513
 30
0.0
  0
LWPOLYLINE
  5
518
100
AcDbEntity
  8
0
 62
7
100
AcDbPolyline
 90
1
 70
1
 10
53.771866
 20
210.773121
 30
0.0
  0
SPLINE
  5
519
100
AcDbEntity
  8
0
 62
7
100
AcDbSpline
 70
8
 71
3
 72
8
 73
4
 74
0
 40
0
 40
0
 40
0
 40
0
 40
1
 40
1
 40
1
 40
1
 10
124.961584
 20
216.794218
 30
0.0
 10
124.630008
 20
219.976091
 30
0.0
 10
124.141164
 20
221.985300
 30
0.0
 10
123.281533
 20
223.699562
 30
0.0
  0
SPLINE
  5
51a
100
AcDbEntity
  8
0
 62
7
100
AcDbSpline
 70
8
 71
3
 72
8
 73
4
 74
0
 40
0
 40
0
 40
0
 40
0
 40
1
 40
1
 40
1
 40
1
 10
123.281533
 20
223.699562
 30
0.0
 10
122.936146
 20
224.388341
 30
0.0
 10
122.267385
 20
226.023450
 30
0.0
 10
121.795421
 20
227.333138
 30
0.0
  0
SPLINE
  5
51b
100
AcDbEntity
  8
0
 62
7
100
AcDbSpline
 70
8
 71
3
 72
8
 73
4
 74
0
 40
0
 40
0
 40
0
 40
0
 40
1
 40
1
 40
1
 40
1
 10
121.795421
 20
227.333138
 30
0.0
 10
120.915020
 20
229.776123
 30
0.0
 10
117.703216
 20
236.474984
 30
0.0
 10
116.887691
 20
237.569190
 30
0.0
  0
SPLINE
  5
51c
100
AcDbEntity
  8
0
 62
7
100
AcDbSpline
 70
8
 71
3
 72
8
 73
4
 74
0
 40
0
 40
0
 40
0
 40
0
 40
1
 40
1
 40
1
 40
1
 10
116.887691
 20
237.569190
 30
0.0
 10
116.510448
 20
238.075372
 30
0.0
 10
116.466792
 20
238.089657
 30
0.0
 10
116.634988
 20
237.651888
 30
0.0
  0
SPLINE
  5
51d
100
AcDbEntity
  8
0
 62
7
100
AcDbSpline
 70
8
 71
3
 72
8
 73
4
 74
0
 40
0
 40
0
 40
0
 40
0
 40
1
 40
1
 40
1
 40
1
 10
116.634988
 20
237.651888
 30
0.0
 10
116.746827
 20
237.360846
 30
0.0
 10
117.481337
 20
235.396315
 30
0.0
 10
118.267255
 20
233.286263
 30
0.0
  0
SPLINE
  5
51e
100
AcDbEntity
  8
0
 62
7
100
AcDbSpline
 70
8
 71
3
 72
8
 73
4
 74
0
 40
0
 40
0
 40
0
 40
0
 40
1
 40
1
 40
1
 40
1
 10
118.267255
 20
233.286263
 30
0.0
 10
121.166295
 20
225.502769
 30
0.0
 10
122.136389
 20
223.069243
 30
0.0
 10
122.855236
 20
221.776888
 30
0.0
  0
SPLINE
  5
51f
100
AcDbEntity
  8
0
 62
7
100
AcDbSpline
 70
8
 71
3
 72
8
 73
4
 74
0
 40
0
 40
0
 40
0
 40
0
 40
1
 40
1
 40
1
 40
1
 10
122.855236
 20
221.776888
 30
0.0
 10
123.963787
 20
219.783906
 30
0.0
 10
124.444350
 20
217.851159
 30
0.0
 10
124.631410
 20
214.633138
 30
0.0
  0
SPLINE
  5
520
100
AcDbEntity
  8
0
 62
7
100
AcDbSpline
 70
8
 71
3
 72
8
 73
4
 74
0
 40
0
 40
0
 40
0
 40
0
 40
1
 40
1
 40
1
 40
1
 10
124.631410
 20
214.633138
 30
0.0
 10
124.782382
 20
212.036287
 30
0.0
 10
124.824397
 20
211.850999
 30
0.0
 10
125.021274
 20
212.913346
 30
0.0
  0
SPLINE
  5
521
100
AcDbEntity
  8
0
 62
7
100
AcDbSpline
 70
8
 71
3
 72
8
 73
4
 74
0
 40
0
 40
0
 40
0
 40
0
 40
1
 40
1
 40
1
 40
1
 10
125.021274
 20
212.913346
 30
0.0
 10
125.150126
 20
213.608520
 30
0.0
 10
125.125282
 20
215.223452
 30
0.0
 10
124.961584
 20
216.794218
 30
0.0
  0
LWPOLYLINE
  5
522
100
AcDbEntity
  8
0
 62
7
100
AcDbPolyline
 90
1
 70
1
 10
36.590055
 20
216.617513
 30
0.0
  0
LWPOLYLINE
  5
523
100
AcDbEntity
  8
0
 62
7
100
AcDbPolyline
 90
1
 70
1
 10
124.961584
 20
216.794218
 30
0.0
  0
SPLINE
  5
524
100
AcDbEntity
  8
0
 62
7
100
AcDbSpline
 70
8
 71
3
 72
8
 73
4
 74
0
 40
0
 40
0
 40
0
 40
0
 40
1
 40
1
 40
1
 40
1
 10
24.598599
 20
222.256625
 30
0.0
 10
24.510393
 20
221.556207
 30
0.0
 10
24.358569
 20
219.771426
 30
0.0
 10
24.261216
 20
218.290442
 30
0.0
  0
SPLINE
  5
525
100
AcDbEntity
  8
0
 62
7
100
AcDbSpline
 70
8
 71
3
 72
8
 73
4
 74
0
 40
0
 40
0
 40
0
 40
0
 40
1
 40
1
 40
1
 40
1
 10
24.261216
 20
218.290442
 30
0.0
 10
24.086927
 20
215.639089
 30
0.0
 10
24.095941
 20
215.579150
 30
0.0
 10
24.848310
 20
214.386448
 30
0.0
  0
LWPOLYLINE
  5
526
100
AcDbEntity
  8
0
 62
7
100
AcDbPolyline
 90
5
 70
0
 10
26.417816
 20
219.792513
 30
0.0
 10
26.593953
 20
221.776888
 30
0.0
 10
25.676464
 20
222.653500
 30
0.0
 10
24.758974
 20
223.530110
 30
0.0
 10
24.598599
 20
222.256625
 30
0.0
  0
SPLINE
  5
527
100
AcDbEntity
  8
0
 62
7
100
AcDbSpline
 70
8
 71
3
 72
8
 73
4
 74
0
 40
0
 40
0
 40
0
 40
0
 40
1
 40
1
 40
1
 40
1
 10
25.927043
 20
215.491645
 30
0.0
 10
26.100091
 20
216.765717
 30
0.0
 10
26.320939
 20
218.701107
 30
0.0
 10
26.417816
 20
219.792513
 30
0.0
  0
LWPOLYLINE
  5
528
100
AcDbEntity
  8
0
 62
7
100
AcDbPolyline
 90
3
 70
0
 10
24.848310
 20
214.386448
 30
0.0
 10
25.612409
 20
213.175149
 30
0.0
 10
25.927043
 20
215.491645
 30
0.0
  0
SPLINE
  5
529
100
AcDbEntity
  8
0
 62
7
100
AcDbSpline
 70
8
 71
3
 72
8
 73
4
 74
0
 40
0
 40
0
 40
0
 40
0
 40
1
 40
1
 40
1
 40
1
 10
91.439405
 20
217.080534
 30
0.0
 10
93.666985
 20
219.875314
 30
0.0
 10
98.941850
 20
227.289368
 30
0.0
 10
100.693524
 20
230.087601
 30
0.0
  0
SPLINE
  5
52a
100
AcDbEntity
  8
0
 62
7
100
AcDbSpline
 70
8
 71
3
 72
8
 73
4
 74
0
 40
0
 40
0
 40
0
 40
0
 40
1
 40
1
 40
1
 40
1
 10
100.693524
 20
230.087601
 30
0.0
 10
102.446336
 20
232.887636
 30
0.0
 10
104.442882
 20
235.439770
 30
0.0
 10
106.292002
 20
237.243956
 30
0.0
  0
SPLINE
  5
52b
100
AcDbEntity
  8
0
 62
7
100
AcDbSpline
 70
8
 71
3
 72
8
 73
4
 74
0
 40
0
 40
0
 40
0
 40
0
 40
1
 40
1
 40
1
 40
1
 10
106.292002
 20
237.243956
 30
0.0
 10
106.956926
 20
237.892717
 30
0.0
 10
107.500962
 20
238.635606
 30
0.0
 10
107.500962
 20
238.894818
 30
0.0
  0
SPLINE
  5
52c
100
AcDbEntity
  8
0
 62
7
100
AcDbSpline
 70
8
 71
3
 72
8
 73
4
 74
0
 40
0
 40
0
 40
0
 40
0
 40
1
 40
1
 40
1
 40
1
 10
107.500962
 20
238.894818
 30
0.0
 10
107.500962
 20
239.154031
 30
0.0
 10
107.173541
 20
240.171036
 30
0.0
 10
106.773358
 20
241.154834
 30
0.0
  0
SPLINE
  5
52d
100
AcDbEntity
  8
0
 62
7
100
AcDbSpline
 70
8
 71
3
 72
8
 73
4
 74
0
 40
0
 40
0
 40
0
 40
0
 40
1
 40
1
 40
1
 40
1
 10
106.773358
 20
241.154834
 30
0.0
 10
106.135024
 20
242.724054
 30
0.0
 10
106.047236
 20
243.284470
 30
0.0
 10
106.057872
 20
245.721680
 30
0.0
  0
SPLINE
  5
52e
100
AcDbEntity
  8
0
 62
7
100
AcDbSpline
 70
8
 71
3
 72
8
 73
4
 74
0
 40
0
 40
0
 40
0
 40
0
 40
1
 40
1
 40
1
 40
1
 10
106.057872
 20
245.721680
 30
0.0
 10
106.068720
 20
248.198569
 30
0.0
 10
106.151984
 20
248.680184
 30
0.0
 10
106.826063
 20
250.163356
 30
0.0
  0
SPLINE
  5
52f
100
AcDbEntity
  8
0
 62
7
100
AcDbSpline
 70
8
 71
3
 72
8
 73
4
 74
0
 40
0
 40
0
 40
0
 40
0
 40
1
 40
1
 40
1
 40
1
 10
106.826063
 20
250.163356
 30
0.0
 10
107.789940
 20
252.284190
 30
0.0
 10
108.848618
 20
253.125520
 30
0.0
 10
112.400331
 20
254.593146
 30
0.0
  0
SPLINE
  5
530
100
AcDbEntity
  8
0
 62
7
100
AcDbSpline
 70
8
 71
3
 72
8
 73
4
 74
0
 40
0
 40
0
 40
0
 40
0
 40
1
 40
1
 40
1
 40
1
 10
112.400331
 20
254.593146
 30
0.0
 10
116.440307
 20
256.262537
 30
0.0
 10
117.449587
 20
257.104703
 30
0.0
 10
118.891090
 20
260.009180
 30
0.0
  0
SPLINE
  5
531
100
AcDbEntity
  8
0
 62
7
100
AcDbSpline
 70
8
 71
3
 72
8
 73
4
 74
0
 40
0
 40
0
 40
0
 40
0
 40
1
 40
1
 40
1
 40
1
 10
118.891090
 20
260.009180
 30
0.0
 10
121.151081
 20
264.562757
 30
0.0
 10
122.162901
 20
265.649199
 30
0.0
 10
124.446493
 20
265.974248
 30
0.0
  0
SPLINE
  5
532
100
AcDbEntity
  8
0
 62
7
100
AcDbSpline
 70
8
 71
3
 72
8
 73
4
 74
0
 40
0
 40
0
 40
0
 40
0
 40
1
 40
1
 40
1
 40
1
 10
124.446493
 20
265.974248
 30
0.0
 10
127.168950
 20
266.361762
 30
0.0
 10
127.825593
 20
266.860470
 30
0.0
 10
127.471395
 20
268.271638
 30
0.0
  0
SPLINE
  5
533
100
AcDbEntity
  8
0
 62
7
100
AcDbSpline
 70
8
 71
3
 72
8
 73
4
 74
0
 40
0
 40
0
 40
0
 40
0
 40
1
 40
1
 40
1
 40
1
 10
127.471395
 20
268.271638
 30
0.0
 10
127.137438
 20
269.602238
 30
0.0
 10
127.856893
 20
269.967210
 30
0.0
 10
134.091587
 20
271.629971
 30
0.0
  0
SPLINE
  5
534
100
AcDbEntity
  8
0
 62
7
100
AcDbSpline
 70
8
 71
3
 72
8
 73
4
 74
0
 40
0
 40
0
 40
0
 40
0
 40
1
 40
1
 40
1
 40
1
 10
134.091587
 20
271.629971
 30
0.0
 10
138.860728
 20
272.901878
 30
0.0
 10
139.774546
 20
273.218108
 30
0.0
 10
139.149362
 20
273.380221
 30
0.0
  0
SPLINE
  5
535
100
AcDbEntity
  8
0
 62
7
100
AcDbSpline
 70
8
 71
3
 72
8
 73
4
 74
0
 40
0
 40
0
 40
0
 40
0
 40
1
 40
1
 40
1
 40
1
 10
139.149362
 20
273.380221
 30
0.0
 10
137.992498
 20
273.680206
 30
0.0
 10
133.977711
 20
273.335967
 30
0.0
 10
129.990546
 20
272.594917
 30
0.0
  0
SPLINE
  5
536
100
AcDbEntity
  8
0
 62
7
100
AcDbSpline
 70
8
 71
3
 72
8
 73
4
 74
0
 40
0
 40
0
 40
0
 40
0
 40
1
 40
1
 40
1
 40
1
 10
129.990546
 20
272.594917
 30
0.0
 10
119.446397
 20
270.635198
 30
0.0
 10
100.204442
 20
264.970935
 30
0.0
 10
94.404087
 20
262.119316
 30
0.0
  0
SPLINE
  5
537
100
AcDbEntity
  8
0
 62
7
100
AcDbSpline
 70
8
 71
3
 72
8
 73
4
 74
0
 40
0
 40
0
 40
0
 40
0
 40
1
 40
1
 40
1
 40
1
 10
94.404087
 20
262.119316
 30
0.0
 10
85.335097
 20
257.660756
 30
0.0
 10
79.226212
 20
250.060296
 30
0.0
 10
75.935218
 20
239.140931
 30
0.0
  0
SPLINE
  5
538
100
AcDbEntity
  8
0
 62
7
100
AcDbSpline
 70
8
 71
3
 72
8
 73
4
 74
0
 40
0
 40
0
 40
0
 40
0
 40
1
 40
1
 40
1
 40
1
 10
75.935218
 20
239.140931
 30
0.0
 10
75.436452
 20
237.486050
 30
0.0
 10
74.969460
 20
236.235894
 30
0.0
 10
74.897462
 20
236.362806
 30
0.0
  0
SPLINE
  5
539
100
AcDbEntity
  8
0
 62
7
100
AcDbSpline
 70
8
 71
3
 72
8
 73
4
 74
0
 40
0
 40
0
 40
0
 40
0
 40
1
 40
1
 40
1
 40
1
 10
74.897462
 20
236.362806
 30
0.0
 10
74.825460
 20
236.489716
 30
0.0
 10
74.495554
 20
237.724648
 30
0.0
 10
74.164333
 20
239.107096
 30
0.0
  0
SPLINE
  5
53a
100
AcDbEntity
  8
0
 62
7
100
AcDbSpline
 70
8
 71
3
 72
8
 73
4
 74
0
 40
0
 40
0
 40
0
 40
0
 40
1
 40
1
 40
1
 40
1
 10
74.164333
 20
239.107096
 30
0.0
 10
73.833112
 20
240.489544
 30
0.0
 10
73.479583
 20
241.777933
 30
0.0
 10
73.378714
 20
241.970182
 30
0.0
  0
SPLINE
  5
53b
100
AcDbEntity
  8
0
 62
7
100
AcDbSpline
 70
8
 71
3
 72
8
 73
4
 74
0
 40
0
 40
0
 40
0
 40
0
 40
1
 40
1
 40
1
 40
1
 10
73.378714
 20
241.970182
 30
0.0
 10
73.265131
 20
242.186661
 30
0.0
 10
72.598997
 20
241.113699
 30
0.0
 10
71.628860
 20
239.151647
 30
0.0
  0
SPLINE
  5
53c
100
AcDbEntity
  8
0
 62
7
100
AcDbSpline
 70
8
 71
3
 72
8
 73
4
 74
0
 40
0
 40
0
 40
0
 40
0
 40
1
 40
1
 40
1
 40
1
 10
71.628860
 20
239.151647
 30
0.0
 10
70.767310
 20
237.409202
 30
0.0
 10
69.988528
 20
236.029016
 30
0.0
 10
69.898228
 20
236.084565
 30
0.0
  0
SPLINE
  5
53d
100
AcDbEntity
  8
0
 62
7
100
AcDbSpline
 70
8
 71
3
 72
8
 73
4
 74
0
 40
0
 40
0
 40
0
 40
0
 40
1
 40
1
 40
1
 40
1
 10
69.898228
 20
236.084565
 30
0.0
 10
69.807929
 20
236.140114
 30
0.0
 10
69.575011
 20
236.902440
 30
0.0
 10
69.380629
 20
237.778621
 30
0.0
  0
SPLINE
  5
53e
100
AcDbEntity
  8
0
 62
7
100
AcDbSpline
 70
8
 71
3
 72
8
 73
4
 74
0
 40
0
 40
0
 40
0
 40
0
 40
1
 40
1
 40
1
 40
1
 10
69.380629
 20
237.778621
 30
0.0
 10
69.186250
 20
238.654804
 30
0.0
 10
68.947371
 20
239.371680
 30
0.0
 10
68.849788
 20
239.371680
 30
0.0
  0
SPLINE
  5
53f
100
AcDbEntity
  8
0
 62
7
100
AcDbSpline
 70
8
 71
3
 72
8
 73
4
 74
0
 40
0
 40
0
 40
0
 40
0
 40
1
 40
1
 40
1
 40
1
 10
68.849788
 20
239.371680
 30
0.0
 10
68.752204
 20
239.371680
 30
0.0
 10
68.430447
 20
238.806133
 30
0.0
 10
68.134770
 20
238.114909
 30
0.0
  0
SPLINE
  5
540
100
AcDbEntity
  8
0
 62
7
100
AcDbSpline
 70
8
 71
3
 72
8
 73
4
 74
0
 40
0
 40
0
 40
0
 40
0
 40
1
 40
1
 40
1
 40
1
 10
68.134770
 20
238.114909
 30
0.0
 10
65.936556
 20
232.975981
 30
0.0
 10
66.412615
 20
230.383061
 30
0.0
 10
69.693377
 20
229.625771
 30
0.0
  0
SPLINE
  5
541
100
AcDbEntity
  8
0
 62
7
100
AcDbSpline
 70
8
 71
3
 72
8
 73
4
 74
0
 40
0
 40
0
 40
0
 40
0
 40
1
 40
1
 40
1
 40
1
 10
69.693377
 20
229.625771
 30
0.0
 10
70.441984
 20
229.452972
 30
0.0
 10
73.316203
 20
229.305924
 30
0.0
 10
76.234155
 20
229.291139
 30
0.0
  0
SPLINE
  5
542
100
AcDbEntity
  8
0
 62
7
100
AcDbSpline
 70
8
 71
3
 72
8
 73
4
 74
0
 40
0
 40
0
 40
0
 40
0
 40
1
 40
1
 40
1
 40
1
 10
76.234155
 20
229.291139
 30
0.0
 10
79.097095
 20
229.276640
 30
0.0
 10
81.726418
 20
229.184502
 30
0.0
 10
82.077097
 20
229.086405
 30
0.0
  0
SPLINE
  5
543
100
AcDbEntity
  8
0
 62
7
100
AcDbSpline
 70
8
 71
3
 72
8
 73
4
 74
0
 40
0
 40
0
 40
0
 40
0
 40
1
 40
1
 40
1
 40
1
 10
82.077097
 20
229.086405
 30
0.0
 10
83.121619
 20
228.794209
 30
0.0
 10
83.666581
 20
227.749587
 30
0.0
 10
84.095974
 20
225.216471
 30
0.0
  0
SPLINE
  5
544
100
AcDbEntity
  8
0
 62
7
100
AcDbSpline
 70
8
 71
3
 72
8
 73
4
 74
0
 40
0
 40
0
 40
0
 40
0
 40
1
 40
1
 40
1
 40
1
 10
84.095974
 20
225.216471
 30
0.0
 10
84.601222
 20
222.235723
 30
0.0
 10
84.814899
 20
221.685707
 30
0.0
 10
86.357420
 20
219.395638
 30
0.0
  0
SPLINE
  5
545
100
AcDbEntity
  8
0
 62
7
100
AcDbSpline
 70
8
 71
3
 72
8
 73
4
 74
0
 40
0
 40
0
 40
0
 40
0
 40
1
 40
1
 40
1
 40
1
 10
86.357420
 20
219.395638
 30
0.0
 10
87.453959
 20
217.767681
 30
0.0
 10
89.593116
 20
215.294596
 30
0.0
 10
89.904716
 20
215.294596
 30
0.0
  0
SPLINE
  5
546
100
AcDbEntity
  8
0
 62
7
100
AcDbSpline
 70
8
 71
3
 72
8
 73
4
 74
0
 40
0
 40
0
 40
0
 40
0
 40
1
 40
1
 40
1
 40
1
 10
89.904716
 20
215.294596
 30
0.0
 10
89.965861
 20
215.294596
 30
0.0
 10
90.656476
 20
216.098268
 30
0.0
 10
91.439405
 20
217.080534
 30
0.0
  0
LWPOLYLINE
  5
547
100
AcDbEntity
  8
0
 62
7
100
AcDbPolyline
 90
1
 70
1
 10
26.417816
 20
219.792513
 30
0.0
  0
SPLINE
  5
548
100
AcDbEntity
  8
0
 62
7
100
AcDbSpline
 70
8
 71
3
 72
8
 73
4
 74
0
 40
0
 40
0
 40
0
 40
0
 40
1
 40
1
 40
1
 40
1
 10
30.774420
 20
220.586263
 30
0.0
 10
35.659489
 20
236.302473
 30
0.0
 10
40.993187
 20
249.444923
 30
0.0
 10
45.622102
 20
257.171537
 30
0.0
  0
SPLINE
  5
549
100
AcDbEntity
  8
0
 62
7
100
AcDbSpline
 70
8
 71
3
 72
8
 73
4
 74
0
 40
0
 40
0
 40
0
 40
0
 40
1
 40
1
 40
1
 40
1
 10
45.622102
 20
257.171537
 30
0.0
 10
49.396962
 20
263.472562
 30
0.0
 10
54.290979
 20
268.788348
 30
0.0
 10
61.996815
 20
274.957432
 30
0.0
  0
SPLINE
  5
54a
100
AcDbEntity
  8
0
 62
7
100
AcDbSpline
 70
8
 71
3
 72
8
 73
4
 74
0
 40
0
 40
0
 40
0
 40
0
 40
1
 40
1
 40
1
 40
1
 10
61.996815
 20
274.957432
 30
0.0
 10
70.573262
 20
281.823504
 30
0.0
 10
80.497508
 20
290.540395
 30
0.0
 10
80.142411
 20
290.895487
 30
0.0
  0
SPLINE
  5
54b
100
AcDbEntity
  8
0
 62
7
100
AcDbSpline
 70
8
 71
3
 72
8
 73
4
 74
0
 40
0
 40
0
 40
0
 40
0
 40
1
 40
1
 40
1
 40
1
 10
80.142411
 20
290.895487
 30
0.0
 10
80.071899
 20
290.965996
 30
0.0
 10
78.494453
 20
290.230425
 30
0.0
 10
76.636965
 20
289.260883
 30
0.0
  0
SPLINE
  5
54c
100
AcDbEntity
  8
0
 62
7
100
AcDbSpline
 70
8
 71
3
 72
8
 73
4
 74
0
 40
0
 40
0
 40
0
 40
0
 40
1
 40
1
 40
1
 40
1
 10
76.636965
 20
289.260883
 30
0.0
 10
71.384623
 20
286.519361
 30
0.0
 10
64.950613
 20
282.143777
 30
0.0
 10
59.788690
 20
277.802856
 30
0.0
  0
SPLINE
  5
54d
100
AcDbEntity
  8
0
 62
7
100
AcDbSpline
 70
8
 71
3
 72
8
 73
4
 74
0
 40
0
 40
0
 40
0
 40
0
 40
1
 40
1
 40
1
 40
1
 10
59.788690
 20
277.802856
 30
0.0
 10
58.503770
 20
276.722303
 30
0.0
 10
57.402243
 20
275.888442
 30
0.0
 10
57.340852
 20
275.949831
 30
0.0
  0
SPLINE
  5
54e
100
AcDbEntity
  8
0
 62
7
100
AcDbSpline
 70
8
 71
3
 72
8
 73
4
 74
0
 40
0
 40
0
 40
0
 40
0
 40
1
 40
1
 40
1
 40
1
 10
57.340852
 20
275.949831
 30
0.0
 10
57.279463
 20
276.011222
 30
0.0
 10
58.014121
 20
277.063361
 30
0.0
 10
58.973426
 20
278.287919
 30
0.0
  0
SPLINE
  5
54f
100
AcDbEntity
  8
0
 62
7
100
AcDbSpline
 70
8
 71
3
 72
8
 73
4
 74
0
 40
0
 40
0
 40
0
 40
0
 40
1
 40
1
 40
1
 40
1
 10
58.973426
 20
278.287919
 30
0.0
 10
67.389293
 20
289.030815
 30
0.0
 10
77.066182
 20
295.372925
 30
0.0
 10
92.613626
 20
300.335273
 30
0.0
  0
SPLINE
  5
550
100
AcDbEntity
  8
0
 62
7
100
AcDbSpline
 70
8
 71
3
 72
8
 73
4
 74
0
 40
0
 40
0
 40
0
 40
0
 40
1
 40
1
 40
1
 40
1
 10
92.613626
 20
300.335273
 30
0.0
 10
96.726547
 20
301.648021
 30
0.0
 10
103.708160
 20
303.492964
 30
0.0
 10
107.718318
 20
304.326801
 30
0.0
  0
SPLINE
  5
551
100
AcDbEntity
  8
0
 62
7
100
AcDbSpline
 70
8
 71
3
 72
8
 73
4
 74
0
 40
0
 40
0
 40
0
 40
0
 40
1
 40
1
 40
1
 40
1
 10
107.718318
 20
304.326801
 30
0.0
 10
109.352993
 20
304.666708
 30
0.0
 10
108.401789
 20
304.720450
 30
0.0
 10
105.496849
 20
304.452314
 30
0.0
  0
SPLINE
  5
552
100
AcDbEntity
  8
0
 62
7
100
AcDbSpline
 70
8
 71
3
 72
8
 73
4
 74
0
 40
0
 40
0
 40
0
 40
0
 40
1
 40
1
 40
1
 40
1
 10
105.496849
 20
304.452314
 30
0.0
 10
85.830503
 20
302.637034
 30
0.0
 10
65.454879
 20
292.834497
 30
0.0
 10
50.758484
 20
278.118155
 30
0.0
  0
SPLINE
  5
553
100
AcDbEntity
  8
0
 62
7
100
AcDbSpline
 70
8
 71
3
 72
8
 73
4
 74
0
 40
0
 40
0
 40
0
 40
0
 40
1
 40
1
 40
1
 40
1
 10
50.758484
 20
278.118155
 30
0.0
 10
45.678849
 20
273.031627
 30
0.0
 10
40.698695
 20
266.341384
 30
0.0
 10
37.672240
 20
260.538346
 30
0.0
  0
SPLINE
  5
554
100
AcDbEntity
  8
0
 62
7
100
AcDbSpline
 70
8
 71
3
 72
8
 73
4
 74
0
 40
0
 40
0
 40
0
 40
0
 40
1
 40
1
 40
1
 40
1
 10
37.672240
 20
260.538346
 30
0.0
 10
36.527023
 20
258.342463
 30
0.0
 10
34.560896
 20
253.722497
 30
0.0
 10
29.902901
 20
242.282096
 30
0.0
  0
SPLINE
  5
555
100
AcDbEntity
  8
0
 62
7
100
AcDbSpline
 70
8
 71
3
 72
8
 73
4
 74
0
 40
0
 40
0
 40
0
 40
0
 40
1
 40
1
 40
1
 40
1
 10
29.902901
 20
242.282096
 30
0.0
 10
27.551324
 20
236.506441
 30
0.0
 10
26.004370
 20
230.892451
 30
0.0
 10
26.012580
 20
228.163908
 30
0.0
  0
SPLINE
  5
556
100
AcDbEntity
  8
0
 62
7
100
AcDbSpline
 70
8
 71
3
 72
8
 73
4
 74
0
 40
0
 40
0
 40
0
 40
0
 40
1
 40
1
 40
1
 40
1
 10
26.012580
 20
228.163908
 30
0.0
 10
26.015597
 20
227.162929
 30
0.0
 10
26.126356
 20
227.342113
 30
0.0
 10
27.298150
 20
230.243555
 30
0.0
  0
SPLINE
  5
557
100
AcDbEntity
  8
0
 62
7
100
AcDbSpline
 70
8
 71
3
 72
8
 73
4
 74
0
 40
0
 40
0
 40
0
 40
0
 40
1
 40
1
 40
1
 40
1
 10
27.298150
 20
230.243555
 30
0.0
 10
30.148541
 20
237.301323
 30
0.0
 10
34.824183
 20
245.833799
 30
0.0
 10
37.664713
 20
249.161263
 30
0.0
  0
SPLINE
  5
558
100
AcDbEntity
  8
0
 62
7
100
AcDbSpline
 70
8
 71
3
 72
8
 73
4
 74
0
 40
0
 40
0
 40
0
 40
0
 40
1
 40
1
 40
1
 40
1
 10
37.664713
 20
249.161263
 30
0.0
 10
38.320951
 20
249.929997
 30
0.0
 10
38.355082
 20
250.076158
 30
0.0
 10
36.799745
 20
245.457096
 30
0.0
  0
SPLINE
  5
559
100
AcDbEntity
  8
0
 62
7
100
AcDbSpline
 70
8
 71
3
 72
8
 73
4
 74
0
 40
0
 40
0
 40
0
 40
0
 40
1
 40
1
 40
1
 40
1
 10
36.799745
 20
245.457096
 30
0.0
 10
34.473782
 20
238.549418
 30
0.0
 10
32.822102
 20
232.508764
 30
0.0
 10
30.795158
 20
223.496680
 30
0.0
  0
SPLINE
  5
55a
100
AcDbEntity
  8
0
 62
7
100
AcDbSpline
 70
8
 71
3
 72
8
 73
4
 74
0
 40
0
 40
0
 40
0
 40
0
 40
1
 40
1
 40
1
 40
1
 10
30.795158
 20
223.496680
 30
0.0
 10
29.887254
 20
219.459995
 30
0.0
 10
29.244721
 20
215.950718
 30
0.0
 10
29.559840
 20
216.749805
 30
0.0
  0
SPLINE
  5
55b
100
AcDbEntity
  8
0
 62
7
100
AcDbSpline
 70
8
 71
3
 72
8
 73
4
 74
0
 40
0
 40
0
 40
0
 40
0
 40
1
 40
1
 40
1
 40
1
 10
29.559840
 20
216.749805
 30
0.0
 10
29.617226
 20
216.895325
 30
0.0
 10
30.163786
 20
218.621732
 30
0.0
 10
30.774420
 20
220.586263
 30
0.0
  0
LWPOLYLINE
  5
55c
100
AcDbEntity
  8
0
 62
7
100
AcDbPolyline
 90
1
 70
1
 10
91.439405
 20
217.080534
 30
0.0
  0
SPLINE
  5
55d
100
AcDbEntity
  8
0
 62
7
100
AcDbSpline
 70
8
 71
3
 72
8
 73
4
 74
0
 40
0
 40
0
 40
0
 40
0
 40
1
 40
1
 40
1
 40
1
 10
63.349516
 20
223.646545
 30
0.0
 10
64.776297
 20
224.384362
 30
0.0
 10
65.290901
 20
226.561118
 30
0.0
 10
64.488904
 20
228.466116
 30
0.0
  0
SPLINE
  5
55e
100
AcDbEntity
  8
0
 62
7
100
AcDbSpline
 70
8
 71
3
 72
8
 73
4
 74
0
 40
0
 40
0
 40
0
 40
0
 40
1
 40
1
 40
1
 40
1
 10
64.488904
 20
228.466116
 30
0.0
 10
64.087042
 20
229.420661
 30
0.0
 10
64.062689
 20
229.434128
 30
0.0
 10
63.666912
 20
228.920638
 30
0.0
  0
SPLINE
  5
55f
100
AcDbEntity
  8
0
 62
7
100
AcDbSpline
 70
8
 71
3
 72
8
 73
4
 74
0
 40
0
 40
0
 40
0
 40
0
 40
1
 40
1
 40
1
 40
1
 10
63.666912
 20
228.920638
 30
0.0
 10
63.442588
 20
228.629596
 30
0.0
 10
63.104985
 20
228.034284
 30
0.0
 10
62.916684
 20
227.597721
 30
0.0
  0
SPLINE
  5
560
100
AcDbEntity
  8
0
 62
7
100
AcDbSpline
 70
8
 71
3
 72
8
 73
4
 74
0
 40
0
 40
0
 40
0
 40
0
 40
1
 40
1
 40
1
 40
1
 10
62.916684
 20
227.597721
 30
0.0
 10
62.532445
 20
226.706898
 30
0.0
 10
62.098753
 20
223.232096
 30
0.0
 10
62.371806
 20
223.232096
 30
0.0
  0
SPLINE
  5
561
100
AcDbEntity
  8
0
 62
7
100
AcDbSpline
 70
8
 71
3
 72
8
 73
4
 74
0
 40
0
 40
0
 40
0
 40
0
 40
1
 40
1
 40
1
 40
1
 10
62.371806
 20
223.232096
 30
0.0
 10
62.468747
 20
223.232096
 30
0.0
 10
62.908714
 20
223.418598
 30
0.0
 10
63.349516
 20
223.646545
 30
0.0
  0
LWPOLYLINE
  5
562
100
AcDbEntity
  8
0
 62
7
100
AcDbPolyline
 90
1
 70
1
 10
30.774420
 20
220.586263
 30
0.0
  0
SPLINE
  5
563
100
AcDbEntity
  8
0
 62
7
100
AcDbSpline
 70
8
 71
3
 72
8
 73
4
 74
0
 40
0
 40
0
 40
0
 40
0
 40
1
 40
1
 40
1
 40
1
 10
212.779173
 20
255.445117
 30
0.0
 10
203.940899
 20
271.607050
 30
0.0
 10
186.995395
 20
285.204003
 30
0.0
 10
167.693671
 20
291.621393
 30
0.0
  0
SPLINE
  5
564
100
AcDbEntity
  8
0
 62
7
100
AcDbSpline
 70
8
 71
3
 72
8
 73
4
 74
0
 40
0
 40
0
 40
0
 40
0
 40
1
 40
1
 40
1
 40
1
 10
167.693671
 20
291.621393
 30
0.0
 10
160.426916
 20
294.037417
 30
0.0
 10
150.177460
 20
296.129326
 30
0.0
 10
140.970754
 20
297.075524
 30
0.0
  0
SPLINE
  5
565
100
AcDbEntity
  8
0
 62
7
100
AcDbSpline
 70
8
 71
3
 72
8
 73
4
 74
0
 40
0
 40
0
 40
0
 40
0
 40
1
 40
1
 40
1
 40
1
 10
140.970754
 20
297.075524
 30
0.0
 10
134.991250
 20
297.690051
 30
0.0
 10
123.466900
 20
297.311000
 30
0.0
 10
122.955143
 20
296.482968
 30
0.0
  0
SPLINE
  5
566
100
AcDbEntity
  8
0
 62
7
100
AcDbSpline
 70
8
 71
3
 72
8
 73
4
 74
0
 40
0
 40
0
 40
0
 40
0
 40
1
 40
1
 40
1
 40
1
 10
122.955143
 20
296.482968
 30
0.0
 10
122.878361
 20
296.358739
 30
0.0
 10
123.626258
 20
296.256078
 30
0.0
 10
124.617096
 20
296.254834
 30
0.0
  0
SPLINE
  5
567
100
AcDbEntity
  8
0
 62
7
100
AcDbSpline
 70
8
 71
3
 72
8
 73
4
 74
0
 40
0
 40
0
 40
0
 40
0
 40
1
 40
1
 40
1
 40
1
 10
124.617096
 20
296.254834
 30
0.0
 10
125.607961
 20
296.253511
 30
0.0
 10
127.728358
 20
296.142074
 30
0.0
 10
129.329087
 20
296.007020
 30
0.0
  0
SPLINE
  5
568
100
AcDbEntity
  8
0
 62
7
100
AcDbSpline
 70
8
 71
3
 72
8
 73
4
 74
0
 40
0
 40
0
 40
0
 40
0
 40
1
 40
1
 40
1
 40
1
 10
129.329087
 20
296.007020
 30
0.0
 10
130.929817
 20
295.871969
 30
0.0
 10
133.192004
 20
295.688142
 30
0.0
 10
134.356171
 20
295.598514
 30
0.0
  0
SPLINE
  5
569
100
AcDbEntity
  8
0
 62
7
100
AcDbSpline
 70
8
 71
3
 72
8
 73
4
 74
0
 40
0
 40
0
 40
0
 40
0
 40
1
 40
1
 40
1
 40
1
 10
134.356171
 20
295.598514
 30
0.0
 10
135.520337
 20
295.508889
 30
0.0
 10
138.020650
 20
295.258731
 30
0.0
 10
139.912421
 20
295.042606
 30
0.0
  0
SPLINE
  5
56a
100
AcDbEntity
  8
0
 62
7
100
AcDbSpline
 70
8
 71
3
 72
8
 73
4
 74
0
 40
0
 40
0
 40
0
 40
0
 40
1
 40
1
 40
1
 40
1
 10
139.912421
 20
295.042606
 30
0.0
 10
164.628208
 20
292.218978
 30
0.0
 10
181.562759
 20
285.712538
 30
0.0
 10
196.004087
 20
273.491598
 30
0.0
  0
SPLINE
  5
56b
100
AcDbEntity
  8
0
 62
7
100
AcDbSpline
 70
8
 71
3
 72
8
 73
4
 74
0
 40
0
 40
0
 40
0
 40
0
 40
1
 40
1
 40
1
 40
1
 10
196.004087
 20
273.491598
 30
0.0
 10
198.292416
 20
271.555083
 30
0.0
 10
203.839352
 20
265.959130
 30
0.0
 10
206.221158
 20
263.184180
 30
0.0
  0
SPLINE
  5
56c
100
AcDbEntity
  8
0
 62
7
100
AcDbSpline
 70
8
 71
3
 72
8
 73
4
 74
0
 40
0
 40
0
 40
0
 40
0
 40
1
 40
1
 40
1
 40
1
 10
206.221158
 20
263.184180
 30
0.0
 10
207.777305
 20
261.371207
 30
0.0
 10
212.377033
 20
255.358794
 30
0.0
 10
213.153929
 20
254.122200
 30
0.0
  0
SPLINE
  5
56d
100
AcDbEntity
  8
0
 62
7
100
AcDbSpline
 70
8
 71
3
 72
8
 73
4
 74
0
 40
0
 40
0
 40
0
 40
0
 40
1
 40
1
 40
1
 40
1
 10
213.153929
 20
254.122200
 30
0.0
 10
214.100291
 20
252.615912
 30
0.0
 10
213.857324
 20
253.473596
 30
0.0
 10
212.779173
 20
255.445117
 30
0.0
  0
LWPOLYLINE
  5
56e
100
AcDbEntity
  8
0
 62
7
100
AcDbPolyline
 90
1
 70
1
 10
63.349516
 20
223.646545
 30
0.0
  0
LWPOLYLINE
  5
56f
100
AcDbEntity
  8
0
 62
7
100
AcDbPolyline
 90
1
 70
1
 10
212.779173
 20
255.445117
 30
0.0
  0
ENDSEC
  0
SECTION
  2
OBJECTS
  0
DICTIONARY
  5
C
330
0
100
AcDbDictionary
  3
ACAD_GROUP
350
D
  3
ACAD_MLINESTYLE
350
17
  0
DICTIONARY
  5
D
330
C
100
AcDbDictionary
  0
DICTIONARY
  5
1A
330
C
100
AcDbDictionary
  0
DICTIONARY
  5
17
330
C
100
AcDbDictionary
  3
STANDARD
350
18
  0
DICTIONARY
  5
19
330
C
100
AcDbDictionary
  0
ENDSEC
  0
EOF
