  0
SECTION
  2
HEADER
  9
$ACADVER
  1
AC1021
  9
$ACADMAINTVER
 70
    25
  9
$DWGCODEPAGE
  3
ANSI_1251
  9
$INSBASE
 10
0.0
 20
0.0
 30
0.0
  9
$EXTMIN
 10
-291.4774
 20
-273.3213
 30
0.0
  9
$EXTMAX
 10
197.5788
 20
87.3127
 30
0.0
  9
$LIMMIN
 10
0.0
 20
0.0
  9
$LIMMAX
 10
12.0
 20
9.0
  9
$ORTHOMODE
 70
     0
  9
$REGENMODE
 70
     1
  9
$FILLMODE
 70
     1
  9
$QTEXTMODE
 70
     0
  9
$MIRRTEXT
 70
     1
  9
$LTSCALE
 40
1.0
  9
$ATTMODE
 70
     1
  9
$TEXTSIZE
 40
0.2
  9
$TRACEWID
 40
0.05
  9
$TEXTSTYLE
  7
Standard
  9
$CLAYER
  8
0
  9
$CELTYPE
  6
ByLayer
  9
$CECOLOR
 62
   256
  9
$CELTSCALE
 40
1.0
  9
$DISPSILH
 70
     0
  9
$DIMSCALE
 40
1.0
  9
$DIMASZ
 40
0.18
  9
$DIMEXO
 40
0.0625
  9
$DIMDLI
 40
0.38
  9
$DIMRND
 40
0.0
  9
$DIMDLE
 40
0.0
  9
$DIMEXE
 40
0.18
  9
$DIMTP
 40
0.0
  9
$DIMTM
 40
0.0
  9
$DIMTXT
 40
0.18
  9
$DIMCEN
 40
0.09
  9
$DIMTSZ
 40
0.0
  9
$DIMTOL
 70
     0
  9
$DIMLIM
 70
     0
  9
$DIMTIH
 70
     1
  9
$DIMTOH
 70
     1
  9
$DIMSE1
 70
     0
  9
$DIMSE2
 70
     0
  9
$DIMTAD
 70
     0
  9
$DIMZIN
 70
     0
  9
$DIMBLK
  1

  9
$DIMASO
 70
     1
  9
$DIMSHO
 70
     1
  9
$DIMPOST
  1

  9
$DIMAPOST
  1

  9
$DIMALT
 70
     0
  9
$DIMALTD
 70
     2
  9
$DIMALTF
 40
25.4
  9
$DIMLFAC
 40
1.0
  9
$DIMTOFL
 70
     0
  9
$DIMTVP
 40
0.0
  9
$DIMTIX
 70
     0
  9
$DIMSOXD
 70
     0
  9
$DIMSAH
 70
     0
  9
$DIMBLK1
  1

  9
$DIMBLK2
  1

  9
$DIMSTYLE
  2
Standard
  9
$DIMCLRD
 70
     0
  9
$DIMCLRE
 70
     0
  9
$DIMCLRT
 70
     0
  9
$DIMTFAC
 40
1.0
  9
$DIMGAP
 40
0.09
  9
$DIMJUST
 70
     0
  9
$DIMSD1
 70
     0
  9
$DIMSD2
 70
     0
  9
$DIMTOLJ
 70
     1
  9
$DIMTZIN
 70
     0
  9
$DIMALTZ
 70
     0
  9
$DIMALTTZ
 70
     0
  9
$DIMUPT
 70
     0
  9
$DIMDEC
 70
     4
  9
$DIMTDEC
 70
     4
  9
$DIMALTU
 70
     2
  9
$DIMALTTD
 70
     2
  9
$DIMTXSTY
  7
Standard
  9
$DIMAUNIT
 70
     0
  9
$DIMADEC
 70
     0
  9
$DIMALTRND
 40
0.0
  9
$DIMAZIN
 70
     0
  9
$DIMDSEP
 70
    46
  9
$DIMATFIT
 70
     3
  9
$DIMFRAC
 70
     0
  9
$DIMLDRBLK
  1

  9
$DIMLUNIT
 70
     2
  9
$DIMLWD
 70
    -2
  9
$DIMLWE
 70
    -2
  9
$DIMTMOVE
 70
     0
  9
$DIMFXL
 40
1.0
  9
$DIMFXLON
 70
     0
  9
$DIMJOGANG
 40
0.7853981633974483
  9
$DIMTFILL
 70
     0
  9
$DIMTFILLCLR
 70
     0
  9
$DIMARCSYM
 70
     0
  9
$DIMLTYPE
  6

  9
$DIMLTEX1
  6

  9
$DIMLTEX2
  6

  9
$LUNITS
 70
     2
  9
$LUPREC
 70
     4
  9
$SKETCHINC
 40
0.1
  9
$FILLETRAD
 40
0.5
  9
$AUNITS
 70
     0
  9
$AUPREC
 70
     0
  9
$MENU
  1
.
  9
$ELEVATION
 40
0.0
  9
$PELEVATION
 40
0.0
  9
$THICKNESS
 40
0.0
  9
$LIMCHECK
 70
     0
  9
$CHAMFERA
 40
0.5
  9
$CHAMFERB
 40
0.5
  9
$CHAMFERC
 40
1.0
  9
$CHAMFERD
 40
0.0
  9
$SKPOLY
 70
     0
  9
$TDCREATE
 40
2458047.375894398
  9
$TDUCREATE
 40
2458047.125894398
  9
$TDUPDATE
 40
2458047.375896331
  9
$TDUUPDATE
 40
2458047.125896331
  9
$TDINDWG
 40
0.0000000116
  9
$TDUSRTIMER
 40
0.0000000116
  9
$USRTIMER
 70
     1
  9
$ANGBASE
 50
0.0
  9
$ANGDIR
 70
     0
  9
$PDMODE
 70
     0
  9
$PDSIZE
 40
0.0
  9
$PLINEWID
 40
0.0
  9
$SPLFRAME
 70
     0
  9
$SPLINETYPE
 70
     6
  9
$SPLINESEGS
 70
     8
  9
$HANDSEED
  5
C6
  9
$SURFTAB1
 70
     6
  9
$SURFTAB2
 70
     6
  9
$SURFTYPE
 70
     6
  9
$SURFU
 70
     6
  9
$SURFV
 70
     6
  9
$UCSBASE
  2

  9
$UCSNAME
  2

  9
$UCSORG
 10
0.0
 20
0.0
 30
0.0
  9
$UCSXDIR
 10
1.0
 20
0.0
 30
0.0
  9
$UCSYDIR
 10
0.0
 20
1.0
 30
0.0
  9
$UCSORTHOREF
  2

  9
$UCSORTHOVIEW
 70
     0
  9
$UCSORGTOP
 10
0.0
 20
0.0
 30
0.0
  9
$UCSORGBOTTOM
 10
0.0
 20
0.0
 30
0.0
  9
$UCSORGLEFT
 10
0.0
 20
0.0
 30
0.0
  9
$UCSORGRIGHT
 10
0.0
 20
0.0
 30
0.0
  9
$UCSORGFRONT
 10
0.0
 20
0.0
 30
0.0
  9
$UCSORGBACK
 10
0.0
 20
0.0
 30
0.0
  9
$PUCSBASE
  2

  9
$PUCSNAME
  2

  9
$PUCSORG
 10
0.0
 20
0.0
 30
0.0
  9
$PUCSXDIR
 10
1.0
 20
0.0
 30
0.0
  9
$PUCSYDIR
 10
0.0
 20
1.0
 30
0.0
  9
$PUCSORTHOREF
  2

  9
$PUCSORTHOVIEW
 70
     0
  9
$PUCSORGTOP
 10
0.0
 20
0.0
 30
0.0
  9
$PUCSORGBOTTOM
 10
0.0
 20
0.0
 30
0.0
  9
$PUCSORGLEFT
 10
0.0
 20
0.0
 30
0.0
  9
$PUCSORGRIGHT
 10
0.0
 20
0.0
 30
0.0
  9
$PUCSORGFRONT
 10
0.0
 20
0.0
 30
0.0
  9
$PUCSORGBACK
 10
0.0
 20
0.0
 30
0.0
  9
$USERI1
 70
     0
  9
$USERI2
 70
     0
  9
$USERI3
 70
     0
  9
$USERI4
 70
     0
  9
$USERI5
 70
     0
  9
$USERR1
 40
0.0
  9
$USERR2
 40
0.0
  9
$USERR3
 40
0.0
  9
$USERR4
 40
0.0
  9
$USERR5
 40
0.0
  9
$WORLDVIEW
 70
     1
  9
$SHADEDGE
 70
     3
  9
$SHADEDIF
 70
    70
  9
$TILEMODE
 70
     1
  9
$MAXACTVP
 70
    64
  9
$PINSBASE
 10
0.0
 20
0.0
 30
0.0
  9
$PLIMCHECK
 70
     0
  9
$PEXTMIN
 10
1.000000000000000E+20
 20
1.000000000000000E+20
 30
1.000000000000000E+20
  9
$PEXTMAX
 10
-1.000000000000000E+20
 20
-1.000000000000000E+20
 30
-1.000000000000000E+20
  9
$PLIMMIN
 10
0.0
 20
0.0
  9
$PLIMMAX
 10
12.0
 20
9.0
  9
$UNITMODE
 70
     0
  9
$VISRETAIN
 70
     1
  9
$PLINEGEN
 70
     0
  9
$PSLTSCALE
 70
     1
  9
$TREEDEPTH
 70
  3020
  9
$CMLSTYLE
  2
Standard
  9
$CMLJUST
 70
     0
  9
$CMLSCALE
 40
1.0
  9
$PROXYGRAPHICS
 70
     1
  9
$MEASUREMENT
 70
     0
  9
$CELWEIGHT
370
    -1
  9
$ENDCAPS
280
     0
  9
$JOINSTYLE
280
     0
  9
$LWDISPLAY
290
     0
  9
$INSUNITS
 70
     4
  9
$HYPERLINKBASE
  1

  9
$STYLESHEET
  1

  9
$XEDIT
290
     1
  9
$CEPSNTYPE
380
     0
  9
$PSTYLEMODE
290
     1
  9
$FINGERPRINTGUID
  2
{5A1A25F5-3FA8-400A-9D66-2CE09152FA14}
  9
$VERSIONGUID
  2
{FAEB1C32-E019-11D5-929B-00C0DF256EC4}
  9
$EXTNAMES
290
     1
  9
$PSVPSCALE
 40
0.0
  9
$OLESTARTUP
290
     0
  9
$SORTENTS
280
   127
  9
$INDEXCTL
280
     0
  9
$HIDETEXT
280
     1
  9
$XCLIPFRAME
290
     0
  9
$HALOGAP
280
     0
  9
$OBSCOLOR
 70
   257
  9
$OBSLTYPE
280
     0
  9
$INTERSECTIONDISPLAY
280
     0
  9
$INTERSECTIONCOLOR
 70
   257
  9
$DIMASSOC
280
     2
  9
$PROJECTNAME
  1

  9
$CAMERADISPLAY
290
     0
  9
$LENSLENGTH
 40
50.0
  9
$CAMERAHEIGHT
 40
0.0
  9
$STEPSPERSEC
 40
2.0
  9
$STEPSIZE
 40
6.0
  9
$3DDWFPREC
 40
2.0
  9
$PSOLWIDTH
 40
0.25
  9
$PSOLHEIGHT
 40
4.0
  9
$LOFTANG1
 40
1.570796326794897
  9
$LOFTANG2
 40
1.570796326794897
  9
$LOFTMAG1
 40
0.0
  9
$LOFTMAG2
 40
0.0
  9
$LOFTPARAM
 70
     7
  9
$LOFTNORMALS
280
     1
  9
$LATITUDE
 40
37.795
  9
$LONGITUDE
 40
-122.394
  9
$NORTHDIRECTION
 40
0.0
  9
$TIMEZONE
 70
 -8000
  9
$LIGHTGLYPHDISPLAY
280
     1
  9
$TILEMODELIGHTSYNCH
280
     1
  9
$SOLIDHIST
280
     1
  9
$SHOWHIST
280
     1
  9
$DWFFRAME
280
     2
  9
$DGNFRAME
280
     2
  9
$REALWORLDSCALE
290
     1
  9
$INTERFERECOLOR
 62
   256
  9
$CSHADOW
280
     0
  9
$SHADOWPLANELOCATION
 40
0.0
  0
ENDSEC
  0
SECTION
  2
CLASSES
  0
CLASS
  1
ACDBDICTIONARYWDFLT
  2
AcDbDictionaryWithDefault
  3
ObjectDBX Classes
 90
        0
 91
        4
280
     0
281
     0
  0
CLASS
  1
VISUALSTYLE
  2
AcDbVisualStyle
  3
ObjectDBX Classes
 90
     4095
 91
        4
280
     0
281
     0
  0
CLASS
  1
MATERIAL
  2
AcDbMaterial
  3
ObjectDBX Classes
 90
     1153
 91
        4
280
     0
281
     0
  0
ENDSEC
  0
SECTION
  2
TABLES
  0
TABLE
  2
VPORT
  5
8
330
0
100
AcDbSymbolTable
 70
     1
  0
VPORT
  5
29
330
8
100
AcDbSymbolTableRecord
100
AcDbViewportTableRecord
  2
*Active
 70
     0
 10
0.0
 20
0.0
 11
1.0
 21
1.0
 12
10.42990654205607
 22
4.5
 13
0.0
 23
0.0
 14
0.5
 24
0.5
 15
0.5
 25
0.5
 16
0.0
 26
0.0
 36
1.0
 17
0.0
 27
0.0
 37
0.0
 40
9.0
 41
1.972972972850329
 42
50.0
 43
0.0
 44
0.0
 50
0.0
 51
0.0
 71
     0
 72
   100
 73
     1
 74
     3
 75
     0
 76
     0
 77
     0
 78
     0
281
     0
 65
     1
110
0.0
120
0.0
130
0.0
111
1.0
121
0.0
131
0.0
112
0.0
122
1.0
132
0.0
 79
     0
146
0.0
 60
     3
 61
     5
292
     1
282
     1
141
0.0
142
0.0
 63
   250
  0
ENDTAB
  0
TABLE
  2
LTYPE
  5
5
330
0
100
AcDbSymbolTable
 70
     1
  0
LTYPE
  5
14
330
5
100
AcDbSymbolTableRecord
100
AcDbLinetypeTableRecord
  2
ByBlock
 70
     0
  3

 72
    65
 73
     0
 40
0.0
  0
LTYPE
  5
15
330
5
100
AcDbSymbolTableRecord
100
AcDbLinetypeTableRecord
  2
ByLayer
 70
     0
  3

 72
    65
 73
     0
 40
0.0
  0
LTYPE
  5
16
330
5
100
AcDbSymbolTableRecord
100
AcDbLinetypeTableRecord
  2
Continuous
 70
     0
  3
Solid line
 72
    65
 73
     0
 40
0.0
  0
ENDTAB
  0
TABLE
  2
LAYER
  5
2
330
0
100
AcDbSymbolTable
 70
     2
  0
LAYER
  5
10
330
2
100
AcDbSymbolTableRecord
100
AcDbLayerTableRecord
  2
0
 70
     0
 62
     7
  6
Continuous
370
    -3
390
F
347
3E
  0
LAYER
  5
40
330
2
100
AcDbSymbolTableRecord
100
AcDbLayerTableRecord
  2
layer 1
 70
     0
 62
     7
  6
Continuous
370
    -3
390
F
347
3E
  0
ENDTAB
  0
TABLE
  2
STYLE
  5
3
330
0
100
AcDbSymbolTable
 70
     1
  0
STYLE
  5
11
330
3
100
AcDbSymbolTableRecord
100
AcDbTextStyleTableRecord
  2
Standard
 70
     0
 40
0.0
 41
1.0
 50
0.0
 71
     0
 42
0.2
  3
txt
  4

  0
ENDTAB
  0
TABLE
  2
VIEW
  5
6
330
0
100
AcDbSymbolTable
 70
     0
  0
ENDTAB
  0
TABLE
  2
UCS
  5
7
330
0
100
AcDbSymbolTable
 70
     0
  0
ENDTAB
  0
TABLE
  2
APPID
  5
9
330
0
100
AcDbSymbolTable
 70
     2
  0
APPID
  5
12
330
9
100
AcDbSymbolTableRecord
100
AcDbRegAppTableRecord
  2
ACAD
 70
     0
  0
APPID
  5
3F
330
9
100
AcDbSymbolTableRecord
100
AcDbRegAppTableRecord
  2
ODA
 70
     0
  0
ENDTAB
  0
TABLE
  2
DIMSTYLE
  5
A
330
0
100
AcDbSymbolTable
 70
     1
100
AcDbDimStyleTable
  0
DIMSTYLE
105
27
330
A
100
AcDbSymbolTableRecord
100
AcDbDimStyleTableRecord
  2
Standard
 70
     0
178
     0
340
11
  0
ENDTAB
  0
TABLE
  2
BLOCK_RECORD
  5
1
330
0
100
AcDbSymbolTable
 70
     1
  0
BLOCK_RECORD
  5
1F
330
1
100
AcDbSymbolTableRecord
100
AcDbBlockTableRecord
  2
*Model_Space
340
22
 70
     0
280
     1
281
     0
  0
BLOCK_RECORD
  5
1B
330
1
100
AcDbSymbolTableRecord
100
AcDbBlockTableRecord
  2
*Paper_Space
340
1E
 70
     0
280
     1
281
     0
  0
BLOCK_RECORD
  5
23
330
1
100
AcDbSymbolTableRecord
100
AcDbBlockTableRecord
  2
*Paper_Space0
340
26
 70
     0
280
     1
281
     0
  0
ENDTAB
  0
ENDSEC
  0
SECTION
  2
BLOCKS
  0
BLOCK
  5
20
330
1F
100
AcDbEntity
  8
0
100
AcDbBlockBegin
  2
*Model_Space
 70
     0
 10
0.0
 20
0.0
 30
0.0
  3
*Model_Space
  1

  0
ENDBLK
  5
21
330
1F
100
AcDbEntity
  8
0
100
AcDbBlockEnd
  0
BLOCK
  5
1C
330
1B
100
AcDbEntity
 67
     1
  8
0
100
AcDbBlockBegin
  2
*Paper_Space
 70
     0
 10
0.0
 20
0.0
 30
0.0
  3
*Paper_Space
  1

  0
ENDBLK
  5
1D
330
1B
100
AcDbEntity
 67
     1
  8
0
100
AcDbBlockEnd
  0
BLOCK
  5
24
330
23
100
AcDbEntity
  8
0
100
AcDbBlockBegin
  2
*Paper_Space0
 70
     0
 10
0.0
 20
0.0
 30
0.0
  3
*Paper_Space0
  1

  0
ENDBLK
  5
25
330
23
100
AcDbEntity
  8
0
100
AcDbBlockEnd
  0
ENDSEC
  0
SECTION
  2
ENTITIES
  0
SPLINE
  5
41
330
1F
100
AcDbEntity
  8
layer 1
370
     9
100
AcDbSpline
210
0.0
220
0.0
230
1.0
 70
    11
 71
     3
 72
   204
 73
   200
 74
     0
 42
0.0000000001
 43
0.0000000001
 12
1.0
 22
0.0
 32
0.0
 13
1.0
 23
0.0
 33
0.0
 40
0.0
 40
0.0
 40
0.0
 40
0.0
 40
0.0196078431372549
 40
0.0196078431372549
 40
0.0196078431372549
 40
0.0196078431372549
 40
0.0392156862745098
 40
0.0392156862745098
 40
0.0392156862745098
 40
0.0392156862745098
 40
0.0588235294117647
 40
0.0588235294117647
 40
0.0588235294117647
 40
0.0588235294117647
 40
0.0784313725490196
 40
0.0784313725490196
 40
0.0784313725490196
 40
0.0784313725490196
 40
0.0980392156862745
 40
0.0980392156862745
 40
0.0980392156862745
 40
0.0980392156862745
 40
0.1176470588235294
 40
0.1176470588235294
 40
0.1176470588235294
 40
0.1176470588235294
 40
0.1372549019607843
 40
0.1372549019607843
 40
0.1372549019607843
 40
0.1372549019607843
 40
0.1568627450980392
 40
0.1568627450980392
 40
0.1568627450980392
 40
0.1568627450980392
 40
0.1764705882352941
 40
0.1764705882352941
 40
0.1764705882352941
 40
0.1764705882352941
 40
0.196078431372549
 40
0.196078431372549
 40
0.196078431372549
 40
0.196078431372549
 40
0.2156862745098039
 40
0.2156862745098039
 40
0.2156862745098039
 40
0.2156862745098039
 40
0.2352941176470588
 40
0.2352941176470588
 40
0.2352941176470588
 40
0.2352941176470588
 40
0.2549019607843137
 40
0.2549019607843137
 40
0.2549019607843137
 40
0.2549019607843137
 40
0.2745098039215687
 40
0.2745098039215687
 40
0.2745098039215687
 40
0.2745098039215687
 40
0.2941176470588235
 40
0.2941176470588235
 40
0.2941176470588235
 40
0.2941176470588235
 40
0.3137254901960784
 40
0.3137254901960784
 40
0.3137254901960784
 40
0.3137254901960784
 40
0.3333333333333333
 40
0.3333333333333333
 40
0.3333333333333333
 40
0.3333333333333333
 40
0.3529411764705883
 40
0.3529411764705883
 40
0.3529411764705883
 40
0.3529411764705883
 40
0.3725490196078431
 40
0.3725490196078431
 40
0.3725490196078431
 40
0.3725490196078431
 40
0.392156862745098
 40
0.392156862745098
 40
0.392156862745098
 40
0.392156862745098
 40
0.4117647058823529
 40
0.4117647058823529
 40
0.4117647058823529
 40
0.4117647058823529
 40
0.4313725490196079
 40
0.4313725490196079
 40
0.4313725490196079
 40
0.4313725490196079
 40
0.4509803921568628
 40
0.4509803921568628
 40
0.4509803921568628
 40
0.4509803921568628
 40
0.4705882352941176
 40
0.4705882352941176
 40
0.4705882352941176
 40
0.4705882352941176
 40
0.4901960784313725
 40
0.4901960784313725
 40
0.4901960784313725
 40
0.4901960784313725
 40
0.5098039215686274
 40
0.5098039215686274
 40
0.5098039215686274
 40
0.5098039215686274
 40
0.5294117647058824
 40
0.5294117647058824
 40
0.5294117647058824
 40
0.5294117647058824
 40
0.5490196078431373
 40
0.5490196078431373
 40
0.5490196078431373
 40
0.5490196078431373
 40
0.5686274509803921
 40
0.5686274509803921
 40
0.5686274509803921
 40
0.5686274509803921
 40
0.5882352941176471
 40
0.5882352941176471
 40
0.5882352941176471
 40
0.5882352941176471
 40
0.6078431372549019
 40
0.6078431372549019
 40
0.6078431372549019
 40
0.6078431372549019
 40
0.6274509803921569
 40
0.6274509803921569
 40
0.6274509803921569
 40
0.6274509803921569
 40
0.6470588235294118
 40
0.6470588235294118
 40
0.6470588235294118
 40
0.6470588235294118
 40
0.6666666666666666
 40
0.6666666666666666
 40
0.6666666666666666
 40
0.6666666666666666
 40
0.6862745098039216
 40
0.6862745098039216
 40
0.6862745098039216
 40
0.6862745098039216
 40
0.7058823529411765
 40
0.7058823529411765
 40
0.7058823529411765
 40
0.7058823529411765
 40
0.7254901960784313
 40
0.7254901960784313
 40
0.7254901960784313
 40
0.7254901960784313
 40
0.7450980392156863
 40
0.7450980392156863
 40
0.7450980392156863
 40
0.7450980392156863
 40
0.7647058823529411
 40
0.7647058823529411
 40
0.7647058823529411
 40
0.7647058823529411
 40
0.7843137254901961
 40
0.7843137254901961
 40
0.7843137254901961
 40
0.7843137254901961
 40
0.803921568627451
 40
0.803921568627451
 40
0.803921568627451
 40
0.803921568627451
 40
0.8235294117647058
 40
0.8235294117647058
 40
0.8235294117647058
 40
0.8235294117647058
 40
0.8431372549019608
 40
0.8431372549019608
 40
0.8431372549019608
 40
0.8431372549019608
 40
0.8627450980392157
 40
0.8627450980392157
 40
0.8627450980392157
 40
0.8627450980392157
 40
0.8823529411764706
 40
0.8823529411764706
 40
0.8823529411764706
 40
0.8823529411764706
 40
0.9019607843137255
 40
0.9019607843137255
 40
0.9019607843137255
 40
0.9019607843137255
 40
0.9215686274509803
 40
0.9215686274509803
 40
0.9215686274509803
 40
0.9215686274509803
 40
0.9411764705882353
 40
0.9411764705882353
 40
0.9411764705882353
 40
0.9411764705882353
 40
0.9607843137254902
 40
0.9607843137254902
 40
0.9607843137254902
 40
0.9607843137254902
 40
1.0
 40
1.0
 40
1.0
 40
1.0
 10
-135.1016
 20
87.2746
 30
0.0
 10
-159.5879
 20
87.2746
 30
0.0
 10
-179.4373
 20
69.9472
 30
0.0
 10
-179.4373
 20
48.5653
 30
0.0
 10
-179.4373
 20
48.5653
 30
0.0
 10
-179.4373
 20
48.0968
 30
0.0
 10
-179.4288
 20
47.6283
 30
0.0
 10
-179.4112
 20
47.1641
 30
0.0
 10
-179.4112
 20
47.1641
 30
0.0
 10
-179.4112
 20
47.1641
 30
0.0
 10
-179.4112
 20
-68.988
 30
0.0
 10
-179.4112
 20
-68.988
 30
0.0
 10
-179.4112
 20
-68.988
 30
0.0
 10
-179.4112
 20
-68.988
 30
0.0
 10
-180.206
 20
-78.1479
 30
0.0
 10
-169.4011
 20
-72.2071
 30
0.0
 10
-169.4011
 20
-72.2071
 30
0.0
 10
-158.5945
 20
-66.2681
 30
0.0
 10
-154.6698
 20
-75.301
 30
0.0
 10
-153.905
 20
-76.238
 30
0.0
 10
-153.905
 20
-76.238
 30
0.0
 10
-153.1388
 20
-77.1749
 30
0.0
 10
-151.8832
 20
-78.6869
 30
0.0
 10
-148.2948
 20
-78.531
 30
0.0
 10
-148.2948
 20
-78.531
 30
0.0
 10
-144.7067
 20
-78.3754
 30
0.0
 10
-140.4293
 20
-72.6248
 30
0.0
 10
-135.1016
 20
-72.7984
 30
0.0
 10
-135.1016
 20
-72.7984
 30
0.0
 10
-129.774
 20
-72.9719
 30
0.0
 10
-125.698
 20
-78.5049
 30
0.0
 10
-121.6601
 20
-78.5229
 30
0.0
 10
-121.6601
 20
-78.5229
 30
0.0
 10
-117.6225
 20
-78.5409
 30
0.0
 10
-116.4125
 20
-76.7562
 30
0.0
 10
-115.7951
 20
-76.0975
 30
0.0
 10
-115.7951
 20
-76.0975
 30
0.0
 10
-115.1792
 20
-75.4389
 30
0.0
 10
-112.8381
 20
-65.8296
 30
0.0
 10
-101.684
 20
-72.2071
 30
0.0
 10
-101.684
 20
-72.2071
 30
0.0
 10
-91.0263
 20
-78.3024
 30
0.0
 10
-90.7839
 20
-69.8964
 30
0.0
 10
-90.7839
 20
-69.1302
 30
0.0
 10
-90.7839
 20
-69.1302
 30
0.0
 10
-90.7687
 20
-69.1302
 30
0.0
 10
-90.7631
 20
-69.1302
 30
0.0
 10
-90.7479
 20
-69.1302
 30
0.0
 10
-90.7479
 20
-69.1302
 30
0.0
 10
-90.7934
 20
-69.8922
 30
0.0
 10
-91.0428
 20
-77.871
 30
0.0
 10
-80.7378
 20
-72.2071
 30
0.0
 10
-80.7378
 20
-72.2071
 30
0.0
 10
-69.933
 20
-66.2681
 30
0.0
 10
-66.0083
 20
-75.301
 30
0.0
 10
-65.2435
 20
-76.238
 30
0.0
 10
-65.2435
 20
-76.238
 30
0.0
 10
-64.4773
 20
-77.1749
 30
0.0
 10
-63.2217
 20
-78.6869
 30
0.0
 10
-59.6333
 20
-78.531
 30
0.0
 10
-59.6333
 20
-78.531
 30
0.0
 10
-56.0448
 20
-78.3754
 30
0.0
 10
-51.7674
 20
-72.6248
 30
0.0
 10
-46.4401
 20
-72.7984
 30
0.0
 10
-46.4401
 20
-72.7984
 30
0.0
 10
-41.1124
 20
-72.9719
 30
0.0
 10
-37.0364
 20
-78.5049
 30
0.0
 10
-32.9985
 20
-78.5229
 30
0.0
 10
-32.9985
 20
-78.5229
 30
0.0
 10
-28.961
 20
-78.5409
 30
0.0
 10
-27.751
 20
-76.7562
 30
0.0
 10
-27.1336
 20
-76.0975
 30
0.0
 10
-27.1336
 20
-76.0975
 30
0.0
 10
-26.5177
 20
-75.4389
 30
0.0
 10
-24.1763
 20
-65.8296
 30
0.0
 10
-13.0225
 20
-72.2071
 30
0.0
 10
-13.0225
 20
-72.2071
 30
0.0
 10
-2.3647
 20
-78.3024
 30
0.0
 10
-2.1224
 20
-69.8964
 30
0.0
 10
-2.1224
 20
-69.1302
 30
0.0
 10
-2.1224
 20
-69.1302
 30
0.0
 10
-2.1058
 20
-69.1302
 30
0.0
 10
-2.092
 20
-69.1302
 30
0.0
 10
-2.0783
 20
-69.1302
 30
0.0
 10
-2.0783
 20
-69.1302
 30
0.0
 10
-2.11
 20
-69.5807
 30
0.0
 10
-2.5909
 20
-78.0544
 30
0.0
 10
7.9318
 20
-72.2692
 30
0.0
 10
7.9318
 20
-72.2692
 30
0.0
 10
18.7384
 20
-66.3298
 30
0.0
 10
22.6631
 20
-75.3631
 30
0.0
 10
23.4279
 20
-76.3
 30
0.0
 10
23.4279
 20
-76.3
 30
0.0
 10
24.1927
 20
-77.237
 30
0.0
 10
25.4483
 20
-78.7487
 30
0.0
 10
29.0364
 20
-78.5931
 30
0.0
 10
29.0364
 20
-78.5931
 30
0.0
 10
32.6248
 20
-78.4375
 30
0.0
 10
36.9037
 20
-72.6869
 30
0.0
 10
42.2313
 20
-72.8605
 30
0.0
 10
42.2313
 20
-72.8605
 30
0.0
 10
47.5586
 20
-73.034
 30
0.0
 10
51.6336
 20
-78.567
 30
0.0
 10
55.6711
 20
-78.585
 30
0.0
 10
55.6711
 20
-78.585
 30
0.0
 10
59.709
 20
-78.6012
 30
0.0
 10
60.9201
 20
-76.8183
 30
0.0
 10
61.536
 20
-76.1596
 30
0.0
 10
61.536
 20
-76.1596
 30
0.0
 10
62.1534
 20
-75.5006
 30
0.0
 10
64.4948
 20
-65.8917
 30
0.0
 10
75.6471
 20
-72.2692
 30
0.0
 10
75.6471
 20
-72.2692
 30
0.0
 10
86.4912
 20
-78.4703
 30
0.0
 10
86.5529
 20
-69.6371
 30
0.0
 10
86.549
 20
-69.1383
 30
0.0
 10
86.549
 20
-69.1383
 30
0.0
 10
86.5628
 20
-69.1383
 30
0.0
 10
86.5614
 20
-69.1383
 30
0.0
 10
86.5751
 20
-69.1383
 30
0.0
 10
86.5751
 20
-69.1383
 30
0.0
 10
86.5367
 20
-69.7267
 30
0.0
 10
86.1564
 20
-77.9853
 30
0.0
 10
96.5852
 20
-72.2512
 30
0.0
 10
96.5852
 20
-72.2512
 30
0.0
 10
107.3918
 20
-66.3122
 30
0.0
 10
111.3151
 20
-75.3451
 30
0.0
 10
112.0813
 20
-76.282
 30
0.0
 10
112.0813
 20
-76.282
 30
0.0
 10
112.8461
 20
-77.219
 30
0.0
 10
114.1013
 20
-78.731
 30
0.0
 10
117.6898
 20
-78.5751
 30
0.0
 10
117.6898
 20
-78.5751
 30
0.0
 10
121.2782
 20
-78.4195
 30
0.0
 10
125.5571
 20
-72.6689
 30
0.0
 10
130.8847
 20
-72.8425
 30
0.0
 10
130.8847
 20
-72.8425
 30
0.0
 10
136.212
 20
-73.016
 30
0.0
 10
140.287
 20
-78.549
 30
0.0
 10
144.3245
 20
-78.567
 30
0.0
 10
144.3245
 20
-78.567
 30
0.0
 10
148.3624
 20
-78.585
 30
0.0
 10
149.5735
 20
-76.8003
 30
0.0
 10
150.1894
 20
-76.1416
 30
0.0
 10
150.1894
 20
-76.1416
 30
0.0
 10
150.8068
 20
-75.483
 30
0.0
 10
153.1468
 20
-65.8737
 30
0.0
 10
164.3005
 20
-72.2512
 30
0.0
 10
164.3005
 20
-72.2512
 30
0.0
 10
175.4543
 20
-78.6301
 30
0.0
 10
175.2024
 20
-69.0321
 30
0.0
 10
175.2024
 20
-69.0321
 30
0.0
 10
175.2024
 20
-69.0321
 30
0.0
 10
175.2024
 20
-69.0321
 30
0.0
 10
175.2024
 20
-68.3184
 30
0.0
 10
175.2024
 20
-68.3184
 30
0.0
 10
175.2024
 20
-68.3184
 30
0.0
 10
186.4913
 20
-62.1159
 30
0.0
 10
175.4229
 20
-68.299
 30
0.0
 10
186.8342
 20
-62.0044
 30
0.0
 10
186.8342
 20
-62.0044
 30
0.0
 10
186.8342
 20
-62.0044
 30
0.0
 10
186.8342
 20
41.4657
 30
0.0
 10
186.8342
 20
41.4657
 30
0.0
 10
186.8342
 20
41.4657
 30
0.0
 10
175.1375
 20
47.8668
 30
0.0
 10
186.8261
 20
41.2963
 30
0.0
 10
175.2106
 20
47.8859
 30
0.0
 10
175.2106
 20
47.8859
 30
0.0
 10
175.2162
 20
48.0982
 30
0.0
 10
175.2187
 20
48.3106
 30
0.0
 10
175.2187
 20
48.5212
 30
0.0
 10
175.2187
 20
48.5212
 30
0.0
 10
175.2187
 20
69.9031
 30
0.0
 10
155.3696
 20
87.2305
 30
0.0
 10
130.8847
 20
87.2305
 30
0.0
 10
130.8847
 20
87.2305
 30
0.0
 10
106.5843
 20
87.2305
 30
0.0
 10
86.8563
 20
70.1634
 30
0.0
 10
86.5571
 20
49.0063
 30
0.0
 10
86.5571
 20
49.0063
 30
0.0
 10
86.2485
 20
70.155
 30
0.0
 10
66.5247
 20
87.2125
 30
0.0
 10
42.2313
 20
87.2125
 30
0.0
 10
42.2313
 20
87.2125
 30
0.0
 10
17.7683
 20
87.2125
 30
0.0
 10
-2.0659
 20
69.9182
 30
0.0
 10
-2.1044
 20
48.5653
 30
0.0
 10
-2.1044
 20
48.5653
 30
0.0
 10
-2.1044
 20
69.9472
 30
0.0
 10
-21.9538
 20
87.2746
 30
0.0
 10
-46.4401
 20
87.2746
 30
0.0
 10
-46.4401
 20
87.2746
 30
0.0
 10
-70.8311
 20
87.2746
 30
0.0
 10
-90.6227
 20
70.0795
 30
0.0
 10
-90.7758
 20
48.8119
 30
0.0
 10
-90.7758
 20
48.8119
 30
0.0
 10
-90.9285
 20
70.0795
 30
0.0
 10
-110.7102
 20
87.2746
 30
0.0
 10
-135.1016
 20
87.2746
 30
0.0
  0
SPLINE
  5
42
330
1F
100
AcDbEntity
  8
layer 1
370
     9
100
AcDbSpline
210
0.0
220
0.0
230
1.0
 70
    11
 71
     3
 72
    24
 73
    20
 74
     0
 42
0.0000000001
 43
0.0000000001
 12
1.0
 22
0.0
 32
0.0
 13
1.0
 23
0.0
 33
0.0
 40
0.0
 40
0.0
 40
0.0
 40
0.0
 40
0.1666666666666667
 40
0.1666666666666667
 40
0.1666666666666667
 40
0.1666666666666667
 40
0.3333333333333333
 40
0.3333333333333333
 40
0.3333333333333333
 40
0.3333333333333333
 40
0.5
 40
0.5
 40
0.5
 40
0.5
 40
0.6666666666666666
 40
0.6666666666666666
 40
0.6666666666666666
 40
0.6666666666666666
 40
1.0
 40
1.0
 40
1.0
 40
1.0
 10
-135.1016
 20
80.3855
 30
0.0
 10
-118.6258
 20
80.3855
 30
0.0
 10
-105.2739
 20
71.8596
 30
0.0
 10
-105.2739
 20
61.3454
 30
0.0
 10
-105.2739
 20
61.3454
 30
0.0
 10
-105.2739
 20
59.1638
 30
0.0
 10
-104.0339
 20
55.1097
 30
0.0
 10
-106.9055
 20
55.1097
 30
0.0
 10
-106.9055
 20
55.1097
 30
0.0
 10
-106.9055
 20
55.1097
 30
0.0
 10
-163.3058
 20
55.1097
 30
0.0
 10
-163.3058
 20
55.1097
 30
0.0
 10
-163.3058
 20
55.1097
 30
0.0
 10
-166.1778
 20
55.1097
 30
0.0
 10
-164.9374
 20
59.1638
 30
0.0
 10
-164.9374
 20
61.3454
 30
0.0
 10
-164.9374
 20
61.3454
 30
0.0
 10
-164.9374
 20
71.8596
 30
0.0
 10
-151.5774
 20
80.3855
 30
0.0
 10
-135.1016
 20
80.3855
 30
0.0
  0
SPLINE
  5
43
330
1F
100
AcDbEntity
  8
layer 1
370
     9
100
AcDbSpline
210
0.0
220
0.0
230
1.0
 70
    11
 71
     3
 72
    24
 73
    20
 74
     0
 42
0.0000000001
 43
0.0000000001
 12
1.0
 22
0.0
 32
0.0
 13
1.0
 23
0.0
 33
0.0
 40
0.0
 40
0.0
 40
0.0
 40
0.0
 40
0.1666666666666667
 40
0.1666666666666667
 40
0.1666666666666667
 40
0.1666666666666667
 40
0.3333333333333333
 40
0.3333333333333333
 40
0.3333333333333333
 40
0.3333333333333333
 40
0.5
 40
0.5
 40
0.5
 40
0.5
 40
0.6666666666666666
 40
0.6666666666666666
 40
0.6666666666666666
 40
0.6666666666666666
 40
1.0
 40
1.0
 40
1.0
 40
1.0
 10
-46.4401
 20
80.3855
 30
0.0
 10
-29.9643
 20
80.3855
 30
0.0
 10
-16.6124
 20
71.8596
 30
0.0
 10
-16.6124
 20
61.3454
 30
0.0
 10
-16.6124
 20
61.3454
 30
0.0
 10
-16.6124
 20
59.1638
 30
0.0
 10
-15.372
 20
55.1097
 30
0.0
 10
-18.244
 20
55.1097
 30
0.0
 10
-18.244
 20
55.1097
 30
0.0
 10
-18.244
 20
55.1097
 30
0.0
 10
-74.6443
 20
55.1097
 30
0.0
 10
-74.6443
 20
55.1097
 30
0.0
 10
-74.6443
 20
55.1097
 30
0.0
 10
-77.5163
 20
55.1097
 30
0.0
 10
-76.2759
 20
59.1638
 30
0.0
 10
-76.2759
 20
61.3454
 30
0.0
 10
-76.2759
 20
61.3454
 30
0.0
 10
-76.2759
 20
71.8596
 30
0.0
 10
-62.9159
 20
80.3855
 30
0.0
 10
-46.4401
 20
80.3855
 30
0.0
  0
SPLINE
  5
44
330
1F
100
AcDbEntity
  8
layer 1
370
     9
100
AcDbSpline
210
0.0
220
0.0
230
1.0
 70
    11
 71
     3
 72
    24
 73
    20
 74
     0
 42
0.0000000001
 43
0.0000000001
 12
1.0
 22
0.0
 32
0.0
 13
1.0
 23
0.0
 33
0.0
 40
0.0
 40
0.0
 40
0.0
 40
0.0
 40
0.1666666666666667
 40
0.1666666666666667
 40
0.1666666666666667
 40
0.1666666666666667
 40
0.3333333333333333
 40
0.3333333333333333
 40
0.3333333333333333
 40
0.3333333333333333
 40
0.5
 40
0.5
 40
0.5
 40
0.5
 40
0.6666666666666666
 40
0.6666666666666666
 40
0.6666666666666666
 40
0.6666666666666666
 40
1.0
 40
1.0
 40
1.0
 40
1.0
 10
130.8847
 20
80.3414
 30
0.0
 10
147.3591
 20
80.3414
 30
0.0
 10
160.7107
 20
71.8155
 30
0.0
 10
160.7107
 20
61.3013
 30
0.0
 10
160.7107
 20
61.3013
 30
0.0
 10
160.7107
 20
59.1197
 30
0.0
 10
161.9525
 20
55.0656
 30
0.0
 10
159.0791
 20
55.0656
 30
0.0
 10
159.0791
 20
55.0656
 30
0.0
 10
159.0791
 20
55.0656
 30
0.0
 10
102.6787
 20
55.0656
 30
0.0
 10
102.6787
 20
55.0656
 30
0.0
 10
102.6787
 20
55.0656
 30
0.0
 10
99.8071
 20
55.0656
 30
0.0
 10
101.0471
 20
59.1197
 30
0.0
 10
101.0471
 20
61.3013
 30
0.0
 10
101.0471
 20
61.3013
 30
0.0
 10
101.0471
 20
71.8155
 30
0.0
 10
114.4086
 20
80.3414
 30
0.0
 10
130.8847
 20
80.3414
 30
0.0
  0
SPLINE
  5
45
330
1F
100
AcDbEntity
  8
layer 1
370
     9
100
AcDbSpline
210
0.0
220
0.0
230
1.0
 70
    11
 71
     3
 72
    24
 73
    20
 74
     0
 42
0.0000000001
 43
0.0000000001
 12
1.0
 22
0.0
 32
0.0
 13
1.0
 23
0.0
 33
0.0
 40
0.0
 40
0.0
 40
0.0
 40
0.0
 40
0.1666666666666667
 40
0.1666666666666667
 40
0.1666666666666667
 40
0.1666666666666667
 40
0.3333333333333333
 40
0.3333333333333333
 40
0.3333333333333333
 40
0.3333333333333333
 40
0.5
 40
0.5
 40
0.5
 40
0.5
 40
0.6666666666666666
 40
0.6666666666666666
 40
0.6666666666666666
 40
0.6666666666666666
 40
1.0
 40
1.0
 40
1.0
 40
1.0
 10
42.2313
 20
80.3252
 30
0.0
 10
58.7071
 20
80.3252
 30
0.0
 10
72.059
 20
71.7978
 30
0.0
 10
72.059
 20
61.2833
 30
0.0
 10
72.059
 20
61.2833
 30
0.0
 10
72.059
 20
59.1017
 30
0.0
 10
73.2991
 20
55.0476
 30
0.0
 10
70.4274
 20
55.0476
 30
0.0
 10
70.4274
 20
55.0476
 30
0.0
 10
70.4274
 20
55.0476
 30
0.0
 10
14.0271
 20
55.0476
 30
0.0
 10
14.0271
 20
55.0476
 30
0.0
 10
14.0271
 20
55.0476
 30
0.0
 10
11.1537
 20
55.0476
 30
0.0
 10
12.3955
 20
59.1017
 30
0.0
 10
12.3955
 20
61.2833
 30
0.0
 10
12.3955
 20
61.2833
 30
0.0
 10
12.3955
 20
71.7978
 30
0.0
 10
25.7555
 20
80.3252
 30
0.0
 10
42.2313
 20
80.3252
 30
0.0
  0
SPLINE
  5
46
330
1F
100
AcDbEntity
  8
layer 1
370
     9
100
AcDbSpline
210
0.0
220
0.0
230
1.0
 70
    11
 71
     3
 72
    16
 73
    12
 74
     0
 42
0.0000000001
 43
0.0000000001
 12
1.0
 22
0.0
 32
0.0
 13
1.0
 23
0.0
 33
0.0
 40
0.0
 40
0.0
 40
0.0
 40
0.0
 40
0.25
 40
0.25
 40
0.25
 40
0.25
 40
0.5
 40
0.5
 40
0.5
 40
0.5
 40
1.0
 40
1.0
 40
1.0
 40
1.0
 10
-2.1044
 20
48.5032
 30
0.0
 10
-2.1044
 20
48.36
 30
0.0
 10
-2.0973
 20
48.2153
 30
0.0
 10
-2.0963
 20
48.0721
 30
0.0
 10
-2.0963
 20
48.0721
 30
0.0
 10
-2.1016
 20
48.0721
 30
0.0
 10
-2.1072
 20
48.0721
 30
0.0
 10
-2.1125
 20
48.0721
 30
0.0
 10
-2.1125
 20
48.0721
 30
0.0
 10
-2.11
 20
48.2168
 30
0.0
 10
-2.1044
 20
48.36
 30
0.0
 10
-2.1044
 20
48.5032
 30
0.0
  0
SPLINE
  5
47
330
1F
100
AcDbEntity
  8
layer 1
370
     9
100
AcDbSpline
210
0.0
220
0.0
230
1.0
 70
    11
 71
     3
 72
    16
 73
    12
 74
     0
 42
0.0000000001
 43
0.0000000001
 12
1.0
 22
0.0
 32
0.0
 13
1.0
 23
0.0
 33
0.0
 40
0.0
 40
0.0
 40
0.0
 40
0.0
 40
0.25
 40
0.25
 40
0.25
 40
0.25
 40
0.5
 40
0.5
 40
0.5
 40
0.5
 40
1.0
 40
1.0
 40
1.0
 40
1.0
 10
-90.7758
 20
48.2746
 30
0.0
 10
-90.7744
 20
48.2097
 30
0.0
 10
-90.7673
 20
48.1451
 30
0.0
 10
-90.7659
 20
48.0802
 30
0.0
 10
-90.7659
 20
48.0802
 30
0.0
 10
-90.7701
 20
48.0802
 30
0.0
 10
-90.7715
 20
48.0802
 30
0.0
 10
-90.7758
 20
48.0802
 30
0.0
 10
-90.7758
 20
48.0802
 30
0.0
 10
-90.7744
 20
48.1451
 30
0.0
 10
-90.7758
 20
48.2097
 30
0.0
 10
-90.7758
 20
48.2746
 30
0.0
  0
SPLINE
  5
48
330
1F
100
AcDbEntity
  8
layer 1
370
     9
100
AcDbSpline
210
0.0
220
0.0
230
1.0
 70
    11
 71
     3
 72
    36
 73
    32
 74
     0
 42
0.0000000001
 43
0.0000000001
 12
1.0
 22
0.0
 32
0.0
 13
1.0
 23
0.0
 33
0.0
 40
0.0
 40
0.0
 40
0.0
 40
0.0
 40
0.1111111111111111
 40
0.1111111111111111
 40
0.1111111111111111
 40
0.1111111111111111
 40
0.2222222222222222
 40
0.2222222222222222
 40
0.2222222222222222
 40
0.2222222222222222
 40
0.3333333333333333
 40
0.3333333333333333
 40
0.3333333333333333
 40
0.3333333333333333
 40
0.4444444444444444
 40
0.4444444444444444
 40
0.4444444444444444
 40
0.4444444444444444
 40
0.5555555555555556
 40
0.5555555555555556
 40
0.5555555555555556
 40
0.5555555555555556
 40
0.6666666666666666
 40
0.6666666666666666
 40
0.6666666666666666
 40
0.6666666666666666
 40
0.7777777777777778
 40
0.7777777777777778
 40
0.7777777777777778
 40
0.7777777777777778
 40
1.0
 40
1.0
 40
1.0
 40
1.0
 10
-159.8401
 20
37.964
 30
0.0
 10
-159.8401
 20
37.964
 30
0.0
 10
-110.3712
 20
37.964
 30
0.0
 10
-110.3712
 20
37.964
 30
0.0
 10
-110.3712
 20
37.964
 30
0.0
 10
-104.6855
 20
37.964
 30
0.0
 10
-100.1064
 20
33.3863
 30
0.0
 10
-100.1064
 20
27.6992
 30
0.0
 10
-100.1064
 20
27.6992
 30
0.0
 10
-100.1064
 20
27.6992
 30
0.0
 10
-100.1064
 20
-37.2119
 30
0.0
 10
-100.1064
 20
-37.2119
 30
0.0
 10
-100.1064
 20
-37.2119
 30
0.0
 10
-100.1064
 20
-42.899
 30
0.0
 10
-104.6855
 20
-47.4784
 30
0.0
 10
-110.3712
 20
-47.4784
 30
0.0
 10
-110.3712
 20
-47.4784
 30
0.0
 10
-110.3712
 20
-47.4784
 30
0.0
 10
-159.8401
 20
-47.4784
 30
0.0
 10
-159.8401
 20
-47.4784
 30
0.0
 10
-159.8401
 20
-47.4784
 30
0.0
 10
-165.5273
 20
-47.4784
 30
0.0
 10
-170.1067
 20
-42.899
 30
0.0
 10
-170.1067
 20
-37.2119
 30
0.0
 10
-170.1067
 20
-37.2119
 30
0.0
 10
-170.1067
 20
-37.2119
 30
0.0
 10
-170.1067
 20
27.6992
 30
0.0
 10
-170.1067
 20
27.6992
 30
0.0
 10
-170.1067
 20
27.6992
 30
0.0
 10
-170.1067
 20
33.3863
 30
0.0
 10
-165.5273
 20
37.964
 30
0.0
 10
-159.8401
 20
37.964
 30
0.0
  0
SPLINE
  5
49
330
1F
100
AcDbEntity
  8
layer 1
370
     9
100
AcDbSpline
210
0.0
220
0.0
230
1.0
 70
    11
 71
     3
 72
    36
 73
    32
 74
     0
 42
0.0000000001
 43
0.0000000001
 12
1.0
 22
0.0
 32
0.0
 13
1.0
 23
0.0
 33
0.0
 40
0.0
 40
0.0
 40
0.0
 40
0.0
 40
0.1111111111111111
 40
0.1111111111111111
 40
0.1111111111111111
 40
0.1111111111111111
 40
0.2222222222222222
 40
0.2222222222222222
 40
0.2222222222222222
 40
0.2222222222222222
 40
0.3333333333333333
 40
0.3333333333333333
 40
0.3333333333333333
 40
0.3333333333333333
 40
0.4444444444444444
 40
0.4444444444444444
 40
0.4444444444444444
 40
0.4444444444444444
 40
0.5555555555555556
 40
0.5555555555555556
 40
0.5555555555555556
 40
0.5555555555555556
 40
0.6666666666666666
 40
0.6666666666666666
 40
0.6666666666666666
 40
0.6666666666666666
 40
0.7777777777777778
 40
0.7777777777777778
 40
0.7777777777777778
 40
0.7777777777777778
 40
1.0
 40
1.0
 40
1.0
 40
1.0
 10
-71.1786
 20
37.964
 30
0.0
 10
-71.1786
 20
37.964
 30
0.0
 10
-21.7097
 20
37.964
 30
0.0
 10
-21.7097
 20
37.964
 30
0.0
 10
-21.7097
 20
37.964
 30
0.0
 10
-16.0225
 20
37.964
 30
0.0
 10
-11.4449
 20
33.3863
 30
0.0
 10
-11.4449
 20
27.6992
 30
0.0
 10
-11.4449
 20
27.6992
 30
0.0
 10
-11.4449
 20
27.6992
 30
0.0
 10
-11.4449
 20
-37.2119
 30
0.0
 10
-11.4449
 20
-37.2119
 30
0.0
 10
-11.4449
 20
-37.2119
 30
0.0
 10
-11.4449
 20
-42.899
 30
0.0
 10
-16.0225
 20
-47.4784
 30
0.0
 10
-21.7097
 20
-47.4784
 30
0.0
 10
-21.7097
 20
-47.4784
 30
0.0
 10
-21.7097
 20
-47.4784
 30
0.0
 10
-71.1786
 20
-47.4784
 30
0.0
 10
-71.1786
 20
-47.4784
 30
0.0
 10
-71.1786
 20
-47.4784
 30
0.0
 10
-76.8658
 20
-47.4784
 30
0.0
 10
-81.4434
 20
-42.899
 30
0.0
 10
-81.4434
 20
-37.2119
 30
0.0
 10
-81.4434
 20
-37.2119
 30
0.0
 10
-81.4434
 20
-37.2119
 30
0.0
 10
-81.4434
 20
27.6992
 30
0.0
 10
-81.4434
 20
27.6992
 30
0.0
 10
-81.4434
 20
27.6992
 30
0.0
 10
-81.4434
 20
33.3863
 30
0.0
 10
-76.8658
 20
37.964
 30
0.0
 10
-71.1786
 20
37.964
 30
0.0
  0
SPLINE
  5
4A
330
1F
100
AcDbEntity
  8
layer 1
370
     9
100
AcDbSpline
210
0.0
220
0.0
230
1.0
 70
    11
 71
     3
 72
    36
 73
    32
 74
     0
 42
0.0000000001
 43
0.0000000001
 12
1.0
 22
0.0
 32
0.0
 13
1.0
 23
0.0
 33
0.0
 40
0.0
 40
0.0
 40
0.0
 40
0.0
 40
0.1111111111111111
 40
0.1111111111111111
 40
0.1111111111111111
 40
0.1111111111111111
 40
0.2222222222222222
 40
0.2222222222222222
 40
0.2222222222222222
 40
0.2222222222222222
 40
0.3333333333333333
 40
0.3333333333333333
 40
0.3333333333333333
 40
0.3333333333333333
 40
0.4444444444444444
 40
0.4444444444444444
 40
0.4444444444444444
 40
0.4444444444444444
 40
0.5555555555555556
 40
0.5555555555555556
 40
0.5555555555555556
 40
0.5555555555555556
 40
0.6666666666666666
 40
0.6666666666666666
 40
0.6666666666666666
 40
0.6666666666666666
 40
0.7777777777777778
 40
0.7777777777777778
 40
0.7777777777777778
 40
0.7777777777777778
 40
1.0
 40
1.0
 40
1.0
 40
1.0
 10
106.1462
 20
37.9199
 30
0.0
 10
106.1462
 20
37.9199
 30
0.0
 10
155.6134
 20
37.9199
 30
0.0
 10
155.6134
 20
37.9199
 30
0.0
 10
155.6134
 20
37.9199
 30
0.0
 10
161.3005
 20
37.9199
 30
0.0
 10
165.8799
 20
33.3422
 30
0.0
 10
165.8799
 20
27.6551
 30
0.0
 10
165.8799
 20
27.6551
 30
0.0
 10
165.8799
 20
27.6551
 30
0.0
 10
165.8799
 20
-37.256
 30
0.0
 10
165.8799
 20
-37.256
 30
0.0
 10
165.8799
 20
-37.256
 30
0.0
 10
165.8799
 20
-42.9431
 30
0.0
 10
161.3005
 20
-47.5225
 30
0.0
 10
155.6134
 20
-47.5225
 30
0.0
 10
155.6134
 20
-47.5225
 30
0.0
 10
155.6134
 20
-47.5225
 30
0.0
 10
106.1462
 20
-47.5225
 30
0.0
 10
106.1462
 20
-47.5225
 30
0.0
 10
106.1462
 20
-47.5225
 30
0.0
 10
100.4587
 20
-47.5225
 30
0.0
 10
95.8797
 20
-42.9431
 30
0.0
 10
95.8797
 20
-37.256
 30
0.0
 10
95.8797
 20
-37.256
 30
0.0
 10
95.8797
 20
-37.256
 30
0.0
 10
95.8797
 20
27.6551
 30
0.0
 10
95.8797
 20
27.6551
 30
0.0
 10
95.8797
 20
27.6551
 30
0.0
 10
95.8797
 20
33.3422
 30
0.0
 10
100.4587
 20
37.9199
 30
0.0
 10
106.1462
 20
37.9199
 30
0.0
  0
SPLINE
  5
4B
330
1F
100
AcDbEntity
  8
layer 1
370
     9
100
AcDbSpline
210
0.0
220
0.0
230
1.0
 70
    11
 71
     3
 72
    36
 73
    32
 74
     0
 42
0.0000000001
 43
0.0000000001
 12
1.0
 22
0.0
 32
0.0
 13
1.0
 23
0.0
 33
0.0
 40
0.0
 40
0.0
 40
0.0
 40
0.0
 40
0.1111111111111111
 40
0.1111111111111111
 40
0.1111111111111111
 40
0.1111111111111111
 40
0.2222222222222222
 40
0.2222222222222222
 40
0.2222222222222222
 40
0.2222222222222222
 40
0.3333333333333333
 40
0.3333333333333333
 40
0.3333333333333333
 40
0.3333333333333333
 40
0.4444444444444444
 40
0.4444444444444444
 40
0.4444444444444444
 40
0.4444444444444444
 40
0.5555555555555556
 40
0.5555555555555556
 40
0.5555555555555556
 40
0.5555555555555556
 40
0.6666666666666666
 40
0.6666666666666666
 40
0.6666666666666666
 40
0.6666666666666666
 40
0.7777777777777778
 40
0.7777777777777778
 40
0.7777777777777778
 40
0.7777777777777778
 40
1.0
 40
1.0
 40
1.0
 40
1.0
 10
17.4928
 20
37.9037
 30
0.0
 10
17.4928
 20
37.9037
 30
0.0
 10
66.96
 20
37.9037
 30
0.0
 10
66.96
 20
37.9037
 30
0.0
 10
66.96
 20
37.9037
 30
0.0
 10
72.6475
 20
37.9037
 30
0.0
 10
77.2265
 20
33.3242
 30
0.0
 10
77.2265
 20
27.6371
 30
0.0
 10
77.2265
 20
27.6371
 30
0.0
 10
77.2265
 20
27.6371
 30
0.0
 10
77.2265
 20
-37.274
 30
0.0
 10
77.2265
 20
-37.274
 30
0.0
 10
77.2265
 20
-37.274
 30
0.0
 10
77.2265
 20
-42.9611
 30
0.0
 10
72.6475
 20
-47.5405
 30
0.0
 10
66.96
 20
-47.5405
 30
0.0
 10
66.96
 20
-47.5405
 30
0.0
 10
66.96
 20
-47.5405
 30
0.0
 10
17.4928
 20
-47.5405
 30
0.0
 10
17.4928
 20
-47.5405
 30
0.0
 10
17.4928
 20
-47.5405
 30
0.0
 10
11.8056
 20
-47.5405
 30
0.0
 10
7.2262
 20
-42.9611
 30
0.0
 10
7.2262
 20
-37.274
 30
0.0
 10
7.2262
 20
-37.274
 30
0.0
 10
7.2262
 20
-37.274
 30
0.0
 10
7.2262
 20
27.6371
 30
0.0
 10
7.2262
 20
27.6371
 30
0.0
 10
7.2262
 20
27.6371
 30
0.0
 10
7.2262
 20
33.3242
 30
0.0
 10
11.8056
 20
37.9037
 30
0.0
 10
17.4928
 20
37.9037
 30
0.0
  0
SPLINE
  5
4C
330
1F
100
AcDbEntity
  8
layer 1
370
     9
100
AcDbSpline
210
0.0
220
0.0
230
1.0
 70
    11
 71
     3
 72
    48
 73
    44
 74
     0
 42
0.0000000001
 43
0.0000000001
 12
1.0
 22
0.0
 32
0.0
 13
1.0
 23
0.0
 33
0.0
 40
0.0
 40
0.0
 40
0.0
 40
0.0
 40
0.0833333333333333
 40
0.0833333333333333
 40
0.0833333333333333
 40
0.0833333333333333
 40
0.1666666666666667
 40
0.1666666666666667
 40
0.1666666666666667
 40
0.1666666666666667
 40
0.25
 40
0.25
 40
0.25
 40
0.25
 40
0.3333333333333333
 40
0.3333333333333333
 40
0.3333333333333333
 40
0.3333333333333333
 40
0.4166666666666667
 40
0.4166666666666667
 40
0.4166666666666667
 40
0.4166666666666667
 40
0.5
 40
0.5
 40
0.5
 40
0.5
 40
0.5833333333333334
 40
0.5833333333333334
 40
0.5833333333333334
 40
0.5833333333333334
 40
0.6666666666666666
 40
0.6666666666666666
 40
0.6666666666666666
 40
0.6666666666666666
 40
0.75
 40
0.75
 40
0.75
 40
0.75
 40
0.8333333333333334
 40
0.8333333333333334
 40
0.8333333333333334
 40
0.8333333333333334
 40
1.0
 40
1.0
 40
1.0
 40
1.0
 10
-135.278
 20
-57.6829
 30
0.0
 10
-135.278
 20
-57.6829
 30
0.0
 10
-134.9333
 20
-57.6829
 30
0.0
 10
-134.9333
 20
-57.6829
 30
0.0
 10
-134.9333
 20
-57.6829
 30
0.0
 10
-126.1375
 20
-57.6829
 30
0.0
 10
-119.0502
 20
-57.6924
 30
0.0
 10
-119.0502
 20
-57.6991
 30
0.0
 10
-119.0502
 20
-57.6991
 30
0.0
 10
-119.0502
 20
-57.6991
 30
0.0
 10
-119.0502
 20
-61.9243
 30
0.0
 10
-119.0502
 20
-61.9243
 30
0.0
 10
-119.0502
 20
-61.9243
 30
0.0
 10
-119.0502
 20
-61.93
 30
0.0
 10
-125.5036
 20
-61.9409
 30
0.0
 10
-132.0409
 20
-61.9423
 30
0.0
 10
-132.0409
 20
-61.9423
 30
0.0
 10
-132.0409
 20
-61.9423
 30
0.0
 10
-132.0409
 20
-58.0177
 30
0.0
 10
-132.0409
 20
-58.0177
 30
0.0
 10
-132.0409
 20
-58.0177
 30
0.0
 10
-132.0409
 20
-58.0106
 30
0.0
 10
-133.4012
 20
-58.0078
 30
0.0
 10
-135.0935
 20
-58.0078
 30
0.0
 10
-135.0935
 20
-58.0078
 30
0.0
 10
-136.7854
 20
-58.0078
 30
0.0
 10
-138.1443
 20
-58.0106
 30
0.0
 10
-138.1443
 20
-58.0177
 30
0.0
 10
-138.1443
 20
-58.0177
 30
0.0
 10
-138.1443
 20
-58.0177
 30
0.0
 10
-138.1443
 20
-61.9423
 30
0.0
 10
-138.1443
 20
-61.9423
 30
0.0
 10
-138.1443
 20
-61.9423
 30
0.0
 10
-144.7039
 20
-61.9409
 30
0.0
 10
-151.1611
 20
-61.93
 30
0.0
 10
-151.1611
 20
-61.9243
 30
0.0
 10
-151.1611
 20
-61.9243
 30
0.0
 10
-151.1611
 20
-61.9243
 30
0.0
 10
-151.1611
 20
-57.6991
 30
0.0
 10
-151.1611
 20
-57.6991
 30
0.0
 10
-151.1611
 20
-57.6991
 30
0.0
 10
-151.1611
 20
-57.6924
 30
0.0
 10
-144.0756
 20
-57.6829
 30
0.0
 10
-135.278
 20
-57.6829
 30
0.0
  0
SPLINE
  5
4D
330
1F
100
AcDbEntity
  8
layer 1
370
     9
100
AcDbSpline
210
0.0
220
0.0
230
1.0
 70
    11
 71
     3
 72
    48
 73
    44
 74
     0
 42
0.0000000001
 43
0.0000000001
 12
1.0
 22
0.0
 32
0.0
 13
1.0
 23
0.0
 33
0.0
 40
0.0
 40
0.0
 40
0.0
 40
0.0
 40
0.0833333333333333
 40
0.0833333333333333
 40
0.0833333333333333
 40
0.0833333333333333
 40
0.1666666666666667
 40
0.1666666666666667
 40
0.1666666666666667
 40
0.1666666666666667
 40
0.25
 40
0.25
 40
0.25
 40
0.25
 40
0.3333333333333333
 40
0.3333333333333333
 40
0.3333333333333333
 40
0.3333333333333333
 40
0.4166666666666667
 40
0.4166666666666667
 40
0.4166666666666667
 40
0.4166666666666667
 40
0.5
 40
0.5
 40
0.5
 40
0.5
 40
0.5833333333333334
 40
0.5833333333333334
 40
0.5833333333333334
 40
0.5833333333333334
 40
0.6666666666666666
 40
0.6666666666666666
 40
0.6666666666666666
 40
0.6666666666666666
 40
0.75
 40
0.75
 40
0.75
 40
0.75
 40
0.8333333333333334
 40
0.8333333333333334
 40
0.8333333333333334
 40
0.8333333333333334
 40
1.0
 40
1.0
 40
1.0
 40
1.0
 10
42.6462
 20
-57.6829
 30
0.0
 10
42.6462
 20
-57.6829
 30
0.0
 10
42.9891
 20
-57.6829
 30
0.0
 10
42.9891
 20
-57.6829
 30
0.0
 10
42.9891
 20
-57.6829
 30
0.0
 10
51.7867
 20
-57.6829
 30
0.0
 10
58.874
 20
-57.6924
 30
0.0
 10
58.874
 20
-57.6991
 30
0.0
 10
58.874
 20
-57.6991
 30
0.0
 10
58.874
 20
-57.6991
 30
0.0
 10
58.874
 20
-61.9243
 30
0.0
 10
58.874
 20
-61.9243
 30
0.0
 10
58.874
 20
-61.9243
 30
0.0
 10
58.874
 20
-61.93
 30
0.0
 10
52.4217
 20
-61.9409
 30
0.0
 10
45.8914
 20
-61.9423
 30
0.0
 10
45.8914
 20
-61.9423
 30
0.0
 10
45.8914
 20
-61.9423
 30
0.0
 10
45.8914
 20
-58.0177
 30
0.0
 10
45.8914
 20
-58.0177
 30
0.0
 10
45.8914
 20
-58.0177
 30
0.0
 10
45.8914
 20
-58.0106
 30
0.0
 10
44.523
 20
-58.0078
 30
0.0
 10
42.8307
 20
-58.0078
 30
0.0
 10
42.8307
 20
-58.0078
 30
0.0
 10
41.1384
 20
-58.0078
 30
0.0
 10
39.7799
 20
-58.0106
 30
0.0
 10
39.7799
 20
-58.0177
 30
0.0
 10
39.7799
 20
-58.0177
 30
0.0
 10
39.7799
 20
-58.0177
 30
0.0
 10
39.7799
 20
-61.9423
 30
0.0
 10
39.7799
 20
-61.9423
 30
0.0
 10
39.7799
 20
-61.9423
 30
0.0
 10
33.2217
 20
-61.9409
 30
0.0
 10
26.7712
 20
-61.93
 30
0.0
 10
26.7712
 20
-61.9243
 30
0.0
 10
26.7712
 20
-61.9243
 30
0.0
 10
26.7712
 20
-61.9243
 30
0.0
 10
26.7712
 20
-57.6991
 30
0.0
 10
26.7712
 20
-57.6991
 30
0.0
 10
26.7712
 20
-57.6991
 30
0.0
 10
26.7712
 20
-57.6924
 30
0.0
 10
33.8486
 20
-57.6829
 30
0.0
 10
42.6462
 20
-57.6829
 30
0.0
  0
SPLINE
  5
4E
330
1F
100
AcDbEntity
  8
layer 1
370
     9
100
AcDbSpline
210
0.0
220
0.0
230
1.0
 70
    11
 71
     3
 72
   236
 73
   232
 74
     0
 42
0.0000000001
 43
0.0000000001
 12
1.0
 22
0.0
 32
0.0
 13
1.0
 23
0.0
 33
0.0
 40
0.0
 40
0.0
 40
0.0
 40
0.0
 40
0.0169491525423729
 40
0.0169491525423729
 40
0.0169491525423729
 40
0.0169491525423729
 40
0.0338983050847458
 40
0.0338983050847458
 40
0.0338983050847458
 40
0.0338983050847458
 40
0.0508474576271186
 40
0.0508474576271186
 40
0.0508474576271186
 40
0.0508474576271186
 40
0.0677966101694915
 40
0.0677966101694915
 40
0.0677966101694915
 40
0.0677966101694915
 40
0.0847457627118644
 40
0.0847457627118644
 40
0.0847457627118644
 40
0.0847457627118644
 40
0.1016949152542373
 40
0.1016949152542373
 40
0.1016949152542373
 40
0.1016949152542373
 40
0.1186440677966102
 40
0.1186440677966102
 40
0.1186440677966102
 40
0.1186440677966102
 40
0.1355932203389831
 40
0.1355932203389831
 40
0.1355932203389831
 40
0.1355932203389831
 40
0.1525423728813559
 40
0.1525423728813559
 40
0.1525423728813559
 40
0.1525423728813559
 40
0.1694915254237288
 40
0.1694915254237288
 40
0.1694915254237288
 40
0.1694915254237288
 40
0.1864406779661017
 40
0.1864406779661017
 40
0.1864406779661017
 40
0.1864406779661017
 40
0.2033898305084746
 40
0.2033898305084746
 40
0.2033898305084746
 40
0.2033898305084746
 40
0.2203389830508475
 40
0.2203389830508475
 40
0.2203389830508475
 40
0.2203389830508475
 40
0.2372881355932203
 40
0.2372881355932203
 40
0.2372881355932203
 40
0.2372881355932203
 40
0.2542372881355932
 40
0.2542372881355932
 40
0.2542372881355932
 40
0.2542372881355932
 40
0.2711864406779661
 40
0.2711864406779661
 40
0.2711864406779661
 40
0.2711864406779661
 40
0.288135593220339
 40
0.288135593220339
 40
0.288135593220339
 40
0.288135593220339
 40
0.3050847457627119
 40
0.3050847457627119
 40
0.3050847457627119
 40
0.3050847457627119
 40
0.3220338983050847
 40
0.3220338983050847
 40
0.3220338983050847
 40
0.3220338983050847
 40
0.3389830508474576
 40
0.3389830508474576
 40
0.3389830508474576
 40
0.3389830508474576
 40
0.3559322033898305
 40
0.3559322033898305
 40
0.3559322033898305
 40
0.3559322033898305
 40
0.3728813559322034
 40
0.3728813559322034
 40
0.3728813559322034
 40
0.3728813559322034
 40
0.3898305084745763
 40
0.3898305084745763
 40
0.3898305084745763
 40
0.3898305084745763
 40
0.4067796610169492
 40
0.4067796610169492
 40
0.4067796610169492
 40
0.4067796610169492
 40
0.423728813559322
 40
0.423728813559322
 40
0.423728813559322
 40
0.423728813559322
 40
0.4406779661016949
 40
0.4406779661016949
 40
0.4406779661016949
 40
0.4406779661016949
 40
0.4576271186440678
 40
0.4576271186440678
 40
0.4576271186440678
 40
0.4576271186440678
 40
0.4745762711864407
 40
0.4745762711864407
 40
0.4745762711864407
 40
0.4745762711864407
 40
0.4915254237288136
 40
0.4915254237288136
 40
0.4915254237288136
 40
0.4915254237288136
 40
0.5084745762711864
 40
0.5084745762711864
 40
0.5084745762711864
 40
0.5084745762711864
 40
0.5254237288135594
 40
0.5254237288135594
 40
0.5254237288135594
 40
0.5254237288135594
 40
0.5423728813559322
 40
0.5423728813559322
 40
0.5423728813559322
 40
0.5423728813559322
 40
0.559322033898305
 40
0.559322033898305
 40
0.559322033898305
 40
0.559322033898305
 40
0.576271186440678
 40
0.576271186440678
 40
0.576271186440678
 40
0.576271186440678
 40
0.5932203389830508
 40
0.5932203389830508
 40
0.5932203389830508
 40
0.5932203389830508
 40
0.6101694915254238
 40
0.6101694915254238
 40
0.6101694915254238
 40
0.6101694915254238
 40
0.6271186440677966
 40
0.6271186440677966
 40
0.6271186440677966
 40
0.6271186440677966
 40
0.6440677966101694
 40
0.6440677966101694
 40
0.6440677966101694
 40
0.6440677966101694
 40
0.6610169491525424
 40
0.6610169491525424
 40
0.6610169491525424
 40
0.6610169491525424
 40
0.6779661016949152
 40
0.6779661016949152
 40
0.6779661016949152
 40
0.6779661016949152
 40
0.6949152542372882
 40
0.6949152542372882
 40
0.6949152542372882
 40
0.6949152542372882
 40
0.711864406779661
 40
0.711864406779661
 40
0.711864406779661
 40
0.711864406779661
 40
0.7288135593220338
 40
0.7288135593220338
 40
0.7288135593220338
 40
0.7288135593220338
 40
0.7457627118644068
 40
0.7457627118644068
 40
0.7457627118644068
 40
0.7457627118644068
 40
0.7627118644067796
 40
0.7627118644067796
 40
0.7627118644067796
 40
0.7627118644067796
 40
0.7796610169491526
 40
0.7796610169491526
 40
0.7796610169491526
 40
0.7796610169491526
 40
0.7966101694915254
 40
0.7966101694915254
 40
0.7966101694915254
 40
0.7966101694915254
 40
0.8135593220338984
 40
0.8135593220338984
 40
0.8135593220338984
 40
0.8135593220338984
 40
0.8305084745762712
 40
0.8305084745762712
 40
0.8305084745762712
 40
0.8305084745762712
 40
0.847457627118644
 40
0.847457627118644
 40
0.847457627118644
 40
0.847457627118644
 40
0.864406779661017
 40
0.864406779661017
 40
0.864406779661017
 40
0.864406779661017
 40
0.8813559322033898
 40
0.8813559322033898
 40
0.8813559322033898
 40
0.8813559322033898
 40
0.8983050847457628
 40
0.8983050847457628
 40
0.8983050847457628
 40
0.8983050847457628
 40
0.9152542372881356
 40
0.9152542372881356
 40
0.9152542372881356
 40
0.9152542372881356
 40
0.9322033898305084
 40
0.9322033898305084
 40
0.9322033898305084
 40
0.9322033898305084
 40
0.9491525423728814
 40
0.9491525423728814
 40
0.9491525423728814
 40
0.9491525423728814
 40
0.9661016949152542
 40
0.9661016949152542
 40
0.9661016949152542
 40
0.9661016949152542
 40
1.0
 40
1.0
 40
1.0
 40
1.0
 10
-34.974
 20
-107.3524
 30
0.0
 10
-59.291
 20
-107.3524
 30
0.0
 10
-79.03
 20
-124.4427
 30
0.0
 10
-79.3016
 20
-145.6189
 30
0.0
 10
-79.3016
 20
-145.6189
 30
0.0
 10
-79.6431
 20
-124.4949
 30
0.0
 10
-99.3546
 20
-107.4667
 30
0.0
 10
-123.6274
 20
-107.4667
 30
0.0
 10
-123.6274
 20
-107.4667
 30
0.0
 10
-148.1137
 20
-107.4667
 30
0.0
 10
-167.9631
 20
-124.7941
 30
0.0
 10
-167.9631
 20
-146.1742
 30
0.0
 10
-167.9631
 20
-146.1742
 30
0.0
 10
-167.9631
 20
-146.1742
 30
0.0
 10
-167.9631
 20
-146.1962
 30
0.0
 10
-167.9631
 20
-146.1962
 30
0.0
 10
-167.9631
 20
-146.1962
 30
0.0
 10
-167.9631
 20
-146.1962
 30
0.0
 10
-167.9631
 20
-146.2182
 30
0.0
 10
-167.9631
 20
-146.2182
 30
0.0
 10
-167.9631
 20
-146.2182
 30
0.0
 10
-167.9631
 20
-146.2182
 30
0.0
 10
-167.9631
 20
-146.2401
 30
0.0
 10
-167.9631
 20
-146.2401
 30
0.0
 10
-167.9631
 20
-146.2401
 30
0.0
 10
-167.9625
 20
-146.687
 30
0.0
 10
-167.9552
 20
-147.1348
 30
0.0
 10
-167.937
 20
-147.5772
 30
0.0
 10
-167.937
 20
-147.5772
 30
0.0
 10
-167.937
 20
-147.5772
 30
0.0
 10
-167.937
 20
-263.7293
 30
0.0
 10
-167.937
 20
-263.7293
 30
0.0
 10
-167.937
 20
-263.7293
 30
0.0
 10
-167.937
 20
-263.7293
 30
0.0
 10
-168.7336
 20
-272.8891
 30
0.0
 10
-157.927
 20
-266.9484
 30
0.0
 10
-157.927
 20
-266.9484
 30
0.0
 10
-147.1203
 20
-261.009
 30
0.0
 10
-143.1957
 20
-270.0419
 30
0.0
 10
-142.4308
 20
-270.9792
 30
0.0
 10
-142.4308
 20
-270.9792
 30
0.0
 10
-141.7045
 20
-271.869
 30
0.0
 10
-140.5355
 20
-273.2768
 30
0.0
 10
-137.3466
 20
-273.2832
 30
0.0
 10
-137.3466
 20
-273.2832
 30
0.0
 10
-137.3466
 20
-273.2832
 30
0.0
 10
-137.2872
 20
-273.2832
 30
0.0
 10
-137.2872
 20
-273.2832
 30
0.0
 10
-137.2872
 20
-273.2832
 30
0.0
 10
-137.1368
 20
-273.2826
 30
0.0
 10
-136.982
 20
-273.2792
 30
0.0
 10
-136.8224
 20
-273.2723
 30
0.0
 10
-136.8224
 20
-273.2723
 30
0.0
 10
-133.2339
 20
-273.1163
 30
0.0
 10
-128.9551
 20
-267.3661
 30
0.0
 10
-123.6274
 20
-267.5396
 30
0.0
 10
-123.6274
 20
-267.5396
 30
0.0
 10
-118.3001
 20
-267.7132
 30
0.0
 10
-114.2252
 20
-273.2462
 30
0.0
 10
-110.1877
 20
-273.2624
 30
0.0
 10
-110.1877
 20
-273.2624
 30
0.0
 10
-106.1498
 20
-273.2804
 30
0.0
 10
-104.9387
 20
-271.496
 30
0.0
 10
-104.3227
 20
-270.837
 30
0.0
 10
-104.3227
 20
-270.837
 30
0.0
 10
-103.7054
 20
-270.1798
 30
0.0
 10
-101.364
 20
-260.5709
 30
0.0
 10
-90.2116
 20
-266.9484
 30
0.0
 10
-90.2116
 20
-266.9484
 30
0.0
 10
-79.0575
 20
-273.3259
 30
0.0
 10
-79.3097
 20
-263.7293
 30
0.0
 10
-79.3097
 20
-263.7293
 30
0.0
 10
-79.3097
 20
-263.7293
 30
0.0
 10
-79.3097
 20
-263.7293
 30
0.0
 10
-79.3097
 20
-263.6051
 30
0.0
 10
-79.3097
 20
-263.6051
 30
0.0
 10
-79.3097
 20
-263.6051
 30
0.0
 10
-79.3097
 20
-263.6051
 30
0.0
 10
-79.2836
 20
-263.615
 30
0.0
 10
-79.2836
 20
-263.615
 30
0.0
 10
-79.2836
 20
-263.615
 30
0.0
 10
-79.2836
 20
-263.615
 30
0.0
 10
-80.0802
 20
-272.7734
 30
0.0
 10
-69.2736
 20
-266.8341
 30
0.0
 10
-69.2736
 20
-266.8341
 30
0.0
 10
-58.4669
 20
-260.8933
 30
0.0
 10
-54.5437
 20
-269.9276
 30
0.0
 10
-53.7774
 20
-270.8649
 30
0.0
 10
-53.7774
 20
-270.8649
 30
0.0
 10
-53.0126
 20
-271.8019
 30
0.0
 10
-51.7574
 20
-273.3135
 30
0.0
 10
-48.169
 20
-273.158
 30
0.0
 10
-48.169
 20
-273.158
 30
0.0
 10
-44.5805
 20
-273.0006
 30
0.0
 10
-40.3017
 20
-267.2514
 30
0.0
 10
-34.974
 20
-267.4253
 30
0.0
 10
-34.974
 20
-267.4253
 30
0.0
 10
-29.6467
 20
-267.5989
 30
0.0
 10
-25.5718
 20
-273.1315
 30
0.0
 10
-21.5343
 20
-273.1481
 30
0.0
 10
-21.5343
 20
-273.1481
 30
0.0
 10
-17.4964
 20
-273.1661
 30
0.0
 10
-16.2853
 20
-271.3814
 30
0.0
 10
-15.6693
 20
-270.7227
 30
0.0
 10
-15.6693
 20
-270.7227
 30
0.0
 10
-15.052
 20
-270.0641
 30
0.0
 10
-12.712
 20
-260.4566
 30
0.0
 10
-1.5582
 20
-266.8341
 30
0.0
 10
-1.5582
 20
-266.8341
 30
0.0
 10
8.201
 20
-272.415
 30
0.0
 10
9.2304
 20
-265.7701
 30
0.0
 10
9.3338
 20
-264.02
 30
0.0
 10
9.3338
 20
-264.02
 30
0.0
 10
9.2996
 20
-265.4078
 30
0.0
 10
9.5832
 20
-272.3187
 30
0.0
 10
19.3538
 20
-266.9484
 30
0.0
 10
19.3538
 20
-266.9484
 30
0.0
 10
30.159
 20
-261.009
 30
0.0
 10
34.0836
 20
-270.0419
 30
0.0
 10
34.8481
 20
-270.9792
 30
0.0
 10
34.8481
 20
-270.9792
 30
0.0
 10
35.5757
 20
-271.869
 30
0.0
 10
36.745
 20
-273.2768
 30
0.0
 10
39.9341
 20
-273.2832
 30
0.0
 10
39.9341
 20
-273.2832
 30
0.0
 10
39.9341
 20
-273.2832
 30
0.0
 10
39.9935
 20
-273.2832
 30
0.0
 10
39.9935
 20
-273.2832
 30
0.0
 10
39.9935
 20
-273.2832
 30
0.0
 10
40.144
 20
-273.2826
 30
0.0
 10
40.2987
 20
-273.2792
 30
0.0
 10
40.4583
 20
-273.2723
 30
0.0
 10
40.4583
 20
-273.2723
 30
0.0
 10
44.0468
 20
-273.1163
 30
0.0
 10
48.3242
 20
-267.3661
 30
0.0
 10
53.6515
 20
-267.5396
 30
0.0
 10
53.6515
 20
-267.5396
 30
0.0
 10
58.9792
 20
-267.7132
 30
0.0
 10
63.0555
 20
-273.2462
 30
0.0
 10
67.0931
 20
-273.2624
 30
0.0
 10
67.0931
 20
-273.2624
 30
0.0
 10
71.1306
 20
-273.2804
 30
0.0
 10
72.3406
 20
-271.496
 30
0.0
 10
72.958
 20
-270.837
 30
0.0
 10
72.958
 20
-270.837
 30
0.0
 10
73.5739
 20
-270.1798
 30
0.0
 10
75.9153
 20
-260.5709
 30
0.0
 10
87.0691
 20
-266.9484
 30
0.0
 10
87.0691
 20
-266.9484
 30
0.0
 10
96.4865
 20
-272.3339
 30
0.0
 10
97.771
 20
-266.3462
 30
0.0
 10
97.9431
 20
-264.3466
 30
0.0
 10
97.9431
 20
-264.3466
 30
0.0
 10
97.9953
 20
-266.2883
 30
0.0
 10
98.8773
 20
-271.937
 30
0.0
 10
107.9532
 20
-266.9484
 30
0.0
 10
107.9532
 20
-266.9484
 30
0.0
 10
118.7598
 20
-261.009
 30
0.0
 10
122.6831
 20
-270.0419
 30
0.0
 10
123.4493
 20
-270.9792
 30
0.0
 10
123.4493
 20
-270.9792
 30
0.0
 10
124.1756
 20
-271.869
 30
0.0
 10
125.3445
 20
-273.2768
 30
0.0
 10
128.5336
 20
-273.2832
 30
0.0
 10
128.5336
 20
-273.2832
 30
0.0
 10
128.5336
 20
-273.2832
 30
0.0
 10
128.593
 20
-273.2832
 30
0.0
 10
128.593
 20
-273.2832
 30
0.0
 10
128.593
 20
-273.2832
 30
0.0
 10
128.7435
 20
-273.2826
 30
0.0
 10
128.8982
 20
-273.2792
 30
0.0
 10
129.0578
 20
-273.2723
 30
0.0
 10
129.0578
 20
-273.2723
 30
0.0
 10
132.6462
 20
-273.1163
 30
0.0
 10
136.9251
 20
-267.3661
 30
0.0
 10
142.2527
 20
-267.5396
 30
0.0
 10
142.2527
 20
-267.5396
 30
0.0
 10
147.58
 20
-267.7132
 30
0.0
 10
151.6549
 20
-273.2462
 30
0.0
 10
155.6925
 20
-273.2624
 30
0.0
 10
155.6925
 20
-273.2624
 30
0.0
 10
159.7304
 20
-273.2804
 30
0.0
 10
160.9415
 20
-271.496
 30
0.0
 10
161.5574
 20
-270.837
 30
0.0
 10
161.5574
 20
-270.837
 30
0.0
 10
162.1748
 20
-270.1798
 30
0.0
 10
164.5148
 20
-260.5709
 30
0.0
 10
175.6685
 20
-266.9484
 30
0.0
 10
175.6685
 20
-266.9484
 30
0.0
 10
186.8223
 20
-273.3259
 30
0.0
 10
186.5704
 20
-263.7293
 30
0.0
 10
186.5704
 20
-263.7293
 30
0.0
 10
186.5704
 20
-263.7293
 30
0.0
 10
186.5704
 20
-263.7293
 30
0.0
 10
186.5704
 20
-263.5448
 30
0.0
 10
186.5704
 20
-263.5448
 30
0.0
 10
186.5704
 20
-263.5448
 30
0.0
 10
186.5704
 20
-263.5448
 30
0.0
 10
197.5407
 20
-255.2446
 30
0.0
 10
197.5407
 20
-255.2446
 30
0.0
 10
197.5407
 20
-255.2446
 30
0.0
 10
197.5407
 20
-255.2446
 30
0.0
 10
197.5407
 20
-153.3719
 30
0.0
 10
197.5407
 20
-153.3719
 30
0.0
 10
197.5407
 20
-153.3719
 30
0.0
 10
197.5407
 20
-153.3719
 30
0.0
 10
186.5785
 20
-146.4568
 30
0.0
 10
186.5785
 20
-146.4568
 30
0.0
 10
186.5785
 20
-146.4568
 30
0.0
 10
186.5785
 20
-146.3633
 30
0.0
 10
186.5866
 20
-146.2694
 30
0.0
 10
186.5866
 20
-146.1742
 30
0.0
 10
186.5866
 20
-146.1742
 30
0.0
 10
186.5866
 20
-124.7941
 30
0.0
 10
166.7376
 20
-107.4667
 30
0.0
 10
142.2527
 20
-107.4667
 30
0.0
 10
142.2527
 20
-107.4667
 30
0.0
 10
118.3009
 20
-107.4667
 30
0.0
 10
98.7933
 20
-124.0473
 30
0.0
 10
97.9512
 20
-144.7811
 30
0.0
 10
97.9512
 20
-144.7811
 30
0.0
 10
97.1109
 20
-124.0473
 30
0.0
 10
77.6034
 20
-107.4667
 30
0.0
 10
53.6515
 20
-107.4667
 30
0.0
 10
53.6515
 20
-107.4667
 30
0.0
 10
29.609
 20
-107.4667
 30
0.0
 10
10.0436
 20
-124.1739
 30
0.0
 10
9.3437
 20
-145.0195
 30
0.0
 10
9.3437
 20
-145.0195
 30
0.0
 10
8.7097
 20
-124.1217
 30
0.0
 10
-10.8874
 20
-107.3524
 30
0.0
 10
-34.974
 20
-107.3524
 30
0.0
  0
SPLINE
  5
4F
330
1F
100
AcDbEntity
  8
layer 1
370
     9
100
AcDbSpline
210
0.0
220
0.0
230
1.0
 70
    11
 71
     3
 72
    20
 73
    16
 74
     0
 42
0.0000000001
 43
0.0000000001
 12
1.0
 22
0.0
 32
0.0
 13
1.0
 23
0.0
 33
0.0
 40
0.0
 40
0.0
 40
0.0
 40
0.0
 40
0.2
 40
0.2
 40
0.2
 40
0.2
 40
0.4
 40
0.4
 40
0.4
 40
0.4
 40
0.6
 40
0.6
 40
0.6
 40
0.6
 40
1.0
 40
1.0
 40
1.0
 40
1.0
 10
-34.974
 20
-114.2397
 30
0.0
 10
-33.7354
 20
-114.2397
 30
0.0
 10
-32.5145
 20
-114.2961
 30
0.0
 10
-31.314
 20
-114.39
 30
0.0
 10
-31.314
 20
-114.39
 30
0.0
 10
-32.7734
 20
-116.3934
 30
0.0
 10
-34.0095
 20
-117.0467
 30
0.0
 10
-35.6715
 20
-117.0538
 30
0.0
 10
-35.6715
 20
-117.0538
 30
0.0
 10
-37.157
 20
-117.0591
 30
0.0
 10
-38.4552
 20
-116.1165
 30
0.0
 10
-39.6222
 20
-114.4683
 30
0.0
 10
-39.6222
 20
-114.4683
 30
0.0
 10
-38.1078
 20
-114.3184
 30
0.0
 10
-36.5562
 20
-114.2397
 30
0.0
 10
-34.974
 20
-114.2397
 30
0.0
  0
SPLINE
  5
50
330
1F
100
AcDbEntity
  8
layer 1
370
     9
100
AcDbSpline
210
0.0
220
0.0
230
1.0
 70
    11
 71
     3
 72
    20
 73
    16
 74
     0
 42
0.0000000001
 43
0.0000000001
 12
1.0
 22
0.0
 32
0.0
 13
1.0
 23
0.0
 33
0.0
 40
0.0
 40
0.0
 40
0.0
 40
0.0
 40
0.2
 40
0.2
 40
0.2
 40
0.2
 40
0.4
 40
0.4
 40
0.4
 40
0.4
 40
0.6
 40
0.6
 40
0.6
 40
0.6
 40
1.0
 40
1.0
 40
1.0
 40
1.0
 10
-123.6274
 20
-114.354
 30
0.0
 10
-122.2054
 20
-114.354
 30
0.0
 10
-120.808
 20
-114.4256
 30
0.0
 10
-119.4382
 20
-114.5484
 30
0.0
 10
-119.4382
 20
-114.5484
 30
0.0
 10
-120.8825
 20
-116.5162
 30
0.0
 10
-122.1186
 20
-117.161
 30
0.0
 10
-123.7696
 20
-117.1681
 30
0.0
 10
-123.7696
 20
-117.1681
 30
0.0
 10
-125.2675
 20
-117.1734
 30
0.0
 10
-126.571
 20
-116.2145
 30
0.0
 10
-127.7465
 20
-114.5403
 30
0.0
 10
-127.7465
 20
-114.5403
 30
0.0
 10
-126.3989
 20
-114.4203
 30
0.0
 10
-125.0262
 20
-114.354
 30
0.0
 10
-123.6274
 20
-114.354
 30
0.0
  0
SPLINE
  5
51
330
1F
100
AcDbEntity
  8
layer 1
370
     9
100
AcDbSpline
210
0.0
220
0.0
230
1.0
 70
    11
 71
     3
 72
    20
 73
    16
 74
     0
 42
0.0000000001
 43
0.0000000001
 12
1.0
 22
0.0
 32
0.0
 13
1.0
 23
0.0
 33
0.0
 40
0.0
 40
0.0
 40
0.0
 40
0.0
 40
0.2
 40
0.2
 40
0.2
 40
0.2
 40
0.4
 40
0.4
 40
0.4
 40
0.4
 40
0.6
 40
0.6
 40
0.6
 40
0.6
 40
1.0
 40
1.0
 40
1.0
 40
1.0
 10
53.6515
 20
-114.354
 30
0.0
 10
54.5761
 20
-114.354
 30
0.0
 10
55.4912
 20
-114.3815
 30
0.0
 10
56.3954
 20
-114.4341
 30
0.0
 10
56.3954
 20
-114.4341
 30
0.0
 10
54.9138
 20
-116.4915
 30
0.0
 10
53.6667
 20
-117.161
 30
0.0
 10
51.9857
 20
-117.1681
 30
0.0
 10
51.9857
 20
-117.1681
 30
0.0
 10
50.5319
 20
-117.1734
 30
0.0
 10
49.2693
 20
-116.2724
 30
0.0
 10
48.1214
 20
-114.6888
 30
0.0
 10
48.1214
 20
-114.6888
 30
0.0
 10
49.9156
 20
-114.4739
 30
0.0
 10
51.7596
 20
-114.354
 30
0.0
 10
53.6515
 20
-114.354
 30
0.0
  0
SPLINE
  5
52
330
1F
100
AcDbEntity
  8
layer 1
370
     9
100
AcDbSpline
210
0.0
220
0.0
230
1.0
 70
    11
 71
     3
 72
    20
 73
    16
 74
     0
 42
0.0000000001
 43
0.0000000001
 12
1.0
 22
0.0
 32
0.0
 13
1.0
 23
0.0
 33
0.0
 40
0.0
 40
0.0
 40
0.0
 40
0.0
 40
0.2
 40
0.2
 40
0.2
 40
0.2
 40
0.4
 40
0.4
 40
0.4
 40
0.4
 40
0.6
 40
0.6
 40
0.6
 40
0.6
 40
1.0
 40
1.0
 40
1.0
 40
1.0
 10
142.2527
 20
-114.354
 30
0.0
 10
143.8374
 20
-114.354
 30
0.0
 10
145.3998
 20
-114.4312
 30
0.0
 10
146.9171
 20
-114.5844
 30
0.0
 10
146.9171
 20
-114.5844
 30
0.0
 10
145.4856
 20
-116.5232
 30
0.0
 10
144.2618
 20
-117.161
 30
0.0
 10
142.6217
 20
-117.1681
 30
0.0
 10
142.6217
 20
-117.1681
 30
0.0
 10
141.1129
 20
-117.1734
 30
0.0
 10
139.7995
 20
-116.2008
 30
0.0
 10
138.6187
 20
-114.5043
 30
0.0
 10
138.6187
 20
-114.5043
 30
0.0
 10
139.8122
 20
-114.4118
 30
0.0
 10
141.0194
 20
-114.354
 30
0.0
 10
142.2527
 20
-114.354
 30
0.0
  0
SPLINE
  5
53
330
1F
100
AcDbEntity
  8
layer 1
370
     9
100
AcDbSpline
210
0.0
220
0.0
230
1.0
 70
    11
 71
     3
 72
    24
 73
    20
 74
     0
 42
0.0000000001
 43
0.0000000001
 12
1.0
 22
0.0
 32
0.0
 13
1.0
 23
0.0
 33
0.0
 40
0.0
 40
0.0
 40
0.0
 40
0.0
 40
0.1666666666666667
 40
0.1666666666666667
 40
0.1666666666666667
 40
0.1666666666666667
 40
0.3333333333333333
 40
0.3333333333333333
 40
0.3333333333333333
 40
0.3333333333333333
 40
0.5
 40
0.5
 40
0.5
 40
0.5
 40
0.6666666666666666
 40
0.6666666666666666
 40
0.6666666666666666
 40
0.6666666666666666
 40
1.0
 40
1.0
 40
1.0
 40
1.0
 10
-30.7506
 20
-114.4341
 30
0.0
 10
-23.9871
 20
-115.0458
 30
0.0
 10
-17.9539
 20
-117.1032
 30
0.0
 10
-13.4465
 20
-120.1046
 30
0.0
 10
-13.4465
 20
-120.1046
 30
0.0
 10
-15.9406
 20
-122.2379
 30
0.0
 10
-22.6021
 20
-124.1231
 30
0.0
 10
-24.3124
 20
-124.0995
 30
0.0
 10
-24.3124
 20
-124.0995
 30
0.0
 10
-28.6117
 20
-124.043
 30
0.0
 10
-30.129
 20
-123.2493
 30
0.0
 10
-32.0195
 20
-122.107
 30
0.0
 10
-32.0195
 20
-122.107
 30
0.0
 10
-31.23
 20
-121.0292
 30
0.0
 10
-30.7506
 20
-119.8358
 30
0.0
 10
-31.1213
 20
-118.8879
 30
0.0
 10
-31.1213
 20
-118.8879
 30
0.0
 10
-31.5098
 20
-117.8888
 30
0.0
 10
-31.0702
 20
-115.7926
 30
0.0
 10
-30.7506
 20
-114.4341
 30
0.0
  0
SPLINE
  5
54
330
1F
100
AcDbEntity
  8
layer 1
370
     9
100
AcDbSpline
210
0.0
220
0.0
230
1.0
 70
    11
 71
     3
 72
    28
 73
    24
 74
     0
 42
0.0000000001
 43
0.0000000001
 12
1.0
 22
0.0
 32
0.0
 13
1.0
 23
0.0
 33
0.0
 40
0.0
 40
0.0
 40
0.0
 40
0.0
 40
0.1428571428571428
 40
0.1428571428571428
 40
0.1428571428571428
 40
0.1428571428571428
 40
0.2857142857142857
 40
0.2857142857142857
 40
0.2857142857142857
 40
0.2857142857142857
 40
0.4285714285714285
 40
0.4285714285714285
 40
0.4285714285714285
 40
0.4285714285714285
 40
0.5714285714285714
 40
0.5714285714285714
 40
0.5714285714285714
 40
0.5714285714285714
 40
0.7142857142857143
 40
0.7142857142857143
 40
0.7142857142857143
 40
0.7142857142857143
 40
1.0
 40
1.0
 40
1.0
 40
1.0
 10
56.9327
 20
-114.4683
 30
0.0
 10
64.4363
 20
-114.9936
 30
0.0
 10
71.1017
 20
-117.2919
 30
0.0
 10
75.8765
 20
-120.6959
 30
0.0
 10
75.8765
 20
-120.6959
 30
0.0
 10
75.4549
 20
-120.4436
 30
0.0
 10
75.014
 20
-120.1914
 30
0.0
 10
74.5275
 20
-119.9363
 30
0.0
 10
74.5275
 20
-119.9363
 30
0.0
 10
72.3255
 20
-122.1828
 30
0.0
 10
65.139
 20
-124.2388
 30
0.0
 10
63.3529
 20
-124.2138
 30
0.0
 10
63.3529
 20
-124.2138
 30
0.0
 10
59.0536
 20
-124.1573
 30
0.0
 10
57.5363
 20
-123.3636
 30
0.0
 10
55.6458
 20
-122.2213
 30
0.0
 10
55.6458
 20
-122.2213
 30
0.0
 10
56.4353
 20
-121.1435
 30
0.0
 10
56.9147
 20
-119.9515
 30
0.0
 10
56.5439
 20
-119.0022
 30
0.0
 10
56.5439
 20
-119.0022
 30
0.0
 10
56.1485
 20
-117.9851
 30
0.0
 10
56.6117
 20
-115.8244
 30
0.0
 10
56.9327
 20
-114.4683
 30
0.0
  0
SPLINE
  5
55
330
1F
100
AcDbEntity
  8
layer 1
370
     9
100
AcDbSpline
210
0.0
220
0.0
230
1.0
 70
    11
 71
     3
 72
    24
 73
    20
 74
     0
 42
0.0000000001
 43
0.0000000001
 12
1.0
 22
0.0
 32
0.0
 13
1.0
 23
0.0
 33
0.0
 40
0.0
 40
0.0
 40
0.0
 40
0.0
 40
0.1666666666666667
 40
0.1666666666666667
 40
0.1666666666666667
 40
0.1666666666666667
 40
0.3333333333333333
 40
0.3333333333333333
 40
0.3333333333333333
 40
0.3333333333333333
 40
0.5
 40
0.5
 40
0.5
 40
0.5
 40
0.6666666666666666
 40
0.6666666666666666
 40
0.6666666666666666
 40
0.6666666666666666
 40
1.0
 40
1.0
 40
1.0
 40
1.0
 10
-40.3098
 20
-114.5484
 30
0.0
 10
-40.029
 20
-115.8632
 30
0.0
 10
-39.8096
 20
-117.5593
 30
0.0
 10
-40.3539
 20
-118.6854
 30
0.0
 10
-40.3539
 20
-118.6854
 30
0.0
 10
-40.7261
 20
-119.4527
 30
0.0
 10
-40.2354
 20
-120.6475
 30
0.0
 10
-39.4458
 20
-121.7803
 30
0.0
 10
-39.4458
 20
-121.7803
 30
0.0
 10
-41.5004
 20
-122.887
 30
0.0
 10
-43.0025
 20
-123.6751
 30
0.0
 10
-47.4634
 20
-123.5001
 30
0.0
 10
-47.4634
 20
-123.5001
 30
0.0
 10
-49.1501
 20
-123.4338
 30
0.0
 10
-54.1814
 20
-122.2199
 30
0.0
 10
-56.4935
 20
-120.0965
 30
0.0
 10
-56.4935
 20
-120.0965
 30
0.0
 10
-52.234
 20
-117.263
 30
0.0
 10
-46.6185
 20
-115.2758
 30
0.0
 10
-40.3098
 20
-114.5484
 30
0.0
  0
SPLINE
  5
56
330
1F
100
AcDbEntity
  8
layer 1
370
     9
100
AcDbSpline
210
0.0
220
0.0
230
1.0
 70
    11
 71
     3
 72
    28
 73
    24
 74
     0
 42
0.0000000001
 43
0.0000000001
 12
1.0
 22
0.0
 32
0.0
 13
1.0
 23
0.0
 33
0.0
 40
0.0
 40
0.0
 40
0.0
 40
0.0
 40
0.1428571428571428
 40
0.1428571428571428
 40
0.1428571428571428
 40
0.1428571428571428
 40
0.2857142857142857
 40
0.2857142857142857
 40
0.2857142857142857
 40
0.2857142857142857
 40
0.4285714285714285
 40
0.4285714285714285
 40
0.4285714285714285
 40
0.4285714285714285
 40
0.5714285714285714
 40
0.5714285714285714
 40
0.5714285714285714
 40
0.5714285714285714
 40
0.7142857142857143
 40
0.7142857142857143
 40
0.7142857142857143
 40
0.7142857142857143
 40
1.0
 40
1.0
 40
1.0
 40
1.0
 10
137.9654
 20
-114.5565
 30
0.0
 10
138.2575
 20
-115.8836
 30
0.0
 10
138.4988
 20
-117.6447
 30
0.0
 10
137.9393
 20
-118.7997
 30
0.0
 10
137.9393
 20
-118.7997
 30
0.0
 10
137.5671
 20
-119.5684
 30
0.0
 10
138.0578
 20
-120.7618
 30
0.0
 10
138.8473
 20
-121.8946
 30
0.0
 10
138.8473
 20
-121.8946
 30
0.0
 10
136.7928
 20
-123.0013
 30
0.0
 10
135.2906
 20
-123.7894
 30
0.0
 10
130.8315
 20
-123.6144
 30
0.0
 10
130.8315
 20
-123.6144
 30
0.0
 10
129.0468
 20
-123.5456
 30
0.0
 10
123.51
 20
-122.1895
 30
0.0
 10
121.4208
 20
-119.8319
 30
0.0
 10
121.4208
 20
-119.8319
 30
0.0
 10
121.3079
 20
-119.8827
 30
0.0
 10
121.1975
 20
-119.9325
 30
0.0
 10
121.086
 20
-119.9804
 30
0.0
 10
121.086
 20
-119.9804
 30
0.0
 10
125.5399
 20
-117.1184
 30
0.0
 10
131.4073
 20
-115.1601
 30
0.0
 10
137.9654
 20
-114.5565
 30
0.0
  0
SPLINE
  5
57
330
1F
100
AcDbEntity
  8
layer 1
370
     9
100
AcDbSpline
210
0.0
220
0.0
230
1.0
 70
    11
 71
     3
 72
    24
 73
    20
 74
     0
 42
0.0000000001
 43
0.0000000001
 12
1.0
 22
0.0
 32
0.0
 13
1.0
 23
0.0
 33
0.0
 40
0.0
 40
0.0
 40
0.0
 40
0.0
 40
0.1666666666666667
 40
0.1666666666666667
 40
0.1666666666666667
 40
0.1666666666666667
 40
0.3333333333333333
 40
0.3333333333333333
 40
0.3333333333333333
 40
0.3333333333333333
 40
0.5
 40
0.5
 40
0.5
 40
0.5
 40
0.6666666666666666
 40
0.6666666666666666
 40
0.6666666666666666
 40
0.6666666666666666
 40
1.0
 40
1.0
 40
1.0
 40
1.0
 10
-128.4079
 20
-114.6006
 30
0.0
 10
-128.1201
 20
-115.9235
 30
0.0
 10
-127.8897
 20
-117.657
 30
0.0
 10
-128.4439
 20
-118.7997
 30
0.0
 10
-128.4439
 20
-118.7997
 30
0.0
 10
-128.8157
 20
-119.5684
 30
0.0
 10
-128.324
 20
-120.7618
 30
0.0
 10
-127.5341
 20
-121.8946
 30
0.0
 10
-127.5341
 20
-121.8946
 30
0.0
 10
-129.589
 20
-123.0013
 30
0.0
 10
-131.0908
 20
-123.7894
 30
0.0
 10
-135.5517
 20
-123.6144
 30
0.0
 10
-135.5517
 20
-123.6144
 30
0.0
 10
-137.2948
 20
-123.547
 30
0.0
 10
-142.6196
 20
-122.2502
 30
0.0
 10
-144.8121
 20
-119.9903
 30
0.0
 10
-144.8121
 20
-119.9903
 30
0.0
 10
-140.4673
 20
-117.1942
 30
0.0
 10
-134.7759
 20
-115.2567
 30
0.0
 10
-128.4079
 20
-114.6006
 30
0.0
  0
SPLINE
  5
58
330
1F
100
AcDbEntity
  8
layer 1
370
     9
100
AcDbSpline
210
0.0
220
0.0
230
1.0
 70
    11
 71
     3
 72
    24
 73
    20
 74
     0
 42
0.0000000001
 43
0.0000000001
 12
1.0
 22
0.0
 32
0.0
 13
1.0
 23
0.0
 33
0.0
 40
0.0
 40
0.0
 40
0.0
 40
0.0
 40
0.1666666666666667
 40
0.1666666666666667
 40
0.1666666666666667
 40
0.1666666666666667
 40
0.3333333333333333
 40
0.3333333333333333
 40
0.3333333333333333
 40
0.3333333333333333
 40
0.5
 40
0.5
 40
0.5
 40
0.5
 40
0.6666666666666666
 40
0.6666666666666666
 40
0.6666666666666666
 40
0.6666666666666666
 40
1.0
 40
1.0
 40
1.0
 40
1.0
 10
-118.8568
 20
-114.6006
 30
0.0
 10
-112.1622
 20
-115.2885
 30
0.0
 10
-106.2104
 20
-117.3914
 30
0.0
 10
-101.7912
 20
-120.4214
 30
0.0
 10
-101.7912
 20
-120.4214
 30
0.0
 10
-104.4575
 20
-122.4679
 30
0.0
 10
-110.7458
 20
-124.236
 30
0.0
 10
-112.4006
 20
-124.2138
 30
0.0
 10
-112.4006
 20
-124.2138
 30
0.0
 10
-116.6999
 20
-124.1573
 30
0.0
 10
-118.2172
 20
-123.3636
 30
0.0
 10
-120.1095
 20
-122.2213
 30
0.0
 10
-120.1095
 20
-122.2213
 30
0.0
 10
-119.3183
 20
-121.1435
 30
0.0
 10
-118.8388
 20
-119.9515
 30
0.0
 10
-119.2096
 20
-119.0022
 30
0.0
 10
-119.2096
 20
-119.0022
 30
0.0
 10
-119.5941
 20
-118.0155
 30
0.0
 10
-119.175
 20
-115.9609
 30
0.0
 10
-118.8568
 20
-114.6006
 30
0.0
  0
SPLINE
  5
59
330
1F
100
AcDbEntity
  8
layer 1
370
     9
100
AcDbSpline
210
0.0
220
0.0
230
1.0
 70
    11
 71
     3
 72
    24
 73
    20
 74
     0
 42
0.0000000001
 43
0.0000000001
 12
1.0
 22
0.0
 32
0.0
 13
1.0
 23
0.0
 33
0.0
 40
0.0
 40
0.0
 40
0.0
 40
0.0
 40
0.1666666666666667
 40
0.1666666666666667
 40
0.1666666666666667
 40
0.1666666666666667
 40
0.3333333333333333
 40
0.3333333333333333
 40
0.3333333333333333
 40
0.3333333333333333
 40
0.5
 40
0.5
 40
0.5
 40
0.5
 40
0.6666666666666666
 40
0.6666666666666666
 40
0.6666666666666666
 40
0.6666666666666666
 40
1.0
 40
1.0
 40
1.0
 40
1.0
 10
147.5165
 20
-114.6546
 30
0.0
 10
154.1452
 20
-115.407
 30
0.0
 10
160.0154
 20
-117.5537
 30
0.0
 10
164.3535
 20
-120.6077
 30
0.0
 10
164.3535
 20
-120.6077
 30
0.0
 10
161.5659
 20
-122.5769
 30
0.0
 10
155.5877
 20
-124.236
 30
0.0
 10
153.9826
 20
-124.2138
 30
0.0
 10
153.9826
 20
-124.2138
 30
0.0
 10
149.6829
 20
-124.1573
 30
0.0
 10
148.1642
 20
-123.3636
 30
0.0
 10
146.2737
 20
-122.2213
 30
0.0
 10
146.2737
 20
-122.2213
 30
0.0
 10
147.0646
 20
-121.1435
 30
0.0
 10
147.543
 20
-119.9515
 30
0.0
 10
147.1736
 20
-119.0022
 30
0.0
 10
147.1736
 20
-119.0022
 30
0.0
 10
146.7933
 20
-118.0278
 30
0.0
 10
147.1997
 20
-116.0145
 30
0.0
 10
147.5165
 20
-114.6546
 30
0.0
  0
SPLINE
  5
5A
330
1F
100
AcDbEntity
  8
layer 1
370
     9
100
AcDbSpline
210
0.0
220
0.0
230
1.0
 70
    11
 71
     3
 72
    24
 73
    20
 74
     0
 42
0.0000000001
 43
0.0000000001
 12
1.0
 22
0.0
 32
0.0
 13
1.0
 23
0.0
 33
0.0
 40
0.0
 40
0.0
 40
0.0
 40
0.0
 40
0.1666666666666667
 40
0.1666666666666667
 40
0.1666666666666667
 40
0.1666666666666667
 40
0.3333333333333333
 40
0.3333333333333333
 40
0.3333333333333333
 40
0.3333333333333333
 40
0.5
 40
0.5
 40
0.5
 40
0.5
 40
0.6666666666666666
 40
0.6666666666666666
 40
0.6666666666666666
 40
0.6666666666666666
 40
1.0
 40
1.0
 40
1.0
 40
1.0
 10
47.3816
 20
-114.777
 30
0.0
 10
47.6504
 20
-116.0752
 30
0.0
 10
47.8391
 20
-117.7082
 30
0.0
 10
47.3114
 20
-118.7997
 30
0.0
 10
47.3114
 20
-118.7997
 30
0.0
 10
46.9392
 20
-119.5684
 30
0.0
 10
47.4299
 20
-120.7618
 30
0.0
 10
48.2194
 20
-121.8946
 30
0.0
 10
48.2194
 20
-121.8946
 30
0.0
 10
46.1649
 20
-123.0013
 30
0.0
 10
44.6627
 20
-123.7894
 30
0.0
 10
40.2019
 20
-123.6144
 30
0.0
 10
40.2019
 20
-123.6144
 30
0.0
 10
38.6129
 20
-123.5523
 30
0.0
 10
34.0505
 20
-122.4735
 30
0.0
 10
31.5948
 20
-120.5717
 30
0.0
 10
31.5948
 20
-120.5717
 30
0.0
 10
35.7068
 20
-117.6916
 30
0.0
 10
41.1914
 20
-115.6247
 30
0.0
 10
47.3816
 20
-114.777
 30
0.0
  0
SPLINE
  5
5B
330
1F
100
AcDbEntity
  8
layer 1
370
     9
100
AcDbSpline
210
0.0
220
0.0
230
1.0
 70
    11
 71
     3
 72
    40
 73
    36
 74
     0
 42
0.0000000001
 43
0.0000000001
 12
1.0
 22
0.0
 32
0.0
 13
1.0
 23
0.0
 33
0.0
 40
0.0
 40
0.0
 40
0.0
 40
0.0
 40
0.1
 40
0.1
 40
0.1
 40
0.1
 40
0.2
 40
0.2
 40
0.2
 40
0.2
 40
0.3
 40
0.3
 40
0.3
 40
0.3
 40
0.4
 40
0.4
 40
0.4
 40
0.4
 40
0.5
 40
0.5
 40
0.5
 40
0.5
 40
0.6
 40
0.6
 40
0.6
 40
0.6
 40
0.7
 40
0.7
 40
0.7
 40
0.7
 40
0.8
 40
0.8
 40
0.8
 40
0.8
 40
1.0
 40
1.0
 40
1.0
 40
1.0
 10
-57.2971
 20
-127.7514
 30
0.0
 10
-54.9818
 20
-127.6936
 30
0.0
 10
-52.941
 20
-129.1791
 30
0.0
 10
-51.5384
 20
-132.1171
 30
0.0
 10
-51.5384
 20
-132.1171
 30
0.0
 10
-49.0149
 20
-128.3674
 30
0.0
 10
-47.5075
 20
-129.365
 30
0.0
 10
-47.5075
 20
-129.365
 30
0.0
 10
-47.5075
 20
-129.365
 30
0.0
 10
-46.4492
 20
-129.7908
 30
0.0
 10
-44.6162
 20
-130.871
 30
0.0
 10
-43.6972
 20
-134.5163
 30
0.0
 10
-43.6972
 20
-134.5163
 30
0.0
 10
-40.2163
 20
-133.9236
 30
0.0
 10
-39.7062
 20
-136.6287
 30
0.0
 10
-38.185
 20
-139.5155
 30
0.0
 10
-38.185
 20
-139.5155
 30
0.0
 10
-38.185
 20
-139.5155
 30
0.0
 10
-63.18
 20
-139.5155
 30
0.0
 10
-63.18
 20
-139.5155
 30
0.0
 10
-63.18
 20
-139.5155
 30
0.0
 10
-65.3214
 20
-139.5155
 30
0.0
 10
-65.1725
 20
-137.2641
 30
0.0
 10
-64.9601
 20
-135.212
 30
0.0
 10
-64.9601
 20
-135.212
 30
0.0
 10
-64.4147
 20
-135.0631
 30
0.0
 10
-63.8122
 20
-134.9544
 30
0.0
 10
-63.18
 20
-134.8331
 30
0.0
 10
-63.18
 20
-134.8331
 30
0.0
 10
-63.3465
 20
-131.7078
 30
0.0
 10
-62.9497
 20
-129.5594
 30
0.0
 10
-59.2995
 20
-128.1663
 30
0.0
 10
-59.2995
 20
-128.1663
 30
0.0
 10
-58.6172
 20
-127.9056
 30
0.0
 10
-57.9448
 20
-127.768
 30
0.0
 10
-57.2971
 20
-127.7514
 30
0.0
  0
SPLINE
  5
5C
330
1F
100
AcDbEntity
  8
layer 1
370
     9
100
AcDbSpline
210
0.0
220
0.0
230
1.0
 70
    11
 71
     3
 72
    40
 73
    36
 74
     0
 42
0.0000000001
 43
0.0000000001
 12
1.0
 22
0.0
 32
0.0
 13
1.0
 23
0.0
 33
0.0
 40
0.0
 40
0.0
 40
0.0
 40
0.0
 40
0.1
 40
0.1
 40
0.1
 40
0.1
 40
0.2
 40
0.2
 40
0.2
 40
0.2
 40
0.3
 40
0.3
 40
0.3
 40
0.3
 40
0.4
 40
0.4
 40
0.4
 40
0.4
 40
0.5
 40
0.5
 40
0.5
 40
0.5
 40
0.6
 40
0.6
 40
0.6
 40
0.6
 40
0.7
 40
0.7
 40
0.7
 40
0.7
 40
0.8
 40
0.8
 40
0.8
 40
0.8
 40
1.0
 40
1.0
 40
1.0
 40
1.0
 10
-145.3854
 20
-127.8657
 30
0.0
 10
-143.0715
 20
-127.8079
 30
0.0
 10
-141.0293
 20
-129.2934
 30
0.0
 10
-139.6266
 20
-132.2314
 30
0.0
 10
-139.6266
 20
-132.2314
 30
0.0
 10
-137.1032
 20
-128.4817
 30
0.0
 10
-135.5958
 20
-129.4793
 30
0.0
 10
-135.5958
 20
-129.4793
 30
0.0
 10
-135.5958
 20
-129.4793
 30
0.0
 10
-134.5374
 20
-129.9051
 30
0.0
 10
-132.7062
 20
-130.9857
 30
0.0
 10
-131.7854
 20
-134.6306
 30
0.0
 10
-131.7854
 20
-134.6306
 30
0.0
 10
-128.3032
 20
-134.0393
 30
0.0
 10
-127.7962
 20
-136.743
 30
0.0
 10
-126.2733
 20
-139.6316
 30
0.0
 10
-126.2733
 20
-139.6316
 30
0.0
 10
-126.2733
 20
-139.6316
 30
0.0
 10
-151.8317
 20
-139.6316
 30
0.0
 10
-151.8317
 20
-139.6316
 30
0.0
 10
-151.8317
 20
-139.6316
 30
0.0
 10
-153.9099
 20
-139.6316
 30
0.0
 10
-153.8312
 20
-137.5121
 30
0.0
 10
-153.6315
 20
-135.5125
 30
0.0
 10
-153.6315
 20
-135.5125
 30
0.0
 10
-152.9397
 20
-135.2532
 30
0.0
 10
-152.1365
 20
-135.1143
 30
0.0
 10
-151.2683
 20
-134.9474
 30
0.0
 10
-151.2683
 20
-134.9474
 30
0.0
 10
-151.4362
 20
-131.8221
 30
0.0
 10
-151.0379
 20
-129.6737
 30
0.0
 10
-147.3877
 20
-128.2806
 30
0.0
 10
-147.3877
 20
-128.2806
 30
0.0
 10
-146.7055
 20
-128.0199
 30
0.0
 10
-146.0331
 20
-127.8823
 30
0.0
 10
-145.3854
 20
-127.8657
 30
0.0
  0
SPLINE
  5
5D
330
1F
100
AcDbEntity
  8
layer 1
370
     9
100
AcDbSpline
210
0.0
220
0.0
230
1.0
 70
    11
 71
     3
 72
    40
 73
    36
 74
     0
 42
0.0000000001
 43
0.0000000001
 12
1.0
 22
0.0
 32
0.0
 13
1.0
 23
0.0
 33
0.0
 40
0.0
 40
0.0
 40
0.0
 40
0.0
 40
0.1
 40
0.1
 40
0.1
 40
0.1
 40
0.2
 40
0.2
 40
0.2
 40
0.2
 40
0.3
 40
0.3
 40
0.3
 40
0.3
 40
0.4
 40
0.4
 40
0.4
 40
0.4
 40
0.5
 40
0.5
 40
0.5
 40
0.5
 40
0.6
 40
0.6
 40
0.6
 40
0.6
 40
0.7
 40
0.7
 40
0.7
 40
0.7
 40
0.8
 40
0.8
 40
0.8
 40
0.8
 40
1.0
 40
1.0
 40
1.0
 40
1.0
 10
30.3682
 20
-127.8657
 30
0.0
 10
32.6835
 20
-127.8079
 30
0.0
 10
34.7243
 20
-129.2934
 30
0.0
 10
36.1269
 20
-132.2314
 30
0.0
 10
36.1269
 20
-132.2314
 30
0.0
 10
38.6503
 20
-128.4817
 30
0.0
 10
40.1578
 20
-129.4793
 30
0.0
 10
40.1578
 20
-129.4793
 30
0.0
 10
40.1578
 20
-129.4793
 30
0.0
 10
41.2161
 20
-129.9051
 30
0.0
 10
43.0491
 20
-130.9857
 30
0.0
 10
43.9681
 20
-134.6306
 30
0.0
 10
43.9681
 20
-134.6306
 30
0.0
 10
47.4504
 20
-134.0393
 30
0.0
 10
47.9577
 20
-136.743
 30
0.0
 10
49.4803
 20
-139.6316
 30
0.0
 10
49.4803
 20
-139.6316
 30
0.0
 10
49.4803
 20
-139.6316
 30
0.0
 10
25.4473
 20
-139.6316
 30
0.0
 10
25.4473
 20
-139.6316
 30
0.0
 10
25.4473
 20
-139.6316
 30
0.0
 10
23.2244
 20
-139.6316
 30
0.0
 10
23.4615
 20
-137.2073
 30
0.0
 10
23.6834
 20
-135.0977
 30
0.0
 10
23.6834
 20
-135.0977
 30
0.0
 10
23.9452
 20
-135.0455
 30
0.0
 10
24.2097
 20
-135.0014
 30
0.0
 10
24.4853
 20
-134.9474
 30
0.0
 10
24.4853
 20
-134.9474
 30
0.0
 10
24.3187
 20
-131.8221
 30
0.0
 10
24.7156
 20
-129.6737
 30
0.0
 10
28.3658
 20
-128.2806
 30
0.0
 10
28.3658
 20
-128.2806
 30
0.0
 10
29.0481
 20
-128.0199
 30
0.0
 10
29.7205
 20
-127.8823
 30
0.0
 10
30.3682
 20
-127.8657
 30
0.0
  0
SPLINE
  5
5E
330
1F
100
AcDbEntity
  8
layer 1
370
     9
100
AcDbSpline
210
0.0
220
0.0
230
1.0
 70
    11
 71
     3
 72
    40
 73
    36
 74
     0
 42
0.0000000001
 43
0.0000000001
 12
1.0
 22
0.0
 32
0.0
 13
1.0
 23
0.0
 33
0.0
 40
0.0
 40
0.0
 40
0.0
 40
0.0
 40
0.1
 40
0.1
 40
0.1
 40
0.1
 40
0.2
 40
0.2
 40
0.2
 40
0.2
 40
0.3
 40
0.3
 40
0.3
 40
0.3
 40
0.4
 40
0.4
 40
0.4
 40
0.4
 40
0.5
 40
0.5
 40
0.5
 40
0.5
 40
0.6
 40
0.6
 40
0.6
 40
0.6
 40
0.7
 40
0.7
 40
0.7
 40
0.7
 40
0.8
 40
0.8
 40
0.8
 40
0.8
 40
1.0
 40
1.0
 40
1.0
 40
1.0
 10
120.9978
 20
-127.8657
 30
0.0
 10
123.3114
 20
-127.8079
 30
0.0
 10
125.3536
 20
-129.2934
 30
0.0
 10
126.7566
 20
-132.2314
 30
0.0
 10
126.7566
 20
-132.2314
 30
0.0
 10
129.2797
 20
-128.4817
 30
0.0
 10
130.7874
 20
-129.4793
 30
0.0
 10
130.7874
 20
-129.4793
 30
0.0
 10
130.7874
 20
-129.4793
 30
0.0
 10
131.8458
 20
-129.9051
 30
0.0
 10
133.677
 20
-130.9857
 30
0.0
 10
134.596
 20
-134.6306
 30
0.0
 10
134.596
 20
-134.6306
 30
0.0
 10
138.0786
 20
-134.0393
 30
0.0
 10
138.587
 20
-136.743
 30
0.0
 10
140.1082
 20
-139.6316
 30
0.0
 10
140.1082
 20
-139.6316
 30
0.0
 10
140.1082
 20
-139.6316
 30
0.0
 10
114.0467
 20
-139.6316
 30
0.0
 10
114.0467
 20
-139.6316
 30
0.0
 10
114.0467
 20
-139.6316
 30
0.0
 10
112.05
 20
-139.6316
 30
0.0
 10
112.05
 20
-137.6691
 30
0.0
 10
112.2306
 20
-135.7411
 30
0.0
 10
112.2306
 20
-135.7411
 30
0.0
 10
113.0258
 20
-135.3224
 30
0.0
 10
114.0192
 20
-135.1569
 30
0.0
 10
115.1149
 20
-134.9474
 30
0.0
 10
115.1149
 20
-134.9474
 30
0.0
 10
114.9467
 20
-131.8221
 30
0.0
 10
115.3449
 20
-129.6737
 30
0.0
 10
118.9955
 20
-128.2806
 30
0.0
 10
118.9955
 20
-128.2806
 30
0.0
 10
119.6774
 20
-128.0199
 30
0.0
 10
120.3487
 20
-127.8823
 30
0.0
 10
120.9978
 20
-127.8657
 30
0.0
  0
SPLINE
  5
5F
330
1F
100
AcDbEntity
  8
layer 1
370
     9
100
AcDbSpline
210
0.0
220
0.0
230
1.0
 70
    11
 71
     3
 72
    40
 73
    36
 74
     0
 42
0.0000000001
 43
0.0000000001
 12
1.0
 22
0.0
 32
0.0
 13
1.0
 23
0.0
 33
0.0
 40
0.0
 40
0.0
 40
0.0
 40
0.0
 40
0.1
 40
0.1
 40
0.1
 40
0.1
 40
0.2
 40
0.2
 40
0.2
 40
0.2
 40
0.3
 40
0.3
 40
0.3
 40
0.3
 40
0.4
 40
0.4
 40
0.4
 40
0.4
 40
0.5
 40
0.5
 40
0.5
 40
0.5
 40
0.6
 40
0.6
 40
0.6
 40
0.6
 40
0.7
 40
0.7
 40
0.7
 40
0.7
 40
0.8
 40
0.8
 40
0.8
 40
0.8
 40
1.0
 40
1.0
 40
1.0
 40
1.0
 10
-15.2365
 20
-128.8539
 30
0.0
 10
-14.418
 20
-128.8302
 30
0.0
 10
-13.5745
 20
-129.0108
 30
0.0
 10
-12.7148
 20
-129.3911
 30
0.0
 10
-12.7148
 20
-129.3911
 30
0.0
 10
-9.1359
 20
-130.9744
 30
0.0
 10
-8.8494
 20
-133.1408
 30
0.0
 10
-9.169
 20
-136.2523
 30
0.0
 10
-9.169
 20
-136.2523
 30
0.0
 10
-7.3857
 20
-136.6908
 30
0.0
 10
-5.8646
 20
-136.9981
 30
0.0
 10
-5.1121
 20
-138.4671
 30
0.0
 10
-5.1121
 20
-138.4671
 30
0.0
 10
-5.3643
 20
-139.1024
 30
0.0
 10
-5.8603
 20
-139.5155
 30
0.0
 10
-6.7797
 20
-139.5155
 30
0.0
 10
-6.7797
 20
-139.5155
 30
0.0
 10
-6.7797
 20
-139.5155
 30
0.0
 10
-34.3045
 20
-139.5155
 30
0.0
 10
-34.3045
 20
-139.5155
 30
0.0
 10
-34.3045
 20
-139.5155
 30
0.0
 10
-32.6838
 20
-136.7473
 30
0.0
 10
-32.0266
 20
-134.1483
 30
0.0
 10
-28.6159
 20
-134.9132
 30
0.0
 10
-28.6159
 20
-134.9132
 30
0.0
 10
-27.5202
 20
-131.3205
 30
0.0
 10
-25.6282
 20
-130.3338
 30
0.0
 10
-24.5509
 20
-129.9644
 30
0.0
 10
-24.5509
 20
-129.9644
 30
0.0
 10
-24.5509
 20
-129.9644
 30
0.0
 10
-22.9976
 20
-129.0412
 30
0.0
 10
-20.6604
 20
-132.9189
 30
0.0
 10
-20.6604
 20
-132.9189
 30
0.0
 10
-19.2412
 20
-130.2868
 30
0.0
 10
-17.3313
 20
-128.9145
 30
0.0
 10
-15.2365
 20
-128.8539
 30
0.0
  0
SPLINE
  5
60
330
1F
100
AcDbEntity
  8
layer 1
370
     9
100
AcDbSpline
210
0.0
220
0.0
230
1.0
 70
    11
 71
     3
 72
    40
 73
    36
 74
     0
 42
0.0000000001
 43
0.0000000001
 12
1.0
 22
0.0
 32
0.0
 13
1.0
 23
0.0
 33
0.0
 40
0.0
 40
0.0
 40
0.0
 40
0.0
 40
0.1
 40
0.1
 40
0.1
 40
0.1
 40
0.2
 40
0.2
 40
0.2
 40
0.2
 40
0.3
 40
0.3
 40
0.3
 40
0.3
 40
0.4
 40
0.4
 40
0.4
 40
0.4
 40
0.5
 40
0.5
 40
0.5
 40
0.5
 40
0.6
 40
0.6
 40
0.6
 40
0.6
 40
0.7
 40
0.7
 40
0.7
 40
0.7
 40
0.8
 40
0.8
 40
0.8
 40
0.8
 40
1.0
 40
1.0
 40
1.0
 40
1.0
 10
-103.3346
 20
-128.9682
 30
0.0
 10
-102.5147
 20
-128.9449
 30
0.0
 10
-101.6628
 20
-129.1266
 30
0.0
 10
-100.8031
 20
-129.5054
 30
0.0
 10
-100.8031
 20
-129.5054
 30
0.0
 10
-97.2255
 20
-131.0891
 30
0.0
 10
-96.9377
 20
-133.2551
 30
0.0
 10
-97.2573
 20
-136.3684
 30
0.0
 10
-97.2573
 20
-136.3684
 30
0.0
 10
-95.7513
 20
-136.7374
 30
0.0
 10
-94.4337
 20
-137.0185
 30
0.0
 10
-93.6071
 20
-137.982
 30
0.0
 10
-93.6071
 20
-137.982
 30
0.0
 10
-93.7683
 20
-138.9412
 30
0.0
 10
-94.2506
 20
-139.6316
 30
0.0
 10
-95.4313
 20
-139.6316
 30
0.0
 10
-95.4313
 20
-139.6316
 30
0.0
 10
-95.4313
 20
-139.6316
 30
0.0
 10
-122.3927
 20
-139.6316
 30
0.0
 10
-122.3927
 20
-139.6316
 30
0.0
 10
-122.3927
 20
-139.6316
 30
0.0
 10
-120.7721
 20
-136.8616
 30
0.0
 10
-120.1148
 20
-134.2626
 30
0.0
 10
-116.7042
 20
-135.0275
 30
0.0
 10
-116.7042
 20
-135.0275
 30
0.0
 10
-115.6088
 20
-131.4362
 30
0.0
 10
-113.7165
 20
-130.4495
 30
0.0
 10
-112.6391
 20
-130.0787
 30
0.0
 10
-112.6391
 20
-130.0787
 30
0.0
 10
-112.6391
 20
-130.0787
 30
0.0
 10
-111.0872
 20
-129.1569
 30
0.0
 10
-108.7487
 20
-133.0332
 30
0.0
 10
-108.7487
 20
-133.0332
 30
0.0
 10
-107.3295
 20
-130.4026
 30
0.0
 10
-105.4276
 20
-129.0288
 30
0.0
 10
-103.3346
 20
-128.9682
 30
0.0
  0
SPLINE
  5
61
330
1F
100
AcDbEntity
  8
layer 1
370
     9
100
AcDbSpline
210
0.0
220
0.0
230
1.0
 70
    11
 71
     3
 72
    40
 73
    36
 74
     0
 42
0.0000000001
 43
0.0000000001
 12
1.0
 22
0.0
 32
0.0
 13
1.0
 23
0.0
 33
0.0
 40
0.0
 40
0.0
 40
0.0
 40
0.0
 40
0.1
 40
0.1
 40
0.1
 40
0.1
 40
0.2
 40
0.2
 40
0.2
 40
0.2
 40
0.3
 40
0.3
 40
0.3
 40
0.3
 40
0.4
 40
0.4
 40
0.4
 40
0.4
 40
0.5
 40
0.5
 40
0.5
 40
0.5
 40
0.6
 40
0.6
 40
0.6
 40
0.6
 40
0.7
 40
0.7
 40
0.7
 40
0.7
 40
0.8
 40
0.8
 40
0.8
 40
0.8
 40
1.0
 40
1.0
 40
1.0
 40
1.0
 10
72.4189
 20
-128.9682
 30
0.0
 10
73.2391
 20
-128.9449
 30
0.0
 10
74.0908
 20
-129.1266
 30
0.0
 10
74.9505
 20
-129.5054
 30
0.0
 10
74.9505
 20
-129.5054
 30
0.0
 10
78.5294
 20
-131.0891
 30
0.0
 10
78.8159
 20
-133.2551
 30
0.0
 10
78.4962
 20
-136.3684
 30
0.0
 10
78.4962
 20
-136.3684
 30
0.0
 10
80.566
 20
-136.8767
 30
0.0
 10
82.2805
 20
-137.2172
 30
0.0
 10
82.8538
 20
-139.3931
 30
0.0
 10
82.8538
 20
-139.3931
 30
0.0
 10
82.593
 20
-139.5444
 30
0.0
 10
82.2639
 20
-139.6316
 30
0.0
 10
81.8476
 20
-139.6316
 30
0.0
 10
81.8476
 20
-139.6316
 30
0.0
 10
81.8476
 20
-139.6316
 30
0.0
 10
53.3608
 20
-139.6316
 30
0.0
 10
53.3608
 20
-139.6316
 30
0.0
 10
53.3608
 20
-139.6316
 30
0.0
 10
54.9815
 20
-136.8616
 30
0.0
 10
55.6387
 20
-134.2626
 30
0.0
 10
59.0494
 20
-135.0275
 30
0.0
 10
59.0494
 20
-135.0275
 30
0.0
 10
60.1451
 20
-131.4362
 30
0.0
 10
62.037
 20
-130.4495
 30
0.0
 10
63.1144
 20
-130.0787
 30
0.0
 10
63.1144
 20
-130.0787
 30
0.0
 10
63.1144
 20
-130.0787
 30
0.0
 10
64.6677
 20
-129.1569
 30
0.0
 10
67.0049
 20
-133.0332
 30
0.0
 10
67.0049
 20
-133.0332
 30
0.0
 10
68.4241
 20
-130.4026
 30
0.0
 10
70.3259
 20
-129.0288
 30
0.0
 10
72.4189
 20
-128.9682
 30
0.0
  0
SPLINE
  5
62
330
1F
100
AcDbEntity
  8
layer 1
370
     9
100
AcDbSpline
210
0.0
220
0.0
230
1.0
 70
    11
 71
     3
 72
    40
 73
    36
 74
     0
 42
0.0000000001
 43
0.0000000001
 12
1.0
 22
0.0
 32
0.0
 13
1.0
 23
0.0
 33
0.0
 40
0.0
 40
0.0
 40
0.0
 40
0.0
 40
0.1
 40
0.1
 40
0.1
 40
0.1
 40
0.2
 40
0.2
 40
0.2
 40
0.2
 40
0.3
 40
0.3
 40
0.3
 40
0.3
 40
0.4
 40
0.4
 40
0.4
 40
0.4
 40
0.5
 40
0.5
 40
0.5
 40
0.5
 40
0.6
 40
0.6
 40
0.6
 40
0.6
 40
0.7
 40
0.7
 40
0.7
 40
0.7
 40
0.8
 40
0.8
 40
0.8
 40
0.8
 40
1.0
 40
1.0
 40
1.0
 40
1.0
 10
163.0567
 20
-128.9682
 30
0.0
 10
163.8766
 20
-128.9449
 30
0.0
 10
164.7201
 20
-129.1266
 30
0.0
 10
165.5801
 20
-129.5054
 30
0.0
 10
165.5801
 20
-129.5054
 30
0.0
 10
169.1573
 20
-131.0891
 30
0.0
 10
169.4441
 20
-133.2551
 30
0.0
 10
169.1241
 20
-136.3684
 30
0.0
 10
169.1241
 20
-136.3684
 30
0.0
 10
170.3825
 20
-136.6771
 30
0.0
 10
171.5082
 20
-136.9251
 30
0.0
 10
172.327
 20
-137.559
 30
0.0
 10
172.327
 20
-137.559
 30
0.0
 10
172.236
 20
-138.7316
 30
0.0
 10
171.7964
 20
-139.6316
 30
0.0
 10
170.4471
 20
-139.6316
 30
0.0
 10
170.4471
 20
-139.6316
 30
0.0
 10
170.4471
 20
-139.6316
 30
0.0
 10
143.9887
 20
-139.6316
 30
0.0
 10
143.9887
 20
-139.6316
 30
0.0
 10
143.9887
 20
-139.6316
 30
0.0
 10
145.6094
 20
-136.8616
 30
0.0
 10
146.268
 20
-134.2626
 30
0.0
 10
149.6773
 20
-135.0275
 30
0.0
 10
149.6773
 20
-135.0275
 30
0.0
 10
150.773
 20
-131.4362
 30
0.0
 10
152.6664
 20
-130.4495
 30
0.0
 10
153.7441
 20
-130.0787
 30
0.0
 10
153.7441
 20
-130.0787
 30
0.0
 10
153.7441
 20
-130.0787
 30
0.0
 10
155.2956
 20
-129.1569
 30
0.0
 10
157.6328
 20
-133.0332
 30
0.0
 10
157.6328
 20
-133.0332
 30
0.0
 10
159.0538
 20
-130.4026
 30
0.0
 10
160.9637
 20
-129.0288
 30
0.0
 10
163.0567
 20
-128.9682
 30
0.0
  0
SPLINE
  5
63
330
1F
100
AcDbEntity
  8
layer 1
370
     9
100
AcDbSpline
210
0.0
220
0.0
230
1.0
 70
    11
 71
     3
 72
    68
 73
    64
 74
     0
 42
0.0000000001
 43
0.0000000001
 12
1.0
 22
0.0
 32
0.0
 13
1.0
 23
0.0
 33
0.0
 40
0.0
 40
0.0
 40
0.0
 40
0.0
 40
0.0588235294117647
 40
0.0588235294117647
 40
0.0588235294117647
 40
0.0588235294117647
 40
0.1176470588235294
 40
0.1176470588235294
 40
0.1176470588235294
 40
0.1176470588235294
 40
0.1764705882352941
 40
0.1764705882352941
 40
0.1764705882352941
 40
0.1764705882352941
 40
0.2352941176470588
 40
0.2352941176470588
 40
0.2352941176470588
 40
0.2352941176470588
 40
0.2941176470588235
 40
0.2941176470588235
 40
0.2941176470588235
 40
0.2941176470588235
 40
0.3529411764705883
 40
0.3529411764705883
 40
0.3529411764705883
 40
0.3529411764705883
 40
0.4117647058823529
 40
0.4117647058823529
 40
0.4117647058823529
 40
0.4117647058823529
 40
0.4705882352941176
 40
0.4705882352941176
 40
0.4705882352941176
 40
0.4705882352941176
 40
0.5294117647058824
 40
0.5294117647058824
 40
0.5294117647058824
 40
0.5294117647058824
 40
0.5882352941176471
 40
0.5882352941176471
 40
0.5882352941176471
 40
0.5882352941176471
 40
0.6470588235294118
 40
0.6470588235294118
 40
0.6470588235294118
 40
0.6470588235294118
 40
0.7058823529411765
 40
0.7058823529411765
 40
0.7058823529411765
 40
0.7058823529411765
 40
0.7647058823529411
 40
0.7647058823529411
 40
0.7647058823529411
 40
0.7647058823529411
 40
0.8235294117647058
 40
0.8235294117647058
 40
0.8235294117647058
 40
0.8235294117647058
 40
0.8823529411764706
 40
0.8823529411764706
 40
0.8823529411764706
 40
0.8823529411764706
 40
1.0
 40
1.0
 40
1.0
 40
1.0
 10
-59.7126
 20
-156.6612
 30
0.0
 10
-59.7126
 20
-156.6612
 30
0.0
 10
-42.0215
 20
-156.6612
 30
0.0
 10
-42.0215
 20
-156.6612
 30
0.0
 10
-42.0215
 20
-156.6612
 30
0.0
 10
-46.4478
 20
-158.8784
 30
0.0
 10
-49.5593
 20
-164.0942
 30
0.0
 10
-47.1808
 20
-168.8141
 30
0.0
 10
-47.1808
 20
-168.8141
 30
0.0
 10
-45.4251
 20
-172.8682
 30
0.0
 10
-40.857
 20
-174.8018
 30
0.0
 10
-38.9706
 20
-178.6477
 30
0.0
 10
-38.9706
 20
-178.6477
 30
0.0
 10
-40.0755
 20
-181.8227
 30
0.0
 10
-46.1733
 20
-184.3874
 30
0.0
 10
-48.7242
 20
-182.1053
 30
0.0
 10
-48.7242
 20
-182.1053
 30
0.0
 10
-51.3701
 20
-178.9483
 30
0.0
 10
-58.4175
 20
-180.0313
 30
0.0
 10
-58.4697
 20
-174.3622
 30
0.0
 10
-58.4697
 20
-174.3622
 30
0.0
 10
-60.7998
 20
-174.9644
 30
0.0
 10
-66.603
 20
-172.7567
 30
0.0
 10
-62.8713
 20
-170.6139
 30
0.0
 10
-62.8713
 20
-170.6139
 30
0.0
 10
-60.8524
 20
-173.2778
 30
0.0
 10
-59.375
 20
-169.9676
 30
0.0
 10
-62.0677
 20
-168.9562
 30
0.0
 10
-62.0677
 20
-168.9562
 30
0.0
 10
-61.1664
 20
-165.861
 30
0.0
 10
-56.8974
 20
-172.78
 30
0.0
 10
-57.1828
 20
-168.4874
 30
0.0
 10
-57.1828
 20
-168.4874
 30
0.0
 10
-57.4954
 20
-166.328
 30
0.0
 10
-60.4209
 20
-167.0364
 30
0.0
 10
-60.1976
 20
-166.0539
 30
0.0
 10
-60.1976
 20
-166.0539
 30
0.0
 10
-59.9757
 20
-165.0714
 30
0.0
 10
-55.9505
 20
-166.4825
 30
0.0
 10
-57.7723
 20
-164.29
 30
0.0
 10
-57.7723
 20
-164.29
 30
0.0
 10
-58.5357
 20
-164.1066
 30
0.0
 10
-61.0838
 20
-164.4731
 30
0.0
 10
-60.2516
 20
-163.0292
 30
0.0
 10
-60.2516
 20
-163.0292
 30
0.0
 10
-57.9889
 20
-163.4921
 30
0.0
 10
-56.5101
 20
-161.6428
 30
0.0
 10
-59.7845
 20
-161.5119
 30
0.0
 10
-59.7845
 20
-161.5119
 30
0.0
 10
-65.3655
 20
-161.2431
 30
0.0
 10
-63.3783
 20
-168.9643
 30
0.0
 10
-67.606
 20
-171.0729
 30
0.0
 10
-67.606
 20
-171.0729
 30
0.0
 10
-68.6756
 20
-172.4466
 30
0.0
 10
-69.385
 20
-173.4443
 30
0.0
 10
-69.9791
 20
-174.4585
 30
0.0
 10
-69.9791
 20
-174.4585
 30
0.0
 10
-69.9791
 20
-174.4585
 30
0.0
 10
-69.9791
 20
-166.9278
 30
0.0
 10
-69.9791
 20
-166.9278
 30
0.0
 10
-69.9791
 20
-166.9278
 30
0.0
 10
-69.9791
 20
-161.2403
 30
0.0
 10
-65.3997
 20
-156.6612
 30
0.0
 10
-59.7126
 20
-156.6612
 30
0.0
  0
SPLINE
  5
64
330
1F
100
AcDbEntity
  8
layer 1
370
     9
100
AcDbSpline
210
0.0
220
0.0
230
1.0
 70
    11
 71
     3
 72
    60
 73
    56
 74
     0
 42
0.0000000001
 43
0.0000000001
 12
1.0
 22
0.0
 32
0.0
 13
1.0
 23
0.0
 33
0.0
 40
0.0
 40
0.0
 40
0.0
 40
0.0
 40
0.0666666666666667
 40
0.0666666666666667
 40
0.0666666666666667
 40
0.0666666666666667
 40
0.1333333333333333
 40
0.1333333333333333
 40
0.1333333333333333
 40
0.1333333333333333
 40
0.2
 40
0.2
 40
0.2
 40
0.2
 40
0.2666666666666667
 40
0.2666666666666667
 40
0.2666666666666667
 40
0.2666666666666667
 40
0.3333333333333333
 40
0.3333333333333333
 40
0.3333333333333333
 40
0.3333333333333333
 40
0.4
 40
0.4
 40
0.4
 40
0.4
 40
0.4666666666666667
 40
0.4666666666666667
 40
0.4666666666666667
 40
0.4666666666666667
 40
0.5333333333333333
 40
0.5333333333333333
 40
0.5333333333333333
 40
0.5333333333333333
 40
0.6
 40
0.6
 40
0.6
 40
0.6
 40
0.6666666666666666
 40
0.6666666666666666
 40
0.6666666666666666
 40
0.6666666666666666
 40
0.7333333333333333
 40
0.7333333333333333
 40
0.7333333333333333
 40
0.7333333333333333
 40
0.8
 40
0.8
 40
0.8
 40
0.8
 40
0.8666666666666667
 40
0.8666666666666667
 40
0.8666666666666667
 40
0.8666666666666667
 40
1.0
 40
1.0
 40
1.0
 40
1.0
 10
-32.4785
 20
-156.6612
 30
0.0
 10
-32.4785
 20
-156.6612
 30
0.0
 10
-10.2454
 20
-156.6612
 30
0.0
 10
-10.2454
 20
-156.6612
 30
0.0
 10
-10.2454
 20
-156.6612
 30
0.0
 10
-5.8385
 20
-156.6612
 30
0.0
 10
-2.0927
 20
-159.4104
 30
0.0
 10
-0.6322
 20
-163.2938
 30
0.0
 10
-0.6322
 20
-163.2938
 30
0.0
 10
-6.0477
 20
-163.1174
 30
0.0
 10
-4.7523
 20
-170.4001
 30
0.0
 10
-7.6778
 20
-173.3561
 30
0.0
 10
-7.6778
 20
-173.3561
 30
0.0
 10
-9.2463
 20
-177.6847
 30
0.0
 10
-13.2108
 20
-174.9492
 30
0.0
 10
-16.3128
 20
-175.9317
 30
0.0
 10
-16.3128
 20
-175.9317
 30
0.0
 10
-19.4754
 20
-176.6097
 30
0.0
 10
-22.6353
 20
-181.2428
 30
0.0
 10
-25.4148
 20
-180.1731
 30
0.0
 10
-25.4148
 20
-180.1731
 30
0.0
 10
-26.9981
 20
-176.2527
 30
0.0
 10
-34.1598
 20
-185.7502
 30
0.0
 10
-34.1281
 20
-180.2352
 30
0.0
 10
-34.1281
 20
-180.2352
 30
0.0
 10
-33.468
 20
-178.1546
 30
0.0
 10
-28.1157
 20
-176.0792
 30
0.0
 10
-32.8313
 20
-176.523
 30
0.0
 10
-32.8313
 20
-176.523
 30
0.0
 10
-35.827
 20
-177.9023
 30
0.0
 10
-36.8303
 20
-176.028
 30
0.0
 10
-33.9877
 20
-174.5206
 30
0.0
 10
-33.9877
 20
-174.5206
 30
0.0
 10
-31.8047
 20
-172.5927
 30
0.0
 10
-28.871
 20
-176.0848
 30
0.0
 10
-29.6481
 20
-171.9989
 30
0.0
 10
-29.6481
 20
-171.9989
 30
0.0
 10
-28.8928
 20
-170.2626
 30
0.0
 10
-26.8866
 20
-167.3148
 30
0.0
 10
-30.2916
 20
-168.9562
 30
0.0
 10
-30.2916
 20
-168.9562
 30
0.0
 10
-30.7255
 20
-168.7273
 30
0.0
 10
-29.936
 20
-168.088
 30
0.0
 10
-30.0351
 20
-167.8097
 30
0.0
 10
-30.0351
 20
-167.8097
 30
0.0
 10
-30.1523
 20
-167.483
 30
0.0
 10
-31.1062
 20
-167.512
 30
0.0
 10
-30.9009
 20
-167.1825
 30
0.0
 10
-30.9009
 20
-167.1825
 30
0.0
 10
-30.1964
 20
-166.0553
 30
0.0
 10
-28.0384
 20
-165.1198
 30
0.0
 10
-27.4073
 20
-165.8154
 30
0.0
 10
-27.4073
 20
-165.8154
 30
0.0
 10
-27.1537
 20
-161.8908
 30
0.0
 10
-29.2456
 20
-158.363
 30
0.0
 10
-32.4785
 20
-156.6612
 30
0.0
  0
SPLINE
  5
65
330
1F
100
AcDbEntity
  8
layer 1
370
     9
100
AcDbSpline
210
0.0
220
0.0
230
1.0
 70
    11
 71
     3
 72
    72
 73
    68
 74
     0
 42
0.0000000001
 43
0.0000000001
 12
1.0
 22
0.0
 32
0.0
 13
1.0
 23
0.0
 33
0.0
 40
0.0
 40
0.0
 40
0.0
 40
0.0
 40
0.0555555555555556
 40
0.0555555555555556
 40
0.0555555555555556
 40
0.0555555555555556
 40
0.1111111111111111
 40
0.1111111111111111
 40
0.1111111111111111
 40
0.1111111111111111
 40
0.1666666666666667
 40
0.1666666666666667
 40
0.1666666666666667
 40
0.1666666666666667
 40
0.2222222222222222
 40
0.2222222222222222
 40
0.2222222222222222
 40
0.2222222222222222
 40
0.2777777777777778
 40
0.2777777777777778
 40
0.2777777777777778
 40
0.2777777777777778
 40
0.3333333333333333
 40
0.3333333333333333
 40
0.3333333333333333
 40
0.3333333333333333
 40
0.3888888888888889
 40
0.3888888888888889
 40
0.3888888888888889
 40
0.3888888888888889
 40
0.4444444444444444
 40
0.4444444444444444
 40
0.4444444444444444
 40
0.4444444444444444
 40
0.5
 40
0.5
 40
0.5
 40
0.5
 40
0.5555555555555556
 40
0.5555555555555556
 40
0.5555555555555556
 40
0.5555555555555556
 40
0.6111111111111112
 40
0.6111111111111112
 40
0.6111111111111112
 40
0.6111111111111112
 40
0.6666666666666666
 40
0.6666666666666666
 40
0.6666666666666666
 40
0.6666666666666666
 40
0.7222222222222222
 40
0.7222222222222222
 40
0.7222222222222222
 40
0.7222222222222222
 40
0.7777777777777778
 40
0.7777777777777778
 40
0.7777777777777778
 40
0.7777777777777778
 40
0.8333333333333334
 40
0.8333333333333334
 40
0.8333333333333334
 40
0.8333333333333334
 40
0.8888888888888888
 40
0.8888888888888888
 40
0.8888888888888888
 40
0.8888888888888888
 40
1.0
 40
1.0
 40
1.0
 40
1.0
 10
-148.366
 20
-156.7755
 30
0.0
 10
-148.366
 20
-156.7755
 30
0.0
 10
-134.0263
 20
-156.7755
 30
0.0
 10
-134.0263
 20
-156.7755
 30
0.0
 10
-134.0263
 20
-156.7755
 30
0.0
 10
-137.1321
 20
-157.7982
 30
0.0
 10
-140.0425
 20
-159.6087
 30
0.0
 10
-143.0401
 20
-160.8684
 30
0.0
 10
-143.0401
 20
-160.8684
 30
0.0
 10
-147.2568
 20
-162.5152
 30
0.0
 10
-150.8287
 20
-165.8154
 30
0.0
 10
-152.0179
 20
-170.2791
 30
0.0
 10
-152.0179
 20
-170.2791
 30
0.0
 10
-152.8321
 20
-173.9914
 30
0.0
 10
-154.6112
 20
-177.6046
 30
0.0
 10
-154.4775
 20
-181.452
 30
0.0
 10
-154.4775
 20
-181.452
 30
0.0
 10
-153.2237
 20
-187.4051
 30
0.0
 10
-148.6112
 20
-192.1471
 30
0.0
 10
-143.7619
 20
-195.537
 30
0.0
 10
-143.7619
 20
-195.537
 30
0.0
 10
-139.9229
 20
-196.7001
 30
0.0
 10
-137.5607
 20
-199.2535
 30
0.0
 10
-140.9495
 20
-202.7428
 30
0.0
 10
-140.9495
 20
-202.7428
 30
0.0
 10
-142.9477
 20
-205.3954
 30
0.0
 10
-145.8496
 20
-210.2379
 30
0.0
 10
-140.9675
 20
-211.7305
 30
0.0
 10
-140.9675
 20
-211.7305
 30
0.0
 10
-136.7755
 20
-213.4267
 30
0.0
 10
-133.1249
 20
-216.3152
 30
0.0
 10
-128.6104
 20
-217.2688
 30
0.0
 10
-128.6104
 20
-217.2688
 30
0.0
 10
-124.2092
 20
-219.4419
 30
0.0
 10
-119.5472
 20
-217.0522
 30
0.0
 10
-115.3111
 20
-215.6813
 30
0.0
 10
-115.3111
 20
-215.6813
 30
0.0
 10
-113.3888
 20
-215.0844
 30
0.0
 10
-107.66
 20
-212.8534
 30
0.0
 10
-107.8766
 20
-214.4808
 30
0.0
 10
-107.8766
 20
-214.4808
 30
0.0
 10
-112.1844
 20
-219.183
 30
0.0
 10
-117.9488
 20
-222.2447
 30
0.0
 10
-124.0603
 20
-223.8735
 30
0.0
 10
-124.0603
 20
-223.8735
 30
0.0
 10
-131.379
 20
-221.0294
 30
0.0
 10
-138.9292
 20
-218.4495
 30
0.0
 10
-145.5617
 20
-214.1721
 30
0.0
 10
-145.5617
 20
-214.1721
 30
0.0
 10
-148.2573
 20
-211.3527
 30
0.0
 10
-150.156
 20
-207.1663
 30
0.0
 10
-154.1346
 20
-206.006
 30
0.0
 10
-154.1346
 20
-206.006
 30
0.0
 10
-158.835
 20
-207.4612
 30
0.0
 10
-153.0061
 20
-213.0725
 30
0.0
 10
-155.4215
 20
-216.2627
 30
0.0
 10
-155.4215
 20
-216.2627
 30
0.0
 10
-156.3462
 20
-216.9781
 30
0.0
 10
-157.6197
 20
-217.6202
 30
0.0
 10
-158.6325
 20
-218.3451
 30
0.0
 10
-158.6325
 20
-218.3451
 30
0.0
 10
-158.6325
 20
-218.3451
 30
0.0
 10
-158.6325
 20
-167.0421
 30
0.0
 10
-158.6325
 20
-167.0421
 30
0.0
 10
-158.6325
 20
-167.0421
 30
0.0
 10
-158.6325
 20
-161.3549
 30
0.0
 10
-154.0531
 20
-156.7755
 30
0.0
 10
-148.366
 20
-156.7755
 30
0.0
  0
SPLINE
  5
66
330
1F
100
AcDbEntity
  8
layer 1
370
     9
100
AcDbSpline
210
0.0
220
0.0
230
1.0
 70
    11
 71
     3
 72
    40
 73
    36
 74
     0
 42
0.0000000001
 43
0.0000000001
 12
1.0
 22
0.0
 32
0.0
 13
1.0
 23
0.0
 33
0.0
 40
0.0
 40
0.0
 40
0.0
 40
0.0
 40
0.1
 40
0.1
 40
0.1
 40
0.1
 40
0.2
 40
0.2
 40
0.2
 40
0.2
 40
0.3
 40
0.3
 40
0.3
 40
0.3
 40
0.4
 40
0.4
 40
0.4
 40
0.4
 40
0.5
 40
0.5
 40
0.5
 40
0.5
 40
0.6
 40
0.6
 40
0.6
 40
0.6
 40
0.7
 40
0.7
 40
0.7
 40
0.7
 40
0.8
 40
0.8
 40
0.8
 40
0.8
 40
1.0
 40
1.0
 40
1.0
 40
1.0
 10
-128.47
 20
-156.7755
 30
0.0
 10
-128.47
 20
-156.7755
 30
0.0
 10
-117.542
 20
-156.7755
 30
0.0
 10
-117.542
 20
-156.7755
 30
0.0
 10
-117.542
 20
-156.7755
 30
0.0
 10
-118.0257
 20
-158.0766
 30
0.0
 10
-117.9625
 20
-159.8542
 30
0.0
 10
-119.5264
 20
-160.1971
 30
0.0
 10
-119.5264
 20
-160.1971
 30
0.0
 10
-119.5264
 20
-160.1971
 30
0.0
 10
-128.0731
 20
-164.2819
 30
0.0
 10
-128.0731
 20
-164.2819
 30
0.0
 10
-128.0731
 20
-164.2819
 30
0.0
 10
-128.0731
 20
-164.2819
 30
0.0
 10
-118.9891
 20
-169.1047
 30
0.0
 10
-118.9891
 20
-169.1047
 30
0.0
 10
-118.9891
 20
-169.1047
 30
0.0
 10
-118.9891
 20
-169.1047
 30
0.0
 10
-127.8347
 20
-175.3323
 30
0.0
 10
-127.8347
 20
-175.3323
 30
0.0
 10
-127.8347
 20
-175.3323
 30
0.0
 10
-127.8347
 20
-175.3323
 30
0.0
 10
-122.2865
 20
-169.4755
 30
0.0
 10
-122.2865
 20
-169.4755
 30
0.0
 10
-122.2865
 20
-169.4755
 30
0.0
 10
-122.2865
 20
-169.4755
 30
0.0
 10
-132.1301
 20
-164.5546
 30
0.0
 10
-132.1301
 20
-164.5546
 30
0.0
 10
-132.1301
 20
-164.5546
 30
0.0
 10
-132.1301
 20
-164.5546
 30
0.0
 10
-124.854
 20
-159.8542
 30
0.0
 10
-124.854
 20
-159.8542
 30
0.0
 10
-124.854
 20
-159.8542
 30
0.0
 10
-126.0598
 20
-158.8287
 30
0.0
 10
-127.2642
 20
-157.8007
 30
0.0
 10
-128.47
 20
-156.7755
 30
0.0
  0
SPLINE
  5
67
330
1F
100
AcDbEntity
  8
layer 1
370
     9
100
AcDbSpline
210
0.0
220
0.0
230
1.0
 70
    11
 71
     3
 72
    52
 73
    48
 74
     0
 42
0.0000000001
 43
0.0000000001
 12
1.0
 22
0.0
 32
0.0
 13
1.0
 23
0.0
 33
0.0
 40
0.0
 40
0.0
 40
0.0
 40
0.0
 40
0.0769230769230769
 40
0.0769230769230769
 40
0.0769230769230769
 40
0.0769230769230769
 40
0.1538461538461539
 40
0.1538461538461539
 40
0.1538461538461539
 40
0.1538461538461539
 40
0.2307692307692308
 40
0.2307692307692308
 40
0.2307692307692308
 40
0.2307692307692308
 40
0.3076923076923077
 40
0.3076923076923077
 40
0.3076923076923077
 40
0.3076923076923077
 40
0.3846153846153846
 40
0.3846153846153846
 40
0.3846153846153846
 40
0.3846153846153846
 40
0.4615384615384616
 40
0.4615384615384616
 40
0.4615384615384616
 40
0.4615384615384616
 40
0.5384615384615384
 40
0.5384615384615384
 40
0.5384615384615384
 40
0.5384615384615384
 40
0.6153846153846154
 40
0.6153846153846154
 40
0.6153846153846154
 40
0.6153846153846154
 40
0.6923076923076923
 40
0.6923076923076923
 40
0.6923076923076923
 40
0.6923076923076923
 40
0.7692307692307693
 40
0.7692307692307693
 40
0.7692307692307693
 40
0.7692307692307693
 40
0.8461538461538461
 40
0.8461538461538461
 40
0.8461538461538461
 40
0.8461538461538461
 40
1.0
 40
1.0
 40
1.0
 40
1.0
 10
-114.5353
 20
-156.7755
 30
0.0
 10
-114.5353
 20
-156.7755
 30
0.0
 10
-98.8988
 20
-156.7755
 30
0.0
 10
-98.8988
 20
-156.7755
 30
0.0
 10
-98.8988
 20
-156.7755
 30
0.0
 10
-93.2113
 20
-156.7755
 30
0.0
 10
-88.6322
 20
-161.3549
 30
0.0
 10
-88.6322
 20
-167.0421
 30
0.0
 10
-88.6322
 20
-167.0421
 30
0.0
 10
-88.6322
 20
-167.0421
 30
0.0
 10
-88.6322
 20
-214.8255
 30
0.0
 10
-88.6322
 20
-214.8255
 30
0.0
 10
-88.6322
 20
-214.8255
 30
0.0
 10
-89.7456
 20
-214.5016
 30
0.0
 10
-90.8096
 20
-214.2494
 30
0.0
 10
-91.5345
 20
-214.0236
 30
0.0
 10
-91.5345
 20
-214.0236
 30
0.0
 10
-96.2706
 20
-212.072
 30
0.0
 10
-88.9575
 20
-206.079
 30
0.0
 10
-94.0382
 20
-204.6471
 30
0.0
 10
-94.0382
 20
-204.6471
 30
0.0
 10
-98.7443
 20
-202.722
 30
0.0
 10
-101.9122
 20
-207.9766
 30
0.0
 10
-104.6215
 20
-210.8828
 30
0.0
 10
-104.6215
 20
-210.8828
 30
0.0
 10
-105.7998
 20
-211.9852
 30
0.0
 10
-105.9212
 20
-206.484
 30
0.0
 10
-107.6903
 20
-205.2743
 30
0.0
 10
-107.6903
 20
-205.2743
 30
0.0
 10
-109.2034
 20
-202.7015
 30
0.0
 10
-114.3035
 20
-197.2748
 30
0.0
 10
-108.7046
 20
-196.3748
 30
0.0
 10
-108.7046
 20
-196.3748
 30
0.0
 10
-104.6134
 20
-194.9295
 30
0.0
 10
-99.392
 20
-194.8713
 30
0.0
 10
-96.9045
 20
-190.7223
 30
0.0
 10
-96.9045
 20
-190.7223
 30
0.0
 10
-92.7125
 20
-185.6274
 30
0.0
 10
-92.342
 20
-177.9891
 30
0.0
 10
-96.0145
 20
-172.5101
 30
0.0
 10
-96.0145
 20
-172.5101
 30
0.0
 10
-98.9302
 20
-168.3731
 30
0.0
 10
-101.2218
 20
-163.5584
 30
0.0
 10
-105.301
 20
-160.4176
 30
0.0
 10
-105.301
 20
-160.4176
 30
0.0
 10
-108.3479
 20
-159.2534
 30
0.0
 10
-111.3367
 20
-157.5626
 30
0.0
 10
-114.5353
 20
-156.7755
 30
0.0
  0
SPLINE
  5
68
330
1F
100
AcDbEntity
  8
layer 1
370
     9
100
AcDbSpline
210
0.0
220
0.0
230
1.0
 70
    11
 71
     3
 72
    28
 73
    24
 74
     0
 42
0.0000000001
 43
0.0000000001
 12
1.0
 22
0.0
 32
0.0
 13
1.0
 23
0.0
 33
0.0
 40
0.0
 40
0.0
 40
0.0
 40
0.0
 40
0.1428571428571428
 40
0.1428571428571428
 40
0.1428571428571428
 40
0.1428571428571428
 40
0.2857142857142857
 40
0.2857142857142857
 40
0.2857142857142857
 40
0.2857142857142857
 40
0.4285714285714285
 40
0.4285714285714285
 40
0.4285714285714285
 40
0.4285714285714285
 40
0.5714285714285714
 40
0.5714285714285714
 40
0.5714285714285714
 40
0.5714285714285714
 40
0.7142857142857143
 40
0.7142857142857143
 40
0.7142857142857143
 40
0.7142857142857143
 40
1.0
 40
1.0
 40
1.0
 40
1.0
 10
28.913
 20
-156.7755
 30
0.0
 10
28.913
 20
-156.7755
 30
0.0
 10
38.8087
 20
-156.7755
 30
0.0
 10
38.8087
 20
-156.7755
 30
0.0
 10
38.8087
 20
-156.7755
 30
0.0
 10
37.6555
 20
-159.1596
 30
0.0
 10
35.7039
 20
-163.1103
 30
0.0
 10
34.8841
 20
-165.0838
 30
0.0
 10
34.8841
 20
-165.0838
 30
0.0
 10
31.5355
 20
-171.5869
 30
0.0
 10
30.7446
 20
-178.9924
 30
0.0
 10
28.6403
 20
-185.8275
 30
0.0
 10
28.6403
 20
-185.8275
 30
0.0
 10
25.9309
 20
-188.3093
 30
0.0
 10
22.1428
 20
-189.1637
 30
0.0
 10
18.6482
 20
-190.4217
 30
0.0
 10
18.6482
 20
-190.4217
 30
0.0
 10
18.6482
 20
-190.4217
 30
0.0
 10
18.6482
 20
-167.0421
 30
0.0
 10
18.6482
 20
-167.0421
 30
0.0
 10
18.6482
 20
-167.0421
 30
0.0
 10
18.6482
 20
-161.3549
 30
0.0
 10
23.2258
 20
-156.7755
 30
0.0
 10
28.913
 20
-156.7755
 30
0.0
  0
SPLINE
  5
69
330
1F
100
AcDbEntity
  8
layer 1
370
     9
100
AcDbSpline
210
0.0
220
0.0
230
1.0
 70
    11
 71
     3
 72
    32
 73
    28
 74
     0
 42
0.0000000001
 43
0.0000000001
 12
1.0
 22
0.0
 32
0.0
 13
1.0
 23
0.0
 33
0.0
 40
0.0
 40
0.0
 40
0.0
 40
0.0
 40
0.125
 40
0.125
 40
0.125
 40
0.125
 40
0.25
 40
0.25
 40
0.25
 40
0.25
 40
0.375
 40
0.375
 40
0.375
 40
0.375
 40
0.5
 40
0.5
 40
0.5
 40
0.5
 40
0.625
 40
0.625
 40
0.625
 40
0.625
 40
0.75
 40
0.75
 40
0.75
 40
0.75
 40
1.0
 40
1.0
 40
1.0
 40
1.0
 10
56.7383
 20
-156.7755
 30
0.0
 10
56.7383
 20
-156.7755
 30
0.0
 10
78.3819
 20
-156.7755
 30
0.0
 10
78.3819
 20
-156.7755
 30
0.0
 10
78.3819
 20
-156.7755
 30
0.0
 10
84.0691
 20
-156.7755
 30
0.0
 10
88.6467
 20
-161.3549
 30
0.0
 10
88.6467
 20
-167.0421
 30
0.0
 10
88.6467
 20
-167.0421
 30
0.0
 10
88.6467
 20
-167.0421
 30
0.0
 10
88.6467
 20
-185.5089
 30
0.0
 10
88.6467
 20
-185.5089
 30
0.0
 10
88.6467
 20
-185.5089
 30
0.0
 10
87.2166
 20
-185.2941
 30
0.0
 10
85.8121
 20
-185.1826
 30
0.0
 10
84.6617
 20
-185.112
 30
0.0
 10
84.6617
 20
-185.112
 30
0.0
 10
80.7812
 20
-185.0489
 30
0.0
 10
75.2786
 20
-186.2822
 30
0.0
 10
75.6821
 20
-180.9948
 30
0.0
 10
75.6821
 20
-180.9948
 30
0.0
 10
72.838
 20
-176.3258
 30
0.0
 10
68.894
 20
-175.9938
 30
0.0
 10
65.0826
 20
-172.2977
 30
0.0
 10
65.0826
 20
-172.2977
 30
0.0
 10
61.5724
 20
-168.7382
 30
0.0
 10
59.1157
 20
-161.5105
 30
0.0
 10
56.7383
 20
-156.7755
 30
0.0
  0
SPLINE
  5
6A
330
1F
100
AcDbEntity
  8
layer 1
370
     9
100
AcDbSpline
210
0.0
220
0.0
230
1.0
 70
    11
 71
     3
 72
    92
 73
    88
 74
     0
 42
0.0000000001
 43
0.0000000001
 12
1.0
 22
0.0
 32
0.0
 13
1.0
 23
0.0
 33
0.0
 40
0.0
 40
0.0
 40
0.0
 40
0.0
 40
0.0434782608695652
 40
0.0434782608695652
 40
0.0434782608695652
 40
0.0434782608695652
 40
0.0869565217391304
 40
0.0869565217391304
 40
0.0869565217391304
 40
0.0869565217391304
 40
0.1304347826086956
 40
0.1304347826086956
 40
0.1304347826086956
 40
0.1304347826086956
 40
0.1739130434782609
 40
0.1739130434782609
 40
0.1739130434782609
 40
0.1739130434782609
 40
0.2173913043478261
 40
0.2173913043478261
 40
0.2173913043478261
 40
0.2173913043478261
 40
0.2608695652173913
 40
0.2608695652173913
 40
0.2608695652173913
 40
0.2608695652173913
 40
0.3043478260869565
 40
0.3043478260869565
 40
0.3043478260869565
 40
0.3043478260869565
 40
0.3478260869565217
 40
0.3478260869565217
 40
0.3478260869565217
 40
0.3478260869565217
 40
0.391304347826087
 40
0.391304347826087
 40
0.391304347826087
 40
0.391304347826087
 40
0.4347826086956522
 40
0.4347826086956522
 40
0.4347826086956522
 40
0.4347826086956522
 40
0.4782608695652174
 40
0.4782608695652174
 40
0.4782608695652174
 40
0.4782608695652174
 40
0.5217391304347826
 40
0.5217391304347826
 40
0.5217391304347826
 40
0.5217391304347826
 40
0.5652173913043478
 40
0.5652173913043478
 40
0.5652173913043478
 40
0.5652173913043478
 40
0.6086956521739131
 40
0.6086956521739131
 40
0.6086956521739131
 40
0.6086956521739131
 40
0.6521739130434783
 40
0.6521739130434783
 40
0.6521739130434783
 40
0.6521739130434783
 40
0.6956521739130435
 40
0.6956521739130435
 40
0.6956521739130435
 40
0.6956521739130435
 40
0.7391304347826086
 40
0.7391304347826086
 40
0.7391304347826086
 40
0.7391304347826086
 40
0.782608695652174
 40
0.782608695652174
 40
0.782608695652174
 40
0.782608695652174
 40
0.8260869565217391
 40
0.8260869565217391
 40
0.8260869565217391
 40
0.8260869565217391
 40
0.8695652173913043
 40
0.8695652173913043
 40
0.8695652173913043
 40
0.8695652173913043
 40
0.9130434782608695
 40
0.9130434782608695
 40
0.9130434782608695
 40
0.9130434782608695
 40
1.0
 40
1.0
 40
1.0
 40
1.0
 10
117.5142
 20
-156.7755
 30
0.0
 10
117.5142
 20
-156.7755
 30
0.0
 10
136.2717
 20
-156.7755
 30
0.0
 10
136.2717
 20
-156.7755
 30
0.0
 10
136.2717
 20
-156.7755
 30
0.0
 10
136.2569
 20
-156.8803
 30
0.0
 10
136.2361
 20
-156.9918
 30
0.0
 10
136.2276
 20
-157.0842
 30
0.0
 10
136.2276
 20
-157.0842
 30
0.0
 10
133.7405
 20
-163.5845
 30
0.0
 10
133.6054
 20
-170.5007
 30
0.0
 10
134.7202
 20
-177.1844
 30
0.0
 10
134.7202
 20
-177.1844
 30
0.0
 10
133.4082
 20
-181.7345
 30
0.0
 10
134.5078
 20
-183.697
 30
0.0
 10
132.321
 20
-188.0845
 30
0.0
 10
132.321
 20
-188.0845
 30
0.0
 10
129.1004
 20
-191.6977
 30
0.0
 10
128.1606
 20
-188.5947
 30
0.0
 10
119.8153
 20
-193.8793
 30
0.0
 10
119.8153
 20
-193.8793
 30
0.0
 10
116.6156
 20
-194.7418
 30
0.0
 10
115.3587
 20
-193.3804
 30
0.0
 10
113.6858
 20
-191.2514
 30
0.0
 10
113.6858
 20
-191.2514
 30
0.0
 10
112.9443
 20
-188.8825
 30
0.0
 10
110.4763
 20
-184.1641
 30
0.0
 10
109.2941
 20
-182.6345
 30
0.0
 10
109.2941
 20
-182.6345
 30
0.0
 10
107.7408
 20
-176.7942
 30
0.0
 10
107.2766
 20
-176.6884
 30
0.0
 10
107.9532
 20
-170.7642
 30
0.0
 10
107.9532
 20
-170.7642
 30
0.0
 10
108.6531
 20
-168.383
 30
0.0
 10
111.9494
 20
-165.9904
 30
0.0
 10
112.83
 20
-168.6737
 30
0.0
 10
112.83
 20
-168.6737
 30
0.0
 10
112.0916
 20
-170.6855
 30
0.0
 10
113.4611
 20
-175.6946
 30
0.0
 10
116.4558
 20
-174.8734
 30
0.0
 10
116.4558
 20
-174.8734
 30
0.0
 10
113.9684
 20
-172.9691
 30
0.0
 10
113.4847
 20
-166.2564
 30
0.0
 10
118.5005
 20
-169.1668
 30
0.0
 10
118.5005
 20
-169.1668
 30
0.0
 10
120.922
 20
-169.6699
 30
0.0
 10
120.9576
 20
-167.5035
 30
0.0
 10
120.3004
 20
-170.0407
 30
0.0
 10
120.3004
 20
-170.0407
 30
0.0
 10
120.3212
 20
-172.0483
 30
0.0
 10
121.207
 20
-175.7401
 30
0.0
 10
122.4792
 20
-176.3727
 30
0.0
 10
122.4792
 20
-176.3727
 30
0.0
 10
124.0406
 20
-173.6757
 30
0.0
 10
120.2785
 20
-169.3693
 30
0.0
 10
125.7946
 20
-169.2289
 30
0.0
 10
125.7946
 20
-169.2289
 30
0.0
 10
130.1574
 20
-170.0738
 30
0.0
 10
129.3252
 20
-175.3048
 30
0.0
 10
129.8776
 20
-176.6634
 30
0.0
 10
129.8776
 20
-176.6634
 30
0.0
 10
133.476
 20
-173.6263
 30
0.0
 10
129.9302
 20
-166.0402
 30
0.0
 10
125.2132
 20
-166.521
 30
0.0
 10
125.2132
 20
-166.521
 30
0.0
 10
124.2169
 20
-166.1972
 30
0.0
 10
123.4507
 20
-166.6353
 30
0.0
 10
123.0083
 20
-167.1384
 30
0.0
 10
123.0083
 20
-167.1384
 30
0.0
 10
122.803
 20
-165.2104
 30
0.0
 10
120.0221
 20
-164.913
 30
0.0
 10
118.5545
 20
-166.2483
 30
0.0
 10
118.5545
 20
-166.2483
 30
0.0
 10
117.6726
 20
-165.9576
 30
0.0
 10
116.6432
 20
-165.6338
 30
0.0
 10
115.5739
 20
-165.3565
 30
0.0
 10
115.5739
 20
-165.3565
 30
0.0
 10
115.5739
 20
-165.3565
 30
0.0
 10
112.3354
 20
-165.0093
 30
0.0
 10
113.333
 20
-164.8813
 30
0.0
 10
113.333
 20
-164.8813
 30
0.0
 10
110.8802
 20
-164.4925
 30
0.0
 10
108.5099
 20
-164.6234
 30
0.0
 10
107.2836
 20
-166.1862
 30
0.0
 10
107.2836
 20
-166.1862
 30
0.0
 10
107.7161
 20
-160.9041
 30
0.0
 10
112.1163
 20
-156.7755
 30
0.0
 10
117.5142
 20
-156.7755
 30
0.0
  0
SPLINE
  5
6B
330
1F
100
AcDbEntity
  8
layer 1
370
     9
100
AcDbSpline
210
0.0
220
0.0
230
1.0
 70
    11
 71
     3
 72
   168
 73
   164
 74
     0
 42
0.0000000001
 43
0.0000000001
 12
1.0
 22
0.0
 32
0.0
 13
1.0
 23
0.0
 33
0.0
 40
0.0
 40
0.0
 40
0.0
 40
0.0
 40
0.0238095238095238
 40
0.0238095238095238
 40
0.0238095238095238
 40
0.0238095238095238
 40
0.0476190476190476
 40
0.0476190476190476
 40
0.0476190476190476
 40
0.0476190476190476
 40
0.0714285714285714
 40
0.0714285714285714
 40
0.0714285714285714
 40
0.0714285714285714
 40
0.0952380952380952
 40
0.0952380952380952
 40
0.0952380952380952
 40
0.0952380952380952
 40
0.119047619047619
 40
0.119047619047619
 40
0.119047619047619
 40
0.119047619047619
 40
0.1428571428571428
 40
0.1428571428571428
 40
0.1428571428571428
 40
0.1428571428571428
 40
0.1666666666666667
 40
0.1666666666666667
 40
0.1666666666666667
 40
0.1666666666666667
 40
0.1904761904761905
 40
0.1904761904761905
 40
0.1904761904761905
 40
0.1904761904761905
 40
0.2142857142857143
 40
0.2142857142857143
 40
0.2142857142857143
 40
0.2142857142857143
 40
0.2380952380952381
 40
0.2380952380952381
 40
0.2380952380952381
 40
0.2380952380952381
 40
0.2619047619047619
 40
0.2619047619047619
 40
0.2619047619047619
 40
0.2619047619047619
 40
0.2857142857142857
 40
0.2857142857142857
 40
0.2857142857142857
 40
0.2857142857142857
 40
0.3095238095238095
 40
0.3095238095238095
 40
0.3095238095238095
 40
0.3095238095238095
 40
0.3333333333333333
 40
0.3333333333333333
 40
0.3333333333333333
 40
0.3333333333333333
 40
0.3571428571428572
 40
0.3571428571428572
 40
0.3571428571428572
 40
0.3571428571428572
 40
0.3809523809523809
 40
0.3809523809523809
 40
0.3809523809523809
 40
0.3809523809523809
 40
0.4047619047619048
 40
0.4047619047619048
 40
0.4047619047619048
 40
0.4047619047619048
 40
0.4285714285714285
 40
0.4285714285714285
 40
0.4285714285714285
 40
0.4285714285714285
 40
0.4523809523809524
 40
0.4523809523809524
 40
0.4523809523809524
 40
0.4523809523809524
 40
0.4761904761904762
 40
0.4761904761904762
 40
0.4761904761904762
 40
0.4761904761904762
 40
0.5
 40
0.5
 40
0.5
 40
0.5
 40
0.5238095238095238
 40
0.5238095238095238
 40
0.5238095238095238
 40
0.5238095238095238
 40
0.5476190476190477
 40
0.5476190476190477
 40
0.5476190476190477
 40
0.5476190476190477
 40
0.5714285714285714
 40
0.5714285714285714
 40
0.5714285714285714
 40
0.5714285714285714
 40
0.5952380952380952
 40
0.5952380952380952
 40
0.5952380952380952
 40
0.5952380952380952
 40
0.6190476190476191
 40
0.6190476190476191
 40
0.6190476190476191
 40
0.6190476190476191
 40
0.6428571428571429
 40
0.6428571428571429
 40
0.6428571428571429
 40
0.6428571428571429
 40
0.6666666666666666
 40
0.6666666666666666
 40
0.6666666666666666
 40
0.6666666666666666
 40
0.6904761904761905
 40
0.6904761904761905
 40
0.6904761904761905
 40
0.6904761904761905
 40
0.7142857142857143
 40
0.7142857142857143
 40
0.7142857142857143
 40
0.7142857142857143
 40
0.7380952380952381
 40
0.7380952380952381
 40
0.7380952380952381
 40
0.7380952380952381
 40
0.7619047619047619
 40
0.7619047619047619
 40
0.7619047619047619
 40
0.7619047619047619
 40
0.7857142857142857
 40
0.7857142857142857
 40
0.7857142857142857
 40
0.7857142857142857
 40
0.8095238095238095
 40
0.8095238095238095
 40
0.8095238095238095
 40
0.8095238095238095
 40
0.8333333333333334
 40
0.8333333333333334
 40
0.8333333333333334
 40
0.8333333333333334
 40
0.8571428571428571
 40
0.8571428571428571
 40
0.8571428571428571
 40
0.8571428571428571
 40
0.8809523809523809
 40
0.8809523809523809
 40
0.8809523809523809
 40
0.8809523809523809
 40
0.9047619047619048
 40
0.9047619047619048
 40
0.9047619047619048
 40
0.9047619047619048
 40
0.9285714285714286
 40
0.9285714285714286
 40
0.9285714285714286
 40
0.9285714285714286
 40
0.9523809523809523
 40
0.9523809523809523
 40
0.9523809523809523
 40
0.9523809523809523
 40
1.0
 40
1.0
 40
1.0
 40
1.0
 10
153.6019
 20
-156.7755
 30
0.0
 10
153.6019
 20
-156.7755
 30
0.0
 10
166.9814
 20
-156.7755
 30
0.0
 10
166.9814
 20
-156.7755
 30
0.0
 10
166.9814
 20
-156.7755
 30
0.0
 10
172.6685
 20
-156.7755
 30
0.0
 10
177.2479
 20
-161.3549
 30
0.0
 10
177.2479
 20
-167.0421
 30
0.0
 10
177.2479
 20
-167.0421
 30
0.0
 10
177.2479
 20
-167.0421
 30
0.0
 10
177.2479
 20
-182.7668
 30
0.0
 10
177.2479
 20
-182.7668
 30
0.0
 10
177.2479
 20
-182.7668
 30
0.0
 10
177.2451
 20
-182.7611
 30
0.0
 10
177.2423
 20
-182.7558
 30
0.0
 10
177.238
 20
-182.7488
 30
0.0
 10
177.238
 20
-182.7488
 30
0.0
 10
174.3319
 20
-180.0465
 30
0.0
 10
170.2887
 20
-182.498
 30
0.0
 10
166.6106
 20
-182.7587
 30
0.0
 10
166.6106
 20
-182.7587
 30
0.0
 10
166.6646
 20
-182.5216
 30
0.0
 10
166.6935
 20
-182.2637
 30
0.0
 10
166.6727
 20
-181.9991
 30
0.0
 10
166.6727
 20
-181.9991
 30
0.0
 10
166.6106
 20
-181.2177
 30
0.0
 10
167.0435
 20
-180.3608
 30
0.0
 10
167.2999
 20
-179.4595
 30
0.0
 10
167.2999
 20
-179.4595
 30
0.0
 10
167.5617
 20
-178.5349
 30
0.0
 10
168.1293
 20
-176.8274
 30
0.0
 10
168.4546
 20
-175.4106
 30
0.0
 10
168.4546
 20
-175.4106
 30
0.0
 10
168.3015
 20
-173.2446
 30
0.0
 10
167.7561
 20
-172.714
 30
0.0
 10
166.382
 20
-173.1176
 30
0.0
 10
166.382
 20
-173.1176
 30
0.0
 10
166.309
 20
-173.1356
 30
0.0
 10
166.2098
 20
-173.1412
 30
0.0
 10
166.0994
 20
-173.1356
 30
0.0
 10
166.0994
 20
-173.1356
 30
0.0
 10
166.7101
 20
-172.8146
 30
0.0
 10
167.1151
 20
-172.1323
 30
0.0
 10
167.0615
 20
-171.6363
 30
0.0
 10
167.0615
 20
-171.6363
 30
0.0
 10
167.005
 20
-171.1195
 30
0.0
 10
166.8202
 20
-170.8439
 30
0.0
 10
166.6466
 20
-170.658
 30
0.0
 10
166.6466
 20
-170.658
 30
0.0
 10
166.6162
 20
-170.6235
 30
0.0
 10
166.5831
 20
-170.5836
 30
0.0
 10
166.5503
 20
-170.5518
 30
0.0
 10
166.5503
 20
-170.5518
 30
0.0
 10
166.3488
 20
-170.3726
 30
0.0
 10
166.189
 20
-170.3105
 30
0.0
 10
166.2758
 20
-170.173
 30
0.0
 10
166.2758
 20
-170.173
 30
0.0
 10
166.6466
 20
-169.5898
 30
0.0
 10
166.3944
 20
-168.8515
 30
0.0
 10
167.246
 20
-168.4271
 30
0.0
 10
167.246
 20
-168.4271
 30
0.0
 10
168.033
 20
-168.0341
 30
0.0
 10
165.3307
 20
-168.897
 30
0.0
 10
164.9709
 20
-168.7798
 30
0.0
 10
164.9709
 20
-168.7798
 30
0.0
 10
164.6347
 20
-168.668
 30
0.0
 10
164.0297
 20
-168.5594
 30
0.0
 10
163.648
 20
-168.5594
 30
0.0
 10
163.648
 20
-168.5594
 30
0.0
 10
163.2663
 20
-168.5594
 30
0.0
 10
162.3748
 20
-168.7301
 30
0.0
 10
162.0164
 20
-168.7357
 30
0.0
 10
162.0164
 20
-168.7357
 30
0.0
 10
161.6195
 20
-168.7396
 30
0.0
 10
159.5374
 20
-168.0383
 30
0.0
 10
159.8556
 20
-168.1787
 30
0.0
 10
159.8556
 20
-168.1787
 30
0.0
 10
160.6825
 20
-168.5452
 30
0.0
 10
160.8727
 20
-169.5418
 30
0.0
 10
160.9319
 20
-169.9786
 30
0.0
 10
160.9319
 20
-169.9786
 30
0.0
 10
160.9732
 20
-170.2915
 30
0.0
 10
159.8295
 20
-170.421
 30
0.0
 10
159.8376
 20
-171.558
 30
0.0
 10
159.8376
 20
-171.558
 30
0.0
 10
159.8447
 20
-172.4646
 30
0.0
 10
160.4137
 20
-173.0915
 30
0.0
 10
161.0021
 20
-173.2157
 30
0.0
 10
161.0021
 20
-173.2157
 30
0.0
 10
160.8258
 20
-173.2322
 30
0.0
 10
160.6659
 20
-173.239
 30
0.0
 10
160.5612
 20
-173.2157
 30
0.0
 10
160.5612
 20
-173.2157
 30
0.0
 10
159.1885
 20
-172.8117
 30
0.0
 10
158.5877
 20
-173.9061
 30
0.0
 10
158.4364
 20
-176.0721
 30
0.0
 10
158.4364
 20
-176.0721
 30
0.0
 10
158.7613
 20
-177.4889
 30
0.0
 10
159.5854
 20
-179.1963
 30
0.0
 10
159.8475
 20
-180.1209
 30
0.0
 10
159.8475
 20
-180.1209
 30
0.0
 10
160.1022
 20
-181.0223
 30
0.0
 10
160.3326
 20
-181.6421
 30
0.0
 10
160.4811
 20
-182.2817
 30
0.0
 10
160.4811
 20
-182.2817
 30
0.0
 10
160.5266
 20
-182.4747
 30
0.0
 10
160.5986
 20
-182.6606
 30
0.0
 10
160.6853
 20
-182.837
 30
0.0
 10
160.6853
 20
-182.837
 30
0.0
 10
156.0604
 20
-182.3575
 30
0.0
 10
151.4853
 20
-186.7175
 30
0.0
 10
154.4137
 20
-190.0248
 30
0.0
 10
154.4137
 20
-190.0248
 30
0.0
 10
157.0126
 20
-192.0452
 30
0.0
 10
153.4008
 20
-186.3662
 30
0.0
 10
156.8309
 20
-186.3027
 30
0.0
 10
156.8309
 20
-186.3027
 30
0.0
 10
158.9874
 20
-183.5619
 30
0.0
 10
164.4184
 20
-186.3468
 30
0.0
 10
161.7599
 20
-189.0907
 30
0.0
 10
161.7599
 20
-189.0907
 30
0.0
 10
163.3668
 20
-193.2122
 30
0.0
 10
164.5835
 20
-185.3851
 30
0.0
 10
164.538
 20
-184.6989
 30
0.0
 10
164.538
 20
-184.6989
 30
0.0
 10
166.2744
 20
-185.093
 30
0.0
 10
170.403
 20
-183.4501
 30
0.0
 10
170.0781
 20
-186.6995
 30
0.0
 10
170.0781
 20
-186.6995
 30
0.0
 10
169.2787
 20
-187.9015
 30
0.0
 10
167.2061
 20
-190.9784
 30
0.0
 10
170.4651
 20
-188.8882
 30
0.0
 10
170.4651
 20
-188.8882
 30
0.0
 10
172.7429
 20
-187.065
 30
0.0
 10
171.2052
 20
-181.0456
 30
0.0
 10
175.4138
 20
-184.9455
 30
0.0
 10
175.4138
 20
-184.9455
 30
0.0
 10
178.4675
 20
-188.0295
 30
0.0
 10
175.6315
 20
-189.2808
 30
0.0
 10
175.3778
 20
-193.0054
 30
0.0
 10
175.3778
 20
-193.0054
 30
0.0
 10
174.3375
 20
-195.6266
 30
0.0
 10
173.7395
 20
-199.4327
 30
0.0
 10
169.9179
 20
-198.7219
 30
0.0
 10
169.9179
 20
-198.7219
 30
0.0
 10
167.9212
 20
-202.1766
 30
0.0
 10
159.3776
 20
-199.8352
 30
0.0
 10
155.6223
 20
-197.6896
 30
0.0
 10
155.6223
 20
-197.6896
 30
0.0
 10
152.8664
 20
-196.0482
 30
0.0
 10
147.9148
 20
-197.032
 30
0.0
 10
149.8276
 20
-193.4122
 30
0.0
 10
149.8276
 20
-193.4122
 30
0.0
 10
148.5406
 20
-188.516
 30
0.0
 10
150.6033
 20
-183.7108
 30
0.0
 10
151.2485
 20
-179.0005
 30
0.0
 10
151.2485
 20
-179.0005
 30
0.0
 10
152.7835
 20
-174.9118
 30
0.0
 10
152.6113
 20
-170.8245
 30
0.0
 10
152.351
 20
-166.6632
 30
0.0
 10
152.351
 20
-166.6632
 30
0.0
 10
152.975
 20
-163.4741
 30
0.0
 10
154.425
 20
-159.9879
 30
0.0
 10
153.6019
 20
-156.7755
 30
0.0
  0
SPLINE
  5
6C
330
1F
100
AcDbEntity
  8
layer 1
370
     9
100
AcDbSpline
210
0.0
220
0.0
230
1.0
 70
    11
 71
     3
 72
    16
 73
    12
 74
     0
 42
0.0000000001
 43
0.0000000001
 12
1.0
 22
0.0
 32
0.0
 13
1.0
 23
0.0
 33
0.0
 40
0.0
 40
0.0
 40
0.0
 40
0.0
 40
0.25
 40
0.25
 40
0.25
 40
0.25
 40
0.5
 40
0.5
 40
0.5
 40
0.5
 40
1.0
 40
1.0
 40
1.0
 40
1.0
 10
-1.3998
 20
-164.7229
 30
0.0
 10
-0.9437
 20
-164.9667
 30
0.0
 10
-0.5165
 20
-165.0658
 30
0.0
 10
-0.1471
 20
-165.0658
 30
0.0
 10
-0.1471
 20
-165.0658
 30
0.0
 10
-0.103
 20
-165.3071
 30
0.0
 10
-0.067
 20
-165.5523
 30
0.0
 10
-0.0409
 20
-165.7975
 30
0.0
 10
-0.0409
 20
-165.7975
 30
0.0
 10
-1.1903
 20
-165.7054
 30
0.0
 10
-2.2387
 20
-166.3929
 30
0.0
 10
-1.3998
 20
-164.7229
 30
0.0
  0
SPLINE
  5
6D
330
1F
100
AcDbEntity
  8
layer 1
370
     9
100
AcDbSpline
210
0.0
220
0.0
230
1.0
 70
    11
 71
     3
 72
    20
 73
    16
 74
     0
 42
0.0000000001
 43
0.0000000001
 12
1.0
 22
0.0
 32
0.0
 13
1.0
 23
0.0
 33
0.0
 40
0.0
 40
0.0
 40
0.0
 40
0.0
 40
0.2
 40
0.2
 40
0.2
 40
0.2
 40
0.4
 40
0.4
 40
0.4
 40
0.4
 40
0.6
 40
0.6
 40
0.6
 40
0.6
 40
1.0
 40
1.0
 40
1.0
 40
1.0
 10
-36.1565
 20
-166.1241
 30
0.0
 10
-33.3234
 20
-166.1792
 30
0.0
 10
-34.2865
 20
-171.486
 30
0.0
 10
-37.4615
 20
-169.7401
 30
0.0
 10
-37.4615
 20
-169.7401
 30
0.0
 10
-35.5074
 20
-166.8861
 30
0.0
 10
-41.8973
 20
-169.0155
 30
0.0
 10
-39.1813
 20
-167.1923
 30
0.0
 10
-39.1813
 20
-167.1923
 30
0.0
 10
-38.4027
 20
-166.5817
 30
0.0
 10
-37.4463
 20
-166.1298
 30
0.0
 10
-36.4391
 20
-166.134
 30
0.0
 10
-36.4391
 20
-166.134
 30
0.0
 10
-36.3396
 20
-166.1241
 30
0.0
 10
-36.2476
 20
-166.1227
 30
0.0
 10
-36.1565
 20
-166.1241
 30
0.0
  0
SPLINE
  5
6E
330
1F
100
AcDbEntity
  8
layer 1
370
     9
100
AcDbSpline
210
0.0
220
0.0
230
1.0
 70
    11
 71
     3
 72
    16
 73
    12
 74
     0
 42
0.0000000001
 43
0.0000000001
 12
1.0
 22
0.0
 32
0.0
 13
1.0
 23
0.0
 33
0.0
 40
0.0
 40
0.0
 40
0.0
 40
0.0
 40
0.25
 40
0.25
 40
0.25
 40
0.25
 40
0.5
 40
0.5
 40
0.5
 40
0.5
 40
1.0
 40
1.0
 40
1.0
 40
1.0
 10
-0.49
 20
-167.0322
 30
0.0
 10
-0.3552
 20
-167.1564
 30
0.0
 10
-0.1774
 20
-167.2805
 30
0.0
 10
0.0212
 20
-167.385
 30
0.0
 10
0.0212
 20
-167.385
 30
0.0
 10
0.0212
 20
-167.385
 30
0.0
 10
0.0212
 20
-168.6475
 30
0.0
 10
0.0212
 20
-168.6475
 30
0.0
 10
0.0212
 20
-168.6475
 30
0.0
 10
-1.4587
 20
-168.1872
 30
0.0
 10
-2.8384
 20
-168.2517
 30
0.0
 10
-0.49
 20
-167.0322
 30
0.0
  0
SPLINE
  5
6F
330
1F
100
AcDbEntity
  8
layer 1
370
     9
100
AcDbSpline
210
0.0
220
0.0
230
1.0
 70
    11
 71
     3
 72
    64
 73
    60
 74
     0
 42
0.0000000001
 43
0.0000000001
 12
1.0
 22
0.0
 32
0.0
 13
1.0
 23
0.0
 33
0.0
 40
0.0
 40
0.0
 40
0.0
 40
0.0
 40
0.0625
 40
0.0625
 40
0.0625
 40
0.0625
 40
0.125
 40
0.125
 40
0.125
 40
0.125
 40
0.1875
 40
0.1875
 40
0.1875
 40
0.1875
 40
0.25
 40
0.25
 40
0.25
 40
0.25
 40
0.3125
 40
0.3125
 40
0.3125
 40
0.3125
 40
0.375
 40
0.375
 40
0.375
 40
0.375
 40
0.4375
 40
0.4375
 40
0.4375
 40
0.4375
 40
0.5
 40
0.5
 40
0.5
 40
0.5
 40
0.5625
 40
0.5625
 40
0.5625
 40
0.5625
 40
0.625
 40
0.625
 40
0.625
 40
0.625
 40
0.6875
 40
0.6875
 40
0.6875
 40
0.6875
 40
0.75
 40
0.75
 40
0.75
 40
0.75
 40
0.8125
 40
0.8125
 40
0.8125
 40
0.8125
 40
0.875
 40
0.875
 40
0.875
 40
0.875
 40
1.0
 40
1.0
 40
1.0
 40
1.0
 10
138.7771
 20
-168.9284
 30
0.0
 10
139.5391
 20
-168.9672
 30
0.0
 10
139.797
 20
-171.7065
 30
0.0
 10
140.3646
 20
-171.7065
 30
0.0
 10
140.3646
 20
-171.7065
 30
0.0
 10
141.1087
 20
-171.7065
 30
0.0
 10
140.7298
 20
-170.2033
 30
0.0
 10
141.441
 20
-170.7804
 30
0.0
 10
141.441
 20
-170.7804
 30
0.0
 10
141.6353
 20
-170.9392
 30
0.0
 10
141.3429
 20
-172.0497
 30
0.0
 10
142.2689
 20
-171.5301
 30
0.0
 10
142.2689
 20
-171.5301
 30
0.0
 10
143.0147
 20
-171.1142
 30
0.0
 10
142.7279
 20
-171.9809
 30
0.0
 10
142.9043
 20
-172.9511
 30
0.0
 10
142.9043
 20
-172.9511
 30
0.0
 10
143.0091
 20
-173.5272
 30
0.0
 10
143.1414
 20
-174.7203
 30
0.0
 10
143.4335
 20
-174.7231
 30
0.0
 10
143.4335
 20
-174.7231
 30
0.0
 10
143.9626
 20
-174.7301
 30
0.0
 10
143.6748
 20
-175.4191
 30
0.0
 10
143.2049
 20
-175.3584
 30
0.0
 10
143.2049
 20
-175.3584
 30
0.0
 10
142.4841
 20
-175.266
 30
0.0
 10
142.4732
 20
-173.1426
 30
0.0
 10
141.5634
 20
-172.9853
 30
0.0
 10
141.5634
 20
-172.9853
 30
0.0
 10
140.5192
 20
-173.0199
 30
0.0
 10
141.6159
 20
-174.4035
 30
0.0
 10
141.1062
 20
-175.0498
 30
0.0
 10
141.1062
 20
-175.0498
 30
0.0
 10
140.4818
 20
-175.8379
 30
0.0
 10
139.4841
 20
-175.2152
 30
0.0
 10
139.2181
 20
-175.4727
 30
0.0
 10
139.2181
 20
-175.4727
 30
0.0
 10
138.6628
 20
-176.0104
 30
0.0
 10
137.4846
 20
-174.5467
 30
0.0
 10
137.7368
 20
-173.5945
 30
0.0
 10
137.7368
 20
-173.5945
 30
0.0
 10
138.0621
 20
-172.3612
 30
0.0
 10
138.248
 20
-172.8848
 30
0.0
 10
138.8131
 20
-172.4039
 30
0.0
 10
138.8131
 20
-172.4039
 30
0.0
 10
139.4538
 20
-171.4243
 30
0.0
 10
138.7412
 20
-170.046
 30
0.0
 10
138.6187
 20
-168.9643
 30
0.0
 10
138.6187
 20
-168.9643
 30
0.0
 10
138.6463
 20
-168.9534
 30
0.0
 10
138.671
 20
-168.9421
 30
0.0
 10
138.6971
 20
-168.9382
 30
0.0
 10
138.6971
 20
-168.9382
 30
0.0
 10
138.7235
 20
-168.934
 30
0.0
 10
138.7524
 20
-168.9284
 30
0.0
 10
138.7771
 20
-168.9298
 30
0.0
 10
138.7771
 20
-168.9298
 30
0.0
 10
138.7771
 20
-168.9298
 30
0.0
 10
138.7771
 20
-168.9284
 30
0.0
 10
138.7771
 20
-168.9284
 30
0.0
  0
SPLINE
  5
70
330
1F
100
AcDbEntity
  8
layer 1
370
     9
100
AcDbSpline
210
0.0
220
0.0
230
1.0
 70
    11
 71
     3
 72
    52
 73
    48
 74
     0
 42
0.0000000001
 43
0.0000000001
 12
1.0
 22
0.0
 32
0.0
 13
1.0
 23
0.0
 33
0.0
 40
0.0
 40
0.0
 40
0.0
 40
0.0
 40
0.0769230769230769
 40
0.0769230769230769
 40
0.0769230769230769
 40
0.0769230769230769
 40
0.1538461538461539
 40
0.1538461538461539
 40
0.1538461538461539
 40
0.1538461538461539
 40
0.2307692307692308
 40
0.2307692307692308
 40
0.2307692307692308
 40
0.2307692307692308
 40
0.3076923076923077
 40
0.3076923076923077
 40
0.3076923076923077
 40
0.3076923076923077
 40
0.3846153846153846
 40
0.3846153846153846
 40
0.3846153846153846
 40
0.3846153846153846
 40
0.4615384615384616
 40
0.4615384615384616
 40
0.4615384615384616
 40
0.4615384615384616
 40
0.5384615384615384
 40
0.5384615384615384
 40
0.5384615384615384
 40
0.5384615384615384
 40
0.6153846153846154
 40
0.6153846153846154
 40
0.6153846153846154
 40
0.6153846153846154
 40
0.6923076923076923
 40
0.6923076923076923
 40
0.6923076923076923
 40
0.6923076923076923
 40
0.7692307692307693
 40
0.7692307692307693
 40
0.7692307692307693
 40
0.7692307692307693
 40
0.8461538461538461
 40
0.8461538461538461
 40
0.8461538461538461
 40
0.8461538461538461
 40
1.0
 40
1.0
 40
1.0
 40
1.0
 10
150.03
 20
-169.2469
 30
0.0
 10
150.0565
 20
-169.255
 30
0.0
 10
150.5592
 20
-169.2317
 30
0.0
 10
150.471
 20
-169.6078
 30
0.0
 10
150.471
 20
-169.6078
 30
0.0
 10
150.4146
 20
-169.8519
 30
0.0
 10
149.8209
 20
-171.0009
 30
0.0
 10
149.9517
 20
-171.3096
 30
0.0
 10
149.9517
 20
-171.3096
 30
0.0
 10
150.5966
 20
-172.8421
 30
0.0
 10
150.4904
 20
-172.4551
 30
0.0
 10
150.4989
 20
-173.7268
 30
0.0
 10
150.4989
 20
-173.7268
 30
0.0
 10
151.0333
 20
-174.5315
 30
0.0
 10
150.2519
 20
-174.606
 30
0.0
 10
149.8537
 20
-174.5827
 30
0.0
 10
149.8537
 20
-174.5827
 30
0.0
 10
149.4681
 20
-174.0274
 30
0.0
 10
149.9309
 20
-173.633
 30
0.0
 10
149.6692
 20
-173.1014
 30
0.0
 10
149.6692
 20
-173.1014
 30
0.0
 10
149.4734
 20
-172.7031
 30
0.0
 10
149.1523
 20
-172.8544
 30
0.0
 10
148.8574
 20
-172.9151
 30
0.0
 10
148.8574
 20
-172.9151
 30
0.0
 10
147.7165
 20
-173.1536
 30
0.0
 10
149.4928
 20
-175.2138
 30
0.0
 10
146.7506
 20
-175.0057
 30
0.0
 10
146.7506
 20
-175.0057
 30
0.0
 10
145.4027
 20
-176.0682
 30
0.0
 10
144.7193
 20
-175.3239
 30
0.0
 10
145.1794
 20
-175.0759
 30
0.0
 10
145.1794
 20
-175.0759
 30
0.0
 10
146.4723
 20
-174.2617
 30
0.0
 10
145.0845
 20
-171.0824
 30
0.0
 10
146.388
 20
-171.8127
 30
0.0
 10
146.388
 20
-171.8127
 30
0.0
 10
147.3154
 20
-172.3323
 30
0.0
 10
146.7009
 20
-170.8676
 30
0.0
 10
147.2078
 20
-171.063
 30
0.0
 10
147.2078
 20
-171.063
 30
0.0
 10
148.3875
 20
-170.7695
 30
0.0
 10
147.5401
 20
-171.9891
 30
0.0
 10
148.2842
 20
-171.9891
 30
0.0
 10
148.2842
 20
-171.9891
 30
0.0
 10
148.8892
 20
-171.9891
 30
0.0
 10
149.9172
 20
-169.2109
 30
0.0
 10
150.03
 20
-169.2469
 30
0.0
  0
SPLINE
  5
71
330
1F
100
AcDbEntity
  8
layer 1
370
     9
100
AcDbSpline
210
0.0
220
0.0
230
1.0
 70
    11
 71
     3
 72
    96
 73
    92
 74
     0
 42
0.0000000001
 43
0.0000000001
 12
1.0
 22
0.0
 32
0.0
 13
1.0
 23
0.0
 33
0.0
 40
0.0
 40
0.0
 40
0.0
 40
0.0
 40
0.0416666666666667
 40
0.0416666666666667
 40
0.0416666666666667
 40
0.0416666666666667
 40
0.0833333333333333
 40
0.0833333333333333
 40
0.0833333333333333
 40
0.0833333333333333
 40
0.125
 40
0.125
 40
0.125
 40
0.125
 40
0.1666666666666667
 40
0.1666666666666667
 40
0.1666666666666667
 40
0.1666666666666667
 40
0.2083333333333333
 40
0.2083333333333333
 40
0.2083333333333333
 40
0.2083333333333333
 40
0.25
 40
0.25
 40
0.25
 40
0.25
 40
0.2916666666666667
 40
0.2916666666666667
 40
0.2916666666666667
 40
0.2916666666666667
 40
0.3333333333333333
 40
0.3333333333333333
 40
0.3333333333333333
 40
0.3333333333333333
 40
0.375
 40
0.375
 40
0.375
 40
0.375
 40
0.4166666666666667
 40
0.4166666666666667
 40
0.4166666666666667
 40
0.4166666666666667
 40
0.4583333333333333
 40
0.4583333333333333
 40
0.4583333333333333
 40
0.4583333333333333
 40
0.5
 40
0.5
 40
0.5
 40
0.5
 40
0.5416666666666666
 40
0.5416666666666666
 40
0.5416666666666666
 40
0.5416666666666666
 40
0.5833333333333334
 40
0.5833333333333334
 40
0.5833333333333334
 40
0.5833333333333334
 40
0.625
 40
0.625
 40
0.625
 40
0.625
 40
0.6666666666666666
 40
0.6666666666666666
 40
0.6666666666666666
 40
0.6666666666666666
 40
0.7083333333333334
 40
0.7083333333333334
 40
0.7083333333333334
 40
0.7083333333333334
 40
0.75
 40
0.75
 40
0.75
 40
0.75
 40
0.7916666666666666
 40
0.7916666666666666
 40
0.7916666666666666
 40
0.7916666666666666
 40
0.8333333333333334
 40
0.8333333333333334
 40
0.8333333333333334
 40
0.8333333333333334
 40
0.875
 40
0.875
 40
0.875
 40
0.875
 40
0.9166666666666666
 40
0.9166666666666666
 40
0.9166666666666666
 40
0.9166666666666666
 40
1.0
 40
1.0
 40
1.0
 40
1.0
 10
-2.1054
 20
-169.8985
 30
0.0
 10
-1.5018
 20
-169.871
 30
0.0
 10
-0.708
 20
-170.4622
 30
0.0
 10
0.0212
 20
-170.9748
 30
0.0
 10
0.0212
 20
-170.9748
 30
0.0
 10
0.0212
 20
-170.9748
 30
0.0
 10
0.0212
 20
-231.8389
 30
0.0
 10
0.0212
 20
-231.8389
 30
0.0
 10
0.0212
 20
-231.8389
 30
0.0
 10
0.0212
 20
-236.83
 30
0.0
 10
-3.508
 20
-240.9642
 30
0.0
 10
-8.2169
 20
-241.9011
 30
0.0
 10
-8.2169
 20
-241.9011
 30
0.0
 10
-8.1439
 20
-241.8447
 30
0.0
 10
-8.068
 20
-241.7868
 30
0.0
 10
-7.9964
 20
-241.7248
 30
0.0
 10
-7.9964
 20
-241.7248
 30
0.0
 10
-5.1287
 20
-239.2648
 30
0.0
 10
-3.103
 20
-235.627
 30
0.0
 10
-2.9333
 20
-231.7066
 30
0.0
 10
-2.9333
 20
-231.7066
 30
0.0
 10
-2.7654
 20
-227.7858
 30
0.0
 10
-2.5449
 20
-222.8744
 30
0.0
 10
-5.1922
 20
-220.1972
 30
0.0
 10
-5.1922
 20
-220.1972
 30
0.0
 10
-7.838
 20
-217.5182
 30
0.0
 10
-14.1079
 20
-214.9659
 30
0.0
 10
-18.3152
 20
-214.7993
 30
0.0
 10
-18.3152
 20
-214.7993
 30
0.0
 10
-22.5224
 20
-214.6325
 30
0.0
 10
-28.8431
 20
-216.7135
 30
0.0
 10
-31.7108
 20
-219.1731
 30
0.0
 10
-31.7108
 20
-219.1731
 30
0.0
 10
-34.5786
 20
-221.6344
 30
0.0
 10
-34.8322
 20
-224.5131
 30
0.0
 10
-35.0019
 20
-228.4335
 30
0.0
 10
-35.0019
 20
-228.4335
 30
0.0
 10
-35.1698
 20
-232.3416
 30
0.0
 10
-32.4178
 20
-239.4056
 30
0.0
 10
-29.7804
 20
-242.1036
 30
0.0
 10
-29.7804
 20
-242.1036
 30
0.0
 10
-29.7804
 20
-242.1036
 30
0.0
 10
-34.8075
 20
-242.1036
 30
0.0
 10
-34.8075
 20
-242.1036
 30
0.0
 10
-34.8075
 20
-242.1036
 30
0.0
 10
-34.6918
 20
-241.7276
 30
0.0
 10
-34.6174
 20
-241.3445
 30
0.0
 10
-34.5772
 20
-240.949
 30
0.0
 10
-34.5772
 20
-240.949
 30
0.0
 10
-34.6752
 20
-235.8337
 30
0.0
 10
-42.2804
 20
-238.0453
 30
0.0
 10
-41.1836
 20
-234.1922
 30
0.0
 10
-41.1836
 20
-234.1922
 30
0.0
 10
-40.5843
 20
-229.3832
 30
0.0
 10
-34.0617
 20
-225.3149
 30
0.0
 10
-36.9323
 20
-220.3115
 30
0.0
 10
-36.9323
 20
-220.3115
 30
0.0
 10
-39.6169
 20
-217.1503
 30
0.0
 10
-22.2024
 20
-206.925
 30
0.0
 10
-24.0919
 20
-202.8832
 30
0.0
 10
-24.0919
 20
-202.8832
 30
0.0
 10
-25.7937
 20
-199.3251
 30
0.0
 10
-26.2982
 20
-194.407
 30
0.0
 10
-23.9596
 20
-191.093
 30
0.0
 10
-23.9596
 20
-191.093
 30
0.0
 10
-21.5935
 20
-188.8906
 30
0.0
 10
-18.8235
 20
-191.5435
 30
0.0
 10
-16.8338
 20
-188.3752
 30
0.0
 10
-16.8338
 20
-188.3752
 30
0.0
 10
-13.7855
 20
-185.3382
 30
0.0
 10
-12.8277
 20
-189.5165
 30
0.0
 10
-12.2738
 20
-190.9329
 30
0.0
 10
-12.2738
 20
-190.9329
 30
0.0
 10
-9.869
 20
-188.6398
 30
0.0
 10
-9.0297
 20
-191.1301
 30
0.0
 10
-8.1908
 20
-192.7589
 30
0.0
 10
-8.1908
 20
-192.7589
 30
0.0
 10
-3.544
 20
-191.9224
 30
0.0
 10
-4.2397
 20
-185.5146
 30
0.0
 10
-5.8617
 20
-182.2898
 30
0.0
 10
-5.8617
 20
-182.2898
 30
0.0
 10
-6.2544
 20
-179.1783
 30
0.0
 10
-6.7063
 20
-173.9819
 30
0.0
 10
-3.719
 20
-172.3859
 30
0.0
 10
-3.719
 20
-172.3859
 30
0.0
 10
-1.7028
 20
-175.0649
 30
0.0
 10
-1.9798
 20
-172.3817
 30
0.0
 10
-2.9153
 20
-170.7282
 30
0.0
 10
-2.9153
 20
-170.7282
 30
0.0
 10
-2.7474
 20
-170.1479
 30
0.0
 10
-2.4581
 20
-169.9151
 30
0.0
 10
-2.1054
 20
-169.8985
 30
0.0
  0
SPLINE
  5
72
330
1F
100
AcDbEntity
  8
layer 1
370
     9
100
AcDbSpline
210
0.0
220
0.0
230
1.0
 70
    11
 71
     3
 72
    24
 73
    20
 74
     0
 42
0.0000000001
 43
0.0000000001
 12
1.0
 22
0.0
 32
0.0
 13
1.0
 23
0.0
 33
0.0
 40
0.0
 40
0.0
 40
0.0
 40
0.0
 40
0.1666666666666667
 40
0.1666666666666667
 40
0.1666666666666667
 40
0.1666666666666667
 40
0.3333333333333333
 40
0.3333333333333333
 40
0.3333333333333333
 40
0.3333333333333333
 40
0.5
 40
0.5
 40
0.5
 40
0.5
 40
0.6666666666666666
 40
0.6666666666666666
 40
0.6666666666666666
 40
0.6666666666666666
 40
1.0
 40
1.0
 40
1.0
 40
1.0
 10
165.033
 20
-170.4996
 30
0.0
 10
165.3004
 20
-170.4883
 30
0.0
 10
165.565
 20
-170.5988
 30
0.0
 10
165.7646
 20
-170.8164
 30
0.0
 10
165.7646
 20
-170.8164
 30
0.0
 10
166.1629
 20
-171.2503
 30
0.0
 10
166.1919
 20
-171.9601
 30
0.0
 10
165.7124
 20
-172.2977
 30
0.0
 10
165.7124
 20
-172.2977
 30
0.0
 10
165.2161
 20
-172.5267
 30
0.0
 10
164.7546
 20
-172.587
 30
0.0
 10
164.2473
 20
-172.2356
 30
0.0
 10
164.2473
 20
-172.2356
 30
0.0
 10
163.8381
 20
-171.8155
 30
0.0
 10
163.8656
 20
-171.3347
 30
0.0
 10
164.2833
 20
-170.8686
 30
0.0
 10
164.2833
 20
-170.8686
 30
0.0
 10
164.4915
 20
-170.6372
 30
0.0
 10
164.7656
 20
-170.5092
 30
0.0
 10
165.033
 20
-170.4996
 30
0.0
  0
SPLINE
  5
73
330
1F
100
AcDbEntity
  8
layer 1
370
     9
100
AcDbSpline
210
0.0
220
0.0
230
1.0
 70
    11
 71
     3
 72
    24
 73
    20
 74
     0
 42
0.0000000001
 43
0.0000000001
 12
1.0
 22
0.0
 32
0.0
 13
1.0
 23
0.0
 33
0.0
 40
0.0
 40
0.0
 40
0.0
 40
0.0
 40
0.1666666666666667
 40
0.1666666666666667
 40
0.1666666666666667
 40
0.1666666666666667
 40
0.3333333333333333
 40
0.3333333333333333
 40
0.3333333333333333
 40
0.3333333333333333
 40
0.5
 40
0.5
 40
0.5
 40
0.5
 40
0.6666666666666666
 40
0.6666666666666666
 40
0.6666666666666666
 40
0.6666666666666666
 40
1.0
 40
1.0
 40
1.0
 40
1.0
 10
161.9642
 20
-170.658
 30
0.0
 10
162.2203
 20
-170.6481
 30
0.0
 10
162.4768
 20
-170.7476
 30
0.0
 10
162.6697
 20
-170.9568
 30
0.0
 10
162.6697
 20
-170.9568
 30
0.0
 10
163.0528
 20
-171.3773
 30
0.0
 10
163.0789
 20
-172.0691
 30
0.0
 10
162.6157
 20
-172.3958
 30
0.0
 10
162.6157
 20
-172.3958
 30
0.0
 10
162.1391
 20
-172.6149
 30
0.0
 10
161.7021
 20
-172.6643
 30
0.0
 10
161.2145
 20
-172.3238
 30
0.0
 10
161.2145
 20
-172.3238
 30
0.0
 10
160.8191
 20
-171.9189
 30
0.0
 10
160.8381
 20
-171.4599
 30
0.0
 10
161.2406
 20
-171.0108
 30
0.0
 10
161.2406
 20
-171.0108
 30
0.0
 10
161.4403
 20
-170.7861
 30
0.0
 10
161.7063
 20
-170.6676
 30
0.0
 10
161.9642
 20
-170.658
 30
0.0
  0
SPLINE
  5
74
330
1F
100
AcDbEntity
  8
layer 1
370
     9
100
AcDbSpline
210
0.0
220
0.0
230
1.0
 70
    11
 71
     3
 72
    24
 73
    20
 74
     0
 42
0.0000000001
 43
0.0000000001
 12
1.0
 22
0.0
 32
0.0
 13
1.0
 23
0.0
 33
0.0
 40
0.0
 40
0.0
 40
0.0
 40
0.0
 40
0.1666666666666667
 40
0.1666666666666667
 40
0.1666666666666667
 40
0.1666666666666667
 40
0.3333333333333333
 40
0.3333333333333333
 40
0.3333333333333333
 40
0.3333333333333333
 40
0.5
 40
0.5
 40
0.5
 40
0.5
 40
0.6666666666666666
 40
0.6666666666666666
 40
0.6666666666666666
 40
0.6666666666666666
 40
1.0
 40
1.0
 40
1.0
 40
1.0
 10
-117.7283
 20
-176.9459
 30
0.0
 10
-114.8796
 20
-176.9597
 30
0.0
 10
-112.588
 20
-178.7814
 30
0.0
 10
-111.1299
 20
-181.1613
 30
0.0
 10
-111.1299
 20
-181.1613
 30
0.0
 10
-110.164
 20
-182.7407
 30
0.0
 10
-115.3552
 20
-183.3633
 30
0.0
 10
-115.2049
 20
-185.0679
 30
0.0
 10
-115.2049
 20
-185.0679
 30
0.0
 10
-105.0308
 20
-185.5696
 30
0.0
 10
-114.5434
 20
-194.8565
 30
0.0
 10
-118.522
 20
-192.0272
 30
0.0
 10
-118.522
 20
-192.0272
 30
0.0
 10
-120.819
 20
-191.2264
 30
0.0
 10
-122.1528
 20
-189.4046
 30
0.0
 10
-122.9318
 20
-187.2125
 30
0.0
 10
-122.9318
 20
-187.2125
 30
0.0
 10
-125.1793
 20
-182.8066
 30
0.0
 10
-123.3671
 20
-176.881
 30
0.0
 10
-117.7283
 20
-176.9459
 30
0.0
  0
SPLINE
  5
75
330
1F
100
AcDbEntity
  8
layer 1
370
     9
100
AcDbSpline
210
0.0
220
0.0
230
1.0
 70
    11
 71
     3
 72
    28
 73
    24
 74
     0
 42
0.0000000001
 43
0.0000000001
 12
1.0
 22
0.0
 32
0.0
 13
1.0
 23
0.0
 33
0.0
 40
0.0
 40
0.0
 40
0.0
 40
0.0
 40
0.1428571428571428
 40
0.1428571428571428
 40
0.1428571428571428
 40
0.1428571428571428
 40
0.2857142857142857
 40
0.2857142857142857
 40
0.2857142857142857
 40
0.2857142857142857
 40
0.4285714285714285
 40
0.4285714285714285
 40
0.4285714285714285
 40
0.4285714285714285
 40
0.5714285714285714
 40
0.5714285714285714
 40
0.5714285714285714
 40
0.5714285714285714
 40
0.7142857142857143
 40
0.7142857142857143
 40
0.7142857142857143
 40
0.7142857142857143
 40
1.0
 40
1.0
 40
1.0
 40
1.0
 10
-134.0002
 20
-177.3509
 30
0.0
 10
-133.8802
 20
-177.3456
 30
0.0
 10
-133.7532
 20
-177.3495
 30
0.0
 10
-133.6294
 20
-177.3509
 30
0.0
 10
-133.6294
 20
-177.3509
 30
0.0
 10
-129.4843
 20
-177.3111
 30
0.0
 10
-124.6706
 20
-180.3277
 30
0.0
 10
-125.277
 20
-185.0076
 30
0.0
 10
-125.277
 20
-185.0076
 30
0.0
 10
-125.1571
 20
-187.5155
 30
0.0
 10
-126.4634
 20
-189.5203
 30
0.0
 10
-128.3458
 20
-190.995
 30
0.0
 10
-128.3458
 20
-190.995
 30
0.0
 10
-130.0258
 20
-193.2069
 30
0.0
 10
-133.7313
 20
-194.0239
 30
0.0
 10
-135.9224
 20
-192.1856
 30
0.0
 10
-135.9224
 20
-192.1856
 30
0.0
 10
-142.7173
 20
-186.544
 30
0.0
 10
-120.5752
 20
-185.1067
 30
0.0
 10
-139.2558
 20
-184.7773
 30
0.0
 10
-139.2558
 20
-184.7773
 30
0.0
 10
-139.3359
 20
-181.4908
 30
0.0
 10
-137.6987
 20
-177.5248
 30
0.0
 10
-134.0002
 20
-177.3509
 30
0.0
  0
SPLINE
  5
76
330
1F
100
AcDbEntity
  8
layer 1
370
     9
100
AcDbSpline
210
0.0
220
0.0
230
1.0
 70
    11
 71
     3
 72
    52
 73
    48
 74
     0
 42
0.0000000001
 43
0.0000000001
 12
1.0
 22
0.0
 32
0.0
 13
1.0
 23
0.0
 33
0.0
 40
0.0
 40
0.0
 40
0.0
 40
0.0
 40
0.0769230769230769
 40
0.0769230769230769
 40
0.0769230769230769
 40
0.0769230769230769
 40
0.1538461538461539
 40
0.1538461538461539
 40
0.1538461538461539
 40
0.1538461538461539
 40
0.2307692307692308
 40
0.2307692307692308
 40
0.2307692307692308
 40
0.2307692307692308
 40
0.3076923076923077
 40
0.3076923076923077
 40
0.3076923076923077
 40
0.3076923076923077
 40
0.3846153846153846
 40
0.3846153846153846
 40
0.3846153846153846
 40
0.3846153846153846
 40
0.4615384615384616
 40
0.4615384615384616
 40
0.4615384615384616
 40
0.4615384615384616
 40
0.5384615384615384
 40
0.5384615384615384
 40
0.5384615384615384
 40
0.5384615384615384
 40
0.6153846153846154
 40
0.6153846153846154
 40
0.6153846153846154
 40
0.6153846153846154
 40
0.6923076923076923
 40
0.6923076923076923
 40
0.6923076923076923
 40
0.6923076923076923
 40
0.7692307692307693
 40
0.7692307692307693
 40
0.7692307692307693
 40
0.7692307692307693
 40
0.8461538461538461
 40
0.8461538461538461
 40
0.8461538461538461
 40
0.8461538461538461
 40
1.0
 40
1.0
 40
1.0
 40
1.0
 10
140.6211
 20
-177.7397
 30
0.0
 10
140.8331
 20
-177.7355
 30
0.0
 10
141.0399
 20
-177.7796
 30
0.0
 10
141.2385
 20
-177.89
 30
0.0
 10
141.2385
 20
-177.89
 30
0.0
 10
141.8668
 20
-179.0972
 30
0.0
 10
140.0697
 20
-182.7611
 30
0.0
 10
142.1285
 20
-183.2518
 30
0.0
 10
142.1285
 20
-183.2518
 30
0.0
 10
143.0161
 20
-183.4642
 30
0.0
 10
143.9446
 20
-178.7469
 30
0.0
 10
144.3253
 20
-179.9086
 30
0.0
 10
144.3253
 20
-179.9086
 30
0.0
 10
144.8985
 20
-181.6629
 30
0.0
 10
145.5985
 20
-179.8027
 30
0.0
 10
146.4419
 20
-179.4514
 30
0.0
 10
146.4419
 20
-179.4514
 30
0.0
 10
149.5658
 20
-178.1447
 30
0.0
 10
147.0508
 20
-189.2875
 30
0.0
 10
144.8005
 20
-188.1286
 30
0.0
 10
144.8005
 20
-188.1286
 30
0.0
 10
143.9587
 20
-187.6961
 30
0.0
 10
144.616
 20
-190.638
 30
0.0
 10
143.9806
 20
-190.7565
 30
0.0
 10
143.9806
 20
-190.7565
 30
0.0
 10
142.5007
 20
-191.0348
 30
0.0
 10
143.2983
 20
-187.6697
 30
0.0
 10
142.331
 20
-187.6697
 30
0.0
 10
142.331
 20
-187.6697
 30
0.0
 10
141.3651
 20
-187.6697
 30
0.0
 10
141.551
 20
-194.3562
 30
0.0
 10
140.1703
 20
-193.3321
 30
0.0
 10
140.1703
 20
-193.3321
 30
0.0
 10
139.6647
 20
-192.9575
 30
0.0
 10
141.3115
 20
-187.3638
 30
0.0
 10
138.9094
 20
-188.4112
 30
0.0
 10
138.9094
 20
-188.4112
 30
0.0
 10
137.2447
 20
-189.1362
 30
0.0
 10
137.2792
 20
-187.131
 30
0.0
 10
139.2442
 20
-183.3922
 30
0.0
 10
139.2442
 20
-183.3922
 30
0.0
 10
138.9687
 20
-181.3253
 30
0.0
 10
138.8117
 20
-178.3916
 30
0.0
 10
139.5187
 20
-178.0925
 30
0.0
 10
139.5187
 20
-178.0925
 30
0.0
 10
139.9004
 20
-177.89
 30
0.0
 10
140.2669
 20
-177.7478
 30
0.0
 10
140.6211
 20
-177.7397
 30
0.0
  0
SPLINE
  5
77
330
1F
100
AcDbEntity
  8
layer 1
370
     9
100
AcDbSpline
210
0.0
220
0.0
230
1.0
 70
    11
 71
     3
 72
    24
 73
    20
 74
     0
 42
0.0000000001
 43
0.0000000001
 12
1.0
 22
0.0
 32
0.0
 13
1.0
 23
0.0
 33
0.0
 40
0.0
 40
0.0
 40
0.0
 40
0.0
 40
0.1666666666666667
 40
0.1666666666666667
 40
0.1666666666666667
 40
0.1666666666666667
 40
0.3333333333333333
 40
0.3333333333333333
 40
0.3333333333333333
 40
0.3333333333333333
 40
0.5
 40
0.5
 40
0.5
 40
0.5
 40
0.6666666666666666
 40
0.6666666666666666
 40
0.6666666666666666
 40
0.6666666666666666
 40
1.0
 40
1.0
 40
1.0
 40
1.0
 10
66.2192
 20
-178.4893
 30
0.0
 10
69.9386
 20
-179.4111
 30
0.0
 10
74.5056
 20
-185.9749
 30
0.0
 10
69.2178
 20
-186.1541
 30
0.0
 10
69.2178
 20
-186.1541
 30
0.0
 10
57.6919
 20
-189.5398
 30
0.0
 10
46.0255
 20
-193.5939
 30
0.0
 10
34.399
 20
-189.0988
 30
0.0
 10
34.399
 20
-189.0988
 30
0.0
 10
30.5682
 20
-187.5815
 30
0.0
 10
35.1885
 20
-183.4956
 30
0.0
 10
34.4431
 20
-180.9228
 30
0.0
 10
34.4431
 20
-180.9228
 30
0.0
 10
38.8998
 20
-182.9763
 30
0.0
 10
42.0705
 20
-183.6597
 30
0.0
 10
47.2493
 20
-182.5724
 30
0.0
 10
47.2493
 20
-182.5724
 30
0.0
 10
54.9208
 20
-182.2761
 30
0.0
 10
58.8896
 20
-180.3883
 30
0.0
 10
66.2192
 20
-178.4893
 30
0.0
  0
SPLINE
  5
78
330
1F
100
AcDbEntity
  8
layer 1
370
     9
100
AcDbSpline
210
0.0
220
0.0
230
1.0
 70
    11
 71
     3
 72
    52
 73
    48
 74
     0
 42
0.0000000001
 43
0.0000000001
 12
1.0
 22
0.0
 32
0.0
 13
1.0
 23
0.0
 33
0.0
 40
0.0
 40
0.0
 40
0.0
 40
0.0
 40
0.0769230769230769
 40
0.0769230769230769
 40
0.0769230769230769
 40
0.0769230769230769
 40
0.1538461538461539
 40
0.1538461538461539
 40
0.1538461538461539
 40
0.1538461538461539
 40
0.2307692307692308
 40
0.2307692307692308
 40
0.2307692307692308
 40
0.2307692307692308
 40
0.3076923076923077
 40
0.3076923076923077
 40
0.3076923076923077
 40
0.3076923076923077
 40
0.3846153846153846
 40
0.3846153846153846
 40
0.3846153846153846
 40
0.3846153846153846
 40
0.4615384615384616
 40
0.4615384615384616
 40
0.4615384615384616
 40
0.4615384615384616
 40
0.5384615384615384
 40
0.5384615384615384
 40
0.5384615384615384
 40
0.5384615384615384
 40
0.6153846153846154
 40
0.6153846153846154
 40
0.6153846153846154
 40
0.6153846153846154
 40
0.6923076923076923
 40
0.6923076923076923
 40
0.6923076923076923
 40
0.6923076923076923
 40
0.7692307692307693
 40
0.7692307692307693
 40
0.7692307692307693
 40
0.7692307692307693
 40
0.8461538461538461
 40
0.8461538461538461
 40
0.8461538461538461
 40
0.8461538461538461
 40
1.0
 40
1.0
 40
1.0
 40
1.0
 10
-46.0424
 20
-188.1826
 30
0.0
 10
-45.9902
 20
-188.1784
 30
0.0
 10
-45.9419
 20
-188.1784
 30
0.0
 10
-45.8939
 20
-188.1826
 30
0.0
 10
-45.8939
 20
-188.1826
 30
0.0
 10
-43.8048
 20
-188.3368
 30
0.0
 10
-45.4829
 20
-194.5919
 30
0.0
 10
-44.1741
 20
-196.3127
 30
0.0
 10
-44.1741
 20
-196.3127
 30
0.0
 10
-41.8507
 20
-199.8229
 30
0.0
 10
-36.4747
 20
-189.8128
 30
0.0
 10
-35.8838
 20
-197.0363
 30
0.0
 10
-35.8838
 20
-197.0363
 30
0.0
 10
-34.0702
 20
-201.9462
 30
0.0
 10
-61.8984
 20
-215.8605
 30
0.0
 10
-61.0895
 20
-220.4177
 30
0.0
 10
-61.0895
 20
-220.4177
 30
0.0
 10
-63.8207
 20
-223.2219
 30
0.0
 10
-60.658
 20
-232.6517
 30
0.0
 10
-63.4788
 20
-234.4568
 30
0.0
 10
-63.4788
 20
-234.4568
 30
0.0
 10
-64.8899
 20
-236.3227
 30
0.0
 10
-65.8781
 20
-238.0125
 30
0.0
 10
-66.5035
 20
-239.5379
 30
0.0
 10
-66.5035
 20
-239.5379
 30
0.0
 10
-68.6329
 20
-237.6597
 30
0.0
 10
-69.9791
 20
-234.913
 30
0.0
 10
-69.9791
 20
-231.8389
 30
0.0
 10
-69.9791
 20
-231.8389
 30
0.0
 10
-69.9791
 20
-231.8389
 30
0.0
 10
-69.9791
 20
-193.4302
 30
0.0
 10
-69.9791
 20
-193.4302
 30
0.0
 10
-69.9791
 20
-193.4302
 30
0.0
 10
-66.9791
 20
-193.977
 30
0.0
 10
-63.421
 20
-192.0893
 30
0.0
 10
-60.7628
 20
-190.8725
 30
0.0
 10
-60.7628
 20
-190.8725
 30
0.0
 10
-58.2644
 20
-189.0039
 30
0.0
 10
-55.6144
 20
-189.9338
 30
0.0
 10
-56.0525
 20
-193.27
 30
0.0
 10
-56.0525
 20
-193.27
 30
0.0
 10
-53.6314
 20
-197.6716
 30
0.0
 10
-49.8006
 20
-190.2728
 30
0.0
 10
-47.4814
 20
-188.7901
 30
0.0
 10
-47.4814
 20
-188.7901
 30
0.0
 10
-46.8789
 20
-188.3904
 30
0.0
 10
-46.409
 20
-188.2031
 30
0.0
 10
-46.0424
 20
-188.1826
 30
0.0
  0
SPLINE
  5
79
330
1F
100
AcDbEntity
  8
layer 1
370
     9
100
AcDbSpline
210
0.0
220
0.0
230
1.0
 70
    11
 71
     3
 72
   152
 73
   148
 74
     0
 42
0.0000000001
 43
0.0000000001
 12
1.0
 22
0.0
 32
0.0
 13
1.0
 23
0.0
 33
0.0
 40
0.0
 40
0.0
 40
0.0
 40
0.0
 40
0.0263157894736842
 40
0.0263157894736842
 40
0.0263157894736842
 40
0.0263157894736842
 40
0.0526315789473684
 40
0.0526315789473684
 40
0.0526315789473684
 40
0.0526315789473684
 40
0.0789473684210526
 40
0.0789473684210526
 40
0.0789473684210526
 40
0.0789473684210526
 40
0.1052631578947368
 40
0.1052631578947368
 40
0.1052631578947368
 40
0.1052631578947368
 40
0.131578947368421
 40
0.131578947368421
 40
0.131578947368421
 40
0.131578947368421
 40
0.1578947368421053
 40
0.1578947368421053
 40
0.1578947368421053
 40
0.1578947368421053
 40
0.1842105263157895
 40
0.1842105263157895
 40
0.1842105263157895
 40
0.1842105263157895
 40
0.2105263157894737
 40
0.2105263157894737
 40
0.2105263157894737
 40
0.2105263157894737
 40
0.2368421052631579
 40
0.2368421052631579
 40
0.2368421052631579
 40
0.2368421052631579
 40
0.2631578947368421
 40
0.2631578947368421
 40
0.2631578947368421
 40
0.2631578947368421
 40
0.2894736842105263
 40
0.2894736842105263
 40
0.2894736842105263
 40
0.2894736842105263
 40
0.3157894736842105
 40
0.3157894736842105
 40
0.3157894736842105
 40
0.3157894736842105
 40
0.3421052631578947
 40
0.3421052631578947
 40
0.3421052631578947
 40
0.3421052631578947
 40
0.3684210526315789
 40
0.3684210526315789
 40
0.3684210526315789
 40
0.3684210526315789
 40
0.3947368421052632
 40
0.3947368421052632
 40
0.3947368421052632
 40
0.3947368421052632
 40
0.4210526315789473
 40
0.4210526315789473
 40
0.4210526315789473
 40
0.4210526315789473
 40
0.4473684210526316
 40
0.4473684210526316
 40
0.4473684210526316
 40
0.4473684210526316
 40
0.4736842105263158
 40
0.4736842105263158
 40
0.4736842105263158
 40
0.4736842105263158
 40
0.5
 40
0.5
 40
0.5
 40
0.5
 40
0.5263157894736842
 40
0.5263157894736842
 40
0.5263157894736842
 40
0.5263157894736842
 40
0.5526315789473685
 40
0.5526315789473685
 40
0.5526315789473685
 40
0.5526315789473685
 40
0.5789473684210527
 40
0.5789473684210527
 40
0.5789473684210527
 40
0.5789473684210527
 40
0.6052631578947368
 40
0.6052631578947368
 40
0.6052631578947368
 40
0.6052631578947368
 40
0.631578947368421
 40
0.631578947368421
 40
0.631578947368421
 40
0.631578947368421
 40
0.6578947368421053
 40
0.6578947368421053
 40
0.6578947368421053
 40
0.6578947368421053
 40
0.6842105263157895
 40
0.6842105263157895
 40
0.6842105263157895
 40
0.6842105263157895
 40
0.7105263157894737
 40
0.7105263157894737
 40
0.7105263157894737
 40
0.7105263157894737
 40
0.7368421052631579
 40
0.7368421052631579
 40
0.7368421052631579
 40
0.7368421052631579
 40
0.7631578947368421
 40
0.7631578947368421
 40
0.7631578947368421
 40
0.7631578947368421
 40
0.7894736842105263
 40
0.7894736842105263
 40
0.7894736842105263
 40
0.7894736842105263
 40
0.8157894736842105
 40
0.8157894736842105
 40
0.8157894736842105
 40
0.8157894736842105
 40
0.8421052631578947
 40
0.8421052631578947
 40
0.8421052631578947
 40
0.8421052631578947
 40
0.868421052631579
 40
0.868421052631579
 40
0.868421052631579
 40
0.868421052631579
 40
0.8947368421052632
 40
0.8947368421052632
 40
0.8947368421052632
 40
0.8947368421052632
 40
0.9210526315789473
 40
0.9210526315789473
 40
0.9210526315789473
 40
0.9210526315789473
 40
0.9473684210526315
 40
0.9473684210526315
 40
0.9473684210526315
 40
0.9473684210526315
 40
1.0
 40
1.0
 40
1.0
 40
1.0
 10
107.2476
 20
-189.0808
 30
0.0
 10
107.3785
 20
-189.5838
 30
0.0
 10
107.5164
 20
-190.0827
 30
0.0
 10
107.6625
 20
-190.5801
 30
0.0
 10
107.6625
 20
-190.5801
 30
0.0
 10
109.1286
 20
-193.5925
 30
0.0
 10
110.2738
 20
-197.1079
 30
0.0
 10
112.1424
 20
-199.5318
 30
0.0
 10
112.1424
 20
-199.5318
 30
0.0
 10
118.2554
 20
-199.0482
 30
0.0
 10
124.9595
 20
-198.6308
 30
0.0
 10
130.054
 20
-195.2904
 30
0.0
 10
130.054
 20
-195.2904
 30
0.0
 10
133.6273
 20
-196.6807
 30
0.0
 10
131.0697
 20
-201.9036
 30
0.0
 10
131.2365
 20
-204.7191
 30
0.0
 10
131.2365
 20
-204.7191
 30
0.0
 10
130.7197
 20
-209.0558
 30
0.0
 10
135.8487
 20
-209.0611
 30
0.0
 10
138.6449
 20
-220.3457
 30
0.0
 10
138.6449
 20
-220.3457
 30
0.0
 10
139.1285
 20
-222.9834
 30
0.0
 10
133.3863
 20
-235.1666
 30
0.0
 10
131.5812
 20
-218.1589
 30
0.0
 10
131.5812
 20
-218.1589
 30
0.0
 10
129.2895
 20
-219.9531
 30
0.0
 10
127.8163
 20
-217.9606
 30
0.0
 10
127.0473
 20
-217.4794
 30
0.0
 10
127.0473
 20
-217.4794
 30
0.0
 10
125.3924
 20
-219.2518
 30
0.0
 10
125.9985
 20
-222.1967
 30
0.0
 10
125.3896
 20
-224.3946
 30
0.0
 10
125.3896
 20
-224.3946
 30
0.0
 10
125.1896
 20
-224.258
 30
0.0
 10
125.0121
 20
-224.0982
 30
0.0
 10
124.8865
 20
-223.8915
 30
0.0
 10
124.8865
 20
-223.8915
 30
0.0
 10
124.1961
 20
-223.2371
 30
0.0
 10
123.7386
 20
-222.395
 30
0.0
 10
122.6817
 20
-222.0394
 30
0.0
 10
122.6817
 20
-222.0394
 30
0.0
 10
121.7598
 20
-221.5709
 30
0.0
 10
120.5883
 20
-221.5917
 30
0.0
 10
119.6912
 20
-221.0954
 30
0.0
 10
119.6912
 20
-221.0954
 30
0.0
 10
119.2805
 20
-220.4794
 30
0.0
 10
119.1856
 20
-219.7174
 30
0.0
 10
119.4887
 20
-219.0588
 30
0.0
 10
119.4887
 20
-219.0588
 30
0.0
 10
120.0013
 20
-218.3945
 30
0.0
 10
120.1847
 20
-217.5926
 30
0.0
 10
120.8116
 20
-216.9862
 30
0.0
 10
120.8116
 20
-216.9862
 30
0.0
 10
121.5725
 20
-216.5632
 30
0.0
 10
122.9117
 20
-216.081
 30
0.0
 10
122.4972
 20
-215.1521
 30
0.0
 10
122.4972
 20
-215.1521
 30
0.0
 10
121.8329
 20
-214.3584
 30
0.0
 10
120.7442
 20
-213.7643
 30
0.0
 10
119.5508
 20
-213.6429
 30
0.0
 10
119.5508
 20
-213.6429
 30
0.0
 10
119.2491
 20
-213.9449
 30
0.0
 10
119.0629
 20
-214.091
 30
0.0
 10
118.9415
 20
-214.1559
 30
0.0
 10
118.9415
 20
-214.1559
 30
0.0
 10
119.9339
 20
-214.2659
 30
0.0
 10
120.8186
 20
-214.7676
 30
0.0
 10
121.3947
 20
-215.4068
 30
0.0
 10
121.3947
 20
-215.4068
 30
0.0
 10
120.8144
 20
-215.8852
 30
0.0
 10
119.8651
 20
-215.9582
 30
0.0
 10
119.3564
 20
-216.5093
 30
0.0
 10
119.3564
 20
-216.5093
 30
0.0
 10
119.0159
 20
-217.0578
 30
0.0
 10
118.593
 20
-217.5747
 30
0.0
 10
118.1756
 20
-218.0886
 30
0.0
 10
118.1756
 20
-218.0886
 30
0.0
 10
117.474
 20
-218.881
 30
0.0
 10
117.2383
 20
-219.8719
 30
0.0
 10
117.39
 20
-220.8227
 30
0.0
 10
117.39
 20
-220.8227
 30
0.0
 10
117.4934
 20
-221.7985
 30
0.0
 10
118.2127
 20
-222.7587
 30
0.0
 10
119.4185
 20
-223.0896
 30
0.0
 10
119.4185
 20
-223.0896
 30
0.0
 10
120.3032
 20
-223.4339
 30
0.0
 10
121.5736
 20
-223.5927
 30
0.0
 10
121.896
 20
-224.4566
 30
0.0
 10
121.896
 20
-224.4566
 30
0.0
 10
121.896
 20
-225.1661
 30
0.0
 10
121.7722
 20
-225.92
 30
0.0
 10
121.3407
 20
-226.5553
 30
0.0
 10
121.3407
 20
-226.5553
 30
0.0
 10
121.4498
 20
-227.0309
 30
0.0
 10
121.5489
 20
-227.5145
 30
0.0
 10
121.6494
 20
-227.9925
 30
0.0
 10
121.6494
 20
-227.9925
 30
0.0
 10
121.6233
 20
-229.2714
 30
0.0
 10
122.198
 20
-230.517
 30
0.0
 10
122.876
 20
-231.7588
 30
0.0
 10
122.876
 20
-231.7588
 30
0.0
 10
122.6418
 20
-231.4501
 30
0.0
 10
122.3924
 20
-231.1471
 30
0.0
 10
122.1264
 20
-230.8589
 30
0.0
 10
122.1264
 20
-230.8589
 30
0.0
 10
120.5816
 20
-229.1489
 30
0.0
 10
119.9258
 20
-229.8806
 30
0.0
 10
120.6613
 20
-230.7625
 30
0.0
 10
120.6613
 20
-230.7625
 30
0.0
 10
122.2407
 20
-232.6351
 30
0.0
 10
122.4845
 20
-235.1927
 30
0.0
 10
122.876
 20
-237.5175
 30
0.0
 10
122.876
 20
-237.5175
 30
0.0
 10
120.3403
 20
-236.0168
 30
0.0
 10
118.0529
 20
-233.939
 30
0.0
 10
116.6322
 20
-231.3178
 30
0.0
 10
116.6322
 20
-231.3178
 30
0.0
 10
116.6294
 20
-231.3538
 30
0.0
 10
117.0937
 20
-233.8822
 30
0.0
 10
118.1315
 20
-235.6475
 30
0.0
 10
118.1315
 20
-235.6475
 30
0.0
 10
119.205
 20
-237.1619
 30
0.0
 10
118.8837
 20
-237.8911
 30
0.0
 10
116.2435
 20
-236.5033
 30
0.0
 10
116.2435
 20
-236.5033
 30
0.0
 10
115.5792
 20
-236.2387
 30
0.0
 10
114.8683
 20
-236.1548
 30
0.0
 10
114.1709
 20
-236.2207
 30
0.0
 10
114.1709
 20
-236.2207
 30
0.0
 10
115.0158
 20
-234.2462
 30
0.0
 10
115.9376
 20
-232.0784
 30
0.0
 10
116.2516
 20
-231.2998
 30
0.0
 10
116.2516
 20
-231.2998
 30
0.0
 10
116.876
 20
-229.7592
 30
0.0
 10
116.0202
 20
-224.8726
 30
0.0
 10
114.3212
 20
-224.166
 30
0.0
 10
114.3212
 20
-224.166
 30
0.0
 10
112.6208
 20
-223.459
 30
0.0
 10
109.6758
 20
-223.6449
 30
0.0
 10
109.1078
 20
-224.9858
 30
0.0
 10
109.1078
 20
-224.9858
 30
0.0
 10
108.8873
 20
-225.5065
 30
0.0
 10
108.1088
 20
-227.3836
 30
0.0
 10
107.2476
 20
-229.4576
 30
0.0
 10
107.2476
 20
-229.4576
 30
0.0
 10
107.2476
 20
-229.4576
 30
0.0
 10
107.2476
 20
-189.0808
 30
0.0
 10
107.2476
 20
-189.0808
 30
0.0
  0
SPLINE
  5
7A
330
1F
100
AcDbEntity
  8
layer 1
370
     9
100
AcDbSpline
210
0.0
220
0.0
230
1.0
 70
    11
 71
     3
 72
    12
 73
     8
 74
     0
 42
0.0000000001
 43
0.0000000001
 12
1.0
 22
0.0
 32
0.0
 13
1.0
 23
0.0
 33
0.0
 40
0.0
 40
0.0
 40
0.0
 40
0.0
 40
0.3333333333333333
 40
0.3333333333333333
 40
0.3333333333333333
 40
0.3333333333333333
 40
1.0
 40
1.0
 40
1.0
 40
1.0
 10
118.9415
 20
-214.1559
 30
0.0
 10
118.8713
 20
-214.1474
 30
0.0
 10
118.8025
 20
-214.1322
 30
0.0
 10
118.7309
 20
-214.128
 30
0.0
 10
118.7309
 20
-214.128
 30
0.0
 10
118.7309
 20
-214.128
 30
0.0
 10
118.7281
 20
-214.2702
 30
0.0
 10
118.9415
 20
-214.1559
 30
0.0
  0
SPLINE
  5
7B
330
1F
100
AcDbEntity
  8
layer 1
370
     9
100
AcDbSpline
210
0.0
220
0.0
230
1.0
 70
    11
 71
     3
 72
    20
 73
    16
 74
     0
 42
0.0000000001
 43
0.0000000001
 12
1.0
 22
0.0
 32
0.0
 13
1.0
 23
0.0
 33
0.0
 40
0.0
 40
0.0
 40
0.0
 40
0.0
 40
0.2
 40
0.2
 40
0.2
 40
0.2
 40
0.4
 40
0.4
 40
0.4
 40
0.4
 40
0.6
 40
0.6
 40
0.6
 40
0.6
 40
1.0
 40
1.0
 40
1.0
 40
1.0
 10
-123.0362
 20
-192.1595
 30
0.0
 10
-123.0073
 20
-192.1609
 30
0.0
 10
-122.9744
 20
-192.1676
 30
0.0
 10
-122.9399
 20
-192.1775
 30
0.0
 10
-122.9399
 20
-192.1775
 30
0.0
 10
-117.9763
 20
-194.0888
 30
0.0
 10
-120.5131
 20
-201.4104
 30
0.0
 10
-125.5155
 20
-198.4132
 30
0.0
 10
-125.5155
 20
-198.4132
 30
0.0
 10
-126.5544
 20
-196.7234
 30
0.0
 10
-127.1111
 20
-191.2017
 30
0.0
 10
-124.5535
 20
-195.2022
 30
0.0
 10
-124.5535
 20
-195.2022
 30
0.0
 10
-122.8171
 20
-196.2055
 30
0.0
 10
-123.9583
 20
-192.1249
 30
0.0
 10
-123.0362
 20
-192.1595
 30
0.0
  0
SPLINE
  5
7C
330
1F
100
AcDbEntity
  8
layer 1
370
     9
100
AcDbSpline
210
0.0
220
0.0
230
1.0
 70
    11
 71
     3
 72
   112
 73
   108
 74
     0
 42
0.0000000001
 43
0.0000000001
 12
1.0
 22
0.0
 32
0.0
 13
1.0
 23
0.0
 33
0.0
 40
0.0
 40
0.0
 40
0.0
 40
0.0
 40
0.0357142857142857
 40
0.0357142857142857
 40
0.0357142857142857
 40
0.0357142857142857
 40
0.0714285714285714
 40
0.0714285714285714
 40
0.0714285714285714
 40
0.0714285714285714
 40
0.1071428571428571
 40
0.1071428571428571
 40
0.1071428571428571
 40
0.1071428571428571
 40
0.1428571428571428
 40
0.1428571428571428
 40
0.1428571428571428
 40
0.1428571428571428
 40
0.1785714285714286
 40
0.1785714285714286
 40
0.1785714285714286
 40
0.1785714285714286
 40
0.2142857142857143
 40
0.2142857142857143
 40
0.2142857142857143
 40
0.2142857142857143
 40
0.25
 40
0.25
 40
0.25
 40
0.25
 40
0.2857142857142857
 40
0.2857142857142857
 40
0.2857142857142857
 40
0.2857142857142857
 40
0.3214285714285715
 40
0.3214285714285715
 40
0.3214285714285715
 40
0.3214285714285715
 40
0.3571428571428572
 40
0.3571428571428572
 40
0.3571428571428572
 40
0.3571428571428572
 40
0.3928571428571428
 40
0.3928571428571428
 40
0.3928571428571428
 40
0.3928571428571428
 40
0.4285714285714285
 40
0.4285714285714285
 40
0.4285714285714285
 40
0.4285714285714285
 40
0.4642857142857143
 40
0.4642857142857143
 40
0.4642857142857143
 40
0.4642857142857143
 40
0.5
 40
0.5
 40
0.5
 40
0.5
 40
0.5357142857142857
 40
0.5357142857142857
 40
0.5357142857142857
 40
0.5357142857142857
 40
0.5714285714285714
 40
0.5714285714285714
 40
0.5714285714285714
 40
0.5714285714285714
 40
0.6071428571428571
 40
0.6071428571428571
 40
0.6071428571428571
 40
0.6071428571428571
 40
0.6428571428571429
 40
0.6428571428571429
 40
0.6428571428571429
 40
0.6428571428571429
 40
0.6785714285714286
 40
0.6785714285714286
 40
0.6785714285714286
 40
0.6785714285714286
 40
0.7142857142857143
 40
0.7142857142857143
 40
0.7142857142857143
 40
0.7142857142857143
 40
0.75
 40
0.75
 40
0.75
 40
0.75
 40
0.7857142857142857
 40
0.7857142857142857
 40
0.7857142857142857
 40
0.7857142857142857
 40
0.8214285714285714
 40
0.8214285714285714
 40
0.8214285714285714
 40
0.8214285714285714
 40
0.8571428571428571
 40
0.8571428571428571
 40
0.8571428571428571
 40
0.8571428571428571
 40
0.8928571428571429
 40
0.8928571428571429
 40
0.8928571428571429
 40
0.8928571428571429
 40
0.9285714285714286
 40
0.9285714285714286
 40
0.9285714285714286
 40
0.9285714285714286
 40
1.0
 40
1.0
 40
1.0
 40
1.0
 10
177.2479
 20
-193.765
 30
0.0
 10
177.2479
 20
-193.765
 30
0.0
 10
177.2479
 20
-222.9475
 30
0.0
 10
177.2479
 20
-222.9475
 30
0.0
 10
177.2479
 20
-222.9475
 30
0.0
 10
176.3522
 20
-222.3192
 30
0.0
 10
175.1408
 20
-222.2821
 30
0.0
 10
174.2754
 20
-222.7009
 30
0.0
 10
174.2754
 20
-222.7009
 30
0.0
 10
172.9154
 20
-223.3609
 30
0.0
 10
171.3265
 20
-225.9655
 30
0.0
 10
171.7358
 20
-227.8341
 30
0.0
 10
171.7358
 20
-227.8341
 30
0.0
 10
172.1242
 20
-229.6075
 30
0.0
 10
174.0203
 20
-238.3155
 30
0.0
 10
174.2232
 20
-239.2472
 30
0.0
 10
174.2232
 20
-239.2472
 30
0.0
 10
172.9483
 20
-240.5109
 30
0.0
 10
171.3456
 20
-241.4341
 30
0.0
 10
169.5489
 20
-241.893
 30
0.0
 10
169.5489
 20
-241.893
 30
0.0
 10
169.5736
 20
-240.785
 30
0.0
 10
169.7182
 20
-234.1125
 30
0.0
 10
169.7154
 20
-232.4562
 30
0.0
 10
169.7154
 20
-232.4562
 30
0.0
 10
169.7196
 20
-230.9224
 30
0.0
 10
168.7287
 20
-226.5691
 30
0.0
 10
164.997
 20
-227.0584
 30
0.0
 10
164.997
 20
-227.0584
 30
0.0
 10
160.4896
 20
-226.6848
 30
0.0
 10
158.9765
 20
-229.9854
 30
0.0
 10
158.7532
 20
-232.6407
 30
0.0
 10
158.7532
 20
-232.6407
 30
0.0
 10
158.7437
 20
-233.2595
 30
0.0
 10
158.7161
 20
-234.7877
 30
0.0
 10
158.683
 20
-236.6176
 30
0.0
 10
158.683
 20
-236.6176
 30
0.0
 10
157.5569
 20
-236.1244
 30
0.0
 10
156.2492
 20
-236.0433
 30
0.0
 10
155.0931
 20
-236.5033
 30
0.0
 10
155.0931
 20
-236.5033
 30
0.0
 10
154.0761
 20
-236.7555
 30
0.0
 10
152.8195
 20
-236.4028
 30
0.0
 10
151.9442
 20
-237.3232
 30
0.0
 10
151.9442
 20
-237.3232
 30
0.0
 10
153.4809
 20
-235.5593
 30
0.0
 10
154.8479
 20
-233.5777
 30
0.0
 10
155.4819
 20
-231.2917
 30
0.0
 10
155.4819
 20
-231.2917
 30
0.0
 10
155.829
 20
-230.1409
 30
0.0
 10
155.7119
 20
-228.6279
 30
0.0
 10
154.608
 20
-227.9484
 30
0.0
 10
154.608
 20
-227.9484
 30
0.0
 10
155.6456
 20
-228.7768
 30
0.0
 10
155.2614
 20
-230.3106
 30
0.0
 10
154.7403
 20
-231.3259
 30
0.0
 10
154.7403
 20
-231.3259
 30
0.0
 10
153.3197
 20
-233.9471
 30
0.0
 10
151.0305
 20
-236.0168
 30
0.0
 10
148.4965
 20
-237.5175
 30
0.0
 10
148.4965
 20
-237.5175
 30
0.0
 10
148.8863
 20
-235.1927
 30
0.0
 10
149.0959
 20
-232.6351
 30
0.0
 10
150.6753
 20
-230.7625
 30
0.0
 10
150.6753
 20
-230.7625
 30
0.0
 10
151.3505
 20
-229.8612
 30
0.0
 10
152.6801
 20
-230.0072
 30
0.0
 10
153.4975
 20
-230.6303
 30
0.0
 10
153.4975
 20
-230.6303
 30
0.0
 10
154.3932
 20
-231.3923
 30
0.0
 10
153.1694
 20
-230.0404
 30
0.0
 10
152.8181
 20
-229.9427
 30
0.0
 10
152.8181
 20
-229.9427
 30
0.0
 10
151.6165
 20
-229.1846
 30
0.0
 10
150.0618
 20
-229.8778
 30
0.0
 10
149.2102
 20
-230.8589
 30
0.0
 10
149.2102
 20
-230.8589
 30
0.0
 10
147.8446
 20
-232.3335
 30
0.0
 10
146.9394
 20
-234.122
 30
0.0
 10
146.2035
 20
-235.984
 30
0.0
 10
146.2035
 20
-235.984
 30
0.0
 10
146.1636
 20
-234.8234
 30
0.0
 10
146.5164
 20
-233.619
 30
0.0
 10
147.3581
 20
-232.4904
 30
0.0
 10
147.3581
 20
-232.4904
 30
0.0
 10
149.2765
 20
-227.9939
 30
0.0
 10
154.4207
 20
-224.3614
 30
0.0
 10
154.2553
 20
-219.3756
 30
0.0
 10
154.2553
 20
-219.3756
 30
0.0
 10
152.0585
 20
-215.4566
 30
0.0
 10
147.5084
 20
-212.1189
 30
0.0
 10
148.6549
 20
-207.1885
 30
0.0
 10
148.6549
 20
-207.1885
 30
0.0
 10
146.5615
 20
-203.3933
 30
0.0
 10
150.8996
 20
-198.446
 30
0.0
 10
155.7105
 20
-201.923
 30
0.0
 10
155.7105
 20
-201.923
 30
0.0
 10
160.776
 20
-203.5736
 30
0.0
 10
167.8496
 20
-205.0965
 30
0.0
 10
172.5817
 20
-203.6509
 30
0.0
 10
172.5817
 20
-203.6509
 30
0.0
 10
173.8704
 20
-200.2169
 30
0.0
 10
176.8553
 20
-197.5351
 30
0.0
 10
177.2299
 20
-193.8433
 30
0.0
 10
177.2299
 20
-193.8433
 30
0.0
 10
177.2356
 20
-193.8172
 30
0.0
 10
177.2409
 20
-193.7925
 30
0.0
 10
177.2479
 20
-193.765
 30
0.0
  0
SPLINE
  5
7D
330
1F
100
AcDbEntity
  8
layer 1
370
     9
100
AcDbSpline
210
0.0
220
0.0
230
1.0
 70
    11
 71
     3
 72
    28
 73
    24
 74
     0
 42
0.0000000001
 43
0.0000000001
 12
1.0
 22
0.0
 32
0.0
 13
1.0
 23
0.0
 33
0.0
 40
0.0
 40
0.0
 40
0.0
 40
0.0
 40
0.1428571428571428
 40
0.1428571428571428
 40
0.1428571428571428
 40
0.1428571428571428
 40
0.2857142857142857
 40
0.2857142857142857
 40
0.2857142857142857
 40
0.2857142857142857
 40
0.4285714285714285
 40
0.4285714285714285
 40
0.4285714285714285
 40
0.4285714285714285
 40
0.5714285714285714
 40
0.5714285714285714
 40
0.5714285714285714
 40
0.5714285714285714
 40
0.7142857142857143
 40
0.7142857142857143
 40
0.7142857142857143
 40
0.7142857142857143
 40
1.0
 40
1.0
 40
1.0
 40
1.0
 10
88.6467
 20
-196.1642
 30
0.0
 10
88.6467
 20
-196.1642
 30
0.0
 10
88.6467
 20
-203.8812
 30
0.0
 10
88.6467
 20
-203.8812
 30
0.0
 10
88.6467
 20
-203.8812
 30
0.0
 10
88.6442
 20
-203.8798
 30
0.0
 10
88.6414
 20
-203.8812
 30
0.0
 10
88.6386
 20
-203.8812
 30
0.0
 10
88.6386
 20
-203.8812
 30
0.0
 10
86.825
 20
-203.859
 30
0.0
 10
86.0975
 20
-203.7694
 30
0.0
 10
86.3978
 20
-202.3639
 30
0.0
 10
86.3978
 20
-202.3639
 30
0.0
 10
88.2982
 20
-200.647
 30
0.0
 10
88.9568
 20
-198.4047
 30
0.0
 10
85.7102
 20
-200.4498
 30
0.0
 10
85.7102
 20
-200.4498
 30
0.0
 10
81.492
 20
-203.6068
 30
0.0
 10
78.4246
 20
-197.4028
 30
0.0
 10
84.5196
 20
-197.5132
 30
0.0
 10
84.5196
 20
-197.5132
 30
0.0
 10
85.8591
 20
-197.0804
 30
0.0
 10
87.2621
 20
-196.6574
 30
0.0
 10
88.6467
 20
-196.1642
 30
0.0
  0
SPLINE
  5
7E
330
1F
100
AcDbEntity
  8
layer 1
370
     9
100
AcDbSpline
210
0.0
220
0.0
230
1.0
 70
    11
 71
     3
 72
    12
 73
     8
 74
     0
 42
0.0000000001
 43
0.0000000001
 12
1.0
 22
0.0
 32
0.0
 13
1.0
 23
0.0
 33
0.0
 40
0.0
 40
0.0
 40
0.0
 40
0.0
 40
0.3333333333333333
 40
0.3333333333333333
 40
0.3333333333333333
 40
0.3333333333333333
 40
1.0
 40
1.0
 40
1.0
 40
1.0
 10
-136.6721
 20
-200.3796
 30
0.0
 10
-134.6891
 20
-200.2197
 30
0.0
 10
-132.1908
 20
-205.0592
 30
0.0
 10
-136.628
 20
-203.0875
 30
0.0
 10
-136.628
 20
-203.0875
 30
0.0
 10
-138.5711
 20
-202.722
 30
0.0
 10
-137.4948
 20
-200.7817
 30
0.0
 10
-136.6721
 20
-200.3796
 30
0.0
  0
SPLINE
  5
7F
330
1F
100
AcDbEntity
  8
layer 1
370
     9
100
AcDbSpline
210
0.0
220
0.0
230
1.0
 70
    11
 71
     3
 72
    24
 73
    20
 74
     0
 42
0.0000000001
 43
0.0000000001
 12
1.0
 22
0.0
 32
0.0
 13
1.0
 23
0.0
 33
0.0
 40
0.0
 40
0.0
 40
0.0
 40
0.0
 40
0.1666666666666667
 40
0.1666666666666667
 40
0.1666666666666667
 40
0.1666666666666667
 40
0.3333333333333333
 40
0.3333333333333333
 40
0.3333333333333333
 40
0.3333333333333333
 40
0.5
 40
0.5
 40
0.5
 40
0.5
 40
0.6666666666666666
 40
0.6666666666666666
 40
0.6666666666666666
 40
0.6666666666666666
 40
1.0
 40
1.0
 40
1.0
 40
1.0
 10
-114.862
 20
-202.39
 30
0.0
 10
-114.7971
 20
-202.3858
 30
0.0
 10
-114.7283
 20
-202.3886
 30
0.0
 10
-114.6577
 20
-202.39
 30
0.0
 10
-114.6577
 20
-202.39
 30
0.0
 10
-114.3367
 20
-202.3957
 30
0.0
 10
-113.9522
 20
-202.4549
 30
0.0
 10
-113.495
 20
-202.5745
 30
0.0
 10
-113.495
 20
-202.5745
 30
0.0
 10
-113.321
 20
-202.565
 30
0.0
 10
-113.1475
 20
-202.5513
 30
0.0
 10
-112.9739
 20
-202.5403
 30
0.0
 10
-112.9739
 20
-202.5403
 30
0.0
 10
-110.9303
 20
-204.3839
 30
0.0
 10
-110.193
 20
-207.2132
 30
0.0
 10
-114.4111
 20
-206.0942
 30
0.0
 10
-114.4111
 20
-206.0942
 30
0.0
 10
-115.9408
 20
-204.8898
 30
0.0
 10
-116.8502
 20
-202.5029
 30
0.0
 10
-114.862
 20
-202.39
 30
0.0
  0
SPLINE
  5
80
330
1F
100
AcDbEntity
  8
layer 1
370
     9
100
AcDbSpline
210
0.0
220
0.0
230
1.0
 70
    11
 71
     3
 72
    24
 73
    20
 74
     0
 42
0.0000000001
 43
0.0000000001
 12
1.0
 22
0.0
 32
0.0
 13
1.0
 23
0.0
 33
0.0
 40
0.0
 40
0.0
 40
0.0
 40
0.0
 40
0.1666666666666667
 40
0.1666666666666667
 40
0.1666666666666667
 40
0.1666666666666667
 40
0.3333333333333333
 40
0.3333333333333333
 40
0.3333333333333333
 40
0.3333333333333333
 40
0.5
 40
0.5
 40
0.5
 40
0.5
 40
0.6666666666666666
 40
0.6666666666666666
 40
0.6666666666666666
 40
0.6666666666666666
 40
1.0
 40
1.0
 40
1.0
 40
1.0
 10
75.5057
 20
-203.0335
 30
0.0
 10
79.3246
 20
-202.9453
 30
0.0
 10
80.7879
 20
-206.1136
 30
0.0
 10
77.887
 20
-209.1108
 30
0.0
 10
77.887
 20
-209.1108
 30
0.0
 10
75.1477
 20
-213.2902
 30
0.0
 10
68.1623
 20
-213.6101
 30
0.0
 10
64.782
 20
-210.0809
 30
0.0
 10
64.782
 20
-210.0809
 30
0.0
 10
63.9209
 20
-205.9411
 30
0.0
 10
72.1903
 20
-205.8956
 30
0.0
 10
71.1761
 20
-210.4778
 30
0.0
 10
71.1761
 20
-210.4778
 30
0.0
 10
75.5308
 20
-207.3303
 30
0.0
 10
67.5256
 20
-202.758
 30
0.0
 10
74.2449
 20
-203.1658
 30
0.0
 10
74.2449
 20
-203.1658
 30
0.0
 10
74.6887
 20
-203.0832
 30
0.0
 10
75.1117
 20
-203.0434
 30
0.0
 10
75.5057
 20
-203.0335
 30
0.0
  0
SPLINE
  5
81
330
1F
100
AcDbEntity
  8
layer 1
370
     9
100
AcDbSpline
210
0.0
220
0.0
230
1.0
 70
    11
 71
     3
 72
    16
 73
    12
 74
     0
 42
0.0000000001
 43
0.0000000001
 12
1.0
 22
0.0
 32
0.0
 13
1.0
 23
0.0
 33
0.0
 40
0.0
 40
0.0
 40
0.0
 40
0.0
 40
0.25
 40
0.25
 40
0.25
 40
0.25
 40
0.5
 40
0.5
 40
0.5
 40
0.5
 40
1.0
 40
1.0
 40
1.0
 40
1.0
 10
-130.3401
 20
-203.2801
 30
0.0
 10
-126.195
 20
-203.1919
 30
0.0
 10
-129.957
 20
-209.1038
 30
0.0
 10
-132.2183
 20
-206.6054
 30
0.0
 10
-132.2183
 20
-206.6054
 30
0.0
 10
-132.7845
 20
-205.4726
 30
0.0
 10
-131.5678
 20
-204.107
 30
0.0
 10
-131.2742
 20
-203.3863
 30
0.0
 10
-131.2742
 20
-203.3863
 30
0.0
 10
-130.9243
 20
-203.3231
 30
0.0
 10
-130.6156
 20
-203.2872
 30
0.0
 10
-130.3401
 20
-203.2801
 30
0.0
  0
SPLINE
  5
82
330
1F
100
AcDbEntity
  8
layer 1
370
     9
100
AcDbSpline
210
0.0
220
0.0
230
1.0
 70
    11
 71
     3
 72
    12
 73
     8
 74
     0
 42
0.0000000001
 43
0.0000000001
 12
1.0
 22
0.0
 32
0.0
 13
1.0
 23
0.0
 33
0.0
 40
0.0
 40
0.0
 40
0.0
 40
0.0
 40
0.3333333333333333
 40
0.3333333333333333
 40
0.3333333333333333
 40
0.3333333333333333
 40
1.0
 40
1.0
 40
1.0
 40
1.0
 10
-118.8388
 20
-203.9857
 30
0.0
 10
-116.7691
 20
-206.3203
 30
0.0
 10
-117.4842
 20
-209.2872
 30
0.0
 10
-120.9915
 20
-206.5712
 30
0.0
 10
-120.9915
 20
-206.5712
 30
0.0
 10
-121.2973
 20
-204.5399
 30
0.0
 10
-120.6179
 20
-204.9244
 30
0.0
 10
-118.8388
 20
-203.9857
 30
0.0
  0
SPLINE
  5
83
330
1F
100
AcDbEntity
  8
layer 1
370
     9
100
AcDbSpline
210
0.0
220
0.0
230
1.0
 70
    11
 71
     3
 72
    32
 73
    28
 74
     0
 42
0.0000000001
 43
0.0000000001
 12
1.0
 22
0.0
 32
0.0
 13
1.0
 23
0.0
 33
0.0
 40
0.0
 40
0.0
 40
0.0
 40
0.0
 40
0.125
 40
0.125
 40
0.125
 40
0.125
 40
0.25
 40
0.25
 40
0.25
 40
0.25
 40
0.375
 40
0.375
 40
0.375
 40
0.375
 40
0.5
 40
0.5
 40
0.5
 40
0.5
 40
0.625
 40
0.625
 40
0.625
 40
0.625
 40
0.75
 40
0.75
 40
0.75
 40
0.75
 40
1.0
 40
1.0
 40
1.0
 40
1.0
 10
24.2207
 20
-204.0216
 30
0.0
 10
25.0257
 20
-203.9885
 30
0.0
 10
25.5753
 20
-204.2227
 30
0.0
 10
25.8001
 20
-205.098
 30
0.0
 10
25.8001
 20
-205.098
 30
0.0
 10
23.471
 20
-204.796
 30
0.0
 10
18.6193
 20
-209.5063
 30
0.0
 10
23.2784
 20
-207.8761
 30
0.0
 10
23.2784
 20
-207.8761
 30
0.0
 10
28.3259
 20
-206.8467
 30
0.0
 10
27.1561
 20
-210.0824
 30
0.0
 10
23.1362
 20
-209.6922
 30
0.0
 10
23.1362
 20
-209.6922
 30
0.0
 10
15.1755
 20
-210.9036
 30
0.0
 10
29.9893
 20
-210.1607
 30
0.0
 10
26.0728
 20
-214.9218
 30
0.0
 10
26.0728
 20
-214.9218
 30
0.0
 10
25.1704
 20
-217.2067
 30
0.0
 10
20.882
 20
-217.6614
 30
0.0
 10
18.6482
 20
-218.3352
 30
0.0
 10
18.6482
 20
-218.3352
 30
0.0
 10
18.6482
 20
-218.3352
 30
0.0
 10
18.6482
 20
-204.6831
 30
0.0
 10
18.6482
 20
-204.6831
 30
0.0
 10
18.6482
 20
-204.6831
 30
0.0
 10
20.9949
 20
-204.8002
 30
0.0
 10
22.938
 20
-204.0738
 30
0.0
 10
24.2207
 20
-204.0216
 30
0.0
  0
SPLINE
  5
84
330
1F
100
AcDbEntity
  8
layer 1
370
     9
100
AcDbSpline
210
0.0
220
0.0
230
1.0
 70
    11
 71
     3
 72
    20
 73
    16
 74
     0
 42
0.0000000001
 43
0.0000000001
 12
1.0
 22
0.0
 32
0.0
 13
1.0
 23
0.0
 33
0.0
 40
0.0
 40
0.0
 40
0.0
 40
0.0
 40
0.2
 40
0.2
 40
0.2
 40
0.2
 40
0.4
 40
0.4
 40
0.4
 40
0.4
 40
0.6
 40
0.6
 40
0.6
 40
0.6
 40
1.0
 40
1.0
 40
1.0
 40
1.0
 10
-139.0876
 20
-204.8676
 30
0.0
 10
-137.8751
 20
-204.7769
 30
0.0
 10
-137.2782
 20
-206.4223
 30
0.0
 10
-136.1951
 20
-207.3109
 30
0.0
 10
-136.1951
 20
-207.3109
 30
0.0
 10
-136.2449
 20
-209.1838
 30
0.0
 10
-139.3151
 20
-211.5841
 30
0.0
 10
-140.7813
 20
-208.4134
 30
0.0
 10
-140.7813
 20
-208.4134
 30
0.0
 10
-140.3265
 20
-206.9652
 30
0.0
 10
-140.722
 20
-205.2687
 30
0.0
 10
-139.3359
 20
-204.9117
 30
0.0
 10
-139.3359
 20
-204.9117
 30
0.0
 10
-139.2488
 20
-204.8898
 30
0.0
 10
-139.1691
 20
-204.8747
 30
0.0
 10
-139.0876
 20
-204.8676
 30
0.0
  0
SPLINE
  5
85
330
1F
100
AcDbEntity
  8
layer 1
370
     9
100
AcDbSpline
210
0.0
220
0.0
230
1.0
 70
    11
 71
     3
 72
    32
 73
    28
 74
     0
 42
0.0000000001
 43
0.0000000001
 12
1.0
 22
0.0
 32
0.0
 13
1.0
 23
0.0
 33
0.0
 40
0.0
 40
0.0
 40
0.0
 40
0.0
 40
0.125
 40
0.125
 40
0.125
 40
0.125
 40
0.25
 40
0.25
 40
0.25
 40
0.25
 40
0.375
 40
0.375
 40
0.375
 40
0.375
 40
0.5
 40
0.5
 40
0.5
 40
0.5
 40
0.625
 40
0.625
 40
0.625
 40
0.625
 40
0.75
 40
0.75
 40
0.75
 40
0.75
 40
1.0
 40
1.0
 40
1.0
 40
1.0
 10
38.3318
 20
-205.1862
 30
0.0
 10
38.6129
 20
-205.1819
 30
0.0
 10
38.9121
 20
-205.189
 30
0.0
 10
39.2317
 20
-205.2204
 30
0.0
 10
39.2317
 20
-205.2204
 30
0.0
 10
39.2317
 20
-205.2204
 30
0.0
 10
39.6826
 20
-205.2041
 30
0.0
 10
39.6826
 20
-205.2041
 30
0.0
 10
39.6826
 20
-205.2041
 30
0.0
 10
42.3806
 20
-205.2355
 30
0.0
 10
46.191
 20
-206.4304
 30
0.0
 10
42.4067
 20
-208.5996
 30
0.0
 10
42.4067
 20
-208.5996
 30
0.0
 10
40.0226
 20
-210.2161
 30
0.0
 10
41.3417
 20
-215.7748
 30
0.0
 10
42.8576
 20
-211.0772
 30
0.0
 10
42.8576
 20
-211.0772
 30
0.0
 10
46.2583
 20
-207.2185
 30
0.0
 10
49.6306
 20
-213.0753
 30
0.0
 10
50.4765
 20
-215.3546
 30
0.0
 10
50.4765
 20
-215.3546
 30
0.0
 10
46.1246
 20
-218.3931
 30
0.0
 10
39.5542
 20
-216.486
 30
0.0
 10
37.0808
 20
-211.9672
 30
0.0
 10
37.0808
 20
-211.9672
 30
0.0
 10
34.3563
 20
-209.2029
 30
0.0
 10
34.1263
 20
-205.2482
 30
0.0
 10
38.3318
 20
-205.1862
 30
0.0
  0
SPLINE
  5
86
330
1F
100
AcDbEntity
  8
layer 1
370
     9
100
AcDbSpline
210
0.0
220
0.0
230
1.0
 70
    11
 71
     3
 72
    16
 73
    12
 74
     0
 42
0.0000000001
 43
0.0000000001
 12
1.0
 22
0.0
 32
0.0
 13
1.0
 23
0.0
 33
0.0
 40
0.0
 40
0.0
 40
0.0
 40
0.0
 40
0.25
 40
0.25
 40
0.25
 40
0.25
 40
0.5
 40
0.5
 40
0.5
 40
0.5
 40
1.0
 40
1.0
 40
1.0
 40
1.0
 10
-124.5796
 20
-205.3527
 30
0.0
 10
-124.4942
 20
-205.3527
 30
0.0
 10
-124.406
 20
-205.3583
 30
0.0
 10
-124.315
 20
-205.3625
 30
0.0
 10
-124.315
 20
-205.3625
 30
0.0
 10
-122.1267
 20
-205.7799
 30
0.0
 10
-123.3311
 20
-209.9857
 30
0.0
 10
-125.6919
 20
-209.163
 30
0.0
 10
-125.6919
 20
-209.163
 30
0.0
 10
-127.2145
 20
-207.7643
 30
0.0
 10
-127.2282
 20
-205.3886
 30
0.0
 10
-124.5796
 20
-205.3527
 30
0.0
  0
SPLINE
  5
87
330
1F
100
AcDbEntity
  8
layer 1
370
     9
100
AcDbSpline
210
0.0
220
0.0
230
1.0
 70
    11
 71
     3
 72
    16
 73
    12
 74
     0
 42
0.0000000001
 43
0.0000000001
 12
1.0
 22
0.0
 32
0.0
 13
1.0
 23
0.0
 33
0.0
 40
0.0
 40
0.0
 40
0.0
 40
0.0
 40
0.25
 40
0.25
 40
0.25
 40
0.25
 40
0.5
 40
0.5
 40
0.5
 40
0.5
 40
1.0
 40
1.0
 40
1.0
 40
1.0
 10
88.6467
 20
-205.5128
 30
0.0
 10
88.6467
 20
-205.5128
 30
0.0
 10
88.6467
 20
-207.5854
 30
0.0
 10
88.6467
 20
-207.5854
 30
0.0
 10
88.6467
 20
-207.5854
 30
0.0
 10
87.7718
 20
-207.7713
 30
0.0
 10
87.0278
 20
-207.814
 30
0.0
 10
86.6182
 20
-207.3991
 30
0.0
 10
86.6182
 20
-207.3991
 30
0.0
 10
86.8652
 20
-206.4427
 30
0.0
 10
87.7401
 20
-205.8818
 30
0.0
 10
88.6467
 20
-205.5128
 30
0.0
  0
SPLINE
  5
88
330
1F
100
AcDbEntity
  8
layer 1
370
     9
100
AcDbSpline
210
0.0
220
0.0
230
1.0
 70
    11
 71
     3
 72
    24
 73
    20
 74
     0
 42
0.0000000001
 43
0.0000000001
 12
1.0
 22
0.0
 32
0.0
 13
1.0
 23
0.0
 33
0.0
 40
0.0
 40
0.0
 40
0.0
 40
0.0
 40
0.1666666666666667
 40
0.1666666666666667
 40
0.1666666666666667
 40
0.1666666666666667
 40
0.3333333333333333
 40
0.3333333333333333
 40
0.3333333333333333
 40
0.3333333333333333
 40
0.5
 40
0.5
 40
0.5
 40
0.5
 40
0.6666666666666666
 40
0.6666666666666666
 40
0.6666666666666666
 40
0.6666666666666666
 40
1.0
 40
1.0
 40
1.0
 40
1.0
 10
57.6383
 20
-207.3208
 30
0.0
 10
59.8445
 20
-210.5921
 30
0.0
 10
56.4723
 20
-215.5116
 30
0.0
 10
58.396
 20
-219.2271
 30
0.0
 10
58.396
 20
-219.2271
 30
0.0
 10
60.4827
 20
-216.8169
 30
0.0
 10
66.9911
 20
-220.835
 30
0.0
 10
61.3685
 20
-221.0612
 30
0.0
 10
61.3685
 20
-221.0612
 30
0.0
 10
58.6648
 20
-223.1694
 30
0.0
 10
56.1845
 20
-225.0313
 30
0.0
 10
53.449
 20
-222.1816
 30
0.0
 10
53.449
 20
-222.1816
 30
0.0
 10
48.834
 20
-220.9052
 30
0.0
 10
52.4429
 20
-216.4916
 30
0.0
 10
55.6098
 20
-218.6538
 30
0.0
 10
55.6098
 20
-218.6538
 30
0.0
 10
57.0678
 20
-215.4608
 30
0.0
 10
53.0289
 20
-209.6661
 30
0.0
 10
57.6383
 20
-207.3208
 30
0.0
  0
SPLINE
  5
89
330
1F
100
AcDbEntity
  8
layer 1
370
     9
100
AcDbSpline
210
0.0
220
0.0
230
1.0
 70
    11
 71
     3
 72
    12
 73
     8
 74
     0
 42
0.0000000001
 43
0.0000000001
 12
1.0
 22
0.0
 32
0.0
 13
1.0
 23
0.0
 33
0.0
 40
0.0
 40
0.0
 40
0.0
 40
0.0
 40
0.3333333333333333
 40
0.3333333333333333
 40
0.3333333333333333
 40
0.3333333333333333
 40
1.0
 40
1.0
 40
1.0
 40
1.0
 10
-133.4791
 20
-208.5816
 30
0.0
 10
-131.4023
 20
-209.9804
 30
0.0
 10
-130.2572
 20
-210.1938
 30
0.0
 10
-131.3102
 20
-212.5945
 30
0.0
 10
-131.3102
 20
-212.5945
 30
0.0
 10
-136.7906
 20
-213.7188
 30
0.0
 10
-135.2278
 20
-211.6519
 30
0.0
 10
-133.4791
 20
-208.5816
 30
0.0
  0
SPLINE
  5
8A
330
1F
100
AcDbEntity
  8
layer 1
370
     9
100
AcDbSpline
210
0.0
220
0.0
230
1.0
 70
    11
 71
     3
 72
    16
 73
    12
 74
     0
 42
0.0000000001
 43
0.0000000001
 12
1.0
 22
0.0
 32
0.0
 13
1.0
 23
0.0
 33
0.0
 40
0.0
 40
0.0
 40
0.0
 40
0.0
 40
0.25
 40
0.25
 40
0.25
 40
0.25
 40
0.5
 40
0.5
 40
0.5
 40
0.5
 40
1.0
 40
1.0
 40
1.0
 40
1.0
 10
-109.4461
 20
-209.4015
 30
0.0
 10
-109.2048
 20
-209.4043
 30
0.0
 10
-108.9596
 20
-209.4086
 30
0.0
 10
-108.7046
 20
-209.4276
 30
0.0
 10
-108.7046
 20
-209.4276
 30
0.0
 10
-107.6325
 20
-209.713
 30
0.0
 10
-106.6528
 20
-213.6913
 30
0.0
 10
-111.3603
 20
-212.0734
 30
0.0
 10
-111.3603
 20
-212.0734
 30
0.0
 10
-115.0602
 20
-211.0469
 30
0.0
 10
-113.0579
 20
-209.3574
 30
0.0
 10
-109.4461
 20
-209.4015
 30
0.0
  0
SPLINE
  5
8B
330
1F
100
AcDbEntity
  8
layer 1
370
     9
100
AcDbSpline
210
0.0
220
0.0
230
1.0
 70
    11
 71
     3
 72
    16
 73
    12
 74
     0
 42
0.0000000001
 43
0.0000000001
 12
1.0
 22
0.0
 32
0.0
 13
1.0
 23
0.0
 33
0.0
 40
0.0
 40
0.0
 40
0.0
 40
0.0
 40
0.25
 40
0.25
 40
0.25
 40
0.25
 40
0.5
 40
0.5
 40
0.5
 40
0.5
 40
1.0
 40
1.0
 40
1.0
 40
1.0
 10
-118.6445
 20
-209.8947
 30
0.0
 10
-118.3827
 20
-209.888
 30
0.0
 10
-118.0864
 20
-209.906
 30
0.0
 10
-117.7544
 20
-209.9487
 30
0.0
 10
-117.7544
 20
-209.9487
 30
0.0
 10
-114.0171
 20
-209.9377
 30
0.0
 10
-115.5633
 20
-216.7657
 30
0.0
 10
-119.7127
 20
-214.0839
 30
0.0
 10
-119.7127
 20
-214.0839
 30
0.0
 10
-120.6288
 20
-212.228
 30
0.0
 10
-121.1841
 20
-209.9691
 30
0.0
 10
-118.6445
 20
-209.8947
 30
0.0
  0
SPLINE
  5
8C
330
1F
100
AcDbEntity
  8
layer 1
370
     9
100
AcDbSpline
210
0.0
220
0.0
230
1.0
 70
    11
 71
     3
 72
    16
 73
    12
 74
     0
 42
0.0000000001
 43
0.0000000001
 12
1.0
 22
0.0
 32
0.0
 13
1.0
 23
0.0
 33
0.0
 40
0.0
 40
0.0
 40
0.0
 40
0.0
 40
0.25
 40
0.25
 40
0.25
 40
0.25
 40
0.5
 40
0.5
 40
0.5
 40
0.5
 40
1.0
 40
1.0
 40
1.0
 40
1.0
 10
-126.3174
 20
-211.8628
 30
0.0
 10
-124.2243
 20
-211.8198
 30
0.0
 10
-124.6046
 20
-212.7956
 30
0.0
 10
-124.2007
 20
-214.8434
 30
0.0
 10
-124.2007
 20
-214.8434
 30
0.0
 10
-127.6431
 20
-216.4652
 30
0.0
 10
-129.5118
 20
-214.6021
 30
0.0
 10
-127.3757
 20
-211.9411
 30
0.0
 10
-127.3757
 20
-211.9411
 30
0.0
 10
-126.9665
 20
-211.8942
 30
0.0
 10
-126.6165
 20
-211.8681
 30
0.0
 10
-126.3174
 20
-211.8628
 30
0.0
  0
SPLINE
  5
8D
330
1F
100
AcDbEntity
  8
layer 1
370
     9
100
AcDbSpline
210
0.0
220
0.0
230
1.0
 70
    11
 71
     3
 72
    48
 73
    44
 74
     0
 42
0.0000000001
 43
0.0000000001
 12
1.0
 22
0.0
 32
0.0
 13
1.0
 23
0.0
 33
0.0
 40
0.0
 40
0.0
 40
0.0
 40
0.0
 40
0.0833333333333333
 40
0.0833333333333333
 40
0.0833333333333333
 40
0.0833333333333333
 40
0.1666666666666667
 40
0.1666666666666667
 40
0.1666666666666667
 40
0.1666666666666667
 40
0.25
 40
0.25
 40
0.25
 40
0.25
 40
0.3333333333333333
 40
0.3333333333333333
 40
0.3333333333333333
 40
0.3333333333333333
 40
0.4166666666666667
 40
0.4166666666666667
 40
0.4166666666666667
 40
0.4166666666666667
 40
0.5
 40
0.5
 40
0.5
 40
0.5
 40
0.5833333333333334
 40
0.5833333333333334
 40
0.5833333333333334
 40
0.5833333333333334
 40
0.6666666666666666
 40
0.6666666666666666
 40
0.6666666666666666
 40
0.6666666666666666
 40
0.75
 40
0.75
 40
0.75
 40
0.75
 40
0.8333333333333334
 40
0.8333333333333334
 40
0.8333333333333334
 40
0.8333333333333334
 40
1.0
 40
1.0
 40
1.0
 40
1.0
 10
85.3493
 20
-212.0734
 30
0.0
 10
85.4114
 20
-212.0706
 30
0.0
 10
85.4788
 20
-212.0734
 30
0.0
 10
85.5437
 20
-212.0734
 30
0.0
 10
85.5437
 20
-212.0734
 30
0.0
 10
86.4669
 20
-212.0858
 30
0.0
 10
87.5954
 20
-212.5338
 30
0.0
 10
88.6467
 20
-212.7349
 30
0.0
 10
88.6467
 20
-212.7349
 30
0.0
 10
88.6467
 20
-212.7349
 30
0.0
 10
88.6467
 20
-231.9532
 30
0.0
 10
88.6467
 20
-231.9532
 30
0.0
 10
88.6467
 20
-231.9532
 30
0.0
 10
88.6467
 20
-233.36
 30
0.0
 10
88.3712
 20
-234.7024
 30
0.0
 10
87.8628
 20
-235.9219
 30
0.0
 10
87.8628
 20
-235.9219
 30
0.0
 10
84.6466
 20
-236.7996
 30
0.0
 10
81.4702
 20
-237.574
 30
0.0
 10
80.1458
 20
-235.8076
 30
0.0
 10
80.1458
 20
-235.8076
 30
0.0
 10
77.9311
 20
-233.1671
 30
0.0
 10
72.7925
 20
-229.6682
 30
0.0
 10
78.1794
 20
-226.6255
 30
0.0
 10
78.1794
 20
-226.6255
 30
0.0
 10
82.8728
 20
-225.3026
 30
0.0
 10
80.1501
 20
-219.2944
 30
0.0
 10
83.0301
 20
-218.7501
 30
0.0
 10
83.0301
 20
-218.7501
 30
0.0
 10
85.647
 20
-220.1404
 30
0.0
 10
87.3887
 20
-218.4732
 30
0.0
 10
84.0084
 20
-216.7135
 30
0.0
 10
84.0084
 20
-216.7135
 30
0.0
 10
79.4692
 20
-214.1407
 30
0.0
 10
84.915
 20
-216.3343
 30
0.0
 10
85.3232
 20
-216.0161
 30
0.0
 10
85.3232
 20
-216.0161
 30
0.0
 10
90.7913
 20
-215.8023
 30
0.0
 10
83.2132
 20
-213.7022
 30
0.0
 10
84.237
 20
-212.5765
 30
0.0
 10
84.237
 20
-212.5765
 30
0.0
 10
84.539
 20
-212.2456
 30
0.0
 10
84.915
 20
-212.0995
 30
0.0
 10
85.3493
 20
-212.0734
 30
0.0
  0
SPLINE
  5
8E
330
1F
100
AcDbEntity
  8
layer 1
370
     9
100
AcDbSpline
210
0.0
220
0.0
230
1.0
 70
    11
 71
     3
 72
    56
 73
    52
 74
     0
 42
0.0000000001
 43
0.0000000001
 12
1.0
 22
0.0
 32
0.0
 13
1.0
 23
0.0
 33
0.0
 40
0.0
 40
0.0
 40
0.0
 40
0.0
 40
0.0714285714285714
 40
0.0714285714285714
 40
0.0714285714285714
 40
0.0714285714285714
 40
0.1428571428571428
 40
0.1428571428571428
 40
0.1428571428571428
 40
0.1428571428571428
 40
0.2142857142857143
 40
0.2142857142857143
 40
0.2142857142857143
 40
0.2142857142857143
 40
0.2857142857142857
 40
0.2857142857142857
 40
0.2857142857142857
 40
0.2857142857142857
 40
0.3571428571428572
 40
0.3571428571428572
 40
0.3571428571428572
 40
0.3571428571428572
 40
0.4285714285714285
 40
0.4285714285714285
 40
0.4285714285714285
 40
0.4285714285714285
 40
0.5
 40
0.5
 40
0.5
 40
0.5
 40
0.5714285714285714
 40
0.5714285714285714
 40
0.5714285714285714
 40
0.5714285714285714
 40
0.6428571428571429
 40
0.6428571428571429
 40
0.6428571428571429
 40
0.6428571428571429
 40
0.7142857142857143
 40
0.7142857142857143
 40
0.7142857142857143
 40
0.7142857142857143
 40
0.7857142857142857
 40
0.7857142857142857
 40
0.7857142857142857
 40
0.7857142857142857
 40
0.8571428571428571
 40
0.8571428571428571
 40
0.8571428571428571
 40
0.8571428571428571
 40
1.0
 40
1.0
 40
1.0
 40
1.0
 10
-19.2754
 20
-216.6955
 30
0.0
 10
-16.0359
 20
-216.6183
 30
0.0
 10
-12.9021
 20
-217.853
 30
0.0
 10
-10.1473
 20
-219.4116
 30
0.0
 10
-10.1473
 20
-219.4116
 30
0.0
 10
-9.4005
 20
-219.8455
 30
0.0
 10
-10.6271
 20
-220.7151
 30
0.0
 10
-10.9509
 20
-220.7705
 30
0.0
 10
-10.9509
 20
-220.7705
 30
0.0
 10
-12.2036
 20
-221.2305
 30
0.0
 10
-13.5968
 20
-219.5576
 30
0.0
 10
-14.8315
 20
-219.4557
 30
0.0
 10
-14.8315
 20
-219.4557
 30
0.0
 10
-16.1682
 20
-219.7562
 30
0.0
 10
-14.9803
 20
-221.0502
 30
0.0
 10
-15.8277
 20
-221.0513
 30
0.0
 10
-15.8277
 20
-221.0513
 30
0.0
 10
-17.9994
 20
-221.2926
 30
0.0
 10
-17.2981
 20
-219.1526
 30
0.0
 10
-18.4997
 20
-218.9526
 30
0.0
 10
-18.4997
 20
-218.9526
 30
0.0
 10
-20.2127
 20
-218.6979
 30
0.0
 10
-19.8737
 20
-221.5875
 30
0.0
 10
-21.9572
 20
-221.0693
 30
0.0
 10
-21.9572
 20
-221.0693
 30
0.0
 10
-22.9193
 20
-220.7373
 30
0.0
 10
-22.007
 20
-219.7368
 30
0.0
 10
-22.4243
 20
-219.1731
 30
0.0
 10
-22.4243
 20
-219.1731
 30
0.0
 10
-23.1094
 20
-218.6358
 30
0.0
 10
-24.0422
 20
-219.3068
 30
0.0
 10
-24.7876
 20
-219.4475
 30
0.0
 10
-24.7876
 20
-219.4475
 30
0.0
 10
-25.6999
 20
-219.7947
 30
0.0
 10
-26.6467
 20
-220.0716
 30
0.0
 10
-27.5315
 20
-220.4618
 30
0.0
 10
-27.5315
 20
-220.4618
 30
0.0
 10
-28.1143
 20
-220.696
 30
0.0
 10
-29.1603
 20
-220.2963
 30
0.0
 10
-28.7122
 20
-219.588
 30
0.0
 10
-28.7122
 20
-219.588
 30
0.0
 10
-28.3732
 20
-219.2105
 30
0.0
 10
-27.9255
 20
-218.9417
 30
0.0
 10
-27.4694
 20
-218.7141
 30
0.0
 10
-27.4694
 20
-218.7141
 30
0.0
 10
-25.0991
 20
-217.6505
 30
0.0
 10
-22.5372
 20
-216.927
 30
0.0
 10
-19.9206
 20
-216.7297
 30
0.0
 10
-19.9206
 20
-216.7297
 30
0.0
 10
-19.7026
 20
-216.7135
 30
0.0
 10
-19.492
 20
-216.7008
 30
0.0
 10
-19.2754
 20
-216.6955
 30
0.0
  0
SPLINE
  5
8F
330
1F
100
AcDbEntity
  8
layer 1
370
     9
100
AcDbSpline
210
0.0
220
0.0
230
1.0
 70
    11
 71
     3
 72
    60
 73
    56
 74
     0
 42
0.0000000001
 43
0.0000000001
 12
1.0
 22
0.0
 32
0.0
 13
1.0
 23
0.0
 33
0.0
 40
0.0
 40
0.0
 40
0.0
 40
0.0
 40
0.0666666666666667
 40
0.0666666666666667
 40
0.0666666666666667
 40
0.0666666666666667
 40
0.1333333333333333
 40
0.1333333333333333
 40
0.1333333333333333
 40
0.1333333333333333
 40
0.2
 40
0.2
 40
0.2
 40
0.2
 40
0.2666666666666667
 40
0.2666666666666667
 40
0.2666666666666667
 40
0.2666666666666667
 40
0.3333333333333333
 40
0.3333333333333333
 40
0.3333333333333333
 40
0.3333333333333333
 40
0.4
 40
0.4
 40
0.4
 40
0.4
 40
0.4666666666666667
 40
0.4666666666666667
 40
0.4666666666666667
 40
0.4666666666666667
 40
0.5333333333333333
 40
0.5333333333333333
 40
0.5333333333333333
 40
0.5333333333333333
 40
0.6
 40
0.6
 40
0.6
 40
0.6
 40
0.6666666666666666
 40
0.6666666666666666
 40
0.6666666666666666
 40
0.6666666666666666
 40
0.7333333333333333
 40
0.7333333333333333
 40
0.7333333333333333
 40
0.7333333333333333
 40
0.8
 40
0.8
 40
0.8
 40
0.8
 40
0.8666666666666667
 40
0.8666666666666667
 40
0.8666666666666667
 40
0.8666666666666667
 40
1.0
 40
1.0
 40
1.0
 40
1.0
 10
26.682
 20
-218.6097
 30
0.0
 10
26.9258
 20
-218.6122
 30
0.0
 10
27.0955
 20
-218.633
 30
0.0
 10
27.1851
 20
-218.6799
 30
0.0
 10
27.1851
 20
-218.6799
 30
0.0
 10
24.5061
 20
-218.9099
 30
0.0
 10
19.9461
 20
-225.3301
 30
0.0
 10
21.0376
 20
-225.056
 30
0.0
 10
21.0376
 20
-225.056
 30
0.0
 10
22.6995
 20
-222.129
 30
0.0
 10
31.2515
 20
-222.3964
 30
0.0
 10
30.6508
 20
-222.9654
 30
0.0
 10
30.6508
 20
-222.9654
 30
0.0
 10
26.2894
 20
-224.8038
 30
0.0
 10
24.0101
 20
-230.5459
 30
0.0
 10
20.3401
 20
-232.3059
 30
0.0
 10
20.3401
 20
-232.3059
 30
0.0
 10
25.69
 20
-234.012
 30
0.0
 10
27.3586
 20
-228.5894
 30
0.0
 10
31.1538
 20
-226.5814
 30
0.0
 10
31.1538
 20
-226.5814
 30
0.0
 10
33.6868
 20
-224.7611
 30
0.0
 10
36.2264
 20
-225.8692
 30
0.0
 10
32.9618
 20
-228.1167
 30
0.0
 10
32.9618
 20
-228.1167
 30
0.0
 10
31.0201
 20
-229.7208
 30
0.0
 10
30.5707
 20
-233.7322
 30
0.0
 10
34.5493
 20
-230.6743
 30
0.0
 10
34.5493
 20
-230.6743
 30
0.0
 10
38.4683
 20
-227.5463
 30
0.0
 10
38.1265
 20
-228.7962
 30
0.0
 10
38.905
 20
-232.773
 30
0.0
 10
38.905
 20
-232.773
 30
0.0
 10
41.2246
 20
-236.1368
 30
0.0
 10
44.6462
 20
-238.3705
 30
0.0
 10
46.694
 20
-241.9371
 30
0.0
 10
46.694
 20
-241.9371
 30
0.0
 10
46.7974
 20
-242.0334
 30
0.0
 10
46.906
 20
-242.1245
 30
0.0
 10
47.0108
 20
-242.2179
 30
0.0
 10
47.0108
 20
-242.2179
 30
0.0
 10
47.0108
 20
-242.2179
 30
0.0
 10
28.913
 20
-242.2179
 30
0.0
 10
28.913
 20
-242.2179
 30
0.0
 10
28.913
 20
-242.2179
 30
0.0
 10
23.2258
 20
-242.2179
 30
0.0
 10
18.6482
 20
-237.6403
 30
0.0
 10
18.6482
 20
-231.9532
 30
0.0
 10
18.6482
 20
-231.9532
 30
0.0
 10
18.6482
 20
-231.9532
 30
0.0
 10
18.6482
 20
-219.2973
 30
0.0
 10
18.6482
 20
-219.2973
 30
0.0
 10
18.6482
 20
-219.2973
 30
0.0
 10
21.3822
 20
-219.2366
 30
0.0
 10
25.2391
 20
-218.5917
 30
0.0
 10
26.682
 20
-218.6097
 30
0.0
  0
SPLINE
  5
90
330
1F
100
AcDbEntity
  8
layer 1
370
     9
100
AcDbSpline
210
0.0
220
0.0
230
1.0
 70
    11
 71
     3
 72
    40
 73
    36
 74
     0
 42
0.0000000001
 43
0.0000000001
 12
1.0
 22
0.0
 32
0.0
 13
1.0
 23
0.0
 33
0.0
 40
0.0
 40
0.0
 40
0.0
 40
0.0
 40
0.1
 40
0.1
 40
0.1
 40
0.1
 40
0.2
 40
0.2
 40
0.2
 40
0.2
 40
0.3
 40
0.3
 40
0.3
 40
0.3
 40
0.4
 40
0.4
 40
0.4
 40
0.4
 40
0.5
 40
0.5
 40
0.5
 40
0.5
 40
0.6
 40
0.6
 40
0.6
 40
0.6
 40
0.7
 40
0.7
 40
0.7
 40
0.7
 40
0.8
 40
0.8
 40
0.8
 40
0.8
 40
1.0
 40
1.0
 40
1.0
 40
1.0
 10
-98.007
 20
-219.8525
 30
0.0
 10
-94.9424
 20
-220.1693
 30
0.0
 10
-91.7384
 20
-221.1769
 30
0.0
 10
-88.6322
 20
-221.0432
 30
0.0
 10
-88.6322
 20
-221.0432
 30
0.0
 10
-88.6322
 20
-221.0432
 30
0.0
 10
-88.6322
 20
-231.9532
 30
0.0
 10
-88.6322
 20
-231.9532
 30
0.0
 10
-88.6322
 20
-231.9532
 30
0.0
 10
-88.6322
 20
-237.6403
 30
0.0
 10
-93.2113
 20
-242.2179
 30
0.0
 10
-98.8988
 20
-242.2179
 30
0.0
 10
-98.8988
 20
-242.2179
 30
0.0
 10
-98.8988
 20
-242.2179
 30
0.0
 10
-102.0558
 20
-242.2179
 30
0.0
 10
-102.0558
 20
-242.2179
 30
0.0
 10
-102.0558
 20
-242.2179
 30
0.0
 10
-100.0838
 20
-240.9984
 30
0.0
 10
-102.4181
 20
-234.9281
 30
0.0
 10
-99.859
 20
-233.2581
 30
0.0
 10
-99.859
 20
-233.2581
 30
0.0
 10
-98.3403
 20
-231.8854
 30
0.0
 10
-93.2653
 20
-226.7373
 30
0.0
 10
-97.6722
 20
-226.6516
 30
0.0
 10
-97.6722
 20
-226.6516
 30
0.0
 10
-102.7543
 20
-227.7085
 30
0.0
 10
-108.108
 20
-230.0898
 30
0.0
 10
-113.2907
 20
-228.4155
 30
0.0
 10
-113.2907
 20
-228.4155
 30
0.0
 10
-115.1968
 20
-227.0086
 30
0.0
 10
-122.8351
 20
-225.5908
 30
0.0
 10
-117.1811
 20
-224.6411
 30
0.0
 10
-117.1811
 20
-224.6411
 30
0.0
 10
-110.8971
 20
-222.6804
 30
0.0
 10
-104.5499
 20
-220.6862
 30
0.0
 10
-98.007
 20
-219.8525
 30
0.0
  0
SPLINE
  5
91
330
1F
100
AcDbEntity
  8
layer 1
370
     9
100
AcDbSpline
210
0.0
220
0.0
230
1.0
 70
    11
 71
     3
 72
    24
 73
    20
 74
     0
 42
0.0000000001
 43
0.0000000001
 12
1.0
 22
0.0
 32
0.0
 13
1.0
 23
0.0
 33
0.0
 40
0.0
 40
0.0
 40
0.0
 40
0.0
 40
0.1666666666666667
 40
0.1666666666666667
 40
0.1666666666666667
 40
0.1666666666666667
 40
0.3333333333333333
 40
0.3333333333333333
 40
0.3333333333333333
 40
0.3333333333333333
 40
0.5
 40
0.5
 40
0.5
 40
0.5
 40
0.6666666666666666
 40
0.6666666666666666
 40
0.6666666666666666
 40
0.6666666666666666
 40
1.0
 40
1.0
 40
1.0
 40
1.0
 10
-139.1317
 20
-222.9573
 30
0.0
 10
-137.1321
 20
-222.945
 30
0.0
 10
-135.1657
 20
-223.3405
 30
0.0
 10
-132.3587
 20
-224.4909
 30
0.0
 10
-132.3587
 20
-224.4909
 30
0.0
 10
-140.9439
 20
-226.8061
 30
0.0
 10
-149.8018
 20
-227.6757
 30
0.0
 10
-158.6325
 20
-228.4596
 30
0.0
 10
-158.6325
 20
-228.4596
 30
0.0
 10
-158.6325
 20
-228.4596
 30
0.0
 10
-158.6325
 20
-223.2219
 30
0.0
 10
-158.6325
 20
-223.2219
 30
0.0
 10
-158.6325
 20
-223.2219
 30
0.0
 10
-155.1375
 20
-226.2219
 30
0.0
 10
-150.1891
 20
-224.258
 30
0.0
 10
-146.1089
 20
-223.8735
 30
0.0
 10
-146.1089
 20
-223.8735
 30
0.0
 10
-143.1625
 20
-223.387
 30
0.0
 10
-141.1326
 20
-222.9697
 30
0.0
 10
-139.1317
 20
-222.9573
 30
0.0
  0
SPLINE
  5
92
330
1F
100
AcDbEntity
  8
layer 1
370
     9
100
AcDbSpline
210
0.0
220
0.0
230
1.0
 70
    11
 71
     3
 72
    20
 73
    16
 74
     0
 42
0.0000000001
 43
0.0000000001
 12
1.0
 22
0.0
 32
0.0
 13
1.0
 23
0.0
 33
0.0
 40
0.0
 40
0.0
 40
0.0
 40
0.0
 40
0.2
 40
0.2
 40
0.2
 40
0.2
 40
0.4
 40
0.4
 40
0.4
 40
0.4
 40
0.6
 40
0.6
 40
0.6
 40
0.6
 40
1.0
 40
1.0
 40
1.0
 40
1.0
 10
-14.557
 20
-223.8573
 30
0.0
 10
-13.0538
 20
-223.8573
 30
0.0
 10
-11.7267
 20
-228.7284
 30
0.0
 10
-11.7267
 20
-230.1191
 30
0.0
 10
-11.7267
 20
-230.1191
 30
0.0
 10
-11.7267
 20
-231.508
 30
0.0
 10
-12.5508
 20
-229.077
 30
0.0
 10
-14.0557
 20
-229.077
 30
0.0
 10
-14.0557
 20
-229.077
 30
0.0
 10
-15.5589
 20
-229.077
 30
0.0
 10
-17.1686
 20
-231.508
 30
0.0
 10
-17.1686
 20
-230.1191
 30
0.0
 10
-17.1686
 20
-230.1191
 30
0.0
 10
-17.1686
 20
-228.7284
 30
0.0
 10
-16.062
 20
-223.8573
 30
0.0
 10
-14.557
 20
-223.8573
 30
0.0
  0
SPLINE
  5
93
330
1F
100
AcDbEntity
  8
layer 1
370
     9
100
AcDbSpline
210
0.0
220
0.0
230
1.0
 70
    11
 71
     3
 72
    20
 73
    16
 74
     0
 42
0.0000000001
 43
0.0000000001
 12
1.0
 22
0.0
 32
0.0
 13
1.0
 23
0.0
 33
0.0
 40
0.0
 40
0.0
 40
0.0
 40
0.0
 40
0.2
 40
0.2
 40
0.2
 40
0.2
 40
0.4
 40
0.4
 40
0.4
 40
0.4
 40
0.6
 40
0.6
 40
0.6
 40
0.6
 40
1.0
 40
1.0
 40
1.0
 40
1.0
 10
-23.8615
 20
-224.0598
 30
0.0
 10
-22.3583
 20
-224.0598
 30
0.0
 10
-21.0312
 20
-228.9408
 30
0.0
 10
-21.0312
 20
-230.3297
 30
0.0
 10
-21.0312
 20
-230.3297
 30
0.0
 10
-21.0312
 20
-231.7203
 30
0.0
 10
-22.2522
 20
-229.2812
 30
0.0
 10
-23.7571
 20
-229.2812
 30
0.0
 10
-23.7571
 20
-229.2812
 30
0.0
 10
-25.2603
 20
-229.2812
 30
0.0
 10
-26.4731
 20
-231.7203
 30
0.0
 10
-26.4731
 20
-230.3297
 30
0.0
 10
-26.4731
 20
-230.3297
 30
0.0
 10
-26.4731
 20
-228.9408
 30
0.0
 10
-25.3665
 20
-224.0598
 30
0.0
 10
-23.8615
 20
-224.0598
 30
0.0
  0
SPLINE
  5
94
330
1F
100
AcDbEntity
  8
layer 1
370
     9
100
AcDbSpline
210
0.0
220
0.0
230
1.0
 70
    11
 71
     3
 72
    40
 73
    36
 74
     0
 42
0.0000000001
 43
0.0000000001
 12
1.0
 22
0.0
 32
0.0
 13
1.0
 23
0.0
 33
0.0
 40
0.0
 40
0.0
 40
0.0
 40
0.0
 40
0.1
 40
0.1
 40
0.1
 40
0.1
 40
0.2
 40
0.2
 40
0.2
 40
0.2
 40
0.3
 40
0.3
 40
0.3
 40
0.3
 40
0.4
 40
0.4
 40
0.4
 40
0.4
 40
0.5
 40
0.5
 40
0.5
 40
0.5
 40
0.6
 40
0.6
 40
0.6
 40
0.6
 40
0.7
 40
0.7
 40
0.7
 40
0.7
 40
0.8
 40
0.8
 40
0.8
 40
0.8
 40
1.0
 40
1.0
 40
1.0
 40
1.0
 10
46.137
 20
-225.7975
 30
0.0
 10
49.1938
 20
-225.7203
 30
0.0
 10
53.5041
 20
-227.9195
 30
0.0
 10
54.8961
 20
-231.1495
 30
0.0
 10
54.8961
 20
-231.1495
 30
0.0
 10
57.6591
 20
-232.3335
 30
0.0
 10
54.7084
 20
-226.9716
 30
0.0
 10
58.4581
 20
-228.7602
 30
0.0
 10
58.4581
 20
-228.7602
 30
0.0
 10
57.4012
 20
-233.1822
 30
0.0
 10
62.0261
 20
-231.4847
 30
0.0
 10
62.0219
 20
-228.3633
 30
0.0
 10
62.0219
 20
-228.3633
 30
0.0
 10
66.2026
 20
-226.543
 30
0.0
 10
69.6616
 20
-231.4459
 30
0.0
 10
64.9224
 20
-233.4966
 30
0.0
 10
64.9224
 20
-233.4966
 30
0.0
 10
62.544
 20
-236.3326
 30
0.0
 10
63.572
 20
-228.2793
 30
0.0
 10
61.0337
 20
-232.9233
 30
0.0
 10
61.0337
 20
-232.9233
 30
0.0
 10
60.6975
 20
-238.04
 30
0.0
 10
50.8169
 20
-234.8703
 30
0.0
 10
51.7913
 20
-230.8948
 30
0.0
 10
51.7913
 20
-230.8948
 30
0.0
 10
51.1147
 20
-226.4258
 30
0.0
 10
48.9444
 20
-233.7086
 30
0.0
 10
47.2493
 20
-229.2975
 30
0.0
 10
47.2493
 20
-229.2975
 30
0.0
 10
46.1483
 20
-228.3453
 30
0.0
 10
42.5461
 20
-228.2021
 30
0.0
 10
43.96
 20
-226.423
 30
0.0
 10
43.96
 20
-226.423
 30
0.0
 10
44.5262
 20
-226.018
 30
0.0
 10
45.2829
 20
-225.818
 30
0.0
 10
46.137
 20
-225.7975
 30
0.0
  0
SPLINE
  5
95
330
1F
100
AcDbEntity
  8
layer 1
370
     9
100
AcDbSpline
210
0.0
220
0.0
230
1.0
 70
    11
 71
     3
 72
    32
 73
    28
 74
     0
 42
0.0000000001
 43
0.0000000001
 12
1.0
 22
0.0
 32
0.0
 13
1.0
 23
0.0
 33
0.0
 40
0.0
 40
0.0
 40
0.0
 40
0.0
 40
0.125
 40
0.125
 40
0.125
 40
0.125
 40
0.25
 40
0.25
 40
0.25
 40
0.25
 40
0.375
 40
0.375
 40
0.375
 40
0.375
 40
0.5
 40
0.5
 40
0.5
 40
0.5
 40
0.625
 40
0.625
 40
0.625
 40
0.625
 40
0.75
 40
0.75
 40
0.75
 40
0.75
 40
1.0
 40
1.0
 40
1.0
 40
1.0
 10
-124.0342
 20
-227.2528
 30
0.0
 10
-122.8944
 20
-227.2168
 30
0.0
 10
-121.7768
 20
-227.5501
 30
0.0
 10
-120.699
 20
-228.5217
 30
0.0
 10
-120.699
 20
-228.5217
 30
0.0
 10
-114.4002
 20
-231.7835
 30
0.0
 10
-108.9431
 20
-236.5005
 30
0.0
 10
-104.5513
 20
-242.0514
 30
0.0
 10
-104.5513
 20
-242.0514
 30
0.0
 10
-104.3831
 20
-242.116
 30
0.0
 10
-104.2275
 20
-242.1714
 30
0.0
 10
-104.0744
 20
-242.2179
 30
0.0
 10
-104.0744
 20
-242.2179
 30
0.0
 10
-104.0744
 20
-242.2179
 30
0.0
 10
-146.5058
 20
-242.2179
 30
0.0
 10
-146.5058
 20
-242.2179
 30
0.0
 10
-146.5058
 20
-242.2179
 30
0.0
 10
-144.1436
 20
-241.4891
 30
0.0
 10
-142.1843
 20
-239.2871
 30
0.0
 10
-140.9936
 20
-237.1125
 30
0.0
 10
-140.9936
 20
-237.1125
 30
0.0
 10
-139.078
 20
-233.3833
 30
0.0
 10
-135.5612
 20
-231.0561
 30
0.0
 10
-131.6351
 20
-229.8626
 30
0.0
 10
-131.6351
 20
-229.8626
 30
0.0
 10
-129.1438
 20
-229.1817
 30
0.0
 10
-126.5393
 20
-227.3297
 30
0.0
 10
-124.0342
 20
-227.2528
 30
0.0
  0
SPLINE
  5
96
330
1F
100
AcDbEntity
  8
layer 1
370
     9
100
AcDbSpline
210
0.0
220
0.0
230
1.0
 70
    11
 71
     3
 72
    16
 73
    12
 74
     0
 42
0.0000000001
 43
0.0000000001
 12
1.0
 22
0.0
 32
0.0
 13
1.0
 23
0.0
 33
0.0
 40
0.0
 40
0.0
 40
0.0
 40
0.0
 40
0.25
 40
0.25
 40
0.25
 40
0.25
 40
0.5
 40
0.5
 40
0.5
 40
0.5
 40
1.0
 40
1.0
 40
1.0
 40
1.0
 10
-158.5182
 20
-233.5227
 30
0.0
 10
-156.1782
 20
-234.9684
 30
0.0
 10
-153.2706
 20
-235.9907
 30
0.0
 10
-151.7435
 20
-235.3666
 30
0.0
 10
-151.7435
 20
-235.3666
 30
0.0
 10
-147.2635
 20
-235.0894
 30
0.0
 10
-155.0095
 20
-240.8636
 30
0.0
 10
-150.7832
 20
-241.9273
 30
0.0
 10
-150.7832
 20
-241.9273
 30
0.0
 10
-154.8014
 20
-240.9656
 30
0.0
 10
-157.8882
 20
-237.6622
 30
0.0
 10
-158.5182
 20
-233.5227
 30
0.0
  0
SPLINE
  5
97
330
1F
100
AcDbEntity
  8
layer 1
370
     9
100
AcDbSpline
210
0.0
220
0.0
230
1.0
 70
    11
 71
     3
 72
    20
 73
    16
 74
     0
 42
0.0000000001
 43
0.0000000001
 12
1.0
 22
0.0
 32
0.0
 13
1.0
 23
0.0
 33
0.0
 40
0.0
 40
0.0
 40
0.0
 40
0.0
 40
0.2
 40
0.2
 40
0.2
 40
0.2
 40
0.4
 40
0.4
 40
0.4
 40
0.4
 40
0.6
 40
0.6
 40
0.6
 40
0.6
 40
1.0
 40
1.0
 40
1.0
 40
1.0
 10
-18.8263
 20
-234.3524
 30
0.0
 10
-16.7083
 20
-234.3524
 30
0.0
 10
-14.9899
 20
-236.1163
 30
0.0
 10
-14.9899
 20
-238.0728
 30
0.0
 10
-14.9899
 20
-238.0728
 30
0.0
 10
-14.9899
 20
-240.0311
 30
0.0
 10
-16.8667
 20
-243.2862
 30
0.0
 10
-18.9847
 20
-243.2862
 30
0.0
 10
-18.9847
 20
-243.2862
 30
0.0
 10
-21.1042
 20
-243.2862
 30
0.0
 10
-22.6628
 20
-240.0311
 30
0.0
 10
-22.6628
 20
-238.0728
 30
0.0
 10
-22.6628
 20
-238.0728
 30
0.0
 10
-22.6628
 20
-236.1163
 30
0.0
 10
-20.9444
 20
-234.3524
 30
0.0
 10
-18.8263
 20
-234.3524
 30
0.0
  0
SPLINE
  5
98
330
1F
100
AcDbEntity
  8
layer 1
370
     9
100
AcDbSpline
210
0.0
220
0.0
230
1.0
 70
    11
 71
     3
 72
    40
 73
    36
 74
     0
 42
0.0000000001
 43
0.0000000001
 12
1.0
 22
0.0
 32
0.0
 13
1.0
 23
0.0
 33
0.0
 40
0.0
 40
0.0
 40
0.0
 40
0.0
 40
0.1
 40
0.1
 40
0.1
 40
0.1
 40
0.2
 40
0.2
 40
0.2
 40
0.2
 40
0.3
 40
0.3
 40
0.3
 40
0.3
 40
0.4
 40
0.4
 40
0.4
 40
0.4
 40
0.5
 40
0.5
 40
0.5
 40
0.5
 40
0.6
 40
0.6
 40
0.6
 40
0.6
 40
0.7
 40
0.7
 40
0.7
 40
0.7
 40
0.8
 40
0.8
 40
0.8
 40
0.8
 40
1.0
 40
1.0
 40
1.0
 40
1.0
 10
113.8001
 20
-237.0864
 30
0.0
 10
114.3833
 20
-237.1097
 30
0.0
 10
114.9551
 20
-237.2738
 30
0.0
 10
115.4677
 20
-237.6156
 30
0.0
 10
115.4677
 20
-237.6156
 30
0.0
 10
116.03
 20
-237.8195
 30
0.0
 10
116.151
 20
-238.0827
 30
0.0
 10
116.1553
 20
-238.1889
 30
0.0
 10
116.1553
 20
-238.1889
 30
0.0
 10
116.1415
 20
-238.1737
 30
0.0
 10
116.1263
 20
-238.1585
 30
0.0
 10
116.1112
 20
-238.1448
 30
0.0
 10
116.1112
 20
-238.1448
 30
0.0
 10
116.1112
 20
-238.2577
 30
0.0
 10
116.1553
 20
-238.2577
 30
0.0
 10
116.1553
 20
-238.197
 30
0.0
 10
116.1553
 20
-238.197
 30
0.0
 10
117.2425
 20
-239.3407
 30
0.0
 10
117.8684
 20
-240.803
 30
0.0
 10
118.5545
 20
-242.2179
 30
0.0
 10
118.5545
 20
-242.2179
 30
0.0
 10
118.5545
 20
-242.2179
 30
0.0
 10
117.5142
 20
-242.2179
 30
0.0
 10
117.5142
 20
-242.2179
 30
0.0
 10
117.5142
 20
-242.2179
 30
0.0
 10
115.8258
 20
-242.2179
 30
0.0
 10
114.2411
 20
-241.8144
 30
0.0
 10
112.8399
 20
-241.0993
 30
0.0
 10
112.8399
 20
-241.0993
 30
0.0
 10
112.7806
 20
-240.756
 30
0.0
 10
112.6977
 20
-240.3687
 30
0.0
 10
112.5834
 20
-239.9168
 30
0.0
 10
112.5834
 20
-239.9168
 30
0.0
 10
112.5834
 20
-239.9168
 30
0.0
 10
113.223
 20
-238.434
 30
0.0
 10
113.8001
 20
-237.0864
 30
0.0
  0
SPLINE
  5
99
330
1F
100
AcDbEntity
  8
layer 1
370
     9
100
AcDbSpline
210
0.0
220
0.0
230
1.0
 70
    11
 71
     3
 72
    44
 73
    40
 74
     0
 42
0.0000000001
 43
0.0000000001
 12
1.0
 22
0.0
 32
0.0
 13
1.0
 23
0.0
 33
0.0
 40
0.0
 40
0.0
 40
0.0
 40
0.0
 40
0.0909090909090909
 40
0.0909090909090909
 40
0.0909090909090909
 40
0.0909090909090909
 40
0.1818181818181818
 40
0.1818181818181818
 40
0.1818181818181818
 40
0.1818181818181818
 40
0.2727272727272727
 40
0.2727272727272727
 40
0.2727272727272727
 40
0.2727272727272727
 40
0.3636363636363636
 40
0.3636363636363636
 40
0.3636363636363636
 40
0.3636363636363636
 40
0.4545454545454545
 40
0.4545454545454545
 40
0.4545454545454545
 40
0.4545454545454545
 40
0.5454545454545454
 40
0.5454545454545454
 40
0.5454545454545454
 40
0.5454545454545454
 40
0.6363636363636364
 40
0.6363636363636364
 40
0.6363636363636364
 40
0.6363636363636364
 40
0.7272727272727273
 40
0.7272727272727273
 40
0.7272727272727273
 40
0.7272727272727273
 40
0.8181818181818182
 40
0.8181818181818182
 40
0.8181818181818182
 40
0.8181818181818182
 40
1.0
 40
1.0
 40
1.0
 40
1.0
 10
157.721
 20
-237.0864
 30
0.0
 10
158.0409
 20
-237.085
 30
0.0
 10
158.3591
 20
-237.1249
 30
0.0
 10
158.6731
 20
-237.2007
 30
0.0
 10
158.6731
 20
-237.2007
 30
0.0
 10
158.6304
 20
-239.5351
 30
0.0
 10
158.5849
 20
-241.7897
 30
0.0
 10
158.5768
 20
-242.2179
 30
0.0
 10
158.5768
 20
-242.2179
 30
0.0
 10
158.5768
 20
-242.2179
 30
0.0
 10
155.949
 20
-242.2179
 30
0.0
 10
155.949
 20
-242.2179
 30
0.0
 10
155.949
 20
-242.2179
 30
0.0
 10
155.4639
 20
-242.189
 30
0.0
 10
154.983
 20
-242.1477
 30
0.0
 10
154.5117
 20
-242.0775
 30
0.0
 10
154.5117
 20
-242.0775
 30
0.0
 10
153.9547
 20
-242.1036
 30
0.0
 10
153.4231
 20
-242.0818
 30
0.0
 10
152.9062
 20
-242.0253
 30
0.0
 10
152.9062
 20
-242.0253
 30
0.0
 10
153.5649
 20
-240.6484
 30
0.0
 10
154.1946
 20
-239.243
 30
0.0
 10
155.2614
 20
-238.1448
 30
0.0
 10
155.2614
 20
-238.1448
 30
0.0
 10
155.9214
 20
-238.718
 30
0.0
 10
156.3487
 20
-239.5199
 30
0.0
 10
156.7166
 20
-240.3055
 30
0.0
 10
156.7166
 20
-240.3055
 30
0.0
 10
157.0718
 20
-241.179
 30
0.0
 10
156.9272
 20
-240.4858
 30
0.0
 10
156.8129
 20
-239.9429
 30
0.0
 10
156.8129
 20
-239.9429
 30
0.0
 10
156.7
 20
-239.1135
 30
0.0
 10
156.27
 20
-238.288
 30
0.0
 10
155.9049
 20
-237.6156
 30
0.0
 10
155.9049
 20
-237.6156
 30
0.0
 10
156.4601
 20
-237.2448
 30
0.0
 10
157.0884
 20
-237.0864
 30
0.0
 10
157.721
 20
-237.0864
 30
0.0
  0
SPLINE
  5
9A
330
1F
100
AcDbEntity
  8
layer 1
370
     9
100
AcDbSpline
210
0.0
220
0.0
230
1.0
 70
    11
 71
     3
 72
    16
 73
    12
 74
     0
 42
0.0000000001
 43
0.0000000001
 12
1.0
 22
0.0
 32
0.0
 13
1.0
 23
0.0
 33
0.0
 40
0.0
 40
0.0
 40
0.0
 40
0.0
 40
0.25
 40
0.25
 40
0.25
 40
0.25
 40
0.5
 40
0.5
 40
0.5
 40
0.5
 40
1.0
 40
1.0
 40
1.0
 40
1.0
 10
-150.7031
 20
-241.9452
 30
0.0
 10
-150.5779
 20
-241.9742
 30
0.0
 10
-150.4428
 20
-242.0045
 30
0.0
 10
-150.2981
 20
-242.0253
 30
0.0
 10
-150.2981
 20
-242.0253
 30
0.0
 10
-150.2802
 20
-242.032
 30
0.0
 10
-150.2622
 20
-242.0349
 30
0.0
 10
-150.2442
 20
-242.0416
 30
0.0
 10
-150.2442
 20
-242.0416
 30
0.0
 10
-150.3987
 20
-242.014
 30
0.0
 10
-150.5514
 20
-241.9798
 30
0.0
 10
-150.7031
 20
-241.9452
 30
0.0
  0
SPLINE
  5
9B
330
1F
100
AcDbEntity
  8
layer 1
370
     9
100
AcDbSpline
210
0.0
220
0.0
230
1.0
 70
    11
 71
     3
 72
    36
 73
    32
 74
     0
 42
0.0000000001
 43
0.0000000001
 12
1.0
 22
0.0
 32
0.0
 13
1.0
 23
0.0
 33
0.0
 40
0.0
 40
0.0
 40
0.0
 40
0.0
 40
0.1111111111111111
 40
0.1111111111111111
 40
0.1111111111111111
 40
0.1111111111111111
 40
0.2222222222222222
 40
0.2222222222222222
 40
0.2222222222222222
 40
0.2222222222222222
 40
0.3333333333333333
 40
0.3333333333333333
 40
0.3333333333333333
 40
0.3333333333333333
 40
0.4444444444444444
 40
0.4444444444444444
 40
0.4444444444444444
 40
0.4444444444444444
 40
0.5555555555555556
 40
0.5555555555555556
 40
0.5555555555555556
 40
0.5555555555555556
 40
0.6666666666666666
 40
0.6666666666666666
 40
0.6666666666666666
 40
0.6666666666666666
 40
0.7777777777777778
 40
0.7777777777777778
 40
0.7777777777777778
 40
0.7777777777777778
 40
1.0
 40
1.0
 40
1.0
 40
1.0
 10
-139.6608
 20
-252.4404
 30
0.0
 10
-139.6608
 20
-252.4404
 30
0.0
 10
-107.5859
 20
-252.4404
 30
0.0
 10
-107.5859
 20
-252.4404
 30
0.0
 10
-107.5859
 20
-252.4404
 30
0.0
 10
-107.5859
 20
-252.4404
 30
0.0
 10
-107.5859
 20
-256.6557
 30
0.0
 10
-107.5859
 20
-256.6557
 30
0.0
 10
-107.5859
 20
-256.6557
 30
0.0
 10
-107.5859
 20
-256.6557
 30
0.0
 10
-120.5586
 20
-256.6557
 30
0.0
 10
-120.5586
 20
-256.6557
 30
0.0
 10
-120.5586
 20
-256.6557
 30
0.0
 10
-120.5586
 20
-256.6557
 30
0.0
 10
-120.5586
 20
-252.723
 30
0.0
 10
-120.5586
 20
-252.723
 30
0.0
 10
-120.5586
 20
-252.723
 30
0.0
 10
-120.5586
 20
-252.723
 30
0.0
 10
-126.6963
 20
-252.723
 30
0.0
 10
-126.6963
 20
-252.723
 30
0.0
 10
-126.6963
 20
-252.723
 30
0.0
 10
-126.6963
 20
-252.723
 30
0.0
 10
-126.6963
 20
-256.6557
 30
0.0
 10
-126.6963
 20
-256.6557
 30
0.0
 10
-126.6963
 20
-256.6557
 30
0.0
 10
-126.6963
 20
-256.6557
 30
0.0
 10
-139.6608
 20
-256.6557
 30
0.0
 10
-139.6608
 20
-256.6557
 30
0.0
 10
-139.6608
 20
-256.6557
 30
0.0
 10
-139.6608
 20
-256.6557
 30
0.0
 10
-139.6608
 20
-252.4404
 30
0.0
 10
-139.6608
 20
-252.4404
 30
0.0
  0
SPLINE
  5
9C
330
1F
100
AcDbEntity
  8
layer 1
370
     9
100
AcDbSpline
210
0.0
220
0.0
230
1.0
 70
    11
 71
     3
 72
    36
 73
    32
 74
     0
 42
0.0000000001
 43
0.0000000001
 12
1.0
 22
0.0
 32
0.0
 13
1.0
 23
0.0
 33
0.0
 40
0.0
 40
0.0
 40
0.0
 40
0.0
 40
0.1111111111111111
 40
0.1111111111111111
 40
0.1111111111111111
 40
0.1111111111111111
 40
0.2222222222222222
 40
0.2222222222222222
 40
0.2222222222222222
 40
0.2222222222222222
 40
0.3333333333333333
 40
0.3333333333333333
 40
0.3333333333333333
 40
0.3333333333333333
 40
0.4444444444444444
 40
0.4444444444444444
 40
0.4444444444444444
 40
0.4444444444444444
 40
0.5555555555555556
 40
0.5555555555555556
 40
0.5555555555555556
 40
0.5555555555555556
 40
0.6666666666666666
 40
0.6666666666666666
 40
0.6666666666666666
 40
0.6666666666666666
 40
0.7777777777777778
 40
0.7777777777777778
 40
0.7777777777777778
 40
0.7777777777777778
 40
1.0
 40
1.0
 40
1.0
 40
1.0
 10
38.2274
 20
-252.4404
 30
0.0
 10
38.2274
 20
-252.4404
 30
0.0
 10
70.3023
 20
-252.4404
 30
0.0
 10
70.3023
 20
-252.4404
 30
0.0
 10
70.3023
 20
-252.4404
 30
0.0
 10
70.3023
 20
-252.4404
 30
0.0
 10
70.3023
 20
-256.6557
 30
0.0
 10
70.3023
 20
-256.6557
 30
0.0
 10
70.3023
 20
-256.6557
 30
0.0
 10
70.3023
 20
-256.6557
 30
0.0
 10
57.3377
 20
-256.6557
 30
0.0
 10
57.3377
 20
-256.6557
 30
0.0
 10
57.3377
 20
-256.6557
 30
0.0
 10
57.3377
 20
-256.6557
 30
0.0
 10
57.3377
 20
-252.723
 30
0.0
 10
57.3377
 20
-252.723
 30
0.0
 10
57.3377
 20
-252.723
 30
0.0
 10
57.3377
 20
-252.723
 30
0.0
 10
51.1919
 20
-252.723
 30
0.0
 10
51.1919
 20
-252.723
 30
0.0
 10
51.1919
 20
-252.723
 30
0.0
 10
51.1919
 20
-252.723
 30
0.0
 10
51.1919
 20
-256.6557
 30
0.0
 10
51.1919
 20
-256.6557
 30
0.0
 10
51.1919
 20
-256.6557
 30
0.0
 10
51.1919
 20
-256.6557
 30
0.0
 10
38.2274
 20
-256.6557
 30
0.0
 10
38.2274
 20
-256.6557
 30
0.0
 10
38.2274
 20
-256.6557
 30
0.0
 10
38.2274
 20
-256.6557
 30
0.0
 10
38.2274
 20
-252.4404
 30
0.0
 10
38.2274
 20
-252.4404
 30
0.0
  0
SPLINE
  5
9D
330
1F
100
AcDbEntity
  8
layer 1
370
    15
100
AcDbSpline
210
0.0
220
0.0
230
1.0
 70
    11
 71
     3
 72
    96
 73
    92
 74
     0
 42
0.0000000001
 43
0.0000000001
 12
1.0
 22
0.0
 32
0.0
 13
1.0
 23
0.0
 33
0.0
 40
0.0
 40
0.0
 40
0.0
 40
0.0
 40
0.0416666666666667
 40
0.0416666666666667
 40
0.0416666666666667
 40
0.0416666666666667
 40
0.0833333333333333
 40
0.0833333333333333
 40
0.0833333333333333
 40
0.0833333333333333
 40
0.125
 40
0.125
 40
0.125
 40
0.125
 40
0.1666666666666667
 40
0.1666666666666667
 40
0.1666666666666667
 40
0.1666666666666667
 40
0.2083333333333333
 40
0.2083333333333333
 40
0.2083333333333333
 40
0.2083333333333333
 40
0.25
 40
0.25
 40
0.25
 40
0.25
 40
0.2916666666666667
 40
0.2916666666666667
 40
0.2916666666666667
 40
0.2916666666666667
 40
0.3333333333333333
 40
0.3333333333333333
 40
0.3333333333333333
 40
0.3333333333333333
 40
0.375
 40
0.375
 40
0.375
 40
0.375
 40
0.4166666666666667
 40
0.4166666666666667
 40
0.4166666666666667
 40
0.4166666666666667
 40
0.4583333333333333
 40
0.4583333333333333
 40
0.4583333333333333
 40
0.4583333333333333
 40
0.5
 40
0.5
 40
0.5
 40
0.5
 40
0.5416666666666666
 40
0.5416666666666666
 40
0.5416666666666666
 40
0.5416666666666666
 40
0.5833333333333334
 40
0.5833333333333334
 40
0.5833333333333334
 40
0.5833333333333334
 40
0.625
 40
0.625
 40
0.625
 40
0.625
 40
0.6666666666666666
 40
0.6666666666666666
 40
0.6666666666666666
 40
0.6666666666666666
 40
0.7083333333333334
 40
0.7083333333333334
 40
0.7083333333333334
 40
0.7083333333333334
 40
0.75
 40
0.75
 40
0.75
 40
0.75
 40
0.7916666666666666
 40
0.7916666666666666
 40
0.7916666666666666
 40
0.7916666666666666
 40
0.8333333333333334
 40
0.8333333333333334
 40
0.8333333333333334
 40
0.8333333333333334
 40
0.875
 40
0.875
 40
0.875
 40
0.875
 40
0.9166666666666666
 40
0.9166666666666666
 40
0.9166666666666666
 40
0.9166666666666666
 40
1.0
 40
1.0
 40
1.0
 40
1.0
 10
-259.9575
 20
61.6855
 30
0.0
 10
-261.4
 20
61.6855
 30
0.0
 10
-262.5592
 20
60.601
 30
0.0
 10
-262.5592
 20
59.2601
 30
0.0
 10
-262.5592
 20
59.2601
 30
0.0
 10
-262.5592
 20
59.2601
 30
0.0
 10
-262.5592
 20
52.6896
 30
0.0
 10
-262.5592
 20
52.6896
 30
0.0
 10
-262.5592
 20
52.6896
 30
0.0
 10
-262.5592
 20
52.6896
 30
0.0
 10
-286.6084
 20
52.6896
 30
0.0
 10
-286.6084
 20
52.6896
 30
0.0
 10
-286.6084
 20
52.6896
 30
0.0
 10
-289.2627
 20
52.6896
 30
0.0
 10
-291.3988
 20
50.1003
 30
0.0
 10
-291.3988
 20
46.8787
 30
0.0
 10
-291.3988
 20
46.8787
 30
0.0
 10
-291.3988
 20
46.8787
 30
0.0
 10
-291.3988
 20
-30.231
 30
0.0
 10
-291.3988
 20
-30.231
 30
0.0
 10
-291.3988
 20
-30.231
 30
0.0
 10
-291.3988
 20
-33.4526
 30
0.0
 10
-289.2627
 20
-36.0519
 30
0.0
 10
-286.6084
 20
-36.0519
 30
0.0
 10
-286.6084
 20
-36.0519
 30
0.0
 10
-286.6084
 20
-36.0519
 30
0.0
 10
-262.6195
 20
-36.0519
 30
0.0
 10
-262.6195
 20
-36.0519
 30
0.0
 10
-262.6195
 20
-36.0519
 30
0.0
 10
-262.6195
 20
-36.0519
 30
0.0
 10
-262.6195
 20
-42.9751
 30
0.0
 10
-262.6195
 20
-42.9751
 30
0.0
 10
-262.6195
 20
-42.9751
 30
0.0
 10
-262.6195
 20
-44.3143
 30
0.0
 10
-261.1121
 20
-44.9662
 30
0.0
 10
-260.0097
 20
-45.4005
 30
0.0
 10
-260.0097
 20
-45.4005
 30
0.0
 10
-257.9689
 20
-46.2009
 30
0.0
 10
-255.6977
 20
-46.0065
 30
0.0
 10
-253.4311
 20
-45.4005
 30
0.0
 10
-253.4311
 20
-45.4005
 30
0.0
 10
-251.313
 20
-44.8325
 30
0.0
 10
-249.0528
 20
-46.8818
 30
0.0
 10
-246.8607
 20
-46.8818
 30
0.0
 10
-246.8607
 20
-46.8818
 30
0.0
 10
-244.6682
 20
-46.8818
 30
0.0
 10
-242.3984
 20
-44.8325
 30
0.0
 10
-240.2803
 20
-45.4005
 30
0.0
 10
-240.2803
 20
-45.4005
 30
0.0
 10
-238.0176
 20
-46.0065
 30
0.0
 10
-235.7426
 20
-46.2009
 30
0.0
 10
-233.7017
 20
-45.4005
 30
0.0
 10
-233.7017
 20
-45.4005
 30
0.0
 10
-232.5979
 20
-44.9662
 30
0.0
 10
-231.1
 20
-44.3143
 30
0.0
 10
-231.1
 20
-42.9751
 30
0.0
 10
-231.1
 20
-42.9751
 30
0.0
 10
-231.1
 20
-42.9751
 30
0.0
 10
-231.1
 20
-36.0519
 30
0.0
 10
-231.1
 20
-36.0519
 30
0.0
 10
-231.1
 20
-36.0519
 30
0.0
 10
-231.1
 20
-36.0519
 30
0.0
 10
-207.1012
 20
-36.0519
 30
0.0
 10
-207.1012
 20
-36.0519
 30
0.0
 10
-207.1012
 20
-36.0519
 30
0.0
 10
-204.4487
 20
-36.0519
 30
0.0
 10
-202.3126
 20
-33.4526
 30
0.0
 10
-202.3126
 20
-30.231
 30
0.0
 10
-202.3126
 20
-30.231
 30
0.0
 10
-202.3126
 20
-30.231
 30
0.0
 10
-202.3126
 20
46.8787
 30
0.0
 10
-202.3126
 20
46.8787
 30
0.0
 10
-202.3126
 20
46.8787
 30
0.0
 10
-202.3126
 20
50.1003
 30
0.0
 10
-204.4487
 20
52.6896
 30
0.0
 10
-207.1012
 20
52.6896
 30
0.0
 10
-207.1012
 20
52.6896
 30
0.0
 10
-207.1012
 20
52.6896
 30
0.0
 10
-231.1522
 20
52.6896
 30
0.0
 10
-231.1522
 20
52.6896
 30
0.0
 10
-231.1522
 20
52.6896
 30
0.0
 10
-231.1522
 20
52.6896
 30
0.0
 10
-231.1522
 20
59.2601
 30
0.0
 10
-231.1522
 20
59.2601
 30
0.0
 10
-231.1522
 20
59.2601
 30
0.0
 10
-231.1522
 20
60.601
 30
0.0
 10
-232.3111
 20
61.6855
 30
0.0
 10
-233.754
 20
61.6855
 30
0.0
 10
-233.754
 20
61.6855
 30
0.0
 10
-233.754
 20
61.6855
 30
0.0
 10
-259.9575
 20
61.6855
 30
0.0
 10
-259.9575
 20
61.6855
 30
0.0
  0
SPLINE
  5
9E
330
1F
100
AcDbEntity
  8
layer 1
370
    15
100
AcDbSpline
210
0.0
220
0.0
230
1.0
 70
    11
 71
     3
 72
    20
 73
    16
 74
     0
 42
0.0000000001
 43
0.0000000001
 12
1.0
 22
0.0
 32
0.0
 13
1.0
 23
0.0
 33
0.0
 40
0.0
 40
0.0
 40
0.0
 40
0.0
 40
0.2
 40
0.2
 40
0.2
 40
0.2
 40
0.4
 40
0.4
 40
0.4
 40
0.4
 40
0.6
 40
0.6
 40
0.6
 40
0.6
 40
1.0
 40
1.0
 40
1.0
 40
1.0
 10
-252.8039
 20
55.1069
 30
0.0
 10
-252.8039
 20
55.1069
 30
0.0
 10
-240.9076
 20
55.1069
 30
0.0
 10
-240.9076
 20
55.1069
 30
0.0
 10
-240.9076
 20
55.1069
 30
0.0
 10
-240.9076
 20
55.1069
 30
0.0
 10
-240.9076
 20
50.8196
 30
0.0
 10
-240.9076
 20
50.8196
 30
0.0
 10
-240.9076
 20
50.8196
 30
0.0
 10
-240.9076
 20
50.8196
 30
0.0
 10
-252.8039
 20
50.8196
 30
0.0
 10
-252.8039
 20
50.8196
 30
0.0
 10
-252.8039
 20
50.8196
 30
0.0
 10
-252.8039
 20
50.8196
 30
0.0
 10
-252.8039
 20
55.1069
 30
0.0
 10
-252.8039
 20
55.1069
 30
0.0
  0
SPLINE
  5
9F
330
1F
100
AcDbEntity
  8
layer 1
370
    15
100
AcDbSpline
210
0.0
220
0.0
230
1.0
 70
    11
 71
     3
 72
    20
 73
    16
 74
     0
 42
0.0000000001
 43
0.0000000001
 12
1.0
 22
0.0
 32
0.0
 13
1.0
 23
0.0
 33
0.0
 40
0.0
 40
0.0
 40
0.0
 40
0.0
 40
0.2
 40
0.2
 40
0.2
 40
0.2
 40
0.4
 40
0.4
 40
0.4
 40
0.4
 40
0.6
 40
0.6
 40
0.6
 40
0.6
 40
1.0
 40
1.0
 40
1.0
 40
1.0
 10
-267.5584
 20
40.0697
 30
0.0
 10
-261.4744
 20
40.0697
 30
0.0
 10
-256.544
 20
35.1375
 30
0.0
 10
-256.544
 20
29.0535
 30
0.0
 10
-256.544
 20
29.0535
 30
0.0
 10
-256.544
 20
22.9695
 30
0.0
 10
-261.4744
 20
18.0391
 30
0.0
 10
-267.5584
 20
18.0391
 30
0.0
 10
-267.5584
 20
18.0391
 30
0.0
 10
-273.6439
 20
18.0391
 30
0.0
 10
-278.5746
 20
22.9695
 30
0.0
 10
-278.5746
 20
29.0535
 30
0.0
 10
-278.5746
 20
29.0535
 30
0.0
 10
-278.5746
 20
35.1375
 30
0.0
 10
-273.6439
 20
40.0697
 30
0.0
 10
-267.5584
 20
40.0697
 30
0.0
  0
SPLINE
  5
A0
330
1F
100
AcDbEntity
  8
layer 1
370
    15
100
AcDbSpline
210
0.0
220
0.0
230
1.0
 70
    11
 71
     3
 72
    20
 73
    16
 74
     0
 42
0.0000000001
 43
0.0000000001
 12
1.0
 22
0.0
 32
0.0
 13
1.0
 23
0.0
 33
0.0
 40
0.0
 40
0.0
 40
0.0
 40
0.0
 40
0.2
 40
0.2
 40
0.2
 40
0.2
 40
0.4
 40
0.4
 40
0.4
 40
0.4
 40
0.6
 40
0.6
 40
0.6
 40
0.6
 40
1.0
 40
1.0
 40
1.0
 40
1.0
 10
-225.4736
 20
40.0697
 30
0.0
 10
-219.3881
 20
40.0697
 30
0.0
 10
-214.4574
 20
35.1375
 30
0.0
 10
-214.4574
 20
29.0535
 30
0.0
 10
-214.4574
 20
29.0535
 30
0.0
 10
-214.4574
 20
22.9695
 30
0.0
 10
-219.3881
 20
18.0391
 30
0.0
 10
-225.4736
 20
18.0391
 30
0.0
 10
-225.4736
 20
18.0391
 30
0.0
 10
-231.5576
 20
18.0391
 30
0.0
 10
-236.488
 20
22.9695
 30
0.0
 10
-236.488
 20
29.0535
 30
0.0
 10
-236.488
 20
29.0535
 30
0.0
 10
-236.488
 20
35.1375
 30
0.0
 10
-231.5576
 20
40.0697
 30
0.0
 10
-225.4736
 20
40.0697
 30
0.0
  0
SPLINE
  5
A1
330
1F
100
AcDbEntity
  8
layer 1
370
    15
100
AcDbSpline
210
0.0
220
0.0
230
1.0
 70
    11
 71
     3
 72
    20
 73
    16
 74
     0
 42
0.0000000001
 43
0.0000000001
 12
1.0
 22
0.0
 32
0.0
 13
1.0
 23
0.0
 33
0.0
 40
0.0
 40
0.0
 40
0.0
 40
0.0
 40
0.2
 40
0.2
 40
0.2
 40
0.2
 40
0.4
 40
0.4
 40
0.4
 40
0.4
 40
0.6
 40
0.6
 40
0.6
 40
0.6
 40
1.0
 40
1.0
 40
1.0
 40
1.0
 10
-267.5584
 20
0.0377
 30
0.0
 10
-261.4744
 20
0.0377
 30
0.0
 10
-256.544
 20
-4.9026
 30
0.0
 10
-256.544
 20
-10.9866
 30
0.0
 10
-256.544
 20
-10.9866
 30
0.0
 10
-256.544
 20
-17.0706
 30
0.0
 10
-261.4744
 20
-22.0011
 30
0.0
 10
-267.5584
 20
-22.0011
 30
0.0
 10
-267.5584
 20
-22.0011
 30
0.0
 10
-273.6439
 20
-22.0011
 30
0.0
 10
-278.5746
 20
-17.0706
 30
0.0
 10
-278.5746
 20
-10.9866
 30
0.0
 10
-278.5746
 20
-10.9866
 30
0.0
 10
-278.5746
 20
-4.9026
 30
0.0
 10
-273.6439
 20
0.0377
 30
0.0
 10
-267.5584
 20
0.0377
 30
0.0
  0
SPLINE
  5
A2
330
1F
100
AcDbEntity
  8
layer 1
370
    15
100
AcDbSpline
210
0.0
220
0.0
230
1.0
 70
    11
 71
     3
 72
    20
 73
    16
 74
     0
 42
0.0000000001
 43
0.0000000001
 12
1.0
 22
0.0
 32
0.0
 13
1.0
 23
0.0
 33
0.0
 40
0.0
 40
0.0
 40
0.0
 40
0.0
 40
0.2
 40
0.2
 40
0.2
 40
0.2
 40
0.4
 40
0.4
 40
0.4
 40
0.4
 40
0.6
 40
0.6
 40
0.6
 40
0.6
 40
1.0
 40
1.0
 40
1.0
 40
1.0
 10
-225.4736
 20
0.0377
 30
0.0
 10
-219.3881
 20
0.0377
 30
0.0
 10
-214.4574
 20
-4.9026
 30
0.0
 10
-214.4574
 20
-10.9866
 30
0.0
 10
-214.4574
 20
-10.9866
 30
0.0
 10
-214.4574
 20
-17.0706
 30
0.0
 10
-219.3881
 20
-22.0011
 30
0.0
 10
-225.4736
 20
-22.0011
 30
0.0
 10
-225.4736
 20
-22.0011
 30
0.0
 10
-231.5576
 20
-22.0011
 30
0.0
 10
-236.488
 20
-17.0706
 30
0.0
 10
-236.488
 20
-10.9866
 30
0.0
 10
-236.488
 20
-10.9866
 30
0.0
 10
-236.488
 20
-4.9026
 30
0.0
 10
-231.5576
 20
0.0377
 30
0.0
 10
-225.4736
 20
0.0377
 30
0.0
  0
SPLINE
  5
A3
330
1F
100
AcDbEntity
  8
layer 1
370
    15
100
AcDbSpline
210
0.0
220
0.0
230
1.0
 70
    11
 71
     3
 72
    20
 73
    16
 74
     0
 42
0.0000000001
 43
0.0000000001
 12
1.0
 22
0.0
 32
0.0
 13
1.0
 23
0.0
 33
0.0
 40
0.0
 40
0.0
 40
0.0
 40
0.0
 40
0.2
 40
0.2
 40
0.2
 40
0.2
 40
0.4
 40
0.4
 40
0.4
 40
0.4
 40
0.6
 40
0.6
 40
0.6
 40
0.6
 40
1.0
 40
1.0
 40
1.0
 40
1.0
 10
-252.8039
 20
-33.5284
 30
0.0
 10
-252.8039
 20
-33.5284
 30
0.0
 10
-240.9076
 20
-33.5284
 30
0.0
 10
-240.9076
 20
-33.5284
 30
0.0
 10
-240.9076
 20
-33.5284
 30
0.0
 10
-240.9076
 20
-33.5284
 30
0.0
 10
-240.9076
 20
-37.8059
 30
0.0
 10
-240.9076
 20
-37.8059
 30
0.0
 10
-240.9076
 20
-37.8059
 30
0.0
 10
-240.9076
 20
-37.8059
 30
0.0
 10
-252.8039
 20
-37.8059
 30
0.0
 10
-252.8039
 20
-37.8059
 30
0.0
 10
-252.8039
 20
-37.8059
 30
0.0
 10
-252.8039
 20
-37.8059
 30
0.0
 10
-252.8039
 20
-33.5284
 30
0.0
 10
-252.8039
 20
-33.5284
 30
0.0
  0
ENDSEC
  0
SECTION
  2
OBJECTS
  0
DICTIONARY
  5
C
330
0
100
AcDbDictionary
281
     1
  3
ACAD_GROUP
350
D
  3
ACAD_LAYOUT
350
1A
  3
ACAD_MATERIAL
350
3B
  3
ACAD_MLEADERSTYLE
350
C5
  3
ACAD_MLINESTYLE
350
17
  3
ACAD_PLOTSETTINGS
350
19
  3
ACAD_PLOTSTYLENAME
350
E
  3
ACAD_TABLESTYLE
350
C4
  3
ACAD_VISUALSTYLE
350
2A
  0
DICTIONARY
  5
D
102
{ACAD_REACTORS
330
C
102
}
330
C
100
AcDbDictionary
281
     1
  0
DICTIONARY
  5
1A
102
{ACAD_REACTORS
330
C
102
}
330
C
100
AcDbDictionary
281
     1
  3
Layout1
350
1E
  3
Layout2
350
26
  3
Model
350
22
  0
DICTIONARY
  5
3B
102
{ACAD_REACTORS
330
C
102
}
330
C
100
AcDbDictionary
281
     1
  3
ByBlock
350
3D
  3
ByLayer
350
3C
  3
Global
350
3E
  0
DICTIONARY
  5
C5
102
{ACAD_REACTORS
330
C
102
}
330
C
100
AcDbDictionary
281
     1
  0
DICTIONARY
  5
17
102
{ACAD_REACTORS
330
C
102
}
330
C
100
AcDbDictionary
281
     1
  3
Standard
350
18
  0
DICTIONARY
  5
19
102
{ACAD_REACTORS
330
C
102
}
330
C
100
AcDbDictionary
281
     1
  0
ACDBDICTIONARYWDFLT
  5
E
102
{ACAD_REACTORS
330
C
102
}
330
C
100
AcDbDictionary
281
     1
  3
Normal
350
F
100
AcDbDictionaryWithDefault
340
F
  0
DICTIONARY
  5
C4
102
{ACAD_REACTORS
330
C
102
}
330
C
100
AcDbDictionary
281
     1
  0
DICTIONARY
  5
2A
102
{ACAD_REACTORS
330
C
102
}
330
C
100
AcDbDictionary
281
     1
  3
2dWireframe
350
2F
  3
3D Hidden
350
31
  3
3dWireframe
350
30
  3
Basic
350
32
  3
Brighten
350
36
  3
ColorChange
350
3A
  3
Conceptual
350
34
  3
Dim
350
35
  3
Facepattern
350
39
  3
Flat
350
2B
  3
FlatWithEdges
350
2C
  3
Gouraud
350
2D
  3
GouraudWithEdges
350
2E
  3
Linepattern
350
38
  3
Realistic
350
33
  3
Thicken
350
37
  0
LAYOUT
  5
1E
102
{ACAD_REACTORS
330
1A
102
}
330
1A
100
AcDbPlotSettings
  1

  2
none_device
  4

  6

 40
0.0
 41
0.0
 42
0.0
 43
0.0
 44
0.0
 45
0.0
 46
0.0
 47
0.0
 48
0.0
 49
0.0
140
0.0
141
0.0
142
1.0
143
1.0
 70
   688
 72
     0
 73
     0
 74
     5
  7

 75
    16
 76
     0
 77
     2
 78
   300
147
1.0
148
0.0
149
0.0
100
AcDbLayout
  1
Layout1
 70
     1
 71
     1
 10
0.0
 20
0.0
 11
12.0
 21
9.0
 12
0.0
 22
0.0
 32
0.0
 14
1.000000000000000E+20
 24
1.000000000000000E+20
 34
1.000000000000000E+20
 15
-1.000000000000000E+20
 25
-1.000000000000000E+20
 35
-1.000000000000000E+20
146
0.0
 13
0.0
 23
0.0
 33
0.0
 16
1.0
 26
0.0
 36
0.0
 17
0.0
 27
1.0
 37
0.0
 76
     0
330
1B
  0
LAYOUT
  5
26
102
{ACAD_REACTORS
330
1A
102
}
330
1A
100
AcDbPlotSettings
  1

  2
none_device
  4

  6

 40
0.0
 41
0.0
 42
0.0
 43
0.0
 44
0.0
 45
0.0
 46
0.0
 47
0.0
 48
0.0
 49
0.0
140
0.0
141
0.0
142
1.0
143
1.0
 70
   688
 72
     0
 73
     0
 74
     5
  7

 75
    16
 76
     0
 77
     2
 78
   300
147
1.0
148
0.0
149
0.0
100
AcDbLayout
  1
Layout2
 70
     1
 71
     2
 10
0.0
 20
0.0
 11
0.0
 21
0.0
 12
0.0
 22
0.0
 32
0.0
 14
0.0
 24
0.0
 34
0.0
 15
0.0
 25
0.0
 35
0.0
146
0.0
 13
0.0
 23
0.0
 33
0.0
 16
1.0
 26
0.0
 36
0.0
 17
0.0
 27
1.0
 37
0.0
 76
     0
330
23
  0
LAYOUT
  5
22
102
{ACAD_REACTORS
330
1A
102
}
330
1A
100
AcDbPlotSettings
  1

  2
none_device
  4

  6

 40
0.0
 41
0.0
 42
0.0
 43
0.0
 44
0.0
 45
0.0
 46
0.0
 47
0.0
 48
0.0
 49
0.0
140
0.0
141
0.0
142
1.0
143
1.0
 70
  1712
 72
     0
 73
     0
 74
     0
  7

 75
     0
 76
     0
 77
     2
 78
   300
147
1.0
148
0.0
149
0.0
100
AcDbLayout
  1
Model
 70
     1
 71
     0
 10
0.0
 20
0.0
 11
12.0
 21
9.0
 12
0.0
 22
0.0
 32
0.0
 14
-291.4774
 24
-273.3213
 34
0.0
 15
197.5788
 25
87.3127
 35
0.0
146
0.0
 13
0.0
 23
0.0
 33
0.0
 16
1.0
 26
0.0
 36
0.0
 17
0.0
 27
1.0
 37
0.0
 76
     0
330
1F
331
29
  0
MATERIAL
  5
3D
102
{ACAD_REACTORS
330
3B
102
}
330
3B
100
AcDbMaterial
  1
ByBlock
 72
     1
 94
      127
  0
MATERIAL
  5
3C
102
{ACAD_REACTORS
330
3B
102
}
330
3B
100
AcDbMaterial
  1
ByLayer
 72
     1
 94
      127
  0
MATERIAL
  5
3E
102
{ACAD_REACTORS
330
3B
102
}
330
3B
100
AcDbMaterial
  1
Global
 72
     1
 94
      127
  0
MLINESTYLE
  5
18
102
{ACAD_REACTORS
330
17
102
}
330
17
100
AcDbMlineStyle
  2
Standard
 70
     0
  3

 62
   256
 51
90.0
 52
90.0
 71
     2
 49
0.5
 62
   256
  6
BYLAYER
 49
-0.5
 62
   256
  6
BYLAYER
  0
ACDBPLACEHOLDER
  5
F
102
{ACAD_REACTORS
330
E
102
}
330
E
  0
VISUALSTYLE
  5
2F
102
{ACAD_REACTORS
330
2A
102
}
102
{ACAD_XDICTIONARY
360
AC
102
}
330
2A
100
AcDbVisualStyle
  2
2dWireframe
 70
     4
 71
     0
 72
     2
 73
     0
 90
        0
 40
-0.6
 41
-30.0
 62
     5
 63
     7
421
 16777215
 74
     1
 91
        4
 64
     7
 65
   257
 75
     1
175
     1
 42
1.0
 92
        0
 66
   257
 43
1.0
 76
     1
 77
     6
 78
     2
 67
     7
 79
     5
170
     0
171
     0
290
     0
174
     0
 93
        1
 44
0.0
173
     0
291
     0
 45
0.0
  0
VISUALSTYLE
  5
31
102
{ACAD_REACTORS
330
2A
102
}
102
{ACAD_XDICTIONARY
360
B0
102
}
330
2A
100
AcDbVisualStyle
  2
3D Hidden
 70
     6
 71
     1
 72
     2
 73
     2
 90
        0
 40
-0.6
 41
-30.0
 62
     5
 63
     7
421
 16777215
 74
     2
 91
        2
 64
     7
 65
   257
 75
     2
175
     1
 42
40.0
 92
        0
 66
   257
 43
1.0
 76
     1
 77
     6
 78
     2
 67
     7
 79
     3
170
     0
171
     0
290
     0
174
     0
 93
        1
 44
0.0
173
     0
291
     0
 45
0.0
  0
VISUALSTYLE
  5
30
102
{ACAD_REACTORS
330
2A
102
}
102
{ACAD_XDICTIONARY
360
AE
102
}
330
2A
100
AcDbVisualStyle
  2
3dWireframe
 70
     5
 71
     0
 72
     2
 73
     0
 90
        0
 40
-0.6
 41
-30.0
 62
     5
 63
     7
421
 16777215
 74
     1
 91
        4
 64
     7
 65
   257
 75
     1
175
     1
 42
1.0
 92
        0
 66
   257
 43
1.0
 76
     1
 77
     6
 78
     2
 67
     7
 79
     5
170
     0
171
     0
290
     0
174
     0
 93
        1
 44
0.0
173
     0
291
     0
 45
0.0
  0
VISUALSTYLE
  5
32
102
{ACAD_REACTORS
330
2A
102
}
102
{ACAD_XDICTIONARY
360
B2
102
}
330
2A
100
AcDbVisualStyle
  2
Basic
 70
     7
 71
     1
 72
     0
 73
     1
 90
        0
 40
-0.6
 41
-30.0
 62
     5
 63
     7
421
 16777215
 74
     0
 91
        4
 64
     7
 65
   257
 75
     1
175
     1
 42
1.0
 92
        8
 66
     7
 43
1.0
 76
     1
 77
     6
 78
     2
 67
     7
 79
     5
170
     0
171
     0
290
     0
174
     0
 93
        1
 44
0.0
173
     0
291
     1
 45
0.0
  0
VISUALSTYLE
  5
36
102
{ACAD_REACTORS
330
2A
102
}
102
{ACAD_XDICTIONARY
360
BA
102
}
330
2A
100
AcDbVisualStyle
  2
Brighten
 70
    12
 71
     2
 72
     2
 73
     0
 90
        0
 40
-0.6
 41
-30.0
 62
     5
 63
     7
421
 16777215
 74
     1
 91
        4
 64
     7
 65
   257
 75
     1
175
     1
 42
1.0
 92
        8
 66
     7
 43
1.0
 76
     1
 77
     6
 78
     2
 67
     7
 79
     5
170
     0
171
     0
290
     0
174
     0
 93
        1
 44
50.0
173
     0
291
     1
 45
0.0
  0
VISUALSTYLE
  5
3A
102
{ACAD_REACTORS
330
2A
102
}
102
{ACAD_XDICTIONARY
360
C2
102
}
330
2A
100
AcDbVisualStyle
  2
ColorChange
 70
    16
 71
     2
 72
     2
 73
     3
 90
        0
 40
-0.6
 41
-30.0
 62
     5
 63
     8
421
  8421504
 74
     1
 91
        4
 64
     7
 65
   257
 75
     1
175
     1
 42
1.0
 92
        8
 66
     8
424
  8421504
 43
1.0
 76
     1
 77
     6
 78
     2
 67
     7
 79
     5
170
     0
171
     0
290
     0
174
     0
 93
        1
 44
0.0
173
     0
291
     1
 45
0.0
  0
VISUALSTYLE
  5
34
102
{ACAD_REACTORS
330
2A
102
}
102
{ACAD_XDICTIONARY
360
B6
102
}
330
2A
100
AcDbVisualStyle
  2
Conceptual
 70
     9
 71
     3
 72
     2
 73
     0
 90
        0
 40
-0.6
 41
-30.0
 62
     5
 63
     7
421
 16777215
 74
     2
 91
        2
 64
     7
 65
   257
 75
     1
175
     1
 42
40.0
 92
        8
 66
     7
 43
1.0
 76
     1
 77
     6
 78
     2
 67
     7
 79
     3
170
     0
171
     0
290
     0
174
     0
 93
        1
 44
0.0
173
     0
291
     0
 45
0.0
  0
VISUALSTYLE
  5
35
102
{ACAD_REACTORS
330
2A
102
}
102
{ACAD_XDICTIONARY
360
B8
102
}
330
2A
100
AcDbVisualStyle
  2
Dim
 70
    11
 71
     2
 72
     2
 73
     0
 90
        0
 40
-0.6
 41
-30.0
 62
     5
 63
     7
421
 16777215
 74
     1
 91
        4
 64
     7
 65
   257
 75
     1
175
     1
 42
1.0
 92
        8
 66
     7
 43
1.0
 76
     1
 77
     6
 78
     2
 67
     7
 79
     5
170
     0
171
     0
290
     0
174
     0
 93
        1
 44
-50.0
173
     0
291
     1
 45
0.0
  0
VISUALSTYLE
  5
39
102
{ACAD_REACTORS
330
2A
102
}
102
{ACAD_XDICTIONARY
360
C0
102
}
330
2A
100
AcDbVisualStyle
  2
Facepattern
 70
    15
 71
     2
 72
     2
 73
     0
 90
        0
 40
-0.6
 41
-30.0
 62
     5
 63
     7
421
 16777215
 74
     1
 91
        4
 64
     7
 65
   257
 75
     1
175
     1
 42
1.0
 92
        8
 66
     7
 43
1.0
 76
     1
 77
     6
 78
     2
 67
     7
 79
     5
170
     0
171
     0
290
     0
174
     0
 93
        1
 44
0.0
173
     0
291
     1
 45
0.0
  0
VISUALSTYLE
  5
2B
102
{ACAD_REACTORS
330
2A
102
}
102
{ACAD_XDICTIONARY
360
A4
102
}
330
2A
100
AcDbVisualStyle
  2
Flat
 70
     0
 71
     2
 72
     1
 73
     1
 90
        2
 40
-0.6
 41
30.0
 62
     5
 63
     7
421
 16777215
 74
     0
 91
        4
 64
     7
 65
   257
 75
     1
175
     1
 42
1.0
 92
        8
 66
     7
 43
1.0
 76
     1
 77
     6
 78
     2
 67
     7
 79
     5
170
     0
171
     0
290
     0
174
     0
 93
       13
 44
0.0
173
     0
291
     1
 45
0.0
  0
VISUALSTYLE
  5
2C
102
{ACAD_REACTORS
330
2A
102
}
102
{ACAD_XDICTIONARY
360
A6
102
}
330
2A
100
AcDbVisualStyle
  2
FlatWithEdges
 70
     1
 71
     2
 72
     1
 73
     1
 90
        2
 40
-0.6
 41
30.0
 62
     5
 63
     7
421
 16777215
 74
     1
 91
        4
 64
     7
 65
   257
 75
     1
175
     1
 42
1.0
 92
        0
 66
   257
 43
1.0
 76
     1
 77
     6
 78
     2
 67
     7
 79
     5
170
     0
171
     0
290
     0
174
     0
 93
       13
 44
0.0
173
     0
291
     1
 45
0.0
  0
VISUALSTYLE
  5
2D
102
{ACAD_REACTORS
330
2A
102
}
102
{ACAD_XDICTIONARY
360
A8
102
}
330
2A
100
AcDbVisualStyle
  2
Gouraud
 70
     2
 71
     2
 72
     2
 73
     1
 90
        2
 40
-0.6
 41
30.0
 62
     5
 63
     7
421
 16777215
 74
     0
 91
        4
 64
     7
 65
   257
 75
     1
175
     1
 42
1.0
 92
        0
 66
     7
 43
1.0
 76
     1
 77
     6
 78
     2
 67
     7
 79
     5
170
     0
171
     0
290
     0
174
     0
 93
       13
 44
0.0
173
     0
291
     1
 45
0.0
  0
VISUALSTYLE
  5
2E
102
{ACAD_REACTORS
330
2A
102
}
102
{ACAD_XDICTIONARY
360
AA
102
}
330
2A
100
AcDbVisualStyle
  2
GouraudWithEdges
 70
     3
 71
     2
 72
     2
 73
     1
 90
        2
 40
-0.6
 41
30.0
 62
     5
 63
     7
421
 16777215
 74
     1
 91
        4
 64
     7
 65
   257
 75
     1
175
     1
 42
1.0
 92
        0
 66
   257
 43
1.0
 76
     1
 77
     6
 78
     2
 67
     7
 79
     5
170
     0
171
     0
290
     0
174
     0
 93
       13
 44
0.0
173
     0
291
     1
 45
0.0
  0
VISUALSTYLE
  5
38
102
{ACAD_REACTORS
330
2A
102
}
102
{ACAD_XDICTIONARY
360
BE
102
}
330
2A
100
AcDbVisualStyle
  2
Linepattern
 70
    14
 71
     2
 72
     2
 73
     0
 90
        0
 40
-0.6
 41
-30.0
 62
     5
 63
     7
421
 16777215
 74
     1
 91
        4
 64
     7
 65
   257
 75
     7
175
     7
 42
1.0
 92
        8
 66
     7
 43
1.0
 76
     1
 77
     6
 78
     2
 67
     7
 79
     5
170
     0
171
     0
290
     0
174
     0
 93
        1
 44
0.0
173
     0
291
     1
 45
0.0
  0
VISUALSTYLE
  5
33
102
{ACAD_REACTORS
330
2A
102
}
102
{ACAD_XDICTIONARY
360
B4
102
}
330
2A
100
AcDbVisualStyle
  2
Realistic
 70
     8
 71
     2
 72
     2
 73
     0
 90
        0
 40
-0.6
 41
-30.0
 62
     5
 63
     7
421
 16777215
 74
     1
 91
        0
 64
     7
 65
   257
 75
     1
175
     1
 42
1.0
 92
        8
 66
     8
424
  7895160
 43
1.0
 76
     1
 77
     6
 78
     2
 67
     7
 79
     5
170
     0
171
     0
290
     0
174
     0
 93
       13
 44
0.0
173
     0
291
     0
 45
0.0
  0
VISUALSTYLE
  5
37
102
{ACAD_REACTORS
330
2A
102
}
102
{ACAD_XDICTIONARY
360
BC
102
}
330
2A
100
AcDbVisualStyle
  2
Thicken
 70
    13
 71
     2
 72
     2
 73
     0
 90
        0
 40
-0.6
 41
-30.0
 62
     5
 63
     7
421
 16777215
 74
     1
 91
        4
 64
     7
 65
   257
 75
     1
175
     1
 42
1.0
 92
       12
 66
     7
 43
1.0
 76
     1
 77
     6
 78
     2
 67
     7
 79
     5
170
     0
171
     0
290
     0
174
     0
 93
        1
 44
0.0
173
     0
291
     1
 45
0.0
  0
DICTIONARY
  5
AC
330
2F
100
AcDbDictionary
280
     1
281
     1
  3
ACAD_XREC_ROUNDTRIP
360
AD
  0
DICTIONARY
  5
B0
330
31
100
AcDbDictionary
280
     1
281
     1
  3
ACAD_XREC_ROUNDTRIP
360
B1
  0
DICTIONARY
  5
AE
330
30
100
AcDbDictionary
280
     1
281
     1
  3
ACAD_XREC_ROUNDTRIP
360
AF
  0
DICTIONARY
  5
B2
330
32
100
AcDbDictionary
280
     1
281
     1
  3
ACAD_XREC_ROUNDTRIP
360
B3
  0
DICTIONARY
  5
BA
330
36
100
AcDbDictionary
280
     1
281
     1
  3
ACAD_XREC_ROUNDTRIP
360
BB
  0
DICTIONARY
  5
C2
330
3A
100
AcDbDictionary
280
     1
281
     1
  3
ACAD_XREC_ROUNDTRIP
360
C3
  0
DICTIONARY
  5
B6
330
34
100
AcDbDictionary
280
     1
281
     1
  3
ACAD_XREC_ROUNDTRIP
360
B7
  0
DICTIONARY
  5
B8
330
35
100
AcDbDictionary
280
     1
281
     1
  3
ACAD_XREC_ROUNDTRIP
360
B9
  0
DICTIONARY
  5
C0
330
39
100
AcDbDictionary
280
     1
281
     1
  3
ACAD_XREC_ROUNDTRIP
360
C1
  0
DICTIONARY
  5
A4
330
2B
100
AcDbDictionary
280
     1
281
     1
  3
ACAD_XREC_ROUNDTRIP
360
A5
  0
DICTIONARY
  5
A6
330
2C
100
AcDbDictionary
280
     1
281
     1
  3
ACAD_XREC_ROUNDTRIP
360
A7
  0
DICTIONARY
  5
A8
330
2D
100
AcDbDictionary
280
     1
281
     1
  3
ACAD_XREC_ROUNDTRIP
360
A9
  0
DICTIONARY
  5
AA
330
2E
100
AcDbDictionary
280
     1
281
     1
  3
ACAD_XREC_ROUNDTRIP
360
AB
  0
DICTIONARY
  5
BE
330
38
100
AcDbDictionary
280
     1
281
     1
  3
ACAD_XREC_ROUNDTRIP
360
BF
  0
DICTIONARY
  5
B4
330
33
100
AcDbDictionary
280
     1
281
     1
  3
ACAD_XREC_ROUNDTRIP
360
B5
  0
DICTIONARY
  5
BC
330
37
100
AcDbDictionary
280
     1
281
     1
  3
ACAD_XREC_ROUNDTRIP
360
BD
  0
XRECORD
  5
AD
102
{ACAD_REACTORS
330
AC
102
}
330
AC
100
AcDbXrecord
280
     1
102
RTVSPropertyOp0
 70
     1
102
RTVSPropertyOp1
 70
     1
102
RTVSPropertyOp2
 70
     1
102
RTVSPropertyOp3
 70
     1
102
RTVSPropertyOp4
 70
     1
102
RTVSPropertyOp5
 70
     1
102
RTVSPropertyOp6
 70
     1
102
RTVSPropertyOp7
 70
     1
102
RTVSPropertyOp8
 70
     1
102
RTVSPropertyOp9
 70
     1
102
RTVSPropertyOp10
 70
     1
102
RTVSPropertyOp11
 70
     1
102
RTVSPropertyOp12
 70
     1
102
RTVSPropertyOp13
 70
     1
102
RTVSPropertyOp14
 70
     1
102
RTVSPropertyOp15
 70
     1
102
RTVSPropertyOp16
 70
     1
102
RTVSPropertyOp17
 70
     1
102
RTVSPropertyOp18
 70
     1
102
RTVSPropertyOp19
 70
     1
102
RTVSPropertyOp20
 70
     1
102
RTVSPropertyOp21
 70
     1
102
RTVSPropertyOp22
 70
     1
102
RTVSPropertyOp23
 70
     1
102
RTVSPropertyOp24
 70
     1
102
RTVSPropertyOp25
 70
     1
102
RTVSPropertyOp26
 70
     1
102
RTVSPropertyOp27
 70
     1
102
RTVSPropertyOp28
 70
     1
102
RTVSPropertyOp29
 70
     1
102
RTVSPropertyOp30
 70
     1
102
RTVSPropertyOp31
 70
     1
102
RTVSPropertyOp32
 70
     1
  0
XRECORD
  5
B1
102
{ACAD_REACTORS
330
B0
102
}
330
B0
100
AcDbXrecord
280
     1
102
RTVSPropertyOp0
 70
     1
102
RTVSPropertyOp1
 70
     1
102
RTVSPropertyOp2
 70
     1
102
RTVSPropertyOp3
 70
     1
102
RTVSPropertyOp4
 70
     1
102
RTVSPropertyOp5
 70
     1
102
RTVSPropertyOp6
 70
     1
102
RTVSPropertyOp7
 70
     1
102
RTVSPropertyOp8
 70
     1
102
RTVSPropertyOp9
 70
     1
102
RTVSPropertyOp10
 70
     1
102
RTVSPropertyOp11
 70
     1
102
RTVSPropertyOp12
 70
     1
102
RTVSPropertyOp13
 70
     1
102
RTVSPropertyOp14
 70
     1
102
RTVSPropertyOp15
 70
     1
102
RTVSPropertyOp16
 70
     1
102
RTVSPropertyOp17
 70
     1
102
RTVSPropertyOp18
 70
     1
102
RTVSPropertyOp19
 70
     1
102
RTVSPropertyOp20
 70
     1
102
RTVSPropertyOp21
 70
     1
102
RTVSPropertyOp22
 70
     1
102
RTVSPropertyOp23
 70
     1
102
RTVSPropertyOp24
 70
     1
102
RTVSPropertyOp25
 70
     1
102
RTVSPropertyOp26
 70
     1
102
RTVSPropertyOp27
 70
     1
102
RTVSPropertyOp28
 70
     1
102
RTVSPropertyOp29
 70
     1
102
RTVSPropertyOp30
 70
     1
102
RTVSPropertyOp31
 70
     1
102
RTVSPropertyOp32
 70
     1
  0
XRECORD
  5
AF
102
{ACAD_REACTORS
330
AE
102
}
330
AE
100
AcDbXrecord
280
     1
102
RTVSPropertyOp0
 70
     1
102
RTVSPropertyOp1
 70
     1
102
RTVSPropertyOp2
 70
     1
102
RTVSPropertyOp3
 70
     1
102
RTVSPropertyOp4
 70
     1
102
RTVSPropertyOp5
 70
     1
102
RTVSPropertyOp6
 70
     1
102
RTVSPropertyOp7
 70
     1
102
RTVSPropertyOp8
 70
     1
102
RTVSPropertyOp9
 70
     1
102
RTVSPropertyOp10
 70
     1
102
RTVSPropertyOp11
 70
     1
102
RTVSPropertyOp12
 70
     1
102
RTVSPropertyOp13
 70
     1
102
RTVSPropertyOp14
 70
     1
102
RTVSPropertyOp15
 70
     1
102
RTVSPropertyOp16
 70
     1
102
RTVSPropertyOp17
 70
     1
102
RTVSPropertyOp18
 70
     1
102
RTVSPropertyOp19
 70
     1
102
RTVSPropertyOp20
 70
     1
102
RTVSPropertyOp21
 70
     1
102
RTVSPropertyOp22
 70
     1
102
RTVSPropertyOp23
 70
     1
102
RTVSPropertyOp24
 70
     1
102
RTVSPropertyOp25
 70
     1
102
RTVSPropertyOp26
 70
     1
102
RTVSPropertyOp27
 70
     1
102
RTVSPropertyOp28
 70
     1
102
RTVSPropertyOp29
 70
     1
102
RTVSPropertyOp30
 70
     1
102
RTVSPropertyOp31
 70
     1
102
RTVSPropertyOp32
 70
     1
  0
XRECORD
  5
B3
102
{ACAD_REACTORS
330
B2
102
}
330
B2
100
AcDbXrecord
280
     1
102
RTVSPropertyOp0
 70
     1
102
RTVSPropertyOp1
 70
     1
102
RTVSPropertyOp2
 70
     1
102
RTVSPropertyOp3
 70
     1
102
RTVSPropertyOp4
 70
     1
102
RTVSPropertyOp5
 70
     1
102
RTVSPropertyOp6
 70
     1
102
RTVSPropertyOp7
 70
     1
102
RTVSPropertyOp8
 70
     1
102
RTVSPropertyOp9
 70
     1
102
RTVSPropertyOp10
 70
     1
102
RTVSPropertyOp11
 70
     1
102
RTVSPropertyOp12
 70
     1
102
RTVSPropertyOp13
 70
     1
102
RTVSPropertyOp14
 70
     1
102
RTVSPropertyOp15
 70
     1
102
RTVSPropertyOp16
 70
     1
102
RTVSPropertyOp17
 70
     1
102
RTVSPropertyOp18
 70
     1
102
RTVSPropertyOp19
 70
     1
102
RTVSPropertyOp20
 70
     1
102
RTVSPropertyOp21
 70
     1
102
RTVSPropertyOp22
 70
     1
102
RTVSPropertyOp23
 70
     1
102
RTVSPropertyOp24
 70
     1
102
RTVSPropertyOp25
 70
     1
102
RTVSPropertyOp26
 70
     1
102
RTVSPropertyOp27
 70
     1
102
RTVSPropertyOp28
 70
     1
102
RTVSPropertyOp29
 70
     1
102
RTVSPropertyOp30
 70
     1
102
RTVSPropertyOp31
 70
     1
102
RTVSPropertyOp32
 70
     1
  0
XRECORD
  5
BB
102
{ACAD_REACTORS
330
BA
102
}
330
BA
100
AcDbXrecord
280
     1
102
RTVSPropertyOp0
 70
     1
102
RTVSPropertyOp1
 70
     1
102
RTVSPropertyOp2
 70
     1
102
RTVSPropertyOp3
 70
     1
102
RTVSPropertyOp4
 70
     1
102
RTVSPropertyOp5
 70
     1
102
RTVSPropertyOp6
 70
     1
102
RTVSPropertyOp7
 70
     1
102
RTVSPropertyOp8
 70
     1
102
RTVSPropertyOp9
 70
     1
102
RTVSPropertyOp10
 70
     1
102
RTVSPropertyOp11
 70
     1
102
RTVSPropertyOp12
 70
     1
102
RTVSPropertyOp13
 70
     1
102
RTVSPropertyOp14
 70
     1
102
RTVSPropertyOp15
 70
     1
102
RTVSPropertyOp16
 70
     1
102
RTVSPropertyOp17
 70
     1
102
RTVSPropertyOp18
 70
     1
102
RTVSPropertyOp19
 70
     1
102
RTVSPropertyOp20
 70
     1
102
RTVSPropertyOp21
 70
     1
102
RTVSPropertyOp22
 70
     1
102
RTVSPropertyOp23
 70
     1
102
RTVSPropertyOp24
 70
     1
102
RTVSPropertyOp25
 70
     1
102
RTVSPropertyOp26
 70
     1
102
RTVSPropertyOp27
 70
     1
102
RTVSPropertyOp28
 70
     1
102
RTVSPropertyOp29
 70
     1
102
RTVSPropertyOp30
 70
     1
102
RTVSPropertyOp31
 70
     1
102
RTVSPropertyOp32
 70
     1
  0
XRECORD
  5
C3
102
{ACAD_REACTORS
330
C2
102
}
330
C2
100
AcDbXrecord
280
     1
102
RTVSPropertyOp0
 70
     1
102
RTVSPropertyOp1
 70
     1
102
RTVSPropertyOp2
 70
     1
102
RTVSPropertyOp3
 70
     1
102
RTVSPropertyOp4
 70
     1
102
RTVSPropertyOp5
 70
     1
102
RTVSPropertyOp6
 70
     1
102
RTVSPropertyOp7
 70
     1
102
RTVSPropertyOp8
 70
     1
102
RTVSPropertyOp9
 70
     1
102
RTVSPropertyOp10
 70
     1
102
RTVSPropertyOp11
 70
     1
102
RTVSPropertyOp12
 70
     1
102
RTVSPropertyOp13
 70
     1
102
RTVSPropertyOp14
 70
     1
102
RTVSPropertyOp15
 70
     1
102
RTVSPropertyOp16
 70
     1
102
RTVSPropertyOp17
 70
     1
102
RTVSPropertyOp18
 70
     1
102
RTVSPropertyOp19
 70
     1
102
RTVSPropertyOp20
 70
     1
102
RTVSPropertyOp21
 70
     1
102
RTVSPropertyOp22
 70
     1
102
RTVSPropertyOp23
 70
     1
102
RTVSPropertyOp24
 70
     1
102
RTVSPropertyOp25
 70
     1
102
RTVSPropertyOp26
 70
     1
102
RTVSPropertyOp27
 70
     1
102
RTVSPropertyOp28
 70
     1
102
RTVSPropertyOp29
 70
     1
102
RTVSPropertyOp30
 70
     1
102
RTVSPropertyOp31
 70
     1
102
RTVSPropertyOp32
 70
     1
  0
XRECORD
  5
B7
102
{ACAD_REACTORS
330
B6
102
}
330
B6
100
AcDbXrecord
280
     1
102
RTVSPropertyOp0
 70
     1
102
RTVSPropertyOp1
 70
     1
102
RTVSPropertyOp2
 70
     1
102
RTVSPropertyOp3
 70
     1
102
RTVSPropertyOp4
 70
     1
102
RTVSPropertyOp5
 70
     1
102
RTVSPropertyOp6
 70
     1
102
RTVSPropertyOp7
 70
     1
102
RTVSPropertyOp8
 70
     1
102
RTVSPropertyOp9
 70
     1
102
RTVSPropertyOp10
 70
     1
102
RTVSPropertyOp11
 70
     1
102
RTVSPropertyOp12
 70
     1
102
RTVSPropertyOp13
 70
     1
102
RTVSPropertyOp14
 70
     1
102
RTVSPropertyOp15
 70
     1
102
RTVSPropertyOp16
 70
     1
102
RTVSPropertyOp17
 70
     1
102
RTVSPropertyOp18
 70
     1
102
RTVSPropertyOp19
 70
     1
102
RTVSPropertyOp20
 70
     1
102
RTVSPropertyOp21
 70
     1
102
RTVSPropertyOp22
 70
     1
102
RTVSPropertyOp23
 70
     1
102
RTVSPropertyOp24
 70
     1
102
RTVSPropertyOp25
 70
     1
102
RTVSPropertyOp26
 70
     1
102
RTVSPropertyOp27
 70
     1
102
RTVSPropertyOp28
 70
     1
102
RTVSPropertyOp29
 70
     1
102
RTVSPropertyOp30
 70
     1
102
RTVSPropertyOp31
 70
     1
102
RTVSPropertyOp32
 70
     1
  0
XRECORD
  5
B9
102
{ACAD_REACTORS
330
B8
102
}
330
B8
100
AcDbXrecord
280
     1
102
RTVSPropertyOp0
 70
     1
102
RTVSPropertyOp1
 70
     1
102
RTVSPropertyOp2
 70
     1
102
RTVSPropertyOp3
 70
     1
102
RTVSPropertyOp4
 70
     1
102
RTVSPropertyOp5
 70
     1
102
RTVSPropertyOp6
 70
     1
102
RTVSPropertyOp7
 70
     1
102
RTVSPropertyOp8
 70
     1
102
RTVSPropertyOp9
 70
     1
102
RTVSPropertyOp10
 70
     1
102
RTVSPropertyOp11
 70
     1
102
RTVSPropertyOp12
 70
     1
102
RTVSPropertyOp13
 70
     1
102
RTVSPropertyOp14
 70
     1
102
RTVSPropertyOp15
 70
     1
102
RTVSPropertyOp16
 70
     1
102
RTVSPropertyOp17
 70
     1
102
RTVSPropertyOp18
 70
     1
102
RTVSPropertyOp19
 70
     1
102
RTVSPropertyOp20
 70
     1
102
RTVSPropertyOp21
 70
     1
102
RTVSPropertyOp22
 70
     1
102
RTVSPropertyOp23
 70
     1
102
RTVSPropertyOp24
 70
     1
102
RTVSPropertyOp25
 70
     1
102
RTVSPropertyOp26
 70
     1
102
RTVSPropertyOp27
 70
     1
102
RTVSPropertyOp28
 70
     1
102
RTVSPropertyOp29
 70
     1
102
RTVSPropertyOp30
 70
     1
102
RTVSPropertyOp31
 70
     1
102
RTVSPropertyOp32
 70
     1
  0
XRECORD
  5
C1
102
{ACAD_REACTORS
330
C0
102
}
330
C0
100
AcDbXrecord
280
     1
102
RTVSPropertyOp0
 70
     1
102
RTVSPropertyOp1
 70
     1
102
RTVSPropertyOp2
 70
     1
102
RTVSPropertyOp3
 70
     1
102
RTVSPropertyOp4
 70
     1
102
RTVSPropertyOp5
 70
     1
102
RTVSPropertyOp6
 70
     1
102
RTVSPropertyOp7
 70
     1
102
RTVSPropertyOp8
 70
     1
102
RTVSPropertyOp9
 70
     1
102
RTVSPropertyOp10
 70
     1
102
RTVSPropertyOp11
 70
     1
102
RTVSPropertyOp12
 70
     1
102
RTVSPropertyOp13
 70
     1
102
RTVSPropertyOp14
 70
     1
102
RTVSPropertyOp15
 70
     1
102
RTVSPropertyOp16
 70
     1
102
RTVSPropertyOp17
 70
     1
102
RTVSPropertyOp18
 70
     1
102
RTVSPropertyOp19
 70
     1
102
RTVSPropertyOp20
 70
     1
102
RTVSPropertyOp21
 70
     1
102
RTVSPropertyOp22
 70
     1
102
RTVSPropertyOp23
 70
     1
102
RTVSPropertyOp24
 70
     1
102
RTVSPropertyOp25
 70
     1
102
RTVSPropertyOp26
 70
     1
102
RTVSPropertyOp27
 70
     1
102
RTVSPropertyOp28
 70
     1
102
RTVSPropertyOp29
 70
     1
102
RTVSPropertyOp30
 70
     1
102
RTVSPropertyOp31
 70
     1
102
RTVSPropertyOp32
 70
     1
  0
XRECORD
  5
A5
102
{ACAD_REACTORS
330
A4
102
}
330
A4
100
AcDbXrecord
280
     1
102
RTVSPropertyOp0
 70
     1
102
RTVSPropertyOp1
 70
     1
102
RTVSPropertyOp2
 70
     1
102
RTVSPropertyOp3
 70
     1
102
RTVSPropertyOp4
 70
     1
102
RTVSPropertyOp5
 70
     1
102
RTVSPropertyOp6
 70
     1
102
RTVSPropertyOp7
 70
     1
102
RTVSPropertyOp8
 70
     1
102
RTVSPropertyOp9
 70
     1
102
RTVSPropertyOp10
 70
     1
102
RTVSPropertyOp11
 70
     1
102
RTVSPropertyOp12
 70
     1
102
RTVSPropertyOp13
 70
     1
102
RTVSPropertyOp14
 70
     1
102
RTVSPropertyOp15
 70
     1
102
RTVSPropertyOp16
 70
     1
102
RTVSPropertyOp17
 70
     1
102
RTVSPropertyOp18
 70
     1
102
RTVSPropertyOp19
 70
     1
102
RTVSPropertyOp20
 70
     1
102
RTVSPropertyOp21
 70
     1
102
RTVSPropertyOp22
 70
     1
102
RTVSPropertyOp23
 70
     1
102
RTVSPropertyOp24
 70
     1
102
RTVSPropertyOp25
 70
     1
102
RTVSPropertyOp26
 70
     1
102
RTVSPropertyOp27
 70
     1
102
RTVSPropertyOp28
 70
     1
102
RTVSPropertyOp29
 70
     1
102
RTVSPropertyOp30
 70
     1
102
RTVSPropertyOp31
 70
     1
102
RTVSPropertyOp32
 70
     1
  0
XRECORD
  5
A7
102
{ACAD_REACTORS
330
A6
102
}
330
A6
100
AcDbXrecord
280
     1
102
RTVSPropertyOp0
 70
     1
102
RTVSPropertyOp1
 70
     1
102
RTVSPropertyOp2
 70
     1
102
RTVSPropertyOp3
 70
     1
102
RTVSPropertyOp4
 70
     1
102
RTVSPropertyOp5
 70
     1
102
RTVSPropertyOp6
 70
     1
102
RTVSPropertyOp7
 70
     1
102
RTVSPropertyOp8
 70
     1
102
RTVSPropertyOp9
 70
     1
102
RTVSPropertyOp10
 70
     1
102
RTVSPropertyOp11
 70
     1
102
RTVSPropertyOp12
 70
     1
102
RTVSPropertyOp13
 70
     1
102
RTVSPropertyOp14
 70
     1
102
RTVSPropertyOp15
 70
     1
102
RTVSPropertyOp16
 70
     1
102
RTVSPropertyOp17
 70
     1
102
RTVSPropertyOp18
 70
     1
102
RTVSPropertyOp19
 70
     1
102
RTVSPropertyOp20
 70
     1
102
RTVSPropertyOp21
 70
     1
102
RTVSPropertyOp22
 70
     1
102
RTVSPropertyOp23
 70
     1
102
RTVSPropertyOp24
 70
     1
102
RTVSPropertyOp25
 70
     1
102
RTVSPropertyOp26
 70
     1
102
RTVSPropertyOp27
 70
     1
102
RTVSPropertyOp28
 70
     1
102
RTVSPropertyOp29
 70
     1
102
RTVSPropertyOp30
 70
     1
102
RTVSPropertyOp31
 70
     1
102
RTVSPropertyOp32
 70
     1
  0
XRECORD
  5
A9
102
{ACAD_REACTORS
330
A8
102
}
330
A8
100
AcDbXrecord
280
     1
102
RTVSPropertyOp0
 70
     1
102
RTVSPropertyOp1
 70
     1
102
RTVSPropertyOp2
 70
     1
102
RTVSPropertyOp3
 70
     1
102
RTVSPropertyOp4
 70
     1
102
RTVSPropertyOp5
 70
     1
102
RTVSPropertyOp6
 70
     1
102
RTVSPropertyOp7
 70
     1
102
RTVSPropertyOp8
 70
     1
102
RTVSPropertyOp9
 70
     1
102
RTVSPropertyOp10
 70
     1
102
RTVSPropertyOp11
 70
     1
102
RTVSPropertyOp12
 70
     1
102
RTVSPropertyOp13
 70
     1
102
RTVSPropertyOp14
 70
     1
102
RTVSPropertyOp15
 70
     1
102
RTVSPropertyOp16
 70
     1
102
RTVSPropertyOp17
 70
     1
102
RTVSPropertyOp18
 70
     1
102
RTVSPropertyOp19
 70
     1
102
RTVSPropertyOp20
 70
     1
102
RTVSPropertyOp21
 70
     1
102
RTVSPropertyOp22
 70
     1
102
RTVSPropertyOp23
 70
     1
102
RTVSPropertyOp24
 70
     1
102
RTVSPropertyOp25
 70
     1
102
RTVSPropertyOp26
 70
     1
102
RTVSPropertyOp27
 70
     1
102
RTVSPropertyOp28
 70
     1
102
RTVSPropertyOp29
 70
     1
102
RTVSPropertyOp30
 70
     1
102
RTVSPropertyOp31
 70
     1
102
RTVSPropertyOp32
 70
     1
  0
XRECORD
  5
AB
102
{ACAD_REACTORS
330
AA
102
}
330
AA
100
AcDbXrecord
280
     1
102
RTVSPropertyOp0
 70
     1
102
RTVSPropertyOp1
 70
     1
102
RTVSPropertyOp2
 70
     1
102
RTVSPropertyOp3
 70
     1
102
RTVSPropertyOp4
 70
     1
102
RTVSPropertyOp5
 70
     1
102
RTVSPropertyOp6
 70
     1
102
RTVSPropertyOp7
 70
     1
102
RTVSPropertyOp8
 70
     1
102
RTVSPropertyOp9
 70
     1
102
RTVSPropertyOp10
 70
     1
102
RTVSPropertyOp11
 70
     1
102
RTVSPropertyOp12
 70
     1
102
RTVSPropertyOp13
 70
     1
102
RTVSPropertyOp14
 70
     1
102
RTVSPropertyOp15
 70
     1
102
RTVSPropertyOp16
 70
     1
102
RTVSPropertyOp17
 70
     1
102
RTVSPropertyOp18
 70
     1
102
RTVSPropertyOp19
 70
     1
102
RTVSPropertyOp20
 70
     1
102
RTVSPropertyOp21
 70
     1
102
RTVSPropertyOp22
 70
     1
102
RTVSPropertyOp23
 70
     1
102
RTVSPropertyOp24
 70
     1
102
RTVSPropertyOp25
 70
     1
102
RTVSPropertyOp26
 70
     1
102
RTVSPropertyOp27
 70
     1
102
RTVSPropertyOp28
 70
     1
102
RTVSPropertyOp29
 70
     1
102
RTVSPropertyOp30
 70
     1
102
RTVSPropertyOp31
 70
     1
102
RTVSPropertyOp32
 70
     1
  0
XRECORD
  5
BF
102
{ACAD_REACTORS
330
BE
102
}
330
BE
100
AcDbXrecord
280
     1
102
RTVSPropertyOp0
 70
     1
102
RTVSPropertyOp1
 70
     1
102
RTVSPropertyOp2
 70
     1
102
RTVSPropertyOp3
 70
     1
102
RTVSPropertyOp4
 70
     1
102
RTVSPropertyOp5
 70
     1
102
RTVSPropertyOp6
 70
     1
102
RTVSPropertyOp7
 70
     1
102
RTVSPropertyOp8
 70
     1
102
RTVSPropertyOp9
 70
     1
102
RTVSPropertyOp10
 70
     1
102
RTVSPropertyOp11
 70
     1
102
RTVSPropertyOp12
 70
     1
102
RTVSPropertyOp13
 70
     1
102
RTVSPropertyOp14
 70
     1
102
RTVSPropertyOp15
 70
     1
102
RTVSPropertyOp16
 70
     1
102
RTVSPropertyOp17
 70
     1
102
RTVSPropertyOp18
 70
     1
102
RTVSPropertyOp19
 70
     1
102
RTVSPropertyOp20
 70
     1
102
RTVSPropertyOp21
 70
     1
102
RTVSPropertyOp22
 70
     1
102
RTVSPropertyOp23
 70
     1
102
RTVSPropertyOp24
 70
     1
102
RTVSPropertyOp25
 70
     1
102
RTVSPropertyOp26
 70
     1
102
RTVSPropertyOp27
 70
     1
102
RTVSPropertyOp28
 70
     1
102
RTVSPropertyOp29
 70
     1
102
RTVSPropertyOp30
 70
     1
102
RTVSPropertyOp31
 70
     1
102
RTVSPropertyOp32
 70
     1
  0
XRECORD
  5
B5
102
{ACAD_REACTORS
330
B4
102
}
330
B4
100
AcDbXrecord
280
     1
102
RTVSPropertyOp0
 70
     1
102
RTVSPropertyOp1
 70
     1
102
RTVSPropertyOp2
 70
     1
102
RTVSPropertyOp3
 70
     1
102
RTVSPropertyOp4
 70
     1
102
RTVSPropertyOp5
 70
     1
102
RTVSPropertyOp6
 70
     1
102
RTVSPropertyOp7
 70
     1
102
RTVSPropertyOp8
 70
     1
102
RTVSPropertyOp9
 70
     1
102
RTVSPropertyOp10
 70
     1
102
RTVSPropertyOp11
 70
     1
102
RTVSPropertyOp12
 70
     1
102
RTVSPropertyOp13
 70
     1
102
RTVSPropertyOp14
 70
     1
102
RTVSPropertyOp15
 70
     1
102
RTVSPropertyOp16
 70
     1
102
RTVSPropertyOp17
 70
     1
102
RTVSPropertyOp18
 70
     1
102
RTVSPropertyOp19
 70
     1
102
RTVSPropertyOp20
 70
     1
102
RTVSPropertyOp21
 70
     1
102
RTVSPropertyOp22
 70
     1
102
RTVSPropertyOp23
 70
     1
102
RTVSPropertyOp24
 70
     1
102
RTVSPropertyOp25
 70
     1
102
RTVSPropertyOp26
 70
     1
102
RTVSPropertyOp27
 70
     1
102
RTVSPropertyOp28
 70
     1
102
RTVSPropertyOp29
 70
     1
102
RTVSPropertyOp30
 70
     1
102
RTVSPropertyOp31
 70
     1
102
RTVSPropertyOp32
 70
     1
  0
XRECORD
  5
BD
102
{ACAD_REACTORS
330
BC
102
}
330
BC
100
AcDbXrecord
280
     1
102
RTVSPropertyOp0
 70
     1
102
RTVSPropertyOp1
 70
     1
102
RTVSPropertyOp2
 70
     1
102
RTVSPropertyOp3
 70
     1
102
RTVSPropertyOp4
 70
     1
102
RTVSPropertyOp5
 70
     1
102
RTVSPropertyOp6
 70
     1
102
RTVSPropertyOp7
 70
     1
102
RTVSPropertyOp8
 70
     1
102
RTVSPropertyOp9
 70
     1
102
RTVSPropertyOp10
 70
     1
102
RTVSPropertyOp11
 70
     1
102
RTVSPropertyOp12
 70
     1
102
RTVSPropertyOp13
 70
     1
102
RTVSPropertyOp14
 70
     1
102
RTVSPropertyOp15
 70
     1
102
RTVSPropertyOp16
 70
     1
102
RTVSPropertyOp17
 70
     1
102
RTVSPropertyOp18
 70
     1
102
RTVSPropertyOp19
 70
     1
102
RTVSPropertyOp20
 70
     1
102
RTVSPropertyOp21
 70
     1
102
RTVSPropertyOp22
 70
     1
102
RTVSPropertyOp23
 70
     1
102
RTVSPropertyOp24
 70
     1
102
RTVSPropertyOp25
 70
     1
102
RTVSPropertyOp26
 70
     1
102
RTVSPropertyOp27
 70
     1
102
RTVSPropertyOp28
 70
     1
102
RTVSPropertyOp29
 70
     1
102
RTVSPropertyOp30
 70
     1
102
RTVSPropertyOp31
 70
     1
102
RTVSPropertyOp32
 70
     1
  0
ENDSEC
  0
EOF
