  0
SECTION
  2
HEADER
  9
$ACADVER
  1
AC1002
  9
$INSBASE
 10
0.0
 20
0.0
  9
$EXTMIN
 10
-2107.6631
 20
-148.5381
  9
$EXTMAX
 10
-319.2613
 20
530.0741
  9
$LIMMIN
 10
0.0
 20
0.0
  9
$LIMMAX
 10
12.0
 20
9.0
  9
$ORTHOMODE
 70
     0
  9
$REGENMODE
 70
     1
  9
$FILLMODE
 70
     1
  9
$QTEXTMODE
 70
     0
  9
$DRAGMODE
 70
     2
  9
$LTSCALE
 40
1.0
  9
$OSMODE
 70
    37
  9
$ATTMODE
 70
     1
  9
$TEXTSIZE
 40
0.2
  9
$TRACEWID
 40
0.05
  9
$TEXTSTYLE
  7
STANDARD
  9
$CLAYER
  8
0
  9
$CELTYPE
  6
BYLAYER
  9
$CECOLOR
 62
   256
  9
$DIMSCALE
 40
1.0
  9
$DIMASZ
 40
0.18
  9
$DIMEXO
 40
0.0625
  9
$DIMDLI
 40
0.38
  9
$DIMRND
 40
0.0
  9
$DIMDLE
 40
0.0
  9
$DIMEXE
 40
0.18
  9
$DIMTP
 40
0.0
  9
$DIMTM
 40
0.0
  9
$DIMTXT
 40
0.18
  9
$DIMCEN
 40
0.09
  9
$DIMTSZ
 40
0.0
  9
$DIMTOL
 70
     0
  9
$DIMLIM
 70
     0
  9
$DIMTIH
 70
     1
  9
$DIMTOH
 70
     1
  9
$DIMSE1
 70
     0
  9
$DIMSE2
 70
     0
  9
$DIMTAD
 70
     0
  9
$DIMZIN
 70
     0
  9
$DIMBLK
  1

  9
$LUNITS
 70
     2
  9
$LUPREC
 70
     4
  9
$SKETCHINC
 40
0.1
  9
$FILLETRAD
 40
0.5
  9
$AUNITS
 70
     0
  9
$AUPREC
 70
     0
  9
$MENU
  1
.
  9
$ELEVATION
 40
0.0
  9
$THICKNESS
 40
0.0
  9
$LIMCHECK
 70
     0
  9
$CHAMFERA
 40
0.0
  9
$CHAMFERB
 40
0.0
  9
$SKPOLY
 70
     0
  9
$TDCREATE
 40
2458293.556245903
  9
$TDUPDATE
 40
2458293.556245937
  9
$TDINDWG
 40
0.0000000116
  9
$TDUSRTIMER
 40
0.0000000116
  9
$USRTIMER
 70
     1
  9
$ANGBASE
 50
0.0
  9
$ANGDIR
 70
     0
  9
$PDMODE
 70
     0
  9
$PDSIZE
 40
0.0
  9
$PLINEWID
 40
0.0
  9
$COORDS
 70
     1
  9
$SURFTAB1
 70
     6
  9
$SURFTAB2
 70
     6
  9
$SURFTYPE
 70
     6
  9
$SURFU
 70
     6
  9
$SURFV
 70
     6
  9
$UCSNAME
  2

  9
$UCSORG
 10
0.0
 20
0.0
 30
0.0
  9
$UCSXDIR
 10
1.0
 20
0.0
 30
0.0
  9
$UCSYDIR
 10
0.0
 20
1.0
 30
0.0
  9
$USERI1
 70
     0
  9
$USERI2
 70
     0
  9
$USERI3
 70
     0
  9
$USERI4
 70
     0
  9
$USERI5
 70
     0
  9
$USERR1
 40
0.0
  9
$USERR2
 40
0.0
  9
$USERR3
 40
0.0
  9
$USERR4
 40
0.0
  9
$USERR5
 40
0.0
  0
ENDSEC
  0
SECTION
  2
TABLES
  0
TABLE
  2
LTYPE
 70
     1
  0
LTYPE
  2
CONTINUOUS
 70
     0
  3
Solid line
 72
    65
 73
     0
 40
0.0
  0
ENDTAB
  0
TABLE
  2
LAYER
 70
     2
  0
LAYER
  2
0
 70
     0
 62
     7
  6
CONTINUOUS
  0
LAYER
  2
LIVELLO_1
 70
     0
 62
     7
  6
CONTINUOUS
  0
ENDTAB
  0
TABLE
  2
STYLE
 70
     1
  0
STYLE
  2
STANDARD
 70
     0
 40
0.0
 41
1.0
 50
0.0
 71
     0
 42
0.2
  3
txt
  4

  0
ENDTAB
  0
TABLE
  2
VIEW
 70
     0
  0
ENDTAB
  0
ENDSEC
  0
SECTION
  2
BLOCKS
  0
ENDSEC
  0
SECTION
  2
ENTITIES
  0
POLYLINE
  8
LIVELLO_1
 62
     4
 66
     1
 70
     1
  0
VERTEX
  8
LIVELLO_1
 62
     4
 10
-382.3545
 20
310.036
  0
VERTEX
  8
LIVELLO_1
 62
     4
 10
-372.6994
 20
310.036
  0
VERTEX
  8
LIVELLO_1
 62
     4
 10
-372.6994
 20
306.036
  0
VERTEX
  8
LIVELLO_1
 62
     4
 10
-382.3545
 20
306.036
  0
VERTEX
  8
LIVELLO_1
 62
     4
 10
-383.8584
 20
292.0517
  0
VERTEX
  8
LIVELLO_1
 62
     4
 10
-387.478
 20
278.9674
  0
VERTEX
  8
LIVELLO_1
 62
     4
 10
-393.0645
 20
266.9202
  0
VERTEX
  8
LIVELLO_1
 62
     4
 10
-400.4693
 20
256.047
  0
VERTEX
  8
LIVELLO_1
 62
     4
 10
-409.5439
 20
246.485
  0
VERTEX
  8
LIVELLO_1
 62
     4
 10
-420.1395
 20
238.3711
  0
VERTEX
  8
LIVELLO_1
 62
     4
 10
-432.1075
 20
231.8424
  0
VERTEX
  8
LIVELLO_1
 62
     4
 10
-445.2994
 20
227.036
  0
VERTEX
  8
LIVELLO_1
 62
     4
 10
-445.2994
 20
201.036
  0
VERTEX
  8
LIVELLO_1
 62
     4
 10
-433.2994
 20
201.036
  0
VERTEX
  8
LIVELLO_1
 62
     4
 10
-433.2994
 20
197.036
  0
VERTEX
  8
LIVELLO_1
 62
     4
 10
-421.2994
 20
197.036
  0
VERTEX
  8
LIVELLO_1
 62
     4
 10
-421.2994
 20
201.036
  0
VERTEX
  8
LIVELLO_1
 62
     4
 10
-414.6494
 20
201.036
  0
VERTEX
  8
LIVELLO_1
 62
     4
 10
-414.6494
 20
207.8858
  0
VERTEX
  8
LIVELLO_1
 62
     4
 10
-416.0494
 20
207.8858
  0
VERTEX
  8
LIVELLO_1
 62
     4
 10
-416.0494
 20
210.0858
  0
VERTEX
  8
LIVELLO_1
 62
     4
 10
-414.6494
 20
210.0858
  0
VERTEX
  8
LIVELLO_1
 62
     4
 10
-414.6494
 20
212.036
  0
VERTEX
  8
LIVELLO_1
 62
     4
 10
-411.9494
 20
212.036
  0
VERTEX
  8
LIVELLO_1
 62
     4
 10
-411.9494
 20
210.0858
  0
VERTEX
  8
LIVELLO_1
 62
     4
 10
-410.5494
 20
210.0858
  0
VERTEX
  8
LIVELLO_1
 62
     4
 10
-410.5494
 20
207.8858
  0
VERTEX
  8
LIVELLO_1
 62
     4
 10
-411.9494
 20
207.8858
  0
VERTEX
  8
LIVELLO_1
 62
     4
 10
-411.9494
 20
201.036
  0
VERTEX
  8
LIVELLO_1
 62
     4
 10
-405.2994
 20
201.036
  0
VERTEX
  8
LIVELLO_1
 62
     4
 10
-405.2994
 20
197.036
  0
VERTEX
  8
LIVELLO_1
 62
     4
 10
-393.2994
 20
197.036
  0
VERTEX
  8
LIVELLO_1
 62
     4
 10
-393.2994
 20
201.036
  0
VERTEX
  8
LIVELLO_1
 62
     4
 10
-371.2994
 20
201.036
  0
VERTEX
  8
LIVELLO_1
 62
     4
 10
-371.2994
 20
197.036
  0
VERTEX
  8
LIVELLO_1
 62
     4
 10
-359.2994
 20
197.036
  0
VERTEX
  8
LIVELLO_1
 62
     4
 10
-359.2994
 20
201.036
  0
VERTEX
  8
LIVELLO_1
 62
     4
 10
-352.6494
 20
201.036
  0
VERTEX
  8
LIVELLO_1
 62
     4
 10
-352.6494
 20
207.8858
  0
VERTEX
  8
LIVELLO_1
 62
     4
 10
-354.0494
 20
207.8858
  0
VERTEX
  8
LIVELLO_1
 62
     4
 10
-354.0494
 20
210.0858
  0
VERTEX
  8
LIVELLO_1
 62
     4
 10
-352.6494
 20
210.0858
  0
VERTEX
  8
LIVELLO_1
 62
     4
 10
-352.6494
 20
212.036
  0
VERTEX
  8
LIVELLO_1
 62
     4
 10
-349.9494
 20
212.036
  0
VERTEX
  8
LIVELLO_1
 62
     4
 10
-349.9494
 20
210.0858
  0
VERTEX
  8
LIVELLO_1
 62
     4
 10
-348.5494
 20
210.0858
  0
VERTEX
  8
LIVELLO_1
 62
     4
 10
-348.5494
 20
207.8858
  0
VERTEX
  8
LIVELLO_1
 62
     4
 10
-349.9494
 20
207.8858
  0
VERTEX
  8
LIVELLO_1
 62
     4
 10
-349.9494
 20
201.036
  0
VERTEX
  8
LIVELLO_1
 62
     4
 10
-343.2994
 20
201.036
  0
VERTEX
  8
LIVELLO_1
 62
     4
 10
-343.2994
 20
197.036
  0
VERTEX
  8
LIVELLO_1
 62
     4
 10
-331.2994
 20
197.036
  0
VERTEX
  8
LIVELLO_1
 62
     4
 10
-331.2994
 20
201.036
  0
VERTEX
  8
LIVELLO_1
 62
     4
 10
-319.2994
 20
201.036
  0
VERTEX
  8
LIVELLO_1
 62
     4
 10
-319.2994
 20
306.686
  0
VERTEX
  8
LIVELLO_1
 62
     4
 10
-326.1492
 20
306.686
  0
VERTEX
  8
LIVELLO_1
 62
     4
 10
-326.1492
 20
305.286
  0
VERTEX
  8
LIVELLO_1
 62
     4
 10
-328.3492
 20
305.286
  0
VERTEX
  8
LIVELLO_1
 62
     4
 10
-328.3492
 20
306.686
  0
VERTEX
  8
LIVELLO_1
 62
     4
 10
-330.2994
 20
306.686
  0
VERTEX
  8
LIVELLO_1
 62
     4
 10
-330.2994
 20
309.386
  0
VERTEX
  8
LIVELLO_1
 62
     4
 10
-328.3492
 20
309.386
  0
VERTEX
  8
LIVELLO_1
 62
     4
 10
-328.3492
 20
310.786
  0
VERTEX
  8
LIVELLO_1
 62
     4
 10
-326.1492
 20
310.786
  0
VERTEX
  8
LIVELLO_1
 62
     4
 10
-326.1492
 20
309.386
  0
VERTEX
  8
LIVELLO_1
 62
     4
 10
-319.2994
 20
309.386
  0
VERTEX
  8
LIVELLO_1
 62
     4
 10
-319.2994
 20
415.036
  0
VERTEX
  8
LIVELLO_1
 62
     4
 10
-331.2994
 20
415.036
  0
VERTEX
  8
LIVELLO_1
 62
     4
 10
-331.2994
 20
419.036
  0
VERTEX
  8
LIVELLO_1
 62
     4
 10
-343.2994
 20
419.036
  0
VERTEX
  8
LIVELLO_1
 62
     4
 10
-343.2994
 20
415.036
  0
VERTEX
  8
LIVELLO_1
 62
     4
 10
-349.9494
 20
415.036
  0
VERTEX
  8
LIVELLO_1
 62
     4
 10
-349.9494
 20
408.1862
  0
VERTEX
  8
LIVELLO_1
 62
     4
 10
-348.5494
 20
408.1862
  0
VERTEX
  8
LIVELLO_1
 62
     4
 10
-348.5494
 20
405.9862
  0
VERTEX
  8
LIVELLO_1
 62
     4
 10
-349.9494
 20
405.9862
  0
VERTEX
  8
LIVELLO_1
 62
     4
 10
-349.9494
 20
404.036
  0
VERTEX
  8
LIVELLO_1
 62
     4
 10
-352.6494
 20
404.036
  0
VERTEX
  8
LIVELLO_1
 62
     4
 10
-352.6494
 20
405.9862
  0
VERTEX
  8
LIVELLO_1
 62
     4
 10
-354.0494
 20
405.9862
  0
VERTEX
  8
LIVELLO_1
 62
     4
 10
-354.0494
 20
408.1862
  0
VERTEX
  8
LIVELLO_1
 62
     4
 10
-352.6494
 20
408.1862
  0
VERTEX
  8
LIVELLO_1
 62
     4
 10
-352.6494
 20
415.036
  0
VERTEX
  8
LIVELLO_1
 62
     4
 10
-359.2994
 20
415.036
  0
VERTEX
  8
LIVELLO_1
 62
     4
 10
-359.2994
 20
419.036
  0
VERTEX
  8
LIVELLO_1
 62
     4
 10
-371.2994
 20
419.036
  0
VERTEX
  8
LIVELLO_1
 62
     4
 10
-371.2994
 20
415.036
  0
VERTEX
  8
LIVELLO_1
 62
     4
 10
-393.2994
 20
415.036
  0
VERTEX
  8
LIVELLO_1
 62
     4
 10
-393.2994
 20
419.036
  0
VERTEX
  8
LIVELLO_1
 62
     4
 10
-405.2994
 20
419.036
  0
VERTEX
  8
LIVELLO_1
 62
     4
 10
-405.2994
 20
415.036
  0
VERTEX
  8
LIVELLO_1
 62
     4
 10
-411.9494
 20
415.036
  0
VERTEX
  8
LIVELLO_1
 62
     4
 10
-411.9494
 20
408.1862
  0
VERTEX
  8
LIVELLO_1
 62
     4
 10
-410.5494
 20
408.1862
  0
VERTEX
  8
LIVELLO_1
 62
     4
 10
-410.5494
 20
405.9862
  0
VERTEX
  8
LIVELLO_1
 62
     4
 10
-411.9494
 20
405.9862
  0
VERTEX
  8
LIVELLO_1
 62
     4
 10
-411.9494
 20
404.036
  0
VERTEX
  8
LIVELLO_1
 62
     4
 10
-414.6494
 20
404.036
  0
VERTEX
  8
LIVELLO_1
 62
     4
 10
-414.6494
 20
405.9862
  0
VERTEX
  8
LIVELLO_1
 62
     4
 10
-416.0494
 20
405.9862
  0
VERTEX
  8
LIVELLO_1
 62
     4
 10
-416.0494
 20
408.1862
  0
VERTEX
  8
LIVELLO_1
 62
     4
 10
-414.6494
 20
408.1862
  0
VERTEX
  8
LIVELLO_1
 62
     4
 10
-414.6494
 20
415.036
  0
VERTEX
  8
LIVELLO_1
 62
     4
 10
-421.2994
 20
415.036
  0
VERTEX
  8
LIVELLO_1
 62
     4
 10
-421.2994
 20
419.036
  0
VERTEX
  8
LIVELLO_1
 62
     4
 10
-433.2994
 20
419.036
  0
VERTEX
  8
LIVELLO_1
 62
     4
 10
-433.2994
 20
415.036
  0
VERTEX
  8
LIVELLO_1
 62
     4
 10
-445.2994
 20
415.036
  0
VERTEX
  8
LIVELLO_1
 62
     4
 10
-445.2994
 20
389.036
  0
VERTEX
  8
LIVELLO_1
 62
     4
 10
-432.1036
 20
384.2372
  0
VERTEX
  8
LIVELLO_1
 62
     4
 10
-420.1342
 20
377.7287
  0
VERTEX
  8
LIVELLO_1
 62
     4
 10
-409.539
 20
369.6402
  0
VERTEX
  8
LIVELLO_1
 62
     4
 10
-400.466
 20
360.1015
  0
VERTEX
  8
LIVELLO_1
 62
     4
 10
-393.0632
 20
349.242
  0
VERTEX
  8
LIVELLO_1
 62
     4
 10
-387.4784
 20
337.1915
  0
VERTEX
  8
LIVELLO_1
 62
     4
 10
-383.8595
 20
324.0796
  0
VERTEX
  8
LIVELLO_1
 62
     4
 10
-382.3545
 20
310.036
  0
SEQEND
  8
LIVELLO_1
 62
     4
  0
POLYLINE
  8
LIVELLO_1
 62
     3
 66
     1
 70
     1
  0
VERTEX
  8
LIVELLO_1
 62
     3
 10
-588.4494
 20
-111.8906
  0
VERTEX
  8
LIVELLO_1
 62
     3
 10
-588.7601
 20
-111.6522
  0
VERTEX
  8
LIVELLO_1
 62
     3
 10
-588.9984
 20
-111.3416
  0
VERTEX
  8
LIVELLO_1
 62
     3
 10
-589.1483
 20
-110.9798
  0
VERTEX
  8
LIVELLO_1
 62
     3
 10
-589.1994
 20
-110.5916
  0
VERTEX
  8
LIVELLO_1
 62
     3
 10
-589.1483
 20
-110.2033
  0
VERTEX
  8
LIVELLO_1
 62
     3
 10
-588.9984
 20
-109.8416
  0
VERTEX
  8
LIVELLO_1
 62
     3
 10
-588.7601
 20
-109.5309
  0
VERTEX
  8
LIVELLO_1
 62
     3
 10
-588.4494
 20
-109.2925
  0
VERTEX
  8
LIVELLO_1
 62
     3
 10
-588.0876
 20
-109.1427
  0
VERTEX
  8
LIVELLO_1
 62
     3
 10
-587.6994
 20
-109.0916
  0
VERTEX
  8
LIVELLO_1
 62
     3
 10
-587.3112
 20
-109.1427
  0
VERTEX
  8
LIVELLO_1
 62
     3
 10
-586.9494
 20
-109.2925
  0
VERTEX
  8
LIVELLO_1
 62
     3
 10
-586.6387
 20
-109.5309
  0
VERTEX
  8
LIVELLO_1
 62
     3
 10
-586.4004
 20
-109.8416
  0
VERTEX
  8
LIVELLO_1
 62
     3
 10
-586.2505
 20
-110.2033
  0
VERTEX
  8
LIVELLO_1
 62
     3
 10
-586.1994
 20
-110.5916
  0
VERTEX
  8
LIVELLO_1
 62
     3
 10
-586.2505
 20
-110.9798
  0
VERTEX
  8
LIVELLO_1
 62
     3
 10
-586.4004
 20
-111.3416
  0
VERTEX
  8
LIVELLO_1
 62
     3
 10
-586.6387
 20
-111.6522
  0
VERTEX
  8
LIVELLO_1
 62
     3
 10
-586.9494
 20
-111.8906
  0
VERTEX
  8
LIVELLO_1
 62
     3
 10
-587.3112
 20
-112.0404
  0
VERTEX
  8
LIVELLO_1
 62
     3
 10
-587.6994
 20
-112.0916
  0
VERTEX
  8
LIVELLO_1
 62
     3
 10
-588.0876
 20
-112.0404
  0
VERTEX
  8
LIVELLO_1
 62
     3
 10
-588.4494
 20
-111.8906
  0
SEQEND
  8
LIVELLO_1
 62
     3
  0
POLYLINE
  8
LIVELLO_1
 62
     3
 66
     1
 70
     1
  0
VERTEX
  8
LIVELLO_1
 62
     3
 10
-644.4505
 20
-110.9798
  0
VERTEX
  8
LIVELLO_1
 62
     3
 10
-644.6004
 20
-111.3416
  0
VERTEX
  8
LIVELLO_1
 62
     3
 10
-644.8387
 20
-111.6522
  0
VERTEX
  8
LIVELLO_1
 62
     3
 10
-645.1494
 20
-111.8906
  0
VERTEX
  8
LIVELLO_1
 62
     3
 10
-645.5112
 20
-112.0404
  0
VERTEX
  8
LIVELLO_1
 62
     3
 10
-645.8994
 20
-112.0916
  0
VERTEX
  8
LIVELLO_1
 62
     3
 10
-646.2876
 20
-112.0404
  0
VERTEX
  8
LIVELLO_1
 62
     3
 10
-646.6494
 20
-111.8906
  0
VERTEX
  8
LIVELLO_1
 62
     3
 10
-646.9601
 20
-111.6522
  0
VERTEX
  8
LIVELLO_1
 62
     3
 10
-647.1984
 20
-111.3416
  0
VERTEX
  8
LIVELLO_1
 62
     3
 10
-647.3483
 20
-110.9798
  0
VERTEX
  8
LIVELLO_1
 62
     3
 10
-647.3994
 20
-110.5916
  0
VERTEX
  8
LIVELLO_1
 62
     3
 10
-647.3483
 20
-110.2033
  0
VERTEX
  8
LIVELLO_1
 62
     3
 10
-647.1984
 20
-109.8416
  0
VERTEX
  8
LIVELLO_1
 62
     3
 10
-646.9601
 20
-109.5309
  0
VERTEX
  8
LIVELLO_1
 62
     3
 10
-646.6494
 20
-109.2925
  0
VERTEX
  8
LIVELLO_1
 62
     3
 10
-646.2876
 20
-109.1427
  0
VERTEX
  8
LIVELLO_1
 62
     3
 10
-645.8994
 20
-109.0916
  0
VERTEX
  8
LIVELLO_1
 62
     3
 10
-645.5112
 20
-109.1427
  0
VERTEX
  8
LIVELLO_1
 62
     3
 10
-645.1494
 20
-109.2925
  0
VERTEX
  8
LIVELLO_1
 62
     3
 10
-644.8387
 20
-109.5309
  0
VERTEX
  8
LIVELLO_1
 62
     3
 10
-644.6004
 20
-109.8416
  0
VERTEX
  8
LIVELLO_1
 62
     3
 10
-644.4505
 20
-110.2033
  0
VERTEX
  8
LIVELLO_1
 62
     3
 10
-644.3994
 20
-110.5916
  0
VERTEX
  8
LIVELLO_1
 62
     3
 10
-644.4505
 20
-110.9798
  0
SEQEND
  8
LIVELLO_1
 62
     3
  0
POLYLINE
  8
LIVELLO_1
 62
     3
 66
     1
 70
     1
  0
VERTEX
  8
LIVELLO_1
 62
     3
 10
-479.4494
 20
-111.8906
  0
VERTEX
  8
LIVELLO_1
 62
     3
 10
-479.7601
 20
-111.6522
  0
VERTEX
  8
LIVELLO_1
 62
     3
 10
-479.9984
 20
-111.3416
  0
VERTEX
  8
LIVELLO_1
 62
     3
 10
-480.1483
 20
-110.9798
  0
VERTEX
  8
LIVELLO_1
 62
     3
 10
-480.1994
 20
-110.5916
  0
VERTEX
  8
LIVELLO_1
 62
     3
 10
-480.1483
 20
-110.2033
  0
VERTEX
  8
LIVELLO_1
 62
     3
 10
-479.9984
 20
-109.8416
  0
VERTEX
  8
LIVELLO_1
 62
     3
 10
-479.7601
 20
-109.5309
  0
VERTEX
  8
LIVELLO_1
 62
     3
 10
-479.4494
 20
-109.2925
  0
VERTEX
  8
LIVELLO_1
 62
     3
 10
-479.0876
 20
-109.1427
  0
VERTEX
  8
LIVELLO_1
 62
     3
 10
-478.6994
 20
-109.0916
  0
VERTEX
  8
LIVELLO_1
 62
     3
 10
-478.3112
 20
-109.1427
  0
VERTEX
  8
LIVELLO_1
 62
     3
 10
-477.9494
 20
-109.2925
  0
VERTEX
  8
LIVELLO_1
 62
     3
 10
-477.6387
 20
-109.5309
  0
VERTEX
  8
LIVELLO_1
 62
     3
 10
-477.4004
 20
-109.8416
  0
VERTEX
  8
LIVELLO_1
 62
     3
 10
-477.2505
 20
-110.2033
  0
VERTEX
  8
LIVELLO_1
 62
     3
 10
-477.1994
 20
-110.5916
  0
VERTEX
  8
LIVELLO_1
 62
     3
 10
-477.2505
 20
-110.9798
  0
VERTEX
  8
LIVELLO_1
 62
     3
 10
-477.4004
 20
-111.3416
  0
VERTEX
  8
LIVELLO_1
 62
     3
 10
-477.6387
 20
-111.6522
  0
VERTEX
  8
LIVELLO_1
 62
     3
 10
-477.9494
 20
-111.8906
  0
VERTEX
  8
LIVELLO_1
 62
     3
 10
-478.3112
 20
-112.0404
  0
VERTEX
  8
LIVELLO_1
 62
     3
 10
-478.6994
 20
-112.0916
  0
VERTEX
  8
LIVELLO_1
 62
     3
 10
-479.0876
 20
-112.0404
  0
VERTEX
  8
LIVELLO_1
 62
     3
 10
-479.4494
 20
-111.8906
  0
SEQEND
  8
LIVELLO_1
 62
     3
  0
POLYLINE
  8
LIVELLO_1
 62
     3
 66
     1
 70
     1
  0
VERTEX
  8
LIVELLO_1
 62
     3
 10
-535.4505
 20
-110.9798
  0
VERTEX
  8
LIVELLO_1
 62
     3
 10
-535.6004
 20
-111.3416
  0
VERTEX
  8
LIVELLO_1
 62
     3
 10
-535.8387
 20
-111.6522
  0
VERTEX
  8
LIVELLO_1
 62
     3
 10
-536.1494
 20
-111.8906
  0
VERTEX
  8
LIVELLO_1
 62
     3
 10
-536.5112
 20
-112.0404
  0
VERTEX
  8
LIVELLO_1
 62
     3
 10
-536.8994
 20
-112.0916
  0
VERTEX
  8
LIVELLO_1
 62
     3
 10
-537.2876
 20
-112.0404
  0
VERTEX
  8
LIVELLO_1
 62
     3
 10
-537.6494
 20
-111.8906
  0
VERTEX
  8
LIVELLO_1
 62
     3
 10
-537.9601
 20
-111.6522
  0
VERTEX
  8
LIVELLO_1
 62
     3
 10
-538.1984
 20
-111.3416
  0
VERTEX
  8
LIVELLO_1
 62
     3
 10
-538.3483
 20
-110.9798
  0
VERTEX
  8
LIVELLO_1
 62
     3
 10
-538.3994
 20
-110.5916
  0
VERTEX
  8
LIVELLO_1
 62
     3
 10
-538.3483
 20
-110.2033
  0
VERTEX
  8
LIVELLO_1
 62
     3
 10
-538.1984
 20
-109.8416
  0
VERTEX
  8
LIVELLO_1
 62
     3
 10
-537.9601
 20
-109.5309
  0
VERTEX
  8
LIVELLO_1
 62
     3
 10
-537.6494
 20
-109.2925
  0
VERTEX
  8
LIVELLO_1
 62
     3
 10
-537.2876
 20
-109.1427
  0
VERTEX
  8
LIVELLO_1
 62
     3
 10
-536.8994
 20
-109.0916
  0
VERTEX
  8
LIVELLO_1
 62
     3
 10
-536.5112
 20
-109.1427
  0
VERTEX
  8
LIVELLO_1
 62
     3
 10
-536.1494
 20
-109.2925
  0
VERTEX
  8
LIVELLO_1
 62
     3
 10
-535.8387
 20
-109.5309
  0
VERTEX
  8
LIVELLO_1
 62
     3
 10
-535.6004
 20
-109.8416
  0
VERTEX
  8
LIVELLO_1
 62
     3
 10
-535.4505
 20
-110.2033
  0
VERTEX
  8
LIVELLO_1
 62
     3
 10
-535.3994
 20
-110.5916
  0
VERTEX
  8
LIVELLO_1
 62
     3
 10
-535.4505
 20
-110.9798
  0
SEQEND
  8
LIVELLO_1
 62
     3
  0
POLYLINE
  8
LIVELLO_1
 62
     5
 66
     1
 70
     1
  0
VERTEX
  8
LIVELLO_1
 62
     5
 10
-459.2994
 20
-99.5427
  0
VERTEX
  8
LIVELLO_1
 62
     5
 10
-544.388
 20
-99.5427
  0
VERTEX
  8
LIVELLO_1
 62
     5
 10
-556.2994
 20
-99.5427
  0
VERTEX
  8
LIVELLO_1
 62
     5
 10
-568.2994
 20
-99.5427
  0
VERTEX
  8
LIVELLO_1
 62
     5
 10
-578.3996
 20
-99.5427
  0
VERTEX
  8
LIVELLO_1
 62
     5
 10
-665.2994
 20
-99.5427
  0
VERTEX
  8
LIVELLO_1
 62
     5
 10
-665.8215
 20
-99.5769
  0
VERTEX
  8
LIVELLO_1
 62
     5
 10
-666.3347
 20
-99.679
  0
VERTEX
  8
LIVELLO_1
 62
     5
 10
-666.8301
 20
-99.8472
  0
VERTEX
  8
LIVELLO_1
 62
     5
 10
-667.2994
 20
-100.0786
  0
VERTEX
  8
LIVELLO_1
 62
     5
 10
-667.7344
 20
-100.3693
  0
VERTEX
  8
LIVELLO_1
 62
     5
 10
-668.1278
 20
-100.7142
  0
VERTEX
  8
LIVELLO_1
 62
     5
 10
-668.4728
 20
-101.1076
  0
VERTEX
  8
LIVELLO_1
 62
     5
 10
-668.7635
 20
-101.5427
  0
VERTEX
  8
LIVELLO_1
 62
     5
 10
-668.9949
 20
-102.0119
  0
VERTEX
  8
LIVELLO_1
 62
     5
 10
-669.1631
 20
-102.5074
  0
VERTEX
  8
LIVELLO_1
 62
     5
 10
-669.2652
 20
-103.0206
  0
VERTEX
  8
LIVELLO_1
 62
     5
 10
-669.2994
 20
-103.5427
  0
VERTEX
  8
LIVELLO_1
 62
     5
 10
-669.2994
 20
-118.5916
  0
VERTEX
  8
LIVELLO_1
 62
     5
 10
-669.2652
 20
-119.1137
  0
VERTEX
  8
LIVELLO_1
 62
     5
 10
-669.1631
 20
-119.6268
  0
VERTEX
  8
LIVELLO_1
 62
     5
 10
-668.9949
 20
-120.1223
  0
VERTEX
  8
LIVELLO_1
 62
     5
 10
-668.7635
 20
-120.5916
  0
VERTEX
  8
LIVELLO_1
 62
     5
 10
-668.4728
 20
-121.0266
  0
VERTEX
  8
LIVELLO_1
 62
     5
 10
-668.1278
 20
-121.42
  0
VERTEX
  8
LIVELLO_1
 62
     5
 10
-667.7344
 20
-121.765
  0
VERTEX
  8
LIVELLO_1
 62
     5
 10
-667.2994
 20
-122.0557
  0
VERTEX
  8
LIVELLO_1
 62
     5
 10
-666.8301
 20
-122.2871
  0
VERTEX
  8
LIVELLO_1
 62
     5
 10
-666.3347
 20
-122.4553
  0
VERTEX
  8
LIVELLO_1
 62
     5
 10
-665.8215
 20
-122.5573
  0
VERTEX
  8
LIVELLO_1
 62
     5
 10
-665.2994
 20
-122.5916
  0
VERTEX
  8
LIVELLO_1
 62
     5
 10
-568.2994
 20
-122.5916
  0
VERTEX
  8
LIVELLO_1
 62
     5
 10
-567.7773
 20
-122.5573
  0
VERTEX
  8
LIVELLO_1
 62
     5
 10
-567.2641
 20
-122.4553
  0
VERTEX
  8
LIVELLO_1
 62
     5
 10
-566.7687
 20
-122.2871
  0
VERTEX
  8
LIVELLO_1
 62
     5
 10
-566.2994
 20
-122.0557
  0
VERTEX
  8
LIVELLO_1
 62
     5
 10
-565.8644
 20
-121.765
  0
VERTEX
  8
LIVELLO_1
 62
     5
 10
-565.471
 20
-121.42
  0
VERTEX
  8
LIVELLO_1
 62
     5
 10
-565.126
 20
-121.0266
  0
VERTEX
  8
LIVELLO_1
 62
     5
 10
-564.8353
 20
-120.5916
  0
VERTEX
  8
LIVELLO_1
 62
     5
 10
-564.6039
 20
-120.1223
  0
VERTEX
  8
LIVELLO_1
 62
     5
 10
-564.4357
 20
-119.6268
  0
VERTEX
  8
LIVELLO_1
 62
     5
 10
-564.3336
 20
-119.1137
  0
VERTEX
  8
LIVELLO_1
 62
     5
 10
-564.2994
 20
-118.5916
  0
VERTEX
  8
LIVELLO_1
 62
     5
 10
-564.2994
 20
-110.5916
  0
VERTEX
  8
LIVELLO_1
 62
     5
 10
-560.2994
 20
-110.5916
  0
VERTEX
  8
LIVELLO_1
 62
     5
 10
-560.2994
 20
-118.5916
  0
VERTEX
  8
LIVELLO_1
 62
     5
 10
-560.2652
 20
-119.1137
  0
VERTEX
  8
LIVELLO_1
 62
     5
 10
-560.1631
 20
-119.6268
  0
VERTEX
  8
LIVELLO_1
 62
     5
 10
-559.9949
 20
-120.1223
  0
VERTEX
  8
LIVELLO_1
 62
     5
 10
-559.7635
 20
-120.5916
  0
VERTEX
  8
LIVELLO_1
 62
     5
 10
-559.4728
 20
-121.0266
  0
VERTEX
  8
LIVELLO_1
 62
     5
 10
-559.1278
 20
-121.42
  0
VERTEX
  8
LIVELLO_1
 62
     5
 10
-558.7344
 20
-121.765
  0
VERTEX
  8
LIVELLO_1
 62
     5
 10
-558.2994
 20
-122.0557
  0
VERTEX
  8
LIVELLO_1
 62
     5
 10
-557.8301
 20
-122.2871
  0
VERTEX
  8
LIVELLO_1
 62
     5
 10
-557.3347
 20
-122.4553
  0
VERTEX
  8
LIVELLO_1
 62
     5
 10
-556.8215
 20
-122.5573
  0
VERTEX
  8
LIVELLO_1
 62
     5
 10
-556.2994
 20
-122.5916
  0
VERTEX
  8
LIVELLO_1
 62
     5
 10
-459.2994
 20
-122.5916
  0
VERTEX
  8
LIVELLO_1
 62
     5
 10
-458.7773
 20
-122.5573
  0
VERTEX
  8
LIVELLO_1
 62
     5
 10
-458.2641
 20
-122.4553
  0
VERTEX
  8
LIVELLO_1
 62
     5
 10
-457.7687
 20
-122.2871
  0
VERTEX
  8
LIVELLO_1
 62
     5
 10
-457.2994
 20
-122.0557
  0
VERTEX
  8
LIVELLO_1
 62
     5
 10
-456.8644
 20
-121.765
  0
VERTEX
  8
LIVELLO_1
 62
     5
 10
-456.471
 20
-121.42
  0
VERTEX
  8
LIVELLO_1
 62
     5
 10
-456.126
 20
-121.0266
  0
VERTEX
  8
LIVELLO_1
 62
     5
 10
-455.8353
 20
-120.5916
  0
VERTEX
  8
LIVELLO_1
 62
     5
 10
-455.6039
 20
-120.1223
  0
VERTEX
  8
LIVELLO_1
 62
     5
 10
-455.4357
 20
-119.6268
  0
VERTEX
  8
LIVELLO_1
 62
     5
 10
-455.3336
 20
-119.1137
  0
VERTEX
  8
LIVELLO_1
 62
     5
 10
-455.2994
 20
-118.5916
  0
VERTEX
  8
LIVELLO_1
 62
     5
 10
-455.2994
 20
-103.5427
  0
VERTEX
  8
LIVELLO_1
 62
     5
 10
-455.3336
 20
-103.0206
  0
VERTEX
  8
LIVELLO_1
 62
     5
 10
-455.4357
 20
-102.5074
  0
VERTEX
  8
LIVELLO_1
 62
     5
 10
-455.6039
 20
-102.0119
  0
VERTEX
  8
LIVELLO_1
 62
     5
 10
-455.8353
 20
-101.5427
  0
VERTEX
  8
LIVELLO_1
 62
     5
 10
-456.126
 20
-101.1076
  0
VERTEX
  8
LIVELLO_1
 62
     5
 10
-456.471
 20
-100.7142
  0
VERTEX
  8
LIVELLO_1
 62
     5
 10
-456.8644
 20
-100.3693
  0
VERTEX
  8
LIVELLO_1
 62
     5
 10
-457.2994
 20
-100.0786
  0
VERTEX
  8
LIVELLO_1
 62
     5
 10
-457.7687
 20
-99.8472
  0
VERTEX
  8
LIVELLO_1
 62
     5
 10
-458.2641
 20
-99.679
  0
VERTEX
  8
LIVELLO_1
 62
     5
 10
-458.7773
 20
-99.5769
  0
VERTEX
  8
LIVELLO_1
 62
     5
 10
-459.2994
 20
-99.5427
  0
SEQEND
  8
LIVELLO_1
 62
     5
  0
POLYLINE
  8
LIVELLO_1
 62
     6
 66
     1
 70
     1
  0
VERTEX
  8
LIVELLO_1
 62
     6
 10
-807.2994
 20
201.036
  0
VERTEX
  8
LIVELLO_1
 62
     6
 10
-807.2994
 20
415.036
  0
VERTEX
  8
LIVELLO_1
 62
     6
 10
-870.3994
 20
415.036
  0
VERTEX
  8
LIVELLO_1
 62
     6
 10
-870.3994
 20
419.036
  0
VERTEX
  8
LIVELLO_1
 62
     6
 10
-929.2994
 20
419.036
  0
VERTEX
  8
LIVELLO_1
 62
     6
 10
-929.2994
 20
411.036
  0
VERTEX
  8
LIVELLO_1
 62
     6
 10
-933.2994
 20
411.036
  0
VERTEX
  8
LIVELLO_1
 62
     6
 10
-933.2994
 20
389.036
  0
VERTEX
  8
LIVELLO_1
 62
     6
 10
-920.1036
 20
384.2372
  0
VERTEX
  8
LIVELLO_1
 62
     6
 10
-908.1342
 20
377.7287
  0
VERTEX
  8
LIVELLO_1
 62
     6
 10
-897.539
 20
369.6402
  0
VERTEX
  8
LIVELLO_1
 62
     6
 10
-888.466
 20
360.1015
  0
VERTEX
  8
LIVELLO_1
 62
     6
 10
-881.0632
 20
349.242
  0
VERTEX
  8
LIVELLO_1
 62
     6
 10
-875.4784
 20
337.1915
  0
VERTEX
  8
LIVELLO_1
 62
     6
 10
-871.8595
 20
324.0796
  0
VERTEX
  8
LIVELLO_1
 62
     6
 10
-870.3545
 20
310.036
  0
VERTEX
  8
LIVELLO_1
 62
     6
 10
-838.7994
 20
310.036
  0
VERTEX
  8
LIVELLO_1
 62
     6
 10
-838.7994
 20
306.036
  0
VERTEX
  8
LIVELLO_1
 62
     6
 10
-870.2994
 20
306.036
  0
VERTEX
  8
LIVELLO_1
 62
     6
 10
-871.8108
 20
291.9882
  0
VERTEX
  8
LIVELLO_1
 62
     6
 10
-875.4364
 20
278.8734
  0
VERTEX
  8
LIVELLO_1
 62
     6
 10
-881.0283
 20
266.8213
  0
VERTEX
  8
LIVELLO_1
 62
     6
 10
-888.4385
 20
255.9614
  0
VERTEX
  8
LIVELLO_1
 62
     6
 10
-897.5187
 20
246.4233
  0
VERTEX
  8
LIVELLO_1
 62
     6
 10
-908.1209
 20
238.3366
  0
VERTEX
  8
LIVELLO_1
 62
     6
 10
-920.0972
 20
231.831
  0
VERTEX
  8
LIVELLO_1
 62
     6
 10
-933.2994
 20
227.036
  0
VERTEX
  8
LIVELLO_1
 62
     6
 10
-933.2994
 20
205.036
  0
VERTEX
  8
LIVELLO_1
 62
     6
 10
-929.2994
 20
205.036
  0
VERTEX
  8
LIVELLO_1
 62
     6
 10
-929.2994
 20
197.036
  0
VERTEX
  8
LIVELLO_1
 62
     6
 10
-870.2994
 20
197.036
  0
VERTEX
  8
LIVELLO_1
 62
     6
 10
-870.2994
 20
201.036
  0
VERTEX
  8
LIVELLO_1
 62
     6
 10
-807.2994
 20
201.036
  0
SEQEND
  8
LIVELLO_1
 62
     6
  0
POLYLINE
  8
LIVELLO_1
 62
     3
 66
     1
 70
     1
  0
VERTEX
  8
LIVELLO_1
 62
     3
 10
-588.4494
 20
-137.799
  0
VERTEX
  8
LIVELLO_1
 62
     3
 10
-588.7601
 20
-137.5606
  0
VERTEX
  8
LIVELLO_1
 62
     3
 10
-588.9984
 20
-137.25
  0
VERTEX
  8
LIVELLO_1
 62
     3
 10
-589.1483
 20
-136.8882
  0
VERTEX
  8
LIVELLO_1
 62
     3
 10
-589.1994
 20
-136.5
  0
VERTEX
  8
LIVELLO_1
 62
     3
 10
-589.1483
 20
-136.1117
  0
VERTEX
  8
LIVELLO_1
 62
     3
 10
-588.9984
 20
-135.75
  0
VERTEX
  8
LIVELLO_1
 62
     3
 10
-588.7601
 20
-135.4393
  0
VERTEX
  8
LIVELLO_1
 62
     3
 10
-588.4494
 20
-135.2009
  0
VERTEX
  8
LIVELLO_1
 62
     3
 10
-588.0876
 20
-135.0511
  0
VERTEX
  8
LIVELLO_1
 62
     3
 10
-587.6994
 20
-135.0
  0
VERTEX
  8
LIVELLO_1
 62
     3
 10
-587.3112
 20
-135.0511
  0
VERTEX
  8
LIVELLO_1
 62
     3
 10
-586.9494
 20
-135.2009
  0
VERTEX
  8
LIVELLO_1
 62
     3
 10
-586.6387
 20
-135.4393
  0
VERTEX
  8
LIVELLO_1
 62
     3
 10
-586.4004
 20
-135.75
  0
VERTEX
  8
LIVELLO_1
 62
     3
 10
-586.2505
 20
-136.1117
  0
VERTEX
  8
LIVELLO_1
 62
     3
 10
-586.1994
 20
-136.5
  0
VERTEX
  8
LIVELLO_1
 62
     3
 10
-586.2505
 20
-136.8882
  0
VERTEX
  8
LIVELLO_1
 62
     3
 10
-586.4004
 20
-137.25
  0
VERTEX
  8
LIVELLO_1
 62
     3
 10
-586.6387
 20
-137.5606
  0
VERTEX
  8
LIVELLO_1
 62
     3
 10
-586.9494
 20
-137.799
  0
VERTEX
  8
LIVELLO_1
 62
     3
 10
-587.3112
 20
-137.9488
  0
VERTEX
  8
LIVELLO_1
 62
     3
 10
-587.6994
 20
-138.0
  0
VERTEX
  8
LIVELLO_1
 62
     3
 10
-588.0876
 20
-137.9488
  0
VERTEX
  8
LIVELLO_1
 62
     3
 10
-588.4494
 20
-137.799
  0
SEQEND
  8
LIVELLO_1
 62
     3
  0
POLYLINE
  8
LIVELLO_1
 62
     3
 66
     1
 70
     1
  0
VERTEX
  8
LIVELLO_1
 62
     3
 10
-644.4505
 20
-136.8882
  0
VERTEX
  8
LIVELLO_1
 62
     3
 10
-644.6004
 20
-137.25
  0
VERTEX
  8
LIVELLO_1
 62
     3
 10
-644.8387
 20
-137.5606
  0
VERTEX
  8
LIVELLO_1
 62
     3
 10
-645.1494
 20
-137.799
  0
VERTEX
  8
LIVELLO_1
 62
     3
 10
-645.5112
 20
-137.9488
  0
VERTEX
  8
LIVELLO_1
 62
     3
 10
-645.8994
 20
-138.0
  0
VERTEX
  8
LIVELLO_1
 62
     3
 10
-646.2876
 20
-137.9488
  0
VERTEX
  8
LIVELLO_1
 62
     3
 10
-646.6494
 20
-137.799
  0
VERTEX
  8
LIVELLO_1
 62
     3
 10
-646.9601
 20
-137.5606
  0
VERTEX
  8
LIVELLO_1
 62
     3
 10
-647.1984
 20
-137.25
  0
VERTEX
  8
LIVELLO_1
 62
     3
 10
-647.3483
 20
-136.8882
  0
VERTEX
  8
LIVELLO_1
 62
     3
 10
-647.3994
 20
-136.5
  0
VERTEX
  8
LIVELLO_1
 62
     3
 10
-647.3483
 20
-136.1117
  0
VERTEX
  8
LIVELLO_1
 62
     3
 10
-647.1984
 20
-135.75
  0
VERTEX
  8
LIVELLO_1
 62
     3
 10
-646.9601
 20
-135.4393
  0
VERTEX
  8
LIVELLO_1
 62
     3
 10
-646.6494
 20
-135.2009
  0
VERTEX
  8
LIVELLO_1
 62
     3
 10
-646.2876
 20
-135.0511
  0
VERTEX
  8
LIVELLO_1
 62
     3
 10
-645.8994
 20
-135.0
  0
VERTEX
  8
LIVELLO_1
 62
     3
 10
-645.5112
 20
-135.0511
  0
VERTEX
  8
LIVELLO_1
 62
     3
 10
-645.1494
 20
-135.2009
  0
VERTEX
  8
LIVELLO_1
 62
     3
 10
-644.8387
 20
-135.4393
  0
VERTEX
  8
LIVELLO_1
 62
     3
 10
-644.6004
 20
-135.75
  0
VERTEX
  8
LIVELLO_1
 62
     3
 10
-644.4505
 20
-136.1117
  0
VERTEX
  8
LIVELLO_1
 62
     3
 10
-644.3994
 20
-136.5
  0
VERTEX
  8
LIVELLO_1
 62
     3
 10
-644.4505
 20
-136.8882
  0
SEQEND
  8
LIVELLO_1
 62
     3
  0
POLYLINE
  8
LIVELLO_1
 62
     3
 66
     1
 70
     1
  0
VERTEX
  8
LIVELLO_1
 62
     3
 10
-479.4494
 20
-137.799
  0
VERTEX
  8
LIVELLO_1
 62
     3
 10
-479.7601
 20
-137.5606
  0
VERTEX
  8
LIVELLO_1
 62
     3
 10
-479.9984
 20
-137.25
  0
VERTEX
  8
LIVELLO_1
 62
     3
 10
-480.1483
 20
-136.8882
  0
VERTEX
  8
LIVELLO_1
 62
     3
 10
-480.1994
 20
-136.5
  0
VERTEX
  8
LIVELLO_1
 62
     3
 10
-480.1483
 20
-136.1117
  0
VERTEX
  8
LIVELLO_1
 62
     3
 10
-479.9984
 20
-135.75
  0
VERTEX
  8
LIVELLO_1
 62
     3
 10
-479.7601
 20
-135.4393
  0
VERTEX
  8
LIVELLO_1
 62
     3
 10
-479.4494
 20
-135.2009
  0
VERTEX
  8
LIVELLO_1
 62
     3
 10
-479.0876
 20
-135.0511
  0
VERTEX
  8
LIVELLO_1
 62
     3
 10
-478.6994
 20
-135.0
  0
VERTEX
  8
LIVELLO_1
 62
     3
 10
-478.3112
 20
-135.0511
  0
VERTEX
  8
LIVELLO_1
 62
     3
 10
-477.9494
 20
-135.2009
  0
VERTEX
  8
LIVELLO_1
 62
     3
 10
-477.6387
 20
-135.4393
  0
VERTEX
  8
LIVELLO_1
 62
     3
 10
-477.4004
 20
-135.75
  0
VERTEX
  8
LIVELLO_1
 62
     3
 10
-477.2505
 20
-136.1117
  0
VERTEX
  8
LIVELLO_1
 62
     3
 10
-477.1994
 20
-136.5
  0
VERTEX
  8
LIVELLO_1
 62
     3
 10
-477.2505
 20
-136.8882
  0
VERTEX
  8
LIVELLO_1
 62
     3
 10
-477.4004
 20
-137.25
  0
VERTEX
  8
LIVELLO_1
 62
     3
 10
-477.6387
 20
-137.5606
  0
VERTEX
  8
LIVELLO_1
 62
     3
 10
-477.9494
 20
-137.799
  0
VERTEX
  8
LIVELLO_1
 62
     3
 10
-478.3112
 20
-137.9488
  0
VERTEX
  8
LIVELLO_1
 62
     3
 10
-478.6994
 20
-138.0
  0
VERTEX
  8
LIVELLO_1
 62
     3
 10
-479.0876
 20
-137.9488
  0
VERTEX
  8
LIVELLO_1
 62
     3
 10
-479.4494
 20
-137.799
  0
SEQEND
  8
LIVELLO_1
 62
     3
  0
POLYLINE
  8
LIVELLO_1
 62
     3
 66
     1
 70
     1
  0
VERTEX
  8
LIVELLO_1
 62
     3
 10
-535.4505
 20
-136.8882
  0
VERTEX
  8
LIVELLO_1
 62
     3
 10
-535.6004
 20
-137.25
  0
VERTEX
  8
LIVELLO_1
 62
     3
 10
-535.8387
 20
-137.5606
  0
VERTEX
  8
LIVELLO_1
 62
     3
 10
-536.1494
 20
-137.799
  0
VERTEX
  8
LIVELLO_1
 62
     3
 10
-536.5112
 20
-137.9488
  0
VERTEX
  8
LIVELLO_1
 62
     3
 10
-536.8994
 20
-138.0
  0
VERTEX
  8
LIVELLO_1
 62
     3
 10
-537.2876
 20
-137.9488
  0
VERTEX
  8
LIVELLO_1
 62
     3
 10
-537.6494
 20
-137.799
  0
VERTEX
  8
LIVELLO_1
 62
     3
 10
-537.9601
 20
-137.5606
  0
VERTEX
  8
LIVELLO_1
 62
     3
 10
-538.1984
 20
-137.25
  0
VERTEX
  8
LIVELLO_1
 62
     3
 10
-538.3483
 20
-136.8882
  0
VERTEX
  8
LIVELLO_1
 62
     3
 10
-538.3994
 20
-136.5
  0
VERTEX
  8
LIVELLO_1
 62
     3
 10
-538.3483
 20
-136.1117
  0
VERTEX
  8
LIVELLO_1
 62
     3
 10
-538.1984
 20
-135.75
  0
VERTEX
  8
LIVELLO_1
 62
     3
 10
-537.9601
 20
-135.4393
  0
VERTEX
  8
LIVELLO_1
 62
     3
 10
-537.6494
 20
-135.2009
  0
VERTEX
  8
LIVELLO_1
 62
     3
 10
-537.2876
 20
-135.0511
  0
VERTEX
  8
LIVELLO_1
 62
     3
 10
-536.8994
 20
-135.0
  0
VERTEX
  8
LIVELLO_1
 62
     3
 10
-536.5112
 20
-135.0511
  0
VERTEX
  8
LIVELLO_1
 62
     3
 10
-536.1494
 20
-135.2009
  0
VERTEX
  8
LIVELLO_1
 62
     3
 10
-535.8387
 20
-135.4393
  0
VERTEX
  8
LIVELLO_1
 62
     3
 10
-535.6004
 20
-135.75
  0
VERTEX
  8
LIVELLO_1
 62
     3
 10
-535.4505
 20
-136.1117
  0
VERTEX
  8
LIVELLO_1
 62
     3
 10
-535.3994
 20
-136.5
  0
VERTEX
  8
LIVELLO_1
 62
     3
 10
-535.4505
 20
-136.8882
  0
SEQEND
  8
LIVELLO_1
 62
     3
  0
POLYLINE
  8
LIVELLO_1
 62
     5
 66
     1
 70
     1
  0
VERTEX
  8
LIVELLO_1
 62
     5
 10
-459.2994
 20
-125.4511
  0
VERTEX
  8
LIVELLO_1
 62
     5
 10
-544.388
 20
-125.4511
  0
VERTEX
  8
LIVELLO_1
 62
     5
 10
-556.2994
 20
-125.4511
  0
VERTEX
  8
LIVELLO_1
 62
     5
 10
-568.2994
 20
-125.4511
  0
VERTEX
  8
LIVELLO_1
 62
     5
 10
-578.3996
 20
-125.4511
  0
VERTEX
  8
LIVELLO_1
 62
     5
 10
-665.2994
 20
-125.4511
  0
VERTEX
  8
LIVELLO_1
 62
     5
 10
-665.8215
 20
-125.4853
  0
VERTEX
  8
LIVELLO_1
 62
     5
 10
-666.3347
 20
-125.5874
  0
VERTEX
  8
LIVELLO_1
 62
     5
 10
-666.8301
 20
-125.7556
  0
VERTEX
  8
LIVELLO_1
 62
     5
 10
-667.2994
 20
-125.987
  0
VERTEX
  8
LIVELLO_1
 62
     5
 10
-667.7344
 20
-126.2777
  0
VERTEX
  8
LIVELLO_1
 62
     5
 10
-668.1278
 20
-126.6226
  0
VERTEX
  8
LIVELLO_1
 62
     5
 10
-668.4728
 20
-127.016
  0
VERTEX
  8
LIVELLO_1
 62
     5
 10
-668.7635
 20
-127.4511
  0
VERTEX
  8
LIVELLO_1
 62
     5
 10
-668.9949
 20
-127.9203
  0
VERTEX
  8
LIVELLO_1
 62
     5
 10
-669.1631
 20
-128.4158
  0
VERTEX
  8
LIVELLO_1
 62
     5
 10
-669.2652
 20
-128.929
  0
VERTEX
  8
LIVELLO_1
 62
     5
 10
-669.2994
 20
-129.4511
  0
VERTEX
  8
LIVELLO_1
 62
     5
 10
-669.2994
 20
-144.5
  0
VERTEX
  8
LIVELLO_1
 62
     5
 10
-669.2652
 20
-145.0221
  0
VERTEX
  8
LIVELLO_1
 62
     5
 10
-669.1631
 20
-145.5352
  0
VERTEX
  8
LIVELLO_1
 62
     5
 10
-668.9949
 20
-146.0307
  0
VERTEX
  8
LIVELLO_1
 62
     5
 10
-668.7635
 20
-146.5
  0
VERTEX
  8
LIVELLO_1
 62
     5
 10
-668.4728
 20
-146.935
  0
VERTEX
  8
LIVELLO_1
 62
     5
 10
-668.1278
 20
-147.3284
  0
VERTEX
  8
LIVELLO_1
 62
     5
 10
-667.7344
 20
-147.6734
  0
VERTEX
  8
LIVELLO_1
 62
     5
 10
-667.2994
 20
-147.9641
  0
VERTEX
  8
LIVELLO_1
 62
     5
 10
-666.8301
 20
-148.1955
  0
VERTEX
  8
LIVELLO_1
 62
     5
 10
-666.3347
 20
-148.3637
  0
VERTEX
  8
LIVELLO_1
 62
     5
 10
-665.8215
 20
-148.4657
  0
VERTEX
  8
LIVELLO_1
 62
     5
 10
-665.2994
 20
-148.5
  0
VERTEX
  8
LIVELLO_1
 62
     5
 10
-568.2994
 20
-148.5
  0
VERTEX
  8
LIVELLO_1
 62
     5
 10
-567.7773
 20
-148.4657
  0
VERTEX
  8
LIVELLO_1
 62
     5
 10
-567.2641
 20
-148.3637
  0
VERTEX
  8
LIVELLO_1
 62
     5
 10
-566.7687
 20
-148.1955
  0
VERTEX
  8
LIVELLO_1
 62
     5
 10
-566.2994
 20
-147.9641
  0
VERTEX
  8
LIVELLO_1
 62
     5
 10
-565.8644
 20
-147.6734
  0
VERTEX
  8
LIVELLO_1
 62
     5
 10
-565.471
 20
-147.3284
  0
VERTEX
  8
LIVELLO_1
 62
     5
 10
-565.126
 20
-146.935
  0
VERTEX
  8
LIVELLO_1
 62
     5
 10
-564.8353
 20
-146.5
  0
VERTEX
  8
LIVELLO_1
 62
     5
 10
-564.6039
 20
-146.0307
  0
VERTEX
  8
LIVELLO_1
 62
     5
 10
-564.4357
 20
-145.5352
  0
VERTEX
  8
LIVELLO_1
 62
     5
 10
-564.3336
 20
-145.0221
  0
VERTEX
  8
LIVELLO_1
 62
     5
 10
-564.2994
 20
-144.5
  0
VERTEX
  8
LIVELLO_1
 62
     5
 10
-564.2994
 20
-136.5
  0
VERTEX
  8
LIVELLO_1
 62
     5
 10
-560.2994
 20
-136.5
  0
VERTEX
  8
LIVELLO_1
 62
     5
 10
-560.2994
 20
-144.5
  0
VERTEX
  8
LIVELLO_1
 62
     5
 10
-560.2652
 20
-145.0221
  0
VERTEX
  8
LIVELLO_1
 62
     5
 10
-560.1631
 20
-145.5352
  0
VERTEX
  8
LIVELLO_1
 62
     5
 10
-559.9949
 20
-146.0307
  0
VERTEX
  8
LIVELLO_1
 62
     5
 10
-559.7635
 20
-146.5
  0
VERTEX
  8
LIVELLO_1
 62
     5
 10
-559.4728
 20
-146.935
  0
VERTEX
  8
LIVELLO_1
 62
     5
 10
-559.1278
 20
-147.3284
  0
VERTEX
  8
LIVELLO_1
 62
     5
 10
-558.7344
 20
-147.6734
  0
VERTEX
  8
LIVELLO_1
 62
     5
 10
-558.2994
 20
-147.9641
  0
VERTEX
  8
LIVELLO_1
 62
     5
 10
-557.8301
 20
-148.1955
  0
VERTEX
  8
LIVELLO_1
 62
     5
 10
-557.3347
 20
-148.3637
  0
VERTEX
  8
LIVELLO_1
 62
     5
 10
-556.8215
 20
-148.4657
  0
VERTEX
  8
LIVELLO_1
 62
     5
 10
-556.2994
 20
-148.5
  0
VERTEX
  8
LIVELLO_1
 62
     5
 10
-459.2994
 20
-148.5
  0
VERTEX
  8
LIVELLO_1
 62
     5
 10
-458.7773
 20
-148.4657
  0
VERTEX
  8
LIVELLO_1
 62
     5
 10
-458.2641
 20
-148.3637
  0
VERTEX
  8
LIVELLO_1
 62
     5
 10
-457.7687
 20
-148.1955
  0
VERTEX
  8
LIVELLO_1
 62
     5
 10
-457.2994
 20
-147.9641
  0
VERTEX
  8
LIVELLO_1
 62
     5
 10
-456.8644
 20
-147.6734
  0
VERTEX
  8
LIVELLO_1
 62
     5
 10
-456.471
 20
-147.3284
  0
VERTEX
  8
LIVELLO_1
 62
     5
 10
-456.126
 20
-146.935
  0
VERTEX
  8
LIVELLO_1
 62
     5
 10
-455.8353
 20
-146.5
  0
VERTEX
  8
LIVELLO_1
 62
     5
 10
-455.6039
 20
-146.0307
  0
VERTEX
  8
LIVELLO_1
 62
     5
 10
-455.4357
 20
-145.5352
  0
VERTEX
  8
LIVELLO_1
 62
     5
 10
-455.3336
 20
-145.0221
  0
VERTEX
  8
LIVELLO_1
 62
     5
 10
-455.2994
 20
-144.5
  0
VERTEX
  8
LIVELLO_1
 62
     5
 10
-455.2994
 20
-129.4511
  0
VERTEX
  8
LIVELLO_1
 62
     5
 10
-455.3336
 20
-128.929
  0
VERTEX
  8
LIVELLO_1
 62
     5
 10
-455.4357
 20
-128.4158
  0
VERTEX
  8
LIVELLO_1
 62
     5
 10
-455.6039
 20
-127.9203
  0
VERTEX
  8
LIVELLO_1
 62
     5
 10
-455.8353
 20
-127.4511
  0
VERTEX
  8
LIVELLO_1
 62
     5
 10
-456.126
 20
-127.016
  0
VERTEX
  8
LIVELLO_1
 62
     5
 10
-456.471
 20
-126.6226
  0
VERTEX
  8
LIVELLO_1
 62
     5
 10
-456.8644
 20
-126.2777
  0
VERTEX
  8
LIVELLO_1
 62
     5
 10
-457.2994
 20
-125.987
  0
VERTEX
  8
LIVELLO_1
 62
     5
 10
-457.7687
 20
-125.7556
  0
VERTEX
  8
LIVELLO_1
 62
     5
 10
-458.2641
 20
-125.5874
  0
VERTEX
  8
LIVELLO_1
 62
     5
 10
-458.7773
 20
-125.4853
  0
VERTEX
  8
LIVELLO_1
 62
     5
 10
-459.2994
 20
-125.4511
  0
SEQEND
  8
LIVELLO_1
 62
     5
  0
POLYLINE
  8
LIVELLO_1
 62
     6
 66
     1
 70
     1
  0
VERTEX
  8
LIVELLO_1
 62
     6
 10
-562.2994
 20
426.236
  0
VERTEX
  8
LIVELLO_1
 62
     6
 10
-481.2994
 20
426.236
  0
VERTEX
  8
LIVELLO_1
 62
     6
 10
-481.2994
 20
422.236
  0
VERTEX
  8
LIVELLO_1
 62
     6
 10
-469.2994
 20
422.236
  0
VERTEX
  8
LIVELLO_1
 62
     6
 10
-469.2994
 20
426.236
  0
VERTEX
  8
LIVELLO_1
 62
     6
 10
-457.2994
 20
426.236
  0
VERTEX
  8
LIVELLO_1
 62
     6
 10
-457.2994
 20
479.636
  0
VERTEX
  8
LIVELLO_1
 62
     6
 10
-453.2994
 20
479.636
  0
VERTEX
  8
LIVELLO_1
 62
     6
 10
-453.2994
 20
489.236
  0
VERTEX
  8
LIVELLO_1
 62
     6
 10
-671.2994
 20
489.236
  0
VERTEX
  8
LIVELLO_1
 62
     6
 10
-671.8898
 20
488.6562
  0
VERTEX
  8
LIVELLO_1
 62
     6
 10
-672.3116
 20
487.55
  0
VERTEX
  8
LIVELLO_1
 62
     6
 10
-672.5646
 20
486.0927
  0
VERTEX
  8
LIVELLO_1
 62
     6
 10
-672.649
 20
484.46
  0
VERTEX
  8
LIVELLO_1
 62
     6
 10
-672.5646
 20
482.8272
  0
VERTEX
  8
LIVELLO_1
 62
     6
 10
-672.3116
 20
481.3699
  0
VERTEX
  8
LIVELLO_1
 62
     6
 10
-671.8898
 20
480.2637
  0
VERTEX
  8
LIVELLO_1
 62
     6
 10
-671.2994
 20
479.6839
  0
VERTEX
  8
LIVELLO_1
 62
     6
 10
-671.2994
 20
426.236
  0
VERTEX
  8
LIVELLO_1
 62
     6
 10
-659.2994
 20
426.236
  0
VERTEX
  8
LIVELLO_1
 62
     6
 10
-659.2994
 20
422.236
  0
VERTEX
  8
LIVELLO_1
 62
     6
 10
-647.2994
 20
422.236
  0
VERTEX
  8
LIVELLO_1
 62
     6
 10
-647.2994
 20
426.236
  0
VERTEX
  8
LIVELLO_1
 62
     6
 10
-566.2994
 20
426.236
  0
VERTEX
  8
LIVELLO_1
 62
     6
 10
-566.2994
 20
457.736
  0
VERTEX
  8
LIVELLO_1
 62
     6
 10
-562.2994
 20
457.736
  0
VERTEX
  8
LIVELLO_1
 62
     6
 10
-562.2994
 20
426.236
  0
SEQEND
  8
LIVELLO_1
 62
     6
  0
POLYLINE
  8
LIVELLO_1
 62
     3
 66
     1
 70
     1
  0
VERTEX
  8
LIVELLO_1
 62
     3
 10
-669.2994
 20
88.1763
  0
VERTEX
  8
LIVELLO_1
 62
     3
 10
-669.2994
 20
76.1763
  0
VERTEX
  8
LIVELLO_1
 62
     3
 10
-673.2994
 20
76.1763
  0
VERTEX
  8
LIVELLO_1
 62
     3
 10
-673.2994
 20
88.1763
  0
VERTEX
  8
LIVELLO_1
 62
     3
 10
-669.2994
 20
88.1763
  0
SEQEND
  8
LIVELLO_1
 62
     3
  0
POLYLINE
  8
LIVELLO_1
 62
     3
 66
     1
 70
     1
  0
VERTEX
  8
LIVELLO_1
 62
     3
 10
-669.9173
 20
96.7602
  0
VERTEX
  8
LIVELLO_1
 62
     3
 10
-669.8299
 20
96.4786
  0
VERTEX
  8
LIVELLO_1
 62
     3
 10
-669.7994
 20
96.1763
  0
VERTEX
  8
LIVELLO_1
 62
     3
 10
-669.8299
 20
95.874
  0
VERTEX
  8
LIVELLO_1
 62
     3
 10
-669.9173
 20
95.5924
  0
VERTEX
  8
LIVELLO_1
 62
     3
 10
-670.0556
 20
95.3376
  0
VERTEX
  8
LIVELLO_1
 62
     3
 10
-670.2387
 20
95.1157
  0
VERTEX
  8
LIVELLO_1
 62
     3
 10
-670.4607
 20
94.9325
  0
VERTEX
  8
LIVELLO_1
 62
     3
 10
-670.7155
 20
94.7942
  0
VERTEX
  8
LIVELLO_1
 62
     3
 10
-670.9971
 20
94.7068
  0
VERTEX
  8
LIVELLO_1
 62
     3
 10
-671.2994
 20
94.6763
  0
VERTEX
  8
LIVELLO_1
 62
     3
 10
-671.6017
 20
94.7068
  0
VERTEX
  8
LIVELLO_1
 62
     3
 10
-671.8833
 20
94.7942
  0
VERTEX
  8
LIVELLO_1
 62
     3
 10
-672.1381
 20
94.9325
  0
VERTEX
  8
LIVELLO_1
 62
     3
 10
-672.3601
 20
95.1157
  0
VERTEX
  8
LIVELLO_1
 62
     3
 10
-672.5432
 20
95.3376
  0
VERTEX
  8
LIVELLO_1
 62
     3
 10
-672.6815
 20
95.5924
  0
VERTEX
  8
LIVELLO_1
 62
     3
 10
-672.7689
 20
95.874
  0
VERTEX
  8
LIVELLO_1
 62
     3
 10
-672.7994
 20
96.1763
  0
VERTEX
  8
LIVELLO_1
 62
     3
 10
-672.7689
 20
96.4786
  0
VERTEX
  8
LIVELLO_1
 62
     3
 10
-672.6815
 20
96.7602
  0
VERTEX
  8
LIVELLO_1
 62
     3
 10
-672.5432
 20
97.015
  0
VERTEX
  8
LIVELLO_1
 62
     3
 10
-672.3601
 20
97.237
  0
VERTEX
  8
LIVELLO_1
 62
     3
 10
-672.1381
 20
97.4201
  0
VERTEX
  8
LIVELLO_1
 62
     3
 10
-671.8833
 20
97.5584
  0
VERTEX
  8
LIVELLO_1
 62
     3
 10
-671.6017
 20
97.6458
  0
VERTEX
  8
LIVELLO_1
 62
     3
 10
-671.2994
 20
97.6763
  0
VERTEX
  8
LIVELLO_1
 62
     3
 10
-670.9971
 20
97.6458
  0
VERTEX
  8
LIVELLO_1
 62
     3
 10
-670.7155
 20
97.5584
  0
VERTEX
  8
LIVELLO_1
 62
     3
 10
-670.4607
 20
97.4201
  0
VERTEX
  8
LIVELLO_1
 62
     3
 10
-670.2387
 20
97.237
  0
VERTEX
  8
LIVELLO_1
 62
     3
 10
-670.0556
 20
97.015
  0
VERTEX
  8
LIVELLO_1
 62
     3
 10
-669.9173
 20
96.7602
  0
SEQEND
  8
LIVELLO_1
 62
     3
  0
POLYLINE
  8
LIVELLO_1
 62
     3
 66
     1
 70
     1
  0
VERTEX
  8
LIVELLO_1
 62
     3
 10
-451.2994
 20
138.1763
  0
VERTEX
  8
LIVELLO_1
 62
     3
 10
-455.2994
 20
138.1763
  0
VERTEX
  8
LIVELLO_1
 62
     3
 10
-455.2994
 20
150.1763
  0
VERTEX
  8
LIVELLO_1
 62
     3
 10
-451.2994
 20
150.1763
  0
VERTEX
  8
LIVELLO_1
 62
     3
 10
-451.2994
 20
138.1763
  0
SEQEND
  8
LIVELLO_1
 62
     3
  0
POLYLINE
  8
LIVELLO_1
 62
     3
 66
     1
 70
     1
  0
VERTEX
  8
LIVELLO_1
 62
     3
 10
-453.6017
 20
156.7068
  0
VERTEX
  8
LIVELLO_1
 62
     3
 10
-453.8833
 20
156.7942
  0
VERTEX
  8
LIVELLO_1
 62
     3
 10
-454.1381
 20
156.9325
  0
VERTEX
  8
LIVELLO_1
 62
     3
 10
-454.3601
 20
157.1157
  0
VERTEX
  8
LIVELLO_1
 62
     3
 10
-454.5432
 20
157.3376
  0
VERTEX
  8
LIVELLO_1
 62
     3
 10
-454.6815
 20
157.5924
  0
VERTEX
  8
LIVELLO_1
 62
     3
 10
-454.7689
 20
157.874
  0
VERTEX
  8
LIVELLO_1
 62
     3
 10
-454.7994
 20
158.1763
  0
VERTEX
  8
LIVELLO_1
 62
     3
 10
-454.7689
 20
158.4786
  0
VERTEX
  8
LIVELLO_1
 62
     3
 10
-454.6815
 20
158.7602
  0
VERTEX
  8
LIVELLO_1
 62
     3
 10
-454.5432
 20
159.015
  0
VERTEX
  8
LIVELLO_1
 62
     3
 10
-454.3601
 20
159.237
  0
VERTEX
  8
LIVELLO_1
 62
     3
 10
-454.1381
 20
159.4201
  0
VERTEX
  8
LIVELLO_1
 62
     3
 10
-453.8833
 20
159.5584
  0
VERTEX
  8
LIVELLO_1
 62
     3
 10
-453.6017
 20
159.6458
  0
VERTEX
  8
LIVELLO_1
 62
     3
 10
-453.2994
 20
159.6763
  0
VERTEX
  8
LIVELLO_1
 62
     3
 10
-452.9971
 20
159.6458
  0
VERTEX
  8
LIVELLO_1
 62
     3
 10
-452.7155
 20
159.5584
  0
VERTEX
  8
LIVELLO_1
 62
     3
 10
-452.4607
 20
159.4201
  0
VERTEX
  8
LIVELLO_1
 62
     3
 10
-452.2387
 20
159.237
  0
VERTEX
  8
LIVELLO_1
 62
     3
 10
-452.0556
 20
159.015
  0
VERTEX
  8
LIVELLO_1
 62
     3
 10
-451.9173
 20
158.7602
  0
VERTEX
  8
LIVELLO_1
 62
     3
 10
-451.8299
 20
158.4786
  0
VERTEX
  8
LIVELLO_1
 62
     3
 10
-451.7994
 20
158.1763
  0
VERTEX
  8
LIVELLO_1
 62
     3
 10
-451.8299
 20
157.874
  0
VERTEX
  8
LIVELLO_1
 62
     3
 10
-451.9173
 20
157.5924
  0
VERTEX
  8
LIVELLO_1
 62
     3
 10
-452.0556
 20
157.3376
  0
VERTEX
  8
LIVELLO_1
 62
     3
 10
-452.2387
 20
157.1157
  0
VERTEX
  8
LIVELLO_1
 62
     3
 10
-452.4607
 20
156.9325
  0
VERTEX
  8
LIVELLO_1
 62
     3
 10
-452.7155
 20
156.7942
  0
VERTEX
  8
LIVELLO_1
 62
     3
 10
-452.9971
 20
156.7068
  0
VERTEX
  8
LIVELLO_1
 62
     3
 10
-453.2994
 20
156.6763
  0
VERTEX
  8
LIVELLO_1
 62
     3
 10
-453.6017
 20
156.7068
  0
SEQEND
  8
LIVELLO_1
 62
     3
  0
POLYLINE
  8
LIVELLO_1
 62
     3
 66
     1
 70
     1
  0
VERTEX
  8
LIVELLO_1
 62
     3
 10
-451.2994
 20
166.1763
  0
VERTEX
  8
LIVELLO_1
 62
     3
 10
-455.2994
 20
166.1763
  0
VERTEX
  8
LIVELLO_1
 62
     3
 10
-455.2994
 20
178.1763
  0
VERTEX
  8
LIVELLO_1
 62
     3
 10
-451.2994
 20
178.1763
  0
VERTEX
  8
LIVELLO_1
 62
     3
 10
-451.2994
 20
166.1763
  0
SEQEND
  8
LIVELLO_1
 62
     3
  0
POLYLINE
  8
LIVELLO_1
 62
     3
 66
     1
 70
     1
  0
VERTEX
  8
LIVELLO_1
 62
     3
 10
-671.2994
 20
156.6763
  0
VERTEX
  8
LIVELLO_1
 62
     3
 10
-671.6017
 20
156.7068
  0
VERTEX
  8
LIVELLO_1
 62
     3
 10
-671.8833
 20
156.7942
  0
VERTEX
  8
LIVELLO_1
 62
     3
 10
-672.1381
 20
156.9325
  0
VERTEX
  8
LIVELLO_1
 62
     3
 10
-672.3601
 20
157.1157
  0
VERTEX
  8
LIVELLO_1
 62
     3
 10
-672.5432
 20
157.3376
  0
VERTEX
  8
LIVELLO_1
 62
     3
 10
-672.6815
 20
157.5924
  0
VERTEX
  8
LIVELLO_1
 62
     3
 10
-672.7689
 20
157.874
  0
VERTEX
  8
LIVELLO_1
 62
     3
 10
-672.7994
 20
158.1763
  0
VERTEX
  8
LIVELLO_1
 62
     3
 10
-672.7689
 20
158.4786
  0
VERTEX
  8
LIVELLO_1
 62
     3
 10
-672.6815
 20
158.7602
  0
VERTEX
  8
LIVELLO_1
 62
     3
 10
-672.5432
 20
159.015
  0
VERTEX
  8
LIVELLO_1
 62
     3
 10
-672.3601
 20
159.237
  0
VERTEX
  8
LIVELLO_1
 62
     3
 10
-672.1381
 20
159.4201
  0
VERTEX
  8
LIVELLO_1
 62
     3
 10
-671.8833
 20
159.5584
  0
VERTEX
  8
LIVELLO_1
 62
     3
 10
-671.6017
 20
159.6458
  0
VERTEX
  8
LIVELLO_1
 62
     3
 10
-671.2994
 20
159.6763
  0
VERTEX
  8
LIVELLO_1
 62
     3
 10
-670.9971
 20
159.6458
  0
VERTEX
  8
LIVELLO_1
 62
     3
 10
-670.7155
 20
159.5584
  0
VERTEX
  8
LIVELLO_1
 62
     3
 10
-670.4607
 20
159.4201
  0
VERTEX
  8
LIVELLO_1
 62
     3
 10
-670.2387
 20
159.237
  0
VERTEX
  8
LIVELLO_1
 62
     3
 10
-670.0556
 20
159.015
  0
VERTEX
  8
LIVELLO_1
 62
     3
 10
-669.9173
 20
158.7602
  0
VERTEX
  8
LIVELLO_1
 62
     3
 10
-669.8299
 20
158.4786
  0
VERTEX
  8
LIVELLO_1
 62
     3
 10
-669.7994
 20
158.1763
  0
VERTEX
  8
LIVELLO_1
 62
     3
 10
-669.8299
 20
157.874
  0
VERTEX
  8
LIVELLO_1
 62
     3
 10
-669.9173
 20
157.5924
  0
VERTEX
  8
LIVELLO_1
 62
     3
 10
-670.0556
 20
157.3376
  0
VERTEX
  8
LIVELLO_1
 62
     3
 10
-670.2387
 20
157.1157
  0
VERTEX
  8
LIVELLO_1
 62
     3
 10
-670.4607
 20
156.9325
  0
VERTEX
  8
LIVELLO_1
 62
     3
 10
-670.7155
 20
156.7942
  0
VERTEX
  8
LIVELLO_1
 62
     3
 10
-670.9971
 20
156.7068
  0
VERTEX
  8
LIVELLO_1
 62
     3
 10
-671.2994
 20
156.6763
  0
SEQEND
  8
LIVELLO_1
 62
     3
  0
POLYLINE
  8
LIVELLO_1
 62
     3
 66
     1
 70
     1
  0
VERTEX
  8
LIVELLO_1
 62
     3
 10
-669.2994
 20
116.1763
  0
VERTEX
  8
LIVELLO_1
 62
     3
 10
-669.2994
 20
104.1763
  0
VERTEX
  8
LIVELLO_1
 62
     3
 10
-673.2994
 20
104.1763
  0
VERTEX
  8
LIVELLO_1
 62
     3
 10
-673.2994
 20
116.1763
  0
VERTEX
  8
LIVELLO_1
 62
     3
 10
-669.2994
 20
116.1763
  0
SEQEND
  8
LIVELLO_1
 62
     3
  0
POLYLINE
  8
LIVELLO_1
 62
     3
 66
     1
 70
     1
  0
VERTEX
  8
LIVELLO_1
 62
     3
 10
-669.2994
 20
150.1763
  0
VERTEX
  8
LIVELLO_1
 62
     3
 10
-669.2994
 20
138.1763
  0
VERTEX
  8
LIVELLO_1
 62
     3
 10
-673.2994
 20
138.1763
  0
VERTEX
  8
LIVELLO_1
 62
     3
 10
-673.2994
 20
150.1763
  0
VERTEX
  8
LIVELLO_1
 62
     3
 10
-669.2994
 20
150.1763
  0
SEQEND
  8
LIVELLO_1
 62
     3
  0
POLYLINE
  8
LIVELLO_1
 62
     3
 66
     1
 70
     1
  0
VERTEX
  8
LIVELLO_1
 62
     3
 10
-669.2994
 20
178.1763
  0
VERTEX
  8
LIVELLO_1
 62
     3
 10
-669.2994
 20
166.1763
  0
VERTEX
  8
LIVELLO_1
 62
     3
 10
-673.2994
 20
166.1763
  0
VERTEX
  8
LIVELLO_1
 62
     3
 10
-673.2994
 20
178.1763
  0
VERTEX
  8
LIVELLO_1
 62
     3
 10
-669.2994
 20
178.1763
  0
SEQEND
  8
LIVELLO_1
 62
     3
  0
POLYLINE
  8
LIVELLO_1
 62
     3
 66
     1
 70
     1
  0
VERTEX
  8
LIVELLO_1
 62
     3
 10
-669.2994
 20
64.1763
  0
VERTEX
  8
LIVELLO_1
 62
     3
 10
-631.2994
 20
64.1763
  0
VERTEX
  8
LIVELLO_1
 62
     3
 10
-631.2994
 20
60.1763
  0
VERTEX
  8
LIVELLO_1
 62
     3
 10
-669.2994
 20
60.1763
  0
VERTEX
  8
LIVELLO_1
 62
     3
 10
-669.2994
 20
64.1763
  0
SEQEND
  8
LIVELLO_1
 62
     3
  0
POLYLINE
  8
LIVELLO_1
 62
     3
 66
     1
 70
     1
  0
VERTEX
  8
LIVELLO_1
 62
     3
 10
-581.5494
 20
64.1763
  0
VERTEX
  8
LIVELLO_1
 62
     3
 10
-543.5494
 20
64.1763
  0
VERTEX
  8
LIVELLO_1
 62
     3
 10
-543.5494
 20
60.1763
  0
VERTEX
  8
LIVELLO_1
 62
     3
 10
-581.5494
 20
60.1763
  0
VERTEX
  8
LIVELLO_1
 62
     3
 10
-581.5494
 20
64.1763
  0
SEQEND
  8
LIVELLO_1
 62
     3
  0
POLYLINE
  8
LIVELLO_1
 62
     3
 66
     1
 70
     1
  0
VERTEX
  8
LIVELLO_1
 62
     3
 10
-478.3112
 20
183.7274
  0
VERTEX
  8
LIVELLO_1
 62
     3
 10
-478.6994
 20
183.6763
  0
VERTEX
  8
LIVELLO_1
 62
     3
 10
-479.0876
 20
183.7274
  0
VERTEX
  8
LIVELLO_1
 62
     3
 10
-479.4494
 20
183.8772
  0
VERTEX
  8
LIVELLO_1
 62
     3
 10
-479.7601
 20
184.1156
  0
VERTEX
  8
LIVELLO_1
 62
     3
 10
-479.9984
 20
184.4263
  0
VERTEX
  8
LIVELLO_1
 62
     3
 10
-480.1483
 20
184.788
  0
VERTEX
  8
LIVELLO_1
 62
     3
 10
-480.1994
 20
185.1763
  0
VERTEX
  8
LIVELLO_1
 62
     3
 10
-480.1483
 20
185.5645
  0
VERTEX
  8
LIVELLO_1
 62
     3
 10
-479.9984
 20
185.9263
  0
VERTEX
  8
LIVELLO_1
 62
     3
 10
-479.7601
 20
186.2369
  0
VERTEX
  8
LIVELLO_1
 62
     3
 10
-479.4494
 20
186.4753
  0
VERTEX
  8
LIVELLO_1
 62
     3
 10
-479.0876
 20
186.6251
  0
VERTEX
  8
LIVELLO_1
 62
     3
 10
-478.6994
 20
186.6763
  0
VERTEX
  8
LIVELLO_1
 62
     3
 10
-478.3112
 20
186.6251
  0
VERTEX
  8
LIVELLO_1
 62
     3
 10
-477.9494
 20
186.4753
  0
VERTEX
  8
LIVELLO_1
 62
     3
 10
-477.6387
 20
186.2369
  0
VERTEX
  8
LIVELLO_1
 62
     3
 10
-477.4004
 20
185.9263
  0
VERTEX
  8
LIVELLO_1
 62
     3
 10
-477.2505
 20
185.5645
  0
VERTEX
  8
LIVELLO_1
 62
     3
 10
-477.1994
 20
185.1763
  0
VERTEX
  8
LIVELLO_1
 62
     3
 10
-477.2505
 20
184.788
  0
VERTEX
  8
LIVELLO_1
 62
     3
 10
-477.4004
 20
184.4263
  0
VERTEX
  8
LIVELLO_1
 62
     3
 10
-477.6387
 20
184.1156
  0
VERTEX
  8
LIVELLO_1
 62
     3
 10
-477.9494
 20
183.8772
  0
VERTEX
  8
LIVELLO_1
 62
     3
 10
-478.3112
 20
183.7274
  0
SEQEND
  8
LIVELLO_1
 62
     3
  0
POLYLINE
  8
LIVELLO_1
 62
     3
 66
     1
 70
     1
  0
VERTEX
  8
LIVELLO_1
 62
     3
 10
-536.8994
 20
183.6763
  0
VERTEX
  8
LIVELLO_1
 62
     3
 10
-537.2876
 20
183.7274
  0
VERTEX
  8
LIVELLO_1
 62
     3
 10
-537.6494
 20
183.8772
  0
VERTEX
  8
LIVELLO_1
 62
     3
 10
-537.9601
 20
184.1156
  0
VERTEX
  8
LIVELLO_1
 62
     3
 10
-538.1984
 20
184.4263
  0
VERTEX
  8
LIVELLO_1
 62
     3
 10
-538.3483
 20
184.788
  0
VERTEX
  8
LIVELLO_1
 62
     3
 10
-538.3994
 20
185.1763
  0
VERTEX
  8
LIVELLO_1
 62
     3
 10
-538.3483
 20
185.5645
  0
VERTEX
  8
LIVELLO_1
 62
     3
 10
-538.1984
 20
185.9263
  0
VERTEX
  8
LIVELLO_1
 62
     3
 10
-537.9601
 20
186.2369
  0
VERTEX
  8
LIVELLO_1
 62
     3
 10
-537.6494
 20
186.4753
  0
VERTEX
  8
LIVELLO_1
 62
     3
 10
-537.2876
 20
186.6251
  0
VERTEX
  8
LIVELLO_1
 62
     3
 10
-536.8994
 20
186.6763
  0
VERTEX
  8
LIVELLO_1
 62
     3
 10
-536.5112
 20
186.6251
  0
VERTEX
  8
LIVELLO_1
 62
     3
 10
-536.1494
 20
186.4753
  0
VERTEX
  8
LIVELLO_1
 62
     3
 10
-535.8387
 20
186.2369
  0
VERTEX
  8
LIVELLO_1
 62
     3
 10
-535.6004
 20
185.9263
  0
VERTEX
  8
LIVELLO_1
 62
     3
 10
-535.4505
 20
185.5645
  0
VERTEX
  8
LIVELLO_1
 62
     3
 10
-535.3994
 20
185.1763
  0
VERTEX
  8
LIVELLO_1
 62
     3
 10
-535.4505
 20
184.788
  0
VERTEX
  8
LIVELLO_1
 62
     3
 10
-535.6004
 20
184.4263
  0
VERTEX
  8
LIVELLO_1
 62
     3
 10
-535.8387
 20
184.1156
  0
VERTEX
  8
LIVELLO_1
 62
     3
 10
-536.1494
 20
183.8772
  0
VERTEX
  8
LIVELLO_1
 62
     3
 10
-536.5112
 20
183.7274
  0
VERTEX
  8
LIVELLO_1
 62
     3
 10
-536.8994
 20
183.6763
  0
SEQEND
  8
LIVELLO_1
 62
     3
  0
POLYLINE
  8
LIVELLO_1
 62
     3
 66
     1
 70
     1
  0
VERTEX
  8
LIVELLO_1
 62
     3
 10
-587.6994
 20
183.6763
  0
VERTEX
  8
LIVELLO_1
 62
     3
 10
-588.0876
 20
183.7274
  0
VERTEX
  8
LIVELLO_1
 62
     3
 10
-588.4494
 20
183.8772
  0
VERTEX
  8
LIVELLO_1
 62
     3
 10
-588.7601
 20
184.1156
  0
VERTEX
  8
LIVELLO_1
 62
     3
 10
-588.9984
 20
184.4263
  0
VERTEX
  8
LIVELLO_1
 62
     3
 10
-589.1483
 20
184.788
  0
VERTEX
  8
LIVELLO_1
 62
     3
 10
-589.1994
 20
185.1763
  0
VERTEX
  8
LIVELLO_1
 62
     3
 10
-589.1483
 20
185.5645
  0
VERTEX
  8
LIVELLO_1
 62
     3
 10
-588.9984
 20
185.9263
  0
VERTEX
  8
LIVELLO_1
 62
     3
 10
-588.7601
 20
186.2369
  0
VERTEX
  8
LIVELLO_1
 62
     3
 10
-588.4494
 20
186.4753
  0
VERTEX
  8
LIVELLO_1
 62
     3
 10
-588.0876
 20
186.6251
  0
VERTEX
  8
LIVELLO_1
 62
     3
 10
-587.6994
 20
186.6763
  0
VERTEX
  8
LIVELLO_1
 62
     3
 10
-587.3112
 20
186.6251
  0
VERTEX
  8
LIVELLO_1
 62
     3
 10
-586.9494
 20
186.4753
  0
VERTEX
  8
LIVELLO_1
 62
     3
 10
-586.6387
 20
186.2369
  0
VERTEX
  8
LIVELLO_1
 62
     3
 10
-586.4004
 20
185.9263
  0
VERTEX
  8
LIVELLO_1
 62
     3
 10
-586.2505
 20
185.5645
  0
VERTEX
  8
LIVELLO_1
 62
     3
 10
-586.1994
 20
185.1763
  0
VERTEX
  8
LIVELLO_1
 62
     3
 10
-586.2505
 20
184.788
  0
VERTEX
  8
LIVELLO_1
 62
     3
 10
-586.4004
 20
184.4263
  0
VERTEX
  8
LIVELLO_1
 62
     3
 10
-586.6387
 20
184.1156
  0
VERTEX
  8
LIVELLO_1
 62
     3
 10
-586.9494
 20
183.8772
  0
VERTEX
  8
LIVELLO_1
 62
     3
 10
-587.3112
 20
183.7274
  0
VERTEX
  8
LIVELLO_1
 62
     3
 10
-587.6994
 20
183.6763
  0
SEQEND
  8
LIVELLO_1
 62
     3
  0
POLYLINE
  8
LIVELLO_1
 62
     3
 66
     1
 70
     1
  0
VERTEX
  8
LIVELLO_1
 62
     3
 10
-645.8994
 20
183.6763
  0
VERTEX
  8
LIVELLO_1
 62
     3
 10
-646.2876
 20
183.7274
  0
VERTEX
  8
LIVELLO_1
 62
     3
 10
-646.6494
 20
183.8772
  0
VERTEX
  8
LIVELLO_1
 62
     3
 10
-646.9601
 20
184.1156
  0
VERTEX
  8
LIVELLO_1
 62
     3
 10
-647.1984
 20
184.4263
  0
VERTEX
  8
LIVELLO_1
 62
     3
 10
-647.3483
 20
184.788
  0
VERTEX
  8
LIVELLO_1
 62
     3
 10
-647.3994
 20
185.1763
  0
VERTEX
  8
LIVELLO_1
 62
     3
 10
-647.3483
 20
185.5645
  0
VERTEX
  8
LIVELLO_1
 62
     3
 10
-647.1984
 20
185.9263
  0
VERTEX
  8
LIVELLO_1
 62
     3
 10
-646.9601
 20
186.2369
  0
VERTEX
  8
LIVELLO_1
 62
     3
 10
-646.6494
 20
186.4753
  0
VERTEX
  8
LIVELLO_1
 62
     3
 10
-646.2876
 20
186.6251
  0
VERTEX
  8
LIVELLO_1
 62
     3
 10
-645.8994
 20
186.6763
  0
VERTEX
  8
LIVELLO_1
 62
     3
 10
-645.5112
 20
186.6251
  0
VERTEX
  8
LIVELLO_1
 62
     3
 10
-645.1494
 20
186.4753
  0
VERTEX
  8
LIVELLO_1
 62
     3
 10
-644.8387
 20
186.2369
  0
VERTEX
  8
LIVELLO_1
 62
     3
 10
-644.6004
 20
185.9263
  0
VERTEX
  8
LIVELLO_1
 62
     3
 10
-644.4505
 20
185.5645
  0
VERTEX
  8
LIVELLO_1
 62
     3
 10
-644.3994
 20
185.1763
  0
VERTEX
  8
LIVELLO_1
 62
     3
 10
-644.4505
 20
184.788
  0
VERTEX
  8
LIVELLO_1
 62
     3
 10
-644.6004
 20
184.4263
  0
VERTEX
  8
LIVELLO_1
 62
     3
 10
-644.8387
 20
184.1156
  0
VERTEX
  8
LIVELLO_1
 62
     3
 10
-645.1494
 20
183.8772
  0
VERTEX
  8
LIVELLO_1
 62
     3
 10
-645.5112
 20
183.7274
  0
VERTEX
  8
LIVELLO_1
 62
     3
 10
-645.8994
 20
183.6763
  0
SEQEND
  8
LIVELLO_1
 62
     3
  0
POLYLINE
  8
LIVELLO_1
 62
     3
 66
     1
 70
     1
  0
VERTEX
  8
LIVELLO_1
 62
     3
 10
-455.2994
 20
76.1763
  0
VERTEX
  8
LIVELLO_1
 62
     3
 10
-455.2994
 20
88.1763
  0
VERTEX
  8
LIVELLO_1
 62
     3
 10
-451.2994
 20
88.1763
  0
VERTEX
  8
LIVELLO_1
 62
     3
 10
-451.2994
 20
76.1763
  0
VERTEX
  8
LIVELLO_1
 62
     3
 10
-455.2994
 20
76.1763
  0
SEQEND
  8
LIVELLO_1
 62
     3
  0
POLYLINE
  8
LIVELLO_1
 62
     3
 66
     1
 70
     1
  0
VERTEX
  8
LIVELLO_1
 62
     3
 10
-453.2994
 20
97.6763
  0
VERTEX
  8
LIVELLO_1
 62
     3
 10
-452.9971
 20
97.6458
  0
VERTEX
  8
LIVELLO_1
 62
     3
 10
-452.7155
 20
97.5584
  0
VERTEX
  8
LIVELLO_1
 62
     3
 10
-452.4607
 20
97.4201
  0
VERTEX
  8
LIVELLO_1
 62
     3
 10
-452.2387
 20
97.237
  0
VERTEX
  8
LIVELLO_1
 62
     3
 10
-452.0556
 20
97.015
  0
VERTEX
  8
LIVELLO_1
 62
     3
 10
-451.9173
 20
96.7602
  0
VERTEX
  8
LIVELLO_1
 62
     3
 10
-451.8299
 20
96.4786
  0
VERTEX
  8
LIVELLO_1
 62
     3
 10
-451.7994
 20
96.1763
  0
VERTEX
  8
LIVELLO_1
 62
     3
 10
-451.8299
 20
95.874
  0
VERTEX
  8
LIVELLO_1
 62
     3
 10
-451.9173
 20
95.5924
  0
VERTEX
  8
LIVELLO_1
 62
     3
 10
-452.0556
 20
95.3376
  0
VERTEX
  8
LIVELLO_1
 62
     3
 10
-452.2387
 20
95.1157
  0
VERTEX
  8
LIVELLO_1
 62
     3
 10
-452.4607
 20
94.9325
  0
VERTEX
  8
LIVELLO_1
 62
     3
 10
-452.7155
 20
94.7942
  0
VERTEX
  8
LIVELLO_1
 62
     3
 10
-452.9971
 20
94.7068
  0
VERTEX
  8
LIVELLO_1
 62
     3
 10
-453.2994
 20
94.6763
  0
VERTEX
  8
LIVELLO_1
 62
     3
 10
-453.6017
 20
94.7068
  0
VERTEX
  8
LIVELLO_1
 62
     3
 10
-453.8833
 20
94.7942
  0
VERTEX
  8
LIVELLO_1
 62
     3
 10
-454.1381
 20
94.9325
  0
VERTEX
  8
LIVELLO_1
 62
     3
 10
-454.3601
 20
95.1157
  0
VERTEX
  8
LIVELLO_1
 62
     3
 10
-454.5432
 20
95.3376
  0
VERTEX
  8
LIVELLO_1
 62
     3
 10
-454.6815
 20
95.5924
  0
VERTEX
  8
LIVELLO_1
 62
     3
 10
-454.7689
 20
95.874
  0
VERTEX
  8
LIVELLO_1
 62
     3
 10
-454.7994
 20
96.1763
  0
VERTEX
  8
LIVELLO_1
 62
     3
 10
-454.7689
 20
96.4786
  0
VERTEX
  8
LIVELLO_1
 62
     3
 10
-454.6815
 20
96.7602
  0
VERTEX
  8
LIVELLO_1
 62
     3
 10
-454.5432
 20
97.015
  0
VERTEX
  8
LIVELLO_1
 62
     3
 10
-454.3601
 20
97.237
  0
VERTEX
  8
LIVELLO_1
 62
     3
 10
-454.1381
 20
97.4201
  0
VERTEX
  8
LIVELLO_1
 62
     3
 10
-453.8833
 20
97.5584
  0
VERTEX
  8
LIVELLO_1
 62
     3
 10
-453.6017
 20
97.6458
  0
VERTEX
  8
LIVELLO_1
 62
     3
 10
-453.2994
 20
97.6763
  0
SEQEND
  8
LIVELLO_1
 62
     3
  0
POLYLINE
  8
LIVELLO_1
 62
     3
 66
     1
 70
     1
  0
VERTEX
  8
LIVELLO_1
 62
     3
 10
-455.2994
 20
104.1763
  0
VERTEX
  8
LIVELLO_1
 62
     3
 10
-455.2994
 20
116.1763
  0
VERTEX
  8
LIVELLO_1
 62
     3
 10
-451.2994
 20
116.1763
  0
VERTEX
  8
LIVELLO_1
 62
     3
 10
-451.2994
 20
104.1763
  0
VERTEX
  8
LIVELLO_1
 62
     3
 10
-455.2994
 20
104.1763
  0
SEQEND
  8
LIVELLO_1
 62
     3
  0
POLYLINE
  8
LIVELLO_1
 62
     3
 66
     1
 70
     1
  0
VERTEX
  8
LIVELLO_1
 62
     3
 10
-493.2994
 20
64.1763
  0
VERTEX
  8
LIVELLO_1
 62
     3
 10
-455.2994
 20
64.1763
  0
VERTEX
  8
LIVELLO_1
 62
     3
 10
-455.2994
 20
60.1763
  0
VERTEX
  8
LIVELLO_1
 62
     3
 10
-493.2994
 20
60.1763
  0
VERTEX
  8
LIVELLO_1
 62
     3
 10
-493.2994
 20
64.1763
  0
SEQEND
  8
LIVELLO_1
 62
     3
  0
POLYLINE
  8
LIVELLO_1
 62
     5
 66
     1
 70
     1
  0
VERTEX
  8
LIVELLO_1
 62
     5
 10
-447.2994
 20
54.1763
  0
VERTEX
  8
LIVELLO_1
 62
     5
 10
-447.2994
 20
186.1763
  0
VERTEX
  8
LIVELLO_1
 62
     5
 10
-447.373
 20
187.0502
  0
VERTEX
  8
LIVELLO_1
 62
     5
 10
-447.5874
 20
187.8328
  0
VERTEX
  8
LIVELLO_1
 62
     5
 10
-447.9332
 20
188.5164
  0
VERTEX
  8
LIVELLO_1
 62
     5
 10
-448.4008
 20
189.0932
  0
VERTEX
  8
LIVELLO_1
 62
     5
 10
-448.9807
 20
189.5554
  0
VERTEX
  8
LIVELLO_1
 62
     5
 10
-449.6635
 20
189.8951
  0
VERTEX
  8
LIVELLO_1
 62
     5
 10
-450.4395
 20
190.1047
  0
VERTEX
  8
LIVELLO_1
 62
     5
 10
-451.2994
 20
190.1763
  0
VERTEX
  8
LIVELLO_1
 62
     5
 10
-503.2994
 20
190.1763
  0
VERTEX
  8
LIVELLO_1
 62
     5
 10
-503.9796
 20
190.261
  0
VERTEX
  8
LIVELLO_1
 62
     5
 10
-504.6037
 20
190.4208
  0
VERTEX
  8
LIVELLO_1
 62
     5
 10
-505.1693
 20
190.6533
  0
VERTEX
  8
LIVELLO_1
 62
     5
 10
-505.6743
 20
190.9562
  0
VERTEX
  8
LIVELLO_1
 62
     5
 10
-506.116
 20
191.3271
  0
VERTEX
  8
LIVELLO_1
 62
     5
 10
-506.4923
 20
191.7637
  0
VERTEX
  8
LIVELLO_1
 62
     5
 10
-506.8008
 20
192.2636
  0
VERTEX
  8
LIVELLO_1
 62
     5
 10
-507.039
 20
192.8245
  0
VERTEX
  8
LIVELLO_1
 62
     5
 10
-507.1656
 20
193.1189
  0
VERTEX
  8
LIVELLO_1
 62
     5
 10
-507.3312
 20
193.383
  0
VERTEX
  8
LIVELLO_1
 62
     5
 10
-507.5321
 20
193.6139
  0
VERTEX
  8
LIVELLO_1
 62
     5
 10
-507.7645
 20
193.8091
  0
VERTEX
  8
LIVELLO_1
 62
     5
 10
-508.0243
 20
193.9656
  0
VERTEX
  8
LIVELLO_1
 62
     5
 10
-508.3079
 20
194.0808
  0
VERTEX
  8
LIVELLO_1
 62
     5
 10
-508.6114
 20
194.152
  0
VERTEX
  8
LIVELLO_1
 62
     5
 10
-508.9309
 20
194.1763
  0
VERTEX
  8
LIVELLO_1
 62
     5
 10
-558.2994
 20
194.1763
  0
VERTEX
  8
LIVELLO_1
 62
     5
 10
-558.7016
 20
194.1355
  0
VERTEX
  8
LIVELLO_1
 62
     5
 10
-559.0766
 20
194.0187
  0
VERTEX
  8
LIVELLO_1
 62
     5
 10
-559.4163
 20
193.8339
  0
VERTEX
  8
LIVELLO_1
 62
     5
 10
-559.7125
 20
193.5894
  0
VERTEX
  8
LIVELLO_1
 62
     5
 10
-559.957
 20
193.2932
  0
VERTEX
  8
LIVELLO_1
 62
     5
 10
-560.1418
 20
192.9535
  0
VERTEX
  8
LIVELLO_1
 62
     5
 10
-560.2586
 20
192.5785
  0
VERTEX
  8
LIVELLO_1
 62
     5
 10
-560.2994
 20
192.1763
  0
VERTEX
  8
LIVELLO_1
 62
     5
 10
-560.2994
 20
127.2763
  0
VERTEX
  8
LIVELLO_1
 62
     5
 10
-564.2994
 20
127.2763
  0
VERTEX
  8
LIVELLO_1
 62
     5
 10
-564.2994
 20
192.1763
  0
VERTEX
  8
LIVELLO_1
 62
     5
 10
-564.3402
 20
192.5785
  0
VERTEX
  8
LIVELLO_1
 62
     5
 10
-564.457
 20
192.9535
  0
VERTEX
  8
LIVELLO_1
 62
     5
 10
-564.6418
 20
193.2932
  0
VERTEX
  8
LIVELLO_1
 62
     5
 10
-564.8863
 20
193.5894
  0
VERTEX
  8
LIVELLO_1
 62
     5
 10
-565.1825
 20
193.8339
  0
VERTEX
  8
LIVELLO_1
 62
     5
 10
-565.5222
 20
194.0187
  0
VERTEX
  8
LIVELLO_1
 62
     5
 10
-565.8972
 20
194.1355
  0
VERTEX
  8
LIVELLO_1
 62
     5
 10
-566.2994
 20
194.1763
  0
VERTEX
  8
LIVELLO_1
 62
     5
 10
-615.6679
 20
194.1763
  0
VERTEX
  8
LIVELLO_1
 62
     5
 10
-615.9874
 20
194.152
  0
VERTEX
  8
LIVELLO_1
 62
     5
 10
-616.2909
 20
194.0808
  0
VERTEX
  8
LIVELLO_1
 62
     5
 10
-616.5745
 20
193.9656
  0
VERTEX
  8
LIVELLO_1
 62
     5
 10
-616.8344
 20
193.8091
  0
VERTEX
  8
LIVELLO_1
 62
     5
 10
-617.0667
 20
193.6139
  0
VERTEX
  8
LIVELLO_1
 62
     5
 10
-617.2676
 20
193.383
  0
VERTEX
  8
LIVELLO_1
 62
     5
 10
-617.4332
 20
193.1189
  0
VERTEX
  8
LIVELLO_1
 62
     5
 10
-617.5598
 20
192.8245
  0
VERTEX
  8
LIVELLO_1
 62
     5
 10
-617.798
 20
192.2636
  0
VERTEX
  8
LIVELLO_1
 62
     5
 10
-618.1065
 20
191.7637
  0
VERTEX
  8
LIVELLO_1
 62
     5
 10
-618.4828
 20
191.3271
  0
VERTEX
  8
LIVELLO_1
 62
     5
 10
-618.9246
 20
190.9562
  0
VERTEX
  8
LIVELLO_1
 62
     5
 10
-619.4295
 20
190.6533
  0
VERTEX
  8
LIVELLO_1
 62
     5
 10
-619.9951
 20
190.4208
  0
VERTEX
  8
LIVELLO_1
 62
     5
 10
-620.6192
 20
190.261
  0
VERTEX
  8
LIVELLO_1
 62
     5
 10
-621.2994
 20
190.1763
  0
VERTEX
  8
LIVELLO_1
 62
     5
 10
-673.2994
 20
190.1763
  0
VERTEX
  8
LIVELLO_1
 62
     5
 10
-674.1537
 20
190.1023
  0
VERTEX
  8
LIVELLO_1
 62
     5
 10
-674.9272
 20
189.887
  0
VERTEX
  8
LIVELLO_1
 62
     5
 10
-675.6096
 20
189.54
  0
VERTEX
  8
LIVELLO_1
 62
     5
 10
-676.1907
 20
189.0714
  0
VERTEX
  8
LIVELLO_1
 62
     5
 10
-676.6605
 20
188.4909
  0
VERTEX
  8
LIVELLO_1
 62
     5
 10
-677.0087
 20
187.8083
  0
VERTEX
  8
LIVELLO_1
 62
     5
 10
-677.225
 20
187.0335
  0
VERTEX
  8
LIVELLO_1
 62
     5
 10
-677.2994
 20
186.1763
  0
VERTEX
  8
LIVELLO_1
 62
     5
 10
-677.2994
 20
54.1763
  0
VERTEX
  8
LIVELLO_1
 62
     5
 10
-677.2248
 20
53.322
  0
VERTEX
  8
LIVELLO_1
 62
     5
 10
-677.008
 20
52.5485
  0
VERTEX
  8
LIVELLO_1
 62
     5
 10
-676.6592
 20
51.8661
  0
VERTEX
  8
LIVELLO_1
 62
     5
 10
-676.1889
 20
51.285
  0
VERTEX
  8
LIVELLO_1
 62
     5
 10
-675.6075
 20
50.8152
  0
VERTEX
  8
LIVELLO_1
 62
     5
 10
-674.9251
 20
50.467
  0
VERTEX
  8
LIVELLO_1
 62
     5
 10
-674.1523
 20
50.2507
  0
VERTEX
  8
LIVELLO_1
 62
     5
 10
-673.2994
 20
50.1763
  0
VERTEX
  8
LIVELLO_1
 62
     5
 10
-621.2994
 20
50.1763
  0
VERTEX
  8
LIVELLO_1
 62
     5
 10
-620.6192
 20
50.261
  0
VERTEX
  8
LIVELLO_1
 62
     5
 10
-619.9951
 20
50.4208
  0
VERTEX
  8
LIVELLO_1
 62
     5
 10
-619.4295
 20
50.6533
  0
VERTEX
  8
LIVELLO_1
 62
     5
 10
-618.9246
 20
50.9562
  0
VERTEX
  8
LIVELLO_1
 62
     5
 10
-618.4828
 20
51.3271
  0
VERTEX
  8
LIVELLO_1
 62
     5
 10
-618.1065
 20
51.7637
  0
VERTEX
  8
LIVELLO_1
 62
     5
 10
-617.798
 20
52.2636
  0
VERTEX
  8
LIVELLO_1
 62
     5
 10
-617.5598
 20
52.8245
  0
VERTEX
  8
LIVELLO_1
 62
     5
 10
-617.4332
 20
53.1189
  0
VERTEX
  8
LIVELLO_1
 62
     5
 10
-617.2676
 20
53.383
  0
VERTEX
  8
LIVELLO_1
 62
     5
 10
-617.0667
 20
53.6139
  0
VERTEX
  8
LIVELLO_1
 62
     5
 10
-616.8344
 20
53.8091
  0
VERTEX
  8
LIVELLO_1
 62
     5
 10
-616.5745
 20
53.9656
  0
VERTEX
  8
LIVELLO_1
 62
     5
 10
-616.2909
 20
54.0808
  0
VERTEX
  8
LIVELLO_1
 62
     5
 10
-615.9874
 20
54.152
  0
VERTEX
  8
LIVELLO_1
 62
     5
 10
-615.6679
 20
54.1763
  0
VERTEX
  8
LIVELLO_1
 62
     5
 10
-508.9309
 20
54.1763
  0
VERTEX
  8
LIVELLO_1
 62
     5
 10
-508.6114
 20
54.152
  0
VERTEX
  8
LIVELLO_1
 62
     5
 10
-508.3079
 20
54.0808
  0
VERTEX
  8
LIVELLO_1
 62
     5
 10
-508.0243
 20
53.9656
  0
VERTEX
  8
LIVELLO_1
 62
     5
 10
-507.7644
 20
53.8091
  0
VERTEX
  8
LIVELLO_1
 62
     5
 10
-507.5321
 20
53.6139
  0
VERTEX
  8
LIVELLO_1
 62
     5
 10
-507.3312
 20
53.383
  0
VERTEX
  8
LIVELLO_1
 62
     5
 10
-507.1656
 20
53.1189
  0
VERTEX
  8
LIVELLO_1
 62
     5
 10
-507.039
 20
52.8245
  0
VERTEX
  8
LIVELLO_1
 62
     5
 10
-506.8008
 20
52.2636
  0
VERTEX
  8
LIVELLO_1
 62
     5
 10
-506.4923
 20
51.7637
  0
VERTEX
  8
LIVELLO_1
 62
     5
 10
-506.116
 20
51.3271
  0
VERTEX
  8
LIVELLO_1
 62
     5
 10
-505.6743
 20
50.9562
  0
VERTEX
  8
LIVELLO_1
 62
     5
 10
-505.1693
 20
50.6533
  0
VERTEX
  8
LIVELLO_1
 62
     5
 10
-504.6037
 20
50.4208
  0
VERTEX
  8
LIVELLO_1
 62
     5
 10
-503.9796
 20
50.261
  0
VERTEX
  8
LIVELLO_1
 62
     5
 10
-503.2994
 20
50.1763
  0
VERTEX
  8
LIVELLO_1
 62
     5
 10
-451.2994
 20
50.1763
  0
VERTEX
  8
LIVELLO_1
 62
     5
 10
-450.4673
 20
50.2507
  0
VERTEX
  8
LIVELLO_1
 62
     5
 10
-449.7043
 20
50.467
  0
VERTEX
  8
LIVELLO_1
 62
     5
 10
-449.0233
 20
50.8152
  0
VERTEX
  8
LIVELLO_1
 62
     5
 10
-448.4371
 20
51.285
  0
VERTEX
  8
LIVELLO_1
 62
     5
 10
-447.9587
 20
51.8661
  0
VERTEX
  8
LIVELLO_1
 62
     5
 10
-447.601
 20
52.5485
  0
VERTEX
  8
LIVELLO_1
 62
     5
 10
-447.377
 20
53.322
  0
VERTEX
  8
LIVELLO_1
 62
     5
 10
-447.2994
 20
54.1763
  0
SEQEND
  8
LIVELLO_1
 62
     5
  0
POLYLINE
  8
LIVELLO_1
 62
     3
 66
     1
 70
     1
  0
VERTEX
  8
LIVELLO_1
 62
     3
 10
-669.2994
 20
-58.6832
  0
VERTEX
  8
LIVELLO_1
 62
     3
 10
-669.2994
 20
-70.6832
  0
VERTEX
  8
LIVELLO_1
 62
     3
 10
-673.2994
 20
-70.6832
  0
VERTEX
  8
LIVELLO_1
 62
     3
 10
-673.2994
 20
-58.6832
  0
VERTEX
  8
LIVELLO_1
 62
     3
 10
-669.2994
 20
-58.6832
  0
SEQEND
  8
LIVELLO_1
 62
     3
  0
POLYLINE
  8
LIVELLO_1
 62
     3
 66
     1
 70
     1
  0
VERTEX
  8
LIVELLO_1
 62
     3
 10
-669.9173
 20
-50.0993
  0
VERTEX
  8
LIVELLO_1
 62
     3
 10
-669.8299
 20
-50.3809
  0
VERTEX
  8
LIVELLO_1
 62
     3
 10
-669.7994
 20
-50.6832
  0
VERTEX
  8
LIVELLO_1
 62
     3
 10
-669.8299
 20
-50.9855
  0
VERTEX
  8
LIVELLO_1
 62
     3
 10
-669.9173
 20
-51.2671
  0
VERTEX
  8
LIVELLO_1
 62
     3
 10
-670.0556
 20
-51.5219
  0
VERTEX
  8
LIVELLO_1
 62
     3
 10
-670.2387
 20
-51.7438
  0
VERTEX
  8
LIVELLO_1
 62
     3
 10
-670.4607
 20
-51.927
  0
VERTEX
  8
LIVELLO_1
 62
     3
 10
-670.7155
 20
-52.0653
  0
VERTEX
  8
LIVELLO_1
 62
     3
 10
-670.9971
 20
-52.1527
  0
VERTEX
  8
LIVELLO_1
 62
     3
 10
-671.2994
 20
-52.1832
  0
VERTEX
  8
LIVELLO_1
 62
     3
 10
-671.6017
 20
-52.1527
  0
VERTEX
  8
LIVELLO_1
 62
     3
 10
-671.8833
 20
-52.0653
  0
VERTEX
  8
LIVELLO_1
 62
     3
 10
-672.1381
 20
-51.927
  0
VERTEX
  8
LIVELLO_1
 62
     3
 10
-672.3601
 20
-51.7438
  0
VERTEX
  8
LIVELLO_1
 62
     3
 10
-672.5432
 20
-51.5219
  0
VERTEX
  8
LIVELLO_1
 62
     3
 10
-672.6815
 20
-51.2671
  0
VERTEX
  8
LIVELLO_1
 62
     3
 10
-672.7689
 20
-50.9855
  0
VERTEX
  8
LIVELLO_1
 62
     3
 10
-672.7994
 20
-50.6832
  0
VERTEX
  8
LIVELLO_1
 62
     3
 10
-672.7689
 20
-50.3809
  0
VERTEX
  8
LIVELLO_1
 62
     3
 10
-672.6815
 20
-50.0993
  0
VERTEX
  8
LIVELLO_1
 62
     3
 10
-672.5432
 20
-49.8445
  0
VERTEX
  8
LIVELLO_1
 62
     3
 10
-672.3601
 20
-49.6225
  0
VERTEX
  8
LIVELLO_1
 62
     3
 10
-672.1381
 20
-49.4394
  0
VERTEX
  8
LIVELLO_1
 62
     3
 10
-671.8833
 20
-49.3011
  0
VERTEX
  8
LIVELLO_1
 62
     3
 10
-671.6017
 20
-49.2137
  0
VERTEX
  8
LIVELLO_1
 62
     3
 10
-671.2994
 20
-49.1832
  0
VERTEX
  8
LIVELLO_1
 62
     3
 10
-670.9971
 20
-49.2137
  0
VERTEX
  8
LIVELLO_1
 62
     3
 10
-670.7155
 20
-49.3011
  0
VERTEX
  8
LIVELLO_1
 62
     3
 10
-670.4607
 20
-49.4394
  0
VERTEX
  8
LIVELLO_1
 62
     3
 10
-670.2387
 20
-49.6225
  0
VERTEX
  8
LIVELLO_1
 62
     3
 10
-670.0556
 20
-49.8445
  0
VERTEX
  8
LIVELLO_1
 62
     3
 10
-669.9173
 20
-50.0993
  0
SEQEND
  8
LIVELLO_1
 62
     3
  0
POLYLINE
  8
LIVELLO_1
 62
     3
 66
     1
 70
     1
  0
VERTEX
  8
LIVELLO_1
 62
     3
 10
-451.2994
 20
-8.6832
  0
VERTEX
  8
LIVELLO_1
 62
     3
 10
-455.2994
 20
-8.6832
  0
VERTEX
  8
LIVELLO_1
 62
     3
 10
-455.2994
 20
3.3168
  0
VERTEX
  8
LIVELLO_1
 62
     3
 10
-451.2994
 20
3.3168
  0
VERTEX
  8
LIVELLO_1
 62
     3
 10
-451.2994
 20
-8.6832
  0
SEQEND
  8
LIVELLO_1
 62
     3
  0
POLYLINE
  8
LIVELLO_1
 62
     3
 66
     1
 70
     1
  0
VERTEX
  8
LIVELLO_1
 62
     3
 10
-453.6017
 20
9.8473
  0
VERTEX
  8
LIVELLO_1
 62
     3
 10
-453.8833
 20
9.9347
  0
VERTEX
  8
LIVELLO_1
 62
     3
 10
-454.1381
 20
10.073
  0
VERTEX
  8
LIVELLO_1
 62
     3
 10
-454.3601
 20
10.2562
  0
VERTEX
  8
LIVELLO_1
 62
     3
 10
-454.5432
 20
10.4781
  0
VERTEX
  8
LIVELLO_1
 62
     3
 10
-454.6815
 20
10.7329
  0
VERTEX
  8
LIVELLO_1
 62
     3
 10
-454.7689
 20
11.0145
  0
VERTEX
  8
LIVELLO_1
 62
     3
 10
-454.7994
 20
11.3168
  0
VERTEX
  8
LIVELLO_1
 62
     3
 10
-454.7689
 20
11.6191
  0
VERTEX
  8
LIVELLO_1
 62
     3
 10
-454.6815
 20
11.9007
  0
VERTEX
  8
LIVELLO_1
 62
     3
 10
-454.5432
 20
12.1555
  0
VERTEX
  8
LIVELLO_1
 62
     3
 10
-454.3601
 20
12.3775
  0
VERTEX
  8
LIVELLO_1
 62
     3
 10
-454.1381
 20
12.5606
  0
VERTEX
  8
LIVELLO_1
 62
     3
 10
-453.8833
 20
12.6989
  0
VERTEX
  8
LIVELLO_1
 62
     3
 10
-453.6017
 20
12.7863
  0
VERTEX
  8
LIVELLO_1
 62
     3
 10
-453.2994
 20
12.8168
  0
VERTEX
  8
LIVELLO_1
 62
     3
 10
-452.9971
 20
12.7863
  0
VERTEX
  8
LIVELLO_1
 62
     3
 10
-452.7155
 20
12.6989
  0
VERTEX
  8
LIVELLO_1
 62
     3
 10
-452.4607
 20
12.5606
  0
VERTEX
  8
LIVELLO_1
 62
     3
 10
-452.2387
 20
12.3775
  0
VERTEX
  8
LIVELLO_1
 62
     3
 10
-452.0556
 20
12.1555
  0
VERTEX
  8
LIVELLO_1
 62
     3
 10
-451.9173
 20
11.9007
  0
VERTEX
  8
LIVELLO_1
 62
     3
 10
-451.8299
 20
11.6191
  0
VERTEX
  8
LIVELLO_1
 62
     3
 10
-451.7994
 20
11.3168
  0
VERTEX
  8
LIVELLO_1
 62
     3
 10
-451.8299
 20
11.0145
  0
VERTEX
  8
LIVELLO_1
 62
     3
 10
-451.9173
 20
10.7329
  0
VERTEX
  8
LIVELLO_1
 62
     3
 10
-452.0556
 20
10.4781
  0
VERTEX
  8
LIVELLO_1
 62
     3
 10
-452.2387
 20
10.2562
  0
VERTEX
  8
LIVELLO_1
 62
     3
 10
-452.4607
 20
10.073
  0
VERTEX
  8
LIVELLO_1
 62
     3
 10
-452.7155
 20
9.9347
  0
VERTEX
  8
LIVELLO_1
 62
     3
 10
-452.9971
 20
9.8473
  0
VERTEX
  8
LIVELLO_1
 62
     3
 10
-453.2994
 20
9.8168
  0
VERTEX
  8
LIVELLO_1
 62
     3
 10
-453.6017
 20
9.8473
  0
SEQEND
  8
LIVELLO_1
 62
     3
  0
POLYLINE
  8
LIVELLO_1
 62
     3
 66
     1
 70
     1
  0
VERTEX
  8
LIVELLO_1
 62
     3
 10
-451.2994
 20
19.3168
  0
VERTEX
  8
LIVELLO_1
 62
     3
 10
-455.2994
 20
19.3168
  0
VERTEX
  8
LIVELLO_1
 62
     3
 10
-455.2994
 20
31.3168
  0
VERTEX
  8
LIVELLO_1
 62
     3
 10
-451.2994
 20
31.3168
  0
VERTEX
  8
LIVELLO_1
 62
     3
 10
-451.2994
 20
19.3168
  0
SEQEND
  8
LIVELLO_1
 62
     3
  0
POLYLINE
  8
LIVELLO_1
 62
     3
 66
     1
 70
     1
  0
VERTEX
  8
LIVELLO_1
 62
     3
 10
-671.2994
 20
9.8168
  0
VERTEX
  8
LIVELLO_1
 62
     3
 10
-671.6017
 20
9.8473
  0
VERTEX
  8
LIVELLO_1
 62
     3
 10
-671.8833
 20
9.9347
  0
VERTEX
  8
LIVELLO_1
 62
     3
 10
-672.1381
 20
10.073
  0
VERTEX
  8
LIVELLO_1
 62
     3
 10
-672.3601
 20
10.2562
  0
VERTEX
  8
LIVELLO_1
 62
     3
 10
-672.5432
 20
10.4781
  0
VERTEX
  8
LIVELLO_1
 62
     3
 10
-672.6815
 20
10.7329
  0
VERTEX
  8
LIVELLO_1
 62
     3
 10
-672.7689
 20
11.0145
  0
VERTEX
  8
LIVELLO_1
 62
     3
 10
-672.7994
 20
11.3168
  0
VERTEX
  8
LIVELLO_1
 62
     3
 10
-672.7689
 20
11.6191
  0
VERTEX
  8
LIVELLO_1
 62
     3
 10
-672.6815
 20
11.9007
  0
VERTEX
  8
LIVELLO_1
 62
     3
 10
-672.5432
 20
12.1555
  0
VERTEX
  8
LIVELLO_1
 62
     3
 10
-672.3601
 20
12.3775
  0
VERTEX
  8
LIVELLO_1
 62
     3
 10
-672.1381
 20
12.5606
  0
VERTEX
  8
LIVELLO_1
 62
     3
 10
-671.8833
 20
12.6989
  0
VERTEX
  8
LIVELLO_1
 62
     3
 10
-671.6017
 20
12.7863
  0
VERTEX
  8
LIVELLO_1
 62
     3
 10
-671.2994
 20
12.8168
  0
VERTEX
  8
LIVELLO_1
 62
     3
 10
-670.9971
 20
12.7863
  0
VERTEX
  8
LIVELLO_1
 62
     3
 10
-670.7155
 20
12.6989
  0
VERTEX
  8
LIVELLO_1
 62
     3
 10
-670.4607
 20
12.5606
  0
VERTEX
  8
LIVELLO_1
 62
     3
 10
-670.2387
 20
12.3775
  0
VERTEX
  8
LIVELLO_1
 62
     3
 10
-670.0556
 20
12.1555
  0
VERTEX
  8
LIVELLO_1
 62
     3
 10
-669.9173
 20
11.9007
  0
VERTEX
  8
LIVELLO_1
 62
     3
 10
-669.8299
 20
11.6191
  0
VERTEX
  8
LIVELLO_1
 62
     3
 10
-669.7994
 20
11.3168
  0
VERTEX
  8
LIVELLO_1
 62
     3
 10
-669.8299
 20
11.0145
  0
VERTEX
  8
LIVELLO_1
 62
     3
 10
-669.9173
 20
10.7329
  0
VERTEX
  8
LIVELLO_1
 62
     3
 10
-670.0556
 20
10.4781
  0
VERTEX
  8
LIVELLO_1
 62
     3
 10
-670.2387
 20
10.2562
  0
VERTEX
  8
LIVELLO_1
 62
     3
 10
-670.4607
 20
10.073
  0
VERTEX
  8
LIVELLO_1
 62
     3
 10
-670.7155
 20
9.9347
  0
VERTEX
  8
LIVELLO_1
 62
     3
 10
-670.9971
 20
9.8473
  0
VERTEX
  8
LIVELLO_1
 62
     3
 10
-671.2994
 20
9.8168
  0
SEQEND
  8
LIVELLO_1
 62
     3
  0
POLYLINE
  8
LIVELLO_1
 62
     3
 66
     1
 70
     1
  0
VERTEX
  8
LIVELLO_1
 62
     3
 10
-669.2994
 20
-30.6832
  0
VERTEX
  8
LIVELLO_1
 62
     3
 10
-669.2994
 20
-42.6832
  0
VERTEX
  8
LIVELLO_1
 62
     3
 10
-673.2994
 20
-42.6832
  0
VERTEX
  8
LIVELLO_1
 62
     3
 10
-673.2994
 20
-30.6832
  0
VERTEX
  8
LIVELLO_1
 62
     3
 10
-669.2994
 20
-30.6832
  0
SEQEND
  8
LIVELLO_1
 62
     3
  0
POLYLINE
  8
LIVELLO_1
 62
     3
 66
     1
 70
     1
  0
VERTEX
  8
LIVELLO_1
 62
     3
 10
-669.2994
 20
3.3168
  0
VERTEX
  8
LIVELLO_1
 62
     3
 10
-669.2994
 20
-8.6832
  0
VERTEX
  8
LIVELLO_1
 62
     3
 10
-673.2994
 20
-8.6832
  0
VERTEX
  8
LIVELLO_1
 62
     3
 10
-673.2994
 20
3.3168
  0
VERTEX
  8
LIVELLO_1
 62
     3
 10
-669.2994
 20
3.3168
  0
SEQEND
  8
LIVELLO_1
 62
     3
  0
POLYLINE
  8
LIVELLO_1
 62
     3
 66
     1
 70
     1
  0
VERTEX
  8
LIVELLO_1
 62
     3
 10
-669.2994
 20
31.3168
  0
VERTEX
  8
LIVELLO_1
 62
     3
 10
-669.2994
 20
19.3168
  0
VERTEX
  8
LIVELLO_1
 62
     3
 10
-673.2994
 20
19.3168
  0
VERTEX
  8
LIVELLO_1
 62
     3
 10
-673.2994
 20
31.3168
  0
VERTEX
  8
LIVELLO_1
 62
     3
 10
-669.2994
 20
31.3168
  0
SEQEND
  8
LIVELLO_1
 62
     3
  0
POLYLINE
  8
LIVELLO_1
 62
     3
 66
     1
 70
     1
  0
VERTEX
  8
LIVELLO_1
 62
     3
 10
-669.2994
 20
-82.6832
  0
VERTEX
  8
LIVELLO_1
 62
     3
 10
-631.2994
 20
-82.6832
  0
VERTEX
  8
LIVELLO_1
 62
     3
 10
-631.2994
 20
-86.6832
  0
VERTEX
  8
LIVELLO_1
 62
     3
 10
-669.2994
 20
-86.6832
  0
VERTEX
  8
LIVELLO_1
 62
     3
 10
-669.2994
 20
-82.6832
  0
SEQEND
  8
LIVELLO_1
 62
     3
  0
POLYLINE
  8
LIVELLO_1
 62
     3
 66
     1
 70
     1
  0
VERTEX
  8
LIVELLO_1
 62
     3
 10
-581.5494
 20
-82.6832
  0
VERTEX
  8
LIVELLO_1
 62
     3
 10
-543.5494
 20
-82.6832
  0
VERTEX
  8
LIVELLO_1
 62
     3
 10
-543.5494
 20
-86.6832
  0
VERTEX
  8
LIVELLO_1
 62
     3
 10
-581.5494
 20
-86.6832
  0
VERTEX
  8
LIVELLO_1
 62
     3
 10
-581.5494
 20
-82.6832
  0
SEQEND
  8
LIVELLO_1
 62
     3
  0
POLYLINE
  8
LIVELLO_1
 62
     3
 66
     1
 70
     1
  0
VERTEX
  8
LIVELLO_1
 62
     3
 10
-478.3112
 20
36.8679
  0
VERTEX
  8
LIVELLO_1
 62
     3
 10
-478.6994
 20
36.8168
  0
VERTEX
  8
LIVELLO_1
 62
     3
 10
-479.0876
 20
36.8679
  0
VERTEX
  8
LIVELLO_1
 62
     3
 10
-479.4494
 20
37.0177
  0
VERTEX
  8
LIVELLO_1
 62
     3
 10
-479.7601
 20
37.2561
  0
VERTEX
  8
LIVELLO_1
 62
     3
 10
-479.9984
 20
37.5668
  0
VERTEX
  8
LIVELLO_1
 62
     3
 10
-480.1483
 20
37.9285
  0
VERTEX
  8
LIVELLO_1
 62
     3
 10
-480.1994
 20
38.3168
  0
VERTEX
  8
LIVELLO_1
 62
     3
 10
-480.1483
 20
38.705
  0
VERTEX
  8
LIVELLO_1
 62
     3
 10
-479.9984
 20
39.0668
  0
VERTEX
  8
LIVELLO_1
 62
     3
 10
-479.7601
 20
39.3774
  0
VERTEX
  8
LIVELLO_1
 62
     3
 10
-479.4494
 20
39.6158
  0
VERTEX
  8
LIVELLO_1
 62
     3
 10
-479.0876
 20
39.7656
  0
VERTEX
  8
LIVELLO_1
 62
     3
 10
-478.6994
 20
39.8168
  0
VERTEX
  8
LIVELLO_1
 62
     3
 10
-478.3112
 20
39.7656
  0
VERTEX
  8
LIVELLO_1
 62
     3
 10
-477.9494
 20
39.6158
  0
VERTEX
  8
LIVELLO_1
 62
     3
 10
-477.6387
 20
39.3774
  0
VERTEX
  8
LIVELLO_1
 62
     3
 10
-477.4004
 20
39.0668
  0
VERTEX
  8
LIVELLO_1
 62
     3
 10
-477.2505
 20
38.705
  0
VERTEX
  8
LIVELLO_1
 62
     3
 10
-477.1994
 20
38.3168
  0
VERTEX
  8
LIVELLO_1
 62
     3
 10
-477.2505
 20
37.9285
  0
VERTEX
  8
LIVELLO_1
 62
     3
 10
-477.4004
 20
37.5668
  0
VERTEX
  8
LIVELLO_1
 62
     3
 10
-477.6387
 20
37.2561
  0
VERTEX
  8
LIVELLO_1
 62
     3
 10
-477.9494
 20
37.0177
  0
VERTEX
  8
LIVELLO_1
 62
     3
 10
-478.3112
 20
36.8679
  0
SEQEND
  8
LIVELLO_1
 62
     3
  0
POLYLINE
  8
LIVELLO_1
 62
     3
 66
     1
 70
     1
  0
VERTEX
  8
LIVELLO_1
 62
     3
 10
-536.8994
 20
36.8168
  0
VERTEX
  8
LIVELLO_1
 62
     3
 10
-537.2876
 20
36.8679
  0
VERTEX
  8
LIVELLO_1
 62
     3
 10
-537.6494
 20
37.0177
  0
VERTEX
  8
LIVELLO_1
 62
     3
 10
-537.9601
 20
37.2561
  0
VERTEX
  8
LIVELLO_1
 62
     3
 10
-538.1984
 20
37.5668
  0
VERTEX
  8
LIVELLO_1
 62
     3
 10
-538.3483
 20
37.9285
  0
VERTEX
  8
LIVELLO_1
 62
     3
 10
-538.3994
 20
38.3168
  0
VERTEX
  8
LIVELLO_1
 62
     3
 10
-538.3483
 20
38.705
  0
VERTEX
  8
LIVELLO_1
 62
     3
 10
-538.1984
 20
39.0668
  0
VERTEX
  8
LIVELLO_1
 62
     3
 10
-537.9601
 20
39.3774
  0
VERTEX
  8
LIVELLO_1
 62
     3
 10
-537.6494
 20
39.6158
  0
VERTEX
  8
LIVELLO_1
 62
     3
 10
-537.2876
 20
39.7656
  0
VERTEX
  8
LIVELLO_1
 62
     3
 10
-536.8994
 20
39.8168
  0
VERTEX
  8
LIVELLO_1
 62
     3
 10
-536.5112
 20
39.7656
  0
VERTEX
  8
LIVELLO_1
 62
     3
 10
-536.1494
 20
39.6158
  0
VERTEX
  8
LIVELLO_1
 62
     3
 10
-535.8387
 20
39.3774
  0
VERTEX
  8
LIVELLO_1
 62
     3
 10
-535.6004
 20
39.0668
  0
VERTEX
  8
LIVELLO_1
 62
     3
 10
-535.4505
 20
38.705
  0
VERTEX
  8
LIVELLO_1
 62
     3
 10
-535.3994
 20
38.3168
  0
VERTEX
  8
LIVELLO_1
 62
     3
 10
-535.4505
 20
37.9285
  0
VERTEX
  8
LIVELLO_1
 62
     3
 10
-535.6004
 20
37.5668
  0
VERTEX
  8
LIVELLO_1
 62
     3
 10
-535.8387
 20
37.2561
  0
VERTEX
  8
LIVELLO_1
 62
     3
 10
-536.1494
 20
37.0177
  0
VERTEX
  8
LIVELLO_1
 62
     3
 10
-536.5112
 20
36.8679
  0
VERTEX
  8
LIVELLO_1
 62
     3
 10
-536.8994
 20
36.8168
  0
SEQEND
  8
LIVELLO_1
 62
     3
  0
POLYLINE
  8
LIVELLO_1
 62
     3
 66
     1
 70
     1
  0
VERTEX
  8
LIVELLO_1
 62
     3
 10
-587.6994
 20
36.8168
  0
VERTEX
  8
LIVELLO_1
 62
     3
 10
-588.0876
 20
36.8679
  0
VERTEX
  8
LIVELLO_1
 62
     3
 10
-588.4494
 20
37.0177
  0
VERTEX
  8
LIVELLO_1
 62
     3
 10
-588.7601
 20
37.2561
  0
VERTEX
  8
LIVELLO_1
 62
     3
 10
-588.9984
 20
37.5668
  0
VERTEX
  8
LIVELLO_1
 62
     3
 10
-589.1483
 20
37.9285
  0
VERTEX
  8
LIVELLO_1
 62
     3
 10
-589.1994
 20
38.3168
  0
VERTEX
  8
LIVELLO_1
 62
     3
 10
-589.1483
 20
38.705
  0
VERTEX
  8
LIVELLO_1
 62
     3
 10
-588.9984
 20
39.0668
  0
VERTEX
  8
LIVELLO_1
 62
     3
 10
-588.7601
 20
39.3774
  0
VERTEX
  8
LIVELLO_1
 62
     3
 10
-588.4494
 20
39.6158
  0
VERTEX
  8
LIVELLO_1
 62
     3
 10
-588.0876
 20
39.7656
  0
VERTEX
  8
LIVELLO_1
 62
     3
 10
-587.6994
 20
39.8168
  0
VERTEX
  8
LIVELLO_1
 62
     3
 10
-587.3112
 20
39.7656
  0
VERTEX
  8
LIVELLO_1
 62
     3
 10
-586.9494
 20
39.6158
  0
VERTEX
  8
LIVELLO_1
 62
     3
 10
-586.6387
 20
39.3774
  0
VERTEX
  8
LIVELLO_1
 62
     3
 10
-586.4004
 20
39.0668
  0
VERTEX
  8
LIVELLO_1
 62
     3
 10
-586.2505
 20
38.705
  0
VERTEX
  8
LIVELLO_1
 62
     3
 10
-586.1994
 20
38.3168
  0
VERTEX
  8
LIVELLO_1
 62
     3
 10
-586.2505
 20
37.9285
  0
VERTEX
  8
LIVELLO_1
 62
     3
 10
-586.4004
 20
37.5668
  0
VERTEX
  8
LIVELLO_1
 62
     3
 10
-586.6387
 20
37.2561
  0
VERTEX
  8
LIVELLO_1
 62
     3
 10
-586.9494
 20
37.0177
  0
VERTEX
  8
LIVELLO_1
 62
     3
 10
-587.3112
 20
36.8679
  0
VERTEX
  8
LIVELLO_1
 62
     3
 10
-587.6994
 20
36.8168
  0
SEQEND
  8
LIVELLO_1
 62
     3
  0
POLYLINE
  8
LIVELLO_1
 62
     3
 66
     1
 70
     1
  0
VERTEX
  8
LIVELLO_1
 62
     3
 10
-645.8994
 20
36.8168
  0
VERTEX
  8
LIVELLO_1
 62
     3
 10
-646.2876
 20
36.8679
  0
VERTEX
  8
LIVELLO_1
 62
     3
 10
-646.6494
 20
37.0177
  0
VERTEX
  8
LIVELLO_1
 62
     3
 10
-646.9601
 20
37.2561
  0
VERTEX
  8
LIVELLO_1
 62
     3
 10
-647.1984
 20
37.5668
  0
VERTEX
  8
LIVELLO_1
 62
     3
 10
-647.3483
 20
37.9285
  0
VERTEX
  8
LIVELLO_1
 62
     3
 10
-647.3994
 20
38.3168
  0
VERTEX
  8
LIVELLO_1
 62
     3
 10
-647.3483
 20
38.705
  0
VERTEX
  8
LIVELLO_1
 62
     3
 10
-647.1984
 20
39.0668
  0
VERTEX
  8
LIVELLO_1
 62
     3
 10
-646.9601
 20
39.3774
  0
VERTEX
  8
LIVELLO_1
 62
     3
 10
-646.6494
 20
39.6158
  0
VERTEX
  8
LIVELLO_1
 62
     3
 10
-646.2876
 20
39.7656
  0
VERTEX
  8
LIVELLO_1
 62
     3
 10
-645.8994
 20
39.8168
  0
VERTEX
  8
LIVELLO_1
 62
     3
 10
-645.5112
 20
39.7656
  0
VERTEX
  8
LIVELLO_1
 62
     3
 10
-645.1494
 20
39.6158
  0
VERTEX
  8
LIVELLO_1
 62
     3
 10
-644.8387
 20
39.3774
  0
VERTEX
  8
LIVELLO_1
 62
     3
 10
-644.6004
 20
39.0668
  0
VERTEX
  8
LIVELLO_1
 62
     3
 10
-644.4505
 20
38.705
  0
VERTEX
  8
LIVELLO_1
 62
     3
 10
-644.3994
 20
38.3168
  0
VERTEX
  8
LIVELLO_1
 62
     3
 10
-644.4505
 20
37.9285
  0
VERTEX
  8
LIVELLO_1
 62
     3
 10
-644.6004
 20
37.5668
  0
VERTEX
  8
LIVELLO_1
 62
     3
 10
-644.8387
 20
37.2561
  0
VERTEX
  8
LIVELLO_1
 62
     3
 10
-645.1494
 20
37.0177
  0
VERTEX
  8
LIVELLO_1
 62
     3
 10
-645.5112
 20
36.8679
  0
VERTEX
  8
LIVELLO_1
 62
     3
 10
-645.8994
 20
36.8168
  0
SEQEND
  8
LIVELLO_1
 62
     3
  0
POLYLINE
  8
LIVELLO_1
 62
     3
 66
     1
 70
     1
  0
VERTEX
  8
LIVELLO_1
 62
     3
 10
-455.2994
 20
-70.6832
  0
VERTEX
  8
LIVELLO_1
 62
     3
 10
-455.2994
 20
-58.6832
  0
VERTEX
  8
LIVELLO_1
 62
     3
 10
-451.2994
 20
-58.6832
  0
VERTEX
  8
LIVELLO_1
 62
     3
 10
-451.2994
 20
-70.6832
  0
VERTEX
  8
LIVELLO_1
 62
     3
 10
-455.2994
 20
-70.6832
  0
SEQEND
  8
LIVELLO_1
 62
     3
  0
POLYLINE
  8
LIVELLO_1
 62
     3
 66
     1
 70
     1
  0
VERTEX
  8
LIVELLO_1
 62
     3
 10
-453.2994
 20
-49.1832
  0
VERTEX
  8
LIVELLO_1
 62
     3
 10
-452.9971
 20
-49.2137
  0
VERTEX
  8
LIVELLO_1
 62
     3
 10
-452.7155
 20
-49.3011
  0
VERTEX
  8
LIVELLO_1
 62
     3
 10
-452.4607
 20
-49.4394
  0
VERTEX
  8
LIVELLO_1
 62
     3
 10
-452.2387
 20
-49.6225
  0
VERTEX
  8
LIVELLO_1
 62
     3
 10
-452.0556
 20
-49.8445
  0
VERTEX
  8
LIVELLO_1
 62
     3
 10
-451.9173
 20
-50.0993
  0
VERTEX
  8
LIVELLO_1
 62
     3
 10
-451.8299
 20
-50.3809
  0
VERTEX
  8
LIVELLO_1
 62
     3
 10
-451.7994
 20
-50.6832
  0
VERTEX
  8
LIVELLO_1
 62
     3
 10
-451.8299
 20
-50.9855
  0
VERTEX
  8
LIVELLO_1
 62
     3
 10
-451.9173
 20
-51.2671
  0
VERTEX
  8
LIVELLO_1
 62
     3
 10
-452.0556
 20
-51.5219
  0
VERTEX
  8
LIVELLO_1
 62
     3
 10
-452.2387
 20
-51.7438
  0
VERTEX
  8
LIVELLO_1
 62
     3
 10
-452.4607
 20
-51.927
  0
VERTEX
  8
LIVELLO_1
 62
     3
 10
-452.7155
 20
-52.0653
  0
VERTEX
  8
LIVELLO_1
 62
     3
 10
-452.9971
 20
-52.1527
  0
VERTEX
  8
LIVELLO_1
 62
     3
 10
-453.2994
 20
-52.1832
  0
VERTEX
  8
LIVELLO_1
 62
     3
 10
-453.6017
 20
-52.1527
  0
VERTEX
  8
LIVELLO_1
 62
     3
 10
-453.8833
 20
-52.0653
  0
VERTEX
  8
LIVELLO_1
 62
     3
 10
-454.1381
 20
-51.927
  0
VERTEX
  8
LIVELLO_1
 62
     3
 10
-454.3601
 20
-51.7438
  0
VERTEX
  8
LIVELLO_1
 62
     3
 10
-454.5432
 20
-51.5219
  0
VERTEX
  8
LIVELLO_1
 62
     3
 10
-454.6815
 20
-51.2671
  0
VERTEX
  8
LIVELLO_1
 62
     3
 10
-454.7689
 20
-50.9855
  0
VERTEX
  8
LIVELLO_1
 62
     3
 10
-454.7994
 20
-50.6832
  0
VERTEX
  8
LIVELLO_1
 62
     3
 10
-454.7689
 20
-50.3809
  0
VERTEX
  8
LIVELLO_1
 62
     3
 10
-454.6815
 20
-50.0993
  0
VERTEX
  8
LIVELLO_1
 62
     3
 10
-454.5432
 20
-49.8445
  0
VERTEX
  8
LIVELLO_1
 62
     3
 10
-454.3601
 20
-49.6225
  0
VERTEX
  8
LIVELLO_1
 62
     3
 10
-454.1381
 20
-49.4394
  0
VERTEX
  8
LIVELLO_1
 62
     3
 10
-453.8833
 20
-49.3011
  0
VERTEX
  8
LIVELLO_1
 62
     3
 10
-453.6017
 20
-49.2137
  0
VERTEX
  8
LIVELLO_1
 62
     3
 10
-453.2994
 20
-49.1832
  0
SEQEND
  8
LIVELLO_1
 62
     3
  0
POLYLINE
  8
LIVELLO_1
 62
     3
 66
     1
 70
     1
  0
VERTEX
  8
LIVELLO_1
 62
     3
 10
-455.2994
 20
-42.6832
  0
VERTEX
  8
LIVELLO_1
 62
     3
 10
-455.2994
 20
-30.6832
  0
VERTEX
  8
LIVELLO_1
 62
     3
 10
-451.2994
 20
-30.6832
  0
VERTEX
  8
LIVELLO_1
 62
     3
 10
-451.2994
 20
-42.6832
  0
VERTEX
  8
LIVELLO_1
 62
     3
 10
-455.2994
 20
-42.6832
  0
SEQEND
  8
LIVELLO_1
 62
     3
  0
POLYLINE
  8
LIVELLO_1
 62
     3
 66
     1
 70
     1
  0
VERTEX
  8
LIVELLO_1
 62
     3
 10
-493.2994
 20
-82.6832
  0
VERTEX
  8
LIVELLO_1
 62
     3
 10
-455.2994
 20
-82.6832
  0
VERTEX
  8
LIVELLO_1
 62
     3
 10
-455.2994
 20
-86.6832
  0
VERTEX
  8
LIVELLO_1
 62
     3
 10
-493.2994
 20
-86.6832
  0
VERTEX
  8
LIVELLO_1
 62
     3
 10
-493.2994
 20
-82.6832
  0
SEQEND
  8
LIVELLO_1
 62
     3
  0
POLYLINE
  8
LIVELLO_1
 62
     5
 66
     1
 70
     1
  0
VERTEX
  8
LIVELLO_1
 62
     5
 10
-447.2994
 20
-92.6832
  0
VERTEX
  8
LIVELLO_1
 62
     5
 10
-447.2994
 20
39.3168
  0
VERTEX
  8
LIVELLO_1
 62
     5
 10
-447.373
 20
40.1907
  0
VERTEX
  8
LIVELLO_1
 62
     5
 10
-447.5874
 20
40.9733
  0
VERTEX
  8
LIVELLO_1
 62
     5
 10
-447.9332
 20
41.6569
  0
VERTEX
  8
LIVELLO_1
 62
     5
 10
-448.4008
 20
42.2337
  0
VERTEX
  8
LIVELLO_1
 62
     5
 10
-448.9807
 20
42.6959
  0
VERTEX
  8
LIVELLO_1
 62
     5
 10
-449.6635
 20
43.0356
  0
VERTEX
  8
LIVELLO_1
 62
     5
 10
-450.4395
 20
43.2452
  0
VERTEX
  8
LIVELLO_1
 62
     5
 10
-451.2994
 20
43.3168
  0
VERTEX
  8
LIVELLO_1
 62
     5
 10
-503.2994
 20
43.3168
  0
VERTEX
  8
LIVELLO_1
 62
     5
 10
-503.9796
 20
43.4015
  0
VERTEX
  8
LIVELLO_1
 62
     5
 10
-504.6037
 20
43.5613
  0
VERTEX
  8
LIVELLO_1
 62
     5
 10
-505.1693
 20
43.7938
  0
VERTEX
  8
LIVELLO_1
 62
     5
 10
-505.6743
 20
44.0967
  0
VERTEX
  8
LIVELLO_1
 62
     5
 10
-506.116
 20
44.4676
  0
VERTEX
  8
LIVELLO_1
 62
     5
 10
-506.4923
 20
44.9042
  0
VERTEX
  8
LIVELLO_1
 62
     5
 10
-506.8008
 20
45.4041
  0
VERTEX
  8
LIVELLO_1
 62
     5
 10
-507.039
 20
45.965
  0
VERTEX
  8
LIVELLO_1
 62
     5
 10
-507.1656
 20
46.2594
  0
VERTEX
  8
LIVELLO_1
 62
     5
 10
-507.3312
 20
46.5235
  0
VERTEX
  8
LIVELLO_1
 62
     5
 10
-507.5321
 20
46.7544
  0
VERTEX
  8
LIVELLO_1
 62
     5
 10
-507.7645
 20
46.9496
  0
VERTEX
  8
LIVELLO_1
 62
     5
 10
-508.0243
 20
47.1061
  0
VERTEX
  8
LIVELLO_1
 62
     5
 10
-508.3079
 20
47.2213
  0
VERTEX
  8
LIVELLO_1
 62
     5
 10
-508.6114
 20
47.2925
  0
VERTEX
  8
LIVELLO_1
 62
     5
 10
-508.9309
 20
47.3168
  0
VERTEX
  8
LIVELLO_1
 62
     5
 10
-558.2994
 20
47.3168
  0
VERTEX
  8
LIVELLO_1
 62
     5
 10
-558.7016
 20
47.276
  0
VERTEX
  8
LIVELLO_1
 62
     5
 10
-559.0766
 20
47.1592
  0
VERTEX
  8
LIVELLO_1
 62
     5
 10
-559.4163
 20
46.9744
  0
VERTEX
  8
LIVELLO_1
 62
     5
 10
-559.7125
 20
46.7299
  0
VERTEX
  8
LIVELLO_1
 62
     5
 10
-559.957
 20
46.4337
  0
VERTEX
  8
LIVELLO_1
 62
     5
 10
-560.1418
 20
46.094
  0
VERTEX
  8
LIVELLO_1
 62
     5
 10
-560.2586
 20
45.719
  0
VERTEX
  8
LIVELLO_1
 62
     5
 10
-560.2994
 20
45.3168
  0
VERTEX
  8
LIVELLO_1
 62
     5
 10
-560.2994
 20
-19.5832
  0
VERTEX
  8
LIVELLO_1
 62
     5
 10
-564.2994
 20
-19.5832
  0
VERTEX
  8
LIVELLO_1
 62
     5
 10
-564.2994
 20
45.3168
  0
VERTEX
  8
LIVELLO_1
 62
     5
 10
-564.3402
 20
45.719
  0
VERTEX
  8
LIVELLO_1
 62
     5
 10
-564.457
 20
46.094
  0
VERTEX
  8
LIVELLO_1
 62
     5
 10
-564.6418
 20
46.4337
  0
VERTEX
  8
LIVELLO_1
 62
     5
 10
-564.8863
 20
46.7299
  0
VERTEX
  8
LIVELLO_1
 62
     5
 10
-565.1825
 20
46.9744
  0
VERTEX
  8
LIVELLO_1
 62
     5
 10
-565.5222
 20
47.1592
  0
VERTEX
  8
LIVELLO_1
 62
     5
 10
-565.8972
 20
47.276
  0
VERTEX
  8
LIVELLO_1
 62
     5
 10
-566.2994
 20
47.3168
  0
VERTEX
  8
LIVELLO_1
 62
     5
 10
-615.6679
 20
47.3168
  0
VERTEX
  8
LIVELLO_1
 62
     5
 10
-615.9874
 20
47.2925
  0
VERTEX
  8
LIVELLO_1
 62
     5
 10
-616.2909
 20
47.2213
  0
VERTEX
  8
LIVELLO_1
 62
     5
 10
-616.5745
 20
47.1061
  0
VERTEX
  8
LIVELLO_1
 62
     5
 10
-616.8344
 20
46.9496
  0
VERTEX
  8
LIVELLO_1
 62
     5
 10
-617.0667
 20
46.7544
  0
VERTEX
  8
LIVELLO_1
 62
     5
 10
-617.2676
 20
46.5235
  0
VERTEX
  8
LIVELLO_1
 62
     5
 10
-617.4332
 20
46.2594
  0
VERTEX
  8
LIVELLO_1
 62
     5
 10
-617.5598
 20
45.965
  0
VERTEX
  8
LIVELLO_1
 62
     5
 10
-617.798
 20
45.4041
  0
VERTEX
  8
LIVELLO_1
 62
     5
 10
-618.1065
 20
44.9042
  0
VERTEX
  8
LIVELLO_1
 62
     5
 10
-618.4828
 20
44.4676
  0
VERTEX
  8
LIVELLO_1
 62
     5
 10
-618.9246
 20
44.0967
  0
VERTEX
  8
LIVELLO_1
 62
     5
 10
-619.4295
 20
43.7938
  0
VERTEX
  8
LIVELLO_1
 62
     5
 10
-619.9951
 20
43.5613
  0
VERTEX
  8
LIVELLO_1
 62
     5
 10
-620.6192
 20
43.4015
  0
VERTEX
  8
LIVELLO_1
 62
     5
 10
-621.2994
 20
43.3168
  0
VERTEX
  8
LIVELLO_1
 62
     5
 10
-673.2994
 20
43.3168
  0
VERTEX
  8
LIVELLO_1
 62
     5
 10
-674.1537
 20
43.2428
  0
VERTEX
  8
LIVELLO_1
 62
     5
 10
-674.9272
 20
43.0275
  0
VERTEX
  8
LIVELLO_1
 62
     5
 10
-675.6096
 20
42.6805
  0
VERTEX
  8
LIVELLO_1
 62
     5
 10
-676.1907
 20
42.2119
  0
VERTEX
  8
LIVELLO_1
 62
     5
 10
-676.6605
 20
41.6314
  0
VERTEX
  8
LIVELLO_1
 62
     5
 10
-677.0087
 20
40.9488
  0
VERTEX
  8
LIVELLO_1
 62
     5
 10
-677.225
 20
40.174
  0
VERTEX
  8
LIVELLO_1
 62
     5
 10
-677.2994
 20
39.3168
  0
VERTEX
  8
LIVELLO_1
 62
     5
 10
-677.2994
 20
-92.6832
  0
VERTEX
  8
LIVELLO_1
 62
     5
 10
-677.2248
 20
-93.5375
  0
VERTEX
  8
LIVELLO_1
 62
     5
 10
-677.008
 20
-94.311
  0
VERTEX
  8
LIVELLO_1
 62
     5
 10
-676.6592
 20
-94.9934
  0
VERTEX
  8
LIVELLO_1
 62
     5
 10
-676.1889
 20
-95.5745
  0
VERTEX
  8
LIVELLO_1
 62
     5
 10
-675.6075
 20
-96.0443
  0
VERTEX
  8
LIVELLO_1
 62
     5
 10
-674.9251
 20
-96.3925
  0
VERTEX
  8
LIVELLO_1
 62
     5
 10
-674.1523
 20
-96.6088
  0
VERTEX
  8
LIVELLO_1
 62
     5
 10
-673.2994
 20
-96.6832
  0
VERTEX
  8
LIVELLO_1
 62
     5
 10
-621.2994
 20
-96.6832
  0
VERTEX
  8
LIVELLO_1
 62
     5
 10
-620.6192
 20
-96.5985
  0
VERTEX
  8
LIVELLO_1
 62
     5
 10
-619.9951
 20
-96.4387
  0
VERTEX
  8
LIVELLO_1
 62
     5
 10
-619.4295
 20
-96.2062
  0
VERTEX
  8
LIVELLO_1
 62
     5
 10
-618.9246
 20
-95.9033
  0
VERTEX
  8
LIVELLO_1
 62
     5
 10
-618.4828
 20
-95.5324
  0
VERTEX
  8
LIVELLO_1
 62
     5
 10
-618.1065
 20
-95.0958
  0
VERTEX
  8
LIVELLO_1
 62
     5
 10
-617.798
 20
-94.5959
  0
VERTEX
  8
LIVELLO_1
 62
     5
 10
-617.5598
 20
-94.035
  0
VERTEX
  8
LIVELLO_1
 62
     5
 10
-617.4332
 20
-93.7406
  0
VERTEX
  8
LIVELLO_1
 62
     5
 10
-617.2676
 20
-93.4765
  0
VERTEX
  8
LIVELLO_1
 62
     5
 10
-617.0667
 20
-93.2456
  0
VERTEX
  8
LIVELLO_1
 62
     5
 10
-616.8344
 20
-93.0504
  0
VERTEX
  8
LIVELLO_1
 62
     5
 10
-616.5745
 20
-92.8939
  0
VERTEX
  8
LIVELLO_1
 62
     5
 10
-616.2909
 20
-92.7787
  0
VERTEX
  8
LIVELLO_1
 62
     5
 10
-615.9874
 20
-92.7075
  0
VERTEX
  8
LIVELLO_1
 62
     5
 10
-615.6679
 20
-92.6832
  0
VERTEX
  8
LIVELLO_1
 62
     5
 10
-508.9309
 20
-92.6832
  0
VERTEX
  8
LIVELLO_1
 62
     5
 10
-508.6114
 20
-92.7075
  0
VERTEX
  8
LIVELLO_1
 62
     5
 10
-508.3079
 20
-92.7787
  0
VERTEX
  8
LIVELLO_1
 62
     5
 10
-508.0243
 20
-92.8939
  0
VERTEX
  8
LIVELLO_1
 62
     5
 10
-507.7644
 20
-93.0504
  0
VERTEX
  8
LIVELLO_1
 62
     5
 10
-507.5321
 20
-93.2456
  0
VERTEX
  8
LIVELLO_1
 62
     5
 10
-507.3312
 20
-93.4765
  0
VERTEX
  8
LIVELLO_1
 62
     5
 10
-507.1656
 20
-93.7406
  0
VERTEX
  8
LIVELLO_1
 62
     5
 10
-507.039
 20
-94.035
  0
VERTEX
  8
LIVELLO_1
 62
     5
 10
-506.8008
 20
-94.5959
  0
VERTEX
  8
LIVELLO_1
 62
     5
 10
-506.4923
 20
-95.0958
  0
VERTEX
  8
LIVELLO_1
 62
     5
 10
-506.116
 20
-95.5324
  0
VERTEX
  8
LIVELLO_1
 62
     5
 10
-505.6743
 20
-95.9033
  0
VERTEX
  8
LIVELLO_1
 62
     5
 10
-505.1693
 20
-96.2062
  0
VERTEX
  8
LIVELLO_1
 62
     5
 10
-504.6037
 20
-96.4387
  0
VERTEX
  8
LIVELLO_1
 62
     5
 10
-503.9796
 20
-96.5985
  0
VERTEX
  8
LIVELLO_1
 62
     5
 10
-503.2994
 20
-96.6832
  0
VERTEX
  8
LIVELLO_1
 62
     5
 10
-451.2994
 20
-96.6832
  0
VERTEX
  8
LIVELLO_1
 62
     5
 10
-450.4673
 20
-96.6088
  0
VERTEX
  8
LIVELLO_1
 62
     5
 10
-449.7043
 20
-96.3925
  0
VERTEX
  8
LIVELLO_1
 62
     5
 10
-449.0233
 20
-96.0443
  0
VERTEX
  8
LIVELLO_1
 62
     5
 10
-448.4371
 20
-95.5745
  0
VERTEX
  8
LIVELLO_1
 62
     5
 10
-447.9587
 20
-94.9934
  0
VERTEX
  8
LIVELLO_1
 62
     5
 10
-447.601
 20
-94.311
  0
VERTEX
  8
LIVELLO_1
 62
     5
 10
-447.377
 20
-93.5375
  0
VERTEX
  8
LIVELLO_1
 62
     5
 10
-447.2994
 20
-92.6832
  0
SEQEND
  8
LIVELLO_1
 62
     5
  0
POLYLINE
  8
LIVELLO_1
 62
     3
 66
     1
 70
     1
  0
VERTEX
  8
LIVELLO_1
 62
     3
 10
-1890.775
 20
-111.8906
  0
VERTEX
  8
LIVELLO_1
 62
     3
 10
-1891.0857
 20
-111.6522
  0
VERTEX
  8
LIVELLO_1
 62
     3
 10
-1891.324
 20
-111.3416
  0
VERTEX
  8
LIVELLO_1
 62
     3
 10
-1891.4739
 20
-110.9798
  0
VERTEX
  8
LIVELLO_1
 62
     3
 10
-1891.525
 20
-110.5916
  0
VERTEX
  8
LIVELLO_1
 62
     3
 10
-1891.4739
 20
-110.2033
  0
VERTEX
  8
LIVELLO_1
 62
     3
 10
-1891.324
 20
-109.8416
  0
VERTEX
  8
LIVELLO_1
 62
     3
 10
-1891.0857
 20
-109.5309
  0
VERTEX
  8
LIVELLO_1
 62
     3
 10
-1890.775
 20
-109.2925
  0
VERTEX
  8
LIVELLO_1
 62
     3
 10
-1890.4132
 20
-109.1427
  0
VERTEX
  8
LIVELLO_1
 62
     3
 10
-1890.025
 20
-109.0916
  0
VERTEX
  8
LIVELLO_1
 62
     3
 10
-1889.6368
 20
-109.1427
  0
VERTEX
  8
LIVELLO_1
 62
     3
 10
-1889.275
 20
-109.2925
  0
VERTEX
  8
LIVELLO_1
 62
     3
 10
-1888.9643
 20
-109.5309
  0
VERTEX
  8
LIVELLO_1
 62
     3
 10
-1888.726
 20
-109.8416
  0
VERTEX
  8
LIVELLO_1
 62
     3
 10
-1888.5761
 20
-110.2033
  0
VERTEX
  8
LIVELLO_1
 62
     3
 10
-1888.525
 20
-110.5916
  0
VERTEX
  8
LIVELLO_1
 62
     3
 10
-1888.5761
 20
-110.9798
  0
VERTEX
  8
LIVELLO_1
 62
     3
 10
-1888.726
 20
-111.3416
  0
VERTEX
  8
LIVELLO_1
 62
     3
 10
-1888.9643
 20
-111.6522
  0
VERTEX
  8
LIVELLO_1
 62
     3
 10
-1889.275
 20
-111.8906
  0
VERTEX
  8
LIVELLO_1
 62
     3
 10
-1889.6368
 20
-112.0404
  0
VERTEX
  8
LIVELLO_1
 62
     3
 10
-1890.025
 20
-112.0916
  0
VERTEX
  8
LIVELLO_1
 62
     3
 10
-1890.4132
 20
-112.0404
  0
VERTEX
  8
LIVELLO_1
 62
     3
 10
-1890.775
 20
-111.8906
  0
SEQEND
  8
LIVELLO_1
 62
     3
  0
POLYLINE
  8
LIVELLO_1
 62
     3
 66
     1
 70
     1
  0
VERTEX
  8
LIVELLO_1
 62
     3
 10
-1946.7761
 20
-110.9798
  0
VERTEX
  8
LIVELLO_1
 62
     3
 10
-1946.926
 20
-111.3416
  0
VERTEX
  8
LIVELLO_1
 62
     3
 10
-1947.1643
 20
-111.6522
  0
VERTEX
  8
LIVELLO_1
 62
     3
 10
-1947.475
 20
-111.8906
  0
VERTEX
  8
LIVELLO_1
 62
     3
 10
-1947.8368
 20
-112.0404
  0
VERTEX
  8
LIVELLO_1
 62
     3
 10
-1948.225
 20
-112.0916
  0
VERTEX
  8
LIVELLO_1
 62
     3
 10
-1948.6132
 20
-112.0404
  0
VERTEX
  8
LIVELLO_1
 62
     3
 10
-1948.975
 20
-111.8906
  0
VERTEX
  8
LIVELLO_1
 62
     3
 10
-1949.2857
 20
-111.6522
  0
VERTEX
  8
LIVELLO_1
 62
     3
 10
-1949.524
 20
-111.3416
  0
VERTEX
  8
LIVELLO_1
 62
     3
 10
-1949.6739
 20
-110.9798
  0
VERTEX
  8
LIVELLO_1
 62
     3
 10
-1949.725
 20
-110.5916
  0
VERTEX
  8
LIVELLO_1
 62
     3
 10
-1949.6739
 20
-110.2033
  0
VERTEX
  8
LIVELLO_1
 62
     3
 10
-1949.524
 20
-109.8416
  0
VERTEX
  8
LIVELLO_1
 62
     3
 10
-1949.2857
 20
-109.5309
  0
VERTEX
  8
LIVELLO_1
 62
     3
 10
-1948.975
 20
-109.2925
  0
VERTEX
  8
LIVELLO_1
 62
     3
 10
-1948.6132
 20
-109.1427
  0
VERTEX
  8
LIVELLO_1
 62
     3
 10
-1948.225
 20
-109.0916
  0
VERTEX
  8
LIVELLO_1
 62
     3
 10
-1947.8368
 20
-109.1427
  0
VERTEX
  8
LIVELLO_1
 62
     3
 10
-1947.475
 20
-109.2925
  0
VERTEX
  8
LIVELLO_1
 62
     3
 10
-1947.1643
 20
-109.5309
  0
VERTEX
  8
LIVELLO_1
 62
     3
 10
-1946.926
 20
-109.8416
  0
VERTEX
  8
LIVELLO_1
 62
     3
 10
-1946.7761
 20
-110.2033
  0
VERTEX
  8
LIVELLO_1
 62
     3
 10
-1946.725
 20
-110.5916
  0
VERTEX
  8
LIVELLO_1
 62
     3
 10
-1946.7761
 20
-110.9798
  0
SEQEND
  8
LIVELLO_1
 62
     3
  0
POLYLINE
  8
LIVELLO_1
 62
     3
 66
     1
 70
     1
  0
VERTEX
  8
LIVELLO_1
 62
     3
 10
-1781.775
 20
-111.8906
  0
VERTEX
  8
LIVELLO_1
 62
     3
 10
-1782.0857
 20
-111.6522
  0
VERTEX
  8
LIVELLO_1
 62
     3
 10
-1782.324
 20
-111.3416
  0
VERTEX
  8
LIVELLO_1
 62
     3
 10
-1782.4739
 20
-110.9798
  0
VERTEX
  8
LIVELLO_1
 62
     3
 10
-1782.525
 20
-110.5916
  0
VERTEX
  8
LIVELLO_1
 62
     3
 10
-1782.4739
 20
-110.2033
  0
VERTEX
  8
LIVELLO_1
 62
     3
 10
-1782.324
 20
-109.8416
  0
VERTEX
  8
LIVELLO_1
 62
     3
 10
-1782.0857
 20
-109.5309
  0
VERTEX
  8
LIVELLO_1
 62
     3
 10
-1781.775
 20
-109.2925
  0
VERTEX
  8
LIVELLO_1
 62
     3
 10
-1781.4132
 20
-109.1427
  0
VERTEX
  8
LIVELLO_1
 62
     3
 10
-1781.025
 20
-109.0916
  0
VERTEX
  8
LIVELLO_1
 62
     3
 10
-1780.6368
 20
-109.1427
  0
VERTEX
  8
LIVELLO_1
 62
     3
 10
-1780.275
 20
-109.2925
  0
VERTEX
  8
LIVELLO_1
 62
     3
 10
-1779.9643
 20
-109.5309
  0
VERTEX
  8
LIVELLO_1
 62
     3
 10
-1779.726
 20
-109.8416
  0
VERTEX
  8
LIVELLO_1
 62
     3
 10
-1779.5761
 20
-110.2033
  0
VERTEX
  8
LIVELLO_1
 62
     3
 10
-1779.525
 20
-110.5916
  0
VERTEX
  8
LIVELLO_1
 62
     3
 10
-1779.5761
 20
-110.9798
  0
VERTEX
  8
LIVELLO_1
 62
     3
 10
-1779.726
 20
-111.3416
  0
VERTEX
  8
LIVELLO_1
 62
     3
 10
-1779.9643
 20
-111.6522
  0
VERTEX
  8
LIVELLO_1
 62
     3
 10
-1780.275
 20
-111.8906
  0
VERTEX
  8
LIVELLO_1
 62
     3
 10
-1780.6368
 20
-112.0404
  0
VERTEX
  8
LIVELLO_1
 62
     3
 10
-1781.025
 20
-112.0916
  0
VERTEX
  8
LIVELLO_1
 62
     3
 10
-1781.4132
 20
-112.0404
  0
VERTEX
  8
LIVELLO_1
 62
     3
 10
-1781.775
 20
-111.8906
  0
SEQEND
  8
LIVELLO_1
 62
     3
  0
POLYLINE
  8
LIVELLO_1
 62
     3
 66
     1
 70
     1
  0
VERTEX
  8
LIVELLO_1
 62
     3
 10
-1837.7761
 20
-110.9798
  0
VERTEX
  8
LIVELLO_1
 62
     3
 10
-1837.926
 20
-111.3416
  0
VERTEX
  8
LIVELLO_1
 62
     3
 10
-1838.1643
 20
-111.6522
  0
VERTEX
  8
LIVELLO_1
 62
     3
 10
-1838.475
 20
-111.8906
  0
VERTEX
  8
LIVELLO_1
 62
     3
 10
-1838.8368
 20
-112.0404
  0
VERTEX
  8
LIVELLO_1
 62
     3
 10
-1839.225
 20
-112.0916
  0
VERTEX
  8
LIVELLO_1
 62
     3
 10
-1839.6132
 20
-112.0404
  0
VERTEX
  8
LIVELLO_1
 62
     3
 10
-1839.975
 20
-111.8906
  0
VERTEX
  8
LIVELLO_1
 62
     3
 10
-1840.2857
 20
-111.6522
  0
VERTEX
  8
LIVELLO_1
 62
     3
 10
-1840.524
 20
-111.3416
  0
VERTEX
  8
LIVELLO_1
 62
     3
 10
-1840.6739
 20
-110.9798
  0
VERTEX
  8
LIVELLO_1
 62
     3
 10
-1840.725
 20
-110.5916
  0
VERTEX
  8
LIVELLO_1
 62
     3
 10
-1840.6739
 20
-110.2033
  0
VERTEX
  8
LIVELLO_1
 62
     3
 10
-1840.524
 20
-109.8416
  0
VERTEX
  8
LIVELLO_1
 62
     3
 10
-1840.2857
 20
-109.5309
  0
VERTEX
  8
LIVELLO_1
 62
     3
 10
-1839.975
 20
-109.2925
  0
VERTEX
  8
LIVELLO_1
 62
     3
 10
-1839.6132
 20
-109.1427
  0
VERTEX
  8
LIVELLO_1
 62
     3
 10
-1839.225
 20
-109.0916
  0
VERTEX
  8
LIVELLO_1
 62
     3
 10
-1838.8368
 20
-109.1427
  0
VERTEX
  8
LIVELLO_1
 62
     3
 10
-1838.475
 20
-109.2925
  0
VERTEX
  8
LIVELLO_1
 62
     3
 10
-1838.1643
 20
-109.5309
  0
VERTEX
  8
LIVELLO_1
 62
     3
 10
-1837.926
 20
-109.8416
  0
VERTEX
  8
LIVELLO_1
 62
     3
 10
-1837.7761
 20
-110.2033
  0
VERTEX
  8
LIVELLO_1
 62
     3
 10
-1837.725
 20
-110.5916
  0
VERTEX
  8
LIVELLO_1
 62
     3
 10
-1837.7761
 20
-110.9798
  0
SEQEND
  8
LIVELLO_1
 62
     3
  0
POLYLINE
  8
LIVELLO_1
 62
     5
 66
     1
 70
     1
  0
VERTEX
  8
LIVELLO_1
 62
     5
 10
-1761.625
 20
-99.5427
  0
VERTEX
  8
LIVELLO_1
 62
     5
 10
-1846.7136
 20
-99.5427
  0
VERTEX
  8
LIVELLO_1
 62
     5
 10
-1858.625
 20
-99.5427
  0
VERTEX
  8
LIVELLO_1
 62
     5
 10
-1870.625
 20
-99.5427
  0
VERTEX
  8
LIVELLO_1
 62
     5
 10
-1880.7252
 20
-99.5427
  0
VERTEX
  8
LIVELLO_1
 62
     5
 10
-1967.625
 20
-99.5427
  0
VERTEX
  8
LIVELLO_1
 62
     5
 10
-1968.1471
 20
-99.5769
  0
VERTEX
  8
LIVELLO_1
 62
     5
 10
-1968.6603
 20
-99.679
  0
VERTEX
  8
LIVELLO_1
 62
     5
 10
-1969.1557
 20
-99.8472
  0
VERTEX
  8
LIVELLO_1
 62
     5
 10
-1969.625
 20
-100.0786
  0
VERTEX
  8
LIVELLO_1
 62
     5
 10
-1970.06
 20
-100.3693
  0
VERTEX
  8
LIVELLO_1
 62
     5
 10
-1970.4534
 20
-100.7142
  0
VERTEX
  8
LIVELLO_1
 62
     5
 10
-1970.7984
 20
-101.1076
  0
VERTEX
  8
LIVELLO_1
 62
     5
 10
-1971.0891
 20
-101.5427
  0
VERTEX
  8
LIVELLO_1
 62
     5
 10
-1971.3205
 20
-102.0119
  0
VERTEX
  8
LIVELLO_1
 62
     5
 10
-1971.4887
 20
-102.5074
  0
VERTEX
  8
LIVELLO_1
 62
     5
 10
-1971.5908
 20
-103.0206
  0
VERTEX
  8
LIVELLO_1
 62
     5
 10
-1971.625
 20
-103.5427
  0
VERTEX
  8
LIVELLO_1
 62
     5
 10
-1971.625
 20
-118.5916
  0
VERTEX
  8
LIVELLO_1
 62
     5
 10
-1971.5908
 20
-119.1137
  0
VERTEX
  8
LIVELLO_1
 62
     5
 10
-1971.4887
 20
-119.6268
  0
VERTEX
  8
LIVELLO_1
 62
     5
 10
-1971.3205
 20
-120.1223
  0
VERTEX
  8
LIVELLO_1
 62
     5
 10
-1971.0891
 20
-120.5916
  0
VERTEX
  8
LIVELLO_1
 62
     5
 10
-1970.7984
 20
-121.0266
  0
VERTEX
  8
LIVELLO_1
 62
     5
 10
-1970.4534
 20
-121.42
  0
VERTEX
  8
LIVELLO_1
 62
     5
 10
-1970.06
 20
-121.765
  0
VERTEX
  8
LIVELLO_1
 62
     5
 10
-1969.625
 20
-122.0557
  0
VERTEX
  8
LIVELLO_1
 62
     5
 10
-1969.1557
 20
-122.2871
  0
VERTEX
  8
LIVELLO_1
 62
     5
 10
-1968.6603
 20
-122.4553
  0
VERTEX
  8
LIVELLO_1
 62
     5
 10
-1968.1471
 20
-122.5573
  0
VERTEX
  8
LIVELLO_1
 62
     5
 10
-1967.625
 20
-122.5916
  0
VERTEX
  8
LIVELLO_1
 62
     5
 10
-1870.625
 20
-122.5916
  0
VERTEX
  8
LIVELLO_1
 62
     5
 10
-1870.1029
 20
-122.5573
  0
VERTEX
  8
LIVELLO_1
 62
     5
 10
-1869.5897
 20
-122.4553
  0
VERTEX
  8
LIVELLO_1
 62
     5
 10
-1869.0943
 20
-122.2871
  0
VERTEX
  8
LIVELLO_1
 62
     5
 10
-1868.625
 20
-122.0557
  0
VERTEX
  8
LIVELLO_1
 62
     5
 10
-1868.19
 20
-121.765
  0
VERTEX
  8
LIVELLO_1
 62
     5
 10
-1867.7966
 20
-121.42
  0
VERTEX
  8
LIVELLO_1
 62
     5
 10
-1867.4516
 20
-121.0266
  0
VERTEX
  8
LIVELLO_1
 62
     5
 10
-1867.1609
 20
-120.5916
  0
VERTEX
  8
LIVELLO_1
 62
     5
 10
-1866.9295
 20
-120.1223
  0
VERTEX
  8
LIVELLO_1
 62
     5
 10
-1866.7613
 20
-119.6268
  0
VERTEX
  8
LIVELLO_1
 62
     5
 10
-1866.6592
 20
-119.1137
  0
VERTEX
  8
LIVELLO_1
 62
     5
 10
-1866.625
 20
-118.5916
  0
VERTEX
  8
LIVELLO_1
 62
     5
 10
-1866.625
 20
-110.5916
  0
VERTEX
  8
LIVELLO_1
 62
     5
 10
-1862.625
 20
-110.5916
  0
VERTEX
  8
LIVELLO_1
 62
     5
 10
-1862.625
 20
-118.5916
  0
VERTEX
  8
LIVELLO_1
 62
     5
 10
-1862.5908
 20
-119.1137
  0
VERTEX
  8
LIVELLO_1
 62
     5
 10
-1862.4887
 20
-119.6268
  0
VERTEX
  8
LIVELLO_1
 62
     5
 10
-1862.3205
 20
-120.1223
  0
VERTEX
  8
LIVELLO_1
 62
     5
 10
-1862.0891
 20
-120.5916
  0
VERTEX
  8
LIVELLO_1
 62
     5
 10
-1861.7984
 20
-121.0266
  0
VERTEX
  8
LIVELLO_1
 62
     5
 10
-1861.4534
 20
-121.42
  0
VERTEX
  8
LIVELLO_1
 62
     5
 10
-1861.06
 20
-121.765
  0
VERTEX
  8
LIVELLO_1
 62
     5
 10
-1860.625
 20
-122.0557
  0
VERTEX
  8
LIVELLO_1
 62
     5
 10
-1860.1557
 20
-122.2871
  0
VERTEX
  8
LIVELLO_1
 62
     5
 10
-1859.6603
 20
-122.4553
  0
VERTEX
  8
LIVELLO_1
 62
     5
 10
-1859.1471
 20
-122.5573
  0
VERTEX
  8
LIVELLO_1
 62
     5
 10
-1858.625
 20
-122.5916
  0
VERTEX
  8
LIVELLO_1
 62
     5
 10
-1761.625
 20
-122.5916
  0
VERTEX
  8
LIVELLO_1
 62
     5
 10
-1761.1029
 20
-122.5573
  0
VERTEX
  8
LIVELLO_1
 62
     5
 10
-1760.5897
 20
-122.4553
  0
VERTEX
  8
LIVELLO_1
 62
     5
 10
-1760.0943
 20
-122.2871
  0
VERTEX
  8
LIVELLO_1
 62
     5
 10
-1759.625
 20
-122.0557
  0
VERTEX
  8
LIVELLO_1
 62
     5
 10
-1759.19
 20
-121.765
  0
VERTEX
  8
LIVELLO_1
 62
     5
 10
-1758.7966
 20
-121.42
  0
VERTEX
  8
LIVELLO_1
 62
     5
 10
-1758.4516
 20
-121.0266
  0
VERTEX
  8
LIVELLO_1
 62
     5
 10
-1758.1609
 20
-120.5916
  0
VERTEX
  8
LIVELLO_1
 62
     5
 10
-1757.9295
 20
-120.1223
  0
VERTEX
  8
LIVELLO_1
 62
     5
 10
-1757.7613
 20
-119.6268
  0
VERTEX
  8
LIVELLO_1
 62
     5
 10
-1757.6592
 20
-119.1137
  0
VERTEX
  8
LIVELLO_1
 62
     5
 10
-1757.625
 20
-118.5916
  0
VERTEX
  8
LIVELLO_1
 62
     5
 10
-1757.625
 20
-103.5427
  0
VERTEX
  8
LIVELLO_1
 62
     5
 10
-1757.6592
 20
-103.0206
  0
VERTEX
  8
LIVELLO_1
 62
     5
 10
-1757.7613
 20
-102.5074
  0
VERTEX
  8
LIVELLO_1
 62
     5
 10
-1757.9295
 20
-102.0119
  0
VERTEX
  8
LIVELLO_1
 62
     5
 10
-1758.1609
 20
-101.5427
  0
VERTEX
  8
LIVELLO_1
 62
     5
 10
-1758.4516
 20
-101.1076
  0
VERTEX
  8
LIVELLO_1
 62
     5
 10
-1758.7966
 20
-100.7142
  0
VERTEX
  8
LIVELLO_1
 62
     5
 10
-1759.19
 20
-100.3693
  0
VERTEX
  8
LIVELLO_1
 62
     5
 10
-1759.625
 20
-100.0786
  0
VERTEX
  8
LIVELLO_1
 62
     5
 10
-1760.0943
 20
-99.8472
  0
VERTEX
  8
LIVELLO_1
 62
     5
 10
-1760.5897
 20
-99.679
  0
VERTEX
  8
LIVELLO_1
 62
     5
 10
-1761.1029
 20
-99.5769
  0
VERTEX
  8
LIVELLO_1
 62
     5
 10
-1761.625
 20
-99.5427
  0
SEQEND
  8
LIVELLO_1
 62
     5
  0
POLYLINE
  8
LIVELLO_1
 62
     3
 66
     1
 70
     1
  0
VERTEX
  8
LIVELLO_1
 62
     3
 10
-1890.775
 20
-137.799
  0
VERTEX
  8
LIVELLO_1
 62
     3
 10
-1891.0857
 20
-137.5606
  0
VERTEX
  8
LIVELLO_1
 62
     3
 10
-1891.324
 20
-137.25
  0
VERTEX
  8
LIVELLO_1
 62
     3
 10
-1891.4739
 20
-136.8882
  0
VERTEX
  8
LIVELLO_1
 62
     3
 10
-1891.525
 20
-136.5
  0
VERTEX
  8
LIVELLO_1
 62
     3
 10
-1891.4739
 20
-136.1117
  0
VERTEX
  8
LIVELLO_1
 62
     3
 10
-1891.324
 20
-135.75
  0
VERTEX
  8
LIVELLO_1
 62
     3
 10
-1891.0857
 20
-135.4393
  0
VERTEX
  8
LIVELLO_1
 62
     3
 10
-1890.775
 20
-135.2009
  0
VERTEX
  8
LIVELLO_1
 62
     3
 10
-1890.4132
 20
-135.0511
  0
VERTEX
  8
LIVELLO_1
 62
     3
 10
-1890.025
 20
-135.0
  0
VERTEX
  8
LIVELLO_1
 62
     3
 10
-1889.6368
 20
-135.0511
  0
VERTEX
  8
LIVELLO_1
 62
     3
 10
-1889.275
 20
-135.2009
  0
VERTEX
  8
LIVELLO_1
 62
     3
 10
-1888.9643
 20
-135.4393
  0
VERTEX
  8
LIVELLO_1
 62
     3
 10
-1888.726
 20
-135.75
  0
VERTEX
  8
LIVELLO_1
 62
     3
 10
-1888.5761
 20
-136.1117
  0
VERTEX
  8
LIVELLO_1
 62
     3
 10
-1888.525
 20
-136.5
  0
VERTEX
  8
LIVELLO_1
 62
     3
 10
-1888.5761
 20
-136.8882
  0
VERTEX
  8
LIVELLO_1
 62
     3
 10
-1888.726
 20
-137.25
  0
VERTEX
  8
LIVELLO_1
 62
     3
 10
-1888.9643
 20
-137.5606
  0
VERTEX
  8
LIVELLO_1
 62
     3
 10
-1889.275
 20
-137.799
  0
VERTEX
  8
LIVELLO_1
 62
     3
 10
-1889.6368
 20
-137.9488
  0
VERTEX
  8
LIVELLO_1
 62
     3
 10
-1890.025
 20
-138.0
  0
VERTEX
  8
LIVELLO_1
 62
     3
 10
-1890.4132
 20
-137.9488
  0
VERTEX
  8
LIVELLO_1
 62
     3
 10
-1890.775
 20
-137.799
  0
SEQEND
  8
LIVELLO_1
 62
     3
  0
POLYLINE
  8
LIVELLO_1
 62
     3
 66
     1
 70
     1
  0
VERTEX
  8
LIVELLO_1
 62
     3
 10
-1946.7761
 20
-136.8882
  0
VERTEX
  8
LIVELLO_1
 62
     3
 10
-1946.926
 20
-137.25
  0
VERTEX
  8
LIVELLO_1
 62
     3
 10
-1947.1643
 20
-137.5606
  0
VERTEX
  8
LIVELLO_1
 62
     3
 10
-1947.475
 20
-137.799
  0
VERTEX
  8
LIVELLO_1
 62
     3
 10
-1947.8368
 20
-137.9488
  0
VERTEX
  8
LIVELLO_1
 62
     3
 10
-1948.225
 20
-138.0
  0
VERTEX
  8
LIVELLO_1
 62
     3
 10
-1948.6132
 20
-137.9488
  0
VERTEX
  8
LIVELLO_1
 62
     3
 10
-1948.975
 20
-137.799
  0
VERTEX
  8
LIVELLO_1
 62
     3
 10
-1949.2857
 20
-137.5606
  0
VERTEX
  8
LIVELLO_1
 62
     3
 10
-1949.524
 20
-137.25
  0
VERTEX
  8
LIVELLO_1
 62
     3
 10
-1949.6739
 20
-136.8882
  0
VERTEX
  8
LIVELLO_1
 62
     3
 10
-1949.725
 20
-136.5
  0
VERTEX
  8
LIVELLO_1
 62
     3
 10
-1949.6739
 20
-136.1117
  0
VERTEX
  8
LIVELLO_1
 62
     3
 10
-1949.524
 20
-135.75
  0
VERTEX
  8
LIVELLO_1
 62
     3
 10
-1949.2857
 20
-135.4393
  0
VERTEX
  8
LIVELLO_1
 62
     3
 10
-1948.975
 20
-135.2009
  0
VERTEX
  8
LIVELLO_1
 62
     3
 10
-1948.6132
 20
-135.0511
  0
VERTEX
  8
LIVELLO_1
 62
     3
 10
-1948.225
 20
-135.0
  0
VERTEX
  8
LIVELLO_1
 62
     3
 10
-1947.8368
 20
-135.0511
  0
VERTEX
  8
LIVELLO_1
 62
     3
 10
-1947.475
 20
-135.2009
  0
VERTEX
  8
LIVELLO_1
 62
     3
 10
-1947.1643
 20
-135.4393
  0
VERTEX
  8
LIVELLO_1
 62
     3
 10
-1946.926
 20
-135.75
  0
VERTEX
  8
LIVELLO_1
 62
     3
 10
-1946.7761
 20
-136.1117
  0
VERTEX
  8
LIVELLO_1
 62
     3
 10
-1946.725
 20
-136.5
  0
VERTEX
  8
LIVELLO_1
 62
     3
 10
-1946.7761
 20
-136.8882
  0
SEQEND
  8
LIVELLO_1
 62
     3
  0
POLYLINE
  8
LIVELLO_1
 62
     3
 66
     1
 70
     1
  0
VERTEX
  8
LIVELLO_1
 62
     3
 10
-1781.775
 20
-137.799
  0
VERTEX
  8
LIVELLO_1
 62
     3
 10
-1782.0857
 20
-137.5606
  0
VERTEX
  8
LIVELLO_1
 62
     3
 10
-1782.324
 20
-137.25
  0
VERTEX
  8
LIVELLO_1
 62
     3
 10
-1782.4739
 20
-136.8882
  0
VERTEX
  8
LIVELLO_1
 62
     3
 10
-1782.525
 20
-136.5
  0
VERTEX
  8
LIVELLO_1
 62
     3
 10
-1782.4739
 20
-136.1117
  0
VERTEX
  8
LIVELLO_1
 62
     3
 10
-1782.324
 20
-135.75
  0
VERTEX
  8
LIVELLO_1
 62
     3
 10
-1782.0857
 20
-135.4393
  0
VERTEX
  8
LIVELLO_1
 62
     3
 10
-1781.775
 20
-135.2009
  0
VERTEX
  8
LIVELLO_1
 62
     3
 10
-1781.4132
 20
-135.0511
  0
VERTEX
  8
LIVELLO_1
 62
     3
 10
-1781.025
 20
-135.0
  0
VERTEX
  8
LIVELLO_1
 62
     3
 10
-1780.6368
 20
-135.0511
  0
VERTEX
  8
LIVELLO_1
 62
     3
 10
-1780.275
 20
-135.2009
  0
VERTEX
  8
LIVELLO_1
 62
     3
 10
-1779.9643
 20
-135.4393
  0
VERTEX
  8
LIVELLO_1
 62
     3
 10
-1779.726
 20
-135.75
  0
VERTEX
  8
LIVELLO_1
 62
     3
 10
-1779.5761
 20
-136.1117
  0
VERTEX
  8
LIVELLO_1
 62
     3
 10
-1779.525
 20
-136.5
  0
VERTEX
  8
LIVELLO_1
 62
     3
 10
-1779.5761
 20
-136.8882
  0
VERTEX
  8
LIVELLO_1
 62
     3
 10
-1779.726
 20
-137.25
  0
VERTEX
  8
LIVELLO_1
 62
     3
 10
-1779.9643
 20
-137.5606
  0
VERTEX
  8
LIVELLO_1
 62
     3
 10
-1780.275
 20
-137.799
  0
VERTEX
  8
LIVELLO_1
 62
     3
 10
-1780.6368
 20
-137.9488
  0
VERTEX
  8
LIVELLO_1
 62
     3
 10
-1781.025
 20
-138.0
  0
VERTEX
  8
LIVELLO_1
 62
     3
 10
-1781.4132
 20
-137.9488
  0
VERTEX
  8
LIVELLO_1
 62
     3
 10
-1781.775
 20
-137.799
  0
SEQEND
  8
LIVELLO_1
 62
     3
  0
POLYLINE
  8
LIVELLO_1
 62
     3
 66
     1
 70
     1
  0
VERTEX
  8
LIVELLO_1
 62
     3
 10
-1837.7761
 20
-136.8882
  0
VERTEX
  8
LIVELLO_1
 62
     3
 10
-1837.926
 20
-137.25
  0
VERTEX
  8
LIVELLO_1
 62
     3
 10
-1838.1643
 20
-137.5606
  0
VERTEX
  8
LIVELLO_1
 62
     3
 10
-1838.475
 20
-137.799
  0
VERTEX
  8
LIVELLO_1
 62
     3
 10
-1838.8368
 20
-137.9488
  0
VERTEX
  8
LIVELLO_1
 62
     3
 10
-1839.225
 20
-138.0
  0
VERTEX
  8
LIVELLO_1
 62
     3
 10
-1839.6132
 20
-137.9488
  0
VERTEX
  8
LIVELLO_1
 62
     3
 10
-1839.975
 20
-137.799
  0
VERTEX
  8
LIVELLO_1
 62
     3
 10
-1840.2857
 20
-137.5606
  0
VERTEX
  8
LIVELLO_1
 62
     3
 10
-1840.524
 20
-137.25
  0
VERTEX
  8
LIVELLO_1
 62
     3
 10
-1840.6739
 20
-136.8882
  0
VERTEX
  8
LIVELLO_1
 62
     3
 10
-1840.725
 20
-136.5
  0
VERTEX
  8
LIVELLO_1
 62
     3
 10
-1840.6739
 20
-136.1117
  0
VERTEX
  8
LIVELLO_1
 62
     3
 10
-1840.524
 20
-135.75
  0
VERTEX
  8
LIVELLO_1
 62
     3
 10
-1840.2857
 20
-135.4393
  0
VERTEX
  8
LIVELLO_1
 62
     3
 10
-1839.975
 20
-135.2009
  0
VERTEX
  8
LIVELLO_1
 62
     3
 10
-1839.6132
 20
-135.0511
  0
VERTEX
  8
LIVELLO_1
 62
     3
 10
-1839.225
 20
-135.0
  0
VERTEX
  8
LIVELLO_1
 62
     3
 10
-1838.8368
 20
-135.0511
  0
VERTEX
  8
LIVELLO_1
 62
     3
 10
-1838.475
 20
-135.2009
  0
VERTEX
  8
LIVELLO_1
 62
     3
 10
-1838.1643
 20
-135.4393
  0
VERTEX
  8
LIVELLO_1
 62
     3
 10
-1837.926
 20
-135.75
  0
VERTEX
  8
LIVELLO_1
 62
     3
 10
-1837.7761
 20
-136.1117
  0
VERTEX
  8
LIVELLO_1
 62
     3
 10
-1837.725
 20
-136.5
  0
VERTEX
  8
LIVELLO_1
 62
     3
 10
-1837.7761
 20
-136.8882
  0
SEQEND
  8
LIVELLO_1
 62
     3
  0
POLYLINE
  8
LIVELLO_1
 62
     5
 66
     1
 70
     1
  0
VERTEX
  8
LIVELLO_1
 62
     5
 10
-1761.625
 20
-125.4511
  0
VERTEX
  8
LIVELLO_1
 62
     5
 10
-1846.7136
 20
-125.4511
  0
VERTEX
  8
LIVELLO_1
 62
     5
 10
-1858.625
 20
-125.4511
  0
VERTEX
  8
LIVELLO_1
 62
     5
 10
-1870.625
 20
-125.4511
  0
VERTEX
  8
LIVELLO_1
 62
     5
 10
-1880.7252
 20
-125.4511
  0
VERTEX
  8
LIVELLO_1
 62
     5
 10
-1967.625
 20
-125.4511
  0
VERTEX
  8
LIVELLO_1
 62
     5
 10
-1968.1471
 20
-125.4853
  0
VERTEX
  8
LIVELLO_1
 62
     5
 10
-1968.6603
 20
-125.5874
  0
VERTEX
  8
LIVELLO_1
 62
     5
 10
-1969.1557
 20
-125.7556
  0
VERTEX
  8
LIVELLO_1
 62
     5
 10
-1969.625
 20
-125.987
  0
VERTEX
  8
LIVELLO_1
 62
     5
 10
-1970.06
 20
-126.2777
  0
VERTEX
  8
LIVELLO_1
 62
     5
 10
-1970.4534
 20
-126.6226
  0
VERTEX
  8
LIVELLO_1
 62
     5
 10
-1970.7984
 20
-127.016
  0
VERTEX
  8
LIVELLO_1
 62
     5
 10
-1971.0891
 20
-127.4511
  0
VERTEX
  8
LIVELLO_1
 62
     5
 10
-1971.3205
 20
-127.9203
  0
VERTEX
  8
LIVELLO_1
 62
     5
 10
-1971.4887
 20
-128.4158
  0
VERTEX
  8
LIVELLO_1
 62
     5
 10
-1971.5908
 20
-128.929
  0
VERTEX
  8
LIVELLO_1
 62
     5
 10
-1971.625
 20
-129.4511
  0
VERTEX
  8
LIVELLO_1
 62
     5
 10
-1971.625
 20
-144.5
  0
VERTEX
  8
LIVELLO_1
 62
     5
 10
-1971.5908
 20
-145.0221
  0
VERTEX
  8
LIVELLO_1
 62
     5
 10
-1971.4887
 20
-145.5352
  0
VERTEX
  8
LIVELLO_1
 62
     5
 10
-1971.3205
 20
-146.0307
  0
VERTEX
  8
LIVELLO_1
 62
     5
 10
-1971.0891
 20
-146.5
  0
VERTEX
  8
LIVELLO_1
 62
     5
 10
-1970.7984
 20
-146.935
  0
VERTEX
  8
LIVELLO_1
 62
     5
 10
-1970.4534
 20
-147.3284
  0
VERTEX
  8
LIVELLO_1
 62
     5
 10
-1970.06
 20
-147.6734
  0
VERTEX
  8
LIVELLO_1
 62
     5
 10
-1969.625
 20
-147.9641
  0
VERTEX
  8
LIVELLO_1
 62
     5
 10
-1969.1557
 20
-148.1955
  0
VERTEX
  8
LIVELLO_1
 62
     5
 10
-1968.6603
 20
-148.3637
  0
VERTEX
  8
LIVELLO_1
 62
     5
 10
-1968.1471
 20
-148.4657
  0
VERTEX
  8
LIVELLO_1
 62
     5
 10
-1967.625
 20
-148.5
  0
VERTEX
  8
LIVELLO_1
 62
     5
 10
-1870.625
 20
-148.5
  0
VERTEX
  8
LIVELLO_1
 62
     5
 10
-1870.1029
 20
-148.4657
  0
VERTEX
  8
LIVELLO_1
 62
     5
 10
-1869.5897
 20
-148.3637
  0
VERTEX
  8
LIVELLO_1
 62
     5
 10
-1869.0943
 20
-148.1955
  0
VERTEX
  8
LIVELLO_1
 62
     5
 10
-1868.625
 20
-147.9641
  0
VERTEX
  8
LIVELLO_1
 62
     5
 10
-1868.19
 20
-147.6734
  0
VERTEX
  8
LIVELLO_1
 62
     5
 10
-1867.7966
 20
-147.3284
  0
VERTEX
  8
LIVELLO_1
 62
     5
 10
-1867.4516
 20
-146.935
  0
VERTEX
  8
LIVELLO_1
 62
     5
 10
-1867.1609
 20
-146.5
  0
VERTEX
  8
LIVELLO_1
 62
     5
 10
-1866.9295
 20
-146.0307
  0
VERTEX
  8
LIVELLO_1
 62
     5
 10
-1866.7613
 20
-145.5352
  0
VERTEX
  8
LIVELLO_1
 62
     5
 10
-1866.6592
 20
-145.0221
  0
VERTEX
  8
LIVELLO_1
 62
     5
 10
-1866.625
 20
-144.5
  0
VERTEX
  8
LIVELLO_1
 62
     5
 10
-1866.625
 20
-136.5
  0
VERTEX
  8
LIVELLO_1
 62
     5
 10
-1862.625
 20
-136.5
  0
VERTEX
  8
LIVELLO_1
 62
     5
 10
-1862.625
 20
-144.5
  0
VERTEX
  8
LIVELLO_1
 62
     5
 10
-1862.5908
 20
-145.0221
  0
VERTEX
  8
LIVELLO_1
 62
     5
 10
-1862.4887
 20
-145.5352
  0
VERTEX
  8
LIVELLO_1
 62
     5
 10
-1862.3205
 20
-146.0307
  0
VERTEX
  8
LIVELLO_1
 62
     5
 10
-1862.0891
 20
-146.5
  0
VERTEX
  8
LIVELLO_1
 62
     5
 10
-1861.7984
 20
-146.935
  0
VERTEX
  8
LIVELLO_1
 62
     5
 10
-1861.4534
 20
-147.3284
  0
VERTEX
  8
LIVELLO_1
 62
     5
 10
-1861.06
 20
-147.6734
  0
VERTEX
  8
LIVELLO_1
 62
     5
 10
-1860.625
 20
-147.9641
  0
VERTEX
  8
LIVELLO_1
 62
     5
 10
-1860.1557
 20
-148.1955
  0
VERTEX
  8
LIVELLO_1
 62
     5
 10
-1859.6603
 20
-148.3637
  0
VERTEX
  8
LIVELLO_1
 62
     5
 10
-1859.1471
 20
-148.4657
  0
VERTEX
  8
LIVELLO_1
 62
     5
 10
-1858.625
 20
-148.5
  0
VERTEX
  8
LIVELLO_1
 62
     5
 10
-1761.625
 20
-148.5
  0
VERTEX
  8
LIVELLO_1
 62
     5
 10
-1761.1029
 20
-148.4657
  0
VERTEX
  8
LIVELLO_1
 62
     5
 10
-1760.5897
 20
-148.3637
  0
VERTEX
  8
LIVELLO_1
 62
     5
 10
-1760.0943
 20
-148.1955
  0
VERTEX
  8
LIVELLO_1
 62
     5
 10
-1759.625
 20
-147.9641
  0
VERTEX
  8
LIVELLO_1
 62
     5
 10
-1759.19
 20
-147.6734
  0
VERTEX
  8
LIVELLO_1
 62
     5
 10
-1758.7966
 20
-147.3284
  0
VERTEX
  8
LIVELLO_1
 62
     5
 10
-1758.4516
 20
-146.935
  0
VERTEX
  8
LIVELLO_1
 62
     5
 10
-1758.1609
 20
-146.5
  0
VERTEX
  8
LIVELLO_1
 62
     5
 10
-1757.9295
 20
-146.0307
  0
VERTEX
  8
LIVELLO_1
 62
     5
 10
-1757.7613
 20
-145.5352
  0
VERTEX
  8
LIVELLO_1
 62
     5
 10
-1757.6592
 20
-145.0221
  0
VERTEX
  8
LIVELLO_1
 62
     5
 10
-1757.625
 20
-144.5
  0
VERTEX
  8
LIVELLO_1
 62
     5
 10
-1757.625
 20
-129.4511
  0
VERTEX
  8
LIVELLO_1
 62
     5
 10
-1757.6592
 20
-128.929
  0
VERTEX
  8
LIVELLO_1
 62
     5
 10
-1757.7613
 20
-128.4158
  0
VERTEX
  8
LIVELLO_1
 62
     5
 10
-1757.9295
 20
-127.9203
  0
VERTEX
  8
LIVELLO_1
 62
     5
 10
-1758.1609
 20
-127.4511
  0
VERTEX
  8
LIVELLO_1
 62
     5
 10
-1758.4516
 20
-127.016
  0
VERTEX
  8
LIVELLO_1
 62
     5
 10
-1758.7966
 20
-126.6226
  0
VERTEX
  8
LIVELLO_1
 62
     5
 10
-1759.19
 20
-126.2777
  0
VERTEX
  8
LIVELLO_1
 62
     5
 10
-1759.625
 20
-125.987
  0
VERTEX
  8
LIVELLO_1
 62
     5
 10
-1760.0943
 20
-125.7556
  0
VERTEX
  8
LIVELLO_1
 62
     5
 10
-1760.5897
 20
-125.5874
  0
VERTEX
  8
LIVELLO_1
 62
     5
 10
-1761.1029
 20
-125.4853
  0
VERTEX
  8
LIVELLO_1
 62
     5
 10
-1761.625
 20
-125.4511
  0
SEQEND
  8
LIVELLO_1
 62
     5
  0
POLYLINE
  8
LIVELLO_1
 62
     3
 66
     1
 70
     1
  0
VERTEX
  8
LIVELLO_1
 62
     3
 10
-1971.625
 20
88.1763
  0
VERTEX
  8
LIVELLO_1
 62
     3
 10
-1971.625
 20
76.1763
  0
VERTEX
  8
LIVELLO_1
 62
     3
 10
-1975.625
 20
76.1763
  0
VERTEX
  8
LIVELLO_1
 62
     3
 10
-1975.625
 20
88.1763
  0
VERTEX
  8
LIVELLO_1
 62
     3
 10
-1971.625
 20
88.1763
  0
SEQEND
  8
LIVELLO_1
 62
     3
  0
POLYLINE
  8
LIVELLO_1
 62
     3
 66
     1
 70
     1
  0
VERTEX
  8
LIVELLO_1
 62
     3
 10
-1972.2429
 20
96.7602
  0
VERTEX
  8
LIVELLO_1
 62
     3
 10
-1972.1555
 20
96.4786
  0
VERTEX
  8
LIVELLO_1
 62
     3
 10
-1972.125
 20
96.1763
  0
VERTEX
  8
LIVELLO_1
 62
     3
 10
-1972.1555
 20
95.874
  0
VERTEX
  8
LIVELLO_1
 62
     3
 10
-1972.2429
 20
95.5924
  0
VERTEX
  8
LIVELLO_1
 62
     3
 10
-1972.3812
 20
95.3376
  0
VERTEX
  8
LIVELLO_1
 62
     3
 10
-1972.5643
 20
95.1157
  0
VERTEX
  8
LIVELLO_1
 62
     3
 10
-1972.7863
 20
94.9325
  0
VERTEX
  8
LIVELLO_1
 62
     3
 10
-1973.0411
 20
94.7942
  0
VERTEX
  8
LIVELLO_1
 62
     3
 10
-1973.3227
 20
94.7068
  0
VERTEX
  8
LIVELLO_1
 62
     3
 10
-1973.625
 20
94.6763
  0
VERTEX
  8
LIVELLO_1
 62
     3
 10
-1973.9273
 20
94.7068
  0
VERTEX
  8
LIVELLO_1
 62
     3
 10
-1974.2089
 20
94.7942
  0
VERTEX
  8
LIVELLO_1
 62
     3
 10
-1974.4637
 20
94.9325
  0
VERTEX
  8
LIVELLO_1
 62
     3
 10
-1974.6857
 20
95.1157
  0
VERTEX
  8
LIVELLO_1
 62
     3
 10
-1974.8688
 20
95.3376
  0
VERTEX
  8
LIVELLO_1
 62
     3
 10
-1975.0071
 20
95.5924
  0
VERTEX
  8
LIVELLO_1
 62
     3
 10
-1975.0945
 20
95.874
  0
VERTEX
  8
LIVELLO_1
 62
     3
 10
-1975.125
 20
96.1763
  0
VERTEX
  8
LIVELLO_1
 62
     3
 10
-1975.0945
 20
96.4786
  0
VERTEX
  8
LIVELLO_1
 62
     3
 10
-1975.0071
 20
96.7602
  0
VERTEX
  8
LIVELLO_1
 62
     3
 10
-1974.8688
 20
97.015
  0
VERTEX
  8
LIVELLO_1
 62
     3
 10
-1974.6857
 20
97.237
  0
VERTEX
  8
LIVELLO_1
 62
     3
 10
-1974.4637
 20
97.4201
  0
VERTEX
  8
LIVELLO_1
 62
     3
 10
-1974.2089
 20
97.5584
  0
VERTEX
  8
LIVELLO_1
 62
     3
 10
-1973.9273
 20
97.6458
  0
VERTEX
  8
LIVELLO_1
 62
     3
 10
-1973.625
 20
97.6763
  0
VERTEX
  8
LIVELLO_1
 62
     3
 10
-1973.3227
 20
97.6458
  0
VERTEX
  8
LIVELLO_1
 62
     3
 10
-1973.0411
 20
97.5584
  0
VERTEX
  8
LIVELLO_1
 62
     3
 10
-1972.7863
 20
97.4201
  0
VERTEX
  8
LIVELLO_1
 62
     3
 10
-1972.5643
 20
97.237
  0
VERTEX
  8
LIVELLO_1
 62
     3
 10
-1972.3812
 20
97.015
  0
VERTEX
  8
LIVELLO_1
 62
     3
 10
-1972.2429
 20
96.7602
  0
SEQEND
  8
LIVELLO_1
 62
     3
  0
POLYLINE
  8
LIVELLO_1
 62
     3
 66
     1
 70
     1
  0
VERTEX
  8
LIVELLO_1
 62
     3
 10
-1753.625
 20
138.1763
  0
VERTEX
  8
LIVELLO_1
 62
     3
 10
-1757.625
 20
138.1763
  0
VERTEX
  8
LIVELLO_1
 62
     3
 10
-1757.625
 20
150.1763
  0
VERTEX
  8
LIVELLO_1
 62
     3
 10
-1753.625
 20
150.1763
  0
VERTEX
  8
LIVELLO_1
 62
     3
 10
-1753.625
 20
138.1763
  0
SEQEND
  8
LIVELLO_1
 62
     3
  0
POLYLINE
  8
LIVELLO_1
 62
     3
 66
     1
 70
     1
  0
VERTEX
  8
LIVELLO_1
 62
     3
 10
-1755.9273
 20
156.7068
  0
VERTEX
  8
LIVELLO_1
 62
     3
 10
-1756.2089
 20
156.7942
  0
VERTEX
  8
LIVELLO_1
 62
     3
 10
-1756.4637
 20
156.9325
  0
VERTEX
  8
LIVELLO_1
 62
     3
 10
-1756.6857
 20
157.1157
  0
VERTEX
  8
LIVELLO_1
 62
     3
 10
-1756.8688
 20
157.3376
  0
VERTEX
  8
LIVELLO_1
 62
     3
 10
-1757.0071
 20
157.5924
  0
VERTEX
  8
LIVELLO_1
 62
     3
 10
-1757.0945
 20
157.874
  0
VERTEX
  8
LIVELLO_1
 62
     3
 10
-1757.125
 20
158.1763
  0
VERTEX
  8
LIVELLO_1
 62
     3
 10
-1757.0945
 20
158.4786
  0
VERTEX
  8
LIVELLO_1
 62
     3
 10
-1757.0071
 20
158.7602
  0
VERTEX
  8
LIVELLO_1
 62
     3
 10
-1756.8688
 20
159.015
  0
VERTEX
  8
LIVELLO_1
 62
     3
 10
-1756.6857
 20
159.237
  0
VERTEX
  8
LIVELLO_1
 62
     3
 10
-1756.4637
 20
159.4201
  0
VERTEX
  8
LIVELLO_1
 62
     3
 10
-1756.2089
 20
159.5584
  0
VERTEX
  8
LIVELLO_1
 62
     3
 10
-1755.9273
 20
159.6458
  0
VERTEX
  8
LIVELLO_1
 62
     3
 10
-1755.625
 20
159.6763
  0
VERTEX
  8
LIVELLO_1
 62
     3
 10
-1755.3227
 20
159.6458
  0
VERTEX
  8
LIVELLO_1
 62
     3
 10
-1755.0411
 20
159.5584
  0
VERTEX
  8
LIVELLO_1
 62
     3
 10
-1754.7863
 20
159.4201
  0
VERTEX
  8
LIVELLO_1
 62
     3
 10
-1754.5643
 20
159.237
  0
VERTEX
  8
LIVELLO_1
 62
     3
 10
-1754.3812
 20
159.015
  0
VERTEX
  8
LIVELLO_1
 62
     3
 10
-1754.2429
 20
158.7602
  0
VERTEX
  8
LIVELLO_1
 62
     3
 10
-1754.1555
 20
158.4786
  0
VERTEX
  8
LIVELLO_1
 62
     3
 10
-1754.125
 20
158.1763
  0
VERTEX
  8
LIVELLO_1
 62
     3
 10
-1754.1555
 20
157.874
  0
VERTEX
  8
LIVELLO_1
 62
     3
 10
-1754.2429
 20
157.5924
  0
VERTEX
  8
LIVELLO_1
 62
     3
 10
-1754.3812
 20
157.3376
  0
VERTEX
  8
LIVELLO_1
 62
     3
 10
-1754.5643
 20
157.1157
  0
VERTEX
  8
LIVELLO_1
 62
     3
 10
-1754.7863
 20
156.9325
  0
VERTEX
  8
LIVELLO_1
 62
     3
 10
-1755.0411
 20
156.7942
  0
VERTEX
  8
LIVELLO_1
 62
     3
 10
-1755.3227
 20
156.7068
  0
VERTEX
  8
LIVELLO_1
 62
     3
 10
-1755.625
 20
156.6763
  0
VERTEX
  8
LIVELLO_1
 62
     3
 10
-1755.9273
 20
156.7068
  0
SEQEND
  8
LIVELLO_1
 62
     3
  0
POLYLINE
  8
LIVELLO_1
 62
     3
 66
     1
 70
     1
  0
VERTEX
  8
LIVELLO_1
 62
     3
 10
-1753.625
 20
166.1763
  0
VERTEX
  8
LIVELLO_1
 62
     3
 10
-1757.625
 20
166.1763
  0
VERTEX
  8
LIVELLO_1
 62
     3
 10
-1757.625
 20
178.1763
  0
VERTEX
  8
LIVELLO_1
 62
     3
 10
-1753.625
 20
178.1763
  0
VERTEX
  8
LIVELLO_1
 62
     3
 10
-1753.625
 20
166.1763
  0
SEQEND
  8
LIVELLO_1
 62
     3
  0
POLYLINE
  8
LIVELLO_1
 62
     3
 66
     1
 70
     1
  0
VERTEX
  8
LIVELLO_1
 62
     3
 10
-1973.625
 20
156.6763
  0
VERTEX
  8
LIVELLO_1
 62
     3
 10
-1973.9273
 20
156.7068
  0
VERTEX
  8
LIVELLO_1
 62
     3
 10
-1974.2089
 20
156.7942
  0
VERTEX
  8
LIVELLO_1
 62
     3
 10
-1974.4637
 20
156.9325
  0
VERTEX
  8
LIVELLO_1
 62
     3
 10
-1974.6857
 20
157.1157
  0
VERTEX
  8
LIVELLO_1
 62
     3
 10
-1974.8688
 20
157.3376
  0
VERTEX
  8
LIVELLO_1
 62
     3
 10
-1975.0071
 20
157.5924
  0
VERTEX
  8
LIVELLO_1
 62
     3
 10
-1975.0945
 20
157.874
  0
VERTEX
  8
LIVELLO_1
 62
     3
 10
-1975.125
 20
158.1763
  0
VERTEX
  8
LIVELLO_1
 62
     3
 10
-1975.0945
 20
158.4786
  0
VERTEX
  8
LIVELLO_1
 62
     3
 10
-1975.0071
 20
158.7602
  0
VERTEX
  8
LIVELLO_1
 62
     3
 10
-1974.8688
 20
159.015
  0
VERTEX
  8
LIVELLO_1
 62
     3
 10
-1974.6857
 20
159.237
  0
VERTEX
  8
LIVELLO_1
 62
     3
 10
-1974.4637
 20
159.4201
  0
VERTEX
  8
LIVELLO_1
 62
     3
 10
-1974.2089
 20
159.5584
  0
VERTEX
  8
LIVELLO_1
 62
     3
 10
-1973.9273
 20
159.6458
  0
VERTEX
  8
LIVELLO_1
 62
     3
 10
-1973.625
 20
159.6763
  0
VERTEX
  8
LIVELLO_1
 62
     3
 10
-1973.3227
 20
159.6458
  0
VERTEX
  8
LIVELLO_1
 62
     3
 10
-1973.0411
 20
159.5584
  0
VERTEX
  8
LIVELLO_1
 62
     3
 10
-1972.7863
 20
159.4201
  0
VERTEX
  8
LIVELLO_1
 62
     3
 10
-1972.5643
 20
159.237
  0
VERTEX
  8
LIVELLO_1
 62
     3
 10
-1972.3812
 20
159.015
  0
VERTEX
  8
LIVELLO_1
 62
     3
 10
-1972.2429
 20
158.7602
  0
VERTEX
  8
LIVELLO_1
 62
     3
 10
-1972.1555
 20
158.4786
  0
VERTEX
  8
LIVELLO_1
 62
     3
 10
-1972.125
 20
158.1763
  0
VERTEX
  8
LIVELLO_1
 62
     3
 10
-1972.1555
 20
157.874
  0
VERTEX
  8
LIVELLO_1
 62
     3
 10
-1972.2429
 20
157.5924
  0
VERTEX
  8
LIVELLO_1
 62
     3
 10
-1972.3812
 20
157.3376
  0
VERTEX
  8
LIVELLO_1
 62
     3
 10
-1972.5643
 20
157.1157
  0
VERTEX
  8
LIVELLO_1
 62
     3
 10
-1972.7863
 20
156.9325
  0
VERTEX
  8
LIVELLO_1
 62
     3
 10
-1973.0411
 20
156.7942
  0
VERTEX
  8
LIVELLO_1
 62
     3
 10
-1973.3227
 20
156.7068
  0
VERTEX
  8
LIVELLO_1
 62
     3
 10
-1973.625
 20
156.6763
  0
SEQEND
  8
LIVELLO_1
 62
     3
  0
POLYLINE
  8
LIVELLO_1
 62
     3
 66
     1
 70
     1
  0
VERTEX
  8
LIVELLO_1
 62
     3
 10
-1971.625
 20
116.1763
  0
VERTEX
  8
LIVELLO_1
 62
     3
 10
-1971.625
 20
104.1763
  0
VERTEX
  8
LIVELLO_1
 62
     3
 10
-1975.625
 20
104.1763
  0
VERTEX
  8
LIVELLO_1
 62
     3
 10
-1975.625
 20
116.1763
  0
VERTEX
  8
LIVELLO_1
 62
     3
 10
-1971.625
 20
116.1763
  0
SEQEND
  8
LIVELLO_1
 62
     3
  0
POLYLINE
  8
LIVELLO_1
 62
     3
 66
     1
 70
     1
  0
VERTEX
  8
LIVELLO_1
 62
     3
 10
-1971.625
 20
150.1763
  0
VERTEX
  8
LIVELLO_1
 62
     3
 10
-1971.625
 20
138.1763
  0
VERTEX
  8
LIVELLO_1
 62
     3
 10
-1975.625
 20
138.1763
  0
VERTEX
  8
LIVELLO_1
 62
     3
 10
-1975.625
 20
150.1763
  0
VERTEX
  8
LIVELLO_1
 62
     3
 10
-1971.625
 20
150.1763
  0
SEQEND
  8
LIVELLO_1
 62
     3
  0
POLYLINE
  8
LIVELLO_1
 62
     3
 66
     1
 70
     1
  0
VERTEX
  8
LIVELLO_1
 62
     3
 10
-1971.625
 20
178.1763
  0
VERTEX
  8
LIVELLO_1
 62
     3
 10
-1971.625
 20
166.1763
  0
VERTEX
  8
LIVELLO_1
 62
     3
 10
-1975.625
 20
166.1763
  0
VERTEX
  8
LIVELLO_1
 62
     3
 10
-1975.625
 20
178.1763
  0
VERTEX
  8
LIVELLO_1
 62
     3
 10
-1971.625
 20
178.1763
  0
SEQEND
  8
LIVELLO_1
 62
     3
  0
POLYLINE
  8
LIVELLO_1
 62
     3
 66
     1
 70
     1
  0
VERTEX
  8
LIVELLO_1
 62
     3
 10
-1971.625
 20
64.1763
  0
VERTEX
  8
LIVELLO_1
 62
     3
 10
-1933.625
 20
64.1763
  0
VERTEX
  8
LIVELLO_1
 62
     3
 10
-1933.625
 20
60.1763
  0
VERTEX
  8
LIVELLO_1
 62
     3
 10
-1971.625
 20
60.1763
  0
VERTEX
  8
LIVELLO_1
 62
     3
 10
-1971.625
 20
64.1763
  0
SEQEND
  8
LIVELLO_1
 62
     3
  0
POLYLINE
  8
LIVELLO_1
 62
     3
 66
     1
 70
     1
  0
VERTEX
  8
LIVELLO_1
 62
     3
 10
-1883.875
 20
64.1763
  0
VERTEX
  8
LIVELLO_1
 62
     3
 10
-1845.875
 20
64.1763
  0
VERTEX
  8
LIVELLO_1
 62
     3
 10
-1845.875
 20
60.1763
  0
VERTEX
  8
LIVELLO_1
 62
     3
 10
-1883.875
 20
60.1763
  0
VERTEX
  8
LIVELLO_1
 62
     3
 10
-1883.875
 20
64.1763
  0
SEQEND
  8
LIVELLO_1
 62
     3
  0
POLYLINE
  8
LIVELLO_1
 62
     3
 66
     1
 70
     1
  0
VERTEX
  8
LIVELLO_1
 62
     3
 10
-1780.6368
 20
183.7274
  0
VERTEX
  8
LIVELLO_1
 62
     3
 10
-1781.025
 20
183.6763
  0
VERTEX
  8
LIVELLO_1
 62
     3
 10
-1781.4132
 20
183.7274
  0
VERTEX
  8
LIVELLO_1
 62
     3
 10
-1781.775
 20
183.8772
  0
VERTEX
  8
LIVELLO_1
 62
     3
 10
-1782.0857
 20
184.1156
  0
VERTEX
  8
LIVELLO_1
 62
     3
 10
-1782.324
 20
184.4263
  0
VERTEX
  8
LIVELLO_1
 62
     3
 10
-1782.4739
 20
184.788
  0
VERTEX
  8
LIVELLO_1
 62
     3
 10
-1782.525
 20
185.1763
  0
VERTEX
  8
LIVELLO_1
 62
     3
 10
-1782.4739
 20
185.5645
  0
VERTEX
  8
LIVELLO_1
 62
     3
 10
-1782.324
 20
185.9263
  0
VERTEX
  8
LIVELLO_1
 62
     3
 10
-1782.0857
 20
186.2369
  0
VERTEX
  8
LIVELLO_1
 62
     3
 10
-1781.775
 20
186.4753
  0
VERTEX
  8
LIVELLO_1
 62
     3
 10
-1781.4132
 20
186.6251
  0
VERTEX
  8
LIVELLO_1
 62
     3
 10
-1781.025
 20
186.6763
  0
VERTEX
  8
LIVELLO_1
 62
     3
 10
-1780.6368
 20
186.6251
  0
VERTEX
  8
LIVELLO_1
 62
     3
 10
-1780.275
 20
186.4753
  0
VERTEX
  8
LIVELLO_1
 62
     3
 10
-1779.9643
 20
186.2369
  0
VERTEX
  8
LIVELLO_1
 62
     3
 10
-1779.726
 20
185.9263
  0
VERTEX
  8
LIVELLO_1
 62
     3
 10
-1779.5761
 20
185.5645
  0
VERTEX
  8
LIVELLO_1
 62
     3
 10
-1779.525
 20
185.1763
  0
VERTEX
  8
LIVELLO_1
 62
     3
 10
-1779.5761
 20
184.788
  0
VERTEX
  8
LIVELLO_1
 62
     3
 10
-1779.726
 20
184.4263
  0
VERTEX
  8
LIVELLO_1
 62
     3
 10
-1779.9643
 20
184.1156
  0
VERTEX
  8
LIVELLO_1
 62
     3
 10
-1780.275
 20
183.8772
  0
VERTEX
  8
LIVELLO_1
 62
     3
 10
-1780.6368
 20
183.7274
  0
SEQEND
  8
LIVELLO_1
 62
     3
  0
POLYLINE
  8
LIVELLO_1
 62
     3
 66
     1
 70
     1
  0
VERTEX
  8
LIVELLO_1
 62
     3
 10
-1839.225
 20
183.6763
  0
VERTEX
  8
LIVELLO_1
 62
     3
 10
-1839.6132
 20
183.7274
  0
VERTEX
  8
LIVELLO_1
 62
     3
 10
-1839.975
 20
183.8772
  0
VERTEX
  8
LIVELLO_1
 62
     3
 10
-1840.2857
 20
184.1156
  0
VERTEX
  8
LIVELLO_1
 62
     3
 10
-1840.524
 20
184.4263
  0
VERTEX
  8
LIVELLO_1
 62
     3
 10
-1840.6739
 20
184.788
  0
VERTEX
  8
LIVELLO_1
 62
     3
 10
-1840.725
 20
185.1763
  0
VERTEX
  8
LIVELLO_1
 62
     3
 10
-1840.6739
 20
185.5645
  0
VERTEX
  8
LIVELLO_1
 62
     3
 10
-1840.524
 20
185.9263
  0
VERTEX
  8
LIVELLO_1
 62
     3
 10
-1840.2857
 20
186.2369
  0
VERTEX
  8
LIVELLO_1
 62
     3
 10
-1839.975
 20
186.4753
  0
VERTEX
  8
LIVELLO_1
 62
     3
 10
-1839.6132
 20
186.6251
  0
VERTEX
  8
LIVELLO_1
 62
     3
 10
-1839.225
 20
186.6763
  0
VERTEX
  8
LIVELLO_1
 62
     3
 10
-1838.8368
 20
186.6251
  0
VERTEX
  8
LIVELLO_1
 62
     3
 10
-1838.475
 20
186.4753
  0
VERTEX
  8
LIVELLO_1
 62
     3
 10
-1838.1643
 20
186.2369
  0
VERTEX
  8
LIVELLO_1
 62
     3
 10
-1837.926
 20
185.9263
  0
VERTEX
  8
LIVELLO_1
 62
     3
 10
-1837.7761
 20
185.5645
  0
VERTEX
  8
LIVELLO_1
 62
     3
 10
-1837.725
 20
185.1763
  0
VERTEX
  8
LIVELLO_1
 62
     3
 10
-1837.7761
 20
184.788
  0
VERTEX
  8
LIVELLO_1
 62
     3
 10
-1837.926
 20
184.4263
  0
VERTEX
  8
LIVELLO_1
 62
     3
 10
-1838.1643
 20
184.1156
  0
VERTEX
  8
LIVELLO_1
 62
     3
 10
-1838.475
 20
183.8772
  0
VERTEX
  8
LIVELLO_1
 62
     3
 10
-1838.8368
 20
183.7274
  0
VERTEX
  8
LIVELLO_1
 62
     3
 10
-1839.225
 20
183.6763
  0
SEQEND
  8
LIVELLO_1
 62
     3
  0
POLYLINE
  8
LIVELLO_1
 62
     3
 66
     1
 70
     1
  0
VERTEX
  8
LIVELLO_1
 62
     3
 10
-1890.025
 20
183.6763
  0
VERTEX
  8
LIVELLO_1
 62
     3
 10
-1890.4132
 20
183.7274
  0
VERTEX
  8
LIVELLO_1
 62
     3
 10
-1890.775
 20
183.8772
  0
VERTEX
  8
LIVELLO_1
 62
     3
 10
-1891.0857
 20
184.1156
  0
VERTEX
  8
LIVELLO_1
 62
     3
 10
-1891.324
 20
184.4263
  0
VERTEX
  8
LIVELLO_1
 62
     3
 10
-1891.4739
 20
184.788
  0
VERTEX
  8
LIVELLO_1
 62
     3
 10
-1891.525
 20
185.1763
  0
VERTEX
  8
LIVELLO_1
 62
     3
 10
-1891.4739
 20
185.5645
  0
VERTEX
  8
LIVELLO_1
 62
     3
 10
-1891.324
 20
185.9263
  0
VERTEX
  8
LIVELLO_1
 62
     3
 10
-1891.0857
 20
186.2369
  0
VERTEX
  8
LIVELLO_1
 62
     3
 10
-1890.775
 20
186.4753
  0
VERTEX
  8
LIVELLO_1
 62
     3
 10
-1890.4132
 20
186.6251
  0
VERTEX
  8
LIVELLO_1
 62
     3
 10
-1890.025
 20
186.6763
  0
VERTEX
  8
LIVELLO_1
 62
     3
 10
-1889.6368
 20
186.6251
  0
VERTEX
  8
LIVELLO_1
 62
     3
 10
-1889.275
 20
186.4753
  0
VERTEX
  8
LIVELLO_1
 62
     3
 10
-1888.9643
 20
186.2369
  0
VERTEX
  8
LIVELLO_1
 62
     3
 10
-1888.726
 20
185.9263
  0
VERTEX
  8
LIVELLO_1
 62
     3
 10
-1888.5761
 20
185.5645
  0
VERTEX
  8
LIVELLO_1
 62
     3
 10
-1888.525
 20
185.1763
  0
VERTEX
  8
LIVELLO_1
 62
     3
 10
-1888.5761
 20
184.788
  0
VERTEX
  8
LIVELLO_1
 62
     3
 10
-1888.726
 20
184.4263
  0
VERTEX
  8
LIVELLO_1
 62
     3
 10
-1888.9643
 20
184.1156
  0
VERTEX
  8
LIVELLO_1
 62
     3
 10
-1889.275
 20
183.8772
  0
VERTEX
  8
LIVELLO_1
 62
     3
 10
-1889.6368
 20
183.7274
  0
VERTEX
  8
LIVELLO_1
 62
     3
 10
-1890.025
 20
183.6763
  0
SEQEND
  8
LIVELLO_1
 62
     3
  0
POLYLINE
  8
LIVELLO_1
 62
     3
 66
     1
 70
     1
  0
VERTEX
  8
LIVELLO_1
 62
     3
 10
-1948.225
 20
183.6763
  0
VERTEX
  8
LIVELLO_1
 62
     3
 10
-1948.6132
 20
183.7274
  0
VERTEX
  8
LIVELLO_1
 62
     3
 10
-1948.975
 20
183.8772
  0
VERTEX
  8
LIVELLO_1
 62
     3
 10
-1949.2857
 20
184.1156
  0
VERTEX
  8
LIVELLO_1
 62
     3
 10
-1949.524
 20
184.4263
  0
VERTEX
  8
LIVELLO_1
 62
     3
 10
-1949.6739
 20
184.788
  0
VERTEX
  8
LIVELLO_1
 62
     3
 10
-1949.725
 20
185.1763
  0
VERTEX
  8
LIVELLO_1
 62
     3
 10
-1949.6739
 20
185.5645
  0
VERTEX
  8
LIVELLO_1
 62
     3
 10
-1949.524
 20
185.9263
  0
VERTEX
  8
LIVELLO_1
 62
     3
 10
-1949.2857
 20
186.2369
  0
VERTEX
  8
LIVELLO_1
 62
     3
 10
-1948.975
 20
186.4753
  0
VERTEX
  8
LIVELLO_1
 62
     3
 10
-1948.6132
 20
186.6251
  0
VERTEX
  8
LIVELLO_1
 62
     3
 10
-1948.225
 20
186.6763
  0
VERTEX
  8
LIVELLO_1
 62
     3
 10
-1947.8368
 20
186.6251
  0
VERTEX
  8
LIVELLO_1
 62
     3
 10
-1947.475
 20
186.4753
  0
VERTEX
  8
LIVELLO_1
 62
     3
 10
-1947.1643
 20
186.2369
  0
VERTEX
  8
LIVELLO_1
 62
     3
 10
-1946.926
 20
185.9263
  0
VERTEX
  8
LIVELLO_1
 62
     3
 10
-1946.7761
 20
185.5645
  0
VERTEX
  8
LIVELLO_1
 62
     3
 10
-1946.725
 20
185.1763
  0
VERTEX
  8
LIVELLO_1
 62
     3
 10
-1946.7761
 20
184.788
  0
VERTEX
  8
LIVELLO_1
 62
     3
 10
-1946.926
 20
184.4263
  0
VERTEX
  8
LIVELLO_1
 62
     3
 10
-1947.1643
 20
184.1156
  0
VERTEX
  8
LIVELLO_1
 62
     3
 10
-1947.475
 20
183.8772
  0
VERTEX
  8
LIVELLO_1
 62
     3
 10
-1947.8368
 20
183.7274
  0
VERTEX
  8
LIVELLO_1
 62
     3
 10
-1948.225
 20
183.6763
  0
SEQEND
  8
LIVELLO_1
 62
     3
  0
POLYLINE
  8
LIVELLO_1
 62
     3
 66
     1
 70
     1
  0
VERTEX
  8
LIVELLO_1
 62
     3
 10
-1757.625
 20
76.1763
  0
VERTEX
  8
LIVELLO_1
 62
     3
 10
-1757.625
 20
88.1763
  0
VERTEX
  8
LIVELLO_1
 62
     3
 10
-1753.625
 20
88.1763
  0
VERTEX
  8
LIVELLO_1
 62
     3
 10
-1753.625
 20
76.1763
  0
VERTEX
  8
LIVELLO_1
 62
     3
 10
-1757.625
 20
76.1763
  0
SEQEND
  8
LIVELLO_1
 62
     3
  0
POLYLINE
  8
LIVELLO_1
 62
     3
 66
     1
 70
     1
  0
VERTEX
  8
LIVELLO_1
 62
     3
 10
-1755.625
 20
97.6763
  0
VERTEX
  8
LIVELLO_1
 62
     3
 10
-1755.3227
 20
97.6458
  0
VERTEX
  8
LIVELLO_1
 62
     3
 10
-1755.0411
 20
97.5584
  0
VERTEX
  8
LIVELLO_1
 62
     3
 10
-1754.7863
 20
97.4201
  0
VERTEX
  8
LIVELLO_1
 62
     3
 10
-1754.5643
 20
97.237
  0
VERTEX
  8
LIVELLO_1
 62
     3
 10
-1754.3812
 20
97.015
  0
VERTEX
  8
LIVELLO_1
 62
     3
 10
-1754.2429
 20
96.7602
  0
VERTEX
  8
LIVELLO_1
 62
     3
 10
-1754.1555
 20
96.4786
  0
VERTEX
  8
LIVELLO_1
 62
     3
 10
-1754.125
 20
96.1763
  0
VERTEX
  8
LIVELLO_1
 62
     3
 10
-1754.1555
 20
95.874
  0
VERTEX
  8
LIVELLO_1
 62
     3
 10
-1754.2429
 20
95.5924
  0
VERTEX
  8
LIVELLO_1
 62
     3
 10
-1754.3812
 20
95.3376
  0
VERTEX
  8
LIVELLO_1
 62
     3
 10
-1754.5643
 20
95.1157
  0
VERTEX
  8
LIVELLO_1
 62
     3
 10
-1754.7863
 20
94.9325
  0
VERTEX
  8
LIVELLO_1
 62
     3
 10
-1755.0411
 20
94.7942
  0
VERTEX
  8
LIVELLO_1
 62
     3
 10
-1755.3227
 20
94.7068
  0
VERTEX
  8
LIVELLO_1
 62
     3
 10
-1755.625
 20
94.6763
  0
VERTEX
  8
LIVELLO_1
 62
     3
 10
-1755.9273
 20
94.7068
  0
VERTEX
  8
LIVELLO_1
 62
     3
 10
-1756.2089
 20
94.7942
  0
VERTEX
  8
LIVELLO_1
 62
     3
 10
-1756.4637
 20
94.9325
  0
VERTEX
  8
LIVELLO_1
 62
     3
 10
-1756.6857
 20
95.1157
  0
VERTEX
  8
LIVELLO_1
 62
     3
 10
-1756.8688
 20
95.3376
  0
VERTEX
  8
LIVELLO_1
 62
     3
 10
-1757.0071
 20
95.5924
  0
VERTEX
  8
LIVELLO_1
 62
     3
 10
-1757.0945
 20
95.874
  0
VERTEX
  8
LIVELLO_1
 62
     3
 10
-1757.125
 20
96.1763
  0
VERTEX
  8
LIVELLO_1
 62
     3
 10
-1757.0945
 20
96.4786
  0
VERTEX
  8
LIVELLO_1
 62
     3
 10
-1757.0071
 20
96.7602
  0
VERTEX
  8
LIVELLO_1
 62
     3
 10
-1756.8688
 20
97.015
  0
VERTEX
  8
LIVELLO_1
 62
     3
 10
-1756.6857
 20
97.237
  0
VERTEX
  8
LIVELLO_1
 62
     3
 10
-1756.4637
 20
97.4201
  0
VERTEX
  8
LIVELLO_1
 62
     3
 10
-1756.2089
 20
97.5584
  0
VERTEX
  8
LIVELLO_1
 62
     3
 10
-1755.9273
 20
97.6458
  0
VERTEX
  8
LIVELLO_1
 62
     3
 10
-1755.625
 20
97.6763
  0
SEQEND
  8
LIVELLO_1
 62
     3
  0
POLYLINE
  8
LIVELLO_1
 62
     3
 66
     1
 70
     1
  0
VERTEX
  8
LIVELLO_1
 62
     3
 10
-1757.625
 20
104.1763
  0
VERTEX
  8
LIVELLO_1
 62
     3
 10
-1757.625
 20
116.1763
  0
VERTEX
  8
LIVELLO_1
 62
     3
 10
-1753.625
 20
116.1763
  0
VERTEX
  8
LIVELLO_1
 62
     3
 10
-1753.625
 20
104.1763
  0
VERTEX
  8
LIVELLO_1
 62
     3
 10
-1757.625
 20
104.1763
  0
SEQEND
  8
LIVELLO_1
 62
     3
  0
POLYLINE
  8
LIVELLO_1
 62
     3
 66
     1
 70
     1
  0
VERTEX
  8
LIVELLO_1
 62
     3
 10
-1795.625
 20
64.1763
  0
VERTEX
  8
LIVELLO_1
 62
     3
 10
-1757.625
 20
64.1763
  0
VERTEX
  8
LIVELLO_1
 62
     3
 10
-1757.625
 20
60.1763
  0
VERTEX
  8
LIVELLO_1
 62
     3
 10
-1795.625
 20
60.1763
  0
VERTEX
  8
LIVELLO_1
 62
     3
 10
-1795.625
 20
64.1763
  0
SEQEND
  8
LIVELLO_1
 62
     3
  0
POLYLINE
  8
LIVELLO_1
 62
     5
 66
     1
 70
     1
  0
VERTEX
  8
LIVELLO_1
 62
     5
 10
-1749.625
 20
54.1763
  0
VERTEX
  8
LIVELLO_1
 62
     5
 10
-1749.625
 20
186.1763
  0
VERTEX
  8
LIVELLO_1
 62
     5
 10
-1749.6986
 20
187.0502
  0
VERTEX
  8
LIVELLO_1
 62
     5
 10
-1749.913
 20
187.8328
  0
VERTEX
  8
LIVELLO_1
 62
     5
 10
-1750.2588
 20
188.5164
  0
VERTEX
  8
LIVELLO_1
 62
     5
 10
-1750.7264
 20
189.0932
  0
VERTEX
  8
LIVELLO_1
 62
     5
 10
-1751.3063
 20
189.5554
  0
VERTEX
  8
LIVELLO_1
 62
     5
 10
-1751.9891
 20
189.8951
  0
VERTEX
  8
LIVELLO_1
 62
     5
 10
-1752.7651
 20
190.1047
  0
VERTEX
  8
LIVELLO_1
 62
     5
 10
-1753.625
 20
190.1763
  0
VERTEX
  8
LIVELLO_1
 62
     5
 10
-1805.625
 20
190.1763
  0
VERTEX
  8
LIVELLO_1
 62
     5
 10
-1806.3052
 20
190.261
  0
VERTEX
  8
LIVELLO_1
 62
     5
 10
-1806.9293
 20
190.4208
  0
VERTEX
  8
LIVELLO_1
 62
     5
 10
-1807.4949
 20
190.6533
  0
VERTEX
  8
LIVELLO_1
 62
     5
 10
-1807.9999
 20
190.9562
  0
VERTEX
  8
LIVELLO_1
 62
     5
 10
-1808.4416
 20
191.3271
  0
VERTEX
  8
LIVELLO_1
 62
     5
 10
-1808.8179
 20
191.7637
  0
VERTEX
  8
LIVELLO_1
 62
     5
 10
-1809.1264
 20
192.2636
  0
VERTEX
  8
LIVELLO_1
 62
     5
 10
-1809.3646
 20
192.8245
  0
VERTEX
  8
LIVELLO_1
 62
     5
 10
-1809.4912
 20
193.1189
  0
VERTEX
  8
LIVELLO_1
 62
     5
 10
-1809.6568
 20
193.383
  0
VERTEX
  8
LIVELLO_1
 62
     5
 10
-1809.8577
 20
193.6139
  0
VERTEX
  8
LIVELLO_1
 62
     5
 10
-1810.0901
 20
193.8091
  0
VERTEX
  8
LIVELLO_1
 62
     5
 10
-1810.3499
 20
193.9656
  0
VERTEX
  8
LIVELLO_1
 62
     5
 10
-1810.6335
 20
194.0808
  0
VERTEX
  8
LIVELLO_1
 62
     5
 10
-1810.937
 20
194.152
  0
VERTEX
  8
LIVELLO_1
 62
     5
 10
-1811.2565
 20
194.1763
  0
VERTEX
  8
LIVELLO_1
 62
     5
 10
-1860.625
 20
194.1763
  0
VERTEX
  8
LIVELLO_1
 62
     5
 10
-1861.0272
 20
194.1355
  0
VERTEX
  8
LIVELLO_1
 62
     5
 10
-1861.4022
 20
194.0187
  0
VERTEX
  8
LIVELLO_1
 62
     5
 10
-1861.7419
 20
193.8339
  0
VERTEX
  8
LIVELLO_1
 62
     5
 10
-1862.0381
 20
193.5894
  0
VERTEX
  8
LIVELLO_1
 62
     5
 10
-1862.2826
 20
193.2932
  0
VERTEX
  8
LIVELLO_1
 62
     5
 10
-1862.4674
 20
192.9535
  0
VERTEX
  8
LIVELLO_1
 62
     5
 10
-1862.5842
 20
192.5785
  0
VERTEX
  8
LIVELLO_1
 62
     5
 10
-1862.625
 20
192.1763
  0
VERTEX
  8
LIVELLO_1
 62
     5
 10
-1862.625
 20
127.2763
  0
VERTEX
  8
LIVELLO_1
 62
     5
 10
-1866.625
 20
127.2763
  0
VERTEX
  8
LIVELLO_1
 62
     5
 10
-1866.625
 20
192.1763
  0
VERTEX
  8
LIVELLO_1
 62
     5
 10
-1866.6658
 20
192.5785
  0
VERTEX
  8
LIVELLO_1
 62
     5
 10
-1866.7826
 20
192.9535
  0
VERTEX
  8
LIVELLO_1
 62
     5
 10
-1866.9674
 20
193.2932
  0
VERTEX
  8
LIVELLO_1
 62
     5
 10
-1867.2119
 20
193.5894
  0
VERTEX
  8
LIVELLO_1
 62
     5
 10
-1867.5081
 20
193.8339
  0
VERTEX
  8
LIVELLO_1
 62
     5
 10
-1867.8478
 20
194.0187
  0
VERTEX
  8
LIVELLO_1
 62
     5
 10
-1868.2228
 20
194.1355
  0
VERTEX
  8
LIVELLO_1
 62
     5
 10
-1868.625
 20
194.1763
  0
VERTEX
  8
LIVELLO_1
 62
     5
 10
-1917.9935
 20
194.1763
  0
VERTEX
  8
LIVELLO_1
 62
     5
 10
-1918.313
 20
194.152
  0
VERTEX
  8
LIVELLO_1
 62
     5
 10
-1918.6165
 20
194.0808
  0
VERTEX
  8
LIVELLO_1
 62
     5
 10
-1918.9001
 20
193.9656
  0
VERTEX
  8
LIVELLO_1
 62
     5
 10
-1919.16
 20
193.8091
  0
VERTEX
  8
LIVELLO_1
 62
     5
 10
-1919.3923
 20
193.6139
  0
VERTEX
  8
LIVELLO_1
 62
     5
 10
-1919.5932
 20
193.383
  0
VERTEX
  8
LIVELLO_1
 62
     5
 10
-1919.7588
 20
193.1189
  0
VERTEX
  8
LIVELLO_1
 62
     5
 10
-1919.8854
 20
192.8245
  0
VERTEX
  8
LIVELLO_1
 62
     5
 10
-1920.1236
 20
192.2636
  0
VERTEX
  8
LIVELLO_1
 62
     5
 10
-1920.4321
 20
191.7637
  0
VERTEX
  8
LIVELLO_1
 62
     5
 10
-1920.8084
 20
191.3271
  0
VERTEX
  8
LIVELLO_1
 62
     5
 10
-1921.2502
 20
190.9562
  0
VERTEX
  8
LIVELLO_1
 62
     5
 10
-1921.7551
 20
190.6533
  0
VERTEX
  8
LIVELLO_1
 62
     5
 10
-1922.3207
 20
190.4208
  0
VERTEX
  8
LIVELLO_1
 62
     5
 10
-1922.9448
 20
190.261
  0
VERTEX
  8
LIVELLO_1
 62
     5
 10
-1923.625
 20
190.1763
  0
VERTEX
  8
LIVELLO_1
 62
     5
 10
-1975.625
 20
190.1763
  0
VERTEX
  8
LIVELLO_1
 62
     5
 10
-1976.4793
 20
190.1023
  0
VERTEX
  8
LIVELLO_1
 62
     5
 10
-1977.2528
 20
189.887
  0
VERTEX
  8
LIVELLO_1
 62
     5
 10
-1977.9352
 20
189.54
  0
VERTEX
  8
LIVELLO_1
 62
     5
 10
-1978.5163
 20
189.0714
  0
VERTEX
  8
LIVELLO_1
 62
     5
 10
-1978.9861
 20
188.4909
  0
VERTEX
  8
LIVELLO_1
 62
     5
 10
-1979.3343
 20
187.8083
  0
VERTEX
  8
LIVELLO_1
 62
     5
 10
-1979.5506
 20
187.0335
  0
VERTEX
  8
LIVELLO_1
 62
     5
 10
-1979.625
 20
186.1763
  0
VERTEX
  8
LIVELLO_1
 62
     5
 10
-1979.625
 20
54.1763
  0
VERTEX
  8
LIVELLO_1
 62
     5
 10
-1979.5504
 20
53.322
  0
VERTEX
  8
LIVELLO_1
 62
     5
 10
-1979.3336
 20
52.5485
  0
VERTEX
  8
LIVELLO_1
 62
     5
 10
-1978.9848
 20
51.8661
  0
VERTEX
  8
LIVELLO_1
 62
     5
 10
-1978.5145
 20
51.285
  0
VERTEX
  8
LIVELLO_1
 62
     5
 10
-1977.9331
 20
50.8152
  0
VERTEX
  8
LIVELLO_1
 62
     5
 10
-1977.2507
 20
50.467
  0
VERTEX
  8
LIVELLO_1
 62
     5
 10
-1976.4779
 20
50.2507
  0
VERTEX
  8
LIVELLO_1
 62
     5
 10
-1975.625
 20
50.1763
  0
VERTEX
  8
LIVELLO_1
 62
     5
 10
-1923.625
 20
50.1763
  0
VERTEX
  8
LIVELLO_1
 62
     5
 10
-1922.9448
 20
50.261
  0
VERTEX
  8
LIVELLO_1
 62
     5
 10
-1922.3207
 20
50.4208
  0
VERTEX
  8
LIVELLO_1
 62
     5
 10
-1921.7551
 20
50.6533
  0
VERTEX
  8
LIVELLO_1
 62
     5
 10
-1921.2502
 20
50.9562
  0
VERTEX
  8
LIVELLO_1
 62
     5
 10
-1920.8084
 20
51.3271
  0
VERTEX
  8
LIVELLO_1
 62
     5
 10
-1920.4321
 20
51.7637
  0
VERTEX
  8
LIVELLO_1
 62
     5
 10
-1920.1236
 20
52.2636
  0
VERTEX
  8
LIVELLO_1
 62
     5
 10
-1919.8854
 20
52.8245
  0
VERTEX
  8
LIVELLO_1
 62
     5
 10
-1919.7588
 20
53.1189
  0
VERTEX
  8
LIVELLO_1
 62
     5
 10
-1919.5932
 20
53.383
  0
VERTEX
  8
LIVELLO_1
 62
     5
 10
-1919.3923
 20
53.6139
  0
VERTEX
  8
LIVELLO_1
 62
     5
 10
-1919.16
 20
53.8091
  0
VERTEX
  8
LIVELLO_1
 62
     5
 10
-1918.9001
 20
53.9656
  0
VERTEX
  8
LIVELLO_1
 62
     5
 10
-1918.6165
 20
54.0808
  0
VERTEX
  8
LIVELLO_1
 62
     5
 10
-1918.313
 20
54.152
  0
VERTEX
  8
LIVELLO_1
 62
     5
 10
-1917.9935
 20
54.1763
  0
VERTEX
  8
LIVELLO_1
 62
     5
 10
-1811.2565
 20
54.1763
  0
VERTEX
  8
LIVELLO_1
 62
     5
 10
-1810.937
 20
54.152
  0
VERTEX
  8
LIVELLO_1
 62
     5
 10
-1810.6335
 20
54.0808
  0
VERTEX
  8
LIVELLO_1
 62
     5
 10
-1810.3499
 20
53.9656
  0
VERTEX
  8
LIVELLO_1
 62
     5
 10
-1810.09
 20
53.8091
  0
VERTEX
  8
LIVELLO_1
 62
     5
 10
-1809.8577
 20
53.6139
  0
VERTEX
  8
LIVELLO_1
 62
     5
 10
-1809.6568
 20
53.383
  0
VERTEX
  8
LIVELLO_1
 62
     5
 10
-1809.4912
 20
53.1189
  0
VERTEX
  8
LIVELLO_1
 62
     5
 10
-1809.3646
 20
52.8245
  0
VERTEX
  8
LIVELLO_1
 62
     5
 10
-1809.1264
 20
52.2636
  0
VERTEX
  8
LIVELLO_1
 62
     5
 10
-1808.8179
 20
51.7637
  0
VERTEX
  8
LIVELLO_1
 62
     5
 10
-1808.4416
 20
51.3271
  0
VERTEX
  8
LIVELLO_1
 62
     5
 10
-1807.9999
 20
50.9562
  0
VERTEX
  8
LIVELLO_1
 62
     5
 10
-1807.4949
 20
50.6533
  0
VERTEX
  8
LIVELLO_1
 62
     5
 10
-1806.9293
 20
50.4208
  0
VERTEX
  8
LIVELLO_1
 62
     5
 10
-1806.3052
 20
50.261
  0
VERTEX
  8
LIVELLO_1
 62
     5
 10
-1805.625
 20
50.1763
  0
VERTEX
  8
LIVELLO_1
 62
     5
 10
-1753.625
 20
50.1763
  0
VERTEX
  8
LIVELLO_1
 62
     5
 10
-1752.7929
 20
50.2507
  0
VERTEX
  8
LIVELLO_1
 62
     5
 10
-1752.0299
 20
50.467
  0
VERTEX
  8
LIVELLO_1
 62
     5
 10
-1751.3489
 20
50.8152
  0
VERTEX
  8
LIVELLO_1
 62
     5
 10
-1750.7627
 20
51.285
  0
VERTEX
  8
LIVELLO_1
 62
     5
 10
-1750.2843
 20
51.8661
  0
VERTEX
  8
LIVELLO_1
 62
     5
 10
-1749.9266
 20
52.5485
  0
VERTEX
  8
LIVELLO_1
 62
     5
 10
-1749.7026
 20
53.322
  0
VERTEX
  8
LIVELLO_1
 62
     5
 10
-1749.625
 20
54.1763
  0
SEQEND
  8
LIVELLO_1
 62
     5
  0
POLYLINE
  8
LIVELLO_1
 62
     3
 66
     1
 70
     1
  0
VERTEX
  8
LIVELLO_1
 62
     3
 10
-1971.625
 20
-58.6832
  0
VERTEX
  8
LIVELLO_1
 62
     3
 10
-1971.625
 20
-70.6832
  0
VERTEX
  8
LIVELLO_1
 62
     3
 10
-1975.625
 20
-70.6832
  0
VERTEX
  8
LIVELLO_1
 62
     3
 10
-1975.625
 20
-58.6832
  0
VERTEX
  8
LIVELLO_1
 62
     3
 10
-1971.625
 20
-58.6832
  0
SEQEND
  8
LIVELLO_1
 62
     3
  0
POLYLINE
  8
LIVELLO_1
 62
     3
 66
     1
 70
     1
  0
VERTEX
  8
LIVELLO_1
 62
     3
 10
-1972.2429
 20
-50.0993
  0
VERTEX
  8
LIVELLO_1
 62
     3
 10
-1972.1555
 20
-50.3809
  0
VERTEX
  8
LIVELLO_1
 62
     3
 10
-1972.125
 20
-50.6832
  0
VERTEX
  8
LIVELLO_1
 62
     3
 10
-1972.1555
 20
-50.9855
  0
VERTEX
  8
LIVELLO_1
 62
     3
 10
-1972.2429
 20
-51.2671
  0
VERTEX
  8
LIVELLO_1
 62
     3
 10
-1972.3812
 20
-51.5219
  0
VERTEX
  8
LIVELLO_1
 62
     3
 10
-1972.5643
 20
-51.7438
  0
VERTEX
  8
LIVELLO_1
 62
     3
 10
-1972.7863
 20
-51.927
  0
VERTEX
  8
LIVELLO_1
 62
     3
 10
-1973.0411
 20
-52.0653
  0
VERTEX
  8
LIVELLO_1
 62
     3
 10
-1973.3227
 20
-52.1527
  0
VERTEX
  8
LIVELLO_1
 62
     3
 10
-1973.625
 20
-52.1832
  0
VERTEX
  8
LIVELLO_1
 62
     3
 10
-1973.9273
 20
-52.1527
  0
VERTEX
  8
LIVELLO_1
 62
     3
 10
-1974.2089
 20
-52.0653
  0
VERTEX
  8
LIVELLO_1
 62
     3
 10
-1974.4637
 20
-51.927
  0
VERTEX
  8
LIVELLO_1
 62
     3
 10
-1974.6857
 20
-51.7438
  0
VERTEX
  8
LIVELLO_1
 62
     3
 10
-1974.8688
 20
-51.5219
  0
VERTEX
  8
LIVELLO_1
 62
     3
 10
-1975.0071
 20
-51.2671
  0
VERTEX
  8
LIVELLO_1
 62
     3
 10
-1975.0945
 20
-50.9855
  0
VERTEX
  8
LIVELLO_1
 62
     3
 10
-1975.125
 20
-50.6832
  0
VERTEX
  8
LIVELLO_1
 62
     3
 10
-1975.0945
 20
-50.3809
  0
VERTEX
  8
LIVELLO_1
 62
     3
 10
-1975.0071
 20
-50.0993
  0
VERTEX
  8
LIVELLO_1
 62
     3
 10
-1974.8688
 20
-49.8445
  0
VERTEX
  8
LIVELLO_1
 62
     3
 10
-1974.6857
 20
-49.6225
  0
VERTEX
  8
LIVELLO_1
 62
     3
 10
-1974.4637
 20
-49.4394
  0
VERTEX
  8
LIVELLO_1
 62
     3
 10
-1974.2089
 20
-49.3011
  0
VERTEX
  8
LIVELLO_1
 62
     3
 10
-1973.9273
 20
-49.2137
  0
VERTEX
  8
LIVELLO_1
 62
     3
 10
-1973.625
 20
-49.1832
  0
VERTEX
  8
LIVELLO_1
 62
     3
 10
-1973.3227
 20
-49.2137
  0
VERTEX
  8
LIVELLO_1
 62
     3
 10
-1973.0411
 20
-49.3011
  0
VERTEX
  8
LIVELLO_1
 62
     3
 10
-1972.7863
 20
-49.4394
  0
VERTEX
  8
LIVELLO_1
 62
     3
 10
-1972.5643
 20
-49.6225
  0
VERTEX
  8
LIVELLO_1
 62
     3
 10
-1972.3812
 20
-49.8445
  0
VERTEX
  8
LIVELLO_1
 62
     3
 10
-1972.2429
 20
-50.0993
  0
SEQEND
  8
LIVELLO_1
 62
     3
  0
POLYLINE
  8
LIVELLO_1
 62
     3
 66
     1
 70
     1
  0
VERTEX
  8
LIVELLO_1
 62
     3
 10
-1753.625
 20
-8.6832
  0
VERTEX
  8
LIVELLO_1
 62
     3
 10
-1757.625
 20
-8.6832
  0
VERTEX
  8
LIVELLO_1
 62
     3
 10
-1757.625
 20
3.3168
  0
VERTEX
  8
LIVELLO_1
 62
     3
 10
-1753.625
 20
3.3168
  0
VERTEX
  8
LIVELLO_1
 62
     3
 10
-1753.625
 20
-8.6832
  0
SEQEND
  8
LIVELLO_1
 62
     3
  0
POLYLINE
  8
LIVELLO_1
 62
     3
 66
     1
 70
     1
  0
VERTEX
  8
LIVELLO_1
 62
     3
 10
-1755.9273
 20
9.8473
  0
VERTEX
  8
LIVELLO_1
 62
     3
 10
-1756.2089
 20
9.9347
  0
VERTEX
  8
LIVELLO_1
 62
     3
 10
-1756.4637
 20
10.073
  0
VERTEX
  8
LIVELLO_1
 62
     3
 10
-1756.6857
 20
10.2562
  0
VERTEX
  8
LIVELLO_1
 62
     3
 10
-1756.8688
 20
10.4781
  0
VERTEX
  8
LIVELLO_1
 62
     3
 10
-1757.0071
 20
10.7329
  0
VERTEX
  8
LIVELLO_1
 62
     3
 10
-1757.0945
 20
11.0145
  0
VERTEX
  8
LIVELLO_1
 62
     3
 10
-1757.125
 20
11.3168
  0
VERTEX
  8
LIVELLO_1
 62
     3
 10
-1757.0945
 20
11.6191
  0
VERTEX
  8
LIVELLO_1
 62
     3
 10
-1757.0071
 20
11.9007
  0
VERTEX
  8
LIVELLO_1
 62
     3
 10
-1756.8688
 20
12.1555
  0
VERTEX
  8
LIVELLO_1
 62
     3
 10
-1756.6857
 20
12.3775
  0
VERTEX
  8
LIVELLO_1
 62
     3
 10
-1756.4637
 20
12.5606
  0
VERTEX
  8
LIVELLO_1
 62
     3
 10
-1756.2089
 20
12.6989
  0
VERTEX
  8
LIVELLO_1
 62
     3
 10
-1755.9273
 20
12.7863
  0
VERTEX
  8
LIVELLO_1
 62
     3
 10
-1755.625
 20
12.8168
  0
VERTEX
  8
LIVELLO_1
 62
     3
 10
-1755.3227
 20
12.7863
  0
VERTEX
  8
LIVELLO_1
 62
     3
 10
-1755.0411
 20
12.6989
  0
VERTEX
  8
LIVELLO_1
 62
     3
 10
-1754.7863
 20
12.5606
  0
VERTEX
  8
LIVELLO_1
 62
     3
 10
-1754.5643
 20
12.3775
  0
VERTEX
  8
LIVELLO_1
 62
     3
 10
-1754.3812
 20
12.1555
  0
VERTEX
  8
LIVELLO_1
 62
     3
 10
-1754.2429
 20
11.9007
  0
VERTEX
  8
LIVELLO_1
 62
     3
 10
-1754.1555
 20
11.6191
  0
VERTEX
  8
LIVELLO_1
 62
     3
 10
-1754.125
 20
11.3168
  0
VERTEX
  8
LIVELLO_1
 62
     3
 10
-1754.1555
 20
11.0145
  0
VERTEX
  8
LIVELLO_1
 62
     3
 10
-1754.2429
 20
10.7329
  0
VERTEX
  8
LIVELLO_1
 62
     3
 10
-1754.3812
 20
10.4781
  0
VERTEX
  8
LIVELLO_1
 62
     3
 10
-1754.5643
 20
10.2562
  0
VERTEX
  8
LIVELLO_1
 62
     3
 10
-1754.7863
 20
10.073
  0
VERTEX
  8
LIVELLO_1
 62
     3
 10
-1755.0411
 20
9.9347
  0
VERTEX
  8
LIVELLO_1
 62
     3
 10
-1755.3227
 20
9.8473
  0
VERTEX
  8
LIVELLO_1
 62
     3
 10
-1755.625
 20
9.8168
  0
VERTEX
  8
LIVELLO_1
 62
     3
 10
-1755.9273
 20
9.8473
  0
SEQEND
  8
LIVELLO_1
 62
     3
  0
POLYLINE
  8
LIVELLO_1
 62
     3
 66
     1
 70
     1
  0
VERTEX
  8
LIVELLO_1
 62
     3
 10
-1753.625
 20
19.3168
  0
VERTEX
  8
LIVELLO_1
 62
     3
 10
-1757.625
 20
19.3168
  0
VERTEX
  8
LIVELLO_1
 62
     3
 10
-1757.625
 20
31.3168
  0
VERTEX
  8
LIVELLO_1
 62
     3
 10
-1753.625
 20
31.3168
  0
VERTEX
  8
LIVELLO_1
 62
     3
 10
-1753.625
 20
19.3168
  0
SEQEND
  8
LIVELLO_1
 62
     3
  0
POLYLINE
  8
LIVELLO_1
 62
     3
 66
     1
 70
     1
  0
VERTEX
  8
LIVELLO_1
 62
     3
 10
-1973.625
 20
9.8168
  0
VERTEX
  8
LIVELLO_1
 62
     3
 10
-1973.9273
 20
9.8473
  0
VERTEX
  8
LIVELLO_1
 62
     3
 10
-1974.2089
 20
9.9347
  0
VERTEX
  8
LIVELLO_1
 62
     3
 10
-1974.4637
 20
10.073
  0
VERTEX
  8
LIVELLO_1
 62
     3
 10
-1974.6857
 20
10.2562
  0
VERTEX
  8
LIVELLO_1
 62
     3
 10
-1974.8688
 20
10.4781
  0
VERTEX
  8
LIVELLO_1
 62
     3
 10
-1975.0071
 20
10.7329
  0
VERTEX
  8
LIVELLO_1
 62
     3
 10
-1975.0945
 20
11.0145
  0
VERTEX
  8
LIVELLO_1
 62
     3
 10
-1975.125
 20
11.3168
  0
VERTEX
  8
LIVELLO_1
 62
     3
 10
-1975.0945
 20
11.6191
  0
VERTEX
  8
LIVELLO_1
 62
     3
 10
-1975.0071
 20
11.9007
  0
VERTEX
  8
LIVELLO_1
 62
     3
 10
-1974.8688
 20
12.1555
  0
VERTEX
  8
LIVELLO_1
 62
     3
 10
-1974.6857
 20
12.3775
  0
VERTEX
  8
LIVELLO_1
 62
     3
 10
-1974.4637
 20
12.5606
  0
VERTEX
  8
LIVELLO_1
 62
     3
 10
-1974.2089
 20
12.6989
  0
VERTEX
  8
LIVELLO_1
 62
     3
 10
-1973.9273
 20
12.7863
  0
VERTEX
  8
LIVELLO_1
 62
     3
 10
-1973.625
 20
12.8168
  0
VERTEX
  8
LIVELLO_1
 62
     3
 10
-1973.3227
 20
12.7863
  0
VERTEX
  8
LIVELLO_1
 62
     3
 10
-1973.0411
 20
12.6989
  0
VERTEX
  8
LIVELLO_1
 62
     3
 10
-1972.7863
 20
12.5606
  0
VERTEX
  8
LIVELLO_1
 62
     3
 10
-1972.5643
 20
12.3775
  0
VERTEX
  8
LIVELLO_1
 62
     3
 10
-1972.3812
 20
12.1555
  0
VERTEX
  8
LIVELLO_1
 62
     3
 10
-1972.2429
 20
11.9007
  0
VERTEX
  8
LIVELLO_1
 62
     3
 10
-1972.1555
 20
11.6191
  0
VERTEX
  8
LIVELLO_1
 62
     3
 10
-1972.125
 20
11.3168
  0
VERTEX
  8
LIVELLO_1
 62
     3
 10
-1972.1555
 20
11.0145
  0
VERTEX
  8
LIVELLO_1
 62
     3
 10
-1972.2429
 20
10.7329
  0
VERTEX
  8
LIVELLO_1
 62
     3
 10
-1972.3812
 20
10.4781
  0
VERTEX
  8
LIVELLO_1
 62
     3
 10
-1972.5643
 20
10.2562
  0
VERTEX
  8
LIVELLO_1
 62
     3
 10
-1972.7863
 20
10.073
  0
VERTEX
  8
LIVELLO_1
 62
     3
 10
-1973.0411
 20
9.9347
  0
VERTEX
  8
LIVELLO_1
 62
     3
 10
-1973.3227
 20
9.8473
  0
VERTEX
  8
LIVELLO_1
 62
     3
 10
-1973.625
 20
9.8168
  0
SEQEND
  8
LIVELLO_1
 62
     3
  0
POLYLINE
  8
LIVELLO_1
 62
     3
 66
     1
 70
     1
  0
VERTEX
  8
LIVELLO_1
 62
     3
 10
-1971.625
 20
-30.6832
  0
VERTEX
  8
LIVELLO_1
 62
     3
 10
-1971.625
 20
-42.6832
  0
VERTEX
  8
LIVELLO_1
 62
     3
 10
-1975.625
 20
-42.6832
  0
VERTEX
  8
LIVELLO_1
 62
     3
 10
-1975.625
 20
-30.6832
  0
VERTEX
  8
LIVELLO_1
 62
     3
 10
-1971.625
 20
-30.6832
  0
SEQEND
  8
LIVELLO_1
 62
     3
  0
POLYLINE
  8
LIVELLO_1
 62
     3
 66
     1
 70
     1
  0
VERTEX
  8
LIVELLO_1
 62
     3
 10
-1971.625
 20
3.3168
  0
VERTEX
  8
LIVELLO_1
 62
     3
 10
-1971.625
 20
-8.6832
  0
VERTEX
  8
LIVELLO_1
 62
     3
 10
-1975.625
 20
-8.6832
  0
VERTEX
  8
LIVELLO_1
 62
     3
 10
-1975.625
 20
3.3168
  0
VERTEX
  8
LIVELLO_1
 62
     3
 10
-1971.625
 20
3.3168
  0
SEQEND
  8
LIVELLO_1
 62
     3
  0
POLYLINE
  8
LIVELLO_1
 62
     3
 66
     1
 70
     1
  0
VERTEX
  8
LIVELLO_1
 62
     3
 10
-1971.625
 20
31.3168
  0
VERTEX
  8
LIVELLO_1
 62
     3
 10
-1971.625
 20
19.3168
  0
VERTEX
  8
LIVELLO_1
 62
     3
 10
-1975.625
 20
19.3168
  0
VERTEX
  8
LIVELLO_1
 62
     3
 10
-1975.625
 20
31.3168
  0
VERTEX
  8
LIVELLO_1
 62
     3
 10
-1971.625
 20
31.3168
  0
SEQEND
  8
LIVELLO_1
 62
     3
  0
POLYLINE
  8
LIVELLO_1
 62
     3
 66
     1
 70
     1
  0
VERTEX
  8
LIVELLO_1
 62
     3
 10
-1971.625
 20
-82.6832
  0
VERTEX
  8
LIVELLO_1
 62
     3
 10
-1933.625
 20
-82.6832
  0
VERTEX
  8
LIVELLO_1
 62
     3
 10
-1933.625
 20
-86.6832
  0
VERTEX
  8
LIVELLO_1
 62
     3
 10
-1971.625
 20
-86.6832
  0
VERTEX
  8
LIVELLO_1
 62
     3
 10
-1971.625
 20
-82.6832
  0
SEQEND
  8
LIVELLO_1
 62
     3
  0
POLYLINE
  8
LIVELLO_1
 62
     3
 66
     1
 70
     1
  0
VERTEX
  8
LIVELLO_1
 62
     3
 10
-1883.875
 20
-82.6832
  0
VERTEX
  8
LIVELLO_1
 62
     3
 10
-1845.875
 20
-82.6832
  0
VERTEX
  8
LIVELLO_1
 62
     3
 10
-1845.875
 20
-86.6832
  0
VERTEX
  8
LIVELLO_1
 62
     3
 10
-1883.875
 20
-86.6832
  0
VERTEX
  8
LIVELLO_1
 62
     3
 10
-1883.875
 20
-82.6832
  0
SEQEND
  8
LIVELLO_1
 62
     3
  0
POLYLINE
  8
LIVELLO_1
 62
     3
 66
     1
 70
     1
  0
VERTEX
  8
LIVELLO_1
 62
     3
 10
-1780.6368
 20
36.8679
  0
VERTEX
  8
LIVELLO_1
 62
     3
 10
-1781.025
 20
36.8168
  0
VERTEX
  8
LIVELLO_1
 62
     3
 10
-1781.4132
 20
36.8679
  0
VERTEX
  8
LIVELLO_1
 62
     3
 10
-1781.775
 20
37.0177
  0
VERTEX
  8
LIVELLO_1
 62
     3
 10
-1782.0857
 20
37.2561
  0
VERTEX
  8
LIVELLO_1
 62
     3
 10
-1782.324
 20
37.5668
  0
VERTEX
  8
LIVELLO_1
 62
     3
 10
-1782.4739
 20
37.9285
  0
VERTEX
  8
LIVELLO_1
 62
     3
 10
-1782.525
 20
38.3168
  0
VERTEX
  8
LIVELLO_1
 62
     3
 10
-1782.4739
 20
38.705
  0
VERTEX
  8
LIVELLO_1
 62
     3
 10
-1782.324
 20
39.0668
  0
VERTEX
  8
LIVELLO_1
 62
     3
 10
-1782.0857
 20
39.3774
  0
VERTEX
  8
LIVELLO_1
 62
     3
 10
-1781.775
 20
39.6158
  0
VERTEX
  8
LIVELLO_1
 62
     3
 10
-1781.4132
 20
39.7656
  0
VERTEX
  8
LIVELLO_1
 62
     3
 10
-1781.025
 20
39.8168
  0
VERTEX
  8
LIVELLO_1
 62
     3
 10
-1780.6368
 20
39.7656
  0
VERTEX
  8
LIVELLO_1
 62
     3
 10
-1780.275
 20
39.6158
  0
VERTEX
  8
LIVELLO_1
 62
     3
 10
-1779.9643
 20
39.3774
  0
VERTEX
  8
LIVELLO_1
 62
     3
 10
-1779.726
 20
39.0668
  0
VERTEX
  8
LIVELLO_1
 62
     3
 10
-1779.5761
 20
38.705
  0
VERTEX
  8
LIVELLO_1
 62
     3
 10
-1779.525
 20
38.3168
  0
VERTEX
  8
LIVELLO_1
 62
     3
 10
-1779.5761
 20
37.9285
  0
VERTEX
  8
LIVELLO_1
 62
     3
 10
-1779.726
 20
37.5668
  0
VERTEX
  8
LIVELLO_1
 62
     3
 10
-1779.9643
 20
37.2561
  0
VERTEX
  8
LIVELLO_1
 62
     3
 10
-1780.275
 20
37.0177
  0
VERTEX
  8
LIVELLO_1
 62
     3
 10
-1780.6368
 20
36.8679
  0
SEQEND
  8
LIVELLO_1
 62
     3
  0
POLYLINE
  8
LIVELLO_1
 62
     3
 66
     1
 70
     1
  0
VERTEX
  8
LIVELLO_1
 62
     3
 10
-1839.225
 20
36.8168
  0
VERTEX
  8
LIVELLO_1
 62
     3
 10
-1839.6132
 20
36.8679
  0
VERTEX
  8
LIVELLO_1
 62
     3
 10
-1839.975
 20
37.0177
  0
VERTEX
  8
LIVELLO_1
 62
     3
 10
-1840.2857
 20
37.2561
  0
VERTEX
  8
LIVELLO_1
 62
     3
 10
-1840.524
 20
37.5668
  0
VERTEX
  8
LIVELLO_1
 62
     3
 10
-1840.6739
 20
37.9285
  0
VERTEX
  8
LIVELLO_1
 62
     3
 10
-1840.725
 20
38.3168
  0
VERTEX
  8
LIVELLO_1
 62
     3
 10
-1840.6739
 20
38.705
  0
VERTEX
  8
LIVELLO_1
 62
     3
 10
-1840.524
 20
39.0668
  0
VERTEX
  8
LIVELLO_1
 62
     3
 10
-1840.2857
 20
39.3774
  0
VERTEX
  8
LIVELLO_1
 62
     3
 10
-1839.975
 20
39.6158
  0
VERTEX
  8
LIVELLO_1
 62
     3
 10
-1839.6132
 20
39.7656
  0
VERTEX
  8
LIVELLO_1
 62
     3
 10
-1839.225
 20
39.8168
  0
VERTEX
  8
LIVELLO_1
 62
     3
 10
-1838.8368
 20
39.7656
  0
VERTEX
  8
LIVELLO_1
 62
     3
 10
-1838.475
 20
39.6158
  0
VERTEX
  8
LIVELLO_1
 62
     3
 10
-1838.1643
 20
39.3774
  0
VERTEX
  8
LIVELLO_1
 62
     3
 10
-1837.926
 20
39.0668
  0
VERTEX
  8
LIVELLO_1
 62
     3
 10
-1837.7761
 20
38.705
  0
VERTEX
  8
LIVELLO_1
 62
     3
 10
-1837.725
 20
38.3168
  0
VERTEX
  8
LIVELLO_1
 62
     3
 10
-1837.7761
 20
37.9285
  0
VERTEX
  8
LIVELLO_1
 62
     3
 10
-1837.926
 20
37.5668
  0
VERTEX
  8
LIVELLO_1
 62
     3
 10
-1838.1643
 20
37.2561
  0
VERTEX
  8
LIVELLO_1
 62
     3
 10
-1838.475
 20
37.0177
  0
VERTEX
  8
LIVELLO_1
 62
     3
 10
-1838.8368
 20
36.8679
  0
VERTEX
  8
LIVELLO_1
 62
     3
 10
-1839.225
 20
36.8168
  0
SEQEND
  8
LIVELLO_1
 62
     3
  0
POLYLINE
  8
LIVELLO_1
 62
     3
 66
     1
 70
     1
  0
VERTEX
  8
LIVELLO_1
 62
     3
 10
-1890.025
 20
36.8168
  0
VERTEX
  8
LIVELLO_1
 62
     3
 10
-1890.4132
 20
36.8679
  0
VERTEX
  8
LIVELLO_1
 62
     3
 10
-1890.775
 20
37.0177
  0
VERTEX
  8
LIVELLO_1
 62
     3
 10
-1891.0857
 20
37.2561
  0
VERTEX
  8
LIVELLO_1
 62
     3
 10
-1891.324
 20
37.5668
  0
VERTEX
  8
LIVELLO_1
 62
     3
 10
-1891.4739
 20
37.9285
  0
VERTEX
  8
LIVELLO_1
 62
     3
 10
-1891.525
 20
38.3168
  0
VERTEX
  8
LIVELLO_1
 62
     3
 10
-1891.4739
 20
38.705
  0
VERTEX
  8
LIVELLO_1
 62
     3
 10
-1891.324
 20
39.0668
  0
VERTEX
  8
LIVELLO_1
 62
     3
 10
-1891.0857
 20
39.3774
  0
VERTEX
  8
LIVELLO_1
 62
     3
 10
-1890.775
 20
39.6158
  0
VERTEX
  8
LIVELLO_1
 62
     3
 10
-1890.4132
 20
39.7656
  0
VERTEX
  8
LIVELLO_1
 62
     3
 10
-1890.025
 20
39.8168
  0
VERTEX
  8
LIVELLO_1
 62
     3
 10
-1889.6368
 20
39.7656
  0
VERTEX
  8
LIVELLO_1
 62
     3
 10
-1889.275
 20
39.6158
  0
VERTEX
  8
LIVELLO_1
 62
     3
 10
-1888.9643
 20
39.3774
  0
VERTEX
  8
LIVELLO_1
 62
     3
 10
-1888.726
 20
39.0668
  0
VERTEX
  8
LIVELLO_1
 62
     3
 10
-1888.5761
 20
38.705
  0
VERTEX
  8
LIVELLO_1
 62
     3
 10
-1888.525
 20
38.3168
  0
VERTEX
  8
LIVELLO_1
 62
     3
 10
-1888.5761
 20
37.9285
  0
VERTEX
  8
LIVELLO_1
 62
     3
 10
-1888.726
 20
37.5668
  0
VERTEX
  8
LIVELLO_1
 62
     3
 10
-1888.9643
 20
37.2561
  0
VERTEX
  8
LIVELLO_1
 62
     3
 10
-1889.275
 20
37.0177
  0
VERTEX
  8
LIVELLO_1
 62
     3
 10
-1889.6368
 20
36.8679
  0
VERTEX
  8
LIVELLO_1
 62
     3
 10
-1890.025
 20
36.8168
  0
SEQEND
  8
LIVELLO_1
 62
     3
  0
POLYLINE
  8
LIVELLO_1
 62
     3
 66
     1
 70
     1
  0
VERTEX
  8
LIVELLO_1
 62
     3
 10
-1948.225
 20
36.8168
  0
VERTEX
  8
LIVELLO_1
 62
     3
 10
-1948.6132
 20
36.8679
  0
VERTEX
  8
LIVELLO_1
 62
     3
 10
-1948.975
 20
37.0177
  0
VERTEX
  8
LIVELLO_1
 62
     3
 10
-1949.2857
 20
37.2561
  0
VERTEX
  8
LIVELLO_1
 62
     3
 10
-1949.524
 20
37.5668
  0
VERTEX
  8
LIVELLO_1
 62
     3
 10
-1949.6739
 20
37.9285
  0
VERTEX
  8
LIVELLO_1
 62
     3
 10
-1949.725
 20
38.3168
  0
VERTEX
  8
LIVELLO_1
 62
     3
 10
-1949.6739
 20
38.705
  0
VERTEX
  8
LIVELLO_1
 62
     3
 10
-1949.524
 20
39.0668
  0
VERTEX
  8
LIVELLO_1
 62
     3
 10
-1949.2857
 20
39.3774
  0
VERTEX
  8
LIVELLO_1
 62
     3
 10
-1948.975
 20
39.6158
  0
VERTEX
  8
LIVELLO_1
 62
     3
 10
-1948.6132
 20
39.7656
  0
VERTEX
  8
LIVELLO_1
 62
     3
 10
-1948.225
 20
39.8168
  0
VERTEX
  8
LIVELLO_1
 62
     3
 10
-1947.8368
 20
39.7656
  0
VERTEX
  8
LIVELLO_1
 62
     3
 10
-1947.475
 20
39.6158
  0
VERTEX
  8
LIVELLO_1
 62
     3
 10
-1947.1643
 20
39.3774
  0
VERTEX
  8
LIVELLO_1
 62
     3
 10
-1946.926
 20
39.0668
  0
VERTEX
  8
LIVELLO_1
 62
     3
 10
-1946.7761
 20
38.705
  0
VERTEX
  8
LIVELLO_1
 62
     3
 10
-1946.725
 20
38.3168
  0
VERTEX
  8
LIVELLO_1
 62
     3
 10
-1946.7761
 20
37.9285
  0
VERTEX
  8
LIVELLO_1
 62
     3
 10
-1946.926
 20
37.5668
  0
VERTEX
  8
LIVELLO_1
 62
     3
 10
-1947.1643
 20
37.2561
  0
VERTEX
  8
LIVELLO_1
 62
     3
 10
-1947.475
 20
37.0177
  0
VERTEX
  8
LIVELLO_1
 62
     3
 10
-1947.8368
 20
36.8679
  0
VERTEX
  8
LIVELLO_1
 62
     3
 10
-1948.225
 20
36.8168
  0
SEQEND
  8
LIVELLO_1
 62
     3
  0
POLYLINE
  8
LIVELLO_1
 62
     3
 66
     1
 70
     1
  0
VERTEX
  8
LIVELLO_1
 62
     3
 10
-1757.625
 20
-70.6832
  0
VERTEX
  8
LIVELLO_1
 62
     3
 10
-1757.625
 20
-58.6832
  0
VERTEX
  8
LIVELLO_1
 62
     3
 10
-1753.625
 20
-58.6832
  0
VERTEX
  8
LIVELLO_1
 62
     3
 10
-1753.625
 20
-70.6832
  0
VERTEX
  8
LIVELLO_1
 62
     3
 10
-1757.625
 20
-70.6832
  0
SEQEND
  8
LIVELLO_1
 62
     3
  0
POLYLINE
  8
LIVELLO_1
 62
     3
 66
     1
 70
     1
  0
VERTEX
  8
LIVELLO_1
 62
     3
 10
-1755.625
 20
-49.1832
  0
VERTEX
  8
LIVELLO_1
 62
     3
 10
-1755.3227
 20
-49.2137
  0
VERTEX
  8
LIVELLO_1
 62
     3
 10
-1755.0411
 20
-49.3011
  0
VERTEX
  8
LIVELLO_1
 62
     3
 10
-1754.7863
 20
-49.4394
  0
VERTEX
  8
LIVELLO_1
 62
     3
 10
-1754.5643
 20
-49.6225
  0
VERTEX
  8
LIVELLO_1
 62
     3
 10
-1754.3812
 20
-49.8445
  0
VERTEX
  8
LIVELLO_1
 62
     3
 10
-1754.2429
 20
-50.0993
  0
VERTEX
  8
LIVELLO_1
 62
     3
 10
-1754.1555
 20
-50.3809
  0
VERTEX
  8
LIVELLO_1
 62
     3
 10
-1754.125
 20
-50.6832
  0
VERTEX
  8
LIVELLO_1
 62
     3
 10
-1754.1555
 20
-50.9855
  0
VERTEX
  8
LIVELLO_1
 62
     3
 10
-1754.2429
 20
-51.2671
  0
VERTEX
  8
LIVELLO_1
 62
     3
 10
-1754.3812
 20
-51.5219
  0
VERTEX
  8
LIVELLO_1
 62
     3
 10
-1754.5643
 20
-51.7438
  0
VERTEX
  8
LIVELLO_1
 62
     3
 10
-1754.7863
 20
-51.927
  0
VERTEX
  8
LIVELLO_1
 62
     3
 10
-1755.0411
 20
-52.0653
  0
VERTEX
  8
LIVELLO_1
 62
     3
 10
-1755.3227
 20
-52.1527
  0
VERTEX
  8
LIVELLO_1
 62
     3
 10
-1755.625
 20
-52.1832
  0
VERTEX
  8
LIVELLO_1
 62
     3
 10
-1755.9273
 20
-52.1527
  0
VERTEX
  8
LIVELLO_1
 62
     3
 10
-1756.2089
 20
-52.0653
  0
VERTEX
  8
LIVELLO_1
 62
     3
 10
-1756.4637
 20
-51.927
  0
VERTEX
  8
LIVELLO_1
 62
     3
 10
-1756.6857
 20
-51.7438
  0
VERTEX
  8
LIVELLO_1
 62
     3
 10
-1756.8688
 20
-51.5219
  0
VERTEX
  8
LIVELLO_1
 62
     3
 10
-1757.0071
 20
-51.2671
  0
VERTEX
  8
LIVELLO_1
 62
     3
 10
-1757.0945
 20
-50.9855
  0
VERTEX
  8
LIVELLO_1
 62
     3
 10
-1757.125
 20
-50.6832
  0
VERTEX
  8
LIVELLO_1
 62
     3
 10
-1757.0945
 20
-50.3809
  0
VERTEX
  8
LIVELLO_1
 62
     3
 10
-1757.0071
 20
-50.0993
  0
VERTEX
  8
LIVELLO_1
 62
     3
 10
-1756.8688
 20
-49.8445
  0
VERTEX
  8
LIVELLO_1
 62
     3
 10
-1756.6857
 20
-49.6225
  0
VERTEX
  8
LIVELLO_1
 62
     3
 10
-1756.4637
 20
-49.4394
  0
VERTEX
  8
LIVELLO_1
 62
     3
 10
-1756.2089
 20
-49.3011
  0
VERTEX
  8
LIVELLO_1
 62
     3
 10
-1755.9273
 20
-49.2137
  0
VERTEX
  8
LIVELLO_1
 62
     3
 10
-1755.625
 20
-49.1832
  0
SEQEND
  8
LIVELLO_1
 62
     3
  0
POLYLINE
  8
LIVELLO_1
 62
     3
 66
     1
 70
     1
  0
VERTEX
  8
LIVELLO_1
 62
     3
 10
-1757.625
 20
-42.6832
  0
VERTEX
  8
LIVELLO_1
 62
     3
 10
-1757.625
 20
-30.6832
  0
VERTEX
  8
LIVELLO_1
 62
     3
 10
-1753.625
 20
-30.6832
  0
VERTEX
  8
LIVELLO_1
 62
     3
 10
-1753.625
 20
-42.6832
  0
VERTEX
  8
LIVELLO_1
 62
     3
 10
-1757.625
 20
-42.6832
  0
SEQEND
  8
LIVELLO_1
 62
     3
  0
POLYLINE
  8
LIVELLO_1
 62
     3
 66
     1
 70
     1
  0
VERTEX
  8
LIVELLO_1
 62
     3
 10
-1795.625
 20
-82.6832
  0
VERTEX
  8
LIVELLO_1
 62
     3
 10
-1757.625
 20
-82.6832
  0
VERTEX
  8
LIVELLO_1
 62
     3
 10
-1757.625
 20
-86.6832
  0
VERTEX
  8
LIVELLO_1
 62
     3
 10
-1795.625
 20
-86.6832
  0
VERTEX
  8
LIVELLO_1
 62
     3
 10
-1795.625
 20
-82.6832
  0
SEQEND
  8
LIVELLO_1
 62
     3
  0
POLYLINE
  8
LIVELLO_1
 62
     5
 66
     1
 70
     1
  0
VERTEX
  8
LIVELLO_1
 62
     5
 10
-1749.625
 20
-92.6832
  0
VERTEX
  8
LIVELLO_1
 62
     5
 10
-1749.625
 20
39.3168
  0
VERTEX
  8
LIVELLO_1
 62
     5
 10
-1749.6986
 20
40.1907
  0
VERTEX
  8
LIVELLO_1
 62
     5
 10
-1749.913
 20
40.9733
  0
VERTEX
  8
LIVELLO_1
 62
     5
 10
-1750.2588
 20
41.6569
  0
VERTEX
  8
LIVELLO_1
 62
     5
 10
-1750.7264
 20
42.2337
  0
VERTEX
  8
LIVELLO_1
 62
     5
 10
-1751.3063
 20
42.6959
  0
VERTEX
  8
LIVELLO_1
 62
     5
 10
-1751.9891
 20
43.0356
  0
VERTEX
  8
LIVELLO_1
 62
     5
 10
-1752.7651
 20
43.2452
  0
VERTEX
  8
LIVELLO_1
 62
     5
 10
-1753.625
 20
43.3168
  0
VERTEX
  8
LIVELLO_1
 62
     5
 10
-1805.625
 20
43.3168
  0
VERTEX
  8
LIVELLO_1
 62
     5
 10
-1806.3052
 20
43.4015
  0
VERTEX
  8
LIVELLO_1
 62
     5
 10
-1806.9293
 20
43.5613
  0
VERTEX
  8
LIVELLO_1
 62
     5
 10
-1807.4949
 20
43.7938
  0
VERTEX
  8
LIVELLO_1
 62
     5
 10
-1807.9999
 20
44.0967
  0
VERTEX
  8
LIVELLO_1
 62
     5
 10
-1808.4416
 20
44.4676
  0
VERTEX
  8
LIVELLO_1
 62
     5
 10
-1808.8179
 20
44.9042
  0
VERTEX
  8
LIVELLO_1
 62
     5
 10
-1809.1264
 20
45.4041
  0
VERTEX
  8
LIVELLO_1
 62
     5
 10
-1809.3646
 20
45.965
  0
VERTEX
  8
LIVELLO_1
 62
     5
 10
-1809.4912
 20
46.2594
  0
VERTEX
  8
LIVELLO_1
 62
     5
 10
-1809.6568
 20
46.5235
  0
VERTEX
  8
LIVELLO_1
 62
     5
 10
-1809.8577
 20
46.7544
  0
VERTEX
  8
LIVELLO_1
 62
     5
 10
-1810.0901
 20
46.9496
  0
VERTEX
  8
LIVELLO_1
 62
     5
 10
-1810.3499
 20
47.1061
  0
VERTEX
  8
LIVELLO_1
 62
     5
 10
-1810.6335
 20
47.2213
  0
VERTEX
  8
LIVELLO_1
 62
     5
 10
-1810.937
 20
47.2925
  0
VERTEX
  8
LIVELLO_1
 62
     5
 10
-1811.2565
 20
47.3168
  0
VERTEX
  8
LIVELLO_1
 62
     5
 10
-1860.625
 20
47.3168
  0
VERTEX
  8
LIVELLO_1
 62
     5
 10
-1861.0272
 20
47.276
  0
VERTEX
  8
LIVELLO_1
 62
     5
 10
-1861.4022
 20
47.1592
  0
VERTEX
  8
LIVELLO_1
 62
     5
 10
-1861.7419
 20
46.9744
  0
VERTEX
  8
LIVELLO_1
 62
     5
 10
-1862.0381
 20
46.7299
  0
VERTEX
  8
LIVELLO_1
 62
     5
 10
-1862.2826
 20
46.4337
  0
VERTEX
  8
LIVELLO_1
 62
     5
 10
-1862.4674
 20
46.094
  0
VERTEX
  8
LIVELLO_1
 62
     5
 10
-1862.5842
 20
45.719
  0
VERTEX
  8
LIVELLO_1
 62
     5
 10
-1862.625
 20
45.3168
  0
VERTEX
  8
LIVELLO_1
 62
     5
 10
-1862.625
 20
-19.5832
  0
VERTEX
  8
LIVELLO_1
 62
     5
 10
-1866.625
 20
-19.5832
  0
VERTEX
  8
LIVELLO_1
 62
     5
 10
-1866.625
 20
45.3168
  0
VERTEX
  8
LIVELLO_1
 62
     5
 10
-1866.6658
 20
45.719
  0
VERTEX
  8
LIVELLO_1
 62
     5
 10
-1866.7826
 20
46.094
  0
VERTEX
  8
LIVELLO_1
 62
     5
 10
-1866.9674
 20
46.4337
  0
VERTEX
  8
LIVELLO_1
 62
     5
 10
-1867.2119
 20
46.7299
  0
VERTEX
  8
LIVELLO_1
 62
     5
 10
-1867.5081
 20
46.9744
  0
VERTEX
  8
LIVELLO_1
 62
     5
 10
-1867.8478
 20
47.1592
  0
VERTEX
  8
LIVELLO_1
 62
     5
 10
-1868.2228
 20
47.276
  0
VERTEX
  8
LIVELLO_1
 62
     5
 10
-1868.625
 20
47.3168
  0
VERTEX
  8
LIVELLO_1
 62
     5
 10
-1917.9935
 20
47.3168
  0
VERTEX
  8
LIVELLO_1
 62
     5
 10
-1918.313
 20
47.2925
  0
VERTEX
  8
LIVELLO_1
 62
     5
 10
-1918.6165
 20
47.2213
  0
VERTEX
  8
LIVELLO_1
 62
     5
 10
-1918.9001
 20
47.1061
  0
VERTEX
  8
LIVELLO_1
 62
     5
 10
-1919.16
 20
46.9496
  0
VERTEX
  8
LIVELLO_1
 62
     5
 10
-1919.3923
 20
46.7544
  0
VERTEX
  8
LIVELLO_1
 62
     5
 10
-1919.5932
 20
46.5235
  0
VERTEX
  8
LIVELLO_1
 62
     5
 10
-1919.7588
 20
46.2594
  0
VERTEX
  8
LIVELLO_1
 62
     5
 10
-1919.8854
 20
45.965
  0
VERTEX
  8
LIVELLO_1
 62
     5
 10
-1920.1236
 20
45.4041
  0
VERTEX
  8
LIVELLO_1
 62
     5
 10
-1920.4321
 20
44.9042
  0
VERTEX
  8
LIVELLO_1
 62
     5
 10
-1920.8084
 20
44.4676
  0
VERTEX
  8
LIVELLO_1
 62
     5
 10
-1921.2502
 20
44.0967
  0
VERTEX
  8
LIVELLO_1
 62
     5
 10
-1921.7551
 20
43.7938
  0
VERTEX
  8
LIVELLO_1
 62
     5
 10
-1922.3207
 20
43.5613
  0
VERTEX
  8
LIVELLO_1
 62
     5
 10
-1922.9448
 20
43.4015
  0
VERTEX
  8
LIVELLO_1
 62
     5
 10
-1923.625
 20
43.3168
  0
VERTEX
  8
LIVELLO_1
 62
     5
 10
-1975.625
 20
43.3168
  0
VERTEX
  8
LIVELLO_1
 62
     5
 10
-1976.4793
 20
43.2428
  0
VERTEX
  8
LIVELLO_1
 62
     5
 10
-1977.2528
 20
43.0275
  0
VERTEX
  8
LIVELLO_1
 62
     5
 10
-1977.9352
 20
42.6805
  0
VERTEX
  8
LIVELLO_1
 62
     5
 10
-1978.5163
 20
42.2119
  0
VERTEX
  8
LIVELLO_1
 62
     5
 10
-1978.9861
 20
41.6314
  0
VERTEX
  8
LIVELLO_1
 62
     5
 10
-1979.3343
 20
40.9488
  0
VERTEX
  8
LIVELLO_1
 62
     5
 10
-1979.5506
 20
40.174
  0
VERTEX
  8
LIVELLO_1
 62
     5
 10
-1979.625
 20
39.3168
  0
VERTEX
  8
LIVELLO_1
 62
     5
 10
-1979.625
 20
-92.6832
  0
VERTEX
  8
LIVELLO_1
 62
     5
 10
-1979.5504
 20
-93.5375
  0
VERTEX
  8
LIVELLO_1
 62
     5
 10
-1979.3336
 20
-94.311
  0
VERTEX
  8
LIVELLO_1
 62
     5
 10
-1978.9848
 20
-94.9934
  0
VERTEX
  8
LIVELLO_1
 62
     5
 10
-1978.5145
 20
-95.5745
  0
VERTEX
  8
LIVELLO_1
 62
     5
 10
-1977.9331
 20
-96.0443
  0
VERTEX
  8
LIVELLO_1
 62
     5
 10
-1977.2507
 20
-96.3925
  0
VERTEX
  8
LIVELLO_1
 62
     5
 10
-1976.4779
 20
-96.6088
  0
VERTEX
  8
LIVELLO_1
 62
     5
 10
-1975.625
 20
-96.6832
  0
VERTEX
  8
LIVELLO_1
 62
     5
 10
-1923.625
 20
-96.6832
  0
VERTEX
  8
LIVELLO_1
 62
     5
 10
-1922.9448
 20
-96.5985
  0
VERTEX
  8
LIVELLO_1
 62
     5
 10
-1922.3207
 20
-96.4387
  0
VERTEX
  8
LIVELLO_1
 62
     5
 10
-1921.7551
 20
-96.2062
  0
VERTEX
  8
LIVELLO_1
 62
     5
 10
-1921.2502
 20
-95.9033
  0
VERTEX
  8
LIVELLO_1
 62
     5
 10
-1920.8084
 20
-95.5324
  0
VERTEX
  8
LIVELLO_1
 62
     5
 10
-1920.4321
 20
-95.0958
  0
VERTEX
  8
LIVELLO_1
 62
     5
 10
-1920.1236
 20
-94.5959
  0
VERTEX
  8
LIVELLO_1
 62
     5
 10
-1919.8854
 20
-94.035
  0
VERTEX
  8
LIVELLO_1
 62
     5
 10
-1919.7588
 20
-93.7406
  0
VERTEX
  8
LIVELLO_1
 62
     5
 10
-1919.5932
 20
-93.4765
  0
VERTEX
  8
LIVELLO_1
 62
     5
 10
-1919.3923
 20
-93.2456
  0
VERTEX
  8
LIVELLO_1
 62
     5
 10
-1919.16
 20
-93.0504
  0
VERTEX
  8
LIVELLO_1
 62
     5
 10
-1918.9001
 20
-92.8939
  0
VERTEX
  8
LIVELLO_1
 62
     5
 10
-1918.6165
 20
-92.7787
  0
VERTEX
  8
LIVELLO_1
 62
     5
 10
-1918.313
 20
-92.7075
  0
VERTEX
  8
LIVELLO_1
 62
     5
 10
-1917.9935
 20
-92.6832
  0
VERTEX
  8
LIVELLO_1
 62
     5
 10
-1811.2565
 20
-92.6832
  0
VERTEX
  8
LIVELLO_1
 62
     5
 10
-1810.937
 20
-92.7075
  0
VERTEX
  8
LIVELLO_1
 62
     5
 10
-1810.6335
 20
-92.7787
  0
VERTEX
  8
LIVELLO_1
 62
     5
 10
-1810.3499
 20
-92.8939
  0
VERTEX
  8
LIVELLO_1
 62
     5
 10
-1810.09
 20
-93.0504
  0
VERTEX
  8
LIVELLO_1
 62
     5
 10
-1809.8577
 20
-93.2456
  0
VERTEX
  8
LIVELLO_1
 62
     5
 10
-1809.6568
 20
-93.4765
  0
VERTEX
  8
LIVELLO_1
 62
     5
 10
-1809.4912
 20
-93.7406
  0
VERTEX
  8
LIVELLO_1
 62
     5
 10
-1809.3646
 20
-94.035
  0
VERTEX
  8
LIVELLO_1
 62
     5
 10
-1809.1264
 20
-94.5959
  0
VERTEX
  8
LIVELLO_1
 62
     5
 10
-1808.8179
 20
-95.0958
  0
VERTEX
  8
LIVELLO_1
 62
     5
 10
-1808.4416
 20
-95.5324
  0
VERTEX
  8
LIVELLO_1
 62
     5
 10
-1807.9999
 20
-95.9033
  0
VERTEX
  8
LIVELLO_1
 62
     5
 10
-1807.4949
 20
-96.2062
  0
VERTEX
  8
LIVELLO_1
 62
     5
 10
-1806.9293
 20
-96.4387
  0
VERTEX
  8
LIVELLO_1
 62
     5
 10
-1806.3052
 20
-96.5985
  0
VERTEX
  8
LIVELLO_1
 62
     5
 10
-1805.625
 20
-96.6832
  0
VERTEX
  8
LIVELLO_1
 62
     5
 10
-1753.625
 20
-96.6832
  0
VERTEX
  8
LIVELLO_1
 62
     5
 10
-1752.7929
 20
-96.6088
  0
VERTEX
  8
LIVELLO_1
 62
     5
 10
-1752.0299
 20
-96.3925
  0
VERTEX
  8
LIVELLO_1
 62
     5
 10
-1751.3489
 20
-96.0443
  0
VERTEX
  8
LIVELLO_1
 62
     5
 10
-1750.7627
 20
-95.5745
  0
VERTEX
  8
LIVELLO_1
 62
     5
 10
-1750.2843
 20
-94.9934
  0
VERTEX
  8
LIVELLO_1
 62
     5
 10
-1749.9266
 20
-94.311
  0
VERTEX
  8
LIVELLO_1
 62
     5
 10
-1749.7026
 20
-93.5375
  0
VERTEX
  8
LIVELLO_1
 62
     5
 10
-1749.625
 20
-92.6832
  0
SEQEND
  8
LIVELLO_1
 62
     5
  0
POLYLINE
  8
LIVELLO_1
 62
     4
 66
     1
 70
     1
  0
VERTEX
  8
LIVELLO_1
 62
     4
 10
-1643.5149
 20
306.036
  0
VERTEX
  8
LIVELLO_1
 62
     4
 10
-1653.17
 20
306.036
  0
VERTEX
  8
LIVELLO_1
 62
     4
 10
-1653.17
 20
310.036
  0
VERTEX
  8
LIVELLO_1
 62
     4
 10
-1643.5149
 20
310.036
  0
VERTEX
  8
LIVELLO_1
 62
     4
 10
-1643.5149
 20
365.9106
  0
VERTEX
  8
LIVELLO_1
 62
     4
 10
-1643.028
 20
370.5128
  0
VERTEX
  8
LIVELLO_1
 62
     4
 10
-1641.6319
 20
374.81
  0
VERTEX
  8
LIVELLO_1
 62
     4
 10
-1639.4234
 20
378.7101
  0
VERTEX
  8
LIVELLO_1
 62
     4
 10
-1636.4995
 20
382.1211
  0
VERTEX
  8
LIVELLO_1
 62
     4
 10
-1632.9569
 20
384.9507
  0
VERTEX
  8
LIVELLO_1
 62
     4
 10
-1628.8927
 20
387.107
  0
VERTEX
  8
LIVELLO_1
 62
     4
 10
-1624.4037
 20
388.4979
  0
VERTEX
  8
LIVELLO_1
 62
     4
 10
-1619.5867
 20
389.0311
  0
VERTEX
  8
LIVELLO_1
 62
     4
 10
-1619.57
 20
389.036
  0
VERTEX
  8
LIVELLO_1
 62
     4
 10
-1619.57
 20
415.036
  0
VERTEX
  8
LIVELLO_1
 62
     4
 10
-1631.57
 20
415.036
  0
VERTEX
  8
LIVELLO_1
 62
     4
 10
-1631.57
 20
419.036
  0
VERTEX
  8
LIVELLO_1
 62
     4
 10
-1643.57
 20
419.036
  0
VERTEX
  8
LIVELLO_1
 62
     4
 10
-1643.57
 20
415.036
  0
VERTEX
  8
LIVELLO_1
 62
     4
 10
-1650.22
 20
415.036
  0
VERTEX
  8
LIVELLO_1
 62
     4
 10
-1650.22
 20
408.1862
  0
VERTEX
  8
LIVELLO_1
 62
     4
 10
-1648.82
 20
408.1862
  0
VERTEX
  8
LIVELLO_1
 62
     4
 10
-1648.82
 20
405.9862
  0
VERTEX
  8
LIVELLO_1
 62
     4
 10
-1650.22
 20
405.9862
  0
VERTEX
  8
LIVELLO_1
 62
     4
 10
-1650.22
 20
404.036
  0
VERTEX
  8
LIVELLO_1
 62
     4
 10
-1652.92
 20
404.036
  0
VERTEX
  8
LIVELLO_1
 62
     4
 10
-1652.92
 20
405.9862
  0
VERTEX
  8
LIVELLO_1
 62
     4
 10
-1654.32
 20
405.9862
  0
VERTEX
  8
LIVELLO_1
 62
     4
 10
-1654.32
 20
408.1862
  0
VERTEX
  8
LIVELLO_1
 62
     4
 10
-1652.92
 20
408.1862
  0
VERTEX
  8
LIVELLO_1
 62
     4
 10
-1652.92
 20
415.036
  0
VERTEX
  8
LIVELLO_1
 62
     4
 10
-1659.57
 20
415.036
  0
VERTEX
  8
LIVELLO_1
 62
     4
 10
-1659.57
 20
419.036
  0
VERTEX
  8
LIVELLO_1
 62
     4
 10
-1671.57
 20
419.036
  0
VERTEX
  8
LIVELLO_1
 62
     4
 10
-1671.57
 20
415.036
  0
VERTEX
  8
LIVELLO_1
 62
     4
 10
-1693.57
 20
415.036
  0
VERTEX
  8
LIVELLO_1
 62
     4
 10
-1693.57
 20
419.036
  0
VERTEX
  8
LIVELLO_1
 62
     4
 10
-1705.57
 20
419.036
  0
VERTEX
  8
LIVELLO_1
 62
     4
 10
-1705.57
 20
415.036
  0
VERTEX
  8
LIVELLO_1
 62
     4
 10
-1712.22
 20
415.036
  0
VERTEX
  8
LIVELLO_1
 62
     4
 10
-1712.22
 20
408.1862
  0
VERTEX
  8
LIVELLO_1
 62
     4
 10
-1710.82
 20
408.1862
  0
VERTEX
  8
LIVELLO_1
 62
     4
 10
-1710.82
 20
405.9862
  0
VERTEX
  8
LIVELLO_1
 62
     4
 10
-1712.22
 20
405.9862
  0
VERTEX
  8
LIVELLO_1
 62
     4
 10
-1712.22
 20
404.036
  0
VERTEX
  8
LIVELLO_1
 62
     4
 10
-1714.92
 20
404.036
  0
VERTEX
  8
LIVELLO_1
 62
     4
 10
-1714.92
 20
405.9862
  0
VERTEX
  8
LIVELLO_1
 62
     4
 10
-1716.32
 20
405.9862
  0
VERTEX
  8
LIVELLO_1
 62
     4
 10
-1716.32
 20
408.1862
  0
VERTEX
  8
LIVELLO_1
 62
     4
 10
-1714.92
 20
408.1862
  0
VERTEX
  8
LIVELLO_1
 62
     4
 10
-1714.92
 20
415.036
  0
VERTEX
  8
LIVELLO_1
 62
     4
 10
-1721.57
 20
415.036
  0
VERTEX
  8
LIVELLO_1
 62
     4
 10
-1721.57
 20
419.036
  0
VERTEX
  8
LIVELLO_1
 62
     4
 10
-1733.57
 20
419.036
  0
VERTEX
  8
LIVELLO_1
 62
     4
 10
-1733.57
 20
415.036
  0
VERTEX
  8
LIVELLO_1
 62
     4
 10
-1745.57
 20
415.036
  0
VERTEX
  8
LIVELLO_1
 62
     4
 10
-1745.57
 20
309.386
  0
VERTEX
  8
LIVELLO_1
 62
     4
 10
-1738.7202
 20
309.386
  0
VERTEX
  8
LIVELLO_1
 62
     4
 10
-1738.7202
 20
310.786
  0
VERTEX
  8
LIVELLO_1
 62
     4
 10
-1736.5202
 20
310.786
  0
VERTEX
  8
LIVELLO_1
 62
     4
 10
-1736.5202
 20
309.386
  0
VERTEX
  8
LIVELLO_1
 62
     4
 10
-1734.57
 20
309.386
  0
VERTEX
  8
LIVELLO_1
 62
     4
 10
-1734.57
 20
306.686
  0
VERTEX
  8
LIVELLO_1
 62
     4
 10
-1736.5202
 20
306.686
  0
VERTEX
  8
LIVELLO_1
 62
     4
 10
-1736.5202
 20
305.286
  0
VERTEX
  8
LIVELLO_1
 62
     4
 10
-1738.7202
 20
305.286
  0
VERTEX
  8
LIVELLO_1
 62
     4
 10
-1738.7202
 20
306.686
  0
VERTEX
  8
LIVELLO_1
 62
     4
 10
-1745.57
 20
306.686
  0
VERTEX
  8
LIVELLO_1
 62
     4
 10
-1745.57
 20
201.036
  0
VERTEX
  8
LIVELLO_1
 62
     4
 10
-1733.57
 20
201.036
  0
VERTEX
  8
LIVELLO_1
 62
     4
 10
-1733.57
 20
197.036
  0
VERTEX
  8
LIVELLO_1
 62
     4
 10
-1721.57
 20
197.036
  0
VERTEX
  8
LIVELLO_1
 62
     4
 10
-1721.57
 20
201.036
  0
VERTEX
  8
LIVELLO_1
 62
     4
 10
-1714.92
 20
201.036
  0
VERTEX
  8
LIVELLO_1
 62
     4
 10
-1714.92
 20
207.8858
  0
VERTEX
  8
LIVELLO_1
 62
     4
 10
-1716.32
 20
207.8858
  0
VERTEX
  8
LIVELLO_1
 62
     4
 10
-1716.32
 20
210.0858
  0
VERTEX
  8
LIVELLO_1
 62
     4
 10
-1714.92
 20
210.0858
  0
VERTEX
  8
LIVELLO_1
 62
     4
 10
-1714.92
 20
212.036
  0
VERTEX
  8
LIVELLO_1
 62
     4
 10
-1712.22
 20
212.036
  0
VERTEX
  8
LIVELLO_1
 62
     4
 10
-1712.22
 20
210.0858
  0
VERTEX
  8
LIVELLO_1
 62
     4
 10
-1710.82
 20
210.0858
  0
VERTEX
  8
LIVELLO_1
 62
     4
 10
-1710.82
 20
207.8858
  0
VERTEX
  8
LIVELLO_1
 62
     4
 10
-1712.22
 20
207.8858
  0
VERTEX
  8
LIVELLO_1
 62
     4
 10
-1712.22
 20
201.036
  0
VERTEX
  8
LIVELLO_1
 62
     4
 10
-1705.57
 20
201.036
  0
VERTEX
  8
LIVELLO_1
 62
     4
 10
-1705.57
 20
197.036
  0
VERTEX
  8
LIVELLO_1
 62
     4
 10
-1693.57
 20
197.036
  0
VERTEX
  8
LIVELLO_1
 62
     4
 10
-1693.57
 20
201.036
  0
VERTEX
  8
LIVELLO_1
 62
     4
 10
-1671.57
 20
201.036
  0
VERTEX
  8
LIVELLO_1
 62
     4
 10
-1671.57
 20
197.036
  0
VERTEX
  8
LIVELLO_1
 62
     4
 10
-1659.57
 20
197.036
  0
VERTEX
  8
LIVELLO_1
 62
     4
 10
-1659.57
 20
201.036
  0
VERTEX
  8
LIVELLO_1
 62
     4
 10
-1652.92
 20
201.036
  0
VERTEX
  8
LIVELLO_1
 62
     4
 10
-1652.92
 20
207.8858
  0
VERTEX
  8
LIVELLO_1
 62
     4
 10
-1654.32
 20
207.8858
  0
VERTEX
  8
LIVELLO_1
 62
     4
 10
-1654.32
 20
210.0858
  0
VERTEX
  8
LIVELLO_1
 62
     4
 10
-1652.92
 20
210.0858
  0
VERTEX
  8
LIVELLO_1
 62
     4
 10
-1652.92
 20
212.036
  0
VERTEX
  8
LIVELLO_1
 62
     4
 10
-1650.22
 20
212.036
  0
VERTEX
  8
LIVELLO_1
 62
     4
 10
-1650.22
 20
210.0858
  0
VERTEX
  8
LIVELLO_1
 62
     4
 10
-1648.82
 20
210.0858
  0
VERTEX
  8
LIVELLO_1
 62
     4
 10
-1648.82
 20
207.8858
  0
VERTEX
  8
LIVELLO_1
 62
     4
 10
-1650.22
 20
207.8858
  0
VERTEX
  8
LIVELLO_1
 62
     4
 10
-1650.22
 20
201.036
  0
VERTEX
  8
LIVELLO_1
 62
     4
 10
-1643.57
 20
201.036
  0
VERTEX
  8
LIVELLO_1
 62
     4
 10
-1643.57
 20
197.036
  0
VERTEX
  8
LIVELLO_1
 62
     4
 10
-1631.57
 20
197.036
  0
VERTEX
  8
LIVELLO_1
 62
     4
 10
-1631.57
 20
201.036
  0
VERTEX
  8
LIVELLO_1
 62
     4
 10
-1619.57
 20
201.036
  0
VERTEX
  8
LIVELLO_1
 62
     4
 10
-1619.57
 20
227.036
  0
VERTEX
  8
LIVELLO_1
 62
     4
 10
-1619.5867
 20
227.0409
  0
VERTEX
  8
LIVELLO_1
 62
     4
 10
-1624.4037
 20
227.5741
  0
VERTEX
  8
LIVELLO_1
 62
     4
 10
-1628.8928
 20
228.965
  0
VERTEX
  8
LIVELLO_1
 62
     4
 10
-1632.957
 20
231.1213
  0
VERTEX
  8
LIVELLO_1
 62
     4
 10
-1636.4995
 20
233.9509
  0
VERTEX
  8
LIVELLO_1
 62
     4
 10
-1639.4234
 20
237.3619
  0
VERTEX
  8
LIVELLO_1
 62
     4
 10
-1641.6319
 20
241.262
  0
VERTEX
  8
LIVELLO_1
 62
     4
 10
-1643.028
 20
245.5592
  0
VERTEX
  8
LIVELLO_1
 62
     4
 10
-1643.5149
 20
250.1614
  0
VERTEX
  8
LIVELLO_1
 62
     4
 10
-1643.5149
 20
306.036
  0
SEQEND
  8
LIVELLO_1
 62
     4
  0
POLYLINE
  8
LIVELLO_1
 62
     6
 66
     1
 70
     1
  0
VERTEX
  8
LIVELLO_1
 62
     6
 10
-1785.2754
 20
428.036
  0
VERTEX
  8
LIVELLO_1
 62
     6
 10
-1785.2754
 20
424.036
  0
VERTEX
  8
LIVELLO_1
 62
     6
 10
-1773.2754
 20
424.036
  0
VERTEX
  8
LIVELLO_1
 62
     6
 10
-1773.2754
 20
428.036
  0
VERTEX
  8
LIVELLO_1
 62
     6
 10
-1761.2754
 20
428.036
  0
VERTEX
  8
LIVELLO_1
 62
     6
 10
-1761.2754
 20
520.436
  0
VERTEX
  8
LIVELLO_1
 62
     6
 10
-1757.2754
 20
520.436
  0
VERTEX
  8
LIVELLO_1
 62
     6
 10
-1757.2754
 20
530.036
  0
VERTEX
  8
LIVELLO_1
 62
     6
 10
-1975.2754
 20
530.036
  0
VERTEX
  8
LIVELLO_1
 62
     6
 10
-1975.8658
 20
529.4562
  0
VERTEX
  8
LIVELLO_1
 62
     6
 10
-1976.2876
 20
528.35
  0
VERTEX
  8
LIVELLO_1
 62
     6
 10
-1976.5406
 20
526.8927
  0
VERTEX
  8
LIVELLO_1
 62
     6
 10
-1976.625
 20
525.26
  0
VERTEX
  8
LIVELLO_1
 62
     6
 10
-1976.5406
 20
523.6272
  0
VERTEX
  8
LIVELLO_1
 62
     6
 10
-1976.2876
 20
522.1699
  0
VERTEX
  8
LIVELLO_1
 62
     6
 10
-1975.8658
 20
521.0637
  0
VERTEX
  8
LIVELLO_1
 62
     6
 10
-1975.2754
 20
520.4839
  0
VERTEX
  8
LIVELLO_1
 62
     6
 10
-1975.2754
 20
428.036
  0
VERTEX
  8
LIVELLO_1
 62
     6
 10
-1963.2754
 20
428.036
  0
VERTEX
  8
LIVELLO_1
 62
     6
 10
-1963.2754
 20
424.036
  0
VERTEX
  8
LIVELLO_1
 62
     6
 10
-1951.2754
 20
424.036
  0
VERTEX
  8
LIVELLO_1
 62
     6
 10
-1951.2754
 20
428.036
  0
VERTEX
  8
LIVELLO_1
 62
     6
 10
-1872.9502
 20
428.036
  0
VERTEX
  8
LIVELLO_1
 62
     6
 10
-1872.9502
 20
424.036
  0
VERTEX
  8
LIVELLO_1
 62
     6
 10
-1860.9502
 20
424.036
  0
VERTEX
  8
LIVELLO_1
 62
     6
 10
-1860.9502
 20
428.036
  0
VERTEX
  8
LIVELLO_1
 62
     6
 10
-1785.2754
 20
428.036
  0
SEQEND
  8
LIVELLO_1
 62
     6
  0
POLYLINE
  8
LIVELLO_1
 62
     3
 66
     1
 70
     1
  0
VERTEX
  8
LIVELLO_1
 62
     3
 10
-1757.0945
 20
308.3383
  0
VERTEX
  8
LIVELLO_1
 62
     3
 10
-1757.0071
 20
308.6199
  0
VERTEX
  8
LIVELLO_1
 62
     3
 10
-1756.8688
 20
308.8747
  0
VERTEX
  8
LIVELLO_1
 62
     3
 10
-1756.6857
 20
309.0966
  0
VERTEX
  8
LIVELLO_1
 62
     3
 10
-1756.4637
 20
309.2798
  0
VERTEX
  8
LIVELLO_1
 62
     3
 10
-1756.2089
 20
309.4181
  0
VERTEX
  8
LIVELLO_1
 62
     3
 10
-1755.9273
 20
309.5055
  0
VERTEX
  8
LIVELLO_1
 62
     3
 10
-1755.625
 20
309.536
  0
VERTEX
  8
LIVELLO_1
 62
     3
 10
-1755.3227
 20
309.5055
  0
VERTEX
  8
LIVELLO_1
 62
     3
 10
-1755.0411
 20
309.4181
  0
VERTEX
  8
LIVELLO_1
 62
     3
 10
-1754.7863
 20
309.2798
  0
VERTEX
  8
LIVELLO_1
 62
     3
 10
-1754.5643
 20
309.0966
  0
VERTEX
  8
LIVELLO_1
 62
     3
 10
-1754.3812
 20
308.8747
  0
VERTEX
  8
LIVELLO_1
 62
     3
 10
-1754.2429
 20
308.6199
  0
VERTEX
  8
LIVELLO_1
 62
     3
 10
-1754.1555
 20
308.3383
  0
VERTEX
  8
LIVELLO_1
 62
     3
 10
-1754.125
 20
308.036
  0
VERTEX
  8
LIVELLO_1
 62
     3
 10
-1754.1555
 20
307.7337
  0
VERTEX
  8
LIVELLO_1
 62
     3
 10
-1754.2429
 20
307.4521
  0
VERTEX
  8
LIVELLO_1
 62
     3
 10
-1754.3812
 20
307.1973
  0
VERTEX
  8
LIVELLO_1
 62
     3
 10
-1754.5643
 20
306.9753
  0
VERTEX
  8
LIVELLO_1
 62
     3
 10
-1754.7863
 20
306.7922
  0
VERTEX
  8
LIVELLO_1
 62
     3
 10
-1755.0411
 20
306.6539
  0
VERTEX
  8
LIVELLO_1
 62
     3
 10
-1755.3227
 20
306.5665
  0
VERTEX
  8
LIVELLO_1
 62
     3
 10
-1755.625
 20
306.536
  0
VERTEX
  8
LIVELLO_1
 62
     3
 10
-1755.9273
 20
306.5665
  0
VERTEX
  8
LIVELLO_1
 62
     3
 10
-1756.2089
 20
306.6539
  0
VERTEX
  8
LIVELLO_1
 62
     3
 10
-1756.4637
 20
306.7922
  0
VERTEX
  8
LIVELLO_1
 62
     3
 10
-1756.6857
 20
306.9753
  0
VERTEX
  8
LIVELLO_1
 62
     3
 10
-1756.8688
 20
307.1973
  0
VERTEX
  8
LIVELLO_1
 62
     3
 10
-1757.0071
 20
307.4521
  0
VERTEX
  8
LIVELLO_1
 62
     3
 10
-1757.0945
 20
307.7337
  0
VERTEX
  8
LIVELLO_1
 62
     3
 10
-1757.125
 20
308.036
  0
VERTEX
  8
LIVELLO_1
 62
     3
 10
-1757.0945
 20
308.3383
  0
SEQEND
  8
LIVELLO_1
 62
     3
  0
POLYLINE
  8
LIVELLO_1
 62
     3
 66
     1
 70
     1
  0
VERTEX
  8
LIVELLO_1
 62
     3
 10
-1974.2089
 20
309.4181
  0
VERTEX
  8
LIVELLO_1
 62
     3
 10
-1973.9273
 20
309.5055
  0
VERTEX
  8
LIVELLO_1
 62
     3
 10
-1973.625
 20
309.536
  0
VERTEX
  8
LIVELLO_1
 62
     3
 10
-1973.3227
 20
309.5055
  0
VERTEX
  8
LIVELLO_1
 62
     3
 10
-1973.0411
 20
309.4181
  0
VERTEX
  8
LIVELLO_1
 62
     3
 10
-1972.7863
 20
309.2798
  0
VERTEX
  8
LIVELLO_1
 62
     3
 10
-1972.5643
 20
309.0966
  0
VERTEX
  8
LIVELLO_1
 62
     3
 10
-1972.3812
 20
308.8747
  0
VERTEX
  8
LIVELLO_1
 62
     3
 10
-1972.2429
 20
308.6199
  0
VERTEX
  8
LIVELLO_1
 62
     3
 10
-1972.1555
 20
308.3383
  0
VERTEX
  8
LIVELLO_1
 62
     3
 10
-1972.125
 20
308.036
  0
VERTEX
  8
LIVELLO_1
 62
     3
 10
-1972.1555
 20
307.7337
  0
VERTEX
  8
LIVELLO_1
 62
     3
 10
-1972.2429
 20
307.4521
  0
VERTEX
  8
LIVELLO_1
 62
     3
 10
-1972.3812
 20
307.1973
  0
VERTEX
  8
LIVELLO_1
 62
     3
 10
-1972.5643
 20
306.9753
  0
VERTEX
  8
LIVELLO_1
 62
     3
 10
-1972.7863
 20
306.7922
  0
VERTEX
  8
LIVELLO_1
 62
     3
 10
-1973.0411
 20
306.6539
  0
VERTEX
  8
LIVELLO_1
 62
     3
 10
-1973.3227
 20
306.5665
  0
VERTEX
  8
LIVELLO_1
 62
     3
 10
-1973.625
 20
306.536
  0
VERTEX
  8
LIVELLO_1
 62
     3
 10
-1973.9273
 20
306.5665
  0
VERTEX
  8
LIVELLO_1
 62
     3
 10
-1974.2089
 20
306.6539
  0
VERTEX
  8
LIVELLO_1
 62
     3
 10
-1974.4637
 20
306.7922
  0
VERTEX
  8
LIVELLO_1
 62
     3
 10
-1974.6857
 20
306.9753
  0
VERTEX
  8
LIVELLO_1
 62
     3
 10
-1974.8688
 20
307.1973
  0
VERTEX
  8
LIVELLO_1
 62
     3
 10
-1975.0071
 20
307.4521
  0
VERTEX
  8
LIVELLO_1
 62
     3
 10
-1975.0945
 20
307.7337
  0
VERTEX
  8
LIVELLO_1
 62
     3
 10
-1975.125
 20
308.036
  0
VERTEX
  8
LIVELLO_1
 62
     3
 10
-1975.0945
 20
308.3383
  0
VERTEX
  8
LIVELLO_1
 62
     3
 10
-1975.0071
 20
308.6199
  0
VERTEX
  8
LIVELLO_1
 62
     3
 10
-1974.8688
 20
308.8747
  0
VERTEX
  8
LIVELLO_1
 62
     3
 10
-1974.6857
 20
309.0966
  0
VERTEX
  8
LIVELLO_1
 62
     3
 10
-1974.4637
 20
309.2798
  0
VERTEX
  8
LIVELLO_1
 62
     3
 10
-1974.2089
 20
309.4181
  0
SEQEND
  8
LIVELLO_1
 62
     3
  0
POLYLINE
  8
LIVELLO_1
 62
     5
 66
     1
 70
     1
  0
VERTEX
  8
LIVELLO_1
 62
     5
 10
-1979.625
 20
415.036
  0
VERTEX
  8
LIVELLO_1
 62
     5
 10
-1979.625
 20
201.036
  0
VERTEX
  8
LIVELLO_1
 62
     5
 10
-1971.625
 20
201.036
  0
VERTEX
  8
LIVELLO_1
 62
     5
 10
-1971.625
 20
197.036
  0
VERTEX
  8
LIVELLO_1
 62
     5
 10
-1933.625
 20
197.036
  0
VERTEX
  8
LIVELLO_1
 62
     5
 10
-1933.625
 20
201.036
  0
VERTEX
  8
LIVELLO_1
 62
     5
 10
-1883.375
 20
201.036
  0
VERTEX
  8
LIVELLO_1
 62
     5
 10
-1883.375
 20
197.036
  0
VERTEX
  8
LIVELLO_1
 62
     5
 10
-1845.375
 20
197.036
  0
VERTEX
  8
LIVELLO_1
 62
     5
 10
-1845.375
 20
201.036
  0
VERTEX
  8
LIVELLO_1
 62
     5
 10
-1795.625
 20
201.036
  0
VERTEX
  8
LIVELLO_1
 62
     5
 10
-1795.625
 20
197.036
  0
VERTEX
  8
LIVELLO_1
 62
     5
 10
-1757.625
 20
197.036
  0
VERTEX
  8
LIVELLO_1
 62
     5
 10
-1757.625
 20
201.036
  0
VERTEX
  8
LIVELLO_1
 62
     5
 10
-1749.625
 20
201.036
  0
VERTEX
  8
LIVELLO_1
 62
     5
 10
-1749.625
 20
415.036
  0
VERTEX
  8
LIVELLO_1
 62
     5
 10
-1757.625
 20
415.036
  0
VERTEX
  8
LIVELLO_1
 62
     5
 10
-1757.625
 20
419.036
  0
VERTEX
  8
LIVELLO_1
 62
     5
 10
-1795.625
 20
419.036
  0
VERTEX
  8
LIVELLO_1
 62
     5
 10
-1795.625
 20
415.036
  0
VERTEX
  8
LIVELLO_1
 62
     5
 10
-1845.375
 20
415.036
  0
VERTEX
  8
LIVELLO_1
 62
     5
 10
-1845.375
 20
419.036
  0
VERTEX
  8
LIVELLO_1
 62
     5
 10
-1883.375
 20
419.036
  0
VERTEX
  8
LIVELLO_1
 62
     5
 10
-1883.375
 20
415.036
  0
VERTEX
  8
LIVELLO_1
 62
     5
 10
-1933.625
 20
415.036
  0
VERTEX
  8
LIVELLO_1
 62
     5
 10
-1933.625
 20
419.036
  0
VERTEX
  8
LIVELLO_1
 62
     5
 10
-1971.625
 20
419.036
  0
VERTEX
  8
LIVELLO_1
 62
     5
 10
-1971.625
 20
415.036
  0
VERTEX
  8
LIVELLO_1
 62
     5
 10
-1979.625
 20
415.036
  0
SEQEND
  8
LIVELLO_1
 62
     5
  0
POLYLINE
  8
LIVELLO_1
 62
     3
 66
     1
 70
     1
  0
VERTEX
  8
LIVELLO_1
 62
     3
 10
-1781.625
 20
306.036
  0
VERTEX
  8
LIVELLO_1
 62
     3
 10
-1769.625
 20
306.036
  0
VERTEX
  8
LIVELLO_1
 62
     3
 10
-1769.625
 20
310.036
  0
VERTEX
  8
LIVELLO_1
 62
     3
 10
-1781.625
 20
310.036
  0
VERTEX
  8
LIVELLO_1
 62
     3
 10
-1781.625
 20
306.036
  0
SEQEND
  8
LIVELLO_1
 62
     3
  0
POLYLINE
  8
LIVELLO_1
 62
     3
 66
     1
 70
     1
  0
VERTEX
  8
LIVELLO_1
 62
     3
 10
-1959.625
 20
306.036
  0
VERTEX
  8
LIVELLO_1
 62
     3
 10
-1947.625
 20
306.036
  0
VERTEX
  8
LIVELLO_1
 62
     3
 10
-1947.625
 20
310.036
  0
VERTEX
  8
LIVELLO_1
 62
     3
 10
-1959.625
 20
310.036
  0
VERTEX
  8
LIVELLO_1
 62
     3
 10
-1959.625
 20
306.036
  0
SEQEND
  8
LIVELLO_1
 62
     3
  0
POLYLINE
  8
LIVELLO_1
 62
     3
 66
     1
 70
     1
  0
VERTEX
  8
LIVELLO_1
 62
     3
 10
-1869.2998
 20
306.036
  0
VERTEX
  8
LIVELLO_1
 62
     3
 10
-1857.2998
 20
306.036
  0
VERTEX
  8
LIVELLO_1
 62
     3
 10
-1857.2998
 20
310.036
  0
VERTEX
  8
LIVELLO_1
 62
     3
 10
-1869.2998
 20
310.036
  0
VERTEX
  8
LIVELLO_1
 62
     3
 10
-1869.2998
 20
306.036
  0
SEQEND
  8
LIVELLO_1
 62
     3
  0
POLYLINE
  8
LIVELLO_1
 62
     3
 66
     1
 70
     1
  0
VERTEX
  8
LIVELLO_1
 62
     3
 10
-454.7689
 20
308.3383
  0
VERTEX
  8
LIVELLO_1
 62
     3
 10
-454.6815
 20
308.6199
  0
VERTEX
  8
LIVELLO_1
 62
     3
 10
-454.5432
 20
308.8747
  0
VERTEX
  8
LIVELLO_1
 62
     3
 10
-454.3601
 20
309.0966
  0
VERTEX
  8
LIVELLO_1
 62
     3
 10
-454.1381
 20
309.2798
  0
VERTEX
  8
LIVELLO_1
 62
     3
 10
-453.8833
 20
309.4181
  0
VERTEX
  8
LIVELLO_1
 62
     3
 10
-453.6017
 20
309.5055
  0
VERTEX
  8
LIVELLO_1
 62
     3
 10
-453.2994
 20
309.536
  0
VERTEX
  8
LIVELLO_1
 62
     3
 10
-452.9971
 20
309.5055
  0
VERTEX
  8
LIVELLO_1
 62
     3
 10
-452.7155
 20
309.4181
  0
VERTEX
  8
LIVELLO_1
 62
     3
 10
-452.4607
 20
309.2798
  0
VERTEX
  8
LIVELLO_1
 62
     3
 10
-452.2387
 20
309.0966
  0
VERTEX
  8
LIVELLO_1
 62
     3
 10
-452.0556
 20
308.8747
  0
VERTEX
  8
LIVELLO_1
 62
     3
 10
-451.9173
 20
308.6199
  0
VERTEX
  8
LIVELLO_1
 62
     3
 10
-451.8299
 20
308.3383
  0
VERTEX
  8
LIVELLO_1
 62
     3
 10
-451.7994
 20
308.036
  0
VERTEX
  8
LIVELLO_1
 62
     3
 10
-451.8299
 20
307.7337
  0
VERTEX
  8
LIVELLO_1
 62
     3
 10
-451.9173
 20
307.4521
  0
VERTEX
  8
LIVELLO_1
 62
     3
 10
-452.0556
 20
307.1973
  0
VERTEX
  8
LIVELLO_1
 62
     3
 10
-452.2387
 20
306.9753
  0
VERTEX
  8
LIVELLO_1
 62
     3
 10
-452.4607
 20
306.7922
  0
VERTEX
  8
LIVELLO_1
 62
     3
 10
-452.7155
 20
306.6539
  0
VERTEX
  8
LIVELLO_1
 62
     3
 10
-452.9971
 20
306.5665
  0
VERTEX
  8
LIVELLO_1
 62
     3
 10
-453.2994
 20
306.536
  0
VERTEX
  8
LIVELLO_1
 62
     3
 10
-453.6017
 20
306.5665
  0
VERTEX
  8
LIVELLO_1
 62
     3
 10
-453.8833
 20
306.6539
  0
VERTEX
  8
LIVELLO_1
 62
     3
 10
-454.1381
 20
306.7922
  0
VERTEX
  8
LIVELLO_1
 62
     3
 10
-454.3601
 20
306.9753
  0
VERTEX
  8
LIVELLO_1
 62
     3
 10
-454.5432
 20
307.1973
  0
VERTEX
  8
LIVELLO_1
 62
     3
 10
-454.6815
 20
307.4521
  0
VERTEX
  8
LIVELLO_1
 62
     3
 10
-454.7689
 20
307.7337
  0
VERTEX
  8
LIVELLO_1
 62
     3
 10
-454.7994
 20
308.036
  0
VERTEX
  8
LIVELLO_1
 62
     3
 10
-454.7689
 20
308.3383
  0
SEQEND
  8
LIVELLO_1
 62
     3
  0
POLYLINE
  8
LIVELLO_1
 62
     3
 66
     1
 70
     1
  0
VERTEX
  8
LIVELLO_1
 62
     3
 10
-671.8833
 20
309.4181
  0
VERTEX
  8
LIVELLO_1
 62
     3
 10
-671.6017
 20
309.5055
  0
VERTEX
  8
LIVELLO_1
 62
     3
 10
-671.2994
 20
309.536
  0
VERTEX
  8
LIVELLO_1
 62
     3
 10
-670.9971
 20
309.5055
  0
VERTEX
  8
LIVELLO_1
 62
     3
 10
-670.7155
 20
309.4181
  0
VERTEX
  8
LIVELLO_1
 62
     3
 10
-670.4607
 20
309.2798
  0
VERTEX
  8
LIVELLO_1
 62
     3
 10
-670.2387
 20
309.0966
  0
VERTEX
  8
LIVELLO_1
 62
     3
 10
-670.0556
 20
308.8747
  0
VERTEX
  8
LIVELLO_1
 62
     3
 10
-669.9173
 20
308.6199
  0
VERTEX
  8
LIVELLO_1
 62
     3
 10
-669.8299
 20
308.3383
  0
VERTEX
  8
LIVELLO_1
 62
     3
 10
-669.7994
 20
308.036
  0
VERTEX
  8
LIVELLO_1
 62
     3
 10
-669.8299
 20
307.7337
  0
VERTEX
  8
LIVELLO_1
 62
     3
 10
-669.9173
 20
307.4521
  0
VERTEX
  8
LIVELLO_1
 62
     3
 10
-670.0556
 20
307.1973
  0
VERTEX
  8
LIVELLO_1
 62
     3
 10
-670.2387
 20
306.9753
  0
VERTEX
  8
LIVELLO_1
 62
     3
 10
-670.4607
 20
306.7922
  0
VERTEX
  8
LIVELLO_1
 62
     3
 10
-670.7155
 20
306.6539
  0
VERTEX
  8
LIVELLO_1
 62
     3
 10
-670.9971
 20
306.5665
  0
VERTEX
  8
LIVELLO_1
 62
     3
 10
-671.2994
 20
306.536
  0
VERTEX
  8
LIVELLO_1
 62
     3
 10
-671.6017
 20
306.5665
  0
VERTEX
  8
LIVELLO_1
 62
     3
 10
-671.8833
 20
306.6539
  0
VERTEX
  8
LIVELLO_1
 62
     3
 10
-672.1381
 20
306.7922
  0
VERTEX
  8
LIVELLO_1
 62
     3
 10
-672.3601
 20
306.9753
  0
VERTEX
  8
LIVELLO_1
 62
     3
 10
-672.5432
 20
307.1973
  0
VERTEX
  8
LIVELLO_1
 62
     3
 10
-672.6815
 20
307.4521
  0
VERTEX
  8
LIVELLO_1
 62
     3
 10
-672.7689
 20
307.7337
  0
VERTEX
  8
LIVELLO_1
 62
     3
 10
-672.7994
 20
308.036
  0
VERTEX
  8
LIVELLO_1
 62
     3
 10
-672.7689
 20
308.3383
  0
VERTEX
  8
LIVELLO_1
 62
     3
 10
-672.6815
 20
308.6199
  0
VERTEX
  8
LIVELLO_1
 62
     3
 10
-672.5432
 20
308.8747
  0
VERTEX
  8
LIVELLO_1
 62
     3
 10
-672.3601
 20
309.0966
  0
VERTEX
  8
LIVELLO_1
 62
     3
 10
-672.1381
 20
309.2798
  0
VERTEX
  8
LIVELLO_1
 62
     3
 10
-671.8833
 20
309.4181
  0
SEQEND
  8
LIVELLO_1
 62
     3
  0
POLYLINE
  8
LIVELLO_1
 62
     5
 66
     1
 70
     1
  0
VERTEX
  8
LIVELLO_1
 62
     5
 10
-677.2994
 20
415.036
  0
VERTEX
  8
LIVELLO_1
 62
     5
 10
-677.2994
 20
201.036
  0
VERTEX
  8
LIVELLO_1
 62
     5
 10
-669.2994
 20
201.036
  0
VERTEX
  8
LIVELLO_1
 62
     5
 10
-669.2994
 20
197.036
  0
VERTEX
  8
LIVELLO_1
 62
     5
 10
-631.2994
 20
197.036
  0
VERTEX
  8
LIVELLO_1
 62
     5
 10
-631.2994
 20
201.036
  0
VERTEX
  8
LIVELLO_1
 62
     5
 10
-581.0494
 20
201.036
  0
VERTEX
  8
LIVELLO_1
 62
     5
 10
-581.0494
 20
197.036
  0
VERTEX
  8
LIVELLO_1
 62
     5
 10
-543.0494
 20
197.036
  0
VERTEX
  8
LIVELLO_1
 62
     5
 10
-543.0494
 20
201.036
  0
VERTEX
  8
LIVELLO_1
 62
     5
 10
-493.2994
 20
201.036
  0
VERTEX
  8
LIVELLO_1
 62
     5
 10
-493.2994
 20
197.036
  0
VERTEX
  8
LIVELLO_1
 62
     5
 10
-455.2994
 20
197.036
  0
VERTEX
  8
LIVELLO_1
 62
     5
 10
-455.2994
 20
201.036
  0
VERTEX
  8
LIVELLO_1
 62
     5
 10
-447.2994
 20
201.036
  0
VERTEX
  8
LIVELLO_1
 62
     5
 10
-447.2994
 20
415.036
  0
VERTEX
  8
LIVELLO_1
 62
     5
 10
-455.2994
 20
415.036
  0
VERTEX
  8
LIVELLO_1
 62
     5
 10
-455.2994
 20
419.036
  0
VERTEX
  8
LIVELLO_1
 62
     5
 10
-493.2994
 20
419.036
  0
VERTEX
  8
LIVELLO_1
 62
     5
 10
-493.2994
 20
415.036
  0
VERTEX
  8
LIVELLO_1
 62
     5
 10
-543.0494
 20
415.036
  0
VERTEX
  8
LIVELLO_1
 62
     5
 10
-543.0494
 20
419.036
  0
VERTEX
  8
LIVELLO_1
 62
     5
 10
-581.0494
 20
419.036
  0
VERTEX
  8
LIVELLO_1
 62
     5
 10
-581.0494
 20
415.036
  0
VERTEX
  8
LIVELLO_1
 62
     5
 10
-631.2994
 20
415.036
  0
VERTEX
  8
LIVELLO_1
 62
     5
 10
-631.2994
 20
419.036
  0
VERTEX
  8
LIVELLO_1
 62
     5
 10
-669.2994
 20
419.036
  0
VERTEX
  8
LIVELLO_1
 62
     5
 10
-669.2994
 20
415.036
  0
VERTEX
  8
LIVELLO_1
 62
     5
 10
-677.2994
 20
415.036
  0
SEQEND
  8
LIVELLO_1
 62
     5
  0
POLYLINE
  8
LIVELLO_1
 62
     3
 66
     1
 70
     1
  0
VERTEX
  8
LIVELLO_1
 62
     3
 10
-479.2994
 20
306.036
  0
VERTEX
  8
LIVELLO_1
 62
     3
 10
-467.2994
 20
306.036
  0
VERTEX
  8
LIVELLO_1
 62
     3
 10
-467.2994
 20
310.036
  0
VERTEX
  8
LIVELLO_1
 62
     3
 10
-479.2994
 20
310.036
  0
VERTEX
  8
LIVELLO_1
 62
     3
 10
-479.2994
 20
306.036
  0
SEQEND
  8
LIVELLO_1
 62
     3
  0
POLYLINE
  8
LIVELLO_1
 62
     3
 66
     1
 70
     1
  0
VERTEX
  8
LIVELLO_1
 62
     3
 10
-657.2994
 20
306.036
  0
VERTEX
  8
LIVELLO_1
 62
     3
 10
-645.2994
 20
306.036
  0
VERTEX
  8
LIVELLO_1
 62
     3
 10
-645.2994
 20
310.036
  0
VERTEX
  8
LIVELLO_1
 62
     3
 10
-657.2994
 20
310.036
  0
VERTEX
  8
LIVELLO_1
 62
     3
 10
-657.2994
 20
306.036
  0
SEQEND
  8
LIVELLO_1
 62
     3
  0
POLYLINE
  8
LIVELLO_1
 62
     3
 66
     1
 70
     1
  0
VERTEX
  8
LIVELLO_1
 62
     3
 10
-566.9742
 20
306.036
  0
VERTEX
  8
LIVELLO_1
 62
     3
 10
-554.9742
 20
306.036
  0
VERTEX
  8
LIVELLO_1
 62
     3
 10
-554.9742
 20
310.036
  0
VERTEX
  8
LIVELLO_1
 62
     3
 10
-566.9742
 20
310.036
  0
VERTEX
  8
LIVELLO_1
 62
     3
 10
-566.9742
 20
306.036
  0
SEQEND
  8
LIVELLO_1
 62
     3
  0
POLYLINE
  8
LIVELLO_1
 62
     5
 66
     1
 70
     1
  0
VERTEX
  8
LIVELLO_1
 62
     5
 10
-2107.625
 20
415.036
  0
VERTEX
  8
LIVELLO_1
 62
     5
 10
-2107.625
 20
201.036
  0
VERTEX
  8
LIVELLO_1
 62
     5
 10
-2095.625
 20
201.036
  0
VERTEX
  8
LIVELLO_1
 62
     5
 10
-2095.625
 20
197.036
  0
VERTEX
  8
LIVELLO_1
 62
     5
 10
-2083.625
 20
197.036
  0
VERTEX
  8
LIVELLO_1
 62
     5
 10
-2083.625
 20
201.036
  0
VERTEX
  8
LIVELLO_1
 62
     5
 10
-2076.975
 20
201.036
  0
VERTEX
  8
LIVELLO_1
 62
     5
 10
-2076.975
 20
207.8858
  0
VERTEX
  8
LIVELLO_1
 62
     5
 10
-2078.325
 20
207.8858
  0
VERTEX
  8
LIVELLO_1
 62
     5
 10
-2078.325
 20
209.9858
  0
VERTEX
  8
LIVELLO_1
 62
     5
 10
-2076.975
 20
209.9858
  0
VERTEX
  8
LIVELLO_1
 62
     5
 10
-2076.975
 20
212.036
  0
VERTEX
  8
LIVELLO_1
 62
     5
 10
-2074.275
 20
212.036
  0
VERTEX
  8
LIVELLO_1
 62
     5
 10
-2074.275
 20
209.9858
  0
VERTEX
  8
LIVELLO_1
 62
     5
 10
-2072.925
 20
209.9858
  0
VERTEX
  8
LIVELLO_1
 62
     5
 10
-2072.925
 20
207.8858
  0
VERTEX
  8
LIVELLO_1
 62
     5
 10
-2074.275
 20
207.8858
  0
VERTEX
  8
LIVELLO_1
 62
     5
 10
-2074.275
 20
201.036
  0
VERTEX
  8
LIVELLO_1
 62
     5
 10
-2067.625
 20
201.036
  0
VERTEX
  8
LIVELLO_1
 62
     5
 10
-2067.625
 20
197.036
  0
VERTEX
  8
LIVELLO_1
 62
     5
 10
-2055.625
 20
197.036
  0
VERTEX
  8
LIVELLO_1
 62
     5
 10
-2055.625
 20
201.036
  0
VERTEX
  8
LIVELLO_1
 62
     5
 10
-2033.625
 20
201.036
  0
VERTEX
  8
LIVELLO_1
 62
     5
 10
-2033.625
 20
197.036
  0
VERTEX
  8
LIVELLO_1
 62
     5
 10
-2021.625
 20
197.036
  0
VERTEX
  8
LIVELLO_1
 62
     5
 10
-2021.625
 20
201.036
  0
VERTEX
  8
LIVELLO_1
 62
     5
 10
-2014.975
 20
201.036
  0
VERTEX
  8
LIVELLO_1
 62
     5
 10
-2014.975
 20
207.8858
  0
VERTEX
  8
LIVELLO_1
 62
     5
 10
-2016.325
 20
207.8858
  0
VERTEX
  8
LIVELLO_1
 62
     5
 10
-2016.325
 20
209.9858
  0
VERTEX
  8
LIVELLO_1
 62
     5
 10
-2014.975
 20
209.9858
  0
VERTEX
  8
LIVELLO_1
 62
     5
 10
-2014.975
 20
212.036
  0
VERTEX
  8
LIVELLO_1
 62
     5
 10
-2012.275
 20
212.036
  0
VERTEX
  8
LIVELLO_1
 62
     5
 10
-2012.275
 20
209.9858
  0
VERTEX
  8
LIVELLO_1
 62
     5
 10
-2010.925
 20
209.9858
  0
VERTEX
  8
LIVELLO_1
 62
     5
 10
-2010.925
 20
207.8858
  0
VERTEX
  8
LIVELLO_1
 62
     5
 10
-2012.275
 20
207.8858
  0
VERTEX
  8
LIVELLO_1
 62
     5
 10
-2012.275
 20
201.036
  0
VERTEX
  8
LIVELLO_1
 62
     5
 10
-2005.625
 20
201.036
  0
VERTEX
  8
LIVELLO_1
 62
     5
 10
-2005.625
 20
197.036
  0
VERTEX
  8
LIVELLO_1
 62
     5
 10
-1993.625
 20
197.036
  0
VERTEX
  8
LIVELLO_1
 62
     5
 10
-1993.625
 20
201.036
  0
VERTEX
  8
LIVELLO_1
 62
     5
 10
-1981.625
 20
201.036
  0
VERTEX
  8
LIVELLO_1
 62
     5
 10
-1981.625
 20
306.686
  0
VERTEX
  8
LIVELLO_1
 62
     5
 10
-1988.4748
 20
306.686
  0
VERTEX
  8
LIVELLO_1
 62
     5
 10
-1988.4748
 20
305.336
  0
VERTEX
  8
LIVELLO_1
 62
     5
 10
-1990.5748
 20
305.336
  0
VERTEX
  8
LIVELLO_1
 62
     5
 10
-1990.5748
 20
306.686
  0
VERTEX
  8
LIVELLO_1
 62
     5
 10
-1992.625
 20
306.686
  0
VERTEX
  8
LIVELLO_1
 62
     5
 10
-1992.625
 20
309.386
  0
VERTEX
  8
LIVELLO_1
 62
     5
 10
-1990.5748
 20
309.386
  0
VERTEX
  8
LIVELLO_1
 62
     5
 10
-1990.5748
 20
310.736
  0
VERTEX
  8
LIVELLO_1
 62
     5
 10
-1988.4748
 20
310.736
  0
VERTEX
  8
LIVELLO_1
 62
     5
 10
-1988.4748
 20
309.386
  0
VERTEX
  8
LIVELLO_1
 62
     5
 10
-1981.625
 20
309.386
  0
VERTEX
  8
LIVELLO_1
 62
     5
 10
-1981.625
 20
415.036
  0
VERTEX
  8
LIVELLO_1
 62
     5
 10
-1993.625
 20
415.036
  0
VERTEX
  8
LIVELLO_1
 62
     5
 10
-1993.625
 20
419.036
  0
VERTEX
  8
LIVELLO_1
 62
     5
 10
-2005.625
 20
419.036
  0
VERTEX
  8
LIVELLO_1
 62
     5
 10
-2005.625
 20
415.036
  0
VERTEX
  8
LIVELLO_1
 62
     5
 10
-2012.275
 20
415.036
  0
VERTEX
  8
LIVELLO_1
 62
     5
 10
-2012.275
 20
408.1862
  0
VERTEX
  8
LIVELLO_1
 62
     5
 10
-2010.925
 20
408.1862
  0
VERTEX
  8
LIVELLO_1
 62
     5
 10
-2010.925
 20
406.0862
  0
VERTEX
  8
LIVELLO_1
 62
     5
 10
-2012.275
 20
406.0862
  0
VERTEX
  8
LIVELLO_1
 62
     5
 10
-2012.275
 20
404.036
  0
VERTEX
  8
LIVELLO_1
 62
     5
 10
-2014.975
 20
404.036
  0
VERTEX
  8
LIVELLO_1
 62
     5
 10
-2014.975
 20
406.0862
  0
VERTEX
  8
LIVELLO_1
 62
     5
 10
-2016.325
 20
406.0862
  0
VERTEX
  8
LIVELLO_1
 62
     5
 10
-2016.325
 20
408.1862
  0
VERTEX
  8
LIVELLO_1
 62
     5
 10
-2014.975
 20
408.1862
  0
VERTEX
  8
LIVELLO_1
 62
     5
 10
-2014.975
 20
415.036
  0
VERTEX
  8
LIVELLO_1
 62
     5
 10
-2021.625
 20
415.036
  0
VERTEX
  8
LIVELLO_1
 62
     5
 10
-2021.625
 20
419.036
  0
VERTEX
  8
LIVELLO_1
 62
     5
 10
-2033.625
 20
419.036
  0
VERTEX
  8
LIVELLO_1
 62
     5
 10
-2033.625
 20
415.036
  0
VERTEX
  8
LIVELLO_1
 62
     5
 10
-2055.625
 20
415.036
  0
VERTEX
  8
LIVELLO_1
 62
     5
 10
-2055.625
 20
419.036
  0
VERTEX
  8
LIVELLO_1
 62
     5
 10
-2067.625
 20
419.036
  0
VERTEX
  8
LIVELLO_1
 62
     5
 10
-2067.625
 20
415.036
  0
VERTEX
  8
LIVELLO_1
 62
     5
 10
-2074.275
 20
415.036
  0
VERTEX
  8
LIVELLO_1
 62
     5
 10
-2074.275
 20
408.1862
  0
VERTEX
  8
LIVELLO_1
 62
     5
 10
-2072.925
 20
408.1862
  0
VERTEX
  8
LIVELLO_1
 62
     5
 10
-2072.925
 20
406.0862
  0
VERTEX
  8
LIVELLO_1
 62
     5
 10
-2074.275
 20
406.0862
  0
VERTEX
  8
LIVELLO_1
 62
     5
 10
-2074.275
 20
404.036
  0
VERTEX
  8
LIVELLO_1
 62
     5
 10
-2076.975
 20
404.036
  0
VERTEX
  8
LIVELLO_1
 62
     5
 10
-2076.975
 20
406.0862
  0
VERTEX
  8
LIVELLO_1
 62
     5
 10
-2078.325
 20
406.0862
  0
VERTEX
  8
LIVELLO_1
 62
     5
 10
-2078.325
 20
408.1862
  0
VERTEX
  8
LIVELLO_1
 62
     5
 10
-2076.975
 20
408.1862
  0
VERTEX
  8
LIVELLO_1
 62
     5
 10
-2076.975
 20
415.036
  0
VERTEX
  8
LIVELLO_1
 62
     5
 10
-2083.625
 20
415.036
  0
VERTEX
  8
LIVELLO_1
 62
     5
 10
-2083.625
 20
419.036
  0
VERTEX
  8
LIVELLO_1
 62
     5
 10
-2095.625
 20
419.036
  0
VERTEX
  8
LIVELLO_1
 62
     5
 10
-2095.625
 20
415.036
  0
VERTEX
  8
LIVELLO_1
 62
     5
 10
-2107.625
 20
415.036
  0
SEQEND
  8
LIVELLO_1
 62
     5
  0
POLYLINE
  8
LIVELLO_1
 62
     3
 66
     1
 70
     1
  0
VERTEX
  8
LIVELLO_1
 62
     3
 10
-2074.025
 20
310.036
  0
VERTEX
  8
LIVELLO_1
 62
     3
 10
-2074.025
 20
306.036
  0
VERTEX
  8
LIVELLO_1
 62
     3
 10
-2083.625
 20
306.036
  0
VERTEX
  8
LIVELLO_1
 62
     3
 10
-2083.625
 20
310.036
  0
VERTEX
  8
LIVELLO_1
 62
     3
 10
-2074.025
 20
310.036
  0
SEQEND
  8
LIVELLO_1
 62
     3
  0
POLYLINE
  8
LIVELLO_1
 62
     3
 66
     1
 70
     1
  0
VERTEX
  8
LIVELLO_1
 62
     3
 10
-2035.025
 20
310.036
  0
VERTEX
  8
LIVELLO_1
 62
     3
 10
-2035.025
 20
306.036
  0
VERTEX
  8
LIVELLO_1
 62
     3
 10
-2044.625
 20
306.036
  0
VERTEX
  8
LIVELLO_1
 62
     3
 10
-2044.625
 20
310.036
  0
VERTEX
  8
LIVELLO_1
 62
     3
 10
-2035.025
 20
310.036
  0
SEQEND
  8
LIVELLO_1
 62
     3
  0
POLYLINE
  8
LIVELLO_1
 62
     5
 66
     1
 70
     1
  0
VERTEX
  8
LIVELLO_1
 62
     5
 10
-805.2994
 20
415.036
  0
VERTEX
  8
LIVELLO_1
 62
     5
 10
-805.2994
 20
201.036
  0
VERTEX
  8
LIVELLO_1
 62
     5
 10
-793.2994
 20
201.036
  0
VERTEX
  8
LIVELLO_1
 62
     5
 10
-793.2994
 20
197.036
  0
VERTEX
  8
LIVELLO_1
 62
     5
 10
-781.2994
 20
197.036
  0
VERTEX
  8
LIVELLO_1
 62
     5
 10
-781.2994
 20
201.036
  0
VERTEX
  8
LIVELLO_1
 62
     5
 10
-774.6494
 20
201.036
  0
VERTEX
  8
LIVELLO_1
 62
     5
 10
-774.6494
 20
207.8858
  0
VERTEX
  8
LIVELLO_1
 62
     5
 10
-775.9994
 20
207.8858
  0
VERTEX
  8
LIVELLO_1
 62
     5
 10
-775.9994
 20
209.9858
  0
VERTEX
  8
LIVELLO_1
 62
     5
 10
-774.6494
 20
209.9858
  0
VERTEX
  8
LIVELLO_1
 62
     5
 10
-774.6494
 20
212.036
  0
VERTEX
  8
LIVELLO_1
 62
     5
 10
-771.9494
 20
212.036
  0
VERTEX
  8
LIVELLO_1
 62
     5
 10
-771.9494
 20
209.9858
  0
VERTEX
  8
LIVELLO_1
 62
     5
 10
-770.5994
 20
209.9858
  0
VERTEX
  8
LIVELLO_1
 62
     5
 10
-770.5994
 20
207.8858
  0
VERTEX
  8
LIVELLO_1
 62
     5
 10
-771.9494
 20
207.8858
  0
VERTEX
  8
LIVELLO_1
 62
     5
 10
-771.9494
 20
201.036
  0
VERTEX
  8
LIVELLO_1
 62
     5
 10
-765.2994
 20
201.036
  0
VERTEX
  8
LIVELLO_1
 62
     5
 10
-765.2994
 20
197.036
  0
VERTEX
  8
LIVELLO_1
 62
     5
 10
-753.2994
 20
197.036
  0
VERTEX
  8
LIVELLO_1
 62
     5
 10
-753.2994
 20
201.036
  0
VERTEX
  8
LIVELLO_1
 62
     5
 10
-731.2994
 20
201.036
  0
VERTEX
  8
LIVELLO_1
 62
     5
 10
-731.2994
 20
197.036
  0
VERTEX
  8
LIVELLO_1
 62
     5
 10
-719.2994
 20
197.036
  0
VERTEX
  8
LIVELLO_1
 62
     5
 10
-719.2994
 20
201.036
  0
VERTEX
  8
LIVELLO_1
 62
     5
 10
-712.6494
 20
201.036
  0
VERTEX
  8
LIVELLO_1
 62
     5
 10
-712.6494
 20
207.8858
  0
VERTEX
  8
LIVELLO_1
 62
     5
 10
-713.9994
 20
207.8858
  0
VERTEX
  8
LIVELLO_1
 62
     5
 10
-713.9994
 20
209.9858
  0
VERTEX
  8
LIVELLO_1
 62
     5
 10
-712.6494
 20
209.9858
  0
VERTEX
  8
LIVELLO_1
 62
     5
 10
-712.6494
 20
212.036
  0
VERTEX
  8
LIVELLO_1
 62
     5
 10
-709.9494
 20
212.036
  0
VERTEX
  8
LIVELLO_1
 62
     5
 10
-709.9494
 20
209.9858
  0
VERTEX
  8
LIVELLO_1
 62
     5
 10
-708.5994
 20
209.9858
  0
VERTEX
  8
LIVELLO_1
 62
     5
 10
-708.5994
 20
207.8858
  0
VERTEX
  8
LIVELLO_1
 62
     5
 10
-709.9494
 20
207.8858
  0
VERTEX
  8
LIVELLO_1
 62
     5
 10
-709.9494
 20
201.036
  0
VERTEX
  8
LIVELLO_1
 62
     5
 10
-703.2994
 20
201.036
  0
VERTEX
  8
LIVELLO_1
 62
     5
 10
-703.2994
 20
197.036
  0
VERTEX
  8
LIVELLO_1
 62
     5
 10
-691.2994
 20
197.036
  0
VERTEX
  8
LIVELLO_1
 62
     5
 10
-691.2994
 20
201.036
  0
VERTEX
  8
LIVELLO_1
 62
     5
 10
-679.2994
 20
201.036
  0
VERTEX
  8
LIVELLO_1
 62
     5
 10
-679.2994
 20
306.686
  0
VERTEX
  8
LIVELLO_1
 62
     5
 10
-686.1492
 20
306.686
  0
VERTEX
  8
LIVELLO_1
 62
     5
 10
-686.1492
 20
305.336
  0
VERTEX
  8
LIVELLO_1
 62
     5
 10
-688.2492
 20
305.336
  0
VERTEX
  8
LIVELLO_1
 62
     5
 10
-688.2492
 20
306.686
  0
VERTEX
  8
LIVELLO_1
 62
     5
 10
-690.2994
 20
306.686
  0
VERTEX
  8
LIVELLO_1
 62
     5
 10
-690.2994
 20
309.386
  0
VERTEX
  8
LIVELLO_1
 62
     5
 10
-688.2492
 20
309.386
  0
VERTEX
  8
LIVELLO_1
 62
     5
 10
-688.2492
 20
310.736
  0
VERTEX
  8
LIVELLO_1
 62
     5
 10
-686.1492
 20
310.736
  0
VERTEX
  8
LIVELLO_1
 62
     5
 10
-686.1492
 20
309.386
  0
VERTEX
  8
LIVELLO_1
 62
     5
 10
-679.2994
 20
309.386
  0
VERTEX
  8
LIVELLO_1
 62
     5
 10
-679.2994
 20
415.036
  0
VERTEX
  8
LIVELLO_1
 62
     5
 10
-691.2994
 20
415.036
  0
VERTEX
  8
LIVELLO_1
 62
     5
 10
-691.2994
 20
419.036
  0
VERTEX
  8
LIVELLO_1
 62
     5
 10
-703.2994
 20
419.036
  0
VERTEX
  8
LIVELLO_1
 62
     5
 10
-703.2994
 20
415.036
  0
VERTEX
  8
LIVELLO_1
 62
     5
 10
-709.9494
 20
415.036
  0
VERTEX
  8
LIVELLO_1
 62
     5
 10
-709.9494
 20
408.1862
  0
VERTEX
  8
LIVELLO_1
 62
     5
 10
-708.5994
 20
408.1862
  0
VERTEX
  8
LIVELLO_1
 62
     5
 10
-708.5994
 20
406.0862
  0
VERTEX
  8
LIVELLO_1
 62
     5
 10
-709.9494
 20
406.0862
  0
VERTEX
  8
LIVELLO_1
 62
     5
 10
-709.9494
 20
404.036
  0
VERTEX
  8
LIVELLO_1
 62
     5
 10
-712.6494
 20
404.036
  0
VERTEX
  8
LIVELLO_1
 62
     5
 10
-712.6494
 20
406.0862
  0
VERTEX
  8
LIVELLO_1
 62
     5
 10
-713.9994
 20
406.0862
  0
VERTEX
  8
LIVELLO_1
 62
     5
 10
-713.9994
 20
408.1862
  0
VERTEX
  8
LIVELLO_1
 62
     5
 10
-712.6494
 20
408.1862
  0
VERTEX
  8
LIVELLO_1
 62
     5
 10
-712.6494
 20
415.036
  0
VERTEX
  8
LIVELLO_1
 62
     5
 10
-719.2994
 20
415.036
  0
VERTEX
  8
LIVELLO_1
 62
     5
 10
-719.2994
 20
419.036
  0
VERTEX
  8
LIVELLO_1
 62
     5
 10
-731.2994
 20
419.036
  0
VERTEX
  8
LIVELLO_1
 62
     5
 10
-731.2994
 20
415.036
  0
VERTEX
  8
LIVELLO_1
 62
     5
 10
-753.2994
 20
415.036
  0
VERTEX
  8
LIVELLO_1
 62
     5
 10
-753.2994
 20
419.036
  0
VERTEX
  8
LIVELLO_1
 62
     5
 10
-765.2994
 20
419.036
  0
VERTEX
  8
LIVELLO_1
 62
     5
 10
-765.2994
 20
415.036
  0
VERTEX
  8
LIVELLO_1
 62
     5
 10
-771.9494
 20
415.036
  0
VERTEX
  8
LIVELLO_1
 62
     5
 10
-771.9494
 20
408.1862
  0
VERTEX
  8
LIVELLO_1
 62
     5
 10
-770.5994
 20
408.1862
  0
VERTEX
  8
LIVELLO_1
 62
     5
 10
-770.5994
 20
406.0862
  0
VERTEX
  8
LIVELLO_1
 62
     5
 10
-771.9494
 20
406.0862
  0
VERTEX
  8
LIVELLO_1
 62
     5
 10
-771.9494
 20
404.036
  0
VERTEX
  8
LIVELLO_1
 62
     5
 10
-774.6494
 20
404.036
  0
VERTEX
  8
LIVELLO_1
 62
     5
 10
-774.6494
 20
406.0862
  0
VERTEX
  8
LIVELLO_1
 62
     5
 10
-775.9994
 20
406.0862
  0
VERTEX
  8
LIVELLO_1
 62
     5
 10
-775.9994
 20
408.1862
  0
VERTEX
  8
LIVELLO_1
 62
     5
 10
-774.6494
 20
408.1862
  0
VERTEX
  8
LIVELLO_1
 62
     5
 10
-774.6494
 20
415.036
  0
VERTEX
  8
LIVELLO_1
 62
     5
 10
-781.2994
 20
415.036
  0
VERTEX
  8
LIVELLO_1
 62
     5
 10
-781.2994
 20
419.036
  0
VERTEX
  8
LIVELLO_1
 62
     5
 10
-793.2994
 20
419.036
  0
VERTEX
  8
LIVELLO_1
 62
     5
 10
-793.2994
 20
415.036
  0
VERTEX
  8
LIVELLO_1
 62
     5
 10
-805.2994
 20
415.036
  0
SEQEND
  8
LIVELLO_1
 62
     5
  0
POLYLINE
  8
LIVELLO_1
 62
     3
 66
     1
 70
     1
  0
VERTEX
  8
LIVELLO_1
 62
     3
 10
-771.6994
 20
310.036
  0
VERTEX
  8
LIVELLO_1
 62
     3
 10
-771.6994
 20
306.036
  0
VERTEX
  8
LIVELLO_1
 62
     3
 10
-781.2994
 20
306.036
  0
VERTEX
  8
LIVELLO_1
 62
     3
 10
-781.2994
 20
310.036
  0
VERTEX
  8
LIVELLO_1
 62
     3
 10
-771.6994
 20
310.036
  0
SEQEND
  8
LIVELLO_1
 62
     3
  0
POLYLINE
  8
LIVELLO_1
 62
     3
 66
     1
 70
     1
  0
VERTEX
  8
LIVELLO_1
 62
     3
 10
-732.6994
 20
310.036
  0
VERTEX
  8
LIVELLO_1
 62
     3
 10
-732.6994
 20
306.036
  0
VERTEX
  8
LIVELLO_1
 62
     3
 10
-742.2994
 20
306.036
  0
VERTEX
  8
LIVELLO_1
 62
     3
 10
-742.2994
 20
310.036
  0
VERTEX
  8
LIVELLO_1
 62
     3
 10
-732.6994
 20
310.036
  0
SEQEND
  8
LIVELLO_1
 62
     3
  0
ENDSEC
  0
EOF
