  0
SECTION
  2
HEADER
  9
$ACADVER
  1
AC1002
  9
$INSBASE
 10
0.0
 20
0.0
  9
$EXTMIN
 10
273.0704
 20
-308.6314
  9
$EXTMAX
 10
973.0703
 20
391.3686
  9
$LIMMIN
 10
0.0
 20
0.0
  9
$LIMMAX
 10
12.0
 20
9.0
  9
$ORTHOMODE
 70
     0
  9
$REGENMODE
 70
     1
  9
$FILLMODE
 70
     1
  9
$QTEXTMODE
 70
     0
  9
$DRAGMODE
 70
     2
  9
$LTSCALE
 40
1.0
  9
$OSMODE
 70
    37
  9
$ATTMODE
 70
     1
  9
$TEXTSIZE
 40
0.2
  9
$TRACEWID
 40
0.05
  9
$TEXTSTYLE
  7
STANDARD
  9
$CLAYER
  8
0
  9
$CELTYPE
  6
BYLAYER
  9
$CECOLOR
 62
   256
  9
$DIMSCALE
 40
1.0
  9
$DIMASZ
 40
0.18
  9
$DIMEXO
 40
0.0625
  9
$DIMDLI
 40
0.38
  9
$DIMRND
 40
0.0
  9
$DIMDLE
 40
0.0
  9
$DIMEXE
 40
0.18
  9
$DIMTP
 40
0.0
  9
$DIMTM
 40
0.0
  9
$DIMTXT
 40
0.18
  9
$DIMCEN
 40
0.09
  9
$DIMTSZ
 40
0.0
  9
$DIMTOL
 70
     0
  9
$DIMLIM
 70
     0
  9
$DIMTIH
 70
     1
  9
$DIMTOH
 70
     1
  9
$DIMSE1
 70
     0
  9
$DIMSE2
 70
     0
  9
$DIMTAD
 70
     0
  9
$DIMZIN
 70
     0
  9
$DIMBLK
  1

  9
$LUNITS
 70
     2
  9
$LUPREC
 70
     4
  9
$SKETCHINC
 40
0.1
  9
$FILLETRAD
 40
0.5
  9
$AUNITS
 70
     0
  9
$AUPREC
 70
     0
  9
$MENU
  1
.
  9
$ELEVATION
 40
0.0
  9
$THICKNESS
 40
0.0
  9
$LIMCHECK
 70
     0
  9
$CHAMFERA
 40
0.0
  9
$CHAMFERB
 40
0.0
  9
$SKPOLY
 70
     0
  9
$TDCREATE
 40
2457170.699258981
  9
$TDUPDATE
 40
2457170.699259005
  9
$TDINDWG
 40
0.0000000116
  9
$TDUSRTIMER
 40
0.0000000116
  9
$USRTIMER
 70
     1
  9
$ANGBASE
 50
0.0
  9
$ANGDIR
 70
     0
  9
$PDMODE
 70
     0
  9
$PDSIZE
 40
0.0
  9
$PLINEWID
 40
0.0
  9
$COORDS
 70
     1
  9
$SURFTAB1
 70
     6
  9
$SURFTAB2
 70
     6
  9
$SURFTYPE
 70
     6
  9
$SURFU
 70
     6
  9
$SURFV
 70
     6
  9
$UCSNAME
  2

  9
$UCSORG
 10
0.0
 20
0.0
 30
0.0
  9
$UCSXDIR
 10
1.0
 20
0.0
 30
0.0
  9
$UCSYDIR
 10
0.0
 20
1.0
 30
0.0
  9
$USERI1
 70
     0
  9
$USERI2
 70
     0
  9
$USERI3
 70
     0
  9
$USERI4
 70
     0
  9
$USERI5
 70
     0
  9
$USERR1
 40
0.0
  9
$USERR2
 40
0.0
  9
$USERR3
 40
0.0
  9
$USERR4
 40
0.0
  9
$USERR5
 40
0.0
  0
ENDSEC
  0
SECTION
  2
TABLES
  0
TABLE
  2
LTYPE
 70
     1
  0
LTYPE
  2
CONTINUOUS
 70
     0
  3
Solid line
 72
    65
 73
     0
 40
0.0
  0
ENDTAB
  0
TABLE
  2
LAYER
 70
     2
  0
LAYER
  2
0
 70
     0
 62
     7
  6
CONTINUOUS
  0
LAYER
  2
LIVELLO_1
 70
     0
 62
     7
  6
CONTINUOUS
  0
ENDTAB
  0
TABLE
  2
STYLE
 70
     1
  0
STYLE
  2
STANDARD
 70
     0
 40
0.0
 41
1.0
 50
0.0
 71
     0
 42
0.2
  3
txt
  4

  0
ENDTAB
  0
TABLE
  2
VIEW
 70
     0
  0
ENDTAB
  0
ENDSEC
  0
SECTION
  2
BLOCKS
  0
ENDSEC
  0
SECTION
  2
ENTITIES
  0
POLYLINE
  8
LIVELLO_1
 62
     7
 66
     1
 70
     1
  0
VERTEX
  8
LIVELLO_1
 62
     7
 10
273.0704
 20
-308.6314
  0
VERTEX
  8
LIVELLO_1
 62
     7
 10
973.0702
 20
-308.6314
  0
VERTEX
  8
LIVELLO_1
 62
     7
 10
973.0702
 20
391.3686
  0
VERTEX
  8
LIVELLO_1
 62
     7
 10
273.0704
 20
391.3686
  0
VERTEX
  8
LIVELLO_1
 62
     7
 10
273.0704
 20
-308.6314
  0
SEQEND
  8
LIVELLO_1
 62
     7
  0
POLYLINE
  8
LIVELLO_1
 66
     1
 70
     1
  0
VERTEX
  8
LIVELLO_1
 10
273.0704
 20
-308.6314
  0
VERTEX
  8
LIVELLO_1
 10
273.0704
 20
391.3686
  0
VERTEX
  8
LIVELLO_1
 10
973.0703
 20
391.3686
  0
VERTEX
  8
LIVELLO_1
 10
973.0703
 20
-308.6314
  0
VERTEX
  8
LIVELLO_1
 10
273.0704
 20
-308.6314
  0
SEQEND
  8
LIVELLO_1
  0
POLYLINE
  8
LIVELLO_1
 66
     1
 70
     1
  0
VERTEX
  8
LIVELLO_1
 10
457.8971
 20
41.3686
  0
VERTEX
  8
LIVELLO_1
 10
459.1706
 20
59.1672
  0
VERTEX
  8
LIVELLO_1
 10
462.823
 20
75.7449
  0
VERTEX
  8
LIVELLO_1
 10
468.6022
 20
90.7465
  0
VERTEX
  8
LIVELLO_1
 10
476.2563
 20
103.817
  0
VERTEX
  8
LIVELLO_1
 10
485.5331
 20
114.601
  0
VERTEX
  8
LIVELLO_1
 10
496.1806
 20
122.7436
  0
VERTEX
  8
LIVELLO_1
 10
507.9467
 20
127.8896
  0
VERTEX
  8
LIVELLO_1
 10
520.5794
 20
129.6839
  0
VERTEX
  8
LIVELLO_1
 10
529.9942
 20
128.6943
  0
VERTEX
  8
LIVELLO_1
 10
538.9711
 20
125.8214
  0
VERTEX
  8
LIVELLO_1
 10
547.4081
 20
121.2086
  0
VERTEX
  8
LIVELLO_1
 10
555.2033
 20
114.9997
  0
VERTEX
  8
LIVELLO_1
 10
562.2548
 20
107.3381
  0
VERTEX
  8
LIVELLO_1
 10
568.4606
 20
98.3676
  0
VERTEX
  8
LIVELLO_1
 10
573.7189
 20
88.2317
  0
VERTEX
  8
LIVELLO_1
 10
577.9277
 20
77.0741
  0
VERTEX
  8
LIVELLO_1
 10
578.0099
 20
76.7909
  0
VERTEX
  8
LIVELLO_1
 10
577.4375
 20
76.6589
  0
VERTEX
  8
LIVELLO_1
 10
574.6088
 20
75.3806
  0
VERTEX
  8
LIVELLO_1
 10
571.9876
 20
73.0194
  0
VERTEX
  8
LIVELLO_1
 10
569.6231
 20
69.6859
  0
VERTEX
  8
LIVELLO_1
 10
567.5644
 20
65.4906
  0
VERTEX
  8
LIVELLO_1
 10
565.8606
 20
60.5441
  0
VERTEX
  8
LIVELLO_1
 10
564.5607
 20
54.957
  0
VERTEX
  8
LIVELLO_1
 10
563.714
 20
48.8399
  0
VERTEX
  8
LIVELLO_1
 10
563.3695
 20
42.3033
  0
VERTEX
  8
LIVELLO_1
 10
563.3641
 20
41.3686
  0
VERTEX
  8
LIVELLO_1
 10
563.3695
 20
40.4339
  0
VERTEX
  8
LIVELLO_1
 10
563.714
 20
33.8973
  0
VERTEX
  8
LIVELLO_1
 10
564.5607
 20
27.7802
  0
VERTEX
  8
LIVELLO_1
 10
565.8606
 20
22.1931
  0
VERTEX
  8
LIVELLO_1
 10
567.5644
 20
17.2466
  0
VERTEX
  8
LIVELLO_1
 10
569.6231
 20
13.0513
  0
VERTEX
  8
LIVELLO_1
 10
571.9876
 20
9.7178
  0
VERTEX
  8
LIVELLO_1
 10
574.6088
 20
7.3566
  0
VERTEX
  8
LIVELLO_1
 10
577.4375
 20
6.0783
  0
VERTEX
  8
LIVELLO_1
 10
578.0099
 20
5.9463
  0
VERTEX
  8
LIVELLO_1
 10
577.9277
 20
5.6631
  0
VERTEX
  8
LIVELLO_1
 10
573.7189
 20
-5.4945
  0
VERTEX
  8
LIVELLO_1
 10
568.4606
 20
-15.6304
  0
VERTEX
  8
LIVELLO_1
 10
562.2548
 20
-24.6009
  0
VERTEX
  8
LIVELLO_1
 10
555.2033
 20
-32.2625
  0
VERTEX
  8
LIVELLO_1
 10
547.4081
 20
-38.4714
  0
VERTEX
  8
LIVELLO_1
 10
538.9711
 20
-43.0842
  0
VERTEX
  8
LIVELLO_1
 10
529.9942
 20
-45.9571
  0
VERTEX
  8
LIVELLO_1
 10
520.5794
 20
-46.9467
  0
VERTEX
  8
LIVELLO_1
 10
507.9467
 20
-45.1524
  0
VERTEX
  8
LIVELLO_1
 10
496.1806
 20
-40.0064
  0
VERTEX
  8
LIVELLO_1
 10
485.5331
 20
-31.8638
  0
VERTEX
  8
LIVELLO_1
 10
476.2563
 20
-21.0798
  0
VERTEX
  8
LIVELLO_1
 10
468.6022
 20
-8.0093
  0
VERTEX
  8
LIVELLO_1
 10
462.823
 20
6.9923
  0
VERTEX
  8
LIVELLO_1
 10
459.1706
 20
23.57
  0
VERTEX
  8
LIVELLO_1
 10
457.8971
 20
41.3686
  0
SEQEND
  8
LIVELLO_1
  0
POLYLINE
  8
LIVELLO_1
 66
     1
 70
     1
  0
VERTEX
  8
LIVELLO_1
 10
788.2437
 20
41.3686
  0
VERTEX
  8
LIVELLO_1
 10
786.9702
 20
23.57
  0
VERTEX
  8
LIVELLO_1
 10
783.3178
 20
6.9923
  0
VERTEX
  8
LIVELLO_1
 10
777.5386
 20
-8.0093
  0
VERTEX
  8
LIVELLO_1
 10
769.8845
 20
-21.0798
  0
VERTEX
  8
LIVELLO_1
 10
760.6077
 20
-31.8638
  0
VERTEX
  8
LIVELLO_1
 10
749.9602
 20
-40.0064
  0
VERTEX
  8
LIVELLO_1
 10
738.1941
 20
-45.1524
  0
VERTEX
  8
LIVELLO_1
 10
725.5614
 20
-46.9467
  0
VERTEX
  8
LIVELLO_1
 10
716.1466
 20
-45.9571
  0
VERTEX
  8
LIVELLO_1
 10
707.1697
 20
-43.0842
  0
VERTEX
  8
LIVELLO_1
 10
698.7327
 20
-38.4714
  0
VERTEX
  8
LIVELLO_1
 10
690.9375
 20
-32.2625
  0
VERTEX
  8
LIVELLO_1
 10
683.886
 20
-24.6009
  0
VERTEX
  8
LIVELLO_1
 10
677.6802
 20
-15.6304
  0
VERTEX
  8
LIVELLO_1
 10
672.4219
 20
-5.4945
  0
VERTEX
  8
LIVELLO_1
 10
668.2131
 20
5.6631
  0
VERTEX
  8
LIVELLO_1
 10
668.1309
 20
5.9463
  0
VERTEX
  8
LIVELLO_1
 10
668.7033
 20
6.0783
  0
VERTEX
  8
LIVELLO_1
 10
671.532
 20
7.3566
  0
VERTEX
  8
LIVELLO_1
 10
674.1532
 20
9.7178
  0
VERTEX
  8
LIVELLO_1
 10
676.5177
 20
13.0513
  0
VERTEX
  8
LIVELLO_1
 10
678.5764
 20
17.2466
  0
VERTEX
  8
LIVELLO_1
 10
680.2802
 20
22.1931
  0
VERTEX
  8
LIVELLO_1
 10
681.5801
 20
27.7802
  0
VERTEX
  8
LIVELLO_1
 10
682.4268
 20
33.8973
  0
VERTEX
  8
LIVELLO_1
 10
682.7713
 20
40.4339
  0
VERTEX
  8
LIVELLO_1
 10
682.7767
 20
41.3686
  0
VERTEX
  8
LIVELLO_1
 10
682.7713
 20
42.3033
  0
VERTEX
  8
LIVELLO_1
 10
682.4268
 20
48.8399
  0
VERTEX
  8
LIVELLO_1
 10
681.5801
 20
54.957
  0
VERTEX
  8
LIVELLO_1
 10
680.2802
 20
60.5441
  0
VERTEX
  8
LIVELLO_1
 10
678.5764
 20
65.4906
  0
VERTEX
  8
LIVELLO_1
 10
676.5177
 20
69.6859
  0
VERTEX
  8
LIVELLO_1
 10
674.1532
 20
73.0194
  0
VERTEX
  8
LIVELLO_1
 10
671.532
 20
75.3806
  0
VERTEX
  8
LIVELLO_1
 10
668.7033
 20
76.6589
  0
VERTEX
  8
LIVELLO_1
 10
668.1309
 20
76.7909
  0
VERTEX
  8
LIVELLO_1
 10
668.2131
 20
77.0741
  0
VERTEX
  8
LIVELLO_1
 10
672.4219
 20
88.2317
  0
VERTEX
  8
LIVELLO_1
 10
677.6802
 20
98.3676
  0
VERTEX
  8
LIVELLO_1
 10
683.886
 20
107.3381
  0
VERTEX
  8
LIVELLO_1
 10
690.9375
 20
114.9997
  0
VERTEX
  8
LIVELLO_1
 10
698.7327
 20
121.2086
  0
VERTEX
  8
LIVELLO_1
 10
707.1697
 20
125.8214
  0
VERTEX
  8
LIVELLO_1
 10
716.1466
 20
128.6943
  0
VERTEX
  8
LIVELLO_1
 10
725.5614
 20
129.6839
  0
VERTEX
  8
LIVELLO_1
 10
738.1941
 20
127.8896
  0
VERTEX
  8
LIVELLO_1
 10
749.9602
 20
122.7436
  0
VERTEX
  8
LIVELLO_1
 10
760.6077
 20
114.601
  0
VERTEX
  8
LIVELLO_1
 10
769.8845
 20
103.817
  0
VERTEX
  8
LIVELLO_1
 10
777.5386
 20
90.7465
  0
VERTEX
  8
LIVELLO_1
 10
783.3178
 20
75.7449
  0
VERTEX
  8
LIVELLO_1
 10
786.9702
 20
59.1672
  0
VERTEX
  8
LIVELLO_1
 10
788.2437
 20
41.3686
  0
SEQEND
  8
LIVELLO_1
  0
POLYLINE
  8
LIVELLO_1
 66
     1
 70
     1
  0
VERTEX
  8
LIVELLO_1
 10
673.7453
 20
41.3686
  0
VERTEX
  8
LIVELLO_1
 10
673.5189
 20
35.6207
  0
VERTEX
  8
LIVELLO_1
 10
672.8633
 20
30.1688
  0
VERTEX
  8
LIVELLO_1
 10
671.8144
 20
25.0862
  0
VERTEX
  8
LIVELLO_1
 10
670.4078
 20
20.446
  0
VERTEX
  8
LIVELLO_1
 10
668.6792
 20
16.3213
  0
VERTEX
  8
LIVELLO_1
 10
666.6643
 20
12.7853
  0
VERTEX
  8
LIVELLO_1
 10
664.3988
 20
9.9111
  0
VERTEX
  8
LIVELLO_1
 10
661.9183
 20
7.772
  0
VERTEX
  8
LIVELLO_1
 10
668.5356
 20
-14.2863
  0
VERTEX
  8
LIVELLO_1
 10
678.1734
 20
-34.5228
  0
VERTEX
  8
LIVELLO_1
 10
690.5257
 20
-52.5925
  0
VERTEX
  8
LIVELLO_1
 10
705.2863
 20
-68.1504
  0
VERTEX
  8
LIVELLO_1
 10
722.1493
 20
-80.8514
  0
VERTEX
  8
LIVELLO_1
 10
740.8084
 20
-90.3508
  0
VERTEX
  8
LIVELLO_1
 10
760.9577
 20
-96.3033
  0
VERTEX
  8
LIVELLO_1
 10
782.291
 20
-98.3642
  0
VERTEX
  8
LIVELLO_1
 10
786.5063
 20
-98.285
  0
VERTEX
  8
LIVELLO_1
 10
790.6864
 20
-98.0489
  0
VERTEX
  8
LIVELLO_1
 10
794.8289
 20
-97.6585
  0
VERTEX
  8
LIVELLO_1
 10
798.9318
 20
-97.1164
  0
VERTEX
  8
LIVELLO_1
 10
802.9926
 20
-96.4249
  0
VERTEX
  8
LIVELLO_1
 10
807.0093
 20
-95.5867
  0
VERTEX
  8
LIVELLO_1
 10
810.9795
 20
-94.6043
  0
VERTEX
  8
LIVELLO_1
 10
814.9011
 20
-93.4802
  0
VERTEX
  8
LIVELLO_1
 10
823.7686
 20
-90.3988
  0
VERTEX
  8
LIVELLO_1
 10
832.1795
 20
-86.7498
  0
VERTEX
  8
LIVELLO_1
 10
840.134
 20
-82.5634
  0
VERTEX
  8
LIVELLO_1
 10
847.6324
 20
-77.8697
  0
VERTEX
  8
LIVELLO_1
 10
854.675
 20
-72.699
  0
VERTEX
  8
LIVELLO_1
 10
861.2621
 20
-67.0814
  0
VERTEX
  8
LIVELLO_1
 10
867.3938
 20
-61.047
  0
VERTEX
  8
LIVELLO_1
 10
873.0704
 20
-54.626
  0
VERTEX
  8
LIVELLO_1
 10
873.0704
 20
-99.8001
  0
VERTEX
  8
LIVELLO_1
 10
864.5458
 20
-106.2222
  0
VERTEX
  8
LIVELLO_1
 10
855.6287
 20
-111.9029
  0
VERTEX
  8
LIVELLO_1
 10
846.348
 20
-116.8068
  0
VERTEX
  8
LIVELLO_1
 10
836.7326
 20
-120.8985
  0
VERTEX
  8
LIVELLO_1
 10
826.8113
 20
-124.1425
  0
VERTEX
  8
LIVELLO_1
 10
816.6133
 20
-126.5036
  0
VERTEX
  8
LIVELLO_1
 10
806.1673
 20
-127.9462
  0
VERTEX
  8
LIVELLO_1
 10
795.5023
 20
-128.4349
  0
VERTEX
  8
LIVELLO_1
 10
770.4422
 20
-125.7043
  0
VERTEX
  8
LIVELLO_1
 10
746.8543
 20
-117.8314
  0
VERTEX
  8
LIVELLO_1
 10
725.1314
 20
-105.2944
  0
VERTEX
  8
LIVELLO_1
 10
705.6663
 20
-88.5715
  0
VERTEX
  8
LIVELLO_1
 10
688.8519
 20
-68.1408
  0
VERTEX
  8
LIVELLO_1
 10
675.081
 20
-44.4807
  0
VERTEX
  8
LIVELLO_1
 10
664.7465
 20
-18.0693
  0
VERTEX
  8
LIVELLO_1
 10
658.2411
 20
10.6152
  0
VERTEX
  8
LIVELLO_1
 10
657.9148
 20
10.8491
  0
VERTEX
  8
LIVELLO_1
 10
659.3811
 20
13.7402
  0
VERTEX
  8
LIVELLO_1
 10
660.6948
 20
16.9518
  0
VERTEX
  8
LIVELLO_1
 10
661.8426
 20
20.4556
  0
VERTEX
  8
LIVELLO_1
 10
662.8113
 20
24.2233
  0
VERTEX
  8
LIVELLO_1
 10
663.5877
 20
28.2268
  0
VERTEX
  8
LIVELLO_1
 10
664.1587
 20
32.4376
  0
VERTEX
  8
LIVELLO_1
 10
664.5109
 20
36.8277
  0
VERTEX
  8
LIVELLO_1
 10
664.6313
 20
41.3686
  0
VERTEX
  8
LIVELLO_1
 10
664.5109
 20
45.9095
  0
VERTEX
  8
LIVELLO_1
 10
664.1587
 20
50.2996
  0
VERTEX
  8
LIVELLO_1
 10
663.5877
 20
54.5104
  0
VERTEX
  8
LIVELLO_1
 10
662.8113
 20
58.5139
  0
VERTEX
  8
LIVELLO_1
 10
661.8426
 20
62.2816
  0
VERTEX
  8
LIVELLO_1
 10
660.6948
 20
65.7854
  0
VERTEX
  8
LIVELLO_1
 10
659.3811
 20
68.997
  0
VERTEX
  8
LIVELLO_1
 10
657.9148
 20
71.8881
  0
VERTEX
  8
LIVELLO_1
 10
658.2411
 20
72.122
  0
VERTEX
  8
LIVELLO_1
 10
664.7465
 20
100.8065
  0
VERTEX
  8
LIVELLO_1
 10
675.081
 20
127.2179
  0
VERTEX
  8
LIVELLO_1
 10
688.8519
 20
150.878
  0
VERTEX
  8
LIVELLO_1
 10
705.6663
 20
171.3087
  0
VERTEX
  8
LIVELLO_1
 10
725.1314
 20
188.0316
  0
VERTEX
  8
LIVELLO_1
 10
746.8543
 20
200.5686
  0
VERTEX
  8
LIVELLO_1
 10
770.4422
 20
208.4415
  0
VERTEX
  8
LIVELLO_1
 10
795.5023
 20
211.1721
  0
VERTEX
  8
LIVELLO_1
 10
806.1673
 20
210.6834
  0
VERTEX
  8
LIVELLO_1
 10
816.6133
 20
209.2408
  0
VERTEX
  8
LIVELLO_1
 10
826.8113
 20
206.8797
  0
VERTEX
  8
LIVELLO_1
 10
836.7326
 20
203.6357
  0
VERTEX
  8
LIVELLO_1
 10
846.348
 20
199.544
  0
VERTEX
  8
LIVELLO_1
 10
855.6287
 20
194.6401
  0
VERTEX
  8
LIVELLO_1
 10
864.5458
 20
188.9594
  0
VERTEX
  8
LIVELLO_1
 10
873.0704
 20
182.5373
  0
VERTEX
  8
LIVELLO_1
 10
873.0704
 20
137.3632
  0
VERTEX
  8
LIVELLO_1
 10
867.3938
 20
143.7842
  0
VERTEX
  8
LIVELLO_1
 10
861.2621
 20
149.8186
  0
VERTEX
  8
LIVELLO_1
 10
854.675
 20
155.4362
  0
VERTEX
  8
LIVELLO_1
 10
847.6324
 20
160.6069
  0
VERTEX
  8
LIVELLO_1
 10
840.134
 20
165.3006
  0
VERTEX
  8
LIVELLO_1
 10
832.1795
 20
169.487
  0
VERTEX
  8
LIVELLO_1
 10
823.7686
 20
173.136
  0
VERTEX
  8
LIVELLO_1
 10
814.9011
 20
176.2174
  0
VERTEX
  8
LIVELLO_1
 10
810.9795
 20
177.3415
  0
VERTEX
  8
LIVELLO_1
 10
807.0093
 20
178.3239
  0
VERTEX
  8
LIVELLO_1
 10
802.9926
 20
179.1621
  0
VERTEX
  8
LIVELLO_1
 10
798.9318
 20
179.8536
  0
VERTEX
  8
LIVELLO_1
 10
794.8289
 20
180.3957
  0
VERTEX
  8
LIVELLO_1
 10
790.6864
 20
180.7861
  0
VERTEX
  8
LIVELLO_1
 10
786.5063
 20
181.0222
  0
VERTEX
  8
LIVELLO_1
 10
782.291
 20
181.1014
  0
VERTEX
  8
LIVELLO_1
 10
760.9577
 20
179.0405
  0
VERTEX
  8
LIVELLO_1
 10
740.8084
 20
173.088
  0
VERTEX
  8
LIVELLO_1
 10
722.1493
 20
163.5886
  0
VERTEX
  8
LIVELLO_1
 10
705.2863
 20
150.8876
  0
VERTEX
  8
LIVELLO_1
 10
690.5257
 20
135.3297
  0
VERTEX
  8
LIVELLO_1
 10
678.1734
 20
117.26
  0
VERTEX
  8
LIVELLO_1
 10
668.5356
 20
97.0235
  0
VERTEX
  8
LIVELLO_1
 10
661.9183
 20
74.9652
  0
VERTEX
  8
LIVELLO_1
 10
664.3988
 20
72.8261
  0
VERTEX
  8
LIVELLO_1
 10
666.6643
 20
69.9519
  0
VERTEX
  8
LIVELLO_1
 10
668.6792
 20
66.4159
  0
VERTEX
  8
LIVELLO_1
 10
670.4078
 20
62.2912
  0
VERTEX
  8
LIVELLO_1
 10
671.8144
 20
57.651
  0
VERTEX
  8
LIVELLO_1
 10
672.8633
 20
52.5684
  0
VERTEX
  8
LIVELLO_1
 10
673.5189
 20
47.1165
  0
VERTEX
  8
LIVELLO_1
 10
673.7453
 20
41.3686
  0
SEQEND
  8
LIVELLO_1
  0
POLYLINE
  8
LIVELLO_1
 66
     1
 70
     1
  0
VERTEX
  8
LIVELLO_1
 10
873.0704
 20
1.1553
  0
VERTEX
  8
LIVELLO_1
 10
867.6049
 20
-14.9725
  0
VERTEX
  8
LIVELLO_1
 10
860.217
 20
-30.0098
  0
VERTEX
  8
LIVELLO_1
 10
850.9064
 20
-43.6299
  0
VERTEX
  8
LIVELLO_1
 10
839.6729
 20
-55.5062
  0
VERTEX
  8
LIVELLO_1
 10
826.5162
 20
-65.312
  0
VERTEX
  8
LIVELLO_1
 10
811.4361
 20
-72.7206
  0
VERTEX
  8
LIVELLO_1
 10
794.4323
 20
-77.4053
  0
VERTEX
  8
LIVELLO_1
 10
775.5046
 20
-79.0395
  0
VERTEX
  8
LIVELLO_1
 10
756.3512
 20
-77.3996
  0
VERTEX
  8
LIVELLO_1
 10
738.2074
 20
-72.6557
  0
VERTEX
  8
LIVELLO_1
 10
721.3264
 20
-65.0709
  0
VERTEX
  8
LIVELLO_1
 10
705.9613
 20
-54.9086
  0
VERTEX
  8
LIVELLO_1
 10
692.3655
 20
-42.4323
  0
VERTEX
  8
LIVELLO_1
 10
680.7922
 20
-27.9053
  0
VERTEX
  8
LIVELLO_1
 10
671.4945
 20
-11.5908
  0
VERTEX
  8
LIVELLO_1
 10
664.7257
 20
6.2477
  0
VERTEX
  8
LIVELLO_1
 10
665.1012
 20
6.1337
  0
VERTEX
  8
LIVELLO_1
 10
665.4793
 20
6.0387
  0
VERTEX
  8
LIVELLO_1
 10
665.8602
 20
5.9658
  0
VERTEX
  8
LIVELLO_1
 10
666.2441
 20
5.9181
  0
VERTEX
  8
LIVELLO_1
 10
666.2865
 20
5.9143
  0
VERTEX
  8
LIVELLO_1
 10
666.2955
 20
5.8845
  0
VERTEX
  8
LIVELLO_1
 10
671.2758
 20
-7.7716
  0
VERTEX
  8
LIVELLO_1
 10
677.6629
 20
-20.2279
  0
VERTEX
  8
LIVELLO_1
 10
685.3247
 20
-31.293
  0
VERTEX
  8
LIVELLO_1
 10
694.1292
 20
-40.7755
  0
VERTEX
  8
LIVELLO_1
 10
703.9444
 20
-48.484
  0
VERTEX
  8
LIVELLO_1
 10
714.6381
 20
-54.2271
  0
VERTEX
  8
LIVELLO_1
 10
726.0784
 20
-57.8133
  0
VERTEX
  8
LIVELLO_1
 10
738.1332
 20
-59.0512
  0
VERTEX
  8
LIVELLO_1
 10
753.6047
 20
-57.011
  0
VERTEX
  8
LIVELLO_1
 10
768.0148
 20
-51.1597
  0
VERTEX
  8
LIVELLO_1
 10
781.0549
 20
-41.9011
  0
VERTEX
  8
LIVELLO_1
 10
792.4164
 20
-29.6389
  0
VERTEX
  8
LIVELLO_1
 10
801.7904
 20
-14.7771
  0
VERTEX
  8
LIVELLO_1
 10
808.8683
 20
2.2807
  0
VERTEX
  8
LIVELLO_1
 10
813.3415
 20
21.1305
  0
VERTEX
  8
LIVELLO_1
 10
814.9011
 20
41.3686
  0
VERTEX
  8
LIVELLO_1
 10
813.3415
 20
61.6067
  0
VERTEX
  8
LIVELLO_1
 10
808.8683
 20
80.4565
  0
VERTEX
  8
LIVELLO_1
 10
801.7904
 20
97.5143
  0
VERTEX
  8
LIVELLO_1
 10
792.4164
 20
112.3761
  0
VERTEX
  8
LIVELLO_1
 10
781.0549
 20
124.6383
  0
VERTEX
  8
LIVELLO_1
 10
768.0148
 20
133.8969
  0
VERTEX
  8
LIVELLO_1
 10
753.6047
 20
139.7482
  0
VERTEX
  8
LIVELLO_1
 10
738.1332
 20
141.7884
  0
VERTEX
  8
LIVELLO_1
 10
726.0784
 20
140.5505
  0
VERTEX
  8
LIVELLO_1
 10
714.6381
 20
136.9643
  0
VERTEX
  8
LIVELLO_1
 10
703.9444
 20
131.2212
  0
VERTEX
  8
LIVELLO_1
 10
694.1292
 20
123.5127
  0
VERTEX
  8
LIVELLO_1
 10
685.3247
 20
114.0302
  0
VERTEX
  8
LIVELLO_1
 10
677.6629
 20
102.9651
  0
VERTEX
  8
LIVELLO_1
 10
671.2758
 20
90.5088
  0
VERTEX
  8
LIVELLO_1
 10
666.2955
 20
76.8527
  0
VERTEX
  8
LIVELLO_1
 10
666.2865
 20
76.8229
  0
VERTEX
  8
LIVELLO_1
 10
666.2441
 20
76.8191
  0
VERTEX
  8
LIVELLO_1
 10
665.8602
 20
76.7714
  0
VERTEX
  8
LIVELLO_1
 10
665.4793
 20
76.6986
  0
VERTEX
  8
LIVELLO_1
 10
665.1012
 20
76.6036
  0
VERTEX
  8
LIVELLO_1
 10
664.7257
 20
76.4895
  0
VERTEX
  8
LIVELLO_1
 10
671.4945
 20
94.328
  0
VERTEX
  8
LIVELLO_1
 10
680.7922
 20
110.6425
  0
VERTEX
  8
LIVELLO_1
 10
692.3655
 20
125.1695
  0
VERTEX
  8
LIVELLO_1
 10
705.9613
 20
137.6458
  0
VERTEX
  8
LIVELLO_1
 10
721.3264
 20
147.8081
  0
VERTEX
  8
LIVELLO_1
 10
738.2074
 20
155.3929
  0
VERTEX
  8
LIVELLO_1
 10
756.3512
 20
160.1368
  0
VERTEX
  8
LIVELLO_1
 10
775.5046
 20
161.7767
  0
VERTEX
  8
LIVELLO_1
 10
794.4323
 20
160.1425
  0
VERTEX
  8
LIVELLO_1
 10
811.4361
 20
155.4578
  0
VERTEX
  8
LIVELLO_1
 10
826.5162
 20
148.0492
  0
VERTEX
  8
LIVELLO_1
 10
839.6729
 20
138.2434
  0
VERTEX
  8
LIVELLO_1
 10
850.9064
 20
126.3671
  0
VERTEX
  8
LIVELLO_1
 10
860.217
 20
112.747
  0
VERTEX
  8
LIVELLO_1
 10
867.6049
 20
97.7097
  0
VERTEX
  8
LIVELLO_1
 10
873.0704
 20
81.5819
  0
VERTEX
  8
LIVELLO_1
 10
873.0704
 20
1.1553
  0
SEQEND
  8
LIVELLO_1
  0
POLYLINE
  8
LIVELLO_1
 66
     1
 70
     1
  0
VERTEX
  8
LIVELLO_1
 10
873.0704
 20
-154.2379
  0
VERTEX
  8
LIVELLO_1
 10
864.1447
 20
-163.1628
  0
VERTEX
  8
LIVELLO_1
 10
854.8068
 20
-171.0575
  0
VERTEX
  8
LIVELLO_1
 10
845.0873
 20
-177.8727
  0
VERTEX
  8
LIVELLO_1
 10
835.0164
 20
-183.5593
  0
VERTEX
  8
LIVELLO_1
 10
824.6247
 20
-188.068
  0
VERTEX
  8
LIVELLO_1
 10
813.9424
 20
-191.3494
  0
VERTEX
  8
LIVELLO_1
 10
803.0
 20
-193.3544
  0
VERTEX
  8
LIVELLO_1
 10
791.8279
 20
-194.0337
  0
VERTEX
  8
LIVELLO_1
 10
764.2179
 20
-189.8298
  0
VERTEX
  8
LIVELLO_1
 10
738.3458
 20
-177.7367
  0
VERTEX
  8
LIVELLO_1
 10
714.6939
 20
-158.5321
  0
VERTEX
  8
LIVELLO_1
 10
693.7442
 20
-132.9935
  0
VERTEX
  8
LIVELLO_1
 10
675.9791
 20
-101.8987
  0
VERTEX
  8
LIVELLO_1
 10
661.8808
 20
-66.0254
  0
VERTEX
  8
LIVELLO_1
 10
651.9315
 20
-26.1512
  0
VERTEX
  8
LIVELLO_1
 10
646.6134
 20
16.9461
  0
VERTEX
  8
LIVELLO_1
 10
646.0546
 20
17.1748
  0
VERTEX
  8
LIVELLO_1
 10
645.4983
 20
17.3969
  0
VERTEX
  8
LIVELLO_1
 10
644.9441
 20
17.6124
  0
VERTEX
  8
LIVELLO_1
 10
644.3917
 20
17.8214
  0
VERTEX
  8
LIVELLO_1
 10
643.8407
 20
18.024
  0
VERTEX
  8
LIVELLO_1
 10
643.2907
 20
18.2204
  0
VERTEX
  8
LIVELLO_1
 10
642.7414
 20
18.4107
  0
VERTEX
  8
LIVELLO_1
 10
642.1923
 20
18.5949
  0
VERTEX
  8
LIVELLO_1
 10
642.1918
 20
18.5932
  0
VERTEX
  8
LIVELLO_1
 10
642.8261
 20
21.0729
  0
VERTEX
  8
LIVELLO_1
 10
643.3877
 20
23.6761
  0
VERTEX
  8
LIVELLO_1
 10
643.8731
 20
26.3934
  0
VERTEX
  8
LIVELLO_1
 10
644.2785
 20
29.2157
  0
VERTEX
  8
LIVELLO_1
 10
644.6002
 20
32.1336
  0
VERTEX
  8
LIVELLO_1
 10
644.8346
 20
35.1379
  0
VERTEX
  8
LIVELLO_1
 10
644.9779
 20
38.2193
  0
VERTEX
  8
LIVELLO_1
 10
645.0265
 20
41.3686
  0
VERTEX
  8
LIVELLO_1
 10
644.9779
 20
44.5179
  0
VERTEX
  8
LIVELLO_1
 10
644.8346
 20
47.5993
  0
VERTEX
  8
LIVELLO_1
 10
644.6002
 20
50.6036
  0
VERTEX
  8
LIVELLO_1
 10
644.2785
 20
53.5215
  0
VERTEX
  8
LIVELLO_1
 10
643.8731
 20
56.3438
  0
VERTEX
  8
LIVELLO_1
 10
643.3877
 20
59.0611
  0
VERTEX
  8
LIVELLO_1
 10
642.8261
 20
61.6643
  0
VERTEX
  8
LIVELLO_1
 10
642.1918
 20
64.144
  0
VERTEX
  8
LIVELLO_1
 10
642.1923
 20
64.1423
  0
VERTEX
  8
LIVELLO_1
 10
642.7414
 20
64.3265
  0
VERTEX
  8
LIVELLO_1
 10
643.2907
 20
64.5168
  0
VERTEX
  8
LIVELLO_1
 10
643.8407
 20
64.7132
  0
VERTEX
  8
LIVELLO_1
 10
644.3917
 20
64.9158
  0
VERTEX
  8
LIVELLO_1
 10
644.9441
 20
65.1248
  0
VERTEX
  8
LIVELLO_1
 10
645.4983
 20
65.3403
  0
VERTEX
  8
LIVELLO_1
 10
646.0546
 20
65.5624
  0
VERTEX
  8
LIVELLO_1
 10
646.6134
 20
65.7911
  0
VERTEX
  8
LIVELLO_1
 10
651.9315
 20
108.8884
  0
VERTEX
  8
LIVELLO_1
 10
661.8808
 20
148.7626
  0
VERTEX
  8
LIVELLO_1
 10
675.9791
 20
184.6359
  0
VERTEX
  8
LIVELLO_1
 10
693.7442
 20
215.7307
  0
VERTEX
  8
LIVELLO_1
 10
714.6939
 20
241.2693
  0
VERTEX
  8
LIVELLO_1
 10
738.3458
 20
260.4739
  0
VERTEX
  8
LIVELLO_1
 10
764.2179
 20
272.567
  0
VERTEX
  8
LIVELLO_1
 10
791.8279
 20
276.7709
  0
VERTEX
  8
LIVELLO_1
 10
803.0
 20
276.0916
  0
VERTEX
  8
LIVELLO_1
 10
813.9424
 20
274.0866
  0
VERTEX
  8
LIVELLO_1
 10
824.6247
 20
270.8052
  0
VERTEX
  8
LIVELLO_1
 10
835.0164
 20
266.2965
  0
VERTEX
  8
LIVELLO_1
 10
845.0873
 20
260.6099
  0
VERTEX
  8
LIVELLO_1
 10
854.8068
 20
253.7947
  0
VERTEX
  8
LIVELLO_1
 10
864.1447
 20
245.9
  0
VERTEX
  8
LIVELLO_1
 10
873.0704
 20
236.9751
  0
VERTEX
  8
LIVELLO_1
 10
873.0704
 20
209.7623
  0
VERTEX
  8
LIVELLO_1
 10
864.3452
 20
217.4344
  0
VERTEX
  8
LIVELLO_1
 10
855.2177
 20
224.221
  0
VERTEX
  8
LIVELLO_1
 10
845.7176
 20
230.0795
  0
VERTEX
  8
LIVELLO_1
 10
835.8744
 20
234.9678
  0
VERTEX
  8
LIVELLO_1
 10
825.7179
 20
238.8434
  0
VERTEX
  8
LIVELLO_1
 10
815.2778
 20
241.6641
  0
VERTEX
  8
LIVELLO_1
 10
804.5836
 20
243.3876
  0
VERTEX
  8
LIVELLO_1
 10
793.665
 20
243.9715
  0
VERTEX
  8
LIVELLO_1
 10
767.181
 20
240.4921
  0
VERTEX
  8
LIVELLO_1
 10
742.3217
 20
230.4745
  0
VERTEX
  8
LIVELLO_1
 10
719.5313
 20
214.5493
  0
VERTEX
  8
LIVELLO_1
 10
699.2541
 20
193.347
  0
VERTEX
  8
LIVELLO_1
 10
681.9341
 20
167.4984
  0
VERTEX
  8
LIVELLO_1
 10
668.0155
 20
137.6342
  0
VERTEX
  8
LIVELLO_1
 10
657.9425
 20
104.3848
  0
VERTEX
  8
LIVELLO_1
 10
652.1593
 20
68.3811
  0
VERTEX
  8
LIVELLO_1
 10
650.0721
 20
67.3251
  0
VERTEX
  8
LIVELLO_1
 10
651.2855
 20
64.7752
  0
VERTEX
  8
LIVELLO_1
 10
652.3698
 20
61.9858
  0
VERTEX
  8
LIVELLO_1
 10
653.3148
 20
58.9773
  0
VERTEX
  8
LIVELLO_1
 10
654.1106
 20
55.7704
  0
VERTEX
  8
LIVELLO_1
 10
654.747
 20
52.3854
  0
VERTEX
  8
LIVELLO_1
 10
655.214
 20
48.8432
  0
VERTEX
  8
LIVELLO_1
 10
655.5016
 20
45.164
  0
VERTEX
  8
LIVELLO_1
 10
655.5997
 20
41.3686
  0
VERTEX
  8
LIVELLO_1
 10
655.5016
 20
37.5732
  0
VERTEX
  8
LIVELLO_1
 10
655.214
 20
33.8941
  0
VERTEX
  8
LIVELLO_1
 10
654.747
 20
30.3518
  0
VERTEX
  8
LIVELLO_1
 10
654.1106
 20
26.9669
  0
VERTEX
  8
LIVELLO_1
 10
653.3148
 20
23.7599
  0
VERTEX
  8
LIVELLO_1
 10
652.3698
 20
20.7514
  0
VERTEX
  8
LIVELLO_1
 10
651.2855
 20
17.962
  0
VERTEX
  8
LIVELLO_1
 10
650.0721
 20
15.4121
  0
VERTEX
  8
LIVELLO_1
 10
652.1593
 20
14.3561
  0
VERTEX
  8
LIVELLO_1
 10
657.9425
 20
-21.6476
  0
VERTEX
  8
LIVELLO_1
 10
668.0155
 20
-54.897
  0
VERTEX
  8
LIVELLO_1
 10
681.9341
 20
-84.7612
  0
VERTEX
  8
LIVELLO_1
 10
699.2541
 20
-110.6098
  0
VERTEX
  8
LIVELLO_1
 10
719.5313
 20
-131.8121
  0
VERTEX
  8
LIVELLO_1
 10
742.3217
 20
-147.7373
  0
VERTEX
  8
LIVELLO_1
 10
767.181
 20
-157.7549
  0
VERTEX
  8
LIVELLO_1
 10
793.665
 20
-161.2343
  0
VERTEX
  8
LIVELLO_1
 10
804.5836
 20
-160.6504
  0
VERTEX
  8
LIVELLO_1
 10
815.2778
 20
-158.9269
  0
VERTEX
  8
LIVELLO_1
 10
825.7179
 20
-156.1062
  0
VERTEX
  8
LIVELLO_1
 10
835.8744
 20
-152.2306
  0
VERTEX
  8
LIVELLO_1
 10
845.7176
 20
-147.3423
  0
VERTEX
  8
LIVELLO_1
 10
855.2177
 20
-141.4838
  0
VERTEX
  8
LIVELLO_1
 10
864.3452
 20
-134.6972
  0
VERTEX
  8
LIVELLO_1
 10
873.0704
 20
-127.0251
  0
VERTEX
  8
LIVELLO_1
 10
873.0704
 20
-154.2379
  0
SEQEND
  8
LIVELLO_1
  0
POLYLINE
  8
LIVELLO_1
 66
     1
 70
     1
  0
VERTEX
  8
LIVELLO_1
 10
873.0704
 20
264.177
  0
VERTEX
  8
LIVELLO_1
 10
869.661
 20
268.172
  0
VERTEX
  8
LIVELLO_1
 10
866.188
 20
272.0024
  0
VERTEX
  8
LIVELLO_1
 10
862.6531
 20
275.6654
  0
VERTEX
  8
LIVELLO_1
 10
859.0582
 20
279.1581
  0
VERTEX
  8
LIVELLO_1
 10
855.4049
 20
282.4777
  0
VERTEX
  8
LIVELLO_1
 10
851.695
 20
285.6212
  0
VERTEX
  8
LIVELLO_1
 10
847.9302
 20
288.5858
  0
VERTEX
  8
LIVELLO_1
 10
844.1123
 20
291.3686
  0
VERTEX
  8
LIVELLO_1
 10
873.0704
 20
291.3686
  0
VERTEX
  8
LIVELLO_1
 10
873.0704
 20
264.177
  0
SEQEND
  8
LIVELLO_1
  0
POLYLINE
  8
LIVELLO_1
 66
     1
 70
     1
  0
VERTEX
  8
LIVELLO_1
 10
735.8807
 20
291.3686
  0
VERTEX
  8
LIVELLO_1
 10
717.1006
 20
275.4222
  0
VERTEX
  8
LIVELLO_1
 10
699.8658
 20
255.1128
  0
VERTEX
  8
LIVELLO_1
 10
684.3976
 20
230.8379
  0
VERTEX
  8
LIVELLO_1
 10
670.9175
 20
202.9948
  0
VERTEX
  8
LIVELLO_1
 10
659.6467
 20
171.981
  0
VERTEX
  8
LIVELLO_1
 10
650.8066
 20
138.1939
  0
VERTEX
  8
LIVELLO_1
 10
644.6185
 20
102.031
  0
VERTEX
  8
LIVELLO_1
 10
641.3038
 20
63.8897
  0
VERTEX
  8
LIVELLO_1
 10
640.6545
 20
63.692
  0
VERTEX
  8
LIVELLO_1
 10
640.0045
 20
63.5015
  0
VERTEX
  8
LIVELLO_1
 10
639.3538
 20
63.318
  0
VERTEX
  8
LIVELLO_1
 10
638.7027
 20
63.1414
  0
VERTEX
  8
LIVELLO_1
 10
638.0512
 20
62.9718
  0
VERTEX
  8
LIVELLO_1
 10
637.3995
 20
62.809
  0
VERTEX
  8
LIVELLO_1
 10
636.7479
 20
62.6531
  0
VERTEX
  8
LIVELLO_1
 10
636.0964
 20
62.5039
  0
VERTEX
  8
LIVELLO_1
 10
638.3874
 20
97.6555
  0
VERTEX
  8
LIVELLO_1
 10
642.6657
 20
131.4192
  0
VERTEX
  8
LIVELLO_1
 10
648.8094
 20
163.554
  0
VERTEX
  8
LIVELLO_1
 10
656.6965
 20
193.8193
  0
VERTEX
  8
LIVELLO_1
 10
666.2049
 20
221.9742
  0
VERTEX
  8
LIVELLO_1
 10
677.2128
 20
247.7779
  0
VERTEX
  8
LIVELLO_1
 10
689.5981
 20
270.9896
  0
VERTEX
  8
LIVELLO_1
 10
703.2388
 20
291.3686
  0
VERTEX
  8
LIVELLO_1
 10
735.8807
 20
291.3686
  0
SEQEND
  8
LIVELLO_1
  0
POLYLINE
  8
LIVELLO_1
 66
     1
 70
     1
  0
VERTEX
  8
LIVELLO_1
 10
683.1934
 20
291.3686
  0
VERTEX
  8
LIVELLO_1
 10
672.4348
 20
268.8787
  0
VERTEX
  8
LIVELLO_1
 10
662.7245
 20
244.2658
  0
VERTEX
  8
LIVELLO_1
 10
654.1426
 20
217.7005
  0
VERTEX
  8
LIVELLO_1
 10
646.7687
 20
189.3533
  0
VERTEX
  8
LIVELLO_1
 10
640.6826
 20
159.3947
  0
VERTEX
  8
LIVELLO_1
 10
635.9642
 20
127.9952
  0
VERTEX
  8
LIVELLO_1
 10
632.6933
 20
95.3252
  0
VERTEX
  8
LIVELLO_1
 10
630.9497
 20
61.5553
  0
VERTEX
  8
LIVELLO_1
 10
634.6397
 20
62.1943
  0
VERTEX
  8
LIVELLO_1
 10
635.2614
 20
59.9412
  0
VERTEX
  8
LIVELLO_1
 10
635.8123
 20
57.5702
  0
VERTEX
  8
LIVELLO_1
 10
636.2886
 20
55.0901
  0
VERTEX
  8
LIVELLO_1
 10
636.6866
 20
52.51
  0
VERTEX
  8
LIVELLO_1
 10
637.0026
 20
49.8389
  0
VERTEX
  8
LIVELLO_1
 10
637.2329
 20
47.0856
  0
VERTEX
  8
LIVELLO_1
 10
637.3738
 20
44.2592
  0
VERTEX
  8
LIVELLO_1
 10
637.4216
 20
41.3686
  0
VERTEX
  8
LIVELLO_1
 10
637.3738
 20
38.478
  0
VERTEX
  8
LIVELLO_1
 10
637.2329
 20
35.6516
  0
VERTEX
  8
LIVELLO_1
 10
637.0026
 20
32.8983
  0
VERTEX
  8
LIVELLO_1
 10
636.6866
 20
30.2272
  0
VERTEX
  8
LIVELLO_1
 10
636.2886
 20
27.6471
  0
VERTEX
  8
LIVELLO_1
 10
635.8123
 20
25.167
  0
VERTEX
  8
LIVELLO_1
 10
635.2614
 20
22.796
  0
VERTEX
  8
LIVELLO_1
 10
634.6397
 20
20.5429
  0
VERTEX
  8
LIVELLO_1
 10
630.9497
 20
21.1819
  0
VERTEX
  8
LIVELLO_1
 10
632.6933
 20
-12.588
  0
VERTEX
  8
LIVELLO_1
 10
635.9642
 20
-45.258
  0
VERTEX
  8
LIVELLO_1
 10
640.6826
 20
-76.6575
  0
VERTEX
  8
LIVELLO_1
 10
646.7687
 20
-106.6161
  0
VERTEX
  8
LIVELLO_1
 10
654.1426
 20
-134.9633
  0
VERTEX
  8
LIVELLO_1
 10
662.7245
 20
-161.5286
  0
VERTEX
  8
LIVELLO_1
 10
672.4348
 20
-186.1415
  0
VERTEX
  8
LIVELLO_1
 10
683.1934
 20
-208.6314
  0
VERTEX
  8
LIVELLO_1
 10
668.2901
 20
-208.6314
  0
VERTEX
  8
LIVELLO_1
 10
659.4656
 20
-184.8578
  0
VERTEX
  8
LIVELLO_1
 10
651.5332
 20
-159.3912
  0
VERTEX
  8
LIVELLO_1
 10
644.5491
 20
-132.3608
  0
VERTEX
  8
LIVELLO_1
 10
638.5699
 20
-103.896
  0
VERTEX
  8
LIVELLO_1
 10
633.6517
 20
-74.1258
  0
VERTEX
  8
LIVELLO_1
 10
629.851
 20
-43.1797
  0
VERTEX
  8
LIVELLO_1
 10
627.2242
 20
-11.1869
  0
VERTEX
  8
LIVELLO_1
 10
625.8276
 20
21.7234
  0
VERTEX
  8
LIVELLO_1
 10
626.9446
 20
21.6416
  0
VERTEX
  8
LIVELLO_1
 10
627.1559
 20
23.9732
  0
VERTEX
  8
LIVELLO_1
 10
627.3412
 20
26.3478
  0
VERTEX
  8
LIVELLO_1
 10
627.4997
 20
28.7631
  0
VERTEX
  8
LIVELLO_1
 10
627.6309
 20
31.2168
  0
VERTEX
  8
LIVELLO_1
 10
627.734
 20
33.7065
  0
VERTEX
  8
LIVELLO_1
 10
627.8085
 20
36.2299
  0
VERTEX
  8
LIVELLO_1
 10
627.8536
 20
38.7848
  0
VERTEX
  8
LIVELLO_1
 10
627.8688
 20
41.3686
  0
VERTEX
  8
LIVELLO_1
 10
627.8536
 20
43.9524
  0
VERTEX
  8
LIVELLO_1
 10
627.8085
 20
46.5073
  0
VERTEX
  8
LIVELLO_1
 10
627.734
 20
49.0307
  0
VERTEX
  8
LIVELLO_1
 10
627.6309
 20
51.5204
  0
VERTEX
  8
LIVELLO_1
 10
627.4997
 20
53.9741
  0
VERTEX
  8
LIVELLO_1
 10
627.3412
 20
56.3894
  0
VERTEX
  8
LIVELLO_1
 10
627.1559
 20
58.764
  0
VERTEX
  8
LIVELLO_1
 10
626.9446
 20
61.0956
  0
VERTEX
  8
LIVELLO_1
 10
625.8276
 20
61.0138
  0
VERTEX
  8
LIVELLO_1
 10
627.2242
 20
93.9241
  0
VERTEX
  8
LIVELLO_1
 10
629.851
 20
125.9169
  0
VERTEX
  8
LIVELLO_1
 10
633.6517
 20
156.863
  0
VERTEX
  8
LIVELLO_1
 10
638.5699
 20
186.6332
  0
VERTEX
  8
LIVELLO_1
 10
644.5491
 20
215.098
  0
VERTEX
  8
LIVELLO_1
 10
651.5332
 20
242.1284
  0
VERTEX
  8
LIVELLO_1
 10
659.4656
 20
267.595
  0
VERTEX
  8
LIVELLO_1
 10
668.2901
 20
291.3686
  0
VERTEX
  8
LIVELLO_1
 10
683.1934
 20
291.3686
  0
SEQEND
  8
LIVELLO_1
  0
POLYLINE
  8
LIVELLO_1
 66
     1
 70
     1
  0
VERTEX
  8
LIVELLO_1
 10
703.2388
 20
-208.6314
  0
VERTEX
  8
LIVELLO_1
 10
689.5981
 20
-188.2524
  0
VERTEX
  8
LIVELLO_1
 10
677.2128
 20
-165.0407
  0
VERTEX
  8
LIVELLO_1
 10
666.2049
 20
-139.237
  0
VERTEX
  8
LIVELLO_1
 10
656.6965
 20
-111.0821
  0
VERTEX
  8
LIVELLO_1
 10
648.8094
 20
-80.8168
  0
VERTEX
  8
LIVELLO_1
 10
642.6657
 20
-48.682
  0
VERTEX
  8
LIVELLO_1
 10
638.3874
 20
-14.9183
  0
VERTEX
  8
LIVELLO_1
 10
636.0964
 20
20.2333
  0
VERTEX
  8
LIVELLO_1
 10
636.7479
 20
20.0841
  0
VERTEX
  8
LIVELLO_1
 10
637.3995
 20
19.9282
  0
VERTEX
  8
LIVELLO_1
 10
638.0512
 20
19.7654
  0
VERTEX
  8
LIVELLO_1
 10
638.7027
 20
19.5958
  0
VERTEX
  8
LIVELLO_1
 10
639.3538
 20
19.4192
  0
VERTEX
  8
LIVELLO_1
 10
640.0045
 20
19.2357
  0
VERTEX
  8
LIVELLO_1
 10
640.6545
 20
19.0452
  0
VERTEX
  8
LIVELLO_1
 10
641.3038
 20
18.8475
  0
VERTEX
  8
LIVELLO_1
 10
644.6185
 20
-19.2938
  0
VERTEX
  8
LIVELLO_1
 10
650.8066
 20
-55.4567
  0
VERTEX
  8
LIVELLO_1
 10
659.6467
 20
-89.2438
  0
VERTEX
  8
LIVELLO_1
 10
670.9175
 20
-120.2576
  0
VERTEX
  8
LIVELLO_1
 10
684.3976
 20
-148.1007
  0
VERTEX
  8
LIVELLO_1
 10
699.8658
 20
-172.3756
  0
VERTEX
  8
LIVELLO_1
 10
717.1006
 20
-192.685
  0
VERTEX
  8
LIVELLO_1
 10
735.8807
 20
-208.6314
  0
VERTEX
  8
LIVELLO_1
 10
703.2388
 20
-208.6314
  0
SEQEND
  8
LIVELLO_1
  0
POLYLINE
  8
LIVELLO_1
 66
     1
 70
     1
  0
VERTEX
  8
LIVELLO_1
 10
844.1123
 20
-208.6314
  0
VERTEX
  8
LIVELLO_1
 10
847.9302
 20
-205.8486
  0
VERTEX
  8
LIVELLO_1
 10
851.695
 20
-202.884
  0
VERTEX
  8
LIVELLO_1
 10
855.4049
 20
-199.7405
  0
VERTEX
  8
LIVELLO_1
 10
859.0582
 20
-196.4209
  0
VERTEX
  8
LIVELLO_1
 10
862.6531
 20
-192.9282
  0
VERTEX
  8
LIVELLO_1
 10
866.188
 20
-189.2652
  0
VERTEX
  8
LIVELLO_1
 10
869.661
 20
-185.4348
  0
VERTEX
  8
LIVELLO_1
 10
873.0704
 20
-181.4398
  0
VERTEX
  8
LIVELLO_1
 10
873.0704
 20
-208.6314
  0
VERTEX
  8
LIVELLO_1
 10
844.1123
 20
-208.6314
  0
SEQEND
  8
LIVELLO_1
  0
POLYLINE
  8
LIVELLO_1
 66
     1
 70
     1
  0
VERTEX
  8
LIVELLO_1
 10
744.6393
 20
41.3686
  0
VERTEX
  8
LIVELLO_1
 10
743.819
 20
28.231
  0
VERTEX
  8
LIVELLO_1
 10
741.4662
 20
15.9947
  0
VERTEX
  8
LIVELLO_1
 10
737.7433
 20
4.9217
  0
VERTEX
  8
LIVELLO_1
 10
732.8127
 20
-4.7259
  0
VERTEX
  8
LIVELLO_1
 10
726.8368
 20
-12.6858
  0
VERTEX
  8
LIVELLO_1
 10
719.978
 20
-18.6961
  0
VERTEX
  8
LIVELLO_1
 10
712.3985
 20
-22.4944
  0
VERTEX
  8
LIVELLO_1
 10
704.2609
 20
-23.8188
  0
VERTEX
  8
LIVELLO_1
 10
699.1674
 20
-23.3102
  0
VERTEX
  8
LIVELLO_1
 10
694.2167
 20
-21.8251
  0
VERTEX
  8
LIVELLO_1
 10
689.4547
 20
-19.4249
  0
VERTEX
  8
LIVELLO_1
 10
684.9277
 20
-16.1708
  0
VERTEX
  8
LIVELLO_1
 10
680.6818
 20
-12.124
  0
VERTEX
  8
LIVELLO_1
 10
676.763
 20
-7.3459
  0
VERTEX
  8
LIVELLO_1
 10
673.2176
 20
-1.8977
  0
VERTEX
  8
LIVELLO_1
 10
670.0916
 20
4.1594
  0
VERTEX
  8
LIVELLO_1
 10
668.5928
 20
5.4118
  0
VERTEX
  8
LIVELLO_1
 10
672.3323
 20
-2.6789
  0
VERTEX
  8
LIVELLO_1
 10
676.7721
 20
-9.9925
  0
VERTEX
  8
LIVELLO_1
 10
681.8459
 20
-16.4361
  0
VERTEX
  8
LIVELLO_1
 10
687.4878
 20
-21.9166
  0
VERTEX
  8
LIVELLO_1
 10
693.6316
 20
-26.341
  0
VERTEX
  8
LIVELLO_1
 10
700.2114
 20
-29.6165
  0
VERTEX
  8
LIVELLO_1
 10
707.1611
 20
-31.6499
  0
VERTEX
  8
LIVELLO_1
 10
714.4145
 20
-32.3484
  0
VERTEX
  8
LIVELLO_1
 10
724.9914
 20
-30.8507
  0
VERTEX
  8
LIVELLO_1
 10
734.8428
 20
-26.5554
  0
VERTEX
  8
LIVELLO_1
 10
743.7576
 20
-19.7587
  0
VERTEX
  8
LIVELLO_1
 10
751.5248
 20
-10.7572
  0
VERTEX
  8
LIVELLO_1
 10
757.9333
 20
0.1527
  0
VERTEX
  8
LIVELLO_1
 10
762.7721
 20
12.6746
  0
VERTEX
  8
LIVELLO_1
 10
765.8302
 20
26.512
  0
VERTEX
  8
LIVELLO_1
 10
766.8964
 20
41.3686
  0
VERTEX
  8
LIVELLO_1
 10
765.8302
 20
56.2252
  0
VERTEX
  8
LIVELLO_1
 10
762.7721
 20
70.0626
  0
VERTEX
  8
LIVELLO_1
 10
757.9333
 20
82.5845
  0
VERTEX
  8
LIVELLO_1
 10
751.5248
 20
93.4944
  0
VERTEX
  8
LIVELLO_1
 10
743.7576
 20
102.4959
  0
VERTEX
  8
LIVELLO_1
 10
734.8428
 20
109.2926
  0
VERTEX
  8
LIVELLO_1
 10
724.9914
 20
113.5879
  0
VERTEX
  8
LIVELLO_1
 10
714.4145
 20
115.0856
  0
VERTEX
  8
LIVELLO_1
 10
707.1611
 20
114.3871
  0
VERTEX
  8
LIVELLO_1
 10
700.2114
 20
112.3537
  0
VERTEX
  8
LIVELLO_1
 10
693.6316
 20
109.0782
  0
VERTEX
  8
LIVELLO_1
 10
687.4878
 20
104.6538
  0
VERTEX
  8
LIVELLO_1
 10
681.8459
 20
99.1733
  0
VERTEX
  8
LIVELLO_1
 10
676.7721
 20
92.7297
  0
VERTEX
  8
LIVELLO_1
 10
672.3323
 20
85.4161
  0
VERTEX
  8
LIVELLO_1
 10
668.5928
 20
77.3254
  0
VERTEX
  8
LIVELLO_1
 10
670.0916
 20
78.5778
  0
VERTEX
  8
LIVELLO_1
 10
673.2176
 20
84.6349
  0
VERTEX
  8
LIVELLO_1
 10
676.763
 20
90.0831
  0
VERTEX
  8
LIVELLO_1
 10
680.6818
 20
94.8612
  0
VERTEX
  8
LIVELLO_1
 10
684.9277
 20
98.908
  0
VERTEX
  8
LIVELLO_1
 10
689.4547
 20
102.1621
  0
VERTEX
  8
LIVELLO_1
 10
694.2167
 20
104.5623
  0
VERTEX
  8
LIVELLO_1
 10
699.1674
 20
106.0474
  0
VERTEX
  8
LIVELLO_1
 10
704.2609
 20
106.556
  0
VERTEX
  8
LIVELLO_1
 10
712.3985
 20
105.2316
  0
VERTEX
  8
LIVELLO_1
 10
719.978
 20
101.4333
  0
VERTEX
  8
LIVELLO_1
 10
726.8368
 20
95.423
  0
VERTEX
  8
LIVELLO_1
 10
732.8127
 20
87.4631
  0
VERTEX
  8
LIVELLO_1
 10
737.7433
 20
77.8155
  0
VERTEX
  8
LIVELLO_1
 10
741.4662
 20
66.7425
  0
VERTEX
  8
LIVELLO_1
 10
743.819
 20
54.5062
  0
VERTEX
  8
LIVELLO_1
 10
744.6393
 20
41.3686
  0
SEQEND
  8
LIVELLO_1
  0
POLYLINE
  8
LIVELLO_1
 66
     1
 70
     1
  0
VERTEX
  8
LIVELLO_1
 10
719.1084
 20
41.3686
  0
VERTEX
  8
LIVELLO_1
 10
718.5394
 20
30.7841
  0
VERTEX
  8
LIVELLO_1
 10
716.9076
 20
20.9257
  0
VERTEX
  8
LIVELLO_1
 10
714.3255
 20
12.0045
  0
VERTEX
  8
LIVELLO_1
 10
710.9058
 20
4.2318
  0
VERTEX
  8
LIVELLO_1
 10
706.761
 20
-2.1813
  0
VERTEX
  8
LIVELLO_1
 10
702.0039
 20
-7.0236
  0
VERTEX
  8
LIVELLO_1
 10
696.7469
 20
-10.0838
  0
VERTEX
  8
LIVELLO_1
 10
691.1028
 20
-11.1508
  0
VERTEX
  8
LIVELLO_1
 10
688.3951
 20
-10.9085
  0
VERTEX
  8
LIVELLO_1
 10
685.7605
 20
-10.1963
  0
VERTEX
  8
LIVELLO_1
 10
683.2109
 20
-9.0367
  0
VERTEX
  8
LIVELLO_1
 10
680.7583
 20
-7.4518
  0
VERTEX
  8
LIVELLO_1
 10
678.4145
 20
-5.4639
  0
VERTEX
  8
LIVELLO_1
 10
676.1913
 20
-3.0953
  0
VERTEX
  8
LIVELLO_1
 10
674.1007
 20
-0.3682
  0
VERTEX
  8
LIVELLO_1
 10
672.1545
 20
2.695
  0
VERTEX
  8
LIVELLO_1
 10
671.0016
 20
3.3491
  0
VERTEX
  8
LIVELLO_1
 10
673.5279
 20
-1.3929
  0
VERTEX
  8
LIVELLO_1
 10
676.3343
 20
-5.6411
  0
VERTEX
  8
LIVELLO_1
 10
679.3961
 20
-9.3529
  0
VERTEX
  8
LIVELLO_1
 10
682.6886
 20
-12.4856
  0
VERTEX
  8
LIVELLO_1
 10
686.1871
 20
-14.9964
  0
VERTEX
  8
LIVELLO_1
 10
689.8668
 20
-16.8427
  0
VERTEX
  8
LIVELLO_1
 10
693.7031
 20
-17.9818
  0
VERTEX
  8
LIVELLO_1
 10
697.6713
 20
-18.371
  0
VERTEX
  8
LIVELLO_1
 10
704.6391
 20
-17.1573
  0
VERTEX
  8
LIVELLO_1
 10
711.129
 20
-13.6764
  0
VERTEX
  8
LIVELLO_1
 10
717.0019
 20
-8.1684
  0
VERTEX
  8
LIVELLO_1
 10
722.1188
 20
-0.8737
  0
VERTEX
  8
LIVELLO_1
 10
726.3406
 20
7.9676
  0
VERTEX
  8
LIVELLO_1
 10
729.5283
 20
18.1152
  0
VERTEX
  8
LIVELLO_1
 10
731.5429
 20
29.329
  0
VERTEX
  8
LIVELLO_1
 10
732.2453
 20
41.3686
  0
VERTEX
  8
LIVELLO_1
 10
731.5429
 20
53.4082
  0
VERTEX
  8
LIVELLO_1
 10
729.5283
 20
64.622
  0
VERTEX
  8
LIVELLO_1
 10
726.3406
 20
74.7696
  0
VERTEX
  8
LIVELLO_1
 10
722.1188
 20
83.6109
  0
VERTEX
  8
LIVELLO_1
 10
717.0019
 20
90.9056
  0
VERTEX
  8
LIVELLO_1
 10
711.129
 20
96.4136
  0
VERTEX
  8
LIVELLO_1
 10
704.6391
 20
99.8945
  0
VERTEX
  8
LIVELLO_1
 10
697.6713
 20
101.1082
  0
VERTEX
  8
LIVELLO_1
 10
693.7031
 20
100.719
  0
VERTEX
  8
LIVELLO_1
 10
689.8668
 20
99.5799
  0
VERTEX
  8
LIVELLO_1
 10
686.1871
 20
97.7336
  0
VERTEX
  8
LIVELLO_1
 10
682.6886
 20
95.2228
  0
VERTEX
  8
LIVELLO_1
 10
679.3961
 20
92.0901
  0
VERTEX
  8
LIVELLO_1
 10
676.3343
 20
88.3783
  0
VERTEX
  8
LIVELLO_1
 10
673.5279
 20
84.1301
  0
VERTEX
  8
LIVELLO_1
 10
671.0016
 20
79.3881
  0
VERTEX
  8
LIVELLO_1
 10
672.1545
 20
80.0422
  0
VERTEX
  8
LIVELLO_1
 10
674.1007
 20
83.1054
  0
VERTEX
  8
LIVELLO_1
 10
676.1913
 20
85.8325
  0
VERTEX
  8
LIVELLO_1
 10
678.4145
 20
88.2011
  0
VERTEX
  8
LIVELLO_1
 10
680.7583
 20
90.189
  0
VERTEX
  8
LIVELLO_1
 10
683.2109
 20
91.7739
  0
VERTEX
  8
LIVELLO_1
 10
685.7605
 20
92.9335
  0
VERTEX
  8
LIVELLO_1
 10
688.3951
 20
93.6457
  0
VERTEX
  8
LIVELLO_1
 10
691.1028
 20
93.888
  0
VERTEX
  8
LIVELLO_1
 10
696.7469
 20
92.821
  0
VERTEX
  8
LIVELLO_1
 10
702.0039
 20
89.7608
  0
VERTEX
  8
LIVELLO_1
 10
706.761
 20
84.9185
  0
VERTEX
  8
LIVELLO_1
 10
710.9058
 20
78.5054
  0
VERTEX
  8
LIVELLO_1
 10
714.3255
 20
70.7327
  0
VERTEX
  8
LIVELLO_1
 10
716.9076
 20
61.8115
  0
VERTEX
  8
LIVELLO_1
 10
718.5394
 20
51.9531
  0
VERTEX
  8
LIVELLO_1
 10
719.1084
 20
41.3686
  0
SEQEND
  8
LIVELLO_1
  0
POLYLINE
  8
LIVELLO_1
 66
     1
 70
     1
  0
VERTEX
  8
LIVELLO_1
 10
693.4505
 20
41.3686
  0
VERTEX
  8
LIVELLO_1
 10
693.0936
 20
33.3948
  0
VERTEX
  8
LIVELLO_1
 10
692.0698
 20
25.9679
  0
VERTEX
  8
LIVELLO_1
 10
690.4499
 20
19.2472
  0
VERTEX
  8
LIVELLO_1
 10
688.3046
 20
13.3916
  0
VERTEX
  8
LIVELLO_1
 10
685.7044
 20
8.5603
  0
VERTEX
  8
LIVELLO_1
 10
682.7199
 20
4.9124
  0
VERTEX
  8
LIVELLO_1
 10
679.422
 20
2.607
  0
VERTEX
  8
LIVELLO_1
 10
675.8811
 20
1.8032
  0
VERTEX
  8
LIVELLO_1
 10
674.5341
 20
1.9178
  0
VERTEX
  8
LIVELLO_1
 10
675.6842
 20
0.7388
  0
VERTEX
  8
LIVELLO_1
 10
676.8717
 20
-0.2998
  0
VERTEX
  8
LIVELLO_1
 10
678.0942
 20
-1.1929
  0
VERTEX
  8
LIVELLO_1
 10
679.3492
 20
-1.9353
  0
VERTEX
  8
LIVELLO_1
 10
680.6341
 20
-2.5217
  0
VERTEX
  8
LIVELLO_1
 10
681.9465
 20
-2.947
  0
VERTEX
  8
LIVELLO_1
 10
683.2838
 20
-3.206
  0
VERTEX
  8
LIVELLO_1
 10
684.6435
 20
-3.2935
  0
VERTEX
  8
LIVELLO_1
 10
688.9858
 20
-2.3861
  0
VERTEX
  8
LIVELLO_1
 10
693.0302
 20
0.2163
  0
VERTEX
  8
LIVELLO_1
 10
696.6901
 20
4.3341
  0
VERTEX
  8
LIVELLO_1
 10
699.8789
 20
9.7877
  0
VERTEX
  8
LIVELLO_1
 10
702.5099
 20
16.3976
  0
VERTEX
  8
LIVELLO_1
 10
704.4964
 20
23.9841
  0
VERTEX
  8
LIVELLO_1
 10
705.7519
 20
32.3676
  0
VERTEX
  8
LIVELLO_1
 10
706.1896
 20
41.3686
  0
VERTEX
  8
LIVELLO_1
 10
705.7519
 20
50.3696
  0
VERTEX
  8
LIVELLO_1
 10
704.4964
 20
58.7531
  0
VERTEX
  8
LIVELLO_1
 10
702.5099
 20
66.3396
  0
VERTEX
  8
LIVELLO_1
 10
699.8789
 20
72.9495
  0
VERTEX
  8
LIVELLO_1
 10
696.6901
 20
78.4031
  0
VERTEX
  8
LIVELLO_1
 10
693.0302
 20
82.5209
  0
VERTEX
  8
LIVELLO_1
 10
688.9858
 20
85.1233
  0
VERTEX
  8
LIVELLO_1
 10
684.6435
 20
86.0307
  0
VERTEX
  8
LIVELLO_1
 10
683.2838
 20
85.9432
  0
VERTEX
  8
LIVELLO_1
 10
681.9465
 20
85.6842
  0
VERTEX
  8
LIVELLO_1
 10
680.6341
 20
85.2589
  0
VERTEX
  8
LIVELLO_1
 10
679.3492
 20
84.6725
  0
VERTEX
  8
LIVELLO_1
 10
678.0942
 20
83.9301
  0
VERTEX
  8
LIVELLO_1
 10
676.8717
 20
83.037
  0
VERTEX
  8
LIVELLO_1
 10
675.6842
 20
81.9984
  0
VERTEX
  8
LIVELLO_1
 10
674.5341
 20
80.8194
  0
VERTEX
  8
LIVELLO_1
 10
675.8811
 20
80.934
  0
VERTEX
  8
LIVELLO_1
 10
679.422
 20
80.1302
  0
VERTEX
  8
LIVELLO_1
 10
682.7199
 20
77.8248
  0
VERTEX
  8
LIVELLO_1
 10
685.7044
 20
74.1769
  0
VERTEX
  8
LIVELLO_1
 10
688.3046
 20
69.3456
  0
VERTEX
  8
LIVELLO_1
 10
690.4499
 20
63.49
  0
VERTEX
  8
LIVELLO_1
 10
692.0698
 20
56.7693
  0
VERTEX
  8
LIVELLO_1
 10
693.0936
 20
49.3424
  0
VERTEX
  8
LIVELLO_1
 10
693.4505
 20
41.3686
  0
SEQEND
  8
LIVELLO_1
  0
POLYLINE
  8
LIVELLO_1
 66
     1
 70
     1
  0
VERTEX
  8
LIVELLO_1
 10
623.0704
 20
-29.1165
  0
VERTEX
  8
LIVELLO_1
 10
625.2055
 20
-54.0128
  0
VERTEX
  8
LIVELLO_1
 10
627.9575
 20
-78.3123
  0
VERTEX
  8
LIVELLO_1
 10
631.305
 20
-101.9624
  0
VERTEX
  8
LIVELLO_1
 10
635.2266
 20
-124.9106
  0
VERTEX
  8
LIVELLO_1
 10
639.701
 20
-147.1041
  0
VERTEX
  8
LIVELLO_1
 10
644.7069
 20
-168.4905
  0
VERTEX
  8
LIVELLO_1
 10
650.2228
 20
-189.0172
  0
VERTEX
  8
LIVELLO_1
 10
656.2276
 20
-208.6314
  0
VERTEX
  8
LIVELLO_1
 10
646.8349
 20
-208.6314
  0
VERTEX
  8
LIVELLO_1
 10
642.955
 20
-194.0662
  0
VERTEX
  8
LIVELLO_1
 10
639.3457
 20
-179.3122
  0
VERTEX
  8
LIVELLO_1
 10
636.0014
 20
-164.3913
  0
VERTEX
  8
LIVELLO_1
 10
632.917
 20
-149.3251
  0
VERTEX
  8
LIVELLO_1
 10
630.087
 20
-134.1355
  0
VERTEX
  8
LIVELLO_1
 10
627.5062
 20
-118.8443
  0
VERTEX
  8
LIVELLO_1
 10
625.1691
 20
-103.4732
  0
VERTEX
  8
LIVELLO_1
 10
623.0704
 20
-88.044
  0
VERTEX
  8
LIVELLO_1
 10
620.9717
 20
-103.4732
  0
VERTEX
  8
LIVELLO_1
 10
618.6346
 20
-118.8443
  0
VERTEX
  8
LIVELLO_1
 10
616.0538
 20
-134.1355
  0
VERTEX
  8
LIVELLO_1
 10
613.2238
 20
-149.3251
  0
VERTEX
  8
LIVELLO_1
 10
610.1394
 20
-164.3913
  0
VERTEX
  8
LIVELLO_1
 10
606.7951
 20
-179.3122
  0
VERTEX
  8
LIVELLO_1
 10
603.1858
 20
-194.0662
  0
VERTEX
  8
LIVELLO_1
 10
599.3059
 20
-208.6314
  0
VERTEX
  8
LIVELLO_1
 10
589.9132
 20
-208.6314
  0
VERTEX
  8
LIVELLO_1
 10
595.918
 20
-189.0172
  0
VERTEX
  8
LIVELLO_1
 10
601.4339
 20
-168.4905
  0
VERTEX
  8
LIVELLO_1
 10
606.4398
 20
-147.1041
  0
VERTEX
  8
LIVELLO_1
 10
610.9142
 20
-124.9106
  0
VERTEX
  8
LIVELLO_1
 10
614.8358
 20
-101.9624
  0
VERTEX
  8
LIVELLO_1
 10
618.1833
 20
-78.3123
  0
VERTEX
  8
LIVELLO_1
 10
620.9353
 20
-54.0128
  0
VERTEX
  8
LIVELLO_1
 10
623.0704
 20
-29.1165
  0
SEQEND
  8
LIVELLO_1
  0
POLYLINE
  8
LIVELLO_1
 66
     1
 70
     1
  0
VERTEX
  8
LIVELLO_1
 10
656.2276
 20
291.3686
  0
VERTEX
  8
LIVELLO_1
 10
650.2228
 20
271.7544
  0
VERTEX
  8
LIVELLO_1
 10
644.7069
 20
251.2277
  0
VERTEX
  8
LIVELLO_1
 10
639.701
 20
229.8413
  0
VERTEX
  8
LIVELLO_1
 10
635.2266
 20
207.6478
  0
VERTEX
  8
LIVELLO_1
 10
631.305
 20
184.6996
  0
VERTEX
  8
LIVELLO_1
 10
627.9575
 20
161.0495
  0
VERTEX
  8
LIVELLO_1
 10
625.2055
 20
136.75
  0
VERTEX
  8
LIVELLO_1
 10
623.0704
 20
111.8537
  0
VERTEX
  8
LIVELLO_1
 10
620.9353
 20
136.75
  0
VERTEX
  8
LIVELLO_1
 10
618.1833
 20
161.0495
  0
VERTEX
  8
LIVELLO_1
 10
614.8358
 20
184.6996
  0
VERTEX
  8
LIVELLO_1
 10
610.9142
 20
207.6478
  0
VERTEX
  8
LIVELLO_1
 10
606.4398
 20
229.8413
  0
VERTEX
  8
LIVELLO_1
 10
601.4339
 20
251.2277
  0
VERTEX
  8
LIVELLO_1
 10
595.918
 20
271.7544
  0
VERTEX
  8
LIVELLO_1
 10
589.9132
 20
291.3686
  0
VERTEX
  8
LIVELLO_1
 10
599.3059
 20
291.3686
  0
VERTEX
  8
LIVELLO_1
 10
603.1858
 20
276.8034
  0
VERTEX
  8
LIVELLO_1
 10
606.7951
 20
262.0494
  0
VERTEX
  8
LIVELLO_1
 10
610.1394
 20
247.1285
  0
VERTEX
  8
LIVELLO_1
 10
613.2238
 20
232.0623
  0
VERTEX
  8
LIVELLO_1
 10
616.0538
 20
216.8727
  0
VERTEX
  8
LIVELLO_1
 10
618.6346
 20
201.5815
  0
VERTEX
  8
LIVELLO_1
 10
620.9717
 20
186.2104
  0
VERTEX
  8
LIVELLO_1
 10
623.0704
 20
170.7812
  0
VERTEX
  8
LIVELLO_1
 10
625.1691
 20
186.2104
  0
VERTEX
  8
LIVELLO_1
 10
627.5062
 20
201.5815
  0
VERTEX
  8
LIVELLO_1
 10
630.087
 20
216.8727
  0
VERTEX
  8
LIVELLO_1
 10
632.917
 20
232.0623
  0
VERTEX
  8
LIVELLO_1
 10
636.0014
 20
247.1285
  0
VERTEX
  8
LIVELLO_1
 10
639.3457
 20
262.0494
  0
VERTEX
  8
LIVELLO_1
 10
642.955
 20
276.8034
  0
VERTEX
  8
LIVELLO_1
 10
646.8349
 20
291.3686
  0
VERTEX
  8
LIVELLO_1
 10
656.2276
 20
291.3686
  0
SEQEND
  8
LIVELLO_1
  0
POLYLINE
  8
LIVELLO_1
 66
     1
 70
     1
  0
VERTEX
  8
LIVELLO_1
 10
577.8507
 20
291.3686
  0
VERTEX
  8
LIVELLO_1
 10
586.6752
 20
267.595
  0
VERTEX
  8
LIVELLO_1
 10
594.6076
 20
242.1284
  0
VERTEX
  8
LIVELLO_1
 10
601.5917
 20
215.098
  0
VERTEX
  8
LIVELLO_1
 10
607.5709
 20
186.6332
  0
VERTEX
  8
LIVELLO_1
 10
612.4891
 20
156.863
  0
VERTEX
  8
LIVELLO_1
 10
616.2898
 20
125.9169
  0
VERTEX
  8
LIVELLO_1
 10
618.9166
 20
93.9241
  0
VERTEX
  8
LIVELLO_1
 10
620.3132
 20
61.0138
  0
VERTEX
  8
LIVELLO_1
 10
619.1962
 20
61.0956
  0
VERTEX
  8
LIVELLO_1
 10
618.9849
 20
58.764
  0
VERTEX
  8
LIVELLO_1
 10
618.7996
 20
56.3894
  0
VERTEX
  8
LIVELLO_1
 10
618.6411
 20
53.9741
  0
VERTEX
  8
LIVELLO_1
 10
618.5099
 20
51.5204
  0
VERTEX
  8
LIVELLO_1
 10
618.4068
 20
49.0307
  0
VERTEX
  8
LIVELLO_1
 10
618.3323
 20
46.5073
  0
VERTEX
  8
LIVELLO_1
 10
618.2872
 20
43.9524
  0
VERTEX
  8
LIVELLO_1
 10
618.272
 20
41.3686
  0
VERTEX
  8
LIVELLO_1
 10
618.2872
 20
38.7848
  0
VERTEX
  8
LIVELLO_1
 10
618.3323
 20
36.2299
  0
VERTEX
  8
LIVELLO_1
 10
618.4068
 20
33.7065
  0
VERTEX
  8
LIVELLO_1
 10
618.5099
 20
31.2168
  0
VERTEX
  8
LIVELLO_1
 10
618.6411
 20
28.7631
  0
VERTEX
  8
LIVELLO_1
 10
618.7996
 20
26.3478
  0
VERTEX
  8
LIVELLO_1
 10
618.9849
 20
23.9732
  0
VERTEX
  8
LIVELLO_1
 10
619.1962
 20
21.6416
  0
VERTEX
  8
LIVELLO_1
 10
620.3132
 20
21.7234
  0
VERTEX
  8
LIVELLO_1
 10
618.9166
 20
-11.1869
  0
VERTEX
  8
LIVELLO_1
 10
616.2898
 20
-43.1797
  0
VERTEX
  8
LIVELLO_1
 10
612.4891
 20
-74.1258
  0
VERTEX
  8
LIVELLO_1
 10
607.5709
 20
-103.896
  0
VERTEX
  8
LIVELLO_1
 10
601.5917
 20
-132.3608
  0
VERTEX
  8
LIVELLO_1
 10
594.6076
 20
-159.3912
  0
VERTEX
  8
LIVELLO_1
 10
586.6752
 20
-184.8578
  0
VERTEX
  8
LIVELLO_1
 10
577.8507
 20
-208.6314
  0
VERTEX
  8
LIVELLO_1
 10
562.9474
 20
-208.6314
  0
VERTEX
  8
LIVELLO_1
 10
573.706
 20
-186.1415
  0
VERTEX
  8
LIVELLO_1
 10
583.4163
 20
-161.5286
  0
VERTEX
  8
LIVELLO_1
 10
591.9982
 20
-134.9633
  0
VERTEX
  8
LIVELLO_1
 10
599.3722
 20
-106.6161
  0
VERTEX
  8
LIVELLO_1
 10
605.4582
 20
-76.6575
  0
VERTEX
  8
LIVELLO_1
 10
610.1766
 20
-45.258
  0
VERTEX
  8
LIVELLO_1
 10
613.4475
 20
-12.588
  0
VERTEX
  8
LIVELLO_1
 10
615.1911
 20
21.1819
  0
VERTEX
  8
LIVELLO_1
 10
611.5011
 20
20.5429
  0
VERTEX
  8
LIVELLO_1
 10
610.8794
 20
22.796
  0
VERTEX
  8
LIVELLO_1
 10
610.3285
 20
25.167
  0
VERTEX
  8
LIVELLO_1
 10
609.8522
 20
27.6471
  0
VERTEX
  8
LIVELLO_1
 10
609.4542
 20
30.2272
  0
VERTEX
  8
LIVELLO_1
 10
609.1382
 20
32.8983
  0
VERTEX
  8
LIVELLO_1
 10
608.9079
 20
35.6516
  0
VERTEX
  8
LIVELLO_1
 10
608.767
 20
38.478
  0
VERTEX
  8
LIVELLO_1
 10
608.7192
 20
41.3686
  0
VERTEX
  8
LIVELLO_1
 10
608.767
 20
44.2592
  0
VERTEX
  8
LIVELLO_1
 10
608.9079
 20
47.0856
  0
VERTEX
  8
LIVELLO_1
 10
609.1382
 20
49.8389
  0
VERTEX
  8
LIVELLO_1
 10
609.4542
 20
52.51
  0
VERTEX
  8
LIVELLO_1
 10
609.8522
 20
55.0901
  0
VERTEX
  8
LIVELLO_1
 10
610.3285
 20
57.5702
  0
VERTEX
  8
LIVELLO_1
 10
610.8794
 20
59.9412
  0
VERTEX
  8
LIVELLO_1
 10
611.5011
 20
62.1943
  0
VERTEX
  8
LIVELLO_1
 10
615.1911
 20
61.5553
  0
VERTEX
  8
LIVELLO_1
 10
613.4475
 20
95.3252
  0
VERTEX
  8
LIVELLO_1
 10
610.1766
 20
127.9952
  0
VERTEX
  8
LIVELLO_1
 10
605.4582
 20
159.3947
  0
VERTEX
  8
LIVELLO_1
 10
599.3722
 20
189.3533
  0
VERTEX
  8
LIVELLO_1
 10
591.9982
 20
217.7005
  0
VERTEX
  8
LIVELLO_1
 10
583.4163
 20
244.2658
  0
VERTEX
  8
LIVELLO_1
 10
573.706
 20
268.8787
  0
VERTEX
  8
LIVELLO_1
 10
562.9474
 20
291.3686
  0
VERTEX
  8
LIVELLO_1
 10
577.8507
 20
291.3686
  0
SEQEND
  8
LIVELLO_1
  0
POLYLINE
  8
LIVELLO_1
 66
     1
 70
     1
  0
VERTEX
  8
LIVELLO_1
 10
623.0704
 20
-128.5656
  0
VERTEX
  8
LIVELLO_1
 10
623.0993
 20
-128.839
  0
VERTEX
  8
LIVELLO_1
 10
623.102
 20
-128.8644
  0
VERTEX
  8
LIVELLO_1
 10
623.2042
 20
-129.8293
  0
VERTEX
  8
LIVELLO_1
 10
623.207
 20
-129.8547
  0
VERTEX
  8
LIVELLO_1
 10
623.215
 20
-129.9309
  0
VERTEX
  8
LIVELLO_1
 10
623.2178
 20
-129.9563
  0
VERTEX
  8
LIVELLO_1
 10
623.2203
 20
-129.9816
  0
VERTEX
  8
LIVELLO_1
 10
623.223
 20
-130.007
  0
VERTEX
  8
LIVELLO_1
 10
623.2256
 20
-130.0324
  0
VERTEX
  8
LIVELLO_1
 10
623.2285
 20
-130.0578
  0
VERTEX
  8
LIVELLO_1
 10
623.2312
 20
-130.0831
  0
VERTEX
  8
LIVELLO_1
 10
623.2338
 20
-130.1085
  0
VERTEX
  8
LIVELLO_1
 10
623.2365
 20
-130.1339
  0
VERTEX
  8
LIVELLO_1
 10
623.2393
 20
-130.1593
  0
VERTEX
  8
LIVELLO_1
 10
623.2419
 20
-130.1847
  0
VERTEX
  8
LIVELLO_1
 10
623.2849
 20
-130.5891
  0
VERTEX
  8
LIVELLO_1
 10
623.2857
 20
-130.596
  0
VERTEX
  8
LIVELLO_1
 10
623.4357
 20
-132.0023
  0
VERTEX
  8
LIVELLO_1
 10
623.4546
 20
-132.1795
  0
VERTEX
  8
LIVELLO_1
 10
623.4639
 20
-132.267
  0
VERTEX
  8
LIVELLO_1
 10
623.6275
 20
-133.7898
  0
VERTEX
  8
LIVELLO_1
 10
623.6783
 20
-134.2612
  0
VERTEX
  8
LIVELLO_1
 10
623.8199
 20
-135.57
  0
VERTEX
  8
LIVELLO_1
 10
623.8202
 20
-135.5727
  0
VERTEX
  8
LIVELLO_1
 10
623.8662
 20
-135.9955
  0
VERTEX
  8
LIVELLO_1
 10
624.0033
 20
-137.2545
  0
VERTEX
  8
LIVELLO_1
 10
624.0413
 20
-137.6029
  0
VERTEX
  8
LIVELLO_1
 10
624.221
 20
-139.2409
  0
VERTEX
  8
LIVELLO_1
 10
624.2686
 20
-139.6736
  0
VERTEX
  8
LIVELLO_1
 10
624.27
 20
-139.6852
  0
VERTEX
  8
LIVELLO_1
 10
624.4056
 20
-140.9141
  0
VERTEX
  8
LIVELLO_1
 10
624.4596
 20
-141.4013
  0
VERTEX
  8
LIVELLO_1
 10
624.4624
 20
-141.4251
  0
VERTEX
  8
LIVELLO_1
 10
624.4649
 20
-141.4489
  0
VERTEX
  8
LIVELLO_1
 10
624.4677
 20
-141.4727
  0
VERTEX
  8
LIVELLO_1
 10
624.4704
 20
-141.4965
  0
VERTEX
  8
LIVELLO_1
 10
624.4728
 20
-141.5204
  0
VERTEX
  8
LIVELLO_1
 10
624.4756
 20
-141.5442
  0
VERTEX
  8
LIVELLO_1
 10
624.4783
 20
-141.568
  0
VERTEX
  8
LIVELLO_1
 10
624.4808
 20
-141.5918
  0
VERTEX
  8
LIVELLO_1
 10
624.4834
 20
-141.6156
  0
VERTEX
  8
LIVELLO_1
 10
624.6132
 20
-142.7823
  0
VERTEX
  8
LIVELLO_1
 10
624.616
 20
-142.8061
  0
VERTEX
  8
LIVELLO_1
 10
624.6213
 20
-142.8537
  0
VERTEX
  8
LIVELLO_1
 10
624.624
 20
-142.8775
  0
VERTEX
  8
LIVELLO_1
 10
624.6265
 20
-142.9014
  0
VERTEX
  8
LIVELLO_1
 10
624.6292
 20
-142.9251
  0
VERTEX
  8
LIVELLO_1
 10
624.6396
 20
-143.0184
  0
VERTEX
  8
LIVELLO_1
 10
624.6793
 20
-143.3736
  0
VERTEX
  8
LIVELLO_1
 10
624.807
 20
-144.5138
  0
VERTEX
  8
LIVELLO_1
 10
624.8075
 20
-144.518
  0
VERTEX
  8
LIVELLO_1
 10
624.8752
 20
-145.1204
  0
VERTEX
  8
LIVELLO_1
 10
625.0246
 20
-146.4433
  0
VERTEX
  8
LIVELLO_1
 10
625.0449
 20
-146.6243
  0
VERTEX
  8
LIVELLO_1
 10
625.0546
 20
-146.7088
  0
VERTEX
  8
LIVELLO_1
 10
625.0571
 20
-146.7328
  0
VERTEX
  8
LIVELLO_1
 10
625.06
 20
-146.7568
  0
VERTEX
  8
LIVELLO_1
 10
625.0626
 20
-146.7809
  0
VERTEX
  8
LIVELLO_1
 10
625.0653
 20
-146.8049
  0
VERTEX
  8
LIVELLO_1
 10
625.071
 20
-146.853
  0
VERTEX
  8
LIVELLO_1
 10
625.1936
 20
-147.9343
  0
VERTEX
  8
LIVELLO_1
 10
625.1964
 20
-147.9584
  0
VERTEX
  8
LIVELLO_1
 10
625.2046
 20
-148.0305
  0
VERTEX
  8
LIVELLO_1
 10
625.2074
 20
-148.0545
  0
VERTEX
  8
LIVELLO_1
 10
625.21
 20
-148.0785
  0
VERTEX
  8
LIVELLO_1
 10
625.2128
 20
-148.1025
  0
VERTEX
  8
LIVELLO_1
 10
625.2156
 20
-148.1265
  0
VERTEX
  8
LIVELLO_1
 10
625.2182
 20
-148.1505
  0
VERTEX
  8
LIVELLO_1
 10
625.221
 20
-148.1746
  0
VERTEX
  8
LIVELLO_1
 10
625.2236
 20
-148.1986
  0
VERTEX
  8
LIVELLO_1
 10
625.2264
 20
-148.2226
  0
VERTEX
  8
LIVELLO_1
 10
625.2953
 20
-148.826
  0
VERTEX
  8
LIVELLO_1
 10
625.2964
 20
-148.8366
  0
VERTEX
  8
LIVELLO_1
 10
625.411
 20
-149.8377
  0
VERTEX
  8
LIVELLO_1
 10
625.499
 20
-150.6053
  0
VERTEX
  8
LIVELLO_1
 10
625.5748
 20
-151.2625
  0
VERTEX
  8
LIVELLO_1
 10
625.721
 20
-152.529
  0
VERTEX
  8
LIVELLO_1
 10
625.8456
 20
-153.6036
  0
VERTEX
  8
LIVELLO_1
 10
625.9032
 20
-154.0975
  0
VERTEX
  8
LIVELLO_1
 10
626.0476
 20
-155.3352
  0
VERTEX
  8
LIVELLO_1
 10
626.096
 20
-155.7493
  0
VERTEX
  8
LIVELLO_1
 10
626.0977
 20
-155.764
  0
VERTEX
  8
LIVELLO_1
 10
626.1003
 20
-155.7861
  0
VERTEX
  8
LIVELLO_1
 10
626.1029
 20
-155.8083
  0
VERTEX
  8
LIVELLO_1
 10
626.1055
 20
-155.8304
  0
VERTEX
  8
LIVELLO_1
 10
626.1081
 20
-155.8526
  0
VERTEX
  8
LIVELLO_1
 10
626.1107
 20
-155.8748
  0
VERTEX
  8
LIVELLO_1
 10
626.1185
 20
-155.9412
  0
VERTEX
  8
LIVELLO_1
 10
626.1211
 20
-155.9634
  0
VERTEX
  8
LIVELLO_1
 10
626.2356
 20
-156.9383
  0
VERTEX
  8
LIVELLO_1
 10
626.2382
 20
-156.9604
  0
VERTEX
  8
LIVELLO_1
 10
626.2408
 20
-156.9826
  0
VERTEX
  8
LIVELLO_1
 10
626.2435
 20
-157.0047
  0
VERTEX
  8
LIVELLO_1
 10
626.2512
 20
-157.0712
  0
VERTEX
  8
LIVELLO_1
 10
626.2539
 20
-157.0933
  0
VERTEX
  8
LIVELLO_1
 10
626.2565
 20
-157.1155
  0
VERTEX
  8
LIVELLO_1
 10
626.2591
 20
-157.1376
  0
VERTEX
  8
LIVELLO_1
 10
626.2617
 20
-157.1598
  0
VERTEX
  8
LIVELLO_1
 10
626.2643
 20
-157.182
  0
VERTEX
  8
LIVELLO_1
 10
626.2663
 20
-157.1998
  0
VERTEX
  8
LIVELLO_1
 10
626.3534
 20
-157.9362
  0
VERTEX
  8
LIVELLO_1
 10
626.4591
 20
-158.8293
  0
VERTEX
  8
LIVELLO_1
 10
626.5539
 20
-159.6284
  0
VERTEX
  8
LIVELLO_1
 10
626.5572
 20
-159.6561
  0
VERTEX
  8
LIVELLO_1
 10
626.631
 20
-160.2759
  0
VERTEX
  8
LIVELLO_1
 10
626.7322
 20
-161.1242
  0
VERTEX
  8
LIVELLO_1
 10
626.8875
 20
-162.4202
  0
VERTEX
  8
LIVELLO_1
 10
626.8962
 20
-162.4926
  0
VERTEX
  8
LIVELLO_1
 10
627.0066
 20
-163.4083
  0
VERTEX
  8
LIVELLO_1
 10
627.0827
 20
-164.0399
  0
VERTEX
  8
LIVELLO_1
 10
627.0923
 20
-164.1197
  0
VERTEX
  8
LIVELLO_1
 10
627.1861
 20
-164.8932
  0
VERTEX
  8
LIVELLO_1
 10
627.264
 20
-165.5354
  0
VERTEX
  8
LIVELLO_1
 10
627.2674
 20
-165.5621
  0
VERTEX
  8
LIVELLO_1
 10
627.2706
 20
-165.589
  0
VERTEX
  8
LIVELLO_1
 10
627.2739
 20
-165.6157
  0
VERTEX
  8
LIVELLO_1
 10
627.277
 20
-165.6426
  0
VERTEX
  8
LIVELLO_1
 10
627.2803
 20
-165.6693
  0
VERTEX
  8
LIVELLO_1
 10
627.2837
 20
-165.6962
  0
VERTEX
  8
LIVELLO_1
 10
627.2869
 20
-165.7229
  0
VERTEX
  8
LIVELLO_1
 10
627.2901
 20
-165.7497
  0
VERTEX
  8
LIVELLO_1
 10
627.2934
 20
-165.7765
  0
VERTEX
  8
LIVELLO_1
 10
627.3
 20
-165.8301
  0
VERTEX
  8
LIVELLO_1
 10
627.3031
 20
-165.8569
  0
VERTEX
  8
LIVELLO_1
 10
627.3065
 20
-165.8836
  0
VERTEX
  8
LIVELLO_1
 10
627.3097
 20
-165.9105
  0
VERTEX
  8
LIVELLO_1
 10
627.313
 20
-165.9372
  0
VERTEX
  8
LIVELLO_1
 10
627.4174
 20
-166.7943
  0
VERTEX
  8
LIVELLO_1
 10
627.4208
 20
-166.8211
  0
VERTEX
  8
LIVELLO_1
 10
627.424
 20
-166.8479
  0
VERTEX
  8
LIVELLO_1
 10
627.4273
 20
-166.8746
  0
VERTEX
  8
LIVELLO_1
 10
627.4305
 20
-166.9015
  0
VERTEX
  8
LIVELLO_1
 10
627.4338
 20
-166.9282
  0
VERTEX
  8
LIVELLO_1
 10
627.4371
 20
-166.955
  0
VERTEX
  8
LIVELLO_1
 10
627.4402
 20
-166.9817
  0
VERTEX
  8
LIVELLO_1
 10
627.4436
 20
-167.0086
  0
VERTEX
  8
LIVELLO_1
 10
627.4468
 20
-167.0353
  0
VERTEX
  8
LIVELLO_1
 10
627.4501
 20
-167.0621
  0
VERTEX
  8
LIVELLO_1
 10
627.4535
 20
-167.0888
  0
VERTEX
  8
LIVELLO_1
 10
627.4568
 20
-167.1157
  0
VERTEX
  8
LIVELLO_1
 10
627.4599
 20
-167.1424
  0
VERTEX
  8
LIVELLO_1
 10
627.4632
 20
-167.1692
  0
VERTEX
  8
LIVELLO_1
 10
627.4666
 20
-167.1959
  0
VERTEX
  8
LIVELLO_1
 10
627.4698
 20
-167.2228
  0
VERTEX
  8
LIVELLO_1
 10
627.473
 20
-167.2495
  0
VERTEX
  8
LIVELLO_1
 10
627.5316
 20
-167.7276
  0
VERTEX
  8
LIVELLO_1
 10
627.5389
 20
-167.7869
  0
VERTEX
  8
LIVELLO_1
 10
627.646
 20
-168.6593
  0
VERTEX
  8
LIVELLO_1
 10
627.6523
 20
-168.7105
  0
VERTEX
  8
LIVELLO_1
 10
627.7089
 20
-169.17
  0
VERTEX
  8
LIVELLO_1
 10
627.7154
 20
-169.2234
  0
VERTEX
  8
LIVELLO_1
 10
627.7219
 20
-169.2767
  0
VERTEX
  8
LIVELLO_1
 10
627.7286
 20
-169.3302
  0
VERTEX
  8
LIVELLO_1
 10
627.735
 20
-169.3835
  0
VERTEX
  8
LIVELLO_1
 10
627.7417
 20
-169.4369
  0
VERTEX
  8
LIVELLO_1
 10
627.7483
 20
-169.4904
  0
VERTEX
  8
LIVELLO_1
 10
627.7548
 20
-169.5437
  0
VERTEX
  8
LIVELLO_1
 10
627.7615
 20
-169.5971
  0
VERTEX
  8
LIVELLO_1
 10
627.7746
 20
-169.7039
  0
VERTEX
  8
LIVELLO_1
 10
627.7812
 20
-169.7572
  0
VERTEX
  8
LIVELLO_1
 10
627.8539
 20
-170.3444
  0
VERTEX
  8
LIVELLO_1
 10
627.8604
 20
-170.3978
  0
VERTEX
  8
LIVELLO_1
 10
627.8671
 20
-170.4511
  0
VERTEX
  8
LIVELLO_1
 10
627.8735
 20
-170.5045
  0
VERTEX
  8
LIVELLO_1
 10
627.8802
 20
-170.5579
  0
VERTEX
  8
LIVELLO_1
 10
627.8868
 20
-170.6112
  0
VERTEX
  8
LIVELLO_1
 10
627.8935
 20
-170.6646
  0
VERTEX
  8
LIVELLO_1
 10
627.9002
 20
-170.718
  0
VERTEX
  8
LIVELLO_1
 10
627.9067
 20
-170.7713
  0
VERTEX
  8
LIVELLO_1
 10
627.9133
 20
-170.8247
  0
VERTEX
  8
LIVELLO_1
 10
627.92
 20
-170.8781
  0
VERTEX
  8
LIVELLO_1
 10
627.9265
 20
-170.9314
  0
VERTEX
  8
LIVELLO_1
 10
627.9331
 20
-170.9848
  0
VERTEX
  8
LIVELLO_1
 10
627.9398
 20
-171.0381
  0
VERTEX
  8
LIVELLO_1
 10
627.9465
 20
-171.0915
  0
VERTEX
  8
LIVELLO_1
 10
627.953
 20
-171.1449
  0
VERTEX
  8
LIVELLO_1
 10
627.9596
 20
-171.1982
  0
VERTEX
  8
LIVELLO_1
 10
627.9663
 20
-171.2516
  0
VERTEX
  8
LIVELLO_1
 10
627.9729
 20
-171.3049
  0
VERTEX
  8
LIVELLO_1
 10
627.9795
 20
-171.3582
  0
VERTEX
  8
LIVELLO_1
 10
628.0856
 20
-172.2118
  0
VERTEX
  8
LIVELLO_1
 10
628.0924
 20
-172.2651
  0
VERTEX
  8
LIVELLO_1
 10
628.099
 20
-172.3185
  0
VERTEX
  8
LIVELLO_1
 10
628.1058
 20
-172.3718
  0
VERTEX
  8
LIVELLO_1
 10
628.1123
 20
-172.4252
  0
VERTEX
  8
LIVELLO_1
 10
628.119
 20
-172.4785
  0
VERTEX
  8
LIVELLO_1
 10
628.1257
 20
-172.5318
  0
VERTEX
  8
LIVELLO_1
 10
628.1323
 20
-172.5852
  0
VERTEX
  8
LIVELLO_1
 10
628.1745
 20
-172.923
  0
VERTEX
  8
LIVELLO_1
 10
628.3031
 20
-173.9519
  0
VERTEX
  8
LIVELLO_1
 10
628.3038
 20
-173.9565
  0
VERTEX
  8
LIVELLO_1
 10
628.3627
 20
-174.426
  0
VERTEX
  8
LIVELLO_1
 10
628.3664
 20
-174.4557
  0
VERTEX
  8
LIVELLO_1
 10
628.37
 20
-174.4854
  0
VERTEX
  8
LIVELLO_1
 10
628.3738
 20
-174.5152
  0
VERTEX
  8
LIVELLO_1
 10
628.3776
 20
-174.5449
  0
VERTEX
  8
LIVELLO_1
 10
628.3814
 20
-174.5746
  0
VERTEX
  8
LIVELLO_1
 10
628.3851
 20
-174.6044
  0
VERTEX
  8
LIVELLO_1
 10
628.3888
 20
-174.6341
  0
VERTEX
  8
LIVELLO_1
 10
628.3926
 20
-174.6639
  0
VERTEX
  8
LIVELLO_1
 10
628.3964
 20
-174.6936
  0
VERTEX
  8
LIVELLO_1
 10
628.4001
 20
-174.7233
  0
VERTEX
  8
LIVELLO_1
 10
628.4038
 20
-174.7531
  0
VERTEX
  8
LIVELLO_1
 10
628.4076
 20
-174.7828
  0
VERTEX
  8
LIVELLO_1
 10
628.4114
 20
-174.8125
  0
VERTEX
  8
LIVELLO_1
 10
628.4151
 20
-174.8423
  0
VERTEX
  8
LIVELLO_1
 10
628.4187
 20
-174.872
  0
VERTEX
  8
LIVELLO_1
 10
628.4225
 20
-174.9018
  0
VERTEX
  8
LIVELLO_1
 10
628.4262
 20
-174.9315
  0
VERTEX
  8
LIVELLO_1
 10
628.4301
 20
-174.9612
  0
VERTEX
  8
LIVELLO_1
 10
628.5424
 20
-175.8531
  0
VERTEX
  8
LIVELLO_1
 10
628.5463
 20
-175.8829
  0
VERTEX
  8
LIVELLO_1
 10
628.55
 20
-175.9126
  0
VERTEX
  8
LIVELLO_1
 10
628.5575
 20
-175.972
  0
VERTEX
  8
LIVELLO_1
 10
628.5613
 20
-176.0017
  0
VERTEX
  8
LIVELLO_1
 10
628.5649
 20
-176.0315
  0
VERTEX
  8
LIVELLO_1
 10
628.5687
 20
-176.0612
  0
VERTEX
  8
LIVELLO_1
 10
628.5724
 20
-176.0909
  0
VERTEX
  8
LIVELLO_1
 10
628.5763
 20
-176.1206
  0
VERTEX
  8
LIVELLO_1
 10
628.5799
 20
-176.1503
  0
VERTEX
  8
LIVELLO_1
 10
628.5838
 20
-176.1801
  0
VERTEX
  8
LIVELLO_1
 10
628.5876
 20
-176.2098
  0
VERTEX
  8
LIVELLO_1
 10
628.5914
 20
-176.2396
  0
VERTEX
  8
LIVELLO_1
 10
628.5951
 20
-176.2692
  0
VERTEX
  8
LIVELLO_1
 10
628.5989
 20
-176.2989
  0
VERTEX
  8
LIVELLO_1
 10
628.6027
 20
-176.3287
  0
VERTEX
  8
LIVELLO_1
 10
628.6495
 20
-176.6997
  0
VERTEX
  8
LIVELLO_1
 10
628.655
 20
-176.7444
  0
VERTEX
  8
LIVELLO_1
 10
628.7984
 20
-177.8734
  0
VERTEX
  8
LIVELLO_1
 10
628.7999
 20
-177.8846
  0
VERTEX
  8
LIVELLO_1
 10
628.8131
 20
-177.9888
  0
VERTEX
  8
LIVELLO_1
 10
628.8144
 20
-177.998
  0
VERTEX
  8
LIVELLO_1
 10
628.969
 20
-179.211
  0
VERTEX
  8
LIVELLO_1
 10
628.9697
 20
-179.2163
  0
VERTEX
  8
LIVELLO_1
 10
629.1346
 20
-180.5042
  0
VERTEX
  8
LIVELLO_1
 10
629.2553
 20
-181.4415
  0
VERTEX
  8
LIVELLO_1
 10
629.2587
 20
-181.4691
  0
VERTEX
  8
LIVELLO_1
 10
629.317
 20
-181.9196
  0
VERTEX
  8
LIVELLO_1
 10
629.4621
 20
-183.0416
  0
VERTEX
  8
LIVELLO_1
 10
629.4788
 20
-183.1712
  0
VERTEX
  8
LIVELLO_1
 10
629.4864
 20
-183.2289
  0
VERTEX
  8
LIVELLO_1
 10
629.4939
 20
-183.2865
  0
VERTEX
  8
LIVELLO_1
 10
629.5014
 20
-183.3442
  0
VERTEX
  8
LIVELLO_1
 10
629.5088
 20
-183.4019
  0
VERTEX
  8
LIVELLO_1
 10
629.5164
 20
-183.4597
  0
VERTEX
  8
LIVELLO_1
 10
629.5239
 20
-183.5174
  0
VERTEX
  8
LIVELLO_1
 10
629.5313
 20
-183.5751
  0
VERTEX
  8
LIVELLO_1
 10
629.5389
 20
-183.6327
  0
VERTEX
  8
LIVELLO_1
 10
629.5463
 20
-183.6904
  0
VERTEX
  8
LIVELLO_1
 10
629.5538
 20
-183.7481
  0
VERTEX
  8
LIVELLO_1
 10
629.5614
 20
-183.8058
  0
VERTEX
  8
LIVELLO_1
 10
629.5688
 20
-183.8635
  0
VERTEX
  8
LIVELLO_1
 10
629.5762
 20
-183.9212
  0
VERTEX
  8
LIVELLO_1
 10
629.5838
 20
-183.9789
  0
VERTEX
  8
LIVELLO_1
 10
629.6437
 20
-184.4403
  0
VERTEX
  8
LIVELLO_1
 10
629.6513
 20
-184.4979
  0
VERTEX
  8
LIVELLO_1
 10
629.6588
 20
-184.5556
  0
VERTEX
  8
LIVELLO_1
 10
629.6664
 20
-184.6133
  0
VERTEX
  8
LIVELLO_1
 10
629.6739
 20
-184.6709
  0
VERTEX
  8
LIVELLO_1
 10
629.6816
 20
-184.7285
  0
VERTEX
  8
LIVELLO_1
 10
629.689
 20
-184.7862
  0
VERTEX
  8
LIVELLO_1
 10
629.6964
 20
-184.8439
  0
VERTEX
  8
LIVELLO_1
 10
629.704
 20
-184.9016
  0
VERTEX
  8
LIVELLO_1
 10
629.7115
 20
-184.9592
  0
VERTEX
  8
LIVELLO_1
 10
629.719
 20
-185.0169
  0
VERTEX
  8
LIVELLO_1
 10
629.7265
 20
-185.0746
  0
VERTEX
  8
LIVELLO_1
 10
629.7342
 20
-185.1322
  0
VERTEX
  8
LIVELLO_1
 10
629.7416
 20
-185.1899
  0
VERTEX
  8
LIVELLO_1
 10
629.7493
 20
-185.2475
  0
VERTEX
  8
LIVELLO_1
 10
629.7567
 20
-185.3052
  0
VERTEX
  8
LIVELLO_1
 10
629.7643
 20
-185.3628
  0
VERTEX
  8
LIVELLO_1
 10
629.7718
 20
-185.4204
  0
VERTEX
  8
LIVELLO_1
 10
629.7793
 20
-185.4781
  0
VERTEX
  8
LIVELLO_1
 10
629.7869
 20
-185.5357
  0
VERTEX
  8
LIVELLO_1
 10
629.7943
 20
-185.5934
  0
VERTEX
  8
LIVELLO_1
 10
629.802
 20
-185.651
  0
VERTEX
  8
LIVELLO_1
 10
629.8095
 20
-185.7087
  0
VERTEX
  8
LIVELLO_1
 10
629.9002
 20
-186.4003
  0
VERTEX
  8
LIVELLO_1
 10
629.9077
 20
-186.4579
  0
VERTEX
  8
LIVELLO_1
 10
629.9153
 20
-186.5156
  0
VERTEX
  8
LIVELLO_1
 10
629.9228
 20
-186.5732
  0
VERTEX
  8
LIVELLO_1
 10
629.9303
 20
-186.6308
  0
VERTEX
  8
LIVELLO_1
 10
629.9379
 20
-186.6884
  0
VERTEX
  8
LIVELLO_1
 10
629.9456
 20
-186.7461
  0
VERTEX
  8
LIVELLO_1
 10
629.953
 20
-186.8037
  0
VERTEX
  8
LIVELLO_1
 10
629.9607
 20
-186.8613
  0
VERTEX
  8
LIVELLO_1
 10
629.9779
 20
-186.9923
  0
VERTEX
  8
LIVELLO_1
 10
629.9885
 20
-187.0713
  0
VERTEX
  8
LIVELLO_1
 10
629.9986
 20
-187.1503
  0
VERTEX
  8
LIVELLO_1
 10
630.0091
 20
-187.2294
  0
VERTEX
  8
LIVELLO_1
 10
630.0195
 20
-187.3083
  0
VERTEX
  8
LIVELLO_1
 10
630.03
 20
-187.3873
  0
VERTEX
  8
LIVELLO_1
 10
630.1655
 20
-188.414
  0
VERTEX
  8
LIVELLO_1
 10
630.1758
 20
-188.493
  0
VERTEX
  8
LIVELLO_1
 10
630.1863
 20
-188.572
  0
VERTEX
  8
LIVELLO_1
 10
630.1966
 20
-188.6509
  0
VERTEX
  8
LIVELLO_1
 10
630.2072
 20
-188.7299
  0
VERTEX
  8
LIVELLO_1
 10
630.228
 20
-188.8878
  0
VERTEX
  8
LIVELLO_1
 10
630.2385
 20
-188.9667
  0
VERTEX
  8
LIVELLO_1
 10
630.2488
 20
-189.0457
  0
VERTEX
  8
LIVELLO_1
 10
630.2594
 20
-189.1246
  0
VERTEX
  8
LIVELLO_1
 10
630.4166
 20
-190.3085
  0
VERTEX
  8
LIVELLO_1
 10
630.4271
 20
-190.3874
  0
VERTEX
  8
LIVELLO_1
 10
630.4377
 20
-190.4663
  0
VERTEX
  8
LIVELLO_1
 10
630.448
 20
-190.5451
  0
VERTEX
  8
LIVELLO_1
 10
630.4586
 20
-190.624
  0
VERTEX
  8
LIVELLO_1
 10
630.4692
 20
-190.7029
  0
VERTEX
  8
LIVELLO_1
 10
630.4797
 20
-190.7818
  0
VERTEX
  8
LIVELLO_1
 10
630.6166
 20
-191.8072
  0
VERTEX
  8
LIVELLO_1
 10
630.6271
 20
-191.886
  0
VERTEX
  8
LIVELLO_1
 10
630.6377
 20
-191.9649
  0
VERTEX
  8
LIVELLO_1
 10
630.6482
 20
-192.0438
  0
VERTEX
  8
LIVELLO_1
 10
630.6569
 20
-192.108
  0
VERTEX
  8
LIVELLO_1
 10
630.697
 20
-192.4078
  0
VERTEX
  8
LIVELLO_1
 10
630.7373
 20
-192.7075
  0
VERTEX
  8
LIVELLO_1
 10
630.892
 20
-193.8587
  0
VERTEX
  8
LIVELLO_1
 10
630.8985
 20
-193.9059
  0
VERTEX
  8
LIVELLO_1
 10
630.939
 20
-194.2054
  0
VERTEX
  8
LIVELLO_1
 10
631.1414
 20
-195.7025
  0
VERTEX
  8
LIVELLO_1
 10
631.1822
 20
-196.0017
  0
VERTEX
  8
LIVELLO_1
 10
631.345
 20
-197.1986
  0
VERTEX
  8
LIVELLO_1
 10
631.3859
 20
-197.4978
  0
VERTEX
  8
LIVELLO_1
 10
631.4266
 20
-197.7969
  0
VERTEX
  8
LIVELLO_1
 10
631.4676
 20
-198.0959
  0
VERTEX
  8
LIVELLO_1
 10
631.5905
 20
-198.9928
  0
VERTEX
  8
LIVELLO_1
 10
631.6316
 20
-199.2917
  0
VERTEX
  8
LIVELLO_1
 10
631.6726
 20
-199.5905
  0
VERTEX
  8
LIVELLO_1
 10
631.8789
 20
-201.0842
  0
VERTEX
  8
LIVELLO_1
 10
631.9201
 20
-201.3828
  0
VERTEX
  8
LIVELLO_1
 10
632.0857
 20
-202.5769
  0
VERTEX
  8
LIVELLO_1
 10
632.1274
 20
-202.8754
  0
VERTEX
  8
LIVELLO_1
 10
632.169
 20
-203.1737
  0
VERTEX
  8
LIVELLO_1
 10
632.3355
 20
-204.367
  0
VERTEX
  8
LIVELLO_1
 10
632.3773
 20
-204.6652
  0
VERTEX
  8
LIVELLO_1
 10
632.5867
 20
-206.1556
  0
VERTEX
  8
LIVELLO_1
 10
632.6287
 20
-206.4535
  0
VERTEX
  8
LIVELLO_1
 10
632.6707
 20
-206.7515
  0
VERTEX
  8
LIVELLO_1
 10
632.8393
 20
-207.9428
  0
VERTEX
  8
LIVELLO_1
 10
632.8813
 20
-208.2405
  0
VERTEX
  8
LIVELLO_1
 10
632.9368
 20
-208.6314
  0
VERTEX
  8
LIVELLO_1
 10
624.4899
 20
-208.6314
  0
VERTEX
  8
LIVELLO_1
 10
624.4678
 20
-208.0517
  0
VERTEX
  8
LIVELLO_1
 10
624.4513
 20
-207.6177
  0
VERTEX
  8
LIVELLO_1
 10
624.4195
 20
-206.7858
  0
VERTEX
  8
LIVELLO_1
 10
624.4087
 20
-206.4993
  0
VERTEX
  8
LIVELLO_1
 10
624.3955
 20
-206.1529
  0
VERTEX
  8
LIVELLO_1
 10
624.3714
 20
-205.5198
  0
VERTEX
  8
LIVELLO_1
 10
624.3662
 20
-205.3807
  0
VERTEX
  8
LIVELLO_1
 10
624.2994
 20
-203.6204
  0
VERTEX
  8
LIVELLO_1
 10
624.2813
 20
-203.1429
  0
VERTEX
  8
LIVELLO_1
 10
624.2755
 20
-202.9872
  0
VERTEX
  8
LIVELLO_1
 10
624.2543
 20
-202.4299
  0
VERTEX
  8
LIVELLO_1
 10
624.2391
 20
-202.0238
  0
VERTEX
  8
LIVELLO_1
 10
624.084
 20
-197.9198
  0
VERTEX
  8
LIVELLO_1
 10
624.0699
 20
-197.5463
  0
VERTEX
  8
LIVELLO_1
 10
623.8221
 20
-190.9475
  0
VERTEX
  8
LIVELLO_1
 10
623.8176
 20
-190.8257
  0
VERTEX
  8
LIVELLO_1
 10
623.7272
 20
-188.4109
  0
VERTEX
  8
LIVELLO_1
 10
623.7036
 20
-187.7767
  0
VERTEX
  8
LIVELLO_1
 10
623.6921
 20
-187.4636
  0
VERTEX
  8
LIVELLO_1
 10
623.68
 20
-187.1423
  0
VERTEX
  8
LIVELLO_1
 10
623.6502
 20
-186.3426
  0
VERTEX
  8
LIVELLO_1
 10
623.5855
 20
-184.6046
  0
VERTEX
  8
LIVELLO_1
 10
623.5669
 20
-184.1002
  0
VERTEX
  8
LIVELLO_1
 10
623.4207
 20
-180.1619
  0
VERTEX
  8
LIVELLO_1
 10
623.4005
 20
-179.6138
  0
VERTEX
  8
LIVELLO_1
 10
623.2565
 20
-175.717
  0
VERTEX
  8
LIVELLO_1
 10
623.2348
 20
-175.1254
  0
VERTEX
  8
LIVELLO_1
 10
623.0704
 20
-170.6523
  0
VERTEX
  8
LIVELLO_1
 10
622.906
 20
-175.1254
  0
VERTEX
  8
LIVELLO_1
 10
622.8843
 20
-175.717
  0
VERTEX
  8
LIVELLO_1
 10
622.7403
 20
-179.6138
  0
VERTEX
  8
LIVELLO_1
 10
622.7201
 20
-180.1619
  0
VERTEX
  8
LIVELLO_1
 10
622.5739
 20
-184.1002
  0
VERTEX
  8
LIVELLO_1
 10
622.5553
 20
-184.6046
  0
VERTEX
  8
LIVELLO_1
 10
622.4906
 20
-186.3426
  0
VERTEX
  8
LIVELLO_1
 10
622.4608
 20
-187.1423
  0
VERTEX
  8
LIVELLO_1
 10
622.4487
 20
-187.4636
  0
VERTEX
  8
LIVELLO_1
 10
622.4372
 20
-187.7767
  0
VERTEX
  8
LIVELLO_1
 10
622.4136
 20
-188.4109
  0
VERTEX
  8
LIVELLO_1
 10
622.3232
 20
-190.8257
  0
VERTEX
  8
LIVELLO_1
 10
622.3187
 20
-190.9475
  0
VERTEX
  8
LIVELLO_1
 10
622.0709
 20
-197.5463
  0
VERTEX
  8
LIVELLO_1
 10
622.0568
 20
-197.9198
  0
VERTEX
  8
LIVELLO_1
 10
621.9017
 20
-202.0238
  0
VERTEX
  8
LIVELLO_1
 10
621.8865
 20
-202.4299
  0
VERTEX
  8
LIVELLO_1
 10
621.8653
 20
-202.9872
  0
VERTEX
  8
LIVELLO_1
 10
621.8595
 20
-203.1429
  0
VERTEX
  8
LIVELLO_1
 10
621.8414
 20
-203.6204
  0
VERTEX
  8
LIVELLO_1
 10
621.7746
 20
-205.3807
  0
VERTEX
  8
LIVELLO_1
 10
621.7694
 20
-205.5198
  0
VERTEX
  8
LIVELLO_1
 10
621.7453
 20
-206.1529
  0
VERTEX
  8
LIVELLO_1
 10
621.7321
 20
-206.4993
  0
VERTEX
  8
LIVELLO_1
 10
621.7213
 20
-206.7858
  0
VERTEX
  8
LIVELLO_1
 10
621.6895
 20
-207.6177
  0
VERTEX
  8
LIVELLO_1
 10
621.673
 20
-208.0517
  0
VERTEX
  8
LIVELLO_1
 10
621.6509
 20
-208.6314
  0
VERTEX
  8
LIVELLO_1
 10
613.204
 20
-208.6314
  0
VERTEX
  8
LIVELLO_1
 10
613.2595
 20
-208.2405
  0
VERTEX
  8
LIVELLO_1
 10
613.3015
 20
-207.9428
  0
VERTEX
  8
LIVELLO_1
 10
613.4701
 20
-206.7515
  0
VERTEX
  8
LIVELLO_1
 10
613.5121
 20
-206.4535
  0
VERTEX
  8
LIVELLO_1
 10
613.5541
 20
-206.1556
  0
VERTEX
  8
LIVELLO_1
 10
613.7635
 20
-204.6652
  0
VERTEX
  8
LIVELLO_1
 10
613.8053
 20
-204.367
  0
VERTEX
  8
LIVELLO_1
 10
613.9718
 20
-203.1737
  0
VERTEX
  8
LIVELLO_1
 10
614.0134
 20
-202.8754
  0
VERTEX
  8
LIVELLO_1
 10
614.0551
 20
-202.5769
  0
VERTEX
  8
LIVELLO_1
 10
614.2207
 20
-201.3828
  0
VERTEX
  8
LIVELLO_1
 10
614.2619
 20
-201.0842
  0
VERTEX
  8
LIVELLO_1
 10
614.4682
 20
-199.5905
  0
VERTEX
  8
LIVELLO_1
 10
614.5092
 20
-199.2917
  0
VERTEX
  8
LIVELLO_1
 10
614.5503
 20
-198.9928
  0
VERTEX
  8
LIVELLO_1
 10
614.6732
 20
-198.0959
  0
VERTEX
  8
LIVELLO_1
 10
614.7142
 20
-197.7969
  0
VERTEX
  8
LIVELLO_1
 10
614.7549
 20
-197.4978
  0
VERTEX
  8
LIVELLO_1
 10
614.7958
 20
-197.1986
  0
VERTEX
  8
LIVELLO_1
 10
614.9586
 20
-196.0017
  0
VERTEX
  8
LIVELLO_1
 10
614.9994
 20
-195.7025
  0
VERTEX
  8
LIVELLO_1
 10
615.2018
 20
-194.2054
  0
VERTEX
  8
LIVELLO_1
 10
615.2423
 20
-193.9059
  0
VERTEX
  8
LIVELLO_1
 10
615.2488
 20
-193.8587
  0
VERTEX
  8
LIVELLO_1
 10
615.4035
 20
-192.7075
  0
VERTEX
  8
LIVELLO_1
 10
615.4438
 20
-192.4078
  0
VERTEX
  8
LIVELLO_1
 10
615.4839
 20
-192.108
  0
VERTEX
  8
LIVELLO_1
 10
615.4926
 20
-192.0438
  0
VERTEX
  8
LIVELLO_1
 10
615.5031
 20
-191.9649
  0
VERTEX
  8
LIVELLO_1
 10
615.5137
 20
-191.886
  0
VERTEX
  8
LIVELLO_1
 10
615.5242
 20
-191.8072
  0
VERTEX
  8
LIVELLO_1
 10
615.6611
 20
-190.7818
  0
VERTEX
  8
LIVELLO_1
 10
615.6716
 20
-190.7029
  0
VERTEX
  8
LIVELLO_1
 10
615.6822
 20
-190.624
  0
VERTEX
  8
LIVELLO_1
 10
615.6928
 20
-190.5451
  0
VERTEX
  8
LIVELLO_1
 10
615.7031
 20
-190.4663
  0
VERTEX
  8
LIVELLO_1
 10
615.7137
 20
-190.3874
  0
VERTEX
  8
LIVELLO_1
 10
615.7242
 20
-190.3085
  0
VERTEX
  8
LIVELLO_1
 10
615.8814
 20
-189.1246
  0
VERTEX
  8
LIVELLO_1
 10
615.892
 20
-189.0457
  0
VERTEX
  8
LIVELLO_1
 10
615.9023
 20
-188.9667
  0
VERTEX
  8
LIVELLO_1
 10
615.9128
 20
-188.8878
  0
VERTEX
  8
LIVELLO_1
 10
615.9336
 20
-188.7299
  0
VERTEX
  8
LIVELLO_1
 10
615.9442
 20
-188.6509
  0
VERTEX
  8
LIVELLO_1
 10
615.9545
 20
-188.572
  0
VERTEX
  8
LIVELLO_1
 10
615.965
 20
-188.493
  0
VERTEX
  8
LIVELLO_1
 10
615.9753
 20
-188.414
  0
VERTEX
  8
LIVELLO_1
 10
616.1108
 20
-187.3873
  0
VERTEX
  8
LIVELLO_1
 10
616.1213
 20
-187.3083
  0
VERTEX
  8
LIVELLO_1
 10
616.1317
 20
-187.2294
  0
VERTEX
  8
LIVELLO_1
 10
616.1422
 20
-187.1503
  0
VERTEX
  8
LIVELLO_1
 10
616.1523
 20
-187.0713
  0
VERTEX
  8
LIVELLO_1
 10
616.1629
 20
-186.9923
  0
VERTEX
  8
LIVELLO_1
 10
616.1801
 20
-186.8613
  0
VERTEX
  8
LIVELLO_1
 10
616.1878
 20
-186.8037
  0
VERTEX
  8
LIVELLO_1
 10
616.1952
 20
-186.7461
  0
VERTEX
  8
LIVELLO_1
 10
616.2029
 20
-186.6884
  0
VERTEX
  8
LIVELLO_1
 10
616.2105
 20
-186.6308
  0
VERTEX
  8
LIVELLO_1
 10
616.218
 20
-186.5732
  0
VERTEX
  8
LIVELLO_1
 10
616.2255
 20
-186.5156
  0
VERTEX
  8
LIVELLO_1
 10
616.2331
 20
-186.4579
  0
VERTEX
  8
LIVELLO_1
 10
616.2406
 20
-186.4003
  0
VERTEX
  8
LIVELLO_1
 10
616.3313
 20
-185.7087
  0
VERTEX
  8
LIVELLO_1
 10
616.3388
 20
-185.651
  0
VERTEX
  8
LIVELLO_1
 10
616.3465
 20
-185.5934
  0
VERTEX
  8
LIVELLO_1
 10
616.3539
 20
-185.5357
  0
VERTEX
  8
LIVELLO_1
 10
616.3615
 20
-185.4781
  0
VERTEX
  8
LIVELLO_1
 10
616.369
 20
-185.4204
  0
VERTEX
  8
LIVELLO_1
 10
616.3765
 20
-185.3628
  0
VERTEX
  8
LIVELLO_1
 10
616.3841
 20
-185.3052
  0
VERTEX
  8
LIVELLO_1
 10
616.3915
 20
-185.2475
  0
VERTEX
  8
LIVELLO_1
 10
616.3992
 20
-185.1899
  0
VERTEX
  8
LIVELLO_1
 10
616.4066
 20
-185.1322
  0
VERTEX
  8
LIVELLO_1
 10
616.4143
 20
-185.0746
  0
VERTEX
  8
LIVELLO_1
 10
616.4218
 20
-185.0169
  0
VERTEX
  8
LIVELLO_1
 10
616.4293
 20
-184.9592
  0
VERTEX
  8
LIVELLO_1
 10
616.4368
 20
-184.9016
  0
VERTEX
  8
LIVELLO_1
 10
616.4444
 20
-184.8439
  0
VERTEX
  8
LIVELLO_1
 10
616.4518
 20
-184.7862
  0
VERTEX
  8
LIVELLO_1
 10
616.4592
 20
-184.7285
  0
VERTEX
  8
LIVELLO_1
 10
616.4669
 20
-184.6709
  0
VERTEX
  8
LIVELLO_1
 10
616.4744
 20
-184.6133
  0
VERTEX
  8
LIVELLO_1
 10
616.482
 20
-184.5556
  0
VERTEX
  8
LIVELLO_1
 10
616.4895
 20
-184.4979
  0
VERTEX
  8
LIVELLO_1
 10
616.4971
 20
-184.4403
  0
VERTEX
  8
LIVELLO_1
 10
616.557
 20
-183.9789
  0
VERTEX
  8
LIVELLO_1
 10
616.5646
 20
-183.9212
  0
VERTEX
  8
LIVELLO_1
 10
616.572
 20
-183.8635
  0
VERTEX
  8
LIVELLO_1
 10
616.5794
 20
-183.8058
  0
VERTEX
  8
LIVELLO_1
 10
616.587
 20
-183.7481
  0
VERTEX
  8
LIVELLO_1
 10
616.5945
 20
-183.6904
  0
VERTEX
  8
LIVELLO_1
 10
616.6019
 20
-183.6327
  0
VERTEX
  8
LIVELLO_1
 10
616.6095
 20
-183.5751
  0
VERTEX
  8
LIVELLO_1
 10
616.6169
 20
-183.5174
  0
VERTEX
  8
LIVELLO_1
 10
616.6244
 20
-183.4597
  0
VERTEX
  8
LIVELLO_1
 10
616.632
 20
-183.4019
  0
VERTEX
  8
LIVELLO_1
 10
616.6394
 20
-183.3442
  0
VERTEX
  8
LIVELLO_1
 10
616.6469
 20
-183.2865
  0
VERTEX
  8
LIVELLO_1
 10
616.6544
 20
-183.2289
  0
VERTEX
  8
LIVELLO_1
 10
616.662
 20
-183.1712
  0
VERTEX
  8
LIVELLO_1
 10
616.6787
 20
-183.0416
  0
VERTEX
  8
LIVELLO_1
 10
616.8238
 20
-181.9196
  0
VERTEX
  8
LIVELLO_1
 10
616.8821
 20
-181.4691
  0
VERTEX
  8
LIVELLO_1
 10
616.8855
 20
-181.4415
  0
VERTEX
  8
LIVELLO_1
 10
617.0062
 20
-180.5042
  0
VERTEX
  8
LIVELLO_1
 10
617.1711
 20
-179.2163
  0
VERTEX
  8
LIVELLO_1
 10
617.1718
 20
-179.211
  0
VERTEX
  8
LIVELLO_1
 10
617.3264
 20
-177.998
  0
VERTEX
  8
LIVELLO_1
 10
617.3277
 20
-177.9888
  0
VERTEX
  8
LIVELLO_1
 10
617.3409
 20
-177.8846
  0
VERTEX
  8
LIVELLO_1
 10
617.3424
 20
-177.8734
  0
VERTEX
  8
LIVELLO_1
 10
617.4858
 20
-176.7444
  0
VERTEX
  8
LIVELLO_1
 10
617.4913
 20
-176.6997
  0
VERTEX
  8
LIVELLO_1
 10
617.5381
 20
-176.3287
  0
VERTEX
  8
LIVELLO_1
 10
617.5419
 20
-176.2989
  0
VERTEX
  8
LIVELLO_1
 10
617.5457
 20
-176.2692
  0
VERTEX
  8
LIVELLO_1
 10
617.5494
 20
-176.2396
  0
VERTEX
  8
LIVELLO_1
 10
617.5532
 20
-176.2098
  0
VERTEX
  8
LIVELLO_1
 10
617.557
 20
-176.1801
  0
VERTEX
  8
LIVELLO_1
 10
617.5609
 20
-176.1503
  0
VERTEX
  8
LIVELLO_1
 10
617.5645
 20
-176.1206
  0
VERTEX
  8
LIVELLO_1
 10
617.5684
 20
-176.0909
  0
VERTEX
  8
LIVELLO_1
 10
617.5721
 20
-176.0612
  0
VERTEX
  8
LIVELLO_1
 10
617.5759
 20
-176.0315
  0
VERTEX
  8
LIVELLO_1
 10
617.5795
 20
-176.0017
  0
VERTEX
  8
LIVELLO_1
 10
617.5833
 20
-175.972
  0
VERTEX
  8
LIVELLO_1
 10
617.5908
 20
-175.9126
  0
VERTEX
  8
LIVELLO_1
 10
617.5945
 20
-175.8829
  0
VERTEX
  8
LIVELLO_1
 10
617.5984
 20
-175.8531
  0
VERTEX
  8
LIVELLO_1
 10
617.7107
 20
-174.9612
  0
VERTEX
  8
LIVELLO_1
 10
617.7146
 20
-174.9315
  0
VERTEX
  8
LIVELLO_1
 10
617.7183
 20
-174.9018
  0
VERTEX
  8
LIVELLO_1
 10
617.7221
 20
-174.872
  0
VERTEX
  8
LIVELLO_1
 10
617.7257
 20
-174.8423
  0
VERTEX
  8
LIVELLO_1
 10
617.7294
 20
-174.8125
  0
VERTEX
  8
LIVELLO_1
 10
617.7332
 20
-174.7828
  0
VERTEX
  8
LIVELLO_1
 10
617.737
 20
-174.7531
  0
VERTEX
  8
LIVELLO_1
 10
617.7407
 20
-174.7233
  0
VERTEX
  8
LIVELLO_1
 10
617.7444
 20
-174.6936
  0
VERTEX
  8
LIVELLO_1
 10
617.7482
 20
-174.6639
  0
VERTEX
  8
LIVELLO_1
 10
617.752
 20
-174.6341
  0
VERTEX
  8
LIVELLO_1
 10
617.7557
 20
-174.6044
  0
VERTEX
  8
LIVELLO_1
 10
617.7594
 20
-174.5746
  0
VERTEX
  8
LIVELLO_1
 10
617.7632
 20
-174.5449
  0
VERTEX
  8
LIVELLO_1
 10
617.767
 20
-174.5152
  0
VERTEX
  8
LIVELLO_1
 10
617.7708
 20
-174.4854
  0
VERTEX
  8
LIVELLO_1
 10
617.7744
 20
-174.4557
  0
VERTEX
  8
LIVELLO_1
 10
617.7781
 20
-174.426
  0
VERTEX
  8
LIVELLO_1
 10
617.837
 20
-173.9565
  0
VERTEX
  8
LIVELLO_1
 10
617.8377
 20
-173.9519
  0
VERTEX
  8
LIVELLO_1
 10
617.9663
 20
-172.923
  0
VERTEX
  8
LIVELLO_1
 10
618.0085
 20
-172.5852
  0
VERTEX
  8
LIVELLO_1
 10
618.0151
 20
-172.5318
  0
VERTEX
  8
LIVELLO_1
 10
618.0218
 20
-172.4785
  0
VERTEX
  8
LIVELLO_1
 10
618.0285
 20
-172.4252
  0
VERTEX
  8
LIVELLO_1
 10
618.035
 20
-172.3718
  0
VERTEX
  8
LIVELLO_1
 10
618.0418
 20
-172.3185
  0
VERTEX
  8
LIVELLO_1
 10
618.0484
 20
-172.2651
  0
VERTEX
  8
LIVELLO_1
 10
618.0552
 20
-172.2118
  0
VERTEX
  8
LIVELLO_1
 10
618.1613
 20
-171.3582
  0
VERTEX
  8
LIVELLO_1
 10
618.1679
 20
-171.3049
  0
VERTEX
  8
LIVELLO_1
 10
618.1745
 20
-171.2516
  0
VERTEX
  8
LIVELLO_1
 10
618.1812
 20
-171.1982
  0
VERTEX
  8
LIVELLO_1
 10
618.1878
 20
-171.1449
  0
VERTEX
  8
LIVELLO_1
 10
618.1943
 20
-171.0915
  0
VERTEX
  8
LIVELLO_1
 10
618.201
 20
-171.0381
  0
VERTEX
  8
LIVELLO_1
 10
618.2077
 20
-170.9848
  0
VERTEX
  8
LIVELLO_1
 10
618.2143
 20
-170.9314
  0
VERTEX
  8
LIVELLO_1
 10
618.2208
 20
-170.8781
  0
VERTEX
  8
LIVELLO_1
 10
618.2275
 20
-170.8247
  0
VERTEX
  8
LIVELLO_1
 10
618.2341
 20
-170.7713
  0
VERTEX
  8
LIVELLO_1
 10
618.2406
 20
-170.718
  0
VERTEX
  8
LIVELLO_1
 10
618.2473
 20
-170.6646
  0
VERTEX
  8
LIVELLO_1
 10
618.254
 20
-170.6112
  0
VERTEX
  8
LIVELLO_1
 10
618.2606
 20
-170.5579
  0
VERTEX
  8
LIVELLO_1
 10
618.2673
 20
-170.5045
  0
VERTEX
  8
LIVELLO_1
 10
618.2737
 20
-170.4511
  0
VERTEX
  8
LIVELLO_1
 10
618.2804
 20
-170.3978
  0
VERTEX
  8
LIVELLO_1
 10
618.2869
 20
-170.3444
  0
VERTEX
  8
LIVELLO_1
 10
618.3596
 20
-169.7572
  0
VERTEX
  8
LIVELLO_1
 10
618.3662
 20
-169.7039
  0
VERTEX
  8
LIVELLO_1
 10
618.3793
 20
-169.5971
  0
VERTEX
  8
LIVELLO_1
 10
618.386
 20
-169.5437
  0
VERTEX
  8
LIVELLO_1
 10
618.3925
 20
-169.4904
  0
VERTEX
  8
LIVELLO_1
 10
618.3991
 20
-169.4369
  0
VERTEX
  8
LIVELLO_1
 10
618.4058
 20
-169.3835
  0
VERTEX
  8
LIVELLO_1
 10
618.4122
 20
-169.3302
  0
VERTEX
  8
LIVELLO_1
 10
618.4189
 20
-169.2767
  0
VERTEX
  8
LIVELLO_1
 10
618.4254
 20
-169.2234
  0
VERTEX
  8
LIVELLO_1
 10
618.4319
 20
-169.17
  0
VERTEX
  8
LIVELLO_1
 10
618.4885
 20
-168.7105
  0
VERTEX
  8
LIVELLO_1
 10
618.4948
 20
-168.6593
  0
VERTEX
  8
LIVELLO_1
 10
618.6019
 20
-167.7869
  0
VERTEX
  8
LIVELLO_1
 10
618.6092
 20
-167.7276
  0
VERTEX
  8
LIVELLO_1
 10
618.6678
 20
-167.2495
  0
VERTEX
  8
LIVELLO_1
 10
618.671
 20
-167.2228
  0
VERTEX
  8
LIVELLO_1
 10
618.6742
 20
-167.1959
  0
VERTEX
  8
LIVELLO_1
 10
618.6776
 20
-167.1692
  0
VERTEX
  8
LIVELLO_1
 10
618.6809
 20
-167.1424
  0
VERTEX
  8
LIVELLO_1
 10
618.684
 20
-167.1157
  0
VERTEX
  8
LIVELLO_1
 10
618.6873
 20
-167.0888
  0
VERTEX
  8
LIVELLO_1
 10
618.6907
 20
-167.0621
  0
VERTEX
  8
LIVELLO_1
 10
618.694
 20
-167.0353
  0
VERTEX
  8
LIVELLO_1
 10
618.6972
 20
-167.0086
  0
VERTEX
  8
LIVELLO_1
 10
618.7006
 20
-166.9817
  0
VERTEX
  8
LIVELLO_1
 10
618.7037
 20
-166.955
  0
VERTEX
  8
LIVELLO_1
 10
618.707
 20
-166.9282
  0
VERTEX
  8
LIVELLO_1
 10
618.7103
 20
-166.9015
  0
VERTEX
  8
LIVELLO_1
 10
618.7135
 20
-166.8746
  0
VERTEX
  8
LIVELLO_1
 10
618.7168
 20
-166.8479
  0
VERTEX
  8
LIVELLO_1
 10
618.72
 20
-166.8211
  0
VERTEX
  8
LIVELLO_1
 10
618.7234
 20
-166.7943
  0
VERTEX
  8
LIVELLO_1
 10
618.8278
 20
-165.9372
  0
VERTEX
  8
LIVELLO_1
 10
618.8311
 20
-165.9105
  0
VERTEX
  8
LIVELLO_1
 10
618.8343
 20
-165.8836
  0
VERTEX
  8
LIVELLO_1
 10
618.8377
 20
-165.8569
  0
VERTEX
  8
LIVELLO_1
 10
618.8408
 20
-165.8301
  0
VERTEX
  8
LIVELLO_1
 10
618.8474
 20
-165.7765
  0
VERTEX
  8
LIVELLO_1
 10
618.8507
 20
-165.7497
  0
VERTEX
  8
LIVELLO_1
 10
618.8539
 20
-165.7229
  0
VERTEX
  8
LIVELLO_1
 10
618.8571
 20
-165.6962
  0
VERTEX
  8
LIVELLO_1
 10
618.8605
 20
-165.6693
  0
VERTEX
  8
LIVELLO_1
 10
618.8638
 20
-165.6426
  0
VERTEX
  8
LIVELLO_1
 10
618.8669
 20
-165.6157
  0
VERTEX
  8
LIVELLO_1
 10
618.8702
 20
-165.589
  0
VERTEX
  8
LIVELLO_1
 10
618.8734
 20
-165.5621
  0
VERTEX
  8
LIVELLO_1
 10
618.8768
 20
-165.5354
  0
VERTEX
  8
LIVELLO_1
 10
618.9547
 20
-164.8932
  0
VERTEX
  8
LIVELLO_1
 10
619.0485
 20
-164.1197
  0
VERTEX
  8
LIVELLO_1
 10
619.0581
 20
-164.0399
  0
VERTEX
  8
LIVELLO_1
 10
619.1342
 20
-163.4083
  0
VERTEX
  8
LIVELLO_1
 10
619.2446
 20
-162.4926
  0
VERTEX
  8
LIVELLO_1
 10
619.2533
 20
-162.4202
  0
VERTEX
  8
LIVELLO_1
 10
619.4086
 20
-161.1242
  0
VERTEX
  8
LIVELLO_1
 10
619.5098
 20
-160.2759
  0
VERTEX
  8
LIVELLO_1
 10
619.5836
 20
-159.6561
  0
VERTEX
  8
LIVELLO_1
 10
619.5869
 20
-159.6284
  0
VERTEX
  8
LIVELLO_1
 10
619.6817
 20
-158.8293
  0
VERTEX
  8
LIVELLO_1
 10
619.7874
 20
-157.9362
  0
VERTEX
  8
LIVELLO_1
 10
619.8745
 20
-157.1998
  0
VERTEX
  8
LIVELLO_1
 10
619.8765
 20
-157.182
  0
VERTEX
  8
LIVELLO_1
 10
619.8791
 20
-157.1598
  0
VERTEX
  8
LIVELLO_1
 10
619.8817
 20
-157.1376
  0
VERTEX
  8
LIVELLO_1
 10
619.8843
 20
-157.1155
  0
VERTEX
  8
LIVELLO_1
 10
619.8869
 20
-157.0933
  0
VERTEX
  8
LIVELLO_1
 10
619.8896
 20
-157.0712
  0
VERTEX
  8
LIVELLO_1
 10
619.8973
 20
-157.0047
  0
VERTEX
  8
LIVELLO_1
 10
619.9
 20
-156.9826
  0
VERTEX
  8
LIVELLO_1
 10
619.9026
 20
-156.9604
  0
VERTEX
  8
LIVELLO_1
 10
619.9052
 20
-156.9383
  0
VERTEX
  8
LIVELLO_1
 10
620.0197
 20
-155.9634
  0
VERTEX
  8
LIVELLO_1
 10
620.0223
 20
-155.9412
  0
VERTEX
  8
LIVELLO_1
 10
620.0301
 20
-155.8748
  0
VERTEX
  8
LIVELLO_1
 10
620.0327
 20
-155.8526
  0
VERTEX
  8
LIVELLO_1
 10
620.0353
 20
-155.8304
  0
VERTEX
  8
LIVELLO_1
 10
620.0379
 20
-155.8083
  0
VERTEX
  8
LIVELLO_1
 10
620.0405
 20
-155.7861
  0
VERTEX
  8
LIVELLO_1
 10
620.0431
 20
-155.764
  0
VERTEX
  8
LIVELLO_1
 10
620.0448
 20
-155.7493
  0
VERTEX
  8
LIVELLO_1
 10
620.0932
 20
-155.3352
  0
VERTEX
  8
LIVELLO_1
 10
620.2376
 20
-154.0975
  0
VERTEX
  8
LIVELLO_1
 10
620.2952
 20
-153.6036
  0
VERTEX
  8
LIVELLO_1
 10
620.4198
 20
-152.529
  0
VERTEX
  8
LIVELLO_1
 10
620.566
 20
-151.2625
  0
VERTEX
  8
LIVELLO_1
 10
620.6418
 20
-150.6053
  0
VERTEX
  8
LIVELLO_1
 10
620.7298
 20
-149.8377
  0
VERTEX
  8
LIVELLO_1
 10
620.8444
 20
-148.8366
  0
VERTEX
  8
LIVELLO_1
 10
620.8455
 20
-148.826
  0
VERTEX
  8
LIVELLO_1
 10
620.9144
 20
-148.2226
  0
VERTEX
  8
LIVELLO_1
 10
620.9172
 20
-148.1986
  0
VERTEX
  8
LIVELLO_1
 10
620.9198
 20
-148.1746
  0
VERTEX
  8
LIVELLO_1
 10
620.9226
 20
-148.1505
  0
VERTEX
  8
LIVELLO_1
 10
620.9252
 20
-148.1265
  0
VERTEX
  8
LIVELLO_1
 10
620.928
 20
-148.1025
  0
VERTEX
  8
LIVELLO_1
 10
620.9308
 20
-148.0785
  0
VERTEX
  8
LIVELLO_1
 10
620.9334
 20
-148.0545
  0
VERTEX
  8
LIVELLO_1
 10
620.9362
 20
-148.0305
  0
VERTEX
  8
LIVELLO_1
 10
620.9444
 20
-147.9584
  0
VERTEX
  8
LIVELLO_1
 10
620.9472
 20
-147.9343
  0
VERTEX
  8
LIVELLO_1
 10
621.0698
 20
-146.853
  0
VERTEX
  8
LIVELLO_1
 10
621.0755
 20
-146.8049
  0
VERTEX
  8
LIVELLO_1
 10
621.0782
 20
-146.7809
  0
VERTEX
  8
LIVELLO_1
 10
621.0808
 20
-146.7568
  0
VERTEX
  8
LIVELLO_1
 10
621.0837
 20
-146.7328
  0
VERTEX
  8
LIVELLO_1
 10
621.0862
 20
-146.7088
  0
VERTEX
  8
LIVELLO_1
 10
621.0959
 20
-146.6243
  0
VERTEX
  8
LIVELLO_1
 10
621.1162
 20
-146.4433
  0
VERTEX
  8
LIVELLO_1
 10
621.2656
 20
-145.1204
  0
VERTEX
  8
LIVELLO_1
 10
621.3333
 20
-144.518
  0
VERTEX
  8
LIVELLO_1
 10
621.3338
 20
-144.5138
  0
VERTEX
  8
LIVELLO_1
 10
621.4615
 20
-143.3736
  0
VERTEX
  8
LIVELLO_1
 10
621.5012
 20
-143.0184
  0
VERTEX
  8
LIVELLO_1
 10
621.5116
 20
-142.9251
  0
VERTEX
  8
LIVELLO_1
 10
621.5143
 20
-142.9014
  0
VERTEX
  8
LIVELLO_1
 10
621.5168
 20
-142.8775
  0
VERTEX
  8
LIVELLO_1
 10
621.5195
 20
-142.8537
  0
VERTEX
  8
LIVELLO_1
 10
621.5248
 20
-142.8061
  0
VERTEX
  8
LIVELLO_1
 10
621.5276
 20
-142.7823
  0
VERTEX
  8
LIVELLO_1
 10
621.6574
 20
-141.6156
  0
VERTEX
  8
LIVELLO_1
 10
621.66
 20
-141.5918
  0
VERTEX
  8
LIVELLO_1
 10
621.6625
 20
-141.568
  0
VERTEX
  8
LIVELLO_1
 10
621.6652
 20
-141.5442
  0
VERTEX
  8
LIVELLO_1
 10
621.668
 20
-141.5204
  0
VERTEX
  8
LIVELLO_1
 10
621.6704
 20
-141.4965
  0
VERTEX
  8
LIVELLO_1
 10
621.6731
 20
-141.4727
  0
VERTEX
  8
LIVELLO_1
 10
621.6759
 20
-141.4489
  0
VERTEX
  8
LIVELLO_1
 10
621.6784
 20
-141.4251
  0
VERTEX
  8
LIVELLO_1
 10
621.6812
 20
-141.4013
  0
VERTEX
  8
LIVELLO_1
 10
621.7352
 20
-140.9141
  0
VERTEX
  8
LIVELLO_1
 10
621.8708
 20
-139.6852
  0
VERTEX
  8
LIVELLO_1
 10
621.8722
 20
-139.6736
  0
VERTEX
  8
LIVELLO_1
 10
621.9198
 20
-139.2409
  0
VERTEX
  8
LIVELLO_1
 10
622.0995
 20
-137.6029
  0
VERTEX
  8
LIVELLO_1
 10
622.1375
 20
-137.2545
  0
VERTEX
  8
LIVELLO_1
 10
622.2746
 20
-135.9955
  0
VERTEX
  8
LIVELLO_1
 10
622.3206
 20
-135.5727
  0
VERTEX
  8
LIVELLO_1
 10
622.3209
 20
-135.57
  0
VERTEX
  8
LIVELLO_1
 10
622.4625
 20
-134.2612
  0
VERTEX
  8
LIVELLO_1
 10
622.5133
 20
-133.7898
  0
VERTEX
  8
LIVELLO_1
 10
622.6769
 20
-132.267
  0
VERTEX
  8
LIVELLO_1
 10
622.6862
 20
-132.1795
  0
VERTEX
  8
LIVELLO_1
 10
622.7051
 20
-132.0023
  0
VERTEX
  8
LIVELLO_1
 10
622.8551
 20
-130.596
  0
VERTEX
  8
LIVELLO_1
 10
622.8559
 20
-130.5891
  0
VERTEX
  8
LIVELLO_1
 10
622.8989
 20
-130.1847
  0
VERTEX
  8
LIVELLO_1
 10
622.9015
 20
-130.1593
  0
VERTEX
  8
LIVELLO_1
 10
622.9043
 20
-130.1339
  0
VERTEX
  8
LIVELLO_1
 10
622.907
 20
-130.1085
  0
VERTEX
  8
LIVELLO_1
 10
622.9096
 20
-130.0831
  0
VERTEX
  8
LIVELLO_1
 10
622.9123
 20
-130.0578
  0
VERTEX
  8
LIVELLO_1
 10
622.9152
 20
-130.0324
  0
VERTEX
  8
LIVELLO_1
 10
622.9178
 20
-130.007
  0
VERTEX
  8
LIVELLO_1
 10
622.9205
 20
-129.9816
  0
VERTEX
  8
LIVELLO_1
 10
622.923
 20
-129.9563
  0
VERTEX
  8
LIVELLO_1
 10
622.9258
 20
-129.9309
  0
VERTEX
  8
LIVELLO_1
 10
622.9338
 20
-129.8547
  0
VERTEX
  8
LIVELLO_1
 10
622.9366
 20
-129.8293
  0
VERTEX
  8
LIVELLO_1
 10
623.0388
 20
-128.8644
  0
VERTEX
  8
LIVELLO_1
 10
623.0415
 20
-128.839
  0
VERTEX
  8
LIVELLO_1
 10
623.0704
 20
-128.5656
  0
SEQEND
  8
LIVELLO_1
  0
POLYLINE
  8
LIVELLO_1
 66
     1
 70
     1
  0
VERTEX
  8
LIVELLO_1
 10
627.0066
 20
-163.4083
  0
VERTEX
  8
LIVELLO_1
 10
627.0066
 20
-163.4083
  0
SEQEND
  8
LIVELLO_1
  0
POLYLINE
  8
LIVELLO_1
 66
     1
 70
     1
  0
VERTEX
  8
LIVELLO_1
 10
663.5878
 20
6.7174
  0
VERTEX
  8
LIVELLO_1
 10
663.4541
 20
6.7855
  0
VERTEX
  8
LIVELLO_1
 10
663.5878
 20
6.7174
  0
SEQEND
  8
LIVELLO_1
  0
POLYLINE
  8
LIVELLO_1
 66
     1
 70
     1
  0
VERTEX
  8
LIVELLO_1
 10
662.9045
 20
7.0948
  0
VERTEX
  8
LIVELLO_1
 10
662.7542
 20
7.1877
  0
VERTEX
  8
LIVELLO_1
 10
662.9045
 20
7.0948
  0
SEQEND
  8
LIVELLO_1
  0
POLYLINE
  8
LIVELLO_1
 66
     1
 70
     1
  0
VERTEX
  8
LIVELLO_1
 10
623.0704
 20
211.3028
  0
VERTEX
  8
LIVELLO_1
 10
623.0993
 20
211.5762
  0
VERTEX
  8
LIVELLO_1
 10
623.102
 20
211.6016
  0
VERTEX
  8
LIVELLO_1
 10
623.2042
 20
212.5665
  0
VERTEX
  8
LIVELLO_1
 10
623.207
 20
212.5919
  0
VERTEX
  8
LIVELLO_1
 10
623.215
 20
212.6681
  0
VERTEX
  8
LIVELLO_1
 10
623.2178
 20
212.6935
  0
VERTEX
  8
LIVELLO_1
 10
623.2203
 20
212.7188
  0
VERTEX
  8
LIVELLO_1
 10
623.223
 20
212.7442
  0
VERTEX
  8
LIVELLO_1
 10
623.2256
 20
212.7696
  0
VERTEX
  8
LIVELLO_1
 10
623.2285
 20
212.795
  0
VERTEX
  8
LIVELLO_1
 10
623.2312
 20
212.8203
  0
VERTEX
  8
LIVELLO_1
 10
623.2338
 20
212.8457
  0
VERTEX
  8
LIVELLO_1
 10
623.2365
 20
212.8711
  0
VERTEX
  8
LIVELLO_1
 10
623.2393
 20
212.8965
  0
VERTEX
  8
LIVELLO_1
 10
623.2419
 20
212.9219
  0
VERTEX
  8
LIVELLO_1
 10
623.2849
 20
213.3263
  0
VERTEX
  8
LIVELLO_1
 10
623.2857
 20
213.3332
  0
VERTEX
  8
LIVELLO_1
 10
623.4357
 20
214.7395
  0
VERTEX
  8
LIVELLO_1
 10
623.4546
 20
214.9167
  0
VERTEX
  8
LIVELLO_1
 10
623.4639
 20
215.0042
  0
VERTEX
  8
LIVELLO_1
 10
623.6275
 20
216.527
  0
VERTEX
  8
LIVELLO_1
 10
623.6783
 20
216.9984
  0
VERTEX
  8
LIVELLO_1
 10
623.8199
 20
218.3072
  0
VERTEX
  8
LIVELLO_1
 10
623.8202
 20
218.3099
  0
VERTEX
  8
LIVELLO_1
 10
623.8662
 20
218.7327
  0
VERTEX
  8
LIVELLO_1
 10
624.0033
 20
219.9917
  0
VERTEX
  8
LIVELLO_1
 10
624.0413
 20
220.3401
  0
VERTEX
  8
LIVELLO_1
 10
624.221
 20
221.9781
  0
VERTEX
  8
LIVELLO_1
 10
624.2686
 20
222.4108
  0
VERTEX
  8
LIVELLO_1
 10
624.27
 20
222.4224
  0
VERTEX
  8
LIVELLO_1
 10
624.4056
 20
223.6513
  0
VERTEX
  8
LIVELLO_1
 10
624.4596
 20
224.1385
  0
VERTEX
  8
LIVELLO_1
 10
624.4624
 20
224.1623
  0
VERTEX
  8
LIVELLO_1
 10
624.4649
 20
224.1861
  0
VERTEX
  8
LIVELLO_1
 10
624.4677
 20
224.2099
  0
VERTEX
  8
LIVELLO_1
 10
624.4704
 20
224.2337
  0
VERTEX
  8
LIVELLO_1
 10
624.4728
 20
224.2576
  0
VERTEX
  8
LIVELLO_1
 10
624.4756
 20
224.2814
  0
VERTEX
  8
LIVELLO_1
 10
624.4783
 20
224.3052
  0
VERTEX
  8
LIVELLO_1
 10
624.4808
 20
224.329
  0
VERTEX
  8
LIVELLO_1
 10
624.4834
 20
224.3528
  0
VERTEX
  8
LIVELLO_1
 10
624.6132
 20
225.5195
  0
VERTEX
  8
LIVELLO_1
 10
624.616
 20
225.5433
  0
VERTEX
  8
LIVELLO_1
 10
624.6213
 20
225.5909
  0
VERTEX
  8
LIVELLO_1
 10
624.624
 20
225.6147
  0
VERTEX
  8
LIVELLO_1
 10
624.6265
 20
225.6386
  0
VERTEX
  8
LIVELLO_1
 10
624.6292
 20
225.6623
  0
VERTEX
  8
LIVELLO_1
 10
624.6396
 20
225.7556
  0
VERTEX
  8
LIVELLO_1
 10
624.6793
 20
226.1108
  0
VERTEX
  8
LIVELLO_1
 10
624.807
 20
227.251
  0
VERTEX
  8
LIVELLO_1
 10
624.8075
 20
227.2552
  0
VERTEX
  8
LIVELLO_1
 10
624.8752
 20
227.8576
  0
VERTEX
  8
LIVELLO_1
 10
625.0246
 20
229.1805
  0
VERTEX
  8
LIVELLO_1
 10
625.0449
 20
229.3615
  0
VERTEX
  8
LIVELLO_1
 10
625.0546
 20
229.446
  0
VERTEX
  8
LIVELLO_1
 10
625.0571
 20
229.47
  0
VERTEX
  8
LIVELLO_1
 10
625.06
 20
229.494
  0
VERTEX
  8
LIVELLO_1
 10
625.0626
 20
229.5181
  0
VERTEX
  8
LIVELLO_1
 10
625.0653
 20
229.5421
  0
VERTEX
  8
LIVELLO_1
 10
625.071
 20
229.5902
  0
VERTEX
  8
LIVELLO_1
 10
625.1936
 20
230.6715
  0
VERTEX
  8
LIVELLO_1
 10
625.1964
 20
230.6956
  0
VERTEX
  8
LIVELLO_1
 10
625.2046
 20
230.7677
  0
VERTEX
  8
LIVELLO_1
 10
625.2074
 20
230.7917
  0
VERTEX
  8
LIVELLO_1
 10
625.21
 20
230.8157
  0
VERTEX
  8
LIVELLO_1
 10
625.2128
 20
230.8397
  0
VERTEX
  8
LIVELLO_1
 10
625.2156
 20
230.8637
  0
VERTEX
  8
LIVELLO_1
 10
625.2182
 20
230.8877
  0
VERTEX
  8
LIVELLO_1
 10
625.221
 20
230.9118
  0
VERTEX
  8
LIVELLO_1
 10
625.2236
 20
230.9358
  0
VERTEX
  8
LIVELLO_1
 10
625.2264
 20
230.9598
  0
VERTEX
  8
LIVELLO_1
 10
625.2953
 20
231.5632
  0
VERTEX
  8
LIVELLO_1
 10
625.2964
 20
231.5738
  0
VERTEX
  8
LIVELLO_1
 10
625.411
 20
232.5749
  0
VERTEX
  8
LIVELLO_1
 10
625.499
 20
233.3425
  0
VERTEX
  8
LIVELLO_1
 10
625.5748
 20
233.9997
  0
VERTEX
  8
LIVELLO_1
 10
625.721
 20
235.2662
  0
VERTEX
  8
LIVELLO_1
 10
625.8456
 20
236.3408
  0
VERTEX
  8
LIVELLO_1
 10
625.9032
 20
236.8347
  0
VERTEX
  8
LIVELLO_1
 10
626.0476
 20
238.0724
  0
VERTEX
  8
LIVELLO_1
 10
626.096
 20
238.4865
  0
VERTEX
  8
LIVELLO_1
 10
626.0977
 20
238.5012
  0
VERTEX
  8
LIVELLO_1
 10
626.1003
 20
238.5233
  0
VERTEX
  8
LIVELLO_1
 10
626.1029
 20
238.5455
  0
VERTEX
  8
LIVELLO_1
 10
626.1055
 20
238.5676
  0
VERTEX
  8
LIVELLO_1
 10
626.1081
 20
238.5898
  0
VERTEX
  8
LIVELLO_1
 10
626.1107
 20
238.612
  0
VERTEX
  8
LIVELLO_1
 10
626.1185
 20
238.6784
  0
VERTEX
  8
LIVELLO_1
 10
626.1211
 20
238.7006
  0
VERTEX
  8
LIVELLO_1
 10
626.2356
 20
239.6755
  0
VERTEX
  8
LIVELLO_1
 10
626.2382
 20
239.6976
  0
VERTEX
  8
LIVELLO_1
 10
626.2408
 20
239.7198
  0
VERTEX
  8
LIVELLO_1
 10
626.2435
 20
239.7419
  0
VERTEX
  8
LIVELLO_1
 10
626.2512
 20
239.8084
  0
VERTEX
  8
LIVELLO_1
 10
626.2539
 20
239.8305
  0
VERTEX
  8
LIVELLO_1
 10
626.2565
 20
239.8527
  0
VERTEX
  8
LIVELLO_1
 10
626.2591
 20
239.8748
  0
VERTEX
  8
LIVELLO_1
 10
626.2617
 20
239.897
  0
VERTEX
  8
LIVELLO_1
 10
626.2643
 20
239.9192
  0
VERTEX
  8
LIVELLO_1
 10
626.2663
 20
239.937
  0
VERTEX
  8
LIVELLO_1
 10
626.3534
 20
240.6734
  0
VERTEX
  8
LIVELLO_1
 10
626.4591
 20
241.5665
  0
VERTEX
  8
LIVELLO_1
 10
626.5539
 20
242.3656
  0
VERTEX
  8
LIVELLO_1
 10
626.5572
 20
242.3933
  0
VERTEX
  8
LIVELLO_1
 10
626.631
 20
243.0131
  0
VERTEX
  8
LIVELLO_1
 10
626.7322
 20
243.8614
  0
VERTEX
  8
LIVELLO_1
 10
626.8875
 20
245.1574
  0
VERTEX
  8
LIVELLO_1
 10
626.8962
 20
245.2298
  0
VERTEX
  8
LIVELLO_1
 10
627.0066
 20
246.1455
  0
VERTEX
  8
LIVELLO_1
 10
627.0827
 20
246.7771
  0
VERTEX
  8
LIVELLO_1
 10
627.0923
 20
246.8569
  0
VERTEX
  8
LIVELLO_1
 10
627.1861
 20
247.6304
  0
VERTEX
  8
LIVELLO_1
 10
627.264
 20
248.2726
  0
VERTEX
  8
LIVELLO_1
 10
627.2674
 20
248.2993
  0
VERTEX
  8
LIVELLO_1
 10
627.2706
 20
248.3262
  0
VERTEX
  8
LIVELLO_1
 10
627.2739
 20
248.3529
  0
VERTEX
  8
LIVELLO_1
 10
627.277
 20
248.3798
  0
VERTEX
  8
LIVELLO_1
 10
627.2803
 20
248.4065
  0
VERTEX
  8
LIVELLO_1
 10
627.2837
 20
248.4334
  0
VERTEX
  8
LIVELLO_1
 10
627.2869
 20
248.4601
  0
VERTEX
  8
LIVELLO_1
 10
627.2901
 20
248.4869
  0
VERTEX
  8
LIVELLO_1
 10
627.2934
 20
248.5137
  0
VERTEX
  8
LIVELLO_1
 10
627.3
 20
248.5673
  0
VERTEX
  8
LIVELLO_1
 10
627.3031
 20
248.5941
  0
VERTEX
  8
LIVELLO_1
 10
627.3065
 20
248.6208
  0
VERTEX
  8
LIVELLO_1
 10
627.3097
 20
248.6477
  0
VERTEX
  8
LIVELLO_1
 10
627.313
 20
248.6744
  0
VERTEX
  8
LIVELLO_1
 10
627.4174
 20
249.5315
  0
VERTEX
  8
LIVELLO_1
 10
627.4208
 20
249.5583
  0
VERTEX
  8
LIVELLO_1
 10
627.424
 20
249.5851
  0
VERTEX
  8
LIVELLO_1
 10
627.4273
 20
249.6118
  0
VERTEX
  8
LIVELLO_1
 10
627.4305
 20
249.6387
  0
VERTEX
  8
LIVELLO_1
 10
627.4338
 20
249.6654
  0
VERTEX
  8
LIVELLO_1
 10
627.4371
 20
249.6922
  0
VERTEX
  8
LIVELLO_1
 10
627.4402
 20
249.7189
  0
VERTEX
  8
LIVELLO_1
 10
627.4436
 20
249.7458
  0
VERTEX
  8
LIVELLO_1
 10
627.4468
 20
249.7725
  0
VERTEX
  8
LIVELLO_1
 10
627.4501
 20
249.7993
  0
VERTEX
  8
LIVELLO_1
 10
627.4535
 20
249.826
  0
VERTEX
  8
LIVELLO_1
 10
627.4568
 20
249.8529
  0
VERTEX
  8
LIVELLO_1
 10
627.4599
 20
249.8796
  0
VERTEX
  8
LIVELLO_1
 10
627.4632
 20
249.9064
  0
VERTEX
  8
LIVELLO_1
 10
627.4666
 20
249.9331
  0
VERTEX
  8
LIVELLO_1
 10
627.4698
 20
249.96
  0
VERTEX
  8
LIVELLO_1
 10
627.473
 20
249.9867
  0
VERTEX
  8
LIVELLO_1
 10
627.5316
 20
250.4648
  0
VERTEX
  8
LIVELLO_1
 10
627.5389
 20
250.5241
  0
VERTEX
  8
LIVELLO_1
 10
627.646
 20
251.3965
  0
VERTEX
  8
LIVELLO_1
 10
627.6523
 20
251.4477
  0
VERTEX
  8
LIVELLO_1
 10
627.7089
 20
251.9072
  0
VERTEX
  8
LIVELLO_1
 10
627.7154
 20
251.9606
  0
VERTEX
  8
LIVELLO_1
 10
627.7219
 20
252.0139
  0
VERTEX
  8
LIVELLO_1
 10
627.7286
 20
252.0674
  0
VERTEX
  8
LIVELLO_1
 10
627.735
 20
252.1207
  0
VERTEX
  8
LIVELLO_1
 10
627.7417
 20
252.1741
  0
VERTEX
  8
LIVELLO_1
 10
627.7483
 20
252.2276
  0
VERTEX
  8
LIVELLO_1
 10
627.7548
 20
252.2809
  0
VERTEX
  8
LIVELLO_1
 10
627.7615
 20
252.3343
  0
VERTEX
  8
LIVELLO_1
 10
627.7746
 20
252.4411
  0
VERTEX
  8
LIVELLO_1
 10
627.7812
 20
252.4944
  0
VERTEX
  8
LIVELLO_1
 10
627.8539
 20
253.0816
  0
VERTEX
  8
LIVELLO_1
 10
627.8604
 20
253.135
  0
VERTEX
  8
LIVELLO_1
 10
627.8671
 20
253.1883
  0
VERTEX
  8
LIVELLO_1
 10
627.8735
 20
253.2417
  0
VERTEX
  8
LIVELLO_1
 10
627.8802
 20
253.2951
  0
VERTEX
  8
LIVELLO_1
 10
627.8868
 20
253.3484
  0
VERTEX
  8
LIVELLO_1
 10
627.8935
 20
253.4018
  0
VERTEX
  8
LIVELLO_1
 10
627.9002
 20
253.4552
  0
VERTEX
  8
LIVELLO_1
 10
627.9067
 20
253.5085
  0
VERTEX
  8
LIVELLO_1
 10
627.9133
 20
253.5619
  0
VERTEX
  8
LIVELLO_1
 10
627.92
 20
253.6153
  0
VERTEX
  8
LIVELLO_1
 10
627.9265
 20
253.6686
  0
VERTEX
  8
LIVELLO_1
 10
627.9331
 20
253.722
  0
VERTEX
  8
LIVELLO_1
 10
627.9398
 20
253.7753
  0
VERTEX
  8
LIVELLO_1
 10
627.9465
 20
253.8287
  0
VERTEX
  8
LIVELLO_1
 10
627.953
 20
253.8821
  0
VERTEX
  8
LIVELLO_1
 10
627.9596
 20
253.9354
  0
VERTEX
  8
LIVELLO_1
 10
627.9663
 20
253.9888
  0
VERTEX
  8
LIVELLO_1
 10
627.9729
 20
254.0421
  0
VERTEX
  8
LIVELLO_1
 10
627.9795
 20
254.0954
  0
VERTEX
  8
LIVELLO_1
 10
628.0856
 20
254.949
  0
VERTEX
  8
LIVELLO_1
 10
628.0924
 20
255.0023
  0
VERTEX
  8
LIVELLO_1
 10
628.099
 20
255.0557
  0
VERTEX
  8
LIVELLO_1
 10
628.1058
 20
255.109
  0
VERTEX
  8
LIVELLO_1
 10
628.1123
 20
255.1624
  0
VERTEX
  8
LIVELLO_1
 10
628.119
 20
255.2157
  0
VERTEX
  8
LIVELLO_1
 10
628.1257
 20
255.269
  0
VERTEX
  8
LIVELLO_1
 10
628.1323
 20
255.3224
  0
VERTEX
  8
LIVELLO_1
 10
628.1745
 20
255.6602
  0
VERTEX
  8
LIVELLO_1
 10
628.3031
 20
256.6891
  0
VERTEX
  8
LIVELLO_1
 10
628.3038
 20
256.6937
  0
VERTEX
  8
LIVELLO_1
 10
628.3627
 20
257.1632
  0
VERTEX
  8
LIVELLO_1
 10
628.3664
 20
257.1929
  0
VERTEX
  8
LIVELLO_1
 10
628.37
 20
257.2226
  0
VERTEX
  8
LIVELLO_1
 10
628.3738
 20
257.2524
  0
VERTEX
  8
LIVELLO_1
 10
628.3776
 20
257.2821
  0
VERTEX
  8
LIVELLO_1
 10
628.3814
 20
257.3118
  0
VERTEX
  8
LIVELLO_1
 10
628.3851
 20
257.3416
  0
VERTEX
  8
LIVELLO_1
 10
628.3888
 20
257.3713
  0
VERTEX
  8
LIVELLO_1
 10
628.3926
 20
257.4011
  0
VERTEX
  8
LIVELLO_1
 10
628.3964
 20
257.4308
  0
VERTEX
  8
LIVELLO_1
 10
628.4001
 20
257.4605
  0
VERTEX
  8
LIVELLO_1
 10
628.4038
 20
257.4903
  0
VERTEX
  8
LIVELLO_1
 10
628.4076
 20
257.52
  0
VERTEX
  8
LIVELLO_1
 10
628.4114
 20
257.5497
  0
VERTEX
  8
LIVELLO_1
 10
628.4151
 20
257.5795
  0
VERTEX
  8
LIVELLO_1
 10
628.4187
 20
257.6092
  0
VERTEX
  8
LIVELLO_1
 10
628.4225
 20
257.639
  0
VERTEX
  8
LIVELLO_1
 10
628.4262
 20
257.6687
  0
VERTEX
  8
LIVELLO_1
 10
628.4301
 20
257.6984
  0
VERTEX
  8
LIVELLO_1
 10
628.5424
 20
258.5903
  0
VERTEX
  8
LIVELLO_1
 10
628.5463
 20
258.6201
  0
VERTEX
  8
LIVELLO_1
 10
628.55
 20
258.6498
  0
VERTEX
  8
LIVELLO_1
 10
628.5575
 20
258.7092
  0
VERTEX
  8
LIVELLO_1
 10
628.5613
 20
258.7389
  0
VERTEX
  8
LIVELLO_1
 10
628.5649
 20
258.7687
  0
VERTEX
  8
LIVELLO_1
 10
628.5687
 20
258.7984
  0
VERTEX
  8
LIVELLO_1
 10
628.5724
 20
258.8281
  0
VERTEX
  8
LIVELLO_1
 10
628.5763
 20
258.8578
  0
VERTEX
  8
LIVELLO_1
 10
628.5799
 20
258.8875
  0
VERTEX
  8
LIVELLO_1
 10
628.5838
 20
258.9173
  0
VERTEX
  8
LIVELLO_1
 10
628.5876
 20
258.947
  0
VERTEX
  8
LIVELLO_1
 10
628.5914
 20
258.9768
  0
VERTEX
  8
LIVELLO_1
 10
628.5951
 20
259.0064
  0
VERTEX
  8
LIVELLO_1
 10
628.5989
 20
259.0361
  0
VERTEX
  8
LIVELLO_1
 10
628.6027
 20
259.0659
  0
VERTEX
  8
LIVELLO_1
 10
628.6495
 20
259.4369
  0
VERTEX
  8
LIVELLO_1
 10
628.655
 20
259.4816
  0
VERTEX
  8
LIVELLO_1
 10
628.7984
 20
260.6106
  0
VERTEX
  8
LIVELLO_1
 10
628.7999
 20
260.6218
  0
VERTEX
  8
LIVELLO_1
 10
628.8131
 20
260.726
  0
VERTEX
  8
LIVELLO_1
 10
628.8144
 20
260.7352
  0
VERTEX
  8
LIVELLO_1
 10
628.969
 20
261.9482
  0
VERTEX
  8
LIVELLO_1
 10
628.9697
 20
261.9535
  0
VERTEX
  8
LIVELLO_1
 10
629.1346
 20
263.2414
  0
VERTEX
  8
LIVELLO_1
 10
629.2553
 20
264.1787
  0
VERTEX
  8
LIVELLO_1
 10
629.2587
 20
264.2063
  0
VERTEX
  8
LIVELLO_1
 10
629.317
 20
264.6568
  0
VERTEX
  8
LIVELLO_1
 10
629.4621
 20
265.7788
  0
VERTEX
  8
LIVELLO_1
 10
629.4788
 20
265.9084
  0
VERTEX
  8
LIVELLO_1
 10
629.4864
 20
265.9661
  0
VERTEX
  8
LIVELLO_1
 10
629.4939
 20
266.0237
  0
VERTEX
  8
LIVELLO_1
 10
629.5014
 20
266.0814
  0
VERTEX
  8
LIVELLO_1
 10
629.5088
 20
266.1391
  0
VERTEX
  8
LIVELLO_1
 10
629.5164
 20
266.1969
  0
VERTEX
  8
LIVELLO_1
 10
629.5239
 20
266.2546
  0
VERTEX
  8
LIVELLO_1
 10
629.5313
 20
266.3123
  0
VERTEX
  8
LIVELLO_1
 10
629.5389
 20
266.3699
  0
VERTEX
  8
LIVELLO_1
 10
629.5463
 20
266.4276
  0
VERTEX
  8
LIVELLO_1
 10
629.5538
 20
266.4853
  0
VERTEX
  8
LIVELLO_1
 10
629.5614
 20
266.543
  0
VERTEX
  8
LIVELLO_1
 10
629.5688
 20
266.6007
  0
VERTEX
  8
LIVELLO_1
 10
629.5762
 20
266.6584
  0
VERTEX
  8
LIVELLO_1
 10
629.5838
 20
266.7161
  0
VERTEX
  8
LIVELLO_1
 10
629.6437
 20
267.1775
  0
VERTEX
  8
LIVELLO_1
 10
629.6513
 20
267.2351
  0
VERTEX
  8
LIVELLO_1
 10
629.6588
 20
267.2928
  0
VERTEX
  8
LIVELLO_1
 10
629.6664
 20
267.3505
  0
VERTEX
  8
LIVELLO_1
 10
629.6739
 20
267.4081
  0
VERTEX
  8
LIVELLO_1
 10
629.6816
 20
267.4657
  0
VERTEX
  8
LIVELLO_1
 10
629.689
 20
267.5234
  0
VERTEX
  8
LIVELLO_1
 10
629.6964
 20
267.5811
  0
VERTEX
  8
LIVELLO_1
 10
629.704
 20
267.6388
  0
VERTEX
  8
LIVELLO_1
 10
629.7115
 20
267.6964
  0
VERTEX
  8
LIVELLO_1
 10
629.719
 20
267.7541
  0
VERTEX
  8
LIVELLO_1
 10
629.7265
 20
267.8118
  0
VERTEX
  8
LIVELLO_1
 10
629.7342
 20
267.8694
  0
VERTEX
  8
LIVELLO_1
 10
629.7416
 20
267.9271
  0
VERTEX
  8
LIVELLO_1
 10
629.7493
 20
267.9847
  0
VERTEX
  8
LIVELLO_1
 10
629.7567
 20
268.0424
  0
VERTEX
  8
LIVELLO_1
 10
629.7643
 20
268.1
  0
VERTEX
  8
LIVELLO_1
 10
629.7718
 20
268.1576
  0
VERTEX
  8
LIVELLO_1
 10
629.7793
 20
268.2153
  0
VERTEX
  8
LIVELLO_1
 10
629.7869
 20
268.2729
  0
VERTEX
  8
LIVELLO_1
 10
629.7943
 20
268.3306
  0
VERTEX
  8
LIVELLO_1
 10
629.802
 20
268.3882
  0
VERTEX
  8
LIVELLO_1
 10
629.8095
 20
268.4459
  0
VERTEX
  8
LIVELLO_1
 10
629.9002
 20
269.1375
  0
VERTEX
  8
LIVELLO_1
 10
629.9077
 20
269.1951
  0
VERTEX
  8
LIVELLO_1
 10
629.9153
 20
269.2528
  0
VERTEX
  8
LIVELLO_1
 10
629.9228
 20
269.3104
  0
VERTEX
  8
LIVELLO_1
 10
629.9303
 20
269.368
  0
VERTEX
  8
LIVELLO_1
 10
629.9379
 20
269.4256
  0
VERTEX
  8
LIVELLO_1
 10
629.9456
 20
269.4833
  0
VERTEX
  8
LIVELLO_1
 10
629.953
 20
269.5409
  0
VERTEX
  8
LIVELLO_1
 10
629.9607
 20
269.5985
  0
VERTEX
  8
LIVELLO_1
 10
629.9779
 20
269.7295
  0
VERTEX
  8
LIVELLO_1
 10
629.9885
 20
269.8085
  0
VERTEX
  8
LIVELLO_1
 10
629.9986
 20
269.8875
  0
VERTEX
  8
LIVELLO_1
 10
630.0091
 20
269.9666
  0
VERTEX
  8
LIVELLO_1
 10
630.0195
 20
270.0455
  0
VERTEX
  8
LIVELLO_1
 10
630.03
 20
270.1245
  0
VERTEX
  8
LIVELLO_1
 10
630.1655
 20
271.1512
  0
VERTEX
  8
LIVELLO_1
 10
630.1758
 20
271.2302
  0
VERTEX
  8
LIVELLO_1
 10
630.1863
 20
271.3092
  0
VERTEX
  8
LIVELLO_1
 10
630.1966
 20
271.3881
  0
VERTEX
  8
LIVELLO_1
 10
630.2072
 20
271.4671
  0
VERTEX
  8
LIVELLO_1
 10
630.228
 20
271.625
  0
VERTEX
  8
LIVELLO_1
 10
630.2385
 20
271.7039
  0
VERTEX
  8
LIVELLO_1
 10
630.2488
 20
271.7829
  0
VERTEX
  8
LIVELLO_1
 10
630.2594
 20
271.8618
  0
VERTEX
  8
LIVELLO_1
 10
630.4166
 20
273.0457
  0
VERTEX
  8
LIVELLO_1
 10
630.4271
 20
273.1246
  0
VERTEX
  8
LIVELLO_1
 10
630.4377
 20
273.2035
  0
VERTEX
  8
LIVELLO_1
 10
630.448
 20
273.2823
  0
VERTEX
  8
LIVELLO_1
 10
630.4586
 20
273.3612
  0
VERTEX
  8
LIVELLO_1
 10
630.4692
 20
273.4401
  0
VERTEX
  8
LIVELLO_1
 10
630.4797
 20
273.519
  0
VERTEX
  8
LIVELLO_1
 10
630.6166
 20
274.5444
  0
VERTEX
  8
LIVELLO_1
 10
630.6271
 20
274.6232
  0
VERTEX
  8
LIVELLO_1
 10
630.6377
 20
274.7021
  0
VERTEX
  8
LIVELLO_1
 10
630.6482
 20
274.781
  0
VERTEX
  8
LIVELLO_1
 10
630.6569
 20
274.8452
  0
VERTEX
  8
LIVELLO_1
 10
630.697
 20
275.145
  0
VERTEX
  8
LIVELLO_1
 10
630.7373
 20
275.4447
  0
VERTEX
  8
LIVELLO_1
 10
630.892
 20
276.5959
  0
VERTEX
  8
LIVELLO_1
 10
630.8985
 20
276.6431
  0
VERTEX
  8
LIVELLO_1
 10
630.939
 20
276.9426
  0
VERTEX
  8
LIVELLO_1
 10
631.1414
 20
278.4397
  0
VERTEX
  8
LIVELLO_1
 10
631.1822
 20
278.7389
  0
VERTEX
  8
LIVELLO_1
 10
631.345
 20
279.9358
  0
VERTEX
  8
LIVELLO_1
 10
631.3859
 20
280.235
  0
VERTEX
  8
LIVELLO_1
 10
631.4266
 20
280.5341
  0
VERTEX
  8
LIVELLO_1
 10
631.4676
 20
280.8331
  0
VERTEX
  8
LIVELLO_1
 10
631.5905
 20
281.73
  0
VERTEX
  8
LIVELLO_1
 10
631.6316
 20
282.0289
  0
VERTEX
  8
LIVELLO_1
 10
631.6726
 20
282.3277
  0
VERTEX
  8
LIVELLO_1
 10
631.8789
 20
283.8214
  0
VERTEX
  8
LIVELLO_1
 10
631.9201
 20
284.12
  0
VERTEX
  8
LIVELLO_1
 10
632.0857
 20
285.3141
  0
VERTEX
  8
LIVELLO_1
 10
632.1274
 20
285.6126
  0
VERTEX
  8
LIVELLO_1
 10
632.169
 20
285.9109
  0
VERTEX
  8
LIVELLO_1
 10
632.3355
 20
287.1042
  0
VERTEX
  8
LIVELLO_1
 10
632.3773
 20
287.4024
  0
VERTEX
  8
LIVELLO_1
 10
632.5867
 20
288.8928
  0
VERTEX
  8
LIVELLO_1
 10
632.6287
 20
289.1907
  0
VERTEX
  8
LIVELLO_1
 10
632.6707
 20
289.4887
  0
VERTEX
  8
LIVELLO_1
 10
632.8393
 20
290.68
  0
VERTEX
  8
LIVELLO_1
 10
632.8813
 20
290.9777
  0
VERTEX
  8
LIVELLO_1
 10
632.9368
 20
291.3686
  0
VERTEX
  8
LIVELLO_1
 10
624.4899
 20
291.3686
  0
VERTEX
  8
LIVELLO_1
 10
624.4678
 20
290.7889
  0
VERTEX
  8
LIVELLO_1
 10
624.4513
 20
290.3549
  0
VERTEX
  8
LIVELLO_1
 10
624.4195
 20
289.523
  0
VERTEX
  8
LIVELLO_1
 10
624.4087
 20
289.2365
  0
VERTEX
  8
LIVELLO_1
 10
624.3955
 20
288.8901
  0
VERTEX
  8
LIVELLO_1
 10
624.3714
 20
288.257
  0
VERTEX
  8
LIVELLO_1
 10
624.3662
 20
288.1179
  0
VERTEX
  8
LIVELLO_1
 10
624.2994
 20
286.3576
  0
VERTEX
  8
LIVELLO_1
 10
624.2813
 20
285.8801
  0
VERTEX
  8
LIVELLO_1
 10
624.2755
 20
285.7244
  0
VERTEX
  8
LIVELLO_1
 10
624.2543
 20
285.1671
  0
VERTEX
  8
LIVELLO_1
 10
624.2391
 20
284.761
  0
VERTEX
  8
LIVELLO_1
 10
624.084
 20
280.657
  0
VERTEX
  8
LIVELLO_1
 10
624.0699
 20
280.2835
  0
VERTEX
  8
LIVELLO_1
 10
623.8221
 20
273.6847
  0
VERTEX
  8
LIVELLO_1
 10
623.8176
 20
273.5629
  0
VERTEX
  8
LIVELLO_1
 10
623.7272
 20
271.1481
  0
VERTEX
  8
LIVELLO_1
 10
623.7036
 20
270.5139
  0
VERTEX
  8
LIVELLO_1
 10
623.6921
 20
270.2008
  0
VERTEX
  8
LIVELLO_1
 10
623.68
 20
269.8795
  0
VERTEX
  8
LIVELLO_1
 10
623.6502
 20
269.0798
  0
VERTEX
  8
LIVELLO_1
 10
623.5855
 20
267.3418
  0
VERTEX
  8
LIVELLO_1
 10
623.5669
 20
266.8374
  0
VERTEX
  8
LIVELLO_1
 10
623.4207
 20
262.8991
  0
VERTEX
  8
LIVELLO_1
 10
623.4005
 20
262.351
  0
VERTEX
  8
LIVELLO_1
 10
623.2565
 20
258.4542
  0
VERTEX
  8
LIVELLO_1
 10
623.2348
 20
257.8626
  0
VERTEX
  8
LIVELLO_1
 10
623.0704
 20
253.3895
  0
VERTEX
  8
LIVELLO_1
 10
622.906
 20
257.8626
  0
VERTEX
  8
LIVELLO_1
 10
622.8843
 20
258.4542
  0
VERTEX
  8
LIVELLO_1
 10
622.7403
 20
262.351
  0
VERTEX
  8
LIVELLO_1
 10
622.7201
 20
262.8991
  0
VERTEX
  8
LIVELLO_1
 10
622.5739
 20
266.8374
  0
VERTEX
  8
LIVELLO_1
 10
622.5553
 20
267.3418
  0
VERTEX
  8
LIVELLO_1
 10
622.4906
 20
269.0798
  0
VERTEX
  8
LIVELLO_1
 10
622.4608
 20
269.8795
  0
VERTEX
  8
LIVELLO_1
 10
622.4487
 20
270.2008
  0
VERTEX
  8
LIVELLO_1
 10
622.4372
 20
270.5139
  0
VERTEX
  8
LIVELLO_1
 10
622.4136
 20
271.1481
  0
VERTEX
  8
LIVELLO_1
 10
622.3232
 20
273.5629
  0
VERTEX
  8
LIVELLO_1
 10
622.3187
 20
273.6847
  0
VERTEX
  8
LIVELLO_1
 10
622.0709
 20
280.2835
  0
VERTEX
  8
LIVELLO_1
 10
622.0568
 20
280.657
  0
VERTEX
  8
LIVELLO_1
 10
621.9017
 20
284.761
  0
VERTEX
  8
LIVELLO_1
 10
621.8865
 20
285.1671
  0
VERTEX
  8
LIVELLO_1
 10
621.8653
 20
285.7244
  0
VERTEX
  8
LIVELLO_1
 10
621.8595
 20
285.8801
  0
VERTEX
  8
LIVELLO_1
 10
621.8414
 20
286.3576
  0
VERTEX
  8
LIVELLO_1
 10
621.7746
 20
288.1179
  0
VERTEX
  8
LIVELLO_1
 10
621.7694
 20
288.257
  0
VERTEX
  8
LIVELLO_1
 10
621.7453
 20
288.8901
  0
VERTEX
  8
LIVELLO_1
 10
621.7321
 20
289.2365
  0
VERTEX
  8
LIVELLO_1
 10
621.7213
 20
289.523
  0
VERTEX
  8
LIVELLO_1
 10
621.6895
 20
290.3549
  0
VERTEX
  8
LIVELLO_1
 10
621.673
 20
290.7889
  0
VERTEX
  8
LIVELLO_1
 10
621.6509
 20
291.3686
  0
VERTEX
  8
LIVELLO_1
 10
613.204
 20
291.3686
  0
VERTEX
  8
LIVELLO_1
 10
613.2595
 20
290.9777
  0
VERTEX
  8
LIVELLO_1
 10
613.3015
 20
290.68
  0
VERTEX
  8
LIVELLO_1
 10
613.4701
 20
289.4887
  0
VERTEX
  8
LIVELLO_1
 10
613.5121
 20
289.1907
  0
VERTEX
  8
LIVELLO_1
 10
613.5541
 20
288.8928
  0
VERTEX
  8
LIVELLO_1
 10
613.7635
 20
287.4024
  0
VERTEX
  8
LIVELLO_1
 10
613.8053
 20
287.1042
  0
VERTEX
  8
LIVELLO_1
 10
613.9718
 20
285.9109
  0
VERTEX
  8
LIVELLO_1
 10
614.0134
 20
285.6126
  0
VERTEX
  8
LIVELLO_1
 10
614.0551
 20
285.3141
  0
VERTEX
  8
LIVELLO_1
 10
614.2207
 20
284.12
  0
VERTEX
  8
LIVELLO_1
 10
614.2619
 20
283.8214
  0
VERTEX
  8
LIVELLO_1
 10
614.4682
 20
282.3277
  0
VERTEX
  8
LIVELLO_1
 10
614.5092
 20
282.0289
  0
VERTEX
  8
LIVELLO_1
 10
614.5503
 20
281.73
  0
VERTEX
  8
LIVELLO_1
 10
614.6732
 20
280.8331
  0
VERTEX
  8
LIVELLO_1
 10
614.7142
 20
280.5341
  0
VERTEX
  8
LIVELLO_1
 10
614.7549
 20
280.235
  0
VERTEX
  8
LIVELLO_1
 10
614.7958
 20
279.9358
  0
VERTEX
  8
LIVELLO_1
 10
614.9586
 20
278.7389
  0
VERTEX
  8
LIVELLO_1
 10
614.9994
 20
278.4397
  0
VERTEX
  8
LIVELLO_1
 10
615.2018
 20
276.9426
  0
VERTEX
  8
LIVELLO_1
 10
615.2423
 20
276.6431
  0
VERTEX
  8
LIVELLO_1
 10
615.2488
 20
276.5959
  0
VERTEX
  8
LIVELLO_1
 10
615.4035
 20
275.4447
  0
VERTEX
  8
LIVELLO_1
 10
615.4438
 20
275.145
  0
VERTEX
  8
LIVELLO_1
 10
615.4839
 20
274.8452
  0
VERTEX
  8
LIVELLO_1
 10
615.4926
 20
274.781
  0
VERTEX
  8
LIVELLO_1
 10
615.5031
 20
274.7021
  0
VERTEX
  8
LIVELLO_1
 10
615.5137
 20
274.6232
  0
VERTEX
  8
LIVELLO_1
 10
615.5242
 20
274.5444
  0
VERTEX
  8
LIVELLO_1
 10
615.6611
 20
273.519
  0
VERTEX
  8
LIVELLO_1
 10
615.6716
 20
273.4401
  0
VERTEX
  8
LIVELLO_1
 10
615.6822
 20
273.3612
  0
VERTEX
  8
LIVELLO_1
 10
615.6928
 20
273.2823
  0
VERTEX
  8
LIVELLO_1
 10
615.7031
 20
273.2035
  0
VERTEX
  8
LIVELLO_1
 10
615.7137
 20
273.1246
  0
VERTEX
  8
LIVELLO_1
 10
615.7242
 20
273.0457
  0
VERTEX
  8
LIVELLO_1
 10
615.8814
 20
271.8618
  0
VERTEX
  8
LIVELLO_1
 10
615.892
 20
271.7829
  0
VERTEX
  8
LIVELLO_1
 10
615.9023
 20
271.7039
  0
VERTEX
  8
LIVELLO_1
 10
615.9128
 20
271.625
  0
VERTEX
  8
LIVELLO_1
 10
615.9336
 20
271.4671
  0
VERTEX
  8
LIVELLO_1
 10
615.9442
 20
271.3881
  0
VERTEX
  8
LIVELLO_1
 10
615.9545
 20
271.3092
  0
VERTEX
  8
LIVELLO_1
 10
615.965
 20
271.2302
  0
VERTEX
  8
LIVELLO_1
 10
615.9753
 20
271.1512
  0
VERTEX
  8
LIVELLO_1
 10
616.1108
 20
270.1245
  0
VERTEX
  8
LIVELLO_1
 10
616.1213
 20
270.0455
  0
VERTEX
  8
LIVELLO_1
 10
616.1317
 20
269.9666
  0
VERTEX
  8
LIVELLO_1
 10
616.1422
 20
269.8875
  0
VERTEX
  8
LIVELLO_1
 10
616.1523
 20
269.8085
  0
VERTEX
  8
LIVELLO_1
 10
616.1629
 20
269.7295
  0
VERTEX
  8
LIVELLO_1
 10
616.1801
 20
269.5985
  0
VERTEX
  8
LIVELLO_1
 10
616.1878
 20
269.5409
  0
VERTEX
  8
LIVELLO_1
 10
616.1952
 20
269.4833
  0
VERTEX
  8
LIVELLO_1
 10
616.2029
 20
269.4256
  0
VERTEX
  8
LIVELLO_1
 10
616.2105
 20
269.368
  0
VERTEX
  8
LIVELLO_1
 10
616.218
 20
269.3104
  0
VERTEX
  8
LIVELLO_1
 10
616.2255
 20
269.2528
  0
VERTEX
  8
LIVELLO_1
 10
616.2331
 20
269.1951
  0
VERTEX
  8
LIVELLO_1
 10
616.2406
 20
269.1375
  0
VERTEX
  8
LIVELLO_1
 10
616.3313
 20
268.4459
  0
VERTEX
  8
LIVELLO_1
 10
616.3388
 20
268.3882
  0
VERTEX
  8
LIVELLO_1
 10
616.3465
 20
268.3306
  0
VERTEX
  8
LIVELLO_1
 10
616.3539
 20
268.2729
  0
VERTEX
  8
LIVELLO_1
 10
616.3615
 20
268.2153
  0
VERTEX
  8
LIVELLO_1
 10
616.369
 20
268.1576
  0
VERTEX
  8
LIVELLO_1
 10
616.3765
 20
268.1
  0
VERTEX
  8
LIVELLO_1
 10
616.3841
 20
268.0424
  0
VERTEX
  8
LIVELLO_1
 10
616.3915
 20
267.9847
  0
VERTEX
  8
LIVELLO_1
 10
616.3992
 20
267.9271
  0
VERTEX
  8
LIVELLO_1
 10
616.4066
 20
267.8694
  0
VERTEX
  8
LIVELLO_1
 10
616.4143
 20
267.8118
  0
VERTEX
  8
LIVELLO_1
 10
616.4218
 20
267.7541
  0
VERTEX
  8
LIVELLO_1
 10
616.4293
 20
267.6964
  0
VERTEX
  8
LIVELLO_1
 10
616.4368
 20
267.6388
  0
VERTEX
  8
LIVELLO_1
 10
616.4444
 20
267.5811
  0
VERTEX
  8
LIVELLO_1
 10
616.4518
 20
267.5234
  0
VERTEX
  8
LIVELLO_1
 10
616.4592
 20
267.4657
  0
VERTEX
  8
LIVELLO_1
 10
616.4669
 20
267.4081
  0
VERTEX
  8
LIVELLO_1
 10
616.4744
 20
267.3505
  0
VERTEX
  8
LIVELLO_1
 10
616.482
 20
267.2928
  0
VERTEX
  8
LIVELLO_1
 10
616.4895
 20
267.2351
  0
VERTEX
  8
LIVELLO_1
 10
616.4971
 20
267.1775
  0
VERTEX
  8
LIVELLO_1
 10
616.557
 20
266.7161
  0
VERTEX
  8
LIVELLO_1
 10
616.5646
 20
266.6584
  0
VERTEX
  8
LIVELLO_1
 10
616.572
 20
266.6007
  0
VERTEX
  8
LIVELLO_1
 10
616.5794
 20
266.543
  0
VERTEX
  8
LIVELLO_1
 10
616.587
 20
266.4853
  0
VERTEX
  8
LIVELLO_1
 10
616.5945
 20
266.4276
  0
VERTEX
  8
LIVELLO_1
 10
616.6019
 20
266.3699
  0
VERTEX
  8
LIVELLO_1
 10
616.6095
 20
266.3123
  0
VERTEX
  8
LIVELLO_1
 10
616.6169
 20
266.2546
  0
VERTEX
  8
LIVELLO_1
 10
616.6244
 20
266.1969
  0
VERTEX
  8
LIVELLO_1
 10
616.632
 20
266.1391
  0
VERTEX
  8
LIVELLO_1
 10
616.6394
 20
266.0814
  0
VERTEX
  8
LIVELLO_1
 10
616.6469
 20
266.0237
  0
VERTEX
  8
LIVELLO_1
 10
616.6544
 20
265.9661
  0
VERTEX
  8
LIVELLO_1
 10
616.662
 20
265.9084
  0
VERTEX
  8
LIVELLO_1
 10
616.6787
 20
265.7788
  0
VERTEX
  8
LIVELLO_1
 10
616.8238
 20
264.6568
  0
VERTEX
  8
LIVELLO_1
 10
616.8821
 20
264.2063
  0
VERTEX
  8
LIVELLO_1
 10
616.8855
 20
264.1787
  0
VERTEX
  8
LIVELLO_1
 10
617.0062
 20
263.2414
  0
VERTEX
  8
LIVELLO_1
 10
617.1711
 20
261.9535
  0
VERTEX
  8
LIVELLO_1
 10
617.1718
 20
261.9482
  0
VERTEX
  8
LIVELLO_1
 10
617.3264
 20
260.7352
  0
VERTEX
  8
LIVELLO_1
 10
617.3277
 20
260.726
  0
VERTEX
  8
LIVELLO_1
 10
617.3409
 20
260.6218
  0
VERTEX
  8
LIVELLO_1
 10
617.3424
 20
260.6106
  0
VERTEX
  8
LIVELLO_1
 10
617.4858
 20
259.4816
  0
VERTEX
  8
LIVELLO_1
 10
617.4913
 20
259.4369
  0
VERTEX
  8
LIVELLO_1
 10
617.5381
 20
259.0659
  0
VERTEX
  8
LIVELLO_1
 10
617.5419
 20
259.0361
  0
VERTEX
  8
LIVELLO_1
 10
617.5457
 20
259.0064
  0
VERTEX
  8
LIVELLO_1
 10
617.5494
 20
258.9768
  0
VERTEX
  8
LIVELLO_1
 10
617.5532
 20
258.947
  0
VERTEX
  8
LIVELLO_1
 10
617.557
 20
258.9173
  0
VERTEX
  8
LIVELLO_1
 10
617.5609
 20
258.8875
  0
VERTEX
  8
LIVELLO_1
 10
617.5645
 20
258.8578
  0
VERTEX
  8
LIVELLO_1
 10
617.5684
 20
258.8281
  0
VERTEX
  8
LIVELLO_1
 10
617.5721
 20
258.7984
  0
VERTEX
  8
LIVELLO_1
 10
617.5759
 20
258.7687
  0
VERTEX
  8
LIVELLO_1
 10
617.5795
 20
258.7389
  0
VERTEX
  8
LIVELLO_1
 10
617.5833
 20
258.7092
  0
VERTEX
  8
LIVELLO_1
 10
617.5908
 20
258.6498
  0
VERTEX
  8
LIVELLO_1
 10
617.5945
 20
258.6201
  0
VERTEX
  8
LIVELLO_1
 10
617.5984
 20
258.5903
  0
VERTEX
  8
LIVELLO_1
 10
617.7107
 20
257.6984
  0
VERTEX
  8
LIVELLO_1
 10
617.7146
 20
257.6687
  0
VERTEX
  8
LIVELLO_1
 10
617.7183
 20
257.639
  0
VERTEX
  8
LIVELLO_1
 10
617.7221
 20
257.6092
  0
VERTEX
  8
LIVELLO_1
 10
617.7257
 20
257.5795
  0
VERTEX
  8
LIVELLO_1
 10
617.7294
 20
257.5497
  0
VERTEX
  8
LIVELLO_1
 10
617.7332
 20
257.52
  0
VERTEX
  8
LIVELLO_1
 10
617.737
 20
257.4903
  0
VERTEX
  8
LIVELLO_1
 10
617.7407
 20
257.4605
  0
VERTEX
  8
LIVELLO_1
 10
617.7444
 20
257.4308
  0
VERTEX
  8
LIVELLO_1
 10
617.7482
 20
257.4011
  0
VERTEX
  8
LIVELLO_1
 10
617.752
 20
257.3713
  0
VERTEX
  8
LIVELLO_1
 10
617.7557
 20
257.3416
  0
VERTEX
  8
LIVELLO_1
 10
617.7594
 20
257.3118
  0
VERTEX
  8
LIVELLO_1
 10
617.7632
 20
257.2821
  0
VERTEX
  8
LIVELLO_1
 10
617.767
 20
257.2524
  0
VERTEX
  8
LIVELLO_1
 10
617.7708
 20
257.2226
  0
VERTEX
  8
LIVELLO_1
 10
617.7744
 20
257.1929
  0
VERTEX
  8
LIVELLO_1
 10
617.7781
 20
257.1632
  0
VERTEX
  8
LIVELLO_1
 10
617.837
 20
256.6937
  0
VERTEX
  8
LIVELLO_1
 10
617.8377
 20
256.6891
  0
VERTEX
  8
LIVELLO_1
 10
617.9663
 20
255.6602
  0
VERTEX
  8
LIVELLO_1
 10
618.0085
 20
255.3224
  0
VERTEX
  8
LIVELLO_1
 10
618.0151
 20
255.269
  0
VERTEX
  8
LIVELLO_1
 10
618.0218
 20
255.2157
  0
VERTEX
  8
LIVELLO_1
 10
618.0285
 20
255.1624
  0
VERTEX
  8
LIVELLO_1
 10
618.035
 20
255.109
  0
VERTEX
  8
LIVELLO_1
 10
618.0418
 20
255.0557
  0
VERTEX
  8
LIVELLO_1
 10
618.0484
 20
255.0023
  0
VERTEX
  8
LIVELLO_1
 10
618.0552
 20
254.949
  0
VERTEX
  8
LIVELLO_1
 10
618.1613
 20
254.0954
  0
VERTEX
  8
LIVELLO_1
 10
618.1679
 20
254.0421
  0
VERTEX
  8
LIVELLO_1
 10
618.1745
 20
253.9888
  0
VERTEX
  8
LIVELLO_1
 10
618.1812
 20
253.9354
  0
VERTEX
  8
LIVELLO_1
 10
618.1878
 20
253.8821
  0
VERTEX
  8
LIVELLO_1
 10
618.1943
 20
253.8287
  0
VERTEX
  8
LIVELLO_1
 10
618.201
 20
253.7753
  0
VERTEX
  8
LIVELLO_1
 10
618.2077
 20
253.722
  0
VERTEX
  8
LIVELLO_1
 10
618.2143
 20
253.6686
  0
VERTEX
  8
LIVELLO_1
 10
618.2208
 20
253.6153
  0
VERTEX
  8
LIVELLO_1
 10
618.2275
 20
253.5619
  0
VERTEX
  8
LIVELLO_1
 10
618.2341
 20
253.5085
  0
VERTEX
  8
LIVELLO_1
 10
618.2406
 20
253.4552
  0
VERTEX
  8
LIVELLO_1
 10
618.2473
 20
253.4018
  0
VERTEX
  8
LIVELLO_1
 10
618.254
 20
253.3484
  0
VERTEX
  8
LIVELLO_1
 10
618.2606
 20
253.2951
  0
VERTEX
  8
LIVELLO_1
 10
618.2673
 20
253.2417
  0
VERTEX
  8
LIVELLO_1
 10
618.2737
 20
253.1883
  0
VERTEX
  8
LIVELLO_1
 10
618.2804
 20
253.135
  0
VERTEX
  8
LIVELLO_1
 10
618.2869
 20
253.0816
  0
VERTEX
  8
LIVELLO_1
 10
618.3596
 20
252.4944
  0
VERTEX
  8
LIVELLO_1
 10
618.3662
 20
252.4411
  0
VERTEX
  8
LIVELLO_1
 10
618.3793
 20
252.3343
  0
VERTEX
  8
LIVELLO_1
 10
618.386
 20
252.2809
  0
VERTEX
  8
LIVELLO_1
 10
618.3925
 20
252.2276
  0
VERTEX
  8
LIVELLO_1
 10
618.3991
 20
252.1741
  0
VERTEX
  8
LIVELLO_1
 10
618.4058
 20
252.1207
  0
VERTEX
  8
LIVELLO_1
 10
618.4122
 20
252.0674
  0
VERTEX
  8
LIVELLO_1
 10
618.4189
 20
252.0139
  0
VERTEX
  8
LIVELLO_1
 10
618.4254
 20
251.9606
  0
VERTEX
  8
LIVELLO_1
 10
618.4319
 20
251.9072
  0
VERTEX
  8
LIVELLO_1
 10
618.4885
 20
251.4477
  0
VERTEX
  8
LIVELLO_1
 10
618.4948
 20
251.3965
  0
VERTEX
  8
LIVELLO_1
 10
618.6019
 20
250.5241
  0
VERTEX
  8
LIVELLO_1
 10
618.6092
 20
250.4648
  0
VERTEX
  8
LIVELLO_1
 10
618.6678
 20
249.9867
  0
VERTEX
  8
LIVELLO_1
 10
618.671
 20
249.96
  0
VERTEX
  8
LIVELLO_1
 10
618.6742
 20
249.9331
  0
VERTEX
  8
LIVELLO_1
 10
618.6776
 20
249.9064
  0
VERTEX
  8
LIVELLO_1
 10
618.6809
 20
249.8796
  0
VERTEX
  8
LIVELLO_1
 10
618.684
 20
249.8529
  0
VERTEX
  8
LIVELLO_1
 10
618.6873
 20
249.826
  0
VERTEX
  8
LIVELLO_1
 10
618.6907
 20
249.7993
  0
VERTEX
  8
LIVELLO_1
 10
618.694
 20
249.7725
  0
VERTEX
  8
LIVELLO_1
 10
618.6972
 20
249.7458
  0
VERTEX
  8
LIVELLO_1
 10
618.7006
 20
249.7189
  0
VERTEX
  8
LIVELLO_1
 10
618.7037
 20
249.6922
  0
VERTEX
  8
LIVELLO_1
 10
618.707
 20
249.6654
  0
VERTEX
  8
LIVELLO_1
 10
618.7103
 20
249.6387
  0
VERTEX
  8
LIVELLO_1
 10
618.7135
 20
249.6118
  0
VERTEX
  8
LIVELLO_1
 10
618.7168
 20
249.5851
  0
VERTEX
  8
LIVELLO_1
 10
618.72
 20
249.5583
  0
VERTEX
  8
LIVELLO_1
 10
618.7234
 20
249.5315
  0
VERTEX
  8
LIVELLO_1
 10
618.8278
 20
248.6744
  0
VERTEX
  8
LIVELLO_1
 10
618.8311
 20
248.6477
  0
VERTEX
  8
LIVELLO_1
 10
618.8343
 20
248.6208
  0
VERTEX
  8
LIVELLO_1
 10
618.8377
 20
248.5941
  0
VERTEX
  8
LIVELLO_1
 10
618.8408
 20
248.5673
  0
VERTEX
  8
LIVELLO_1
 10
618.8474
 20
248.5137
  0
VERTEX
  8
LIVELLO_1
 10
618.8507
 20
248.4869
  0
VERTEX
  8
LIVELLO_1
 10
618.8539
 20
248.4601
  0
VERTEX
  8
LIVELLO_1
 10
618.8571
 20
248.4334
  0
VERTEX
  8
LIVELLO_1
 10
618.8605
 20
248.4065
  0
VERTEX
  8
LIVELLO_1
 10
618.8638
 20
248.3798
  0
VERTEX
  8
LIVELLO_1
 10
618.8669
 20
248.3529
  0
VERTEX
  8
LIVELLO_1
 10
618.8702
 20
248.3262
  0
VERTEX
  8
LIVELLO_1
 10
618.8734
 20
248.2993
  0
VERTEX
  8
LIVELLO_1
 10
618.8768
 20
248.2726
  0
VERTEX
  8
LIVELLO_1
 10
618.9547
 20
247.6304
  0
VERTEX
  8
LIVELLO_1
 10
619.0485
 20
246.8569
  0
VERTEX
  8
LIVELLO_1
 10
619.0581
 20
246.7771
  0
VERTEX
  8
LIVELLO_1
 10
619.1342
 20
246.1455
  0
VERTEX
  8
LIVELLO_1
 10
619.2446
 20
245.2298
  0
VERTEX
  8
LIVELLO_1
 10
619.2533
 20
245.1574
  0
VERTEX
  8
LIVELLO_1
 10
619.4086
 20
243.8614
  0
VERTEX
  8
LIVELLO_1
 10
619.5098
 20
243.0131
  0
VERTEX
  8
LIVELLO_1
 10
619.5836
 20
242.3933
  0
VERTEX
  8
LIVELLO_1
 10
619.5869
 20
242.3656
  0
VERTEX
  8
LIVELLO_1
 10
619.6817
 20
241.5665
  0
VERTEX
  8
LIVELLO_1
 10
619.7874
 20
240.6734
  0
VERTEX
  8
LIVELLO_1
 10
619.8745
 20
239.937
  0
VERTEX
  8
LIVELLO_1
 10
619.8765
 20
239.9192
  0
VERTEX
  8
LIVELLO_1
 10
619.8791
 20
239.897
  0
VERTEX
  8
LIVELLO_1
 10
619.8817
 20
239.8748
  0
VERTEX
  8
LIVELLO_1
 10
619.8843
 20
239.8527
  0
VERTEX
  8
LIVELLO_1
 10
619.8869
 20
239.8305
  0
VERTEX
  8
LIVELLO_1
 10
619.8896
 20
239.8084
  0
VERTEX
  8
LIVELLO_1
 10
619.8973
 20
239.7419
  0
VERTEX
  8
LIVELLO_1
 10
619.9
 20
239.7198
  0
VERTEX
  8
LIVELLO_1
 10
619.9026
 20
239.6976
  0
VERTEX
  8
LIVELLO_1
 10
619.9052
 20
239.6755
  0
VERTEX
  8
LIVELLO_1
 10
620.0197
 20
238.7006
  0
VERTEX
  8
LIVELLO_1
 10
620.0223
 20
238.6784
  0
VERTEX
  8
LIVELLO_1
 10
620.0301
 20
238.612
  0
VERTEX
  8
LIVELLO_1
 10
620.0327
 20
238.5898
  0
VERTEX
  8
LIVELLO_1
 10
620.0353
 20
238.5676
  0
VERTEX
  8
LIVELLO_1
 10
620.0379
 20
238.5455
  0
VERTEX
  8
LIVELLO_1
 10
620.0405
 20
238.5233
  0
VERTEX
  8
LIVELLO_1
 10
620.0431
 20
238.5012
  0
VERTEX
  8
LIVELLO_1
 10
620.0448
 20
238.4865
  0
VERTEX
  8
LIVELLO_1
 10
620.0932
 20
238.0724
  0
VERTEX
  8
LIVELLO_1
 10
620.2376
 20
236.8347
  0
VERTEX
  8
LIVELLO_1
 10
620.2952
 20
236.3408
  0
VERTEX
  8
LIVELLO_1
 10
620.4198
 20
235.2662
  0
VERTEX
  8
LIVELLO_1
 10
620.566
 20
233.9997
  0
VERTEX
  8
LIVELLO_1
 10
620.6418
 20
233.3425
  0
VERTEX
  8
LIVELLO_1
 10
620.7298
 20
232.5749
  0
VERTEX
  8
LIVELLO_1
 10
620.8444
 20
231.5738
  0
VERTEX
  8
LIVELLO_1
 10
620.8455
 20
231.5632
  0
VERTEX
  8
LIVELLO_1
 10
620.9144
 20
230.9598
  0
VERTEX
  8
LIVELLO_1
 10
620.9172
 20
230.9358
  0
VERTEX
  8
LIVELLO_1
 10
620.9198
 20
230.9118
  0
VERTEX
  8
LIVELLO_1
 10
620.9226
 20
230.8877
  0
VERTEX
  8
LIVELLO_1
 10
620.9252
 20
230.8637
  0
VERTEX
  8
LIVELLO_1
 10
620.928
 20
230.8397
  0
VERTEX
  8
LIVELLO_1
 10
620.9308
 20
230.8157
  0
VERTEX
  8
LIVELLO_1
 10
620.9334
 20
230.7917
  0
VERTEX
  8
LIVELLO_1
 10
620.9362
 20
230.7677
  0
VERTEX
  8
LIVELLO_1
 10
620.9444
 20
230.6956
  0
VERTEX
  8
LIVELLO_1
 10
620.9472
 20
230.6715
  0
VERTEX
  8
LIVELLO_1
 10
621.0698
 20
229.5902
  0
VERTEX
  8
LIVELLO_1
 10
621.0755
 20
229.5421
  0
VERTEX
  8
LIVELLO_1
 10
621.0782
 20
229.5181
  0
VERTEX
  8
LIVELLO_1
 10
621.0808
 20
229.494
  0
VERTEX
  8
LIVELLO_1
 10
621.0837
 20
229.47
  0
VERTEX
  8
LIVELLO_1
 10
621.0862
 20
229.446
  0
VERTEX
  8
LIVELLO_1
 10
621.0959
 20
229.3615
  0
VERTEX
  8
LIVELLO_1
 10
621.1162
 20
229.1805
  0
VERTEX
  8
LIVELLO_1
 10
621.2656
 20
227.8576
  0
VERTEX
  8
LIVELLO_1
 10
621.3333
 20
227.2552
  0
VERTEX
  8
LIVELLO_1
 10
621.3338
 20
227.251
  0
VERTEX
  8
LIVELLO_1
 10
621.4615
 20
226.1108
  0
VERTEX
  8
LIVELLO_1
 10
621.5012
 20
225.7556
  0
VERTEX
  8
LIVELLO_1
 10
621.5116
 20
225.6623
  0
VERTEX
  8
LIVELLO_1
 10
621.5143
 20
225.6386
  0
VERTEX
  8
LIVELLO_1
 10
621.5168
 20
225.6147
  0
VERTEX
  8
LIVELLO_1
 10
621.5195
 20
225.5909
  0
VERTEX
  8
LIVELLO_1
 10
621.5248
 20
225.5433
  0
VERTEX
  8
LIVELLO_1
 10
621.5276
 20
225.5195
  0
VERTEX
  8
LIVELLO_1
 10
621.6574
 20
224.3528
  0
VERTEX
  8
LIVELLO_1
 10
621.66
 20
224.329
  0
VERTEX
  8
LIVELLO_1
 10
621.6625
 20
224.3052
  0
VERTEX
  8
LIVELLO_1
 10
621.6652
 20
224.2814
  0
VERTEX
  8
LIVELLO_1
 10
621.668
 20
224.2576
  0
VERTEX
  8
LIVELLO_1
 10
621.6704
 20
224.2337
  0
VERTEX
  8
LIVELLO_1
 10
621.6731
 20
224.2099
  0
VERTEX
  8
LIVELLO_1
 10
621.6759
 20
224.1861
  0
VERTEX
  8
LIVELLO_1
 10
621.6784
 20
224.1623
  0
VERTEX
  8
LIVELLO_1
 10
621.6812
 20
224.1385
  0
VERTEX
  8
LIVELLO_1
 10
621.7352
 20
223.6513
  0
VERTEX
  8
LIVELLO_1
 10
621.8708
 20
222.4224
  0
VERTEX
  8
LIVELLO_1
 10
621.8722
 20
222.4108
  0
VERTEX
  8
LIVELLO_1
 10
621.9198
 20
221.9781
  0
VERTEX
  8
LIVELLO_1
 10
622.0995
 20
220.3401
  0
VERTEX
  8
LIVELLO_1
 10
622.1375
 20
219.9917
  0
VERTEX
  8
LIVELLO_1
 10
622.2746
 20
218.7327
  0
VERTEX
  8
LIVELLO_1
 10
622.3206
 20
218.3099
  0
VERTEX
  8
LIVELLO_1
 10
622.3209
 20
218.3072
  0
VERTEX
  8
LIVELLO_1
 10
622.4625
 20
216.9984
  0
VERTEX
  8
LIVELLO_1
 10
622.5133
 20
216.527
  0
VERTEX
  8
LIVELLO_1
 10
622.6769
 20
215.0042
  0
VERTEX
  8
LIVELLO_1
 10
622.6862
 20
214.9167
  0
VERTEX
  8
LIVELLO_1
 10
622.7051
 20
214.7395
  0
VERTEX
  8
LIVELLO_1
 10
622.8551
 20
213.3332
  0
VERTEX
  8
LIVELLO_1
 10
622.8559
 20
213.3263
  0
VERTEX
  8
LIVELLO_1
 10
622.8989
 20
212.9219
  0
VERTEX
  8
LIVELLO_1
 10
622.9015
 20
212.8965
  0
VERTEX
  8
LIVELLO_1
 10
622.9043
 20
212.8711
  0
VERTEX
  8
LIVELLO_1
 10
622.907
 20
212.8457
  0
VERTEX
  8
LIVELLO_1
 10
622.9096
 20
212.8203
  0
VERTEX
  8
LIVELLO_1
 10
622.9123
 20
212.795
  0
VERTEX
  8
LIVELLO_1
 10
622.9152
 20
212.7696
  0
VERTEX
  8
LIVELLO_1
 10
622.9178
 20
212.7442
  0
VERTEX
  8
LIVELLO_1
 10
622.9205
 20
212.7188
  0
VERTEX
  8
LIVELLO_1
 10
622.923
 20
212.6935
  0
VERTEX
  8
LIVELLO_1
 10
622.9258
 20
212.6681
  0
VERTEX
  8
LIVELLO_1
 10
622.9338
 20
212.5919
  0
VERTEX
  8
LIVELLO_1
 10
622.9366
 20
212.5665
  0
VERTEX
  8
LIVELLO_1
 10
623.0388
 20
211.6016
  0
VERTEX
  8
LIVELLO_1
 10
623.0415
 20
211.5762
  0
VERTEX
  8
LIVELLO_1
 10
623.0704
 20
211.3028
  0
SEQEND
  8
LIVELLO_1
  0
POLYLINE
  8
LIVELLO_1
 66
     1
 70
     1
  0
VERTEX
  8
LIVELLO_1
 10
627.0066
 20
246.1455
  0
VERTEX
  8
LIVELLO_1
 10
627.0066
 20
246.1455
  0
SEQEND
  8
LIVELLO_1
  0
POLYLINE
  8
LIVELLO_1
 66
     1
 70
     1
  0
VERTEX
  8
LIVELLO_1
 10
663.5878
 20
76.0198
  0
VERTEX
  8
LIVELLO_1
 10
663.4541
 20
75.9517
  0
VERTEX
  8
LIVELLO_1
 10
663.5878
 20
76.0198
  0
SEQEND
  8
LIVELLO_1
  0
POLYLINE
  8
LIVELLO_1
 66
     1
 70
     1
  0
VERTEX
  8
LIVELLO_1
 10
662.9045
 20
75.6424
  0
VERTEX
  8
LIVELLO_1
 10
662.7542
 20
75.5495
  0
VERTEX
  8
LIVELLO_1
 10
662.9045
 20
75.6424
  0
SEQEND
  8
LIVELLO_1
  0
POLYLINE
  8
LIVELLO_1
 66
     1
 70
     1
  0
VERTEX
  8
LIVELLO_1
 10
572.3955
 20
41.3686
  0
VERTEX
  8
LIVELLO_1
 10
572.6219
 20
47.1165
  0
VERTEX
  8
LIVELLO_1
 10
573.2775
 20
52.5684
  0
VERTEX
  8
LIVELLO_1
 10
574.3264
 20
57.651
  0
VERTEX
  8
LIVELLO_1
 10
575.733
 20
62.2912
  0
VERTEX
  8
LIVELLO_1
 10
577.4616
 20
66.4159
  0
VERTEX
  8
LIVELLO_1
 10
579.4765
 20
69.9519
  0
VERTEX
  8
LIVELLO_1
 10
581.742
 20
72.8261
  0
VERTEX
  8
LIVELLO_1
 10
584.2225
 20
74.9652
  0
VERTEX
  8
LIVELLO_1
 10
577.6052
 20
97.0235
  0
VERTEX
  8
LIVELLO_1
 10
567.9674
 20
117.26
  0
VERTEX
  8
LIVELLO_1
 10
555.6151
 20
135.3297
  0
VERTEX
  8
LIVELLO_1
 10
540.8545
 20
150.8876
  0
VERTEX
  8
LIVELLO_1
 10
523.9915
 20
163.5886
  0
VERTEX
  8
LIVELLO_1
 10
505.3324
 20
173.088
  0
VERTEX
  8
LIVELLO_1
 10
485.1831
 20
179.0405
  0
VERTEX
  8
LIVELLO_1
 10
463.8498
 20
181.1014
  0
VERTEX
  8
LIVELLO_1
 10
459.6345
 20
181.0222
  0
VERTEX
  8
LIVELLO_1
 10
455.4544
 20
180.7861
  0
VERTEX
  8
LIVELLO_1
 10
451.3119
 20
180.3957
  0
VERTEX
  8
LIVELLO_1
 10
447.2091
 20
179.8536
  0
VERTEX
  8
LIVELLO_1
 10
443.1482
 20
179.1621
  0
VERTEX
  8
LIVELLO_1
 10
439.1315
 20
178.3239
  0
VERTEX
  8
LIVELLO_1
 10
435.1613
 20
177.3415
  0
VERTEX
  8
LIVELLO_1
 10
431.2397
 20
176.2174
  0
VERTEX
  8
LIVELLO_1
 10
422.3722
 20
173.136
  0
VERTEX
  8
LIVELLO_1
 10
413.9613
 20
169.487
  0
VERTEX
  8
LIVELLO_1
 10
406.0068
 20
165.3006
  0
VERTEX
  8
LIVELLO_1
 10
398.5084
 20
160.6069
  0
VERTEX
  8
LIVELLO_1
 10
391.4658
 20
155.4362
  0
VERTEX
  8
LIVELLO_1
 10
384.8787
 20
149.8186
  0
VERTEX
  8
LIVELLO_1
 10
378.747
 20
143.7842
  0
VERTEX
  8
LIVELLO_1
 10
373.0704
 20
137.3632
  0
VERTEX
  8
LIVELLO_1
 10
373.0704
 20
182.5373
  0
VERTEX
  8
LIVELLO_1
 10
381.595
 20
188.9594
  0
VERTEX
  8
LIVELLO_1
 10
390.5121
 20
194.6401
  0
VERTEX
  8
LIVELLO_1
 10
399.7928
 20
199.544
  0
VERTEX
  8
LIVELLO_1
 10
409.4083
 20
203.6357
  0
VERTEX
  8
LIVELLO_1
 10
419.3295
 20
206.8797
  0
VERTEX
  8
LIVELLO_1
 10
429.5275
 20
209.2408
  0
VERTEX
  8
LIVELLO_1
 10
439.9735
 20
210.6834
  0
VERTEX
  8
LIVELLO_1
 10
450.6385
 20
211.1721
  0
VERTEX
  8
LIVELLO_1
 10
475.6986
 20
208.4415
  0
VERTEX
  8
LIVELLO_1
 10
499.2865
 20
200.5686
  0
VERTEX
  8
LIVELLO_1
 10
521.0094
 20
188.0316
  0
VERTEX
  8
LIVELLO_1
 10
540.4745
 20
171.3087
  0
VERTEX
  8
LIVELLO_1
 10
557.2889
 20
150.878
  0
VERTEX
  8
LIVELLO_1
 10
571.0598
 20
127.2179
  0
VERTEX
  8
LIVELLO_1
 10
581.3943
 20
100.8065
  0
VERTEX
  8
LIVELLO_1
 10
587.8997
 20
72.122
  0
VERTEX
  8
LIVELLO_1
 10
588.226
 20
71.8881
  0
VERTEX
  8
LIVELLO_1
 10
586.7597
 20
68.997
  0
VERTEX
  8
LIVELLO_1
 10
585.446
 20
65.7854
  0
VERTEX
  8
LIVELLO_1
 10
584.2982
 20
62.2816
  0
VERTEX
  8
LIVELLO_1
 10
583.3295
 20
58.5139
  0
VERTEX
  8
LIVELLO_1
 10
582.5531
 20
54.5104
  0
VERTEX
  8
LIVELLO_1
 10
581.9821
 20
50.2996
  0
VERTEX
  8
LIVELLO_1
 10
581.6299
 20
45.9095
  0
VERTEX
  8
LIVELLO_1
 10
581.5095
 20
41.3686
  0
VERTEX
  8
LIVELLO_1
 10
581.6299
 20
36.8277
  0
VERTEX
  8
LIVELLO_1
 10
581.9821
 20
32.4376
  0
VERTEX
  8
LIVELLO_1
 10
582.5531
 20
28.2268
  0
VERTEX
  8
LIVELLO_1
 10
583.3295
 20
24.2233
  0
VERTEX
  8
LIVELLO_1
 10
584.2982
 20
20.4556
  0
VERTEX
  8
LIVELLO_1
 10
585.446
 20
16.9518
  0
VERTEX
  8
LIVELLO_1
 10
586.7597
 20
13.7402
  0
VERTEX
  8
LIVELLO_1
 10
588.226
 20
10.8491
  0
VERTEX
  8
LIVELLO_1
 10
587.8997
 20
10.6152
  0
VERTEX
  8
LIVELLO_1
 10
581.3943
 20
-18.0693
  0
VERTEX
  8
LIVELLO_1
 10
571.0598
 20
-44.4807
  0
VERTEX
  8
LIVELLO_1
 10
557.2889
 20
-68.1408
  0
VERTEX
  8
LIVELLO_1
 10
540.4745
 20
-88.5715
  0
VERTEX
  8
LIVELLO_1
 10
521.0094
 20
-105.2944
  0
VERTEX
  8
LIVELLO_1
 10
499.2865
 20
-117.8314
  0
VERTEX
  8
LIVELLO_1
 10
475.6986
 20
-125.7043
  0
VERTEX
  8
LIVELLO_1
 10
450.6385
 20
-128.4349
  0
VERTEX
  8
LIVELLO_1
 10
439.9735
 20
-127.9462
  0
VERTEX
  8
LIVELLO_1
 10
429.5275
 20
-126.5036
  0
VERTEX
  8
LIVELLO_1
 10
419.3295
 20
-124.1425
  0
VERTEX
  8
LIVELLO_1
 10
409.4083
 20
-120.8985
  0
VERTEX
  8
LIVELLO_1
 10
399.7928
 20
-116.8068
  0
VERTEX
  8
LIVELLO_1
 10
390.5121
 20
-111.9029
  0
VERTEX
  8
LIVELLO_1
 10
381.595
 20
-106.2222
  0
VERTEX
  8
LIVELLO_1
 10
373.0704
 20
-99.8001
  0
VERTEX
  8
LIVELLO_1
 10
373.0704
 20
-54.626
  0
VERTEX
  8
LIVELLO_1
 10
378.747
 20
-61.047
  0
VERTEX
  8
LIVELLO_1
 10
384.8787
 20
-67.0814
  0
VERTEX
  8
LIVELLO_1
 10
391.4658
 20
-72.699
  0
VERTEX
  8
LIVELLO_1
 10
398.5084
 20
-77.8697
  0
VERTEX
  8
LIVELLO_1
 10
406.0068
 20
-82.5634
  0
VERTEX
  8
LIVELLO_1
 10
413.9613
 20
-86.7498
  0
VERTEX
  8
LIVELLO_1
 10
422.3722
 20
-90.3988
  0
VERTEX
  8
LIVELLO_1
 10
431.2397
 20
-93.4802
  0
VERTEX
  8
LIVELLO_1
 10
435.1613
 20
-94.6043
  0
VERTEX
  8
LIVELLO_1
 10
439.1315
 20
-95.5867
  0
VERTEX
  8
LIVELLO_1
 10
443.1482
 20
-96.4249
  0
VERTEX
  8
LIVELLO_1
 10
447.2091
 20
-97.1164
  0
VERTEX
  8
LIVELLO_1
 10
451.3119
 20
-97.6585
  0
VERTEX
  8
LIVELLO_1
 10
455.4544
 20
-98.0489
  0
VERTEX
  8
LIVELLO_1
 10
459.6345
 20
-98.285
  0
VERTEX
  8
LIVELLO_1
 10
463.8498
 20
-98.3642
  0
VERTEX
  8
LIVELLO_1
 10
485.1831
 20
-96.3033
  0
VERTEX
  8
LIVELLO_1
 10
505.3324
 20
-90.3508
  0
VERTEX
  8
LIVELLO_1
 10
523.9915
 20
-80.8514
  0
VERTEX
  8
LIVELLO_1
 10
540.8545
 20
-68.1504
  0
VERTEX
  8
LIVELLO_1
 10
555.6151
 20
-52.5925
  0
VERTEX
  8
LIVELLO_1
 10
567.9674
 20
-34.5228
  0
VERTEX
  8
LIVELLO_1
 10
577.6052
 20
-14.2863
  0
VERTEX
  8
LIVELLO_1
 10
584.2225
 20
7.772
  0
VERTEX
  8
LIVELLO_1
 10
581.742
 20
9.9111
  0
VERTEX
  8
LIVELLO_1
 10
579.4765
 20
12.7853
  0
VERTEX
  8
LIVELLO_1
 10
577.4616
 20
16.3213
  0
VERTEX
  8
LIVELLO_1
 10
575.733
 20
20.446
  0
VERTEX
  8
LIVELLO_1
 10
574.3264
 20
25.0862
  0
VERTEX
  8
LIVELLO_1
 10
573.2775
 20
30.1688
  0
VERTEX
  8
LIVELLO_1
 10
572.6219
 20
35.6207
  0
VERTEX
  8
LIVELLO_1
 10
572.3955
 20
41.3686
  0
SEQEND
  8
LIVELLO_1
  0
POLYLINE
  8
LIVELLO_1
 66
     1
 70
     1
  0
VERTEX
  8
LIVELLO_1
 10
373.0704
 20
81.5819
  0
VERTEX
  8
LIVELLO_1
 10
378.5359
 20
97.7097
  0
VERTEX
  8
LIVELLO_1
 10
385.9238
 20
112.747
  0
VERTEX
  8
LIVELLO_1
 10
395.2344
 20
126.3671
  0
VERTEX
  8
LIVELLO_1
 10
406.4679
 20
138.2434
  0
VERTEX
  8
LIVELLO_1
 10
419.6246
 20
148.0492
  0
VERTEX
  8
LIVELLO_1
 10
434.7047
 20
155.4578
  0
VERTEX
  8
LIVELLO_1
 10
451.7085
 20
160.1425
  0
VERTEX
  8
LIVELLO_1
 10
470.6362
 20
161.7767
  0
VERTEX
  8
LIVELLO_1
 10
489.7896
 20
160.1368
  0
VERTEX
  8
LIVELLO_1
 10
507.9334
 20
155.3929
  0
VERTEX
  8
LIVELLO_1
 10
524.8144
 20
147.8081
  0
VERTEX
  8
LIVELLO_1
 10
540.1795
 20
137.6458
  0
VERTEX
  8
LIVELLO_1
 10
553.7753
 20
125.1695
  0
VERTEX
  8
LIVELLO_1
 10
565.3486
 20
110.6425
  0
VERTEX
  8
LIVELLO_1
 10
574.6463
 20
94.328
  0
VERTEX
  8
LIVELLO_1
 10
581.4151
 20
76.4895
  0
VERTEX
  8
LIVELLO_1
 10
581.0396
 20
76.6036
  0
VERTEX
  8
LIVELLO_1
 10
580.6615
 20
76.6986
  0
VERTEX
  8
LIVELLO_1
 10
580.2806
 20
76.7714
  0
VERTEX
  8
LIVELLO_1
 10
579.8967
 20
76.8191
  0
VERTEX
  8
LIVELLO_1
 10
579.8543
 20
76.8229
  0
VERTEX
  8
LIVELLO_1
 10
579.8453
 20
76.8527
  0
VERTEX
  8
LIVELLO_1
 10
574.865
 20
90.5088
  0
VERTEX
  8
LIVELLO_1
 10
568.4779
 20
102.9651
  0
VERTEX
  8
LIVELLO_1
 10
560.8161
 20
114.0302
  0
VERTEX
  8
LIVELLO_1
 10
552.0116
 20
123.5127
  0
VERTEX
  8
LIVELLO_1
 10
542.1964
 20
131.2212
  0
VERTEX
  8
LIVELLO_1
 10
531.5027
 20
136.9643
  0
VERTEX
  8
LIVELLO_1
 10
520.0624
 20
140.5505
  0
VERTEX
  8
LIVELLO_1
 10
508.0076
 20
141.7884
  0
VERTEX
  8
LIVELLO_1
 10
492.5361
 20
139.7482
  0
VERTEX
  8
LIVELLO_1
 10
478.126
 20
133.8969
  0
VERTEX
  8
LIVELLO_1
 10
465.0859
 20
124.6383
  0
VERTEX
  8
LIVELLO_1
 10
453.7244
 20
112.3761
  0
VERTEX
  8
LIVELLO_1
 10
444.3504
 20
97.5143
  0
VERTEX
  8
LIVELLO_1
 10
437.2725
 20
80.4565
  0
VERTEX
  8
LIVELLO_1
 10
432.7993
 20
61.6067
  0
VERTEX
  8
LIVELLO_1
 10
431.2397
 20
41.3686
  0
VERTEX
  8
LIVELLO_1
 10
432.7993
 20
21.1305
  0
VERTEX
  8
LIVELLO_1
 10
437.2725
 20
2.2807
  0
VERTEX
  8
LIVELLO_1
 10
444.3504
 20
-14.7771
  0
VERTEX
  8
LIVELLO_1
 10
453.7244
 20
-29.6389
  0
VERTEX
  8
LIVELLO_1
 10
465.0859
 20
-41.9011
  0
VERTEX
  8
LIVELLO_1
 10
478.126
 20
-51.1597
  0
VERTEX
  8
LIVELLO_1
 10
492.5361
 20
-57.011
  0
VERTEX
  8
LIVELLO_1
 10
508.0076
 20
-59.0512
  0
VERTEX
  8
LIVELLO_1
 10
520.0624
 20
-57.8133
  0
VERTEX
  8
LIVELLO_1
 10
531.5027
 20
-54.2271
  0
VERTEX
  8
LIVELLO_1
 10
542.1964
 20
-48.484
  0
VERTEX
  8
LIVELLO_1
 10
552.0116
 20
-40.7755
  0
VERTEX
  8
LIVELLO_1
 10
560.8161
 20
-31.293
  0
VERTEX
  8
LIVELLO_1
 10
568.4779
 20
-20.2279
  0
VERTEX
  8
LIVELLO_1
 10
574.865
 20
-7.7716
  0
VERTEX
  8
LIVELLO_1
 10
579.8453
 20
5.8845
  0
VERTEX
  8
LIVELLO_1
 10
579.8543
 20
5.9143
  0
VERTEX
  8
LIVELLO_1
 10
579.8967
 20
5.9181
  0
VERTEX
  8
LIVELLO_1
 10
580.2806
 20
5.9658
  0
VERTEX
  8
LIVELLO_1
 10
580.6615
 20
6.0387
  0
VERTEX
  8
LIVELLO_1
 10
581.0396
 20
6.1337
  0
VERTEX
  8
LIVELLO_1
 10
581.4151
 20
6.2477
  0
VERTEX
  8
LIVELLO_1
 10
574.6463
 20
-11.5908
  0
VERTEX
  8
LIVELLO_1
 10
565.3486
 20
-27.9053
  0
VERTEX
  8
LIVELLO_1
 10
553.7753
 20
-42.4323
  0
VERTEX
  8
LIVELLO_1
 10
540.1795
 20
-54.9086
  0
VERTEX
  8
LIVELLO_1
 10
524.8144
 20
-65.0709
  0
VERTEX
  8
LIVELLO_1
 10
507.9334
 20
-72.6557
  0
VERTEX
  8
LIVELLO_1
 10
489.7896
 20
-77.3996
  0
VERTEX
  8
LIVELLO_1
 10
470.6362
 20
-79.0395
  0
VERTEX
  8
LIVELLO_1
 10
451.7085
 20
-77.4053
  0
VERTEX
  8
LIVELLO_1
 10
434.7047
 20
-72.7206
  0
VERTEX
  8
LIVELLO_1
 10
419.6246
 20
-65.312
  0
VERTEX
  8
LIVELLO_1
 10
406.4679
 20
-55.5062
  0
VERTEX
  8
LIVELLO_1
 10
395.2344
 20
-43.6299
  0
VERTEX
  8
LIVELLO_1
 10
385.9238
 20
-30.0098
  0
VERTEX
  8
LIVELLO_1
 10
378.5359
 20
-14.9725
  0
VERTEX
  8
LIVELLO_1
 10
373.0704
 20
1.1553
  0
VERTEX
  8
LIVELLO_1
 10
373.0704
 20
81.5819
  0
SEQEND
  8
LIVELLO_1
  0
POLYLINE
  8
LIVELLO_1
 66
     1
 70
     1
  0
VERTEX
  8
LIVELLO_1
 10
373.0704
 20
-154.2379
  0
VERTEX
  8
LIVELLO_1
 10
381.9961
 20
-163.1628
  0
VERTEX
  8
LIVELLO_1
 10
391.334
 20
-171.0575
  0
VERTEX
  8
LIVELLO_1
 10
401.0535
 20
-177.8727
  0
VERTEX
  8
LIVELLO_1
 10
411.1244
 20
-183.5593
  0
VERTEX
  8
LIVELLO_1
 10
421.5161
 20
-188.068
  0
VERTEX
  8
LIVELLO_1
 10
432.1984
 20
-191.3494
  0
VERTEX
  8
LIVELLO_1
 10
443.1408
 20
-193.3544
  0
VERTEX
  8
LIVELLO_1
 10
454.3129
 20
-194.0337
  0
VERTEX
  8
LIVELLO_1
 10
481.9229
 20
-189.8298
  0
VERTEX
  8
LIVELLO_1
 10
507.795
 20
-177.7367
  0
VERTEX
  8
LIVELLO_1
 10
531.4469
 20
-158.5321
  0
VERTEX
  8
LIVELLO_1
 10
552.3966
 20
-132.9935
  0
VERTEX
  8
LIVELLO_1
 10
570.1617
 20
-101.8987
  0
VERTEX
  8
LIVELLO_1
 10
584.26
 20
-66.0254
  0
VERTEX
  8
LIVELLO_1
 10
594.2093
 20
-26.1512
  0
VERTEX
  8
LIVELLO_1
 10
599.5274
 20
16.9461
  0
VERTEX
  8
LIVELLO_1
 10
600.0862
 20
17.1748
  0
VERTEX
  8
LIVELLO_1
 10
600.6425
 20
17.3969
  0
VERTEX
  8
LIVELLO_1
 10
601.1967
 20
17.6124
  0
VERTEX
  8
LIVELLO_1
 10
601.7491
 20
17.8214
  0
VERTEX
  8
LIVELLO_1
 10
602.3001
 20
18.024
  0
VERTEX
  8
LIVELLO_1
 10
602.8501
 20
18.2204
  0
VERTEX
  8
LIVELLO_1
 10
603.3994
 20
18.4107
  0
VERTEX
  8
LIVELLO_1
 10
603.9485
 20
18.5949
  0
VERTEX
  8
LIVELLO_1
 10
603.949
 20
18.5932
  0
VERTEX
  8
LIVELLO_1
 10
603.3147
 20
21.0729
  0
VERTEX
  8
LIVELLO_1
 10
602.7531
 20
23.6761
  0
VERTEX
  8
LIVELLO_1
 10
602.2677
 20
26.3934
  0
VERTEX
  8
LIVELLO_1
 10
601.8623
 20
29.2157
  0
VERTEX
  8
LIVELLO_1
 10
601.5406
 20
32.1336
  0
VERTEX
  8
LIVELLO_1
 10
601.3062
 20
35.1379
  0
VERTEX
  8
LIVELLO_1
 10
601.1629
 20
38.2193
  0
VERTEX
  8
LIVELLO_1
 10
601.1143
 20
41.3686
  0
VERTEX
  8
LIVELLO_1
 10
601.1629
 20
44.5179
  0
VERTEX
  8
LIVELLO_1
 10
601.3062
 20
47.5993
  0
VERTEX
  8
LIVELLO_1
 10
601.5406
 20
50.6036
  0
VERTEX
  8
LIVELLO_1
 10
601.8623
 20
53.5215
  0
VERTEX
  8
LIVELLO_1
 10
602.2677
 20
56.3438
  0
VERTEX
  8
LIVELLO_1
 10
602.7531
 20
59.0611
  0
VERTEX
  8
LIVELLO_1
 10
603.3147
 20
61.6643
  0
VERTEX
  8
LIVELLO_1
 10
603.949
 20
64.144
  0
VERTEX
  8
LIVELLO_1
 10
603.9485
 20
64.1423
  0
VERTEX
  8
LIVELLO_1
 10
603.3994
 20
64.3265
  0
VERTEX
  8
LIVELLO_1
 10
602.8501
 20
64.5168
  0
VERTEX
  8
LIVELLO_1
 10
602.3001
 20
64.7132
  0
VERTEX
  8
LIVELLO_1
 10
601.7491
 20
64.9158
  0
VERTEX
  8
LIVELLO_1
 10
601.1967
 20
65.1248
  0
VERTEX
  8
LIVELLO_1
 10
600.6425
 20
65.3403
  0
VERTEX
  8
LIVELLO_1
 10
600.0862
 20
65.5624
  0
VERTEX
  8
LIVELLO_1
 10
599.5274
 20
65.7911
  0
VERTEX
  8
LIVELLO_1
 10
594.2093
 20
108.8884
  0
VERTEX
  8
LIVELLO_1
 10
584.26
 20
148.7626
  0
VERTEX
  8
LIVELLO_1
 10
570.1617
 20
184.6359
  0
VERTEX
  8
LIVELLO_1
 10
552.3966
 20
215.7307
  0
VERTEX
  8
LIVELLO_1
 10
531.4469
 20
241.2693
  0
VERTEX
  8
LIVELLO_1
 10
507.795
 20
260.4739
  0
VERTEX
  8
LIVELLO_1
 10
481.9229
 20
272.567
  0
VERTEX
  8
LIVELLO_1
 10
454.3129
 20
276.7709
  0
VERTEX
  8
LIVELLO_1
 10
443.1408
 20
276.0916
  0
VERTEX
  8
LIVELLO_1
 10
432.1984
 20
274.0866
  0
VERTEX
  8
LIVELLO_1
 10
421.5161
 20
270.8052
  0
VERTEX
  8
LIVELLO_1
 10
411.1244
 20
266.2965
  0
VERTEX
  8
LIVELLO_1
 10
401.0535
 20
260.6099
  0
VERTEX
  8
LIVELLO_1
 10
391.334
 20
253.7947
  0
VERTEX
  8
LIVELLO_1
 10
381.9961
 20
245.9
  0
VERTEX
  8
LIVELLO_1
 10
373.0704
 20
236.9751
  0
VERTEX
  8
LIVELLO_1
 10
373.0704
 20
209.7623
  0
VERTEX
  8
LIVELLO_1
 10
381.7956
 20
217.4344
  0
VERTEX
  8
LIVELLO_1
 10
390.9231
 20
224.221
  0
VERTEX
  8
LIVELLO_1
 10
400.4232
 20
230.0795
  0
VERTEX
  8
LIVELLO_1
 10
410.2664
 20
234.9678
  0
VERTEX
  8
LIVELLO_1
 10
420.4229
 20
238.8434
  0
VERTEX
  8
LIVELLO_1
 10
430.863
 20
241.6641
  0
VERTEX
  8
LIVELLO_1
 10
441.5572
 20
243.3876
  0
VERTEX
  8
LIVELLO_1
 10
452.4758
 20
243.9715
  0
VERTEX
  8
LIVELLO_1
 10
478.9598
 20
240.4921
  0
VERTEX
  8
LIVELLO_1
 10
503.8191
 20
230.4745
  0
VERTEX
  8
LIVELLO_1
 10
526.6095
 20
214.5493
  0
VERTEX
  8
LIVELLO_1
 10
546.8867
 20
193.347
  0
VERTEX
  8
LIVELLO_1
 10
564.2067
 20
167.4984
  0
VERTEX
  8
LIVELLO_1
 10
578.1253
 20
137.6342
  0
VERTEX
  8
LIVELLO_1
 10
588.1983
 20
104.3848
  0
VERTEX
  8
LIVELLO_1
 10
593.9815
 20
68.3811
  0
VERTEX
  8
LIVELLO_1
 10
596.0687
 20
67.3251
  0
VERTEX
  8
LIVELLO_1
 10
594.8553
 20
64.7752
  0
VERTEX
  8
LIVELLO_1
 10
593.771
 20
61.9858
  0
VERTEX
  8
LIVELLO_1
 10
592.826
 20
58.9773
  0
VERTEX
  8
LIVELLO_1
 10
592.0302
 20
55.7704
  0
VERTEX
  8
LIVELLO_1
 10
591.3938
 20
52.3854
  0
VERTEX
  8
LIVELLO_1
 10
590.9268
 20
48.8432
  0
VERTEX
  8
LIVELLO_1
 10
590.6392
 20
45.164
  0
VERTEX
  8
LIVELLO_1
 10
590.5411
 20
41.3686
  0
VERTEX
  8
LIVELLO_1
 10
590.6392
 20
37.5732
  0
VERTEX
  8
LIVELLO_1
 10
590.9268
 20
33.8941
  0
VERTEX
  8
LIVELLO_1
 10
591.3938
 20
30.3518
  0
VERTEX
  8
LIVELLO_1
 10
592.0302
 20
26.9669
  0
VERTEX
  8
LIVELLO_1
 10
592.826
 20
23.7599
  0
VERTEX
  8
LIVELLO_1
 10
593.771
 20
20.7514
  0
VERTEX
  8
LIVELLO_1
 10
594.8553
 20
17.962
  0
VERTEX
  8
LIVELLO_1
 10
596.0687
 20
15.4121
  0
VERTEX
  8
LIVELLO_1
 10
593.9815
 20
14.3561
  0
VERTEX
  8
LIVELLO_1
 10
588.1983
 20
-21.6476
  0
VERTEX
  8
LIVELLO_1
 10
578.1253
 20
-54.897
  0
VERTEX
  8
LIVELLO_1
 10
564.2067
 20
-84.7612
  0
VERTEX
  8
LIVELLO_1
 10
546.8867
 20
-110.6098
  0
VERTEX
  8
LIVELLO_1
 10
526.6095
 20
-131.8121
  0
VERTEX
  8
LIVELLO_1
 10
503.8191
 20
-147.7373
  0
VERTEX
  8
LIVELLO_1
 10
478.9598
 20
-157.7549
  0
VERTEX
  8
LIVELLO_1
 10
452.4758
 20
-161.2343
  0
VERTEX
  8
LIVELLO_1
 10
441.5572
 20
-160.6504
  0
VERTEX
  8
LIVELLO_1
 10
430.863
 20
-158.9269
  0
VERTEX
  8
LIVELLO_1
 10
420.4229
 20
-156.1062
  0
VERTEX
  8
LIVELLO_1
 10
410.2664
 20
-152.2306
  0
VERTEX
  8
LIVELLO_1
 10
400.4232
 20
-147.3423
  0
VERTEX
  8
LIVELLO_1
 10
390.9231
 20
-141.4838
  0
VERTEX
  8
LIVELLO_1
 10
381.7956
 20
-134.6972
  0
VERTEX
  8
LIVELLO_1
 10
373.0704
 20
-127.0251
  0
VERTEX
  8
LIVELLO_1
 10
373.0704
 20
-154.2379
  0
SEQEND
  8
LIVELLO_1
  0
POLYLINE
  8
LIVELLO_1
 66
     1
 70
     1
  0
VERTEX
  8
LIVELLO_1
 10
373.0704
 20
264.177
  0
VERTEX
  8
LIVELLO_1
 10
376.4798
 20
268.172
  0
VERTEX
  8
LIVELLO_1
 10
379.9529
 20
272.0024
  0
VERTEX
  8
LIVELLO_1
 10
383.4877
 20
275.6654
  0
VERTEX
  8
LIVELLO_1
 10
387.0827
 20
279.1581
  0
VERTEX
  8
LIVELLO_1
 10
390.7359
 20
282.4777
  0
VERTEX
  8
LIVELLO_1
 10
394.4459
 20
285.6212
  0
VERTEX
  8
LIVELLO_1
 10
398.2106
 20
288.5858
  0
VERTEX
  8
LIVELLO_1
 10
402.0285
 20
291.3686
  0
VERTEX
  8
LIVELLO_1
 10
373.0704
 20
291.3686
  0
VERTEX
  8
LIVELLO_1
 10
373.0704
 20
264.177
  0
SEQEND
  8
LIVELLO_1
  0
POLYLINE
  8
LIVELLO_1
 66
     1
 70
     1
  0
VERTEX
  8
LIVELLO_1
 10
510.2601
 20
291.3686
  0
VERTEX
  8
LIVELLO_1
 10
529.0402
 20
275.4222
  0
VERTEX
  8
LIVELLO_1
 10
546.275
 20
255.1128
  0
VERTEX
  8
LIVELLO_1
 10
561.7432
 20
230.8379
  0
VERTEX
  8
LIVELLO_1
 10
575.2233
 20
202.9948
  0
VERTEX
  8
LIVELLO_1
 10
586.4941
 20
171.981
  0
VERTEX
  8
LIVELLO_1
 10
595.3342
 20
138.1939
  0
VERTEX
  8
LIVELLO_1
 10
601.5223
 20
102.031
  0
VERTEX
  8
LIVELLO_1
 10
604.837
 20
63.8897
  0
VERTEX
  8
LIVELLO_1
 10
605.4863
 20
63.692
  0
VERTEX
  8
LIVELLO_1
 10
606.1363
 20
63.5015
  0
VERTEX
  8
LIVELLO_1
 10
606.787
 20
63.318
  0
VERTEX
  8
LIVELLO_1
 10
607.4382
 20
63.1414
  0
VERTEX
  8
LIVELLO_1
 10
608.0896
 20
62.9718
  0
VERTEX
  8
LIVELLO_1
 10
608.7413
 20
62.809
  0
VERTEX
  8
LIVELLO_1
 10
609.3929
 20
62.6531
  0
VERTEX
  8
LIVELLO_1
 10
610.0444
 20
62.5039
  0
VERTEX
  8
LIVELLO_1
 10
607.7534
 20
97.6555
  0
VERTEX
  8
LIVELLO_1
 10
603.4751
 20
131.4192
  0
VERTEX
  8
LIVELLO_1
 10
597.3314
 20
163.554
  0
VERTEX
  8
LIVELLO_1
 10
589.4443
 20
193.8193
  0
VERTEX
  8
LIVELLO_1
 10
579.9359
 20
221.9742
  0
VERTEX
  8
LIVELLO_1
 10
568.928
 20
247.7779
  0
VERTEX
  8
LIVELLO_1
 10
556.5427
 20
270.9896
  0
VERTEX
  8
LIVELLO_1
 10
542.902
 20
291.3686
  0
VERTEX
  8
LIVELLO_1
 10
510.2601
 20
291.3686
  0
SEQEND
  8
LIVELLO_1
  0
POLYLINE
  8
LIVELLO_1
 66
     1
 70
     1
  0
VERTEX
  8
LIVELLO_1
 10
542.902
 20
-208.6314
  0
VERTEX
  8
LIVELLO_1
 10
556.5427
 20
-188.2524
  0
VERTEX
  8
LIVELLO_1
 10
568.928
 20
-165.0407
  0
VERTEX
  8
LIVELLO_1
 10
579.9359
 20
-139.237
  0
VERTEX
  8
LIVELLO_1
 10
589.4443
 20
-111.0821
  0
VERTEX
  8
LIVELLO_1
 10
597.3314
 20
-80.8168
  0
VERTEX
  8
LIVELLO_1
 10
603.4751
 20
-48.682
  0
VERTEX
  8
LIVELLO_1
 10
607.7534
 20
-14.9183
  0
VERTEX
  8
LIVELLO_1
 10
610.0444
 20
20.2333
  0
VERTEX
  8
LIVELLO_1
 10
609.3929
 20
20.0841
  0
VERTEX
  8
LIVELLO_1
 10
608.7413
 20
19.9282
  0
VERTEX
  8
LIVELLO_1
 10
608.0896
 20
19.7654
  0
VERTEX
  8
LIVELLO_1
 10
607.4382
 20
19.5958
  0
VERTEX
  8
LIVELLO_1
 10
606.787
 20
19.4192
  0
VERTEX
  8
LIVELLO_1
 10
606.1363
 20
19.2357
  0
VERTEX
  8
LIVELLO_1
 10
605.4863
 20
19.0452
  0
VERTEX
  8
LIVELLO_1
 10
604.837
 20
18.8475
  0
VERTEX
  8
LIVELLO_1
 10
601.5223
 20
-19.2938
  0
VERTEX
  8
LIVELLO_1
 10
595.3342
 20
-55.4567
  0
VERTEX
  8
LIVELLO_1
 10
586.4941
 20
-89.2438
  0
VERTEX
  8
LIVELLO_1
 10
575.2233
 20
-120.2576
  0
VERTEX
  8
LIVELLO_1
 10
561.7432
 20
-148.1007
  0
VERTEX
  8
LIVELLO_1
 10
546.275
 20
-172.3756
  0
VERTEX
  8
LIVELLO_1
 10
529.0402
 20
-192.685
  0
VERTEX
  8
LIVELLO_1
 10
510.2601
 20
-208.6314
  0
VERTEX
  8
LIVELLO_1
 10
542.902
 20
-208.6314
  0
SEQEND
  8
LIVELLO_1
  0
POLYLINE
  8
LIVELLO_1
 66
     1
 70
     1
  0
VERTEX
  8
LIVELLO_1
 10
402.0285
 20
-208.6314
  0
VERTEX
  8
LIVELLO_1
 10
398.2106
 20
-205.8486
  0
VERTEX
  8
LIVELLO_1
 10
394.4459
 20
-202.884
  0
VERTEX
  8
LIVELLO_1
 10
390.7359
 20
-199.7405
  0
VERTEX
  8
LIVELLO_1
 10
387.0827
 20
-196.4209
  0
VERTEX
  8
LIVELLO_1
 10
383.4877
 20
-192.9282
  0
VERTEX
  8
LIVELLO_1
 10
379.9529
 20
-189.2652
  0
VERTEX
  8
LIVELLO_1
 10
376.4798
 20
-185.4348
  0
VERTEX
  8
LIVELLO_1
 10
373.0704
 20
-181.4398
  0
VERTEX
  8
LIVELLO_1
 10
373.0704
 20
-208.6314
  0
VERTEX
  8
LIVELLO_1
 10
402.0285
 20
-208.6314
  0
SEQEND
  8
LIVELLO_1
  0
POLYLINE
  8
LIVELLO_1
 66
     1
 70
     1
  0
VERTEX
  8
LIVELLO_1
 10
501.5015
 20
41.3686
  0
VERTEX
  8
LIVELLO_1
 10
502.3218
 20
28.231
  0
VERTEX
  8
LIVELLO_1
 10
504.6746
 20
15.9947
  0
VERTEX
  8
LIVELLO_1
 10
508.3975
 20
4.9217
  0
VERTEX
  8
LIVELLO_1
 10
513.3281
 20
-4.7259
  0
VERTEX
  8
LIVELLO_1
 10
519.304
 20
-12.6858
  0
VERTEX
  8
LIVELLO_1
 10
526.1628
 20
-18.6961
  0
VERTEX
  8
LIVELLO_1
 10
533.7423
 20
-22.4944
  0
VERTEX
  8
LIVELLO_1
 10
541.8799
 20
-23.8188
  0
VERTEX
  8
LIVELLO_1
 10
546.9734
 20
-23.3102
  0
VERTEX
  8
LIVELLO_1
 10
551.9241
 20
-21.8251
  0
VERTEX
  8
LIVELLO_1
 10
556.6861
 20
-19.4249
  0
VERTEX
  8
LIVELLO_1
 10
561.2131
 20
-16.1708
  0
VERTEX
  8
LIVELLO_1
 10
565.459
 20
-12.124
  0
VERTEX
  8
LIVELLO_1
 10
569.3778
 20
-7.3459
  0
VERTEX
  8
LIVELLO_1
 10
572.9232
 20
-1.8977
  0
VERTEX
  8
LIVELLO_1
 10
576.0492
 20
4.1594
  0
VERTEX
  8
LIVELLO_1
 10
577.548
 20
5.4118
  0
VERTEX
  8
LIVELLO_1
 10
573.8085
 20
-2.6789
  0
VERTEX
  8
LIVELLO_1
 10
569.3687
 20
-9.9925
  0
VERTEX
  8
LIVELLO_1
 10
564.2949
 20
-16.4361
  0
VERTEX
  8
LIVELLO_1
 10
558.653
 20
-21.9166
  0
VERTEX
  8
LIVELLO_1
 10
552.5092
 20
-26.341
  0
VERTEX
  8
LIVELLO_1
 10
545.9294
 20
-29.6165
  0
VERTEX
  8
LIVELLO_1
 10
538.9797
 20
-31.6499
  0
VERTEX
  8
LIVELLO_1
 10
531.7263
 20
-32.3484
  0
VERTEX
  8
LIVELLO_1
 10
521.1494
 20
-30.8507
  0
VERTEX
  8
LIVELLO_1
 10
511.298
 20
-26.5554
  0
VERTEX
  8
LIVELLO_1
 10
502.3832
 20
-19.7587
  0
VERTEX
  8
LIVELLO_1
 10
494.616
 20
-10.7572
  0
VERTEX
  8
LIVELLO_1
 10
488.2075
 20
0.1527
  0
VERTEX
  8
LIVELLO_1
 10
483.3687
 20
12.6746
  0
VERTEX
  8
LIVELLO_1
 10
480.3106
 20
26.512
  0
VERTEX
  8
LIVELLO_1
 10
479.2444
 20
41.3686
  0
VERTEX
  8
LIVELLO_1
 10
480.3106
 20
56.2252
  0
VERTEX
  8
LIVELLO_1
 10
483.3687
 20
70.0626
  0
VERTEX
  8
LIVELLO_1
 10
488.2075
 20
82.5845
  0
VERTEX
  8
LIVELLO_1
 10
494.616
 20
93.4944
  0
VERTEX
  8
LIVELLO_1
 10
502.3832
 20
102.4959
  0
VERTEX
  8
LIVELLO_1
 10
511.298
 20
109.2926
  0
VERTEX
  8
LIVELLO_1
 10
521.1494
 20
113.5879
  0
VERTEX
  8
LIVELLO_1
 10
531.7263
 20
115.0856
  0
VERTEX
  8
LIVELLO_1
 10
538.9797
 20
114.3871
  0
VERTEX
  8
LIVELLO_1
 10
545.9294
 20
112.3537
  0
VERTEX
  8
LIVELLO_1
 10
552.5092
 20
109.0782
  0
VERTEX
  8
LIVELLO_1
 10
558.653
 20
104.6538
  0
VERTEX
  8
LIVELLO_1
 10
564.2949
 20
99.1733
  0
VERTEX
  8
LIVELLO_1
 10
569.3687
 20
92.7297
  0
VERTEX
  8
LIVELLO_1
 10
573.8085
 20
85.4161
  0
VERTEX
  8
LIVELLO_1
 10
577.548
 20
77.3254
  0
VERTEX
  8
LIVELLO_1
 10
576.0492
 20
78.5778
  0
VERTEX
  8
LIVELLO_1
 10
572.9232
 20
84.6349
  0
VERTEX
  8
LIVELLO_1
 10
569.3778
 20
90.0831
  0
VERTEX
  8
LIVELLO_1
 10
565.459
 20
94.8612
  0
VERTEX
  8
LIVELLO_1
 10
561.2131
 20
98.908
  0
VERTEX
  8
LIVELLO_1
 10
556.6861
 20
102.1621
  0
VERTEX
  8
LIVELLO_1
 10
551.9241
 20
104.5623
  0
VERTEX
  8
LIVELLO_1
 10
546.9734
 20
106.0474
  0
VERTEX
  8
LIVELLO_1
 10
541.8799
 20
106.556
  0
VERTEX
  8
LIVELLO_1
 10
533.7423
 20
105.2316
  0
VERTEX
  8
LIVELLO_1
 10
526.1628
 20
101.4333
  0
VERTEX
  8
LIVELLO_1
 10
519.304
 20
95.423
  0
VERTEX
  8
LIVELLO_1
 10
513.3281
 20
87.4631
  0
VERTEX
  8
LIVELLO_1
 10
508.3975
 20
77.8155
  0
VERTEX
  8
LIVELLO_1
 10
504.6746
 20
66.7425
  0
VERTEX
  8
LIVELLO_1
 10
502.3218
 20
54.5062
  0
VERTEX
  8
LIVELLO_1
 10
501.5015
 20
41.3686
  0
SEQEND
  8
LIVELLO_1
  0
POLYLINE
  8
LIVELLO_1
 66
     1
 70
     1
  0
VERTEX
  8
LIVELLO_1
 10
527.0324
 20
41.3686
  0
VERTEX
  8
LIVELLO_1
 10
527.6014
 20
30.7841
  0
VERTEX
  8
LIVELLO_1
 10
529.2332
 20
20.9257
  0
VERTEX
  8
LIVELLO_1
 10
531.8153
 20
12.0045
  0
VERTEX
  8
LIVELLO_1
 10
535.235
 20
4.2318
  0
VERTEX
  8
LIVELLO_1
 10
539.3798
 20
-2.1813
  0
VERTEX
  8
LIVELLO_1
 10
544.1369
 20
-7.0236
  0
VERTEX
  8
LIVELLO_1
 10
549.3939
 20
-10.0838
  0
VERTEX
  8
LIVELLO_1
 10
555.038
 20
-11.1508
  0
VERTEX
  8
LIVELLO_1
 10
557.7457
 20
-10.9085
  0
VERTEX
  8
LIVELLO_1
 10
560.3803
 20
-10.1963
  0
VERTEX
  8
LIVELLO_1
 10
562.9299
 20
-9.0367
  0
VERTEX
  8
LIVELLO_1
 10
565.3825
 20
-7.4518
  0
VERTEX
  8
LIVELLO_1
 10
567.7263
 20
-5.4639
  0
VERTEX
  8
LIVELLO_1
 10
569.9495
 20
-3.0953
  0
VERTEX
  8
LIVELLO_1
 10
572.0401
 20
-0.3682
  0
VERTEX
  8
LIVELLO_1
 10
573.9863
 20
2.695
  0
VERTEX
  8
LIVELLO_1
 10
575.1392
 20
3.3491
  0
VERTEX
  8
LIVELLO_1
 10
572.6129
 20
-1.3929
  0
VERTEX
  8
LIVELLO_1
 10
569.8065
 20
-5.6411
  0
VERTEX
  8
LIVELLO_1
 10
566.7447
 20
-9.3529
  0
VERTEX
  8
LIVELLO_1
 10
563.4522
 20
-12.4856
  0
VERTEX
  8
LIVELLO_1
 10
559.9537
 20
-14.9964
  0
VERTEX
  8
LIVELLO_1
 10
556.274
 20
-16.8427
  0
VERTEX
  8
LIVELLO_1
 10
552.4377
 20
-17.9818
  0
VERTEX
  8
LIVELLO_1
 10
548.4695
 20
-18.371
  0
VERTEX
  8
LIVELLO_1
 10
541.5017
 20
-17.1573
  0
VERTEX
  8
LIVELLO_1
 10
535.0118
 20
-13.6764
  0
VERTEX
  8
LIVELLO_1
 10
529.1389
 20
-8.1684
  0
VERTEX
  8
LIVELLO_1
 10
524.022
 20
-0.8737
  0
VERTEX
  8
LIVELLO_1
 10
519.8002
 20
7.9676
  0
VERTEX
  8
LIVELLO_1
 10
516.6125
 20
18.1152
  0
VERTEX
  8
LIVELLO_1
 10
514.5979
 20
29.329
  0
VERTEX
  8
LIVELLO_1
 10
513.8955
 20
41.3686
  0
VERTEX
  8
LIVELLO_1
 10
514.5979
 20
53.4082
  0
VERTEX
  8
LIVELLO_1
 10
516.6125
 20
64.622
  0
VERTEX
  8
LIVELLO_1
 10
519.8002
 20
74.7696
  0
VERTEX
  8
LIVELLO_1
 10
524.022
 20
83.6109
  0
VERTEX
  8
LIVELLO_1
 10
529.1389
 20
90.9056
  0
VERTEX
  8
LIVELLO_1
 10
535.0118
 20
96.4136
  0
VERTEX
  8
LIVELLO_1
 10
541.5017
 20
99.8945
  0
VERTEX
  8
LIVELLO_1
 10
548.4695
 20
101.1082
  0
VERTEX
  8
LIVELLO_1
 10
552.4377
 20
100.719
  0
VERTEX
  8
LIVELLO_1
 10
556.274
 20
99.5799
  0
VERTEX
  8
LIVELLO_1
 10
559.9537
 20
97.7336
  0
VERTEX
  8
LIVELLO_1
 10
563.4522
 20
95.2228
  0
VERTEX
  8
LIVELLO_1
 10
566.7447
 20
92.0901
  0
VERTEX
  8
LIVELLO_1
 10
569.8065
 20
88.3783
  0
VERTEX
  8
LIVELLO_1
 10
572.6129
 20
84.1301
  0
VERTEX
  8
LIVELLO_1
 10
575.1392
 20
79.3881
  0
VERTEX
  8
LIVELLO_1
 10
573.9863
 20
80.0422
  0
VERTEX
  8
LIVELLO_1
 10
572.0401
 20
83.1054
  0
VERTEX
  8
LIVELLO_1
 10
569.9495
 20
85.8325
  0
VERTEX
  8
LIVELLO_1
 10
567.7263
 20
88.2011
  0
VERTEX
  8
LIVELLO_1
 10
565.3825
 20
90.189
  0
VERTEX
  8
LIVELLO_1
 10
562.9299
 20
91.7739
  0
VERTEX
  8
LIVELLO_1
 10
560.3803
 20
92.9335
  0
VERTEX
  8
LIVELLO_1
 10
557.7457
 20
93.6457
  0
VERTEX
  8
LIVELLO_1
 10
555.038
 20
93.888
  0
VERTEX
  8
LIVELLO_1
 10
549.3939
 20
92.821
  0
VERTEX
  8
LIVELLO_1
 10
544.1369
 20
89.7608
  0
VERTEX
  8
LIVELLO_1
 10
539.3798
 20
84.9185
  0
VERTEX
  8
LIVELLO_1
 10
535.235
 20
78.5054
  0
VERTEX
  8
LIVELLO_1
 10
531.8153
 20
70.7327
  0
VERTEX
  8
LIVELLO_1
 10
529.2332
 20
61.8115
  0
VERTEX
  8
LIVELLO_1
 10
527.6014
 20
51.9531
  0
VERTEX
  8
LIVELLO_1
 10
527.0324
 20
41.3686
  0
SEQEND
  8
LIVELLO_1
  0
POLYLINE
  8
LIVELLO_1
 66
     1
 70
     1
  0
VERTEX
  8
LIVELLO_1
 10
552.6903
 20
41.3686
  0
VERTEX
  8
LIVELLO_1
 10
553.0472
 20
33.3948
  0
VERTEX
  8
LIVELLO_1
 10
554.071
 20
25.9679
  0
VERTEX
  8
LIVELLO_1
 10
555.6909
 20
19.2472
  0
VERTEX
  8
LIVELLO_1
 10
557.8362
 20
13.3916
  0
VERTEX
  8
LIVELLO_1
 10
560.4364
 20
8.5603
  0
VERTEX
  8
LIVELLO_1
 10
563.4209
 20
4.9124
  0
VERTEX
  8
LIVELLO_1
 10
566.7188
 20
2.607
  0
VERTEX
  8
LIVELLO_1
 10
570.2597
 20
1.8032
  0
VERTEX
  8
LIVELLO_1
 10
571.6067
 20
1.9178
  0
VERTEX
  8
LIVELLO_1
 10
570.4566
 20
0.7388
  0
VERTEX
  8
LIVELLO_1
 10
569.2691
 20
-0.2998
  0
VERTEX
  8
LIVELLO_1
 10
568.0466
 20
-1.1929
  0
VERTEX
  8
LIVELLO_1
 10
566.7916
 20
-1.9353
  0
VERTEX
  8
LIVELLO_1
 10
565.5067
 20
-2.5217
  0
VERTEX
  8
LIVELLO_1
 10
564.1943
 20
-2.947
  0
VERTEX
  8
LIVELLO_1
 10
562.857
 20
-3.206
  0
VERTEX
  8
LIVELLO_1
 10
561.4973
 20
-3.2935
  0
VERTEX
  8
LIVELLO_1
 10
557.155
 20
-2.3861
  0
VERTEX
  8
LIVELLO_1
 10
553.1106
 20
0.2163
  0
VERTEX
  8
LIVELLO_1
 10
549.4507
 20
4.3341
  0
VERTEX
  8
LIVELLO_1
 10
546.2619
 20
9.7877
  0
VERTEX
  8
LIVELLO_1
 10
543.6309
 20
16.3976
  0
VERTEX
  8
LIVELLO_1
 10
541.6444
 20
23.9841
  0
VERTEX
  8
LIVELLO_1
 10
540.3889
 20
32.3676
  0
VERTEX
  8
LIVELLO_1
 10
539.9512
 20
41.3686
  0
VERTEX
  8
LIVELLO_1
 10
540.3889
 20
50.3696
  0
VERTEX
  8
LIVELLO_1
 10
541.6444
 20
58.7531
  0
VERTEX
  8
LIVELLO_1
 10
543.6309
 20
66.3396
  0
VERTEX
  8
LIVELLO_1
 10
546.2619
 20
72.9495
  0
VERTEX
  8
LIVELLO_1
 10
549.4507
 20
78.4031
  0
VERTEX
  8
LIVELLO_1
 10
553.1106
 20
82.5209
  0
VERTEX
  8
LIVELLO_1
 10
557.155
 20
85.1233
  0
VERTEX
  8
LIVELLO_1
 10
561.4973
 20
86.0307
  0
VERTEX
  8
LIVELLO_1
 10
562.857
 20
85.9432
  0
VERTEX
  8
LIVELLO_1
 10
564.1943
 20
85.6842
  0
VERTEX
  8
LIVELLO_1
 10
565.5067
 20
85.2589
  0
VERTEX
  8
LIVELLO_1
 10
566.7916
 20
84.6725
  0
VERTEX
  8
LIVELLO_1
 10
568.0466
 20
83.9301
  0
VERTEX
  8
LIVELLO_1
 10
569.2691
 20
83.037
  0
VERTEX
  8
LIVELLO_1
 10
570.4566
 20
81.9984
  0
VERTEX
  8
LIVELLO_1
 10
571.6067
 20
80.8194
  0
VERTEX
  8
LIVELLO_1
 10
570.2597
 20
80.934
  0
VERTEX
  8
LIVELLO_1
 10
566.7188
 20
80.1302
  0
VERTEX
  8
LIVELLO_1
 10
563.4209
 20
77.8248
  0
VERTEX
  8
LIVELLO_1
 10
560.4364
 20
74.1769
  0
VERTEX
  8
LIVELLO_1
 10
557.8362
 20
69.3456
  0
VERTEX
  8
LIVELLO_1
 10
555.6909
 20
63.49
  0
VERTEX
  8
LIVELLO_1
 10
554.071
 20
56.7693
  0
VERTEX
  8
LIVELLO_1
 10
553.0472
 20
49.3424
  0
VERTEX
  8
LIVELLO_1
 10
552.6903
 20
41.3686
  0
SEQEND
  8
LIVELLO_1
  0
POLYLINE
  8
LIVELLO_1
 66
     1
 70
     1
  0
VERTEX
  8
LIVELLO_1
 10
619.1342
 20
-163.4083
  0
VERTEX
  8
LIVELLO_1
 10
619.1342
 20
-163.4083
  0
SEQEND
  8
LIVELLO_1
  0
POLYLINE
  8
LIVELLO_1
 66
     1
 70
     1
  0
VERTEX
  8
LIVELLO_1
 10
582.553
 20
6.7174
  0
VERTEX
  8
LIVELLO_1
 10
582.6867
 20
6.7855
  0
VERTEX
  8
LIVELLO_1
 10
582.553
 20
6.7174
  0
SEQEND
  8
LIVELLO_1
  0
POLYLINE
  8
LIVELLO_1
 66
     1
 70
     1
  0
VERTEX
  8
LIVELLO_1
 10
583.2363
 20
7.0948
  0
VERTEX
  8
LIVELLO_1
 10
583.3866
 20
7.1877
  0
VERTEX
  8
LIVELLO_1
 10
583.2363
 20
7.0948
  0
SEQEND
  8
LIVELLO_1
  0
POLYLINE
  8
LIVELLO_1
 66
     1
 70
     1
  0
VERTEX
  8
LIVELLO_1
 10
619.1342
 20
246.1455
  0
VERTEX
  8
LIVELLO_1
 10
619.1342
 20
246.1455
  0
SEQEND
  8
LIVELLO_1
  0
POLYLINE
  8
LIVELLO_1
 66
     1
 70
     1
  0
VERTEX
  8
LIVELLO_1
 10
582.553
 20
76.0198
  0
VERTEX
  8
LIVELLO_1
 10
582.6867
 20
75.9517
  0
VERTEX
  8
LIVELLO_1
 10
582.553
 20
76.0198
  0
SEQEND
  8
LIVELLO_1
  0
POLYLINE
  8
LIVELLO_1
 66
     1
 70
     1
  0
VERTEX
  8
LIVELLO_1
 10
583.2363
 20
75.6424
  0
VERTEX
  8
LIVELLO_1
 10
583.3866
 20
75.5495
  0
VERTEX
  8
LIVELLO_1
 10
583.2363
 20
75.6424
  0
SEQEND
  8
LIVELLO_1
  0
ENDSEC
  0
EOF
