0
SECTION
2
HEADER
9
$ACADVER
1
AC1003
9
$INSBASE
10
0.0
20
0.0
30
0.0
9
$EXTMIN
10
0.000
20
0.000
30
0.0
9
$EXTMAX
10
771.000
20
764.000
30
0.0
9
$LIMMIN
10
0.000
20
0.000
9
$LIMMAX
10
771.000
20
764.000
9
$LTSCALE
40
1.0
9
$LUNITS
70
2
9
$LUPREC
70
3
9
$LIMCHECK
70
0
9
$UCSNAME
2

9
$UCSORG
10
0.0
20
0.0
30
0.0
9
$UCSXDIR
10
1.0
20
0.0
30
0.0
9
$UCSYDIR
10
0.0
20
1.0
30
0.0
9
$WORLDVIEW
70
1
9
$UNITMODE
70
0
0
ENDSEC
0
SECTION
2
TABLES
0
TABLE
2
VPORT
70
1
0
VPORT
2
*ACTIVE
70
0
10
0.0
20
0.0
11
1.0
21
1.0
12
385.500
22
382.000
13
0.0
23
0.0
14
1.0
24
1.0
15
0.0
25
0.0
16
0.0
26
0.0
36
1.0
17
0.0
27
0.0
37
0.0
40
500.0
41
0.991
42
50.0
43
0.0
44
0.0
50
0.0
51
0.0
71
0
72
100
73
1
74
1
75
0
76
0
77
0
78
0
0
ENDTAB
0
TABLE
2
LTYPE
70
1
0
LTYPE
2
CONTINUOUS
70
64
3
Solid line
72
65
73
0
40
0.000
0
ENDTAB
0
TABLE
2
LAYER
70
1
0
LAYER
2
0
70
64
62
7
6
CONTINUOUS
0
ENDTAB
0
ENDSEC
0
SECTION
2
BLOCKS
0
ENDSEC
0
SECTION
2
ENTITIES
0
POLYLINE
8
0
6
CONTINUOUS
66
1
62
7
10
0.0
20
0.0
30
0.000000
0
VERTEX
8
0
10
403.000000
20
683.000000
0
VERTEX
8
0
10
408.100000
20
684.800000
0
VERTEX
8
0
10
413.000000
20
689.000000
0
VERTEX
8
0
10
413.647059
20
692.088235
0
VERTEX
8
0
10
415.000000
20
698.000000
0
VERTEX
8
0
10
413.200000
20
703.100000
0
VERTEX
8
0
10
411.000000
20
706.000000
0
VERTEX
8
0
10
407.846154
20
707.769231
0
VERTEX
8
0
10
400.000000
20
710.000000
0
VERTEX
8
0
10
396.900000
20
708.200000
0
VERTEX
8
0
10
389.000000
20
701.000000
0
VERTEX
8
0
10
388.800000
20
700.100000
0
VERTEX
8
0
10
388.000000
20
699.000000
0
VERTEX
8
0
10
388.000000
20
692.000000
0
VERTEX
8
0
10
389.200000
20
690.100000
0
VERTEX
8
0
10
389.800000
20
688.900000
0
VERTEX
8
0
10
393.000000
20
685.000000
0
VERTEX
8
0
10
396.088235
20
684.352941
0
VERTEX
8
0
10
403.000000
20
683.000000
0
SEQEND
0
POLYLINE
8
0
6
CONTINUOUS
66
1
62
7
10
0.0
20
0.0
30
0.000000
0
VERTEX
8
0
10
354.000000
20
681.000000
0
VERTEX
8
0
10
363.000000
20
685.000000
0
VERTEX
8
0
10
366.200000
20
689.900000
0
VERTEX
8
0
10
367.000000
20
691.000000
0
VERTEX
8
0
10
367.000000
20
698.000000
0
VERTEX
8
0
10
366.000000
20
701.000000
0
VERTEX
8
0
10
361.100000
20
705.200000
0
VERTEX
8
0
10
357.000000
20
707.000000
0
VERTEX
8
0
10
347.000000
20
706.000000
0
VERTEX
8
0
10
341.800000
20
700.100000
0
VERTEX
8
0
10
340.000000
20
695.000000
0
VERTEX
8
0
10
340.000000
20
691.000000
0
VERTEX
8
0
10
340.700000
20
689.900000
0
VERTEX
8
0
10
341.000000
20
688.000000
0
VERTEX
8
0
10
346.000000
20
683.000000
0
VERTEX
8
0
10
348.088235
20
682.352941
0
VERTEX
8
0
10
354.000000
20
681.000000
0
SEQEND
0
POLYLINE
8
0
6
CONTINUOUS
66
1
62
7
10
0.0
20
0.0
30
0.000000
0
VERTEX
8
0
10
451.000000
20
677.000000
0
VERTEX
8
0
10
454.100000
20
678.800000
0
VERTEX
8
0
10
459.000000
20
683.000000
0
VERTEX
8
0
10
460.200000
20
685.900000
0
VERTEX
8
0
10
461.000000
20
687.000000
0
VERTEX
8
0
10
461.000000
20
694.000000
0
VERTEX
8
0
10
459.700000
20
696.900000
0
VERTEX
8
0
10
459.200000
20
698.100000
0
VERTEX
8
0
10
457.000000
20
701.000000
0
VERTEX
8
0
10
453.100000
20
702.300000
0
VERTEX
8
0
10
452.000000
20
703.000000
0
VERTEX
8
0
10
443.000000
20
703.000000
0
VERTEX
8
0
10
441.000000
20
702.000000
0
VERTEX
8
0
10
438.000000
20
699.000000
0
VERTEX
8
0
10
437.200000
20
696.900000
0
VERTEX
8
0
10
435.700000
20
693.100000
0
VERTEX
8
0
10
435.000000
20
692.000000
0
VERTEX
8
0
10
435.000000
20
688.000000
0
VERTEX
8
0
10
436.352941
20
684.088235
0
VERTEX
8
0
10
436.800000
20
682.900000
0
VERTEX
8
0
10
441.000000
20
678.000000
0
VERTEX
8
0
10
451.000000
20
677.000000
0
SEQEND
0
POLYLINE
8
0
6
CONTINUOUS
66
1
62
7
10
0.0
20
0.0
30
0.000000
0
VERTEX
8
0
10
312.000000
20
674.000000
0
VERTEX
8
0
10
315.100000
20
675.800000
0
VERTEX
8
0
10
320.000000
20
680.000000
0
VERTEX
8
0
10
321.200000
20
682.900000
0
VERTEX
8
0
10
323.000000
20
687.000000
0
VERTEX
8
0
10
323.000000
20
690.000000
0
VERTEX
8
0
10
321.700000
20
692.900000
0
VERTEX
8
0
10
321.200000
20
694.100000
0
VERTEX
8
0
10
317.000000
20
699.000000
0
VERTEX
8
0
10
312.088235
20
700.352941
0
VERTEX
8
0
10
307.000000
20
701.000000
0
VERTEX
8
0
10
304.100000
20
699.700000
0
VERTEX
8
0
10
301.000000
20
698.000000
0
VERTEX
8
0
10
298.800000
20
694.100000
0
VERTEX
8
0
10
297.000000
20
689.000000
0
VERTEX
8
0
10
297.000000
20
685.000000
0
VERTEX
8
0
10
298.300000
20
682.100000
0
VERTEX
8
0
10
298.800000
20
680.900000
0
VERTEX
8
0
10
304.000000
20
675.000000
0
VERTEX
8
0
10
312.000000
20
674.000000
0
SEQEND
0
POLYLINE
8
0
6
CONTINUOUS
66
1
62
7
10
0.0
20
0.0
30
0.000000
0
VERTEX
8
0
10
496.000000
20
664.000000
0
VERTEX
8
0
10
497.100000
20
664.700000
0
VERTEX
8
0
10
503.000000
20
667.000000
0
VERTEX
8
0
10
505.200000
20
669.900000
0
VERTEX
8
0
10
508.000000
20
676.000000
0
VERTEX
8
0
10
507.000000
20
684.000000
0
VERTEX
8
0
10
502.000000
20
689.000000
0
VERTEX
8
0
10
499.900000
20
689.700000
0
VERTEX
8
0
10
495.000000
20
691.000000
0
VERTEX
8
0
10
487.100000
20
687.800000
0
VERTEX
8
0
10
485.000000
20
687.000000
0
VERTEX
8
0
10
481.800000
20
682.100000
0
VERTEX
8
0
10
481.000000
20
681.000000
0
VERTEX
8
0
10
481.000000
20
675.000000
0
VERTEX
8
0
10
486.000000
20
668.000000
0
VERTEX
8
0
10
496.000000
20
664.000000
0
SEQEND
0
POLYLINE
8
0
6
CONTINUOUS
66
1
62
7
10
0.0
20
0.0
30
0.000000
0
VERTEX
8
0
10
266.000000
20
662.000000
0
VERTEX
8
0
10
273.000000
20
664.000000
0
VERTEX
8
0
10
275.240000
20
666.820000
0
VERTEX
8
0
10
279.000000
20
673.000000
0
VERTEX
8
0
10
278.352941
20
678.088235
0
VERTEX
8
0
10
276.800000
20
682.900000
0
VERTEX
8
0
10
274.000000
20
687.000000
0
VERTEX
8
0
10
271.100000
20
688.200000
0
VERTEX
8
0
10
270.000000
20
689.000000
0
VERTEX
8
0
10
264.911765
20
688.352941
0
VERTEX
8
0
10
258.000000
20
686.000000
0
VERTEX
8
0
10
254.000000
20
682.000000
0
VERTEX
8
0
10
253.000000
20
678.000000
0
VERTEX
8
0
10
253.000000
20
672.000000
0
VERTEX
8
0
10
253.647059
20
670.911765
0
VERTEX
8
0
10
254.000000
20
668.000000
0
VERTEX
8
0
10
256.000000
20
666.000000
0
VERTEX
8
0
10
261.100000
20
663.300000
0
VERTEX
8
0
10
266.000000
20
662.000000
0
SEQEND
0
POLYLINE
8
0
6
CONTINUOUS
66
1
62
7
10
0.0
20
0.0
30
0.000000
0
VERTEX
8
0
10
543.000000
20
640.000000
0
VERTEX
8
0
10
549.000000
20
643.000000
0
VERTEX
8
0
10
549.200000
20
643.900000
0
VERTEX
8
0
10
553.000000
20
651.000000
0
VERTEX
8
0
10
553.000000
20
655.000000
0
VERTEX
8
0
10
550.000000
20
664.000000
0
VERTEX
8
0
10
546.100000
20
666.200000
0
VERTEX
8
0
10
541.000000
20
668.000000
0
VERTEX
8
0
10
538.000000
20
668.000000
0
VERTEX
8
0
10
533.000000
20
664.000000
0
VERTEX
8
0
10
528.000000
20
659.000000
0
VERTEX
8
0
10
527.000000
20
655.000000
0
VERTEX
8
0
10
527.000000
20
651.000000
0
VERTEX
8
0
10
528.200000
20
649.100000
0
VERTEX
8
0
10
533.000000
20
642.000000
0
VERTEX
8
0
10
543.000000
20
640.000000
0
SEQEND
0
POLYLINE
8
0
6
CONTINUOUS
66
1
62
7
10
0.0
20
0.0
30
0.000000
0
VERTEX
8
0
10
218.000000
20
638.000000
0
VERTEX
8
0
10
226.000000
20
642.000000
0
VERTEX
8
0
10
228.200000
20
644.900000
0
VERTEX
8
0
10
230.000000
20
648.000000
0
VERTEX
8
0
10
230.000000
20
654.000000
0
VERTEX
8
0
10
227.000000
20
660.000000
0
VERTEX
8
0
10
224.153846
20
662.230769
0
VERTEX
8
0
10
220.000000
20
665.000000
0
VERTEX
8
0
10
210.000000
20
665.000000
0
VERTEX
8
0
10
206.000000
20
663.000000
0
VERTEX
8
0
10
202.000000
20
655.000000
0
VERTEX
8
0
10
202.000000
20
651.000000
0
VERTEX
8
0
10
204.230769
20
645.153846
0
VERTEX
8
0
10
208.000000
20
640.000000
0
VERTEX
8
0
10
210.088235
20
639.352941
0
VERTEX
8
0
10
218.000000
20
638.000000
0
SEQEND
0
POLYLINE
8
0
6
CONTINUOUS
66
1
62
7
10
0.0
20
0.0
30
0.000000
0
VERTEX
8
0
10
579.000000
20
617.000000
0
VERTEX
8
0
10
587.000000
20
622.000000
0
VERTEX
8
0
10
590.000000
20
629.000000
0
VERTEX
8
0
10
590.000000
20
637.000000
0
VERTEX
8
0
10
585.000000
20
642.000000
0
VERTEX
8
0
10
580.000000
20
644.000000
0
VERTEX
8
0
10
576.000000
20
644.000000
0
VERTEX
8
0
10
571.100000
20
641.800000
0
VERTEX
8
0
10
569.900000
20
641.200000
0
VERTEX
8
0
10
566.000000
20
638.000000
0
VERTEX
8
0
10
565.200000
20
635.900000
0
VERTEX
8
0
10
564.800000
20
635.100000
0
VERTEX
8
0
10
564.000000
20
634.000000
0
VERTEX
8
0
10
564.000000
20
625.000000
0
VERTEX
8
0
10
565.200000
20
623.100000
0
VERTEX
8
0
10
566.000000
20
621.000000
0
VERTEX
8
0
10
570.900000
20
617.800000
0
VERTEX
8
0
10
579.000000
20
617.000000
0
SEQEND
0
POLYLINE
8
0
6
CONTINUOUS
66
1
62
7
10
0.0
20
0.0
30
0.000000
0
VERTEX
8
0
10
177.000000
20
606.000000
0
VERTEX
8
0
10
183.000000
20
609.000000
0
VERTEX
8
0
10
188.000000
20
614.000000
0
VERTEX
8
0
10
188.000000
20
622.000000
0
VERTEX
8
0
10
186.482759
20
625.793103
0
VERTEX
8
0
10
185.230769
20
628.153846
0
VERTEX
8
0
10
183.000000
20
631.000000
0
VERTEX
8
0
10
179.100000
20
632.300000
0
VERTEX
8
0
10
178.000000
20
633.000000
0
VERTEX
8
0
10
174.000000
20
633.000000
0
VERTEX
8
0
10
170.088235
20
631.647059
0
VERTEX
8
0
10
168.900000
20
631.200000
0
VERTEX
8
0
10
164.000000
20
627.000000
0
VERTEX
8
0
10
162.000000
20
623.000000
0
VERTEX
8
0
10
162.000000
20
615.000000
0
VERTEX
8
0
10
164.000000
20
611.000000
0
VERTEX
8
0
10
165.900000
20
609.800000
0
VERTEX
8
0
10
175.100000
20
606.300000
0
VERTEX
8
0
10
177.000000
20
606.000000
0
SEQEND
0
POLYLINE
8
0
6
CONTINUOUS
66
1
62
7
10
0.0
20
0.0
30
0.000000
0
VERTEX
8
0
10
269.000000
20
589.000000
0
VERTEX
8
0
10
267.000000
20
589.000000
0
SEQEND
0
POLYLINE
8
0
6
CONTINUOUS
66
1
62
7
10
0.0
20
0.0
30
0.000000
0
VERTEX
8
0
10
614.000000
20
583.000000
0
VERTEX
8
0
10
615.088235
20
583.647059
0
VERTEX
8
0
10
622.000000
20
586.000000
0
VERTEX
8
0
10
624.000000
20
588.000000
0
VERTEX
8
0
10
625.647059
20
592.088235
0
VERTEX
8
0
10
627.000000
20
599.000000
0
VERTEX
8
0
10
625.700000
20
601.900000
0
VERTEX
8
0
10
625.000000
20
604.000000
0
VERTEX
8
0
10
618.100000
20
608.200000
0
VERTEX
8
0
10
615.000000
20
610.000000
0
VERTEX
8
0
10
610.000000
20
610.000000
0
VERTEX
8
0
10
604.000000
20
605.000000
0
VERTEX
8
0
10
601.200000
20
599.900000
0
VERTEX
8
0
10
600.800000
20
599.100000
0
VERTEX
8
0
10
600.000000
20
598.000000
0
VERTEX
8
0
10
600.000000
20
592.000000
0
VERTEX
8
0
10
608.000000
20
584.000000
0
VERTEX
8
0
10
614.000000
20
583.000000
0
SEQEND
0
POLYLINE
8
0
6
CONTINUOUS
66
1
62
7
10
0.0
20
0.0
30
0.000000
0
VERTEX
8
0
10
148.000000
20
576.000000
0
VERTEX
8
0
10
149.100000
20
576.800000
0
VERTEX
8
0
10
154.000000
20
579.000000
0
VERTEX
8
0
10
157.000000
20
582.000000
0
VERTEX
8
0
10
157.300000
20
583.900000
0
VERTEX
8
0
10
159.000000
20
587.000000
0
VERTEX
8
0
10
159.000000
20
595.000000
0
VERTEX
8
0
10
157.769231
20
596.846154
0
VERTEX
8
0
10
155.000000
20
601.000000
0
VERTEX
8
0
10
152.100000
20
602.200000
0
VERTEX
8
0
10
151.000000
20
603.000000
0
VERTEX
8
0
10
144.000000
20
603.000000
0
VERTEX
8
0
10
142.100000
20
601.800000
0
VERTEX
8
0
10
140.900000
20
601.200000
0
VERTEX
8
0
10
135.000000
20
596.000000
0
VERTEX
8
0
10
133.000000
20
591.000000
0
VERTEX
8
0
10
133.000000
20
587.000000
0
VERTEX
8
0
10
135.000000
20
582.000000
0
VERTEX
8
0
10
139.900000
20
577.800000
0
VERTEX
8
0
10
148.000000
20
576.000000
0
SEQEND
0
POLYLINE
8
0
6
CONTINUOUS
66
1
62
7
10
0.0
20
0.0
30
0.000000
0
VERTEX
8
0
10
452.000000
20
574.000000
0
VERTEX
8
0
10
452.000000
20
575.000000
0
VERTEX
8
0
10
454.760000
20
579.180000
0
VERTEX
8
0
10
458.000000
20
586.000000
0
VERTEX
8
0
10
455.647059
20
592.911765
0
VERTEX
8
0
10
452.000000
20
603.000000
0
VERTEX
8
0
10
450.000000
20
603.000000
0
VERTEX
8
0
10
442.000000
20
597.000000
0
VERTEX
8
0
10
439.000000
20
594.000000
0
VERTEX
8
0
10
439.647059
20
589.911765
0
VERTEX
8
0
10
442.000000
20
575.000000
0
SEQEND
0
POLYLINE
8
0
6
CONTINUOUS
66
1
62
7
10
0.0
20
0.0
30
0.000000
0
VERTEX
8
0
10
442.000000
20
573.000000
0
VERTEX
8
0
10
442.000000
20
575.000000
0
SEQEND
0
POLYLINE
8
0
6
CONTINUOUS
66
1
62
7
10
0.0
20
0.0
30
0.000000
0
VERTEX
8
0
10
450.000000
20
573.000000
0
VERTEX
8
0
10
452.000000
20
574.000000
0
SEQEND
0
POLYLINE
8
0
6
CONTINUOUS
66
1
62
7
10
0.0
20
0.0
30
0.000000
0
VERTEX
8
0
10
302.000000
20
554.000000
0
VERTEX
8
0
10
303.000000
20
556.000000
0
SEQEND
0
POLYLINE
8
0
6
CONTINUOUS
66
1
62
7
10
0.0
20
0.0
30
0.000000
0
VERTEX
8
0
10
368.000000
20
543.000000
0
VERTEX
8
0
10
369.652469
20
546.126331
0
VERTEX
8
0
10
373.647059
20
607.088235
0
VERTEX
8
0
10
374.352941
20
609.911765
0
VERTEX
8
0
10
378.800000
20
623.100000
0
VERTEX
8
0
10
390.000000
20
638.000000
0
VERTEX
8
0
10
389.000000
20
639.000000
0
VERTEX
8
0
10
384.900000
20
638.300000
0
VERTEX
8
0
10
369.000000
20
634.000000
0
VERTEX
8
0
10
364.000000
20
634.000000
0
VERTEX
8
0
10
353.076923
20
636.384615
0
VERTEX
8
0
10
336.000000
20
642.000000
0
VERTEX
8
0
10
333.000000
20
642.000000
0
VERTEX
8
0
10
332.000000
20
641.000000
0
VERTEX
8
0
10
337.230769
20
635.153846
0
VERTEX
8
0
10
349.800000
20
614.900000
0
VERTEX
8
0
10
351.200000
20
612.100000
0
VERTEX
8
0
10
355.647059
20
597.911765
0
VERTEX
8
0
10
357.300000
20
592.100000
0
VERTEX
8
0
10
365.517241
20
547.206897
0
VERTEX
8
0
10
368.000000
20
543.000000
0
SEQEND
0
POLYLINE
8
0
6
CONTINUOUS
66
1
62
7
10
0.0
20
0.0
30
0.000000
0
VERTEX
8
0
10
651.000000
20
541.000000
0
VERTEX
8
0
10
654.000000
20
543.000000
0
VERTEX
8
0
10
657.600000
20
548.200000
0
VERTEX
8
0
10
658.300000
20
549.900000
0
VERTEX
8
0
10
659.000000
20
554.000000
0
VERTEX
8
0
10
656.000000
20
562.000000
0
VERTEX
8
0
10
655.180000
20
562.240000
0
VERTEX
8
0
10
646.000000
20
568.000000
0
VERTEX
8
0
10
643.000000
20
568.000000
0
VERTEX
8
0
10
640.100000
20
566.700000
0
VERTEX
8
0
10
635.000000
20
564.000000
0
VERTEX
8
0
10
633.800000
20
562.100000
0
VERTEX
8
0
10
631.800000
20
558.100000
0
VERTEX
8
0
10
631.000000
20
557.000000
0
VERTEX
8
0
10
631.000000
20
553.000000
0
VERTEX
8
0
10
632.352941
20
549.088235
0
VERTEX
8
0
10
632.800000
20
547.900000
0
VERTEX
8
0
10
636.000000
20
543.000000
0
VERTEX
8
0
10
636.846154
20
542.769231
0
VERTEX
8
0
10
639.120000
20
541.840000
0
VERTEX
8
0
10
651.000000
20
541.000000
0
SEQEND
0
POLYLINE
8
0
6
CONTINUOUS
66
1
62
7
10
0.0
20
0.0
30
0.000000
0
VERTEX
8
0
10
120.000000
20
540.000000
0
VERTEX
8
0
10
123.000000
20
541.000000
0
VERTEX
8
0
10
127.200000
20
547.900000
0
VERTEX
8
0
10
128.000000
20
549.000000
0
VERTEX
8
0
10
128.000000
20
556.000000
0
VERTEX
8
0
10
125.000000
20
562.000000
0
VERTEX
8
0
10
122.100000
20
564.200000
0
VERTEX
8
0
10
119.000000
20
566.000000
0
VERTEX
8
0
10
113.000000
20
566.000000
0
VERTEX
8
0
10
111.100000
20
564.800000
0
VERTEX
8
0
10
109.153846
20
563.769231
0
VERTEX
8
0
10
104.000000
20
560.000000
0
VERTEX
8
0
10
102.800000
20
557.100000
0
VERTEX
8
0
10
101.000000
20
554.000000
0
VERTEX
8
0
10
101.647059
20
550.911765
0
VERTEX
8
0
10
105.000000
20
543.000000
0
VERTEX
8
0
10
108.000000
20
540.000000
0
VERTEX
8
0
10
120.000000
20
540.000000
0
SEQEND
0
POLYLINE
8
0
6
CONTINUOUS
66
1
62
7
10
0.0
20
0.0
30
0.000000
0
VERTEX
8
0
10
288.000000
20
526.000000
0
VERTEX
8
0
10
286.000000
20
527.000000
0
SEQEND
0
POLYLINE
8
0
6
CONTINUOUS
66
1
62
7
10
0.0
20
0.0
30
0.000000
0
VERTEX
8
0
10
288.000000
20
526.000000
0
VERTEX
8
0
10
288.000000
20
527.000000
0
VERTEX
8
0
10
294.000000
20
530.000000
0
VERTEX
8
0
10
294.000000
20
532.000000
0
VERTEX
8
0
10
292.100000
20
533.200000
0
VERTEX
8
0
10
289.100000
20
534.300000
0
VERTEX
8
0
10
283.946154
20
535.569231
0
VERTEX
8
0
10
276.250000
20
535.750000
0
VERTEX
8
0
10
276.384615
20
531.076923
0
VERTEX
8
0
10
277.000000
20
530.000000
0
VERTEX
8
0
10
275.000000
20
528.000000
0
VERTEX
8
0
10
268.000000
20
527.000000
0
VERTEX
8
0
10
266.000000
20
528.000000
0
VERTEX
8
0
10
264.800000
20
529.900000
0
VERTEX
8
0
10
264.000000
20
531.000000
0
VERTEX
8
0
10
265.000000
20
539.000000
0
VERTEX
8
0
10
269.900000
20
543.200000
0
VERTEX
8
0
10
277.037931
20
544.544828
0
VERTEX
8
0
10
288.000000
20
545.000000
0
VERTEX
8
0
10
289.000000
20
546.000000
0
VERTEX
8
0
10
284.100000
20
549.200000
0
VERTEX
8
0
10
283.000000
20
550.000000
0
VERTEX
8
0
10
276.000000
20
550.000000
0
VERTEX
8
0
10
275.000000
20
549.000000
0
VERTEX
8
0
10
257.000000
20
549.000000
0
VERTEX
8
0
10
253.180000
20
551.240000
0
VERTEX
8
0
10
249.000000
20
554.000000
0
VERTEX
8
0
10
247.000000
20
556.000000
0
VERTEX
8
0
10
248.000000
20
557.000000
0
VERTEX
8
0
10
256.000000
20
554.000000
0
VERTEX
8
0
10
260.067568
20
554.594595
0
VERTEX
8
0
10
281.932432
20
558.405405
0
VERTEX
8
0
10
285.000000
20
560.000000
0
VERTEX
8
0
10
283.000000
20
562.000000
0
VERTEX
8
0
10
277.900000
20
563.800000
0
VERTEX
8
0
10
277.180000
20
564.240000
0
VERTEX
8
0
10
271.000000
20
569.000000
0
VERTEX
8
0
10
270.000000
20
577.000000
0
VERTEX
8
0
10
271.352941
20
580.911765
0
VERTEX
8
0
10
272.000000
20
583.000000
0
VERTEX
8
0
10
273.000000
20
584.000000
0
VERTEX
8
0
10
276.923077
20
583.615385
0
VERTEX
8
0
10
283.000000
20
581.000000
0
VERTEX
8
0
10
284.000000
20
580.000000
0
VERTEX
8
0
10
287.000000
20
565.000000
0
VERTEX
8
0
10
290.000000
20
563.000000
0
VERTEX
8
0
10
291.000000
20
563.000000
0
VERTEX
8
0
10
292.243902
20
564.804878
0
VERTEX
8
0
10
295.756098
20
569.195122
0
VERTEX
8
0
10
303.773756
20
577.248869
0
VERTEX
8
0
10
314.000000
20
587.000000
0
VERTEX
8
0
10
315.000000
20
586.000000
0
VERTEX
8
0
10
314.352941
20
583.911765
0
VERTEX
8
0
10
313.647059
20
581.088235
0
VERTEX
8
0
10
307.769231
20
570.153846
0
VERTEX
8
0
10
305.800000
20
567.100000
0
VERTEX
8
0
10
302.000000
20
558.000000
0
VERTEX
8
0
10
303.000000
20
556.000000
0
SEQEND
0
POLYLINE
8
0
6
CONTINUOUS
66
1
62
7
10
0.0
20
0.0
30
0.000000
0
VERTEX
8
0
10
490.000000
20
503.000000
0
VERTEX
8
0
10
491.100000
20
503.800000
0
VERTEX
8
0
10
521.000000
20
534.000000
0
VERTEX
8
0
10
545.100000
20
547.800000
0
VERTEX
8
0
10
550.900000
20
550.300000
0
VERTEX
8
0
10
568.067568
20
555.594595
0
VERTEX
8
0
10
584.000000
20
558.000000
0
VERTEX
8
0
10
585.000000
20
559.000000
0
VERTEX
8
0
10
564.153846
20
569.230769
0
VERTEX
8
0
10
556.846154
20
573.769231
0
VERTEX
8
0
10
552.000000
20
576.000000
0
VERTEX
8
0
10
549.000000
20
579.000000
0
VERTEX
8
0
10
538.200000
20
595.100000
0
VERTEX
8
0
10
538.000000
20
596.000000
0
VERTEX
8
0
10
534.000000
20
600.000000
0
VERTEX
8
0
10
527.647059
20
566.088235
0
VERTEX
8
0
10
514.800000
20
542.100000
0
VERTEX
8
0
10
514.200000
20
540.900000
0
VERTEX
8
0
10
507.240000
20
530.820000
0
VERTEX
8
0
10
491.800000
20
510.100000
0
VERTEX
8
0
10
491.200000
20
508.900000
0
VERTEX
8
0
10
489.000000
20
504.000000
0
VERTEX
8
0
10
490.000000
20
503.000000
0
SEQEND
0
POLYLINE
8
0
6
CONTINUOUS
66
1
62
7
10
0.0
20
0.0
30
0.000000
0
VERTEX
8
0
10
672.000000
20
502.000000
0
VERTEX
8
0
10
680.000000
20
507.000000
0
VERTEX
8
0
10
680.230769
20
507.846154
0
VERTEX
8
0
10
682.000000
20
510.000000
0
VERTEX
8
0
10
682.000000
20
520.000000
0
VERTEX
8
0
10
680.000000
20
523.000000
0
VERTEX
8
0
10
673.100000
20
529.200000
0
VERTEX
8
0
10
672.000000
20
530.000000
0
VERTEX
8
0
10
668.000000
20
530.000000
0
VERTEX
8
0
10
664.088235
20
528.647059
0
VERTEX
8
0
10
662.000000
20
528.000000
0
VERTEX
8
0
10
656.800000
20
522.100000
0
VERTEX
8
0
10
655.700000
20
519.100000
0
VERTEX
8
0
10
655.000000
20
518.000000
0
VERTEX
8
0
10
656.000000
20
509.000000
0
VERTEX
8
0
10
662.000000
20
503.000000
0
VERTEX
8
0
10
672.000000
20
502.000000
0
SEQEND
0
POLYLINE
8
0
6
CONTINUOUS
66
1
62
7
10
0.0
20
0.0
30
0.000000
0
VERTEX
8
0
10
378.000000
20
500.000000
0
VERTEX
8
0
10
377.000000
20
501.000000
0
SEQEND
0
POLYLINE
8
0
6
CONTINUOUS
66
1
62
7
10
0.0
20
0.0
30
0.000000
0
VERTEX
8
0
10
369.000000
20
499.000000
0
VERTEX
8
0
10
369.000000
20
500.000000
0
SEQEND
0
POLYLINE
8
0
6
CONTINUOUS
66
1
62
7
10
0.0
20
0.0
30
0.000000
0
VERTEX
8
0
10
376.000000
20
499.000000
0
VERTEX
8
0
10
377.000000
20
501.000000
0
SEQEND
0
POLYLINE
8
0
6
CONTINUOUS
66
1
62
7
10
0.0
20
0.0
30
0.000000
0
VERTEX
8
0
10
376.000000
20
499.000000
0
VERTEX
8
0
10
378.000000
20
500.000000
0
SEQEND
0
POLYLINE
8
0
6
CONTINUOUS
66
1
62
7
10
0.0
20
0.0
30
0.000000
0
VERTEX
8
0
10
375.000000
20
498.000000
0
VERTEX
8
0
10
376.000000
20
499.000000
0
SEQEND
0
POLYLINE
8
0
6
CONTINUOUS
66
1
62
7
10
0.0
20
0.0
30
0.000000
0
VERTEX
8
0
10
370.000000
20
497.000000
0
VERTEX
8
0
10
369.000000
20
499.000000
0
SEQEND
0
POLYLINE
8
0
6
CONTINUOUS
66
1
62
7
10
0.0
20
0.0
30
0.000000
0
VERTEX
8
0
10
91.000000
20
495.000000
0
VERTEX
8
0
10
95.000000
20
496.000000
0
VERTEX
8
0
10
100.200000
20
502.900000
0
VERTEX
8
0
10
100.800000
20
504.100000
0
VERTEX
8
0
10
102.000000
20
508.000000
0
VERTEX
8
0
10
100.300000
20
515.100000
0
VERTEX
8
0
10
100.000000
20
517.000000
0
VERTEX
8
0
10
97.000000
20
520.000000
0
VERTEX
8
0
10
94.911765
20
520.647059
0
VERTEX
8
0
10
88.000000
20
522.000000
0
VERTEX
8
0
10
82.900000
20
520.200000
0
VERTEX
8
0
10
79.000000
20
517.000000
0
VERTEX
8
0
10
75.647059
20
510.088235
0
VERTEX
8
0
10
75.000000
20
504.000000
0
VERTEX
8
0
10
81.000000
20
495.000000
0
VERTEX
8
0
10
91.000000
20
495.000000
0
SEQEND
0
POLYLINE
8
0
6
CONTINUOUS
66
1
62
7
10
0.0
20
0.0
30
0.000000
0
VERTEX
8
0
10
362.000000
20
492.000000
0
VERTEX
8
0
10
360.900000
20
492.800000
0
VERTEX
8
0
10
353.000000
20
497.000000
0
VERTEX
8
0
10
350.000000
20
500.000000
0
VERTEX
8
0
10
350.250000
20
501.750000
0
VERTEX
8
0
10
361.962069
20
501.544828
0
VERTEX
8
0
10
368.000000
20
499.000000
0
VERTEX
8
0
10
369.000000
20
499.000000
0
SEQEND
0
POLYLINE
8
0
6
CONTINUOUS
66
1
62
7
10
0.0
20
0.0
30
0.000000
0
VERTEX
8
0
10
363.000000
20
492.000000
0
VERTEX
8
0
10
362.000000
20
492.000000
0
SEQEND
0
POLYLINE
8
0
6
CONTINUOUS
66
1
62
7
10
0.0
20
0.0
30
0.000000
0
VERTEX
8
0
10
249.000000
20
483.000000
0
VERTEX
8
0
10
248.100000
20
483.200000
0
VERTEX
8
0
10
220.180000
20
502.240000
0
VERTEX
8
0
10
216.820000
20
504.760000
0
VERTEX
8
0
10
199.900000
20
514.800000
0
VERTEX
8
0
10
194.100000
20
517.200000
0
VERTEX
8
0
10
178.911765
20
521.647059
0
VERTEX
8
0
10
174.976309
20
522.526185
0
VERTEX
8
0
10
156.000000
20
523.000000
0
VERTEX
8
0
10
155.000000
20
524.000000
0
VERTEX
8
0
10
159.000000
20
528.000000
0
VERTEX
8
0
10
163.100000
20
529.700000
0
VERTEX
8
0
10
165.000000
20
530.000000
0
VERTEX
8
0
10
180.000000
20
545.000000
0
VERTEX
8
0
10
188.800000
20
561.100000
0
VERTEX
8
0
10
191.000000
20
564.000000
0
VERTEX
8
0
10
199.800000
20
538.900000
0
VERTEX
8
0
10
201.800000
20
534.900000
0
VERTEX
8
0
10
210.000000
20
522.000000
0
VERTEX
8
0
10
250.000000
20
484.000000
0
SEQEND
0
POLYLINE
8
0
6
CONTINUOUS
66
1
62
7
10
0.0
20
0.0
30
0.000000
0
VERTEX
8
0
10
249.000000
20
483.000000
0
VERTEX
8
0
10
250.000000
20
484.000000
0
SEQEND
0
POLYLINE
8
0
6
CONTINUOUS
66
1
62
7
10
0.0
20
0.0
30
0.000000
0
VERTEX
8
0
10
249.000000
20
483.000000
0
VERTEX
8
0
10
250.000000
20
482.000000
0
VERTEX
8
0
10
251.000000
20
483.000000
0
VERTEX
8
0
10
250.000000
20
484.000000
0
SEQEND
0
POLYLINE
8
0
6
CONTINUOUS
66
1
62
7
10
0.0
20
0.0
30
0.000000
0
VERTEX
8
0
10
184.000000
20
481.000000
0
VERTEX
8
0
10
184.000000
20
483.000000
0
SEQEND
0
POLYLINE
8
0
6
CONTINUOUS
66
1
62
7
10
0.0
20
0.0
30
0.000000
0
VERTEX
8
0
10
463.000000
20
475.000000
0
VERTEX
8
0
10
464.000000
20
477.000000
0
VERTEX
8
0
10
463.000000
20
478.000000
0
VERTEX
8
0
10
462.000000
20
477.000000
0
VERTEX
8
0
10
463.000000
20
475.000000
0
SEQEND
0
POLYLINE
8
0
6
CONTINUOUS
66
1
62
7
10
0.0
20
0.0
30
0.000000
0
VERTEX
8
0
10
411.000000
20
473.000000
0
VERTEX
8
0
10
410.000000
20
474.000000
0
VERTEX
8
0
10
410.000000
20
480.000000
0
VERTEX
8
0
10
412.352941
20
487.911765
0
VERTEX
8
0
10
413.352941
20
491.911765
0
VERTEX
8
0
10
421.569231
20
522.053846
0
VERTEX
8
0
10
422.430769
20
528.946154
0
VERTEX
8
0
10
423.000000
20
537.000000
0
VERTEX
8
0
10
420.700000
20
541.900000
0
VERTEX
8
0
10
419.800000
20
543.900000
0
VERTEX
8
0
10
418.000000
20
547.000000
0
VERTEX
8
0
10
418.000000
20
549.000000
0
VERTEX
8
0
10
421.000000
20
552.000000
0
VERTEX
8
0
10
423.100000
20
551.200000
0
VERTEX
8
0
10
423.846154
20
550.769231
0
VERTEX
8
0
10
431.000000
20
547.000000
0
VERTEX
8
0
10
432.000000
20
548.000000
0
VERTEX
8
0
10
432.000000
20
552.000000
0
VERTEX
8
0
10
430.600000
20
554.800000
0
VERTEX
8
0
10
428.760000
20
557.820000
0
VERTEX
8
0
10
425.000000
20
563.000000
0
VERTEX
8
0
10
422.000000
20
564.000000
0
VERTEX
8
0
10
420.000000
20
564.000000
0
VERTEX
8
0
10
418.300000
20
560.900000
0
VERTEX
8
0
10
417.000000
20
557.000000
0
VERTEX
8
0
10
415.000000
20
555.000000
0
VERTEX
8
0
10
408.000000
20
555.000000
0
VERTEX
8
0
10
404.000000
20
557.000000
0
VERTEX
8
0
10
403.000000
20
558.000000
0
VERTEX
8
0
10
402.000000
20
564.000000
0
VERTEX
8
0
10
402.800000
20
565.100000
0
VERTEX
8
0
10
404.000000
20
568.000000
0
VERTEX
8
0
10
409.000000
20
573.000000
0
VERTEX
8
0
10
413.100000
20
574.800000
0
VERTEX
8
0
10
415.000000
20
576.000000
0
VERTEX
8
0
10
418.000000
20
576.000000
0
VERTEX
8
0
10
419.900000
20
574.800000
0
VERTEX
8
0
10
429.000000
20
569.000000
0
VERTEX
8
0
10
429.200000
20
568.100000
0
VERTEX
8
0
10
436.000000
20
556.000000
0
VERTEX
8
0
10
438.000000
20
558.000000
0
VERTEX
8
0
10
438.000000
20
561.000000
0
VERTEX
8
0
10
435.769231
20
567.846154
0
VERTEX
8
0
10
434.230769
20
570.153846
0
VERTEX
8
0
10
428.000000
20
578.000000
0
VERTEX
8
0
10
427.211765
20
578.247059
0
VERTEX
8
0
10
417.000000
20
587.000000
0
VERTEX
8
0
10
412.200000
20
595.100000
0
VERTEX
8
0
10
411.000000
20
599.000000
0
VERTEX
8
0
10
412.000000
20
600.000000
0
VERTEX
8
0
10
414.000000
20
600.000000
0
VERTEX
8
0
10
418.804878
20
595.756098
0
VERTEX
8
0
10
434.000000
20
584.000000
0
VERTEX
8
0
10
434.243902
20
583.195122
0
VERTEX
8
0
10
441.000000
20
575.000000
0
VERTEX
8
0
10
442.000000
20
575.000000
0
SEQEND
0
POLYLINE
8
0
6
CONTINUOUS
66
1
62
7
10
0.0
20
0.0
30
0.000000
0
VERTEX
8
0
10
411.000000
20
473.000000
0
VERTEX
8
0
10
411.800000
20
474.100000
0
VERTEX
8
0
10
427.700000
20
515.100000
0
VERTEX
8
0
10
428.300000
20
516.900000
0
VERTEX
8
0
10
436.000000
20
530.000000
0
VERTEX
8
0
10
438.900000
20
532.200000
0
VERTEX
8
0
10
452.000000
20
540.000000
0
VERTEX
8
0
10
450.000000
20
542.000000
0
VERTEX
8
0
10
440.000000
20
542.000000
0
VERTEX
8
0
10
439.000000
20
543.000000
0
VERTEX
8
0
10
444.804878
20
548.243902
0
VERTEX
8
0
10
455.000000
20
555.000000
0
VERTEX
8
0
10
459.000000
20
555.000000
0
VERTEX
8
0
10
460.000000
20
554.000000
0
VERTEX
8
0
10
459.352941
20
552.911765
0
VERTEX
8
0
10
458.000000
20
546.000000
0
VERTEX
8
0
10
462.000000
20
541.000000
0
VERTEX
8
0
10
465.088235
20
541.647059
0
VERTEX
8
0
10
470.000000
20
543.000000
0
VERTEX
8
0
10
472.200000
20
545.900000
0
VERTEX
8
0
10
473.000000
20
547.000000
0
VERTEX
8
0
10
473.000000
20
554.000000
0
VERTEX
8
0
10
471.000000
20
558.000000
0
VERTEX
8
0
10
469.000000
20
560.000000
0
VERTEX
8
0
10
464.000000
20
562.000000
0
VERTEX
8
0
10
454.000000
20
562.000000
0
VERTEX
8
0
10
452.100000
20
560.800000
0
VERTEX
8
0
10
446.100000
20
557.800000
0
VERTEX
8
0
10
443.000000
20
556.000000
0
VERTEX
8
0
10
441.000000
20
558.000000
0
VERTEX
8
0
10
442.000000
20
560.000000
0
VERTEX
8
0
10
443.900000
20
561.200000
0
VERTEX
8
0
10
445.900000
20
562.200000
0
VERTEX
8
0
10
457.911765
20
566.352941
0
VERTEX
8
0
10
476.932432
20
569.405405
0
VERTEX
8
0
10
480.900000
20
571.200000
0
VERTEX
8
0
10
487.000000
20
575.000000
0
VERTEX
8
0
10
488.750000
20
579.750000
0
VERTEX
8
0
10
485.911765
20
579.352941
0
VERTEX
8
0
10
455.100000
20
574.700000
0
VERTEX
8
0
10
452.000000
20
574.000000
0
SEQEND
0
POLYLINE
8
0
6
CONTINUOUS
66
1
62
7
10
0.0
20
0.0
30
0.000000
0
VERTEX
8
0
10
378.000000
20
500.000000
0
VERTEX
8
0
10
379.846154
20
501.230769
0
VERTEX
8
0
10
386.088235
20
504.647059
0
VERTEX
8
0
10
390.000000
20
506.000000
0
VERTEX
8
0
10
395.000000
20
505.000000
0
VERTEX
8
0
10
396.000000
20
504.000000
0
VERTEX
8
0
10
385.000000
20
497.000000
0
VERTEX
8
0
10
384.000000
20
495.000000
0
VERTEX
8
0
10
385.900000
20
493.800000
0
VERTEX
8
0
10
390.000000
20
491.000000
0
VERTEX
8
0
10
391.000000
20
486.000000
0
VERTEX
8
0
10
388.000000
20
482.000000
0
VERTEX
8
0
10
384.000000
20
484.000000
0
VERTEX
8
0
10
382.000000
20
484.000000
0
VERTEX
8
0
10
379.000000
20
481.000000
0
VERTEX
8
0
10
379.000000
20
474.000000
0
VERTEX
8
0
10
381.900000
20
472.700000
0
VERTEX
8
0
10
383.000000
20
472.000000
0
VERTEX
8
0
10
391.000000
20
472.000000
0
VERTEX
8
0
10
393.000000
20
474.000000
0
VERTEX
8
0
10
394.647059
20
481.088235
0
VERTEX
8
0
10
395.352941
20
483.911765
0
VERTEX
8
0
10
399.000000
20
498.000000
0
VERTEX
8
0
10
399.000000
20
518.000000
0
VERTEX
8
0
10
398.000000
20
523.000000
0
VERTEX
8
0
10
393.000000
20
528.000000
0
VERTEX
8
0
10
381.000000
20
529.000000
0
VERTEX
8
0
10
375.000000
20
527.000000
0
VERTEX
8
0
10
372.000000
20
524.000000
0
VERTEX
8
0
10
373.800000
20
519.900000
0
VERTEX
8
0
10
374.240000
20
519.180000
0
VERTEX
8
0
10
381.000000
20
509.000000
0
VERTEX
8
0
10
377.000000
20
501.000000
0
SEQEND
0
POLYLINE
8
0
6
CONTINUOUS
66
1
62
7
10
0.0
20
0.0
30
0.000000
0
VERTEX
8
0
10
411.000000
20
472.000000
0
VERTEX
8
0
10
411.000000
20
473.000000
0
SEQEND
0
POLYLINE
8
0
6
CONTINUOUS
66
1
62
7
10
0.0
20
0.0
30
0.000000
0
VERTEX
8
0
10
473.000000
20
470.000000
0
VERTEX
8
0
10
469.000000
20
471.000000
0
SEQEND
0
POLYLINE
8
0
6
CONTINUOUS
66
1
62
7
10
0.0
20
0.0
30
0.000000
0
VERTEX
8
0
10
369.000000
20
500.000000
0
VERTEX
8
0
10
364.000000
20
508.000000
0
VERTEX
8
0
10
366.200000
20
514.900000
0
VERTEX
8
0
10
367.200000
20
516.900000
0
VERTEX
8
0
10
369.000000
20
520.000000
0
VERTEX
8
0
10
369.000000
20
522.000000
0
VERTEX
8
0
10
368.000000
20
523.000000
0
VERTEX
8
0
10
360.900000
20
525.700000
0
VERTEX
8
0
10
355.000000
20
528.000000
0
VERTEX
8
0
10
351.911765
20
527.352941
0
VERTEX
8
0
10
347.000000
20
526.000000
0
VERTEX
8
0
10
341.800000
20
520.100000
0
VERTEX
8
0
10
340.000000
20
515.000000
0
VERTEX
8
0
10
340.647059
20
509.911765
0
VERTEX
8
0
10
342.300000
20
504.100000
0
VERTEX
8
0
10
350.200000
20
489.100000
0
VERTEX
8
0
10
360.000000
20
469.000000
0
VERTEX
8
0
10
369.000000
20
471.000000
0
VERTEX
8
0
10
371.000000
20
473.000000
0
VERTEX
8
0
10
371.000000
20
476.000000
0
VERTEX
8
0
10
368.000000
20
481.000000
0
VERTEX
8
0
10
367.000000
20
481.000000
0
VERTEX
8
0
10
363.000000
20
477.000000
0
VERTEX
8
0
10
359.800000
20
480.900000
0
VERTEX
8
0
10
358.000000
20
484.000000
0
VERTEX
8
0
10
359.200000
20
487.900000
0
VERTEX
8
0
10
362.000000
20
492.000000
0
SEQEND
0
POLYLINE
8
0
6
CONTINUOUS
66
1
62
7
10
0.0
20
0.0
30
0.000000
0
VERTEX
8
0
10
416.000000
20
468.000000
0
VERTEX
8
0
10
418.558824
20
471.264706
0
VERTEX
8
0
10
429.700000
20
501.100000
0
VERTEX
8
0
10
430.300000
20
502.900000
0
VERTEX
8
0
10
436.000000
20
513.000000
0
VERTEX
8
0
10
438.000000
20
515.000000
0
VERTEX
8
0
10
448.100000
20
520.700000
0
VERTEX
8
0
10
456.000000
20
523.000000
0
VERTEX
8
0
10
457.100000
20
522.300000
0
VERTEX
8
0
10
470.000000
20
519.000000
0
VERTEX
8
0
10
472.000000
20
520.000000
0
VERTEX
8
0
10
478.230769
20
528.846154
0
VERTEX
8
0
10
482.230769
20
534.846154
0
VERTEX
8
0
10
494.800000
20
555.100000
0
VERTEX
8
0
10
497.200000
20
560.900000
0
VERTEX
8
0
10
501.000000
20
573.000000
0
VERTEX
8
0
10
501.000000
20
577.000000
0
VERTEX
8
0
10
496.800000
20
588.900000
0
VERTEX
8
0
10
496.300000
20
590.100000
0
VERTEX
8
0
10
494.000000
20
596.000000
0
VERTEX
8
0
10
492.000000
20
598.000000
0
VERTEX
8
0
10
480.900000
20
604.700000
0
VERTEX
8
0
10
479.100000
20
605.300000
0
VERTEX
8
0
10
476.000000
20
607.000000
0
VERTEX
8
0
10
459.000000
20
605.000000
0
VERTEX
8
0
10
457.000000
20
607.000000
0
VERTEX
8
0
10
455.000000
20
614.000000
0
VERTEX
8
0
10
454.000000
20
615.000000
0
VERTEX
8
0
10
449.900000
20
613.300000
0
VERTEX
8
0
10
445.000000
20
611.500000
0
VERTEX
8
0
10
440.153846
20
614.230769
0
VERTEX
8
0
10
435.100000
20
617.200000
0
VERTEX
8
0
10
430.000000
20
619.000000
0
VERTEX
8
0
10
419.000000
20
619.000000
0
VERTEX
8
0
10
417.900000
20
618.300000
0
VERTEX
8
0
10
407.195122
20
613.756098
0
VERTEX
8
0
10
402.000000
20
610.000000
0
VERTEX
8
0
10
396.800000
20
604.100000
0
VERTEX
8
0
10
394.800000
20
600.100000
0
VERTEX
8
0
10
392.405405
20
594.932432
0
VERTEX
8
0
10
390.000000
20
581.000000
0
VERTEX
8
0
10
390.000000
20
554.000000
0
VERTEX
8
0
10
392.000000
20
549.000000
0
VERTEX
8
0
10
397.088235
20
547.352941
0
VERTEX
8
0
10
401.100000
20
546.200000
0
VERTEX
8
0
10
409.000000
20
541.000000
0
VERTEX
8
0
10
411.760000
20
536.820000
0
VERTEX
8
0
10
415.000000
20
527.000000
0
VERTEX
8
0
10
415.000000
20
520.000000
0
VERTEX
8
0
10
409.300000
20
492.900000
0
VERTEX
8
0
10
405.200000
20
480.900000
0
VERTEX
8
0
10
402.000000
20
472.000000
0
VERTEX
8
0
10
402.250000
20
471.250000
0
VERTEX
8
0
10
416.000000
20
468.000000
0
SEQEND
0
POLYLINE
8
0
6
CONTINUOUS
66
1
62
7
10
0.0
20
0.0
30
0.000000
0
VERTEX
8
0
10
570.000000
20
467.000000
0
VERTEX
8
0
10
568.000000
20
467.000000
0
SEQEND
0
POLYLINE
8
0
6
CONTINUOUS
66
1
62
7
10
0.0
20
0.0
30
0.000000
0
VERTEX
8
0
10
288.000000
20
526.000000
0
VERTEX
8
0
10
301.153846
20
517.230769
0
VERTEX
8
0
10
312.000000
20
507.000000
0
VERTEX
8
0
10
320.230769
20
494.153846
0
VERTEX
8
0
10
328.800000
20
478.900000
0
VERTEX
8
0
10
331.800000
20
472.900000
0
VERTEX
8
0
10
335.000000
20
466.000000
0
VERTEX
8
0
10
337.000000
20
464.000000
0
VERTEX
8
0
10
339.000000
20
466.000000
0
VERTEX
8
0
10
337.200000
20
470.100000
0
VERTEX
8
0
10
336.800000
20
470.900000
0
VERTEX
8
0
10
320.384615
20
509.076923
0
VERTEX
8
0
10
318.000000
20
520.000000
0
VERTEX
8
0
10
319.000000
20
541.000000
0
VERTEX
8
0
10
318.000000
20
542.000000
0
VERTEX
8
0
10
313.195122
20
538.756098
0
VERTEX
8
0
10
309.000000
20
535.000000
0
VERTEX
8
0
10
307.000000
20
537.000000
0
VERTEX
8
0
10
306.000000
20
541.000000
0
VERTEX
8
0
10
306.000000
20
545.000000
0
VERTEX
8
0
10
308.000000
20
551.000000
0
VERTEX
8
0
10
312.000000
20
554.000000
0
VERTEX
8
0
10
313.000000
20
554.000000
0
VERTEX
8
0
10
315.000000
20
547.000000
0
VERTEX
8
0
10
317.000000
20
545.000000
0
VERTEX
8
0
10
320.100000
20
545.800000
0
VERTEX
8
0
10
321.000000
20
546.000000
0
VERTEX
8
0
10
325.000000
20
551.000000
0
VERTEX
8
0
10
325.000000
20
557.000000
0
VERTEX
8
0
10
323.000000
20
561.000000
0
VERTEX
8
0
10
321.100000
20
562.200000
0
VERTEX
8
0
10
315.000000
20
566.000000
0
VERTEX
8
0
10
311.900000
20
565.200000
0
VERTEX
8
0
10
311.000000
20
565.000000
0
VERTEX
8
0
10
306.756098
20
560.195122
0
VERTEX
8
0
10
303.000000
20
556.000000
0
SEQEND
0
POLYLINE
8
0
6
CONTINUOUS
66
1
62
7
10
0.0
20
0.0
30
0.000000
0
VERTEX
8
0
10
378.000000
20
464.000000
0
VERTEX
8
0
10
377.000000
20
465.000000
0
SEQEND
0
POLYLINE
8
0
6
CONTINUOUS
66
1
62
7
10
0.0
20
0.0
30
0.000000
0
VERTEX
8
0
10
407.000000
20
462.000000
0
VERTEX
8
0
10
404.100000
20
463.300000
0
VERTEX
8
0
10
390.000000
20
466.000000
0
VERTEX
8
0
10
378.000000
20
466.000000
0
VERTEX
8
0
10
377.000000
20
465.000000
0
SEQEND
0
POLYLINE
8
0
6
CONTINUOUS
66
1
62
7
10
0.0
20
0.0
30
0.000000
0
VERTEX
8
0
10
407.000000
20
461.000000
0
VERTEX
8
0
10
407.000000
20
462.000000
0
SEQEND
0
POLYLINE
8
0
6
CONTINUOUS
66
1
62
7
10
0.0
20
0.0
30
0.000000
0
VERTEX
8
0
10
686.000000
20
461.000000
0
VERTEX
8
0
10
692.100000
20
463.800000
0
VERTEX
8
0
10
696.000000
20
467.000000
0
VERTEX
8
0
10
698.000000
20
471.000000
0
VERTEX
8
0
10
698.000000
20
478.000000
0
VERTEX
8
0
10
697.300000
20
479.100000
0
VERTEX
8
0
10
696.000000
20
483.000000
0
VERTEX
8
0
10
691.000000
20
488.000000
0
VERTEX
8
0
10
687.000000
20
489.000000
0
VERTEX
8
0
10
683.000000
20
489.000000
0
VERTEX
8
0
10
677.000000
20
487.000000
0
VERTEX
8
0
10
675.769231
20
485.153846
0
VERTEX
8
0
10
671.000000
20
477.000000
0
VERTEX
8
0
10
671.000000
20
474.000000
0
VERTEX
8
0
10
677.000000
20
465.000000
0
VERTEX
8
0
10
686.000000
20
461.000000
0
SEQEND
0
POLYLINE
8
0
6
CONTINUOUS
66
1
62
7
10
0.0
20
0.0
30
0.000000
0
VERTEX
8
0
10
295.000000
20
460.000000
0
VERTEX
8
0
10
295.000000
20
461.000000
0
SEQEND
0
POLYLINE
8
0
6
CONTINUOUS
66
1
62
7
10
0.0
20
0.0
30
0.000000
0
VERTEX
8
0
10
336.000000
20
460.000000
0
VERTEX
8
0
10
339.900000
20
462.200000
0
VERTEX
8
0
10
346.000000
20
466.000000
0
VERTEX
8
0
10
343.200000
20
471.100000
0
VERTEX
8
0
10
330.700000
20
501.900000
0
VERTEX
8
0
10
327.700000
20
510.900000
0
VERTEX
8
0
10
326.000000
20
515.000000
0
VERTEX
8
0
10
326.000000
20
520.000000
0
VERTEX
8
0
10
328.200000
20
525.900000
0
VERTEX
8
0
10
328.800000
20
527.100000
0
VERTEX
8
0
10
332.000000
20
534.000000
0
VERTEX
8
0
10
341.000000
20
542.000000
0
VERTEX
8
0
10
341.000000
20
547.000000
0
VERTEX
8
0
10
331.647059
20
585.911765
0
VERTEX
8
0
10
330.300000
20
589.100000
0
VERTEX
8
0
10
326.000000
20
597.000000
0
VERTEX
8
0
10
318.820000
20
602.760000
0
VERTEX
8
0
10
312.100000
20
606.300000
0
VERTEX
8
0
10
305.000000
20
608.000000
0
VERTEX
8
0
10
300.000000
20
608.000000
0
VERTEX
8
0
10
296.088235
20
606.647059
0
VERTEX
8
0
10
292.000000
20
605.000000
0
VERTEX
8
0
10
281.800000
20
593.100000
0
VERTEX
8
0
10
279.000000
20
589.000000
0
VERTEX
8
0
10
272.100000
20
592.200000
0
VERTEX
8
0
10
265.000000
20
594.000000
0
VERTEX
8
0
10
264.000000
20
593.000000
0
VERTEX
8
0
10
264.000000
20
588.000000
0
VERTEX
8
0
10
262.000000
20
586.000000
0
VERTEX
8
0
10
253.044554
20
585.554455
0
VERTEX
8
0
10
240.153846
20
581.769231
0
VERTEX
8
0
10
237.846154
20
580.230769
0
VERTEX
8
0
10
233.000000
20
576.000000
0
VERTEX
8
0
10
229.230769
20
569.846154
0
VERTEX
8
0
10
227.230769
20
566.846154
0
VERTEX
8
0
10
225.000000
20
560.000000
0
VERTEX
8
0
10
225.000000
20
555.000000
0
VERTEX
8
0
10
227.300000
20
548.100000
0
VERTEX
8
0
10
227.800000
20
546.900000
0
VERTEX
8
0
10
238.769231
20
528.846154
0
VERTEX
8
0
10
255.000000
20
510.000000
0
VERTEX
8
0
10
265.000000
20
500.000000
0
VERTEX
8
0
10
268.900000
20
501.200000
0
VERTEX
8
0
10
280.900000
20
507.200000
0
VERTEX
8
0
10
285.000000
20
509.000000
0
VERTEX
8
0
10
290.000000
20
509.000000
0
VERTEX
8
0
10
293.911765
20
507.647059
0
VERTEX
8
0
10
300.846154
20
504.769231
0
VERTEX
8
0
10
305.100000
20
502.200000
0
VERTEX
8
0
10
311.000000
20
497.000000
0
VERTEX
8
0
10
316.752941
20
489.788235
0
VERTEX
8
0
10
331.000000
20
464.000000
0
VERTEX
8
0
10
335.000000
20
460.000000
0
VERTEX
8
0
10
336.000000
20
460.000000
0
SEQEND
0
POLYLINE
8
0
6
CONTINUOUS
66
1
62
7
10
0.0
20
0.0
30
0.000000
0
VERTEX
8
0
10
196.000000
20
457.000000
0
VERTEX
8
0
10
193.800000
20
460.900000
0
VERTEX
8
0
10
185.352941
20
475.088235
0
VERTEX
8
0
10
184.000000
20
481.000000
0
SEQEND
0
POLYLINE
8
0
6
CONTINUOUS
66
1
62
7
10
0.0
20
0.0
30
0.000000
0
VERTEX
8
0
10
196.000000
20
456.000000
0
VERTEX
8
0
10
196.000000
20
457.000000
0
SEQEND
0
POLYLINE
8
0
6
CONTINUOUS
66
1
62
7
10
0.0
20
0.0
30
0.000000
0
VERTEX
8
0
10
289.000000
20
455.000000
0
VERTEX
8
0
10
287.000000
20
455.000000
0
SEQEND
0
POLYLINE
8
0
6
CONTINUOUS
66
1
62
7
10
0.0
20
0.0
30
0.000000
0
VERTEX
8
0
10
542.000000
20
454.000000
0
VERTEX
8
0
10
541.000000
20
454.000000
0
SEQEND
0
POLYLINE
8
0
6
CONTINUOUS
66
1
62
7
10
0.0
20
0.0
30
0.000000
0
VERTEX
8
0
10
76.000000
20
453.000000
0
VERTEX
8
0
10
83.000000
20
456.000000
0
VERTEX
8
0
10
85.200000
20
458.900000
0
VERTEX
8
0
10
87.000000
20
463.000000
0
VERTEX
8
0
10
87.000000
20
472.000000
0
VERTEX
8
0
10
85.000000
20
476.000000
0
VERTEX
8
0
10
83.100000
20
477.200000
0
VERTEX
8
0
10
80.000000
20
479.000000
0
VERTEX
8
0
10
73.000000
20
479.000000
0
VERTEX
8
0
10
68.900000
20
477.200000
0
VERTEX
8
0
10
63.000000
20
472.000000
0
VERTEX
8
0
10
62.000000
20
462.000000
0
VERTEX
8
0
10
64.000000
20
457.000000
0
VERTEX
8
0
10
65.000000
20
456.000000
0
VERTEX
8
0
10
72.076923
20
453.384615
0
VERTEX
8
0
10
76.000000
20
453.000000
0
SEQEND
0
POLYLINE
8
0
6
CONTINUOUS
66
1
62
7
10
0.0
20
0.0
30
0.000000
0
VERTEX
8
0
10
341.000000
20
453.000000
0
VERTEX
8
0
10
340.000000
20
454.000000
0
SEQEND
0
POLYLINE
8
0
6
CONTINUOUS
66
1
62
7
10
0.0
20
0.0
30
0.000000
0
VERTEX
8
0
10
341.000000
20
453.000000
0
VERTEX
8
0
10
342.000000
20
454.000000
0
VERTEX
8
0
10
341.000000
20
455.000000
0
VERTEX
8
0
10
340.000000
20
454.000000
0
SEQEND
0
POLYLINE
8
0
6
CONTINUOUS
66
1
62
7
10
0.0
20
0.0
30
0.000000
0
VERTEX
8
0
10
376.000000
20
449.000000
0
VERTEX
8
0
10
373.000000
20
451.000000
0
VERTEX
8
0
10
371.800000
20
452.900000
0
VERTEX
8
0
10
371.000000
20
454.000000
0
VERTEX
8
0
10
372.000000
20
460.000000
0
VERTEX
8
0
10
378.000000
20
464.000000
0
SEQEND
0
POLYLINE
8
0
6
CONTINUOUS
66
1
62
7
10
0.0
20
0.0
30
0.000000
0
VERTEX
8
0
10
377.000000
20
449.000000
0
VERTEX
8
0
10
376.000000
20
449.000000
0
SEQEND
0
POLYLINE
8
0
6
CONTINUOUS
66
1
62
7
10
0.0
20
0.0
30
0.000000
0
VERTEX
8
0
10
191.000000
20
448.000000
0
VERTEX
8
0
10
190.800000
20
448.900000
0
VERTEX
8
0
10
185.769231
20
456.846154
0
VERTEX
8
0
10
184.230769
20
459.153846
0
VERTEX
8
0
10
182.405405
20
464.067568
0
VERTEX
8
0
10
181.000000
20
470.000000
0
VERTEX
8
0
10
182.000000
20
480.000000
0
VERTEX
8
0
10
184.000000
20
481.000000
0
SEQEND
0
POLYLINE
8
0
6
CONTINUOUS
66
1
62
7
10
0.0
20
0.0
30
0.000000
0
VERTEX
8
0
10
190.000000
20
447.000000
0
VERTEX
8
0
10
191.000000
20
448.000000
0
SEQEND
0
POLYLINE
8
0
6
CONTINUOUS
66
1
62
7
10
0.0
20
0.0
30
0.000000
0
VERTEX
8
0
10
192.000000
20
447.000000
0
VERTEX
8
0
10
191.000000
20
448.000000
0
SEQEND
0
POLYLINE
8
0
6
CONTINUOUS
66
1
62
7
10
0.0
20
0.0
30
0.000000
0
VERTEX
8
0
10
378.000000
20
464.000000
0
VERTEX
8
0
10
380.000000
20
464.000000
0
VERTEX
8
0
10
383.200000
20
459.100000
0
VERTEX
8
0
10
383.800000
20
457.900000
0
VERTEX
8
0
10
385.000000
20
455.000000
0
VERTEX
8
0
10
383.230769
20
452.846154
0
VERTEX
8
0
10
381.000000
20
449.000000
0
VERTEX
8
0
10
382.000000
20
448.000000
0
VERTEX
8
0
10
390.955446
20
447.554455
0
VERTEX
8
0
10
400.750000
20
447.250000
0
VERTEX
8
0
10
401.000000
20
448.000000
0
VERTEX
8
0
10
399.000000
20
452.000000
0
VERTEX
8
0
10
401.000000
20
457.000000
0
VERTEX
8
0
10
407.000000
20
461.000000
0
SEQEND
0
POLYLINE
8
0
6
CONTINUOUS
66
1
62
7
10
0.0
20
0.0
30
0.000000
0
VERTEX
8
0
10
192.000000
20
446.000000
0
VERTEX
8
0
10
190.000000
20
447.000000
0
SEQEND
0
POLYLINE
8
0
6
CONTINUOUS
66
1
62
7
10
0.0
20
0.0
30
0.000000
0
VERTEX
8
0
10
192.000000
20
446.000000
0
VERTEX
8
0
10
192.000000
20
447.000000
0
SEQEND
0
POLYLINE
8
0
6
CONTINUOUS
66
1
62
7
10
0.0
20
0.0
30
0.000000
0
VERTEX
8
0
10
193.000000
20
445.000000
0
VERTEX
8
0
10
192.000000
20
446.000000
0
SEQEND
0
POLYLINE
8
0
6
CONTINUOUS
66
1
62
7
10
0.0
20
0.0
30
0.000000
0
VERTEX
8
0
10
295.000000
20
461.000000
0
VERTEX
8
0
10
295.647059
20
462.088235
0
VERTEX
8
0
10
298.000000
20
475.000000
0
VERTEX
8
0
10
300.000000
20
477.000000
0
VERTEX
8
0
10
303.000000
20
474.000000
0
VERTEX
8
0
10
303.569231
20
469.946154
0
VERTEX
8
0
10
304.250000
20
462.250000
0
VERTEX
8
0
10
318.000000
20
461.000000
0
VERTEX
8
0
10
319.000000
20
460.000000
0
VERTEX
8
0
10
319.000000
20
457.000000
0
VERTEX
8
0
10
317.000000
20
455.000000
0
VERTEX
8
0
10
311.000000
20
454.000000
0
VERTEX
8
0
10
309.800000
20
452.100000
0
VERTEX
8
0
10
309.800000
20
449.900000
0
VERTEX
8
0
10
311.000000
20
447.000000
0
VERTEX
8
0
10
315.000000
20
443.000000
0
VERTEX
8
0
10
319.000000
20
446.000000
0
VERTEX
8
0
10
323.230769
20
450.846154
0
VERTEX
8
0
10
324.400000
20
453.200000
0
VERTEX
8
0
10
323.800000
20
454.900000
0
VERTEX
8
0
10
313.760000
20
470.820000
0
VERTEX
8
0
10
303.000000
20
484.000000
0
VERTEX
8
0
10
302.153846
20
484.230769
0
VERTEX
8
0
10
296.000000
20
488.000000
0
VERTEX
8
0
10
291.000000
20
488.000000
0
VERTEX
8
0
10
281.000000
20
485.000000
0
VERTEX
8
0
10
279.769231
20
483.153846
0
VERTEX
8
0
10
277.000000
20
479.000000
0
VERTEX
8
0
10
277.647059
20
474.911765
0
VERTEX
8
0
10
278.000000
20
472.000000
0
VERTEX
8
0
10
280.000000
20
470.000000
0
VERTEX
8
0
10
288.100000
20
468.300000
0
VERTEX
8
0
10
290.000000
20
468.000000
0
VERTEX
8
0
10
293.230769
20
463.153846
0
VERTEX
8
0
10
295.000000
20
461.000000
0
SEQEND
0
POLYLINE
8
0
6
CONTINUOUS
66
1
62
7
10
0.0
20
0.0
30
0.000000
0
VERTEX
8
0
10
341.000000
20
453.000000
0
VERTEX
8
0
10
339.000000
20
445.000000
0
VERTEX
8
0
10
344.000000
20
441.000000
0
VERTEX
8
0
10
350.000000
20
441.000000
0
VERTEX
8
0
10
353.000000
20
444.000000
0
VERTEX
8
0
10
354.000000
20
448.000000
0
VERTEX
8
0
10
354.000000
20
450.000000
0
VERTEX
8
0
10
347.000000
20
457.000000
0
VERTEX
8
0
10
348.900000
20
458.200000
0
VERTEX
8
0
10
350.900000
20
459.200000
0
VERTEX
8
0
10
364.067568
20
463.594595
0
VERTEX
8
0
10
377.000000
20
465.000000
0
SEQEND
0
POLYLINE
8
0
6
CONTINUOUS
66
1
62
7
10
0.0
20
0.0
30
0.000000
0
VERTEX
8
0
10
473.000000
20
470.000000
0
VERTEX
8
0
10
474.000000
20
470.000000
0
VERTEX
8
0
10
482.000000
20
469.000000
0
VERTEX
8
0
10
485.000000
20
466.000000
0
VERTEX
8
0
10
483.000000
20
464.000000
0
VERTEX
8
0
10
470.000000
20
462.000000
0
VERTEX
8
0
10
469.000000
20
460.000000
0
VERTEX
8
0
10
471.300000
20
455.100000
0
VERTEX
8
0
10
472.000000
20
451.000000
0
VERTEX
8
0
10
470.000000
20
447.000000
0
VERTEX
8
0
10
469.153846
20
446.769231
0
VERTEX
8
0
10
467.000000
20
445.000000
0
VERTEX
8
0
10
460.000000
20
446.000000
0
VERTEX
8
0
10
459.000000
20
447.000000
0
VERTEX
8
0
10
461.200000
20
450.900000
0
VERTEX
8
0
10
462.000000
20
452.000000
0
VERTEX
8
0
10
461.000000
20
454.000000
0
VERTEX
8
0
10
457.900000
20
453.200000
0
VERTEX
8
0
10
450.000000
20
447.000000
0
VERTEX
8
0
10
455.243902
20
440.195122
0
VERTEX
8
0
10
460.000000
20
434.000000
0
VERTEX
8
0
10
470.795082
20
441.245902
0
VERTEX
8
0
10
476.204918
20
445.754098
0
VERTEX
8
0
10
490.000000
20
459.000000
0
VERTEX
8
0
10
491.700000
20
463.100000
0
VERTEX
8
0
10
493.300000
20
467.900000
0
VERTEX
8
0
10
494.000000
20
469.000000
0
VERTEX
8
0
10
494.000000
20
478.000000
0
VERTEX
8
0
10
490.000000
20
487.000000
0
VERTEX
8
0
10
489.000000
20
488.000000
0
VERTEX
8
0
10
480.900000
20
490.700000
0
VERTEX
8
0
10
477.900000
20
491.800000
0
VERTEX
8
0
10
469.795082
20
497.754098
0
VERTEX
8
0
10
469.100000
20
498.200000
0
VERTEX
8
0
10
463.000000
20
501.000000
0
VERTEX
8
0
10
459.000000
20
501.000000
0
VERTEX
8
0
10
449.000000
20
495.000000
0
VERTEX
8
0
10
444.000000
20
490.000000
0
VERTEX
8
0
10
440.230769
20
483.846154
0
VERTEX
8
0
10
433.800000
20
473.100000
0
VERTEX
8
0
10
431.000000
20
468.000000
0
VERTEX
8
0
10
431.000000
20
461.000000
0
VERTEX
8
0
10
435.000000
20
457.000000
0
VERTEX
8
0
10
443.000000
20
452.000000
0
VERTEX
8
0
10
445.000000
20
452.000000
0
VERTEX
8
0
10
447.200000
20
455.900000
0
VERTEX
8
0
10
448.647059
20
459.088235
0
VERTEX
8
0
10
450.000000
20
464.000000
0
VERTEX
8
0
10
448.000000
20
467.000000
0
VERTEX
8
0
10
442.000000
20
463.000000
0
VERTEX
8
0
10
438.000000
20
465.000000
0
VERTEX
8
0
10
437.000000
20
468.000000
0
VERTEX
8
0
10
439.000000
20
472.000000
0
VERTEX
8
0
10
444.000000
20
475.000000
0
VERTEX
8
0
10
446.000000
20
475.000000
0
VERTEX
8
0
10
456.000000
20
469.000000
0
VERTEX
8
0
10
456.750000
20
469.250000
0
VERTEX
8
0
10
456.200000
20
477.100000
0
VERTEX
8
0
10
451.000000
20
489.000000
0
VERTEX
8
0
10
453.000000
20
490.000000
0
VERTEX
8
0
10
462.420000
20
482.560000
0
VERTEX
8
0
10
468.900000
20
486.200000
0
VERTEX
8
0
10
471.900000
20
487.300000
0
VERTEX
8
0
10
473.000000
20
488.000000
0
VERTEX
8
0
10
477.000000
20
488.000000
0
VERTEX
8
0
10
478.000000
20
487.000000
0
VERTEX
8
0
10
478.000000
20
480.000000
0
VERTEX
8
0
10
475.000000
20
472.000000
0
VERTEX
8
0
10
474.000000
20
472.000000
0
VERTEX
8
0
10
473.000000
20
470.000000
0
SEQEND
0
POLYLINE
8
0
6
CONTINUOUS
66
1
62
7
10
0.0
20
0.0
30
0.000000
0
VERTEX
8
0
10
542.000000
20
454.000000
0
VERTEX
8
0
10
544.000000
20
456.000000
0
VERTEX
8
0
10
549.000000
20
456.000000
0
VERTEX
8
0
10
554.820000
20
453.760000
0
VERTEX
8
0
10
559.000000
20
451.000000
0
VERTEX
8
0
10
561.200000
20
447.100000
0
VERTEX
8
0
10
562.000000
20
445.000000
0
VERTEX
8
0
10
558.100000
20
442.800000
0
VERTEX
8
0
10
556.000000
20
442.000000
0
VERTEX
8
0
10
553.000000
20
438.000000
0
VERTEX
8
0
10
553.000000
20
435.000000
0
VERTEX
8
0
10
554.200000
20
433.100000
0
VERTEX
8
0
10
556.000000
20
430.000000
0
VERTEX
8
0
10
560.000000
20
428.000000
0
VERTEX
8
0
10
563.088235
20
428.647059
0
VERTEX
8
0
10
568.000000
20
430.000000
0
VERTEX
8
0
10
572.558824
20
436.264706
0
VERTEX
8
0
10
573.300000
20
437.900000
0
VERTEX
8
0
10
574.000000
20
439.000000
0
VERTEX
8
0
10
574.000000
20
446.000000
0
VERTEX
8
0
10
569.800000
20
454.900000
0
VERTEX
8
0
10
568.200000
20
458.100000
0
VERTEX
8
0
10
567.000000
20
461.000000
0
VERTEX
8
0
10
568.000000
20
462.000000
0
VERTEX
8
0
10
570.100000
20
461.200000
0
VERTEX
8
0
10
573.000000
20
460.000000
0
VERTEX
8
0
10
585.000000
20
447.000000
0
VERTEX
8
0
10
593.053846
20
444.430769
0
VERTEX
8
0
10
601.000000
20
443.000000
0
VERTEX
8
0
10
604.000000
20
443.000000
0
VERTEX
8
0
10
605.000000
20
444.000000
0
VERTEX
8
0
10
604.000000
20
446.000000
0
VERTEX
8
0
10
577.911765
20
464.647059
0
VERTEX
8
0
10
570.000000
20
467.000000
0
SEQEND
0
POLYLINE
8
0
6
CONTINUOUS
66
1
62
7
10
0.0
20
0.0
30
0.000000
0
VERTEX
8
0
10
287.000000
20
455.000000
0
VERTEX
8
0
10
282.000000
20
457.000000
0
VERTEX
8
0
10
279.000000
20
460.000000
0
VERTEX
8
0
10
278.200000
20
463.100000
0
VERTEX
8
0
10
276.000000
20
466.000000
0
VERTEX
8
0
10
270.000000
20
466.000000
0
VERTEX
8
0
10
264.100000
20
463.800000
0
VERTEX
8
0
10
261.000000
20
462.000000
0
VERTEX
8
0
10
260.000000
20
453.000000
0
VERTEX
8
0
10
261.800000
20
447.900000
0
VERTEX
8
0
10
264.000000
20
445.000000
0
VERTEX
8
0
10
290.100000
20
430.200000
0
VERTEX
8
0
10
299.846154
20
424.769231
0
VERTEX
8
0
10
302.000000
20
423.000000
0
VERTEX
8
0
10
307.230769
20
431.846154
0
VERTEX
8
0
10
311.000000
20
437.000000
0
VERTEX
8
0
10
309.153846
20
438.230769
0
VERTEX
8
0
10
302.000000
20
442.500000
0
VERTEX
8
0
10
299.000000
20
441.000000
0
VERTEX
8
0
10
298.000000
20
435.000000
0
VERTEX
8
0
10
296.000000
20
433.000000
0
VERTEX
8
0
10
292.000000
20
433.000000
0
VERTEX
8
0
10
288.800000
20
436.900000
0
VERTEX
8
0
10
288.000000
20
438.000000
0
VERTEX
8
0
10
288.700000
20
441.100000
0
VERTEX
8
0
10
289.300000
20
442.900000
0
VERTEX
8
0
10
290.000000
20
444.000000
0
VERTEX
8
0
10
289.000000
20
445.000000
0
VERTEX
8
0
10
272.000000
20
445.000000
0
VERTEX
8
0
10
271.000000
20
446.000000
0
VERTEX
8
0
10
274.000000
20
449.000000
0
VERTEX
8
0
10
287.000000
20
455.000000
0
SEQEND
0
POLYLINE
8
0
6
CONTINUOUS
66
1
62
7
10
0.0
20
0.0
30
0.000000
0
VERTEX
8
0
10
570.000000
20
467.000000
0
VERTEX
8
0
10
570.000000
20
468.000000
0
VERTEX
8
0
10
573.027586
20
469.531034
0
VERTEX
8
0
10
589.000000
20
470.000000
0
VERTEX
8
0
10
591.200000
20
472.900000
0
VERTEX
8
0
10
593.200000
20
476.900000
0
VERTEX
8
0
10
595.000000
20
481.000000
0
VERTEX
8
0
10
595.000000
20
484.000000
0
VERTEX
8
0
10
589.000000
20
486.000000
0
VERTEX
8
0
10
583.000000
20
486.000000
0
VERTEX
8
0
10
581.000000
20
485.000000
0
VERTEX
8
0
10
578.000000
20
482.000000
0
VERTEX
8
0
10
577.200000
20
479.900000
0
VERTEX
8
0
10
577.000000
20
479.000000
0
VERTEX
8
0
10
573.153846
20
476.769231
0
VERTEX
8
0
10
570.846154
20
475.230769
0
VERTEX
8
0
10
567.000000
20
473.000000
0
VERTEX
8
0
10
566.000000
20
474.000000
0
VERTEX
8
0
10
568.300000
20
477.900000
0
VERTEX
8
0
10
570.000000
20
487.000000
0
VERTEX
8
0
10
567.700000
20
492.900000
0
VERTEX
8
0
10
562.647059
20
508.911765
0
VERTEX
8
0
10
561.000000
20
512.000000
0
VERTEX
8
0
10
560.000000
20
511.000000
0
VERTEX
8
0
10
559.420000
20
505.940000
0
VERTEX
8
0
10
558.580000
20
500.060000
0
VERTEX
8
0
10
558.000000
20
493.000000
0
VERTEX
8
0
10
560.000000
20
484.000000
0
VERTEX
8
0
10
560.000000
20
480.000000
0
VERTEX
8
0
10
557.800000
20
476.100000
0
VERTEX
8
0
10
555.000000
20
472.000000
0
VERTEX
8
0
10
554.000000
20
473.000000
0
VERTEX
8
0
10
555.000000
20
475.000000
0
VERTEX
8
0
10
555.000000
20
482.000000
0
VERTEX
8
0
10
553.700000
20
484.900000
0
VERTEX
8
0
10
548.000000
20
494.000000
0
VERTEX
8
0
10
547.100000
20
494.200000
0
VERTEX
8
0
10
542.000000
20
496.000000
0
VERTEX
8
0
10
535.000000
20
496.000000
0
VERTEX
8
0
10
533.153846
20
494.769231
0
VERTEX
8
0
10
529.000000
20
492.000000
0
VERTEX
8
0
10
528.800000
20
491.100000
0
VERTEX
8
0
10
528.000000
20
490.000000
0
VERTEX
8
0
10
528.000000
20
484.000000
0
VERTEX
8
0
10
529.000000
20
482.000000
0
VERTEX
8
0
10
532.000000
20
479.000000
0
VERTEX
8
0
10
535.800000
20
477.600000
0
VERTEX
8
0
10
541.900000
20
481.200000
0
VERTEX
8
0
10
543.000000
20
482.000000
0
VERTEX
8
0
10
545.000000
20
478.000000
0
VERTEX
8
0
10
544.384615
20
470.923077
0
VERTEX
8
0
10
544.000000
20
467.000000
0
VERTEX
8
0
10
539.000000
20
462.000000
0
VERTEX
8
0
10
537.000000
20
464.000000
0
VERTEX
8
0
10
536.000000
20
471.000000
0
VERTEX
8
0
10
535.000000
20
472.000000
0
VERTEX
8
0
10
526.000000
20
460.000000
0
VERTEX
8
0
10
523.000000
20
457.000000
0
VERTEX
8
0
10
501.100000
20
442.800000
0
VERTEX
8
0
10
477.000000
20
429.000000
0
VERTEX
8
0
10
472.000000
20
423.000000
0
VERTEX
8
0
10
473.000000
20
422.000000
0
VERTEX
8
0
10
498.804878
20
432.243902
0
VERTEX
8
0
10
503.195122
20
435.756098
0
VERTEX
8
0
10
512.100000
20
439.700000
0
VERTEX
8
0
10
513.900000
20
440.300000
0
VERTEX
8
0
10
524.048780
20
443.560976
0
VERTEX
8
0
10
531.951220
20
444.439024
0
VERTEX
8
0
10
548.750000
20
444.250000
0
VERTEX
8
0
10
548.800000
20
445.900000
0
VERTEX
8
0
10
545.000000
20
452.000000
0
VERTEX
8
0
10
542.000000
20
454.000000
0
SEQEND
0
POLYLINE
8
0
6
CONTINUOUS
66
1
62
7
10
0.0
20
0.0
30
0.000000
0
VERTEX
8
0
10
566.000000
20
415.000000
0
VERTEX
8
0
10
586.076923
20
418.615385
0
VERTEX
8
0
10
602.900000
20
423.200000
0
VERTEX
8
0
10
614.000000
20
430.000000
0
VERTEX
8
0
10
623.000000
20
440.000000
0
VERTEX
8
0
10
623.000000
20
453.000000
0
VERTEX
8
0
10
615.000000
20
465.000000
0
VERTEX
8
0
10
613.000000
20
467.000000
0
VERTEX
8
0
10
605.900000
20
469.800000
0
VERTEX
8
0
10
602.000000
20
471.000000
0
VERTEX
8
0
10
599.000000
20
475.000000
0
VERTEX
8
0
10
600.352941
20
481.911765
0
VERTEX
8
0
10
602.000000
20
485.000000
0
VERTEX
8
0
10
600.000000
20
487.000000
0
VERTEX
8
0
10
595.900000
20
487.800000
0
VERTEX
8
0
10
595.000000
20
488.000000
0
VERTEX
8
0
10
592.000000
20
491.000000
0
VERTEX
8
0
10
589.615385
20
503.923077
0
VERTEX
8
0
10
587.760000
20
508.820000
0
VERTEX
8
0
10
582.000000
20
517.000000
0
VERTEX
8
0
10
578.195122
20
520.243902
0
VERTEX
8
0
10
572.000000
20
525.000000
0
VERTEX
8
0
10
566.000000
20
525.000000
0
VERTEX
8
0
10
554.100000
20
521.800000
0
VERTEX
8
0
10
544.846154
20
516.230769
0
VERTEX
8
0
10
530.220690
20
505.751724
0
VERTEX
8
0
10
512.000000
20
491.000000
0
VERTEX
8
0
10
515.200000
20
482.100000
0
VERTEX
8
0
10
516.000000
20
481.000000
0
VERTEX
8
0
10
516.000000
20
472.000000
0
VERTEX
8
0
10
514.647059
20
468.088235
0
VERTEX
8
0
10
513.647059
20
464.088235
0
VERTEX
8
0
10
510.760000
20
459.180000
0
VERTEX
8
0
10
508.240000
20
455.820000
0
VERTEX
8
0
10
504.204918
20
451.754098
0
VERTEX
8
0
10
498.795082
20
447.245902
0
VERTEX
8
0
10
476.100000
20
432.800000
0
VERTEX
8
0
10
474.153846
20
431.769231
0
VERTEX
8
0
10
468.000000
20
427.000000
0
VERTEX
8
0
10
467.000000
20
425.000000
0
VERTEX
8
0
10
467.800000
20
422.900000
0
VERTEX
8
0
10
470.000000
20
417.000000
0
VERTEX
8
0
10
472.000000
20
415.000000
0
VERTEX
8
0
10
491.900000
20
423.300000
0
VERTEX
8
0
10
493.100000
20
423.800000
0
VERTEX
8
0
10
525.000000
20
434.000000
0
VERTEX
8
0
10
532.000000
20
434.000000
0
VERTEX
8
0
10
538.940000
20
432.580000
0
VERTEX
8
0
10
547.000000
20
429.000000
0
VERTEX
8
0
10
550.200000
20
423.100000
0
VERTEX
8
0
10
550.800000
20
421.900000
0
VERTEX
8
0
10
555.000000
20
415.000000
0
VERTEX
8
0
10
566.000000
20
415.000000
0
SEQEND
0
POLYLINE
8
0
6
CONTINUOUS
66
1
62
7
10
0.0
20
0.0
30
0.000000
0
VERTEX
8
0
10
701.000000
20
415.000000
0
VERTEX
8
0
10
705.100000
20
416.800000
0
VERTEX
8
0
10
710.000000
20
420.000000
0
VERTEX
8
0
10
712.300000
20
424.900000
0
VERTEX
8
0
10
713.000000
20
426.000000
0
VERTEX
8
0
10
712.000000
20
435.000000
0
VERTEX
8
0
10
706.000000
20
441.000000
0
VERTEX
8
0
10
703.900000
20
441.800000
0
VERTEX
8
0
10
703.100000
20
442.200000
0
VERTEX
8
0
10
702.000000
20
443.000000
0
VERTEX
8
0
10
695.911765
20
442.352941
0
VERTEX
8
0
10
693.000000
20
442.000000
0
VERTEX
8
0
10
690.000000
20
439.000000
0
VERTEX
8
0
10
685.000000
20
431.000000
0
VERTEX
8
0
10
685.000000
20
429.000000
0
VERTEX
8
0
10
688.230769
20
423.153846
0
VERTEX
8
0
10
693.000000
20
417.000000
0
VERTEX
8
0
10
695.100000
20
416.300000
0
VERTEX
8
0
10
701.000000
20
415.000000
0
SEQEND
0
POLYLINE
8
0
6
CONTINUOUS
66
1
62
7
10
0.0
20
0.0
30
0.000000
0
VERTEX
8
0
10
67.000000
20
409.000000
0
VERTEX
8
0
10
68.088235
20
409.647059
0
VERTEX
8
0
10
71.000000
20
410.000000
0
VERTEX
8
0
10
76.000000
20
415.000000
0
VERTEX
8
0
10
76.700000
20
417.100000
0
VERTEX
8
0
10
77.300000
20
418.900000
0
VERTEX
8
0
10
78.000000
20
420.000000
0
VERTEX
8
0
10
78.000000
20
426.000000
0
VERTEX
8
0
10
76.800000
20
427.900000
0
VERTEX
8
0
10
76.000000
20
430.000000
0
VERTEX
8
0
10
71.100000
20
433.200000
0
VERTEX
8
0
10
70.000000
20
434.000000
0
VERTEX
8
0
10
62.000000
20
434.000000
0
VERTEX
8
0
10
60.100000
20
432.800000
0
VERTEX
8
0
10
56.900000
20
431.200000
0
VERTEX
8
0
10
53.000000
20
428.000000
0
VERTEX
8
0
10
51.800000
20
425.100000
0
VERTEX
8
0
10
51.000000
20
424.000000
0
VERTEX
8
0
10
51.000000
20
420.000000
0
VERTEX
8
0
10
51.800000
20
418.900000
0
VERTEX
8
0
10
54.000000
20
414.000000
0
VERTEX
8
0
10
59.000000
20
409.000000
0
VERTEX
8
0
10
67.000000
20
409.000000
0
SEQEND
0
POLYLINE
8
0
6
CONTINUOUS
66
1
62
7
10
0.0
20
0.0
30
0.000000
0
VERTEX
8
0
10
400.000000
20
409.000000
0
VERTEX
8
0
10
406.000000
20
414.000000
0
VERTEX
8
0
10
407.600000
20
417.200000
0
VERTEX
8
0
10
409.000000
20
420.000000
0
VERTEX
8
0
10
408.352941
20
424.088235
0
VERTEX
8
0
10
407.482759
20
426.793103
0
VERTEX
8
0
10
405.000000
20
431.000000
0
VERTEX
8
0
10
402.911765
20
430.352941
0
VERTEX
8
0
10
393.000000
20
427.000000
0
VERTEX
8
0
10
389.000000
20
421.000000
0
VERTEX
8
0
10
391.000000
20
413.000000
0
VERTEX
8
0
10
393.000000
20
411.000000
0
VERTEX
8
0
10
398.100000
20
409.300000
0
VERTEX
8
0
10
400.000000
20
409.000000
0
SEQEND
0
POLYLINE
8
0
6
CONTINUOUS
66
1
62
7
10
0.0
20
0.0
30
0.000000
0
VERTEX
8
0
10
190.000000
20
447.000000
0
VERTEX
8
0
10
180.000000
20
454.000000
0
VERTEX
8
0
10
172.000000
20
454.000000
0
VERTEX
8
0
10
170.923077
20
453.384615
0
VERTEX
8
0
10
162.000000
20
451.000000
0
VERTEX
8
0
10
160.000000
20
449.000000
0
VERTEX
8
0
10
168.820000
20
440.760000
0
VERTEX
8
0
10
172.180000
20
438.240000
0
VERTEX
8
0
10
176.000000
20
436.000000
0
VERTEX
8
0
10
177.088235
20
436.647059
0
VERTEX
8
0
10
186.000000
20
439.000000
0
VERTEX
8
0
10
187.000000
20
438.000000
0
VERTEX
8
0
10
183.000000
20
434.000000
0
VERTEX
8
0
10
180.900000
20
433.200000
0
VERTEX
8
0
10
180.000000
20
433.000000
0
VERTEX
8
0
10
177.800000
20
430.100000
0
VERTEX
8
0
10
168.300000
20
413.900000
0
VERTEX
8
0
10
166.250000
20
406.250000
0
VERTEX
8
0
10
167.000000
20
406.000000
0
VERTEX
8
0
10
172.100000
20
407.800000
0
VERTEX
8
0
10
173.000000
20
408.000000
0
VERTEX
8
0
10
177.200000
20
412.900000
0
VERTEX
8
0
10
179.615385
20
420.076923
0
VERTEX
8
0
10
181.000000
20
427.000000
0
VERTEX
8
0
10
182.000000
20
428.000000
0
VERTEX
8
0
10
185.000000
20
429.000000
0
VERTEX
8
0
10
186.000000
20
428.000000
0
VERTEX
8
0
10
185.000000
20
420.000000
0
VERTEX
8
0
10
185.615385
20
418.923077
0
VERTEX
8
0
10
189.000000
20
411.000000
0
VERTEX
8
0
10
193.846154
20
406.769231
0
VERTEX
8
0
10
199.000000
20
404.000000
0
VERTEX
8
0
10
203.000000
20
404.000000
0
VERTEX
8
0
10
205.300000
20
408.900000
0
VERTEX
8
0
10
206.000000
20
410.000000
0
VERTEX
8
0
10
205.300000
20
414.100000
0
VERTEX
8
0
10
205.000000
20
416.000000
0
VERTEX
8
0
10
202.000000
20
419.000000
0
VERTEX
8
0
10
199.932432
20
419.594595
0
VERTEX
8
0
10
195.000000
20
420.000000
0
VERTEX
8
0
10
194.000000
20
421.000000
0
VERTEX
8
0
10
193.000000
20
424.000000
0
VERTEX
8
0
10
196.000000
20
428.000000
0
VERTEX
8
0
10
207.000000
20
431.000000
0
VERTEX
8
0
10
212.000000
20
431.000000
0
VERTEX
8
0
10
213.000000
20
430.000000
0
VERTEX
8
0
10
213.000000
20
427.000000
0
VERTEX
8
0
10
208.800000
20
418.100000
0
VERTEX
8
0
10
208.000000
20
417.000000
0
VERTEX
8
0
10
210.000000
20
415.000000
0
VERTEX
8
0
10
218.088235
20
419.647059
0
VERTEX
8
0
10
220.911765
20
420.352941
0
VERTEX
8
0
10
222.000000
20
421.000000
0
VERTEX
8
0
10
236.000000
20
421.000000
0
VERTEX
8
0
10
248.911765
20
417.647059
0
VERTEX
8
0
10
252.911765
20
416.647059
0
VERTEX
8
0
10
285.000000
20
407.000000
0
VERTEX
8
0
10
291.000000
20
407.000000
0
VERTEX
8
0
10
292.000000
20
408.000000
0
VERTEX
8
0
10
290.000000
20
410.000000
0
VERTEX
8
0
10
269.900000
20
417.700000
0
VERTEX
8
0
10
239.900000
20
429.800000
0
VERTEX
8
0
10
232.000000
20
435.000000
0
VERTEX
8
0
10
228.000000
20
439.000000
0
VERTEX
8
0
10
223.000000
20
450.000000
0
VERTEX
8
0
10
221.000000
20
452.000000
0
VERTEX
8
0
10
220.000000
20
451.000000
0
VERTEX
8
0
10
218.300000
20
444.900000
0
VERTEX
8
0
10
218.000000
20
443.000000
0
VERTEX
8
0
10
216.000000
20
441.000000
0
VERTEX
8
0
10
213.900000
20
441.800000
0
VERTEX
8
0
10
213.153846
20
442.230769
0
VERTEX
8
0
10
207.000000
20
447.000000
0
VERTEX
8
0
10
206.800000
20
447.900000
0
VERTEX
8
0
10
205.405405
20
451.067568
0
VERTEX
8
0
10
205.250000
20
456.750000
0
VERTEX
8
0
10
207.900000
20
457.300000
0
VERTEX
8
0
10
219.000000
20
460.000000
0
VERTEX
8
0
10
222.000000
20
464.000000
0
VERTEX
8
0
10
222.000000
20
468.000000
0
VERTEX
8
0
10
220.000000
20
471.000000
0
VERTEX
8
0
10
218.000000
20
472.000000
0
VERTEX
8
0
10
210.000000
20
472.000000
0
VERTEX
8
0
10
204.000000
20
469.000000
0
VERTEX
8
0
10
200.800000
20
464.100000
0
VERTEX
8
0
10
196.000000
20
457.000000
0
SEQEND
0
POLYLINE
8
0
6
CONTINUOUS
66
1
62
7
10
0.0
20
0.0
30
0.000000
0
VERTEX
8
0
10
301.000000
20
401.000000
0
VERTEX
8
0
10
302.300000
20
404.900000
0
VERTEX
8
0
10
312.000000
20
427.000000
0
VERTEX
8
0
10
320.000000
20
418.000000
0
VERTEX
8
0
10
323.900000
20
420.200000
0
VERTEX
8
0
10
327.000000
20
422.000000
0
VERTEX
8
0
10
328.000000
20
426.000000
0
VERTEX
8
0
10
327.352941
20
427.088235
0
VERTEX
8
0
10
327.000000
20
430.000000
0
VERTEX
8
0
10
323.100000
20
433.200000
0
VERTEX
8
0
10
317.000000
20
435.000000
0
VERTEX
8
0
10
329.615385
20
445.076923
0
VERTEX
8
0
10
333.000000
20
446.000000
0
VERTEX
8
0
10
335.000000
20
450.000000
0
VERTEX
8
0
10
340.000000
20
454.000000
0
SEQEND
0
POLYLINE
8
0
6
CONTINUOUS
66
1
62
7
10
0.0
20
0.0
30
0.000000
0
VERTEX
8
0
10
361.000000
20
400.000000
0
VERTEX
8
0
10
368.000000
20
404.000000
0
VERTEX
8
0
10
364.800000
20
409.900000
0
VERTEX
8
0
10
361.000000
20
416.000000
0
VERTEX
8
0
10
356.000000
20
417.000000
0
VERTEX
8
0
10
344.000000
20
417.000000
0
VERTEX
8
0
10
343.000000
20
416.000000
0
VERTEX
8
0
10
343.800000
20
412.900000
0
VERTEX
8
0
10
344.800000
20
410.900000
0
VERTEX
8
0
10
351.000000
20
403.000000
0
VERTEX
8
0
10
351.846154
20
402.769231
0
VERTEX
8
0
10
357.076923
20
400.384615
0
VERTEX
8
0
10
361.000000
20
400.000000
0
SEQEND
0
POLYLINE
8
0
6
CONTINUOUS
66
1
62
7
10
0.0
20
0.0
30
0.000000
0
VERTEX
8
0
10
300.000000
20
399.000000
0
VERTEX
8
0
10
301.000000
20
401.000000
0
SEQEND
0
POLYLINE
8
0
6
CONTINUOUS
66
1
62
7
10
0.0
20
0.0
30
0.000000
0
VERTEX
8
0
10
549.000000
20
390.000000
0
VERTEX
8
0
10
548.000000
20
390.000000
0
SEQEND
0
POLYLINE
8
0
6
CONTINUOUS
66
1
62
7
10
0.0
20
0.0
30
0.000000
0
VERTEX
8
0
10
480.000000
20
388.000000
0
VERTEX
8
0
10
481.100000
20
388.800000
0
VERTEX
8
0
10
484.000000
20
390.000000
0
VERTEX
8
0
10
489.000000
20
395.000000
0
VERTEX
8
0
10
488.750000
20
396.750000
0
VERTEX
8
0
10
485.000000
20
396.000000
0
VERTEX
8
0
10
482.000000
20
400.000000
0
VERTEX
8
0
10
482.000000
20
402.000000
0
VERTEX
8
0
10
485.000000
20
405.000000
0
VERTEX
8
0
10
488.000000
20
406.000000
0
VERTEX
8
0
10
491.000000
20
406.000000
0
VERTEX
8
0
10
492.900000
20
404.800000
0
VERTEX
8
0
10
496.000000
20
403.000000
0
VERTEX
8
0
10
496.200000
20
402.100000
0
VERTEX
8
0
10
499.000000
20
396.000000
0
VERTEX
8
0
10
501.240000
20
398.820000
0
VERTEX
8
0
10
510.000000
20
410.000000
0
VERTEX
8
0
10
510.900000
20
410.200000
0
VERTEX
8
0
10
512.000000
20
411.000000
0
VERTEX
8
0
10
513.000000
20
410.000000
0
VERTEX
8
0
10
510.384615
20
398.923077
0
VERTEX
8
0
10
509.000000
20
392.000000
0
VERTEX
8
0
10
510.000000
20
391.000000
0
VERTEX
8
0
10
514.846154
20
395.230769
0
VERTEX
8
0
10
519.000000
20
397.500000
0
VERTEX
8
0
10
524.900000
20
394.800000
0
VERTEX
8
0
10
528.900000
20
392.800000
0
VERTEX
8
0
10
532.000000
20
391.000000
0
VERTEX
8
0
10
535.000000
20
394.000000
0
VERTEX
8
0
10
535.647059
20
397.088235
0
VERTEX
8
0
10
536.352941
20
399.911765
0
VERTEX
8
0
10
537.000000
20
401.000000
0
VERTEX
8
0
10
537.000000
20
407.000000
0
VERTEX
8
0
10
535.000000
20
410.000000
0
VERTEX
8
0
10
532.000000
20
413.000000
0
VERTEX
8
0
10
526.900000
20
415.700000
0
VERTEX
8
0
10
525.100000
20
416.300000
0
VERTEX
8
0
10
524.000000
20
417.000000
0
VERTEX
8
0
10
519.000000
20
417.000000
0
VERTEX
8
0
10
500.088235
20
412.647059
0
VERTEX
8
0
10
483.911765
20
408.352941
0
VERTEX
8
0
10
476.000000
20
406.000000
0
VERTEX
8
0
10
475.000000
20
405.000000
0
VERTEX
8
0
10
475.000000
20
401.000000
0
VERTEX
8
0
10
477.250000
20
388.250000
0
VERTEX
8
0
10
480.000000
20
388.000000
0
SEQEND
0
POLYLINE
8
0
6
CONTINUOUS
66
1
62
7
10
0.0
20
0.0
30
0.000000
0
VERTEX
8
0
10
425.000000
20
383.000000
0
VERTEX
8
0
10
437.000000
20
391.000000
0
VERTEX
8
0
10
439.000000
20
393.000000
0
VERTEX
8
0
10
439.000000
20
394.000000
0
VERTEX
8
0
10
430.100000
20
400.200000
0
VERTEX
8
0
10
426.000000
20
402.000000
0
VERTEX
8
0
10
418.000000
20
401.000000
0
VERTEX
8
0
10
415.800000
20
398.100000
0
VERTEX
8
0
10
414.647059
20
394.088235
0
VERTEX
8
0
10
414.000000
20
389.000000
0
VERTEX
8
0
10
415.000000
20
386.000000
0
VERTEX
8
0
10
417.000000
20
384.000000
0
VERTEX
8
0
10
425.000000
20
383.000000
0
SEQEND
0
POLYLINE
8
0
6
CONTINUOUS
66
1
62
7
10
0.0
20
0.0
30
0.000000
0
VERTEX
8
0
10
215.000000
20
380.000000
0
VERTEX
8
0
10
216.580000
20
393.060000
0
VERTEX
8
0
10
218.200000
20
400.900000
0
VERTEX
8
0
10
219.800000
20
404.100000
0
VERTEX
8
0
10
223.000000
20
408.000000
0
VERTEX
8
0
10
227.180000
20
410.760000
0
VERTEX
8
0
10
234.000000
20
414.000000
0
VERTEX
8
0
10
246.000000
20
414.000000
0
VERTEX
8
0
10
276.923077
20
406.615385
0
VERTEX
8
0
10
290.900000
20
402.700000
0
VERTEX
8
0
10
294.750000
20
402.250000
0
VERTEX
8
0
10
295.000000
20
403.000000
0
VERTEX
8
0
10
297.000000
20
409.000000
0
VERTEX
8
0
10
296.000000
20
411.000000
0
VERTEX
8
0
10
286.900000
20
415.700000
0
VERTEX
8
0
10
267.900000
20
423.700000
0
VERTEX
8
0
10
245.000000
20
434.000000
0
VERTEX
8
0
10
243.769231
20
435.846154
0
VERTEX
8
0
10
237.000000
20
449.000000
0
VERTEX
8
0
10
238.000000
20
466.000000
0
VERTEX
8
0
10
212.100000
20
480.200000
0
VERTEX
8
0
10
207.100000
20
483.200000
0
VERTEX
8
0
10
187.911765
20
493.647059
0
VERTEX
8
0
10
185.088235
20
494.352941
0
VERTEX
8
0
10
180.000000
20
496.000000
0
VERTEX
8
0
10
168.000000
20
496.000000
0
VERTEX
8
0
10
164.088235
20
494.647059
0
VERTEX
8
0
10
162.900000
20
494.200000
0
VERTEX
8
0
10
160.000000
20
493.000000
0
VERTEX
8
0
10
155.000000
20
488.000000
0
VERTEX
8
0
10
154.352941
20
485.911765
0
VERTEX
8
0
10
153.647059
20
483.088235
0
VERTEX
8
0
10
152.000000
20
478.000000
0
VERTEX
8
0
10
152.000000
20
470.000000
0
VERTEX
8
0
10
154.240000
20
467.180000
0
VERTEX
8
0
10
160.000000
20
459.000000
0
VERTEX
8
0
10
158.153846
20
457.769231
0
VERTEX
8
0
10
151.000000
20
453.000000
0
VERTEX
8
0
10
154.200000
20
447.100000
0
VERTEX
8
0
10
156.000000
20
441.000000
0
VERTEX
8
0
10
151.180000
20
437.760000
0
VERTEX
8
0
10
147.820000
20
435.240000
0
VERTEX
8
0
10
142.000000
20
430.000000
0
VERTEX
8
0
10
139.821918
20
425.691781
0
VERTEX
8
0
10
138.594595
20
421.067568
0
VERTEX
8
0
10
138.000000
20
413.000000
0
VERTEX
8
0
10
140.441176
20
405.264706
0
VERTEX
8
0
10
142.760000
20
401.820000
0
VERTEX
8
0
10
148.000000
20
396.000000
0
VERTEX
8
0
10
157.100000
20
391.200000
0
VERTEX
8
0
10
164.900000
20
387.800000
0
VERTEX
8
0
10
184.053846
20
383.430769
0
VERTEX
8
0
10
215.000000
20
380.000000
0
SEQEND
0
POLYLINE
8
0
6
CONTINUOUS
66
1
62
7
10
0.0
20
0.0
30
0.000000
0
VERTEX
8
0
10
115.000000
20
379.000000
0
VERTEX
8
0
10
114.000000
20
380.000000
0
VERTEX
8
0
10
115.000000
20
381.000000
0
VERTEX
8
0
10
116.000000
20
380.000000
0
SEQEND
0
POLYLINE
8
0
6
CONTINUOUS
66
1
62
7
10
0.0
20
0.0
30
0.000000
0
VERTEX
8
0
10
115.000000
20
379.000000
0
VERTEX
8
0
10
116.000000
20
380.000000
0
SEQEND
0
POLYLINE
8
0
6
CONTINUOUS
66
1
62
7
10
0.0
20
0.0
30
0.000000
0
VERTEX
8
0
10
489.000000
20
376.000000
0
VERTEX
8
0
10
490.000000
20
377.000000
0
SEQEND
0
POLYLINE
8
0
6
CONTINUOUS
66
1
62
7
10
0.0
20
0.0
30
0.000000
0
VERTEX
8
0
10
492.000000
20
376.000000
0
VERTEX
8
0
10
490.000000
20
377.000000
0
SEQEND
0
POLYLINE
8
0
6
CONTINUOUS
66
1
62
7
10
0.0
20
0.0
30
0.000000
0
VERTEX
8
0
10
491.000000
20
375.000000
0
VERTEX
8
0
10
489.000000
20
376.000000
0
SEQEND
0
POLYLINE
8
0
6
CONTINUOUS
66
1
62
7
10
0.0
20
0.0
30
0.000000
0
VERTEX
8
0
10
491.000000
20
375.000000
0
VERTEX
8
0
10
492.000000
20
376.000000
0
SEQEND
0
POLYLINE
8
0
6
CONTINUOUS
66
1
62
7
10
0.0
20
0.0
30
0.000000
0
VERTEX
8
0
10
491.000000
20
375.000000
0
VERTEX
8
0
10
492.000000
20
374.000000
0
VERTEX
8
0
10
493.000000
20
375.000000
0
VERTEX
8
0
10
492.000000
20
376.000000
0
SEQEND
0
POLYLINE
8
0
6
CONTINUOUS
66
1
62
7
10
0.0
20
0.0
30
0.000000
0
VERTEX
8
0
10
388.000000
20
370.000000
0
VERTEX
8
0
10
393.000000
20
372.000000
0
VERTEX
8
0
10
397.000000
20
380.000000
0
VERTEX
8
0
10
397.000000
20
383.000000
0
VERTEX
8
0
10
394.000000
20
389.000000
0
VERTEX
8
0
10
390.000000
20
392.000000
0
VERTEX
8
0
10
382.000000
20
392.000000
0
VERTEX
8
0
10
377.000000
20
389.000000
0
VERTEX
8
0
10
376.800000
20
388.100000
0
VERTEX
8
0
10
375.000000
20
383.000000
0
VERTEX
8
0
10
376.000000
20
376.000000
0
VERTEX
8
0
10
381.900000
20
370.800000
0
VERTEX
8
0
10
388.000000
20
370.000000
0
SEQEND
0
POLYLINE
8
0
6
CONTINUOUS
66
1
62
7
10
0.0
20
0.0
30
0.000000
0
VERTEX
8
0
10
301.000000
20
369.000000
0
VERTEX
8
0
10
300.000000
20
369.000000
0
VERTEX
8
0
10
299.000000
20
370.000000
0
VERTEX
8
0
10
299.000000
20
393.000000
0
VERTEX
8
0
10
300.000000
20
394.000000
0
VERTEX
8
0
10
303.900000
20
389.800000
0
VERTEX
8
0
10
307.000000
20
388.000000
0
VERTEX
8
0
10
310.000000
20
388.000000
0
VERTEX
8
0
10
315.000000
20
392.000000
0
VERTEX
8
0
10
314.000000
20
399.000000
0
VERTEX
8
0
10
311.000000
20
402.000000
0
VERTEX
8
0
10
306.000000
20
403.000000
0
VERTEX
8
0
10
304.900000
20
402.200000
0
VERTEX
8
0
10
301.000000
20
401.000000
0
SEQEND
0
POLYLINE
8
0
6
CONTINUOUS
66
1
62
7
10
0.0
20
0.0
30
0.000000
0
VERTEX
8
0
10
711.000000
20
369.000000
0
VERTEX
8
0
10
714.000000
20
371.000000
0
VERTEX
8
0
10
716.230769
20
373.846154
0
VERTEX
8
0
10
718.000000
20
376.000000
0
VERTEX
8
0
10
718.000000
20
384.000000
0
VERTEX
8
0
10
715.000000
20
391.000000
0
VERTEX
8
0
10
712.000000
20
394.000000
0
VERTEX
8
0
10
707.000000
20
396.000000
0
VERTEX
8
0
10
703.000000
20
396.000000
0
VERTEX
8
0
10
699.088235
20
394.647059
0
VERTEX
8
0
10
697.000000
20
394.000000
0
VERTEX
8
0
10
691.800000
20
387.100000
0
VERTEX
8
0
10
691.000000
20
386.000000
0
VERTEX
8
0
10
691.000000
20
379.000000
0
VERTEX
8
0
10
692.200000
20
377.100000
0
VERTEX
8
0
10
693.200000
20
375.100000
0
VERTEX
8
0
10
696.000000
20
371.000000
0
VERTEX
8
0
10
696.846154
20
370.769231
0
VERTEX
8
0
10
699.120000
20
369.840000
0
VERTEX
8
0
10
711.000000
20
369.000000
0
SEQEND
0
POLYLINE
8
0
6
CONTINUOUS
66
1
62
7
10
0.0
20
0.0
30
0.000000
0
VERTEX
8
0
10
301.000000
20
368.000000
0
VERTEX
8
0
10
301.000000
20
369.000000
0
SEQEND
0
POLYLINE
8
0
6
CONTINUOUS
66
1
62
7
10
0.0
20
0.0
30
0.000000
0
VERTEX
8
0
10
549.000000
20
390.000000
0
VERTEX
8
0
10
550.100000
20
389.200000
0
VERTEX
8
0
10
625.100000
20
387.200000
0
VERTEX
8
0
10
638.153846
20
380.230769
0
VERTEX
8
0
10
642.846154
20
377.769231
0
VERTEX
8
0
10
657.000000
20
368.000000
0
VERTEX
8
0
10
662.000000
20
368.000000
0
VERTEX
8
0
10
663.000000
20
369.000000
0
VERTEX
8
0
10
654.439024
20
390.048780
0
VERTEX
8
0
10
653.560976
20
397.951220
0
VERTEX
8
0
10
653.000000
20
399.000000
0
VERTEX
8
0
10
653.000000
20
420.000000
0
VERTEX
8
0
10
654.384615
20
424.923077
0
VERTEX
8
0
10
655.405405
20
430.932432
0
VERTEX
8
0
10
656.000000
20
440.000000
0
VERTEX
8
0
10
655.000000
20
441.000000
0
VERTEX
8
0
10
651.000000
20
437.000000
0
VERTEX
8
0
10
646.200000
20
423.900000
0
VERTEX
8
0
10
638.000000
20
413.000000
0
VERTEX
8
0
10
633.000000
20
408.000000
0
VERTEX
8
0
10
621.900000
20
401.300000
0
VERTEX
8
0
10
598.100000
20
396.700000
0
VERTEX
8
0
10
581.040984
20
394.549180
0
VERTEX
8
0
10
568.035294
20
393.541176
0
VERTEX
8
0
10
550.900000
20
391.200000
0
VERTEX
8
0
10
549.000000
20
390.000000
0
SEQEND
0
POLYLINE
8
0
6
CONTINUOUS
66
1
62
7
10
0.0
20
0.0
30
0.000000
0
VERTEX
8
0
10
65.000000
20
366.000000
0
VERTEX
8
0
10
75.000000
20
370.000000
0
VERTEX
8
0
10
79.000000
20
379.000000
0
VERTEX
8
0
10
78.352941
20
383.088235
0
VERTEX
8
0
10
77.000000
20
388.000000
0
VERTEX
8
0
10
74.000000
20
391.000000
0
VERTEX
8
0
10
71.000000
20
392.000000
0
VERTEX
8
0
10
62.000000
20
392.000000
0
VERTEX
8
0
10
60.900000
20
391.300000
0
VERTEX
8
0
10
59.000000
20
391.000000
0
VERTEX
8
0
10
56.000000
20
388.000000
0
VERTEX
8
0
10
52.200000
20
381.900000
0
VERTEX
8
0
10
51.000000
20
380.000000
0
VERTEX
8
0
10
53.800000
20
373.900000
0
VERTEX
8
0
10
55.000000
20
371.000000
0
VERTEX
8
0
10
60.200000
20
367.400000
0
VERTEX
8
0
10
65.000000
20
366.000000
0
SEQEND
0
POLYLINE
8
0
6
CONTINUOUS
66
1
62
7
10
0.0
20
0.0
30
0.000000
0
VERTEX
8
0
10
405.000000
20
363.000000
0
VERTEX
8
0
10
404.000000
20
364.000000
0
SEQEND
0
POLYLINE
8
0
6
CONTINUOUS
66
1
62
7
10
0.0
20
0.0
30
0.000000
0
VERTEX
8
0
10
348.000000
20
362.000000
0
VERTEX
8
0
10
357.000000
20
365.000000
0
VERTEX
8
0
10
358.000000
20
366.000000
0
VERTEX
8
0
10
358.000000
20
372.000000
0
VERTEX
8
0
10
357.352941
20
373.088235
0
VERTEX
8
0
10
357.000000
20
376.000000
0
VERTEX
8
0
10
352.000000
20
380.000000
0
VERTEX
8
0
10
345.900000
20
378.200000
0
VERTEX
8
0
10
341.000000
20
375.000000
0
VERTEX
8
0
10
332.000000
20
366.000000
0
VERTEX
8
0
10
335.900000
20
363.800000
0
VERTEX
8
0
10
342.060000
20
362.420000
0
VERTEX
8
0
10
348.000000
20
362.000000
0
SEQEND
0
POLYLINE
8
0
6
CONTINUOUS
66
1
62
7
10
0.0
20
0.0
30
0.000000
0
VERTEX
8
0
10
216.000000
20
361.000000
0
VERTEX
8
0
10
215.000000
20
361.000000
0
SEQEND
0
POLYLINE
8
0
6
CONTINUOUS
66
1
62
7
10
0.0
20
0.0
30
0.000000
0
VERTEX
8
0
10
301.000000
20
368.000000
0
VERTEX
8
0
10
302.000000
20
366.000000
0
VERTEX
8
0
10
305.900000
20
362.800000
0
VERTEX
8
0
10
307.100000
20
362.200000
0
VERTEX
8
0
10
310.000000
20
361.000000
0
VERTEX
8
0
10
312.000000
20
362.000000
0
VERTEX
8
0
10
315.000000
20
365.000000
0
VERTEX
8
0
10
316.000000
20
368.000000
0
VERTEX
8
0
10
315.300000
20
371.100000
0
VERTEX
8
0
10
315.000000
20
373.000000
0
VERTEX
8
0
10
312.000000
20
376.000000
0
VERTEX
8
0
10
309.000000
20
377.000000
0
VERTEX
8
0
10
305.000000
20
376.000000
0
VERTEX
8
0
10
302.000000
20
373.000000
0
VERTEX
8
0
10
301.000000
20
369.000000
0
SEQEND
0
POLYLINE
8
0
6
CONTINUOUS
66
1
62
7
10
0.0
20
0.0
30
0.000000
0
VERTEX
8
0
10
386.000000
20
361.000000
0
VERTEX
8
0
10
397.000000
20
366.000000
0
VERTEX
8
0
10
402.000000
20
375.000000
0
VERTEX
8
0
10
402.000000
20
387.000000
0
VERTEX
8
0
10
400.800000
20
388.900000
0
VERTEX
8
0
10
400.200000
20
390.100000
0
VERTEX
8
0
10
396.000000
20
395.000000
0
VERTEX
8
0
10
393.100000
20
396.200000
0
VERTEX
8
0
10
388.000000
20
399.000000
0
VERTEX
8
0
10
385.000000
20
399.000000
0
VERTEX
8
0
10
377.100000
20
396.700000
0
VERTEX
8
0
10
375.900000
20
396.200000
0
VERTEX
8
0
10
369.000000
20
390.000000
0
VERTEX
8
0
10
368.800000
20
389.100000
0
VERTEX
8
0
10
367.000000
20
384.000000
0
VERTEX
8
0
10
367.000000
20
378.000000
0
VERTEX
8
0
10
368.384615
20
373.076923
0
VERTEX
8
0
10
368.800000
20
371.900000
0
VERTEX
8
0
10
370.000000
20
369.000000
0
VERTEX
8
0
10
375.000000
20
364.000000
0
VERTEX
8
0
10
377.100000
20
363.200000
0
VERTEX
8
0
10
386.000000
20
361.000000
0
SEQEND
0
POLYLINE
8
0
6
CONTINUOUS
66
1
62
7
10
0.0
20
0.0
30
0.000000
0
VERTEX
8
0
10
116.000000
20
380.000000
0
VERTEX
8
0
10
133.900000
20
366.800000
0
VERTEX
8
0
10
150.923077
20
361.615385
0
VERTEX
8
0
10
158.000000
20
360.000000
0
VERTEX
8
0
10
179.000000
20
360.000000
0
VERTEX
8
0
10
190.962069
20
361.455172
0
VERTEX
8
0
10
192.000000
20
362.000000
0
VERTEX
8
0
10
214.000000
20
362.000000
0
VERTEX
8
0
10
215.000000
20
361.000000
0
SEQEND
0
POLYLINE
8
0
6
CONTINUOUS
66
1
62
7
10
0.0
20
0.0
30
0.000000
0
VERTEX
8
0
10
490.000000
20
377.000000
0
VERTEX
8
0
10
485.100000
20
380.200000
0
VERTEX
8
0
10
481.911765
20
381.647059
0
VERTEX
8
0
10
479.000000
20
382.000000
0
VERTEX
8
0
10
478.000000
20
381.000000
0
VERTEX
8
0
10
477.800000
20
380.100000
0
VERTEX
8
0
10
476.000000
20
372.000000
0
VERTEX
8
0
10
476.000000
20
364.000000
0
VERTEX
8
0
10
478.000000
20
362.000000
0
VERTEX
8
0
10
496.076923
20
358.384615
0
VERTEX
8
0
10
499.923077
20
357.615385
0
VERTEX
8
0
10
501.000000
20
357.000000
0
VERTEX
8
0
10
522.000000
20
357.000000
0
VERTEX
8
0
10
528.940000
20
358.420000
0
VERTEX
8
0
10
536.000000
20
362.000000
0
VERTEX
8
0
10
540.000000
20
367.000000
0
VERTEX
8
0
10
540.000000
20
372.000000
0
VERTEX
8
0
10
534.000000
20
388.000000
0
VERTEX
8
0
10
532.000000
20
388.000000
0
VERTEX
8
0
10
525.153846
20
382.769231
0
VERTEX
8
0
10
521.000000
20
380.000000
0
VERTEX
8
0
10
514.000000
20
382.000000
0
VERTEX
8
0
10
512.000000
20
382.000000
0
VERTEX
8
0
10
511.000000
20
381.000000
0
VERTEX
8
0
10
514.230769
20
373.153846
0
VERTEX
8
0
10
516.230769
20
370.153846
0
VERTEX
8
0
10
520.000000
20
364.000000
0
VERTEX
8
0
10
519.000000
20
363.000000
0
VERTEX
8
0
10
515.000000
20
363.000000
0
VERTEX
8
0
10
511.000000
20
366.000000
0
VERTEX
8
0
10
502.000000
20
376.000000
0
VERTEX
8
0
10
501.000000
20
376.000000
0
VERTEX
8
0
10
499.352941
20
369.911765
0
VERTEX
8
0
10
499.000000
20
367.000000
0
VERTEX
8
0
10
497.153846
20
365.769231
0
VERTEX
8
0
10
495.000000
20
364.000000
0
VERTEX
8
0
10
489.000000
20
364.000000
0
VERTEX
8
0
10
486.000000
20
365.000000
0
VERTEX
8
0
10
484.800000
20
366.900000
0
VERTEX
8
0
10
484.000000
20
368.000000
0
VERTEX
8
0
10
484.700000
20
371.100000
0
VERTEX
8
0
10
485.300000
20
372.900000
0
VERTEX
8
0
10
487.000000
20
376.000000
0
VERTEX
8
0
10
489.000000
20
376.000000
0
SEQEND
0
POLYLINE
8
0
6
CONTINUOUS
66
1
62
7
10
0.0
20
0.0
30
0.000000
0
VERTEX
8
0
10
404.000000
20
364.000000
0
VERTEX
8
0
10
404.230769
20
364.846154
0
VERTEX
8
0
10
410.000000
20
375.000000
0
VERTEX
8
0
10
410.000000
20
384.000000
0
VERTEX
8
0
10
404.000000
20
396.000000
0
VERTEX
8
0
10
397.153846
20
401.230769
0
VERTEX
8
0
10
392.911765
20
403.647059
0
VERTEX
8
0
10
390.088235
20
404.352941
0
VERTEX
8
0
10
389.000000
20
405.000000
0
VERTEX
8
0
10
381.923077
20
404.384615
0
VERTEX
8
0
10
369.000000
20
400.000000
0
VERTEX
8
0
10
366.000000
20
397.000000
0
VERTEX
8
0
10
362.384615
20
390.923077
0
VERTEX
8
0
10
361.615385
20
387.076923
0
VERTEX
8
0
10
361.000000
20
386.000000
0
VERTEX
8
0
10
361.000000
20
376.000000
0
VERTEX
8
0
10
364.230769
20
367.153846
0
VERTEX
8
0
10
368.000000
20
362.000000
0
VERTEX
8
0
10
368.820000
20
361.760000
0
VERTEX
8
0
10
375.188679
20
357.660377
0
VERTEX
8
0
10
381.000000
20
356.000000
0
VERTEX
8
0
10
390.000000
20
356.000000
0
VERTEX
8
0
10
394.800000
20
357.600000
0
VERTEX
8
0
10
401.846154
20
362.230769
0
VERTEX
8
0
10
404.000000
20
364.000000
0
SEQEND
0
POLYLINE
8
0
6
CONTINUOUS
66
1
62
7
10
0.0
20
0.0
30
0.000000
0
VERTEX
8
0
10
255.000000
20
346.000000
0
VERTEX
8
0
10
256.000000
20
347.000000
0
SEQEND
0
POLYLINE
8
0
6
CONTINUOUS
66
1
62
7
10
0.0
20
0.0
30
0.000000
0
VERTEX
8
0
10
405.000000
20
363.000000
0
VERTEX
8
0
10
403.700000
20
359.100000
0
VERTEX
8
0
10
403.000000
20
358.000000
0
VERTEX
8
0
10
404.000000
20
352.000000
0
VERTEX
8
0
10
407.900000
20
349.800000
0
VERTEX
8
0
10
420.911765
20
346.647059
0
VERTEX
8
0
10
422.000000
20
346.000000
0
VERTEX
8
0
10
425.000000
20
349.000000
0
VERTEX
8
0
10
422.200000
20
359.100000
0
VERTEX
8
0
10
420.000000
20
363.000000
0
VERTEX
8
0
10
416.000000
20
367.000000
0
VERTEX
8
0
10
411.000000
20
367.000000
0
VERTEX
8
0
10
407.153846
20
364.769231
0
VERTEX
8
0
10
405.000000
20
363.000000
0
SEQEND
0
POLYLINE
8
0
6
CONTINUOUS
66
1
62
7
10
0.0
20
0.0
30
0.000000
0
VERTEX
8
0
10
309.000000
20
342.000000
0
VERTEX
8
0
10
307.000000
20
343.000000
0
VERTEX
8
0
10
300.000000
20
362.000000
0
VERTEX
8
0
10
300.000000
20
367.000000
0
VERTEX
8
0
10
301.000000
20
368.000000
0
SEQEND
0
POLYLINE
8
0
6
CONTINUOUS
66
1
62
7
10
0.0
20
0.0
30
0.000000
0
VERTEX
8
0
10
256.000000
20
347.000000
0
VERTEX
8
0
10
257.700000
20
353.100000
0
VERTEX
8
0
10
263.243902
20
365.804878
0
VERTEX
8
0
10
267.000000
20
370.000000
0
VERTEX
8
0
10
265.000000
20
372.000000
0
VERTEX
8
0
10
262.900000
20
371.200000
0
VERTEX
8
0
10
262.000000
20
371.000000
0
VERTEX
8
0
10
259.200000
20
366.900000
0
VERTEX
8
0
10
259.000000
20
366.000000
0
VERTEX
8
0
10
257.100000
20
364.800000
0
VERTEX
8
0
10
256.000000
20
364.000000
0
VERTEX
8
0
10
252.911765
20
364.647059
0
VERTEX
8
0
10
248.100000
20
366.200000
0
VERTEX
8
0
10
244.000000
20
369.000000
0
VERTEX
8
0
10
247.000000
20
373.000000
0
VERTEX
8
0
10
252.040984
20
375.549180
0
VERTEX
8
0
10
262.000000
20
376.000000
0
VERTEX
8
0
10
263.000000
20
377.000000
0
VERTEX
8
0
10
251.000000
20
393.000000
0
VERTEX
8
0
10
253.000000
20
395.000000
0
VERTEX
8
0
10
259.100000
20
392.200000
0
VERTEX
8
0
10
259.771698
20
391.750943
0
VERTEX
8
0
10
271.000000
20
381.000000
0
VERTEX
8
0
10
273.000000
20
388.000000
0
VERTEX
8
0
10
274.000000
20
389.000000
0
VERTEX
8
0
10
279.000000
20
390.000000
0
VERTEX
8
0
10
285.000000
20
380.000000
0
VERTEX
8
0
10
287.100000
20
379.200000
0
VERTEX
8
0
10
291.000000
20
378.000000
0
VERTEX
8
0
10
292.000000
20
379.000000
0
VERTEX
8
0
10
291.000000
20
389.000000
0
VERTEX
8
0
10
289.000000
20
391.000000
0
VERTEX
8
0
10
279.911765
20
393.647059
0
VERTEX
8
0
10
277.088235
20
394.352941
0
VERTEX
8
0
10
246.000000
20
399.000000
0
VERTEX
8
0
10
240.000000
20
399.000000
0
VERTEX
8
0
10
238.100000
20
397.800000
0
VERTEX
8
0
10
234.000000
20
395.000000
0
VERTEX
8
0
10
232.647059
20
390.088235
0
VERTEX
8
0
10
232.000000
20
389.000000
0
VERTEX
8
0
10
232.000000
20
379.000000
0
VERTEX
8
0
10
237.200000
20
370.100000
0
VERTEX
8
0
10
237.500000
20
369.000000
0
VERTEX
8
0
10
234.800000
20
364.100000
0
VERTEX
8
0
10
233.800000
20
362.100000
0
VERTEX
8
0
10
232.000000
20
359.000000
0
VERTEX
8
0
10
232.615385
20
353.923077
0
VERTEX
8
0
10
235.000000
20
346.000000
0
VERTEX
8
0
10
238.000000
20
343.000000
0
VERTEX
8
0
10
247.000000
20
339.000000
0
VERTEX
8
0
10
260.000000
20
339.000000
0
VERTEX
8
0
10
287.900000
20
345.300000
0
VERTEX
8
0
10
292.000000
20
346.000000
0
VERTEX
8
0
10
296.000000
20
351.000000
0
VERTEX
8
0
10
295.405405
20
355.067568
0
VERTEX
8
0
10
293.000000
20
366.000000
0
VERTEX
8
0
10
291.000000
20
368.000000
0
VERTEX
8
0
10
286.000000
20
366.000000
0
VERTEX
8
0
10
283.000000
20
363.000000
0
VERTEX
8
0
10
283.000000
20
362.000000
0
VERTEX
8
0
10
290.000000
20
356.000000
0
VERTEX
8
0
10
290.000000
20
353.000000
0
VERTEX
8
0
10
288.000000
20
351.000000
0
VERTEX
8
0
10
282.000000
20
350.000000
0
VERTEX
8
0
10
277.000000
20
352.000000
0
VERTEX
8
0
10
276.000000
20
361.000000
0
VERTEX
8
0
10
274.000000
20
363.000000
0
VERTEX
8
0
10
273.000000
20
361.000000
0
VERTEX
8
0
10
264.000000
20
352.000000
0
VERTEX
8
0
10
259.820000
20
349.240000
0
VERTEX
8
0
10
256.000000
20
347.000000
0
SEQEND
0
POLYLINE
8
0
6
CONTINUOUS
66
1
62
7
10
0.0
20
0.0
30
0.000000
0
VERTEX
8
0
10
541.000000
20
337.000000
0
VERTEX
8
0
10
539.000000
20
338.000000
0
SEQEND
0
POLYLINE
8
0
6
CONTINUOUS
66
1
62
7
10
0.0
20
0.0
30
0.000000
0
VERTEX
8
0
10
311.000000
20
336.000000
0
VERTEX
8
0
10
309.000000
20
342.000000
0
SEQEND
0
POLYLINE
8
0
6
CONTINUOUS
66
1
62
7
10
0.0
20
0.0
30
0.000000
0
VERTEX
8
0
10
311.000000
20
335.000000
0
VERTEX
8
0
10
311.000000
20
336.000000
0
SEQEND
0
POLYLINE
8
0
6
CONTINUOUS
66
1
62
7
10
0.0
20
0.0
30
0.000000
0
VERTEX
8
0
10
311.000000
20
336.000000
0
VERTEX
8
0
10
312.000000
20
336.000000
0
VERTEX
8
0
10
317.000000
20
334.000000
0
VERTEX
8
0
10
321.100000
20
335.800000
0
VERTEX
8
0
10
322.000000
20
336.000000
0
VERTEX
8
0
10
323.200000
20
337.900000
0
VERTEX
8
0
10
324.000000
20
339.000000
0
VERTEX
8
0
10
324.000000
20
343.000000
0
VERTEX
8
0
10
322.000000
20
346.000000
0
VERTEX
8
0
10
319.100000
20
348.200000
0
VERTEX
8
0
10
318.000000
20
349.000000
0
VERTEX
8
0
10
314.100000
20
347.800000
0
VERTEX
8
0
10
312.000000
20
347.000000
0
VERTEX
8
0
10
309.800000
20
344.100000
0
VERTEX
8
0
10
309.000000
20
342.000000
0
SEQEND
0
POLYLINE
8
0
6
CONTINUOUS
66
1
62
7
10
0.0
20
0.0
30
0.000000
0
VERTEX
8
0
10
378.000000
20
325.000000
0
VERTEX
8
0
10
387.000000
20
335.000000
0
VERTEX
8
0
10
388.000000
20
335.000000
0
VERTEX
8
0
10
390.230769
20
337.846154
0
VERTEX
8
0
10
392.000000
20
340.000000
0
VERTEX
8
0
10
392.000000
20
345.000000
0
VERTEX
8
0
10
390.000000
20
348.000000
0
VERTEX
8
0
10
385.000000
20
351.000000
0
VERTEX
8
0
10
378.000000
20
350.000000
0
VERTEX
8
0
10
375.000000
20
347.000000
0
VERTEX
8
0
10
375.000000
20
334.000000
0
VERTEX
8
0
10
378.000000
20
325.000000
0
SEQEND
0
POLYLINE
8
0
6
CONTINUOUS
66
1
62
7
10
0.0
20
0.0
30
0.000000
0
VERTEX
8
0
10
477.000000
20
324.000000
0
VERTEX
8
0
10
477.000000
20
325.000000
0
SEQEND
0
POLYLINE
8
0
6
CONTINUOUS
66
1
62
7
10
0.0
20
0.0
30
0.000000
0
VERTEX
8
0
10
479.000000
20
324.000000
0
VERTEX
8
0
10
477.000000
20
325.000000
0
SEQEND
0
POLYLINE
8
0
6
CONTINUOUS
66
1
62
7
10
0.0
20
0.0
30
0.000000
0
VERTEX
8
0
10
479.000000
20
323.000000
0
VERTEX
8
0
10
477.000000
20
324.000000
0
SEQEND
0
POLYLINE
8
0
6
CONTINUOUS
66
1
62
7
10
0.0
20
0.0
30
0.000000
0
VERTEX
8
0
10
479.000000
20
323.000000
0
VERTEX
8
0
10
479.000000
20
324.000000
0
SEQEND
0
POLYLINE
8
0
6
CONTINUOUS
66
1
62
7
10
0.0
20
0.0
30
0.000000
0
VERTEX
8
0
10
481.000000
20
323.000000
0
VERTEX
8
0
10
479.000000
20
324.000000
0
SEQEND
0
POLYLINE
8
0
6
CONTINUOUS
66
1
62
7
10
0.0
20
0.0
30
0.000000
0
VERTEX
8
0
10
703.000000
20
323.000000
0
VERTEX
8
0
10
708.100000
20
324.700000
0
VERTEX
8
0
10
710.000000
20
325.000000
0
VERTEX
8
0
10
715.000000
20
330.000000
0
VERTEX
8
0
10
716.000000
20
335.000000
0
VERTEX
8
0
10
716.000000
20
339.000000
0
VERTEX
8
0
10
714.800000
20
340.900000
0
VERTEX
8
0
10
713.200000
20
344.100000
0
VERTEX
8
0
10
708.000000
20
350.000000
0
VERTEX
8
0
10
701.000000
20
351.000000
0
VERTEX
8
0
10
694.000000
20
348.000000
0
VERTEX
8
0
10
692.000000
20
346.000000
0
VERTEX
8
0
10
689.000000
20
339.000000
0
VERTEX
8
0
10
689.000000
20
335.000000
0
VERTEX
8
0
10
690.352941
20
331.088235
0
VERTEX
8
0
10
690.800000
20
329.900000
0
VERTEX
8
0
10
695.000000
20
325.000000
0
VERTEX
8
0
10
697.088235
20
324.352941
0
VERTEX
8
0
10
703.000000
20
323.000000
0
SEQEND
0
POLYLINE
8
0
6
CONTINUOUS
66
1
62
7
10
0.0
20
0.0
30
0.000000
0
VERTEX
8
0
10
480.000000
20
322.000000
0
VERTEX
8
0
10
479.000000
20
323.000000
0
SEQEND
0
POLYLINE
8
0
6
CONTINUOUS
66
1
62
7
10
0.0
20
0.0
30
0.000000
0
VERTEX
8
0
10
480.000000
20
322.000000
0
VERTEX
8
0
10
481.000000
20
323.000000
0
SEQEND
0
POLYLINE
8
0
6
CONTINUOUS
66
1
62
7
10
0.0
20
0.0
30
0.000000
0
VERTEX
8
0
10
115.000000
20
379.000000
0
VERTEX
8
0
10
116.300000
20
374.100000
0
VERTEX
8
0
10
120.569231
20
360.946154
0
VERTEX
8
0
10
121.430769
20
354.053846
0
VERTEX
8
0
10
122.000000
20
346.000000
0
VERTEX
8
0
10
120.647059
20
342.088235
0
VERTEX
8
0
10
117.647059
20
328.088235
0
VERTEX
8
0
10
117.000000
20
327.000000
0
VERTEX
8
0
10
117.000000
20
321.000000
0
VERTEX
8
0
10
118.000000
20
320.000000
0
VERTEX
8
0
10
134.820000
20
337.240000
0
VERTEX
8
0
10
138.180000
20
339.760000
0
VERTEX
8
0
10
151.100000
20
345.700000
0
VERTEX
8
0
10
166.911765
20
351.352941
0
VERTEX
8
0
10
186.048780
20
354.560976
0
VERTEX
8
0
10
202.951220
20
356.439024
0
VERTEX
8
0
10
211.100000
20
358.800000
0
VERTEX
8
0
10
215.000000
20
361.000000
0
SEQEND
0
POLYLINE
8
0
6
CONTINUOUS
66
1
62
7
10
0.0
20
0.0
30
0.000000
0
VERTEX
8
0
10
394.000000
20
320.000000
0
VERTEX
8
0
10
403.911765
20
322.352941
0
VERTEX
8
0
10
417.820000
20
329.240000
0
VERTEX
8
0
10
428.000000
20
337.000000
0
VERTEX
8
0
10
432.230769
20
341.846154
0
VERTEX
8
0
10
437.800000
20
350.100000
0
VERTEX
8
0
10
443.352941
20
364.911765
0
VERTEX
8
0
10
446.000000
20
377.000000
0
VERTEX
8
0
10
446.000000
20
394.000000
0
VERTEX
8
0
10
444.800000
20
395.900000
0
VERTEX
8
0
10
442.200000
20
401.100000
0
VERTEX
8
0
10
437.760000
20
409.820000
0
VERTEX
8
0
10
430.000000
20
421.000000
0
VERTEX
8
0
10
417.153846
20
431.230769
0
VERTEX
8
0
10
412.900000
20
433.800000
0
VERTEX
8
0
10
394.911765
20
440.647059
0
VERTEX
8
0
10
391.000000
20
442.000000
0
VERTEX
8
0
10
383.940000
20
441.420000
0
VERTEX
8
0
10
363.900000
20
437.300000
0
VERTEX
8
0
10
358.153846
20
434.769231
0
VERTEX
8
0
10
346.900000
20
428.200000
0
VERTEX
8
0
10
340.000000
20
422.000000
0
VERTEX
8
0
10
333.200000
20
412.900000
0
VERTEX
8
0
10
325.700000
20
398.100000
0
VERTEX
8
0
10
324.000000
20
394.000000
0
VERTEX
8
0
10
324.000000
20
367.000000
0
VERTEX
8
0
10
326.300000
20
361.100000
0
VERTEX
8
0
10
327.800000
20
357.900000
0
VERTEX
8
0
10
336.243902
20
343.195122
0
VERTEX
8
0
10
344.000000
20
334.000000
0
VERTEX
8
0
10
352.100000
20
329.200000
0
VERTEX
8
0
10
356.900000
20
326.800000
0
VERTEX
8
0
10
366.088235
20
322.352941
0
VERTEX
8
0
10
368.911765
20
321.647059
0
VERTEX
8
0
10
378.027586
20
320.468966
0
VERTEX
8
0
10
394.000000
20
320.000000
0
SEQEND
0
POLYLINE
8
0
6
CONTINUOUS
66
1
62
7
10
0.0
20
0.0
30
0.000000
0
VERTEX
8
0
10
72.000000
20
319.000000
0
VERTEX
8
0
10
75.000000
20
320.000000
0
VERTEX
8
0
10
80.230769
20
325.846154
0
VERTEX
8
0
10
82.000000
20
328.000000
0
VERTEX
8
0
10
82.000000
20
336.000000
0
VERTEX
8
0
10
81.000000
20
339.000000
0
VERTEX
8
0
10
77.000000
20
343.000000
0
VERTEX
8
0
10
70.000000
20
345.000000
0
VERTEX
8
0
10
67.000000
20
345.000000
0
VERTEX
8
0
10
61.000000
20
342.000000
0
VERTEX
8
0
10
56.000000
20
335.000000
0
VERTEX
8
0
10
57.000000
20
326.000000
0
VERTEX
8
0
10
62.000000
20
321.000000
0
VERTEX
8
0
10
69.088235
20
319.352941
0
VERTEX
8
0
10
72.000000
20
319.000000
0
SEQEND
0
POLYLINE
8
0
6
CONTINUOUS
66
1
62
7
10
0.0
20
0.0
30
0.000000
0
VERTEX
8
0
10
573.000000
20
317.000000
0
VERTEX
8
0
10
572.000000
20
318.000000
0
SEQEND
0
POLYLINE
8
0
6
CONTINUOUS
66
1
62
7
10
0.0
20
0.0
30
0.000000
0
VERTEX
8
0
10
572.000000
20
318.000000
0
VERTEX
8
0
10
570.000000
20
317.000000
0
VERTEX
8
0
10
572.000000
20
316.000000
0
VERTEX
8
0
10
573.000000
20
317.000000
0
SEQEND
0
POLYLINE
8
0
6
CONTINUOUS
66
1
62
7
10
0.0
20
0.0
30
0.000000
0
VERTEX
8
0
10
376.000000
20
449.000000
0
VERTEX
8
0
10
364.900000
20
445.200000
0
VERTEX
8
0
10
350.180000
20
437.760000
0
VERTEX
8
0
10
346.820000
20
435.240000
0
VERTEX
8
0
10
338.000000
20
429.000000
0
VERTEX
8
0
10
330.000000
20
421.000000
0
VERTEX
8
0
10
323.200000
20
408.900000
0
VERTEX
8
0
10
322.800000
20
408.100000
0
VERTEX
8
0
10
318.000000
20
395.000000
0
VERTEX
8
0
10
318.000000
20
371.000000
0
VERTEX
8
0
10
321.384615
20
357.076923
0
VERTEX
8
0
10
326.800000
20
344.900000
0
VERTEX
8
0
10
335.000000
20
334.000000
0
VERTEX
8
0
10
345.000000
20
324.000000
0
VERTEX
8
0
10
353.100000
20
320.200000
0
VERTEX
8
0
10
353.900000
20
319.800000
0
VERTEX
8
0
10
366.088235
20
315.352941
0
VERTEX
8
0
10
368.911765
20
314.647059
0
VERTEX
8
0
10
374.000000
20
313.000000
0
VERTEX
8
0
10
389.000000
20
313.000000
0
VERTEX
8
0
10
395.940000
20
314.420000
0
VERTEX
8
0
10
406.911765
20
316.352941
0
VERTEX
8
0
10
414.900000
20
320.200000
0
VERTEX
8
0
10
432.000000
20
331.000000
0
VERTEX
8
0
10
435.000000
20
325.000000
0
VERTEX
8
0
10
440.000000
20
322.000000
0
VERTEX
8
0
10
443.100000
20
322.800000
0
VERTEX
8
0
10
444.000000
20
323.000000
0
VERTEX
8
0
10
447.200000
20
326.900000
0
VERTEX
8
0
10
448.000000
20
328.000000
0
VERTEX
8
0
10
447.000000
20
332.000000
0
VERTEX
8
0
10
444.000000
20
335.000000
0
VERTEX
8
0
10
439.000000
20
336.000000
0
VERTEX
8
0
10
438.000000
20
337.000000
0
VERTEX
8
0
10
441.230769
20
342.846154
0
VERTEX
8
0
10
447.000000
20
351.000000
0
VERTEX
8
0
10
452.900000
20
345.800000
0
VERTEX
8
0
10
454.000000
20
345.000000
0
VERTEX
8
0
10
458.000000
20
345.000000
0
VERTEX
8
0
10
461.000000
20
348.000000
0
VERTEX
8
0
10
462.000000
20
354.000000
0
VERTEX
8
0
10
459.000000
20
359.000000
0
VERTEX
8
0
10
451.000000
20
359.000000
0
VERTEX
8
0
10
450.000000
20
360.000000
0
VERTEX
8
0
10
450.569231
20
367.053846
0
VERTEX
8
0
10
451.647059
20
375.088235
0
VERTEX
8
0
10
452.000000
20
378.000000
0
VERTEX
8
0
10
454.000000
20
380.000000
0
VERTEX
8
0
10
458.000000
20
377.000000
0
VERTEX
8
0
10
465.000000
20
377.000000
0
VERTEX
8
0
10
468.000000
20
383.000000
0
VERTEX
8
0
10
468.000000
20
385.000000
0
VERTEX
8
0
10
466.000000
20
389.000000
0
VERTEX
8
0
10
465.100000
20
389.200000
0
VERTEX
8
0
10
462.000000
20
391.000000
0
VERTEX
8
0
10
453.000000
20
390.000000
0
VERTEX
8
0
10
448.000000
20
403.000000
0
VERTEX
8
0
10
449.000000
20
404.000000
0
VERTEX
8
0
10
456.000000
20
404.000000
0
VERTEX
8
0
10
459.000000
20
407.000000
0
VERTEX
8
0
10
459.000000
20
415.000000
0
VERTEX
8
0
10
454.100000
20
417.300000
0
VERTEX
8
0
10
450.000000
20
418.000000
0
VERTEX
8
0
10
447.000000
20
416.000000
0
VERTEX
8
0
10
447.000000
20
415.000000
0
VERTEX
8
0
10
444.000000
20
412.000000
0
VERTEX
8
0
10
442.800000
20
413.900000
0
VERTEX
8
0
10
435.230769
20
425.153846
0
VERTEX
8
0
10
435.250000
20
426.750000
0
VERTEX
8
0
10
436.000000
20
427.000000
0
VERTEX
8
0
10
440.000000
20
428.000000
0
VERTEX
8
0
10
443.000000
20
431.000000
0
VERTEX
8
0
10
443.000000
20
438.000000
0
VERTEX
8
0
10
440.000000
20
442.000000
0
VERTEX
8
0
10
438.000000
20
443.000000
0
VERTEX
8
0
10
435.900000
20
442.200000
0
VERTEX
8
0
10
433.900000
20
441.200000
0
VERTEX
8
0
10
430.000000
20
438.000000
0
VERTEX
8
0
10
430.000000
20
433.000000
0
VERTEX
8
0
10
429.000000
20
432.000000
0
VERTEX
8
0
10
416.153846
20
440.230769
0
VERTEX
8
0
10
413.100000
20
442.200000
0
VERTEX
8
0
10
410.000000
20
444.000000
0
VERTEX
8
0
10
410.000000
20
446.000000
0
VERTEX
8
0
10
413.200000
20
450.900000
0
VERTEX
8
0
10
413.500000
20
452.000000
0
VERTEX
8
0
10
411.800000
20
455.900000
0
VERTEX
8
0
10
411.000000
20
458.000000
0
VERTEX
8
0
10
408.100000
20
460.200000
0
VERTEX
8
0
10
407.000000
20
461.000000
0
SEQEND
0
POLYLINE
8
0
6
CONTINUOUS
66
1
62
7
10
0.0
20
0.0
30
0.000000
0
VERTEX
8
0
10
477.000000
20
325.000000
0
VERTEX
8
0
10
469.820000
20
329.760000
0
VERTEX
8
0
10
464.000000
20
332.000000
0
VERTEX
8
0
10
459.000000
20
327.000000
0
VERTEX
8
0
10
457.000000
20
323.000000
0
VERTEX
8
0
10
457.000000
20
322.000000
0
VERTEX
8
0
10
466.846154
20
312.769231
0
VERTEX
8
0
10
469.000000
20
311.000000
0
VERTEX
8
0
10
472.000000
20
311.000000
0
VERTEX
8
0
10
474.000000
20
313.000000
0
VERTEX
8
0
10
470.000000
20
319.000000
0
VERTEX
8
0
10
470.000000
20
321.000000
0
VERTEX
8
0
10
472.000000
20
323.000000
0
VERTEX
8
0
10
474.100000
20
323.700000
0
VERTEX
8
0
10
477.000000
20
324.000000
0
SEQEND
0
POLYLINE
8
0
6
CONTINUOUS
66
1
62
7
10
0.0
20
0.0
30
0.000000
0
VERTEX
8
0
10
482.000000
20
306.000000
0
VERTEX
8
0
10
480.000000
20
306.000000
0
SEQEND
0
POLYLINE
8
0
6
CONTINUOUS
66
1
62
7
10
0.0
20
0.0
30
0.000000
0
VERTEX
8
0
10
482.000000
20
306.000000
0
VERTEX
8
0
10
485.411765
20
311.352941
0
VERTEX
8
0
10
481.769231
20
318.846154
0
VERTEX
8
0
10
480.000000
20
322.000000
0
SEQEND
0
POLYLINE
8
0
6
CONTINUOUS
66
1
62
7
10
0.0
20
0.0
30
0.000000
0
VERTEX
8
0
10
581.000000
20
306.000000
0
VERTEX
8
0
10
580.000000
20
307.000000
0
VERTEX
8
0
10
581.000000
20
308.000000
0
VERTEX
8
0
10
582.000000
20
307.000000
0
SEQEND
0
POLYLINE
8
0
6
CONTINUOUS
66
1
62
7
10
0.0
20
0.0
30
0.000000
0
VERTEX
8
0
10
581.000000
20
306.000000
0
VERTEX
8
0
10
582.000000
20
307.000000
0
SEQEND
0
POLYLINE
8
0
6
CONTINUOUS
66
1
62
7
10
0.0
20
0.0
30
0.000000
0
VERTEX
8
0
10
422.000000
20
305.000000
0
VERTEX
8
0
10
424.000000
20
306.000000
0
SEQEND
0
POLYLINE
8
0
6
CONTINUOUS
66
1
62
7
10
0.0
20
0.0
30
0.000000
0
VERTEX
8
0
10
425.000000
20
305.000000
0
VERTEX
8
0
10
424.000000
20
306.000000
0
SEQEND
0
POLYLINE
8
0
6
CONTINUOUS
66
1
62
7
10
0.0
20
0.0
30
0.000000
0
VERTEX
8
0
10
425.000000
20
305.000000
0
VERTEX
8
0
10
431.100000
20
307.800000
0
VERTEX
8
0
10
448.000000
20
321.000000
0
VERTEX
8
0
10
456.760000
20
333.180000
0
VERTEX
8
0
10
461.800000
20
343.100000
0
VERTEX
8
0
10
464.800000
20
349.100000
0
VERTEX
8
0
10
468.352941
20
357.911765
0
VERTEX
8
0
10
471.000000
20
375.000000
0
VERTEX
8
0
10
471.000000
20
395.000000
0
VERTEX
8
0
10
467.800000
20
403.900000
0
VERTEX
8
0
10
464.300000
20
413.100000
0
VERTEX
8
0
10
458.769231
20
423.846154
0
VERTEX
8
0
10
457.230769
20
426.153846
0
VERTEX
8
0
10
453.751724
20
431.779310
0
VERTEX
8
0
10
446.000000
20
441.000000
0
VERTEX
8
0
10
438.100000
20
448.200000
0
VERTEX
8
0
10
428.846154
20
453.769231
0
VERTEX
8
0
10
418.100000
20
459.300000
0
VERTEX
8
0
10
407.000000
20
462.000000
0
SEQEND
0
POLYLINE
8
0
6
CONTINUOUS
66
1
62
7
10
0.0
20
0.0
30
0.000000
0
VERTEX
8
0
10
420.000000
20
304.000000
0
VERTEX
8
0
10
417.088235
20
304.352941
0
VERTEX
8
0
10
413.000000
20
306.000000
0
VERTEX
8
0
10
412.800000
20
306.900000
0
VERTEX
8
0
10
412.000000
20
308.000000
0
VERTEX
8
0
10
412.000000
20
314.000000
0
VERTEX
8
0
10
414.000000
20
317.000000
0
VERTEX
8
0
10
416.000000
20
318.000000
0
VERTEX
8
0
10
420.000000
20
318.000000
0
VERTEX
8
0
10
424.000000
20
316.000000
0
VERTEX
8
0
10
426.000000
20
312.000000
0
VERTEX
8
0
10
424.000000
20
306.000000
0
SEQEND
0
POLYLINE
8
0
6
CONTINUOUS
66
1
62
7
10
0.0
20
0.0
30
0.000000
0
VERTEX
8
0
10
420.000000
20
304.000000
0
VERTEX
8
0
10
422.000000
20
305.000000
0
SEQEND
0
POLYLINE
8
0
6
CONTINUOUS
66
1
62
7
10
0.0
20
0.0
30
0.000000
0
VERTEX
8
0
10
423.000000
20
304.000000
0
VERTEX
8
0
10
422.000000
20
305.000000
0
SEQEND
0
POLYLINE
8
0
6
CONTINUOUS
66
1
62
7
10
0.0
20
0.0
30
0.000000
0
VERTEX
8
0
10
423.000000
20
304.000000
0
VERTEX
8
0
10
425.000000
20
305.000000
0
SEQEND
0
POLYLINE
8
0
6
CONTINUOUS
66
1
62
7
10
0.0
20
0.0
30
0.000000
0
VERTEX
8
0
10
574.000000
20
304.000000
0
VERTEX
8
0
10
573.000000
20
305.000000
0
VERTEX
8
0
10
574.000000
20
306.000000
0
VERTEX
8
0
10
575.000000
20
305.000000
0
SEQEND
0
POLYLINE
8
0
6
CONTINUOUS
66
1
62
7
10
0.0
20
0.0
30
0.000000
0
VERTEX
8
0
10
574.000000
20
304.000000
0
VERTEX
8
0
10
575.000000
20
305.000000
0
SEQEND
0
POLYLINE
8
0
6
CONTINUOUS
66
1
62
7
10
0.0
20
0.0
30
0.000000
0
VERTEX
8
0
10
421.000000
20
303.000000
0
VERTEX
8
0
10
420.000000
20
304.000000
0
SEQEND
0
POLYLINE
8
0
6
CONTINUOUS
66
1
62
7
10
0.0
20
0.0
30
0.000000
0
VERTEX
8
0
10
421.000000
20
303.000000
0
VERTEX
8
0
10
423.000000
20
304.000000
0
SEQEND
0
POLYLINE
8
0
6
CONTINUOUS
66
1
62
7
10
0.0
20
0.0
30
0.000000
0
VERTEX
8
0
10
367.000000
20
297.000000
0
VERTEX
8
0
10
366.000000
20
297.000000
0
SEQEND
0
POLYLINE
8
0
6
CONTINUOUS
66
1
62
7
10
0.0
20
0.0
30
0.000000
0
VERTEX
8
0
10
367.000000
20
297.000000
0
VERTEX
8
0
10
370.200000
20
300.900000
0
VERTEX
8
0
10
371.000000
20
302.000000
0
VERTEX
8
0
10
370.000000
20
309.000000
0
VERTEX
8
0
10
366.100000
20
311.200000
0
VERTEX
8
0
10
365.000000
20
312.000000
0
VERTEX
8
0
10
361.100000
20
310.800000
0
VERTEX
8
0
10
359.000000
20
310.000000
0
VERTEX
8
0
10
357.800000
20
308.100000
0
VERTEX
8
0
10
357.000000
20
307.000000
0
VERTEX
8
0
10
357.750000
20
299.250000
0
VERTEX
8
0
10
357.000000
20
299.000000
0
VERTEX
8
0
10
351.900000
20
300.800000
0
VERTEX
8
0
10
345.900000
20
303.800000
0
VERTEX
8
0
10
335.000000
20
309.000000
0
VERTEX
8
0
10
333.000000
20
311.000000
0
VERTEX
8
0
10
334.000000
20
313.000000
0
VERTEX
8
0
10
335.000000
20
312.000000
0
VERTEX
8
0
10
339.000000
20
313.000000
0
VERTEX
8
0
10
341.200000
20
315.900000
0
VERTEX
8
0
10
342.000000
20
317.000000
0
VERTEX
8
0
10
342.000000
20
320.000000
0
VERTEX
8
0
10
340.700000
20
322.900000
0
VERTEX
8
0
10
340.000000
20
325.000000
0
VERTEX
8
0
10
336.000000
20
327.000000
0
VERTEX
8
0
10
331.000000
20
326.000000
0
VERTEX
8
0
10
329.700000
20
323.100000
0
VERTEX
8
0
10
329.000000
20
318.000000
0
VERTEX
8
0
10
328.000000
20
317.000000
0
VERTEX
8
0
10
326.000000
20
317.000000
0
VERTEX
8
0
10
317.000000
20
326.000000
0
VERTEX
8
0
10
312.230769
20
333.153846
0
VERTEX
8
0
10
311.000000
20
335.000000
0
SEQEND
0
POLYLINE
8
0
6
CONTINUOUS
66
1
62
7
10
0.0
20
0.0
30
0.000000
0
VERTEX
8
0
10
396.000000
20
297.000000
0
VERTEX
8
0
10
399.000000
20
299.000000
0
VERTEX
8
0
10
399.000000
20
305.000000
0
VERTEX
8
0
10
397.000000
20
309.000000
0
VERTEX
8
0
10
393.000000
20
312.000000
0
VERTEX
8
0
10
389.900000
20
311.200000
0
VERTEX
8
0
10
389.000000
20
311.000000
0
VERTEX
8
0
10
385.800000
20
307.100000
0
VERTEX
8
0
10
385.000000
20
306.000000
0
VERTEX
8
0
10
386.000000
20
300.000000
0
VERTEX
8
0
10
388.000000
20
298.000000
0
VERTEX
8
0
10
391.067568
20
297.405405
0
VERTEX
8
0
10
396.000000
20
297.000000
0
SEQEND
0
POLYLINE
8
0
6
CONTINUOUS
66
1
62
7
10
0.0
20
0.0
30
0.000000
0
VERTEX
8
0
10
449.000000
20
297.000000
0
VERTEX
8
0
10
450.000000
20
299.000000
0
VERTEX
8
0
10
455.000000
20
303.000000
0
VERTEX
8
0
10
456.000000
20
301.000000
0
VERTEX
8
0
10
459.900000
20
298.800000
0
VERTEX
8
0
10
462.000000
20
298.000000
0
VERTEX
8
0
10
463.200000
20
299.900000
0
VERTEX
8
0
10
464.000000
20
301.000000
0
VERTEX
8
0
10
464.000000
20
306.000000
0
VERTEX
8
0
10
461.754098
20
308.795082
0
VERTEX
8
0
10
454.000000
20
318.000000
0
VERTEX
8
0
10
451.195122
20
315.756098
0
VERTEX
8
0
10
446.000000
20
312.000000
0
VERTEX
8
0
10
442.800000
20
308.100000
0
VERTEX
8
0
10
442.000000
20
307.000000
0
VERTEX
8
0
10
445.243902
20
301.195122
0
VERTEX
8
0
10
449.000000
20
297.000000
0
SEQEND
0
POLYLINE
8
0
6
CONTINUOUS
66
1
62
7
10
0.0
20
0.0
30
0.000000
0
VERTEX
8
0
10
449.000000
20
296.000000
0
VERTEX
8
0
10
449.000000
20
297.000000
0
SEQEND
0
POLYLINE
8
0
6
CONTINUOUS
66
1
62
7
10
0.0
20
0.0
30
0.000000
0
VERTEX
8
0
10
486.000000
20
295.000000
0
VERTEX
8
0
10
484.000000
20
295.000000
0
SEQEND
0
POLYLINE
8
0
6
CONTINUOUS
66
1
62
7
10
0.0
20
0.0
30
0.000000
0
VERTEX
8
0
10
486.000000
20
295.000000
0
VERTEX
8
0
10
500.000000
20
299.000000
0
VERTEX
8
0
10
500.000000
20
302.000000
0
VERTEX
8
0
10
498.100000
20
303.200000
0
VERTEX
8
0
10
489.946154
20
305.569231
0
VERTEX
8
0
10
482.000000
20
306.000000
0
SEQEND
0
POLYLINE
8
0
6
CONTINUOUS
66
1
62
7
10
0.0
20
0.0
30
0.000000
0
VERTEX
8
0
10
545.000000
20
295.000000
0
VERTEX
8
0
10
539.760000
20
304.820000
0
VERTEX
8
0
10
533.000000
20
313.000000
0
VERTEX
8
0
10
524.783186
20
319.752212
0
VERTEX
8
0
10
515.900000
20
325.800000
0
VERTEX
8
0
10
515.100000
20
326.200000
0
VERTEX
8
0
10
476.000000
20
345.000000
0
VERTEX
8
0
10
475.800000
20
345.900000
0
VERTEX
8
0
10
475.000000
20
347.000000
0
VERTEX
8
0
10
477.000000
20
348.000000
0
VERTEX
8
0
10
493.900000
20
341.800000
0
VERTEX
8
0
10
499.900000
20
339.700000
0
VERTEX
8
0
10
523.000000
20
331.000000
0
VERTEX
8
0
10
546.000000
20
331.000000
0
VERTEX
8
0
10
549.900000
20
333.200000
0
VERTEX
8
0
10
551.100000
20
333.700000
0
VERTEX
8
0
10
559.000000
20
336.000000
0
VERTEX
8
0
10
560.000000
20
335.000000
0
VERTEX
8
0
10
553.000000
20
327.000000
0
VERTEX
8
0
10
552.000000
20
327.000000
0
VERTEX
8
0
10
550.000000
20
325.000000
0
VERTEX
8
0
10
551.000000
20
324.000000
0
VERTEX
8
0
10
553.000000
20
324.000000
0
VERTEX
8
0
10
568.100000
20
326.800000
0
VERTEX
8
0
10
568.900000
20
327.200000
0
VERTEX
8
0
10
572.000000
20
329.000000
0
VERTEX
8
0
10
575.000000
20
336.000000
0
VERTEX
8
0
10
568.000000
20
340.000000
0
VERTEX
8
0
10
567.800000
20
340.900000
0
VERTEX
8
0
10
566.000000
20
344.000000
0
VERTEX
8
0
10
566.000000
20
349.000000
0
VERTEX
8
0
10
568.000000
20
352.000000
0
VERTEX
8
0
10
574.000000
20
355.000000
0
VERTEX
8
0
10
575.088235
20
354.352941
0
VERTEX
8
0
10
583.000000
20
351.000000
0
VERTEX
8
0
10
586.000000
20
348.000000
0
VERTEX
8
0
10
588.000000
20
342.000000
0
VERTEX
8
0
10
588.000000
20
337.000000
0
VERTEX
8
0
10
585.000000
20
329.000000
0
VERTEX
8
0
10
572.000000
20
318.000000
0
SEQEND
0
POLYLINE
8
0
6
CONTINUOUS
66
1
62
7
10
0.0
20
0.0
30
0.000000
0
VERTEX
8
0
10
367.000000
20
297.000000
0
VERTEX
8
0
10
368.088235
20
296.352941
0
VERTEX
8
0
10
384.000000
20
294.000000
0
VERTEX
8
0
10
395.000000
20
294.000000
0
VERTEX
8
0
10
415.900000
20
300.300000
0
VERTEX
8
0
10
421.000000
20
303.000000
0
SEQEND
0
POLYLINE
8
0
6
CONTINUOUS
66
1
62
7
10
0.0
20
0.0
30
0.000000
0
VERTEX
8
0
10
545.000000
20
294.000000
0
VERTEX
8
0
10
545.000000
20
295.000000
0
SEQEND
0
POLYLINE
8
0
6
CONTINUOUS
66
1
62
7
10
0.0
20
0.0
30
0.000000
0
VERTEX
8
0
10
582.000000
20
307.000000
0
VERTEX
8
0
10
587.846154
20
304.769231
0
VERTEX
8
0
10
590.153846
20
303.230769
0
VERTEX
8
0
10
602.100000
20
294.700000
0
VERTEX
8
0
10
609.900000
20
298.200000
0
VERTEX
8
0
10
615.000000
20
301.000000
0
VERTEX
8
0
10
615.000000
20
302.000000
0
VERTEX
8
0
10
606.000000
20
314.000000
0
VERTEX
8
0
10
600.000000
20
314.000000
0
VERTEX
8
0
10
593.060000
20
312.580000
0
VERTEX
8
0
10
592.000000
20
312.000000
0
VERTEX
8
0
10
583.000000
20
312.000000
0
VERTEX
8
0
10
582.000000
20
313.000000
0
VERTEX
8
0
10
584.900000
20
315.200000
0
VERTEX
8
0
10
588.100000
20
316.800000
0
VERTEX
8
0
10
595.000000
20
320.000000
0
VERTEX
8
0
10
598.000000
20
323.000000
0
VERTEX
8
0
10
609.000000
20
343.000000
0
VERTEX
8
0
10
608.000000
20
344.000000
0
VERTEX
8
0
10
600.153846
20
340.769231
0
VERTEX
8
0
10
597.000000
20
339.000000
0
VERTEX
8
0
10
590.754098
20
331.204918
0
VERTEX
8
0
10
586.000000
20
325.000000
0
VERTEX
8
0
10
582.153846
20
321.769231
0
VERTEX
8
0
10
573.000000
20
317.000000
0
SEQEND
0
POLYLINE
8
0
6
CONTINUOUS
66
1
62
7
10
0.0
20
0.0
30
0.000000
0
VERTEX
8
0
10
479.000000
20
290.000000
0
VERTEX
8
0
10
479.000000
20
292.000000
0
SEQEND
0
POLYLINE
8
0
6
CONTINUOUS
66
1
62
7
10
0.0
20
0.0
30
0.000000
0
VERTEX
8
0
10
310.000000
20
287.000000
0
VERTEX
8
0
10
309.000000
20
287.000000
0
SEQEND
0
POLYLINE
8
0
6
CONTINUOUS
66
1
62
7
10
0.0
20
0.0
30
0.000000
0
VERTEX
8
0
10
360.000000
20
287.000000
0
VERTEX
8
0
10
360.000000
20
290.000000
0
SEQEND
0
POLYLINE
8
0
6
CONTINUOUS
66
1
62
7
10
0.0
20
0.0
30
0.000000
0
VERTEX
8
0
10
201.000000
20
285.000000
0
VERTEX
8
0
10
199.000000
20
285.000000
0
SEQEND
0
POLYLINE
8
0
6
CONTINUOUS
66
1
62
7
10
0.0
20
0.0
30
0.000000
0
VERTEX
8
0
10
79.000000
20
278.000000
0
VERTEX
8
0
10
83.000000
20
280.000000
0
VERTEX
8
0
10
87.230769
20
284.846154
0
VERTEX
8
0
10
90.000000
20
290.000000
0
VERTEX
8
0
10
89.200000
20
293.100000
0
VERTEX
8
0
10
85.000000
20
302.000000
0
VERTEX
8
0
10
83.000000
20
304.000000
0
VERTEX
8
0
10
74.000000
20
305.000000
0
VERTEX
8
0
10
68.000000
20
302.000000
0
VERTEX
8
0
10
64.800000
20
298.100000
0
VERTEX
8
0
10
63.000000
20
295.000000
0
VERTEX
8
0
10
63.000000
20
287.000000
0
VERTEX
8
0
10
65.000000
20
282.000000
0
VERTEX
8
0
10
66.846154
20
280.769231
0
VERTEX
8
0
10
71.048780
20
278.439024
0
VERTEX
8
0
10
79.000000
20
278.000000
0
SEQEND
0
POLYLINE
8
0
6
CONTINUOUS
66
1
62
7
10
0.0
20
0.0
30
0.000000
0
VERTEX
8
0
10
415.000000
20
278.000000
0
VERTEX
8
0
10
416.000000
20
279.000000
0
SEQEND
0
POLYLINE
8
0
6
CONTINUOUS
66
1
62
7
10
0.0
20
0.0
30
0.000000
0
VERTEX
8
0
10
479.000000
20
290.000000
0
VERTEX
8
0
10
481.000000
20
281.000000
0
VERTEX
8
0
10
483.000000
20
279.000000
0
VERTEX
8
0
10
494.750000
20
278.250000
0
VERTEX
8
0
10
494.560976
20
286.951220
0
VERTEX
8
0
10
494.000000
20
290.000000
0
VERTEX
8
0
10
488.153846
20
293.230769
0
VERTEX
8
0
10
486.000000
20
295.000000
0
SEQEND
0
POLYLINE
8
0
6
CONTINUOUS
66
1
62
7
10
0.0
20
0.0
30
0.000000
0
VERTEX
8
0
10
545.000000
20
295.000000
0
VERTEX
8
0
10
548.000000
20
305.000000
0
VERTEX
8
0
10
548.000000
20
308.000000
0
VERTEX
8
0
10
546.800000
20
309.900000
0
VERTEX
8
0
10
544.000000
20
316.000000
0
VERTEX
8
0
10
545.000000
20
317.000000
0
VERTEX
8
0
10
551.000000
20
314.000000
0
VERTEX
8
0
10
560.240000
20
303.180000
0
VERTEX
8
0
10
562.558824
20
299.735294
0
VERTEX
8
0
10
564.000000
20
295.000000
0
VERTEX
8
0
10
563.750000
20
294.250000
0
VERTEX
8
0
10
559.076923
20
293.615385
0
VERTEX
8
0
10
557.900000
20
293.300000
0
VERTEX
8
0
10
554.000000
20
292.000000
0
VERTEX
8
0
10
552.000000
20
290.000000
0
VERTEX
8
0
10
552.000000
20
284.000000
0
VERTEX
8
0
10
553.200000
20
282.100000
0
VERTEX
8
0
10
554.000000
20
280.000000
0
VERTEX
8
0
10
555.900000
20
278.800000
0
VERTEX
8
0
10
557.900000
20
277.800000
0
VERTEX
8
0
10
559.000000
20
277.000000
0
VERTEX
8
0
10
565.000000
20
277.000000
0
VERTEX
8
0
10
572.000000
20
281.000000
0
VERTEX
8
0
10
573.300000
20
283.900000
0
VERTEX
8
0
10
574.352941
20
287.911765
0
VERTEX
8
0
10
575.000000
20
289.000000
0
VERTEX
8
0
10
574.000000
20
304.000000
0
SEQEND
0
POLYLINE
8
0
6
CONTINUOUS
66
1
62
7
10
0.0
20
0.0
30
0.000000
0
VERTEX
8
0
10
697.000000
20
277.000000
0
VERTEX
8
0
10
700.846154
20
279.230769
0
VERTEX
8
0
10
705.000000
20
282.000000
0
VERTEX
8
0
10
707.300000
20
287.900000
0
VERTEX
8
0
10
708.000000
20
289.000000
0
VERTEX
8
0
10
708.000000
20
293.000000
0
VERTEX
8
0
10
706.647059
20
296.911765
0
VERTEX
8
0
10
706.200000
20
298.100000
0
VERTEX
8
0
10
703.000000
20
303.000000
0
VERTEX
8
0
10
698.000000
20
306.000000
0
VERTEX
8
0
10
689.076923
20
304.615385
0
VERTEX
8
0
10
685.000000
20
303.000000
0
VERTEX
8
0
10
682.800000
20
299.100000
0
VERTEX
8
0
10
680.700000
20
294.100000
0
VERTEX
8
0
10
680.000000
20
290.000000
0
VERTEX
8
0
10
682.800000
20
283.900000
0
VERTEX
8
0
10
687.000000
20
279.000000
0
VERTEX
8
0
10
687.900000
20
278.800000
0
VERTEX
8
0
10
691.060000
20
277.420000
0
VERTEX
8
0
10
697.000000
20
277.000000
0
SEQEND
0
POLYLINE
8
0
6
CONTINUOUS
66
1
62
7
10
0.0
20
0.0
30
0.000000
0
VERTEX
8
0
10
416.000000
20
279.000000
0
VERTEX
8
0
10
413.200000
20
285.100000
0
VERTEX
8
0
10
411.000000
20
289.000000
0
VERTEX
8
0
10
409.000000
20
290.000000
0
VERTEX
8
0
10
402.911765
20
289.352941
0
VERTEX
8
0
10
400.000000
20
289.000000
0
VERTEX
8
0
10
398.000000
20
287.000000
0
VERTEX
8
0
10
398.700000
20
283.900000
0
VERTEX
8
0
10
399.800000
20
280.900000
0
VERTEX
8
0
10
404.000000
20
275.000000
0
VERTEX
8
0
10
404.900000
20
274.800000
0
VERTEX
8
0
10
407.900000
20
275.200000
0
VERTEX
8
0
10
409.100000
20
275.800000
0
VERTEX
8
0
10
415.000000
20
278.000000
0
SEQEND
0
POLYLINE
8
0
6
CONTINUOUS
66
1
62
7
10
0.0
20
0.0
30
0.000000
0
VERTEX
8
0
10
575.000000
20
305.000000
0
VERTEX
8
0
10
577.800000
20
299.900000
0
VERTEX
8
0
10
579.549180
20
290.959016
0
VERTEX
8
0
10
580.450820
20
281.040984
0
VERTEX
8
0
10
584.000000
20
271.000000
0
VERTEX
8
0
10
586.900000
20
268.800000
0
VERTEX
8
0
10
588.000000
20
268.000000
0
VERTEX
8
0
10
590.000000
20
270.000000
0
VERTEX
8
0
10
590.000000
20
273.000000
0
VERTEX
8
0
10
589.000000
20
274.000000
0
VERTEX
8
0
10
591.000000
20
294.000000
0
VERTEX
8
0
10
581.000000
20
306.000000
0
SEQEND
0
POLYLINE
8
0
6
CONTINUOUS
66
1
62
7
10
0.0
20
0.0
30
0.000000
0
VERTEX
8
0
10
399.000000
20
258.000000
0
VERTEX
8
0
10
398.000000
20
259.000000
0
SEQEND
0
POLYLINE
8
0
6
CONTINUOUS
66
1
62
7
10
0.0
20
0.0
30
0.000000
0
VERTEX
8
0
10
399.000000
20
257.000000
0
VERTEX
8
0
10
399.000000
20
258.000000
0
SEQEND
0
POLYLINE
8
0
6
CONTINUOUS
66
1
62
7
10
0.0
20
0.0
30
0.000000
0
VERTEX
8
0
10
479.000000
20
290.000000
0
VERTEX
8
0
10
477.000000
20
289.000000
0
VERTEX
8
0
10
473.352941
20
276.911765
0
VERTEX
8
0
10
473.000000
20
274.000000
0
VERTEX
8
0
10
471.000000
20
272.000000
0
VERTEX
8
0
10
469.000000
20
273.000000
0
VERTEX
8
0
10
467.000000
20
275.000000
0
VERTEX
8
0
10
465.458824
20
279.035294
0
VERTEX
8
0
10
465.000000
20
291.000000
0
VERTEX
8
0
10
464.000000
20
292.000000
0
VERTEX
8
0
10
460.100000
20
289.800000
0
VERTEX
8
0
10
458.900000
20
289.200000
0
VERTEX
8
0
10
455.900000
20
288.800000
0
VERTEX
8
0
10
455.100000
20
289.200000
0
VERTEX
8
0
10
454.000000
20
290.000000
0
VERTEX
8
0
10
453.000000
20
289.000000
0
VERTEX
8
0
10
453.800000
20
286.900000
0
VERTEX
8
0
10
454.800000
20
284.900000
0
VERTEX
8
0
10
468.000000
20
265.000000
0
VERTEX
8
0
10
472.000000
20
261.000000
0
VERTEX
8
0
10
481.000000
20
256.000000
0
VERTEX
8
0
10
492.100000
20
258.800000
0
VERTEX
8
0
10
493.000000
20
259.000000
0
VERTEX
8
0
10
494.230769
20
260.846154
0
VERTEX
8
0
10
497.647059
20
267.088235
0
VERTEX
8
0
10
499.000000
20
277.000000
0
VERTEX
8
0
10
503.900000
20
279.300000
0
VERTEX
8
0
10
508.000000
20
281.000000
0
VERTEX
8
0
10
511.000000
20
284.000000
0
VERTEX
8
0
10
511.300000
20
285.900000
0
VERTEX
8
0
10
513.000000
20
289.000000
0
VERTEX
8
0
10
513.000000
20
296.000000
0
VERTEX
8
0
10
509.769231
20
301.846154
0
VERTEX
8
0
10
504.000000
20
310.000000
0
VERTEX
8
0
10
485.900000
20
320.800000
0
VERTEX
8
0
10
481.000000
20
323.000000
0
SEQEND
0
POLYLINE
8
0
6
CONTINUOUS
66
1
62
7
10
0.0
20
0.0
30
0.000000
0
VERTEX
8
0
10
391.000000
20
255.000000
0
VERTEX
8
0
10
390.000000
20
256.000000
0
SEQEND
0
POLYLINE
8
0
6
CONTINUOUS
66
1
62
7
10
0.0
20
0.0
30
0.000000
0
VERTEX
8
0
10
391.000000
20
255.000000
0
VERTEX
8
0
10
392.000000
20
256.000000
0
VERTEX
8
0
10
391.000000
20
257.000000
0
VERTEX
8
0
10
390.000000
20
256.000000
0
SEQEND
0
POLYLINE
8
0
6
CONTINUOUS
66
1
62
7
10
0.0
20
0.0
30
0.000000
0
VERTEX
8
0
10
539.000000
20
338.000000
0
VERTEX
8
0
10
538.100000
20
338.200000
0
VERTEX
8
0
10
523.911765
20
338.647059
0
VERTEX
8
0
10
521.088235
20
339.352941
0
VERTEX
8
0
10
475.900000
20
351.700000
0
VERTEX
8
0
10
473.250000
20
351.750000
0
VERTEX
8
0
10
471.615385
20
345.076923
0
VERTEX
8
0
10
471.000000
20
342.000000
0
VERTEX
8
0
10
504.900000
20
324.800000
0
VERTEX
8
0
10
510.100000
20
322.200000
0
VERTEX
8
0
10
518.000000
20
317.000000
0
VERTEX
8
0
10
523.000000
20
312.000000
0
VERTEX
8
0
10
528.800000
20
303.900000
0
VERTEX
8
0
10
529.200000
20
303.100000
0
VERTEX
8
0
10
533.000000
20
293.000000
0
VERTEX
8
0
10
531.000000
20
281.000000
0
VERTEX
8
0
10
547.804878
20
267.756098
0
VERTEX
8
0
10
556.846154
20
260.769231
0
VERTEX
8
0
10
568.100000
20
255.300000
0
VERTEX
8
0
10
587.000000
20
249.000000
0
VERTEX
8
0
10
597.000000
20
249.000000
0
VERTEX
8
0
10
602.100000
20
250.700000
0
VERTEX
8
0
10
610.000000
20
255.000000
0
VERTEX
8
0
10
613.200000
20
259.900000
0
VERTEX
8
0
10
617.352941
20
269.911765
0
VERTEX
8
0
10
618.541176
20
278.035294
0
VERTEX
8
0
10
619.000000
20
290.000000
0
VERTEX
8
0
10
621.000000
20
292.000000
0
VERTEX
8
0
10
622.000000
20
292.000000
0
VERTEX
8
0
10
624.230769
20
294.846154
0
VERTEX
8
0
10
626.000000
20
297.000000
0
VERTEX
8
0
10
624.000000
20
305.000000
0
VERTEX
8
0
10
628.230769
20
309.846154
0
VERTEX
8
0
10
632.580000
20
317.060000
0
VERTEX
8
0
10
633.420000
20
322.940000
0
VERTEX
8
0
10
634.000000
20
330.000000
0
VERTEX
8
0
10
632.700000
20
332.900000
0
VERTEX
8
0
10
631.647059
20
336.911765
0
VERTEX
8
0
10
626.800000
20
345.900000
0
VERTEX
8
0
10
626.200000
20
347.100000
0
VERTEX
8
0
10
622.000000
20
352.000000
0
VERTEX
8
0
10
618.100000
20
354.200000
0
VERTEX
8
0
10
611.932432
20
356.594595
0
VERTEX
8
0
10
598.048780
20
358.439024
0
VERTEX
8
0
10
568.000000
20
362.000000
0
VERTEX
8
0
10
559.000000
20
362.000000
0
VERTEX
8
0
10
555.000000
20
359.000000
0
VERTEX
8
0
10
554.300000
20
356.900000
0
VERTEX
8
0
10
547.000000
20
342.000000
0
VERTEX
8
0
10
539.000000
20
339.000000
0
VERTEX
8
0
10
539.000000
20
338.000000
0
SEQEND
0
POLYLINE
8
0
6
CONTINUOUS
66
1
62
7
10
0.0
20
0.0
30
0.000000
0
VERTEX
8
0
10
399.000000
20
258.000000
0
VERTEX
8
0
10
404.900000
20
256.700000
0
VERTEX
8
0
10
411.804878
20
251.756098
0
VERTEX
8
0
10
416.000000
20
248.000000
0
VERTEX
8
0
10
418.000000
20
249.000000
0
VERTEX
8
0
10
416.000000
20
255.000000
0
VERTEX
8
0
10
405.000000
20
265.000000
0
VERTEX
8
0
10
406.000000
20
266.000000
0
VERTEX
8
0
10
411.000000
20
267.000000
0
VERTEX
8
0
10
414.000000
20
270.000000
0
VERTEX
8
0
10
415.000000
20
278.000000
0
SEQEND
0
POLYLINE
8
0
6
CONTINUOUS
66
1
62
7
10
0.0
20
0.0
30
0.000000
0
VERTEX
8
0
10
309.000000
20
287.000000
0
VERTEX
8
0
10
307.100000
20
288.200000
0
VERTEX
8
0
10
289.000000
20
292.000000
0
VERTEX
8
0
10
289.000000
20
295.000000
0
VERTEX
8
0
10
291.000000
20
297.000000
0
VERTEX
8
0
10
307.750000
20
298.250000
0
VERTEX
8
0
10
308.000000
20
299.000000
0
VERTEX
8
0
10
309.000000
20
311.000000
0
VERTEX
8
0
10
312.000000
20
314.000000
0
VERTEX
8
0
10
315.100000
20
313.200000
0
VERTEX
8
0
10
316.000000
20
313.000000
0
VERTEX
8
0
10
317.200000
20
311.100000
0
VERTEX
8
0
10
317.647059
20
309.911765
0
VERTEX
8
0
10
318.000000
20
307.000000
0
VERTEX
8
0
10
320.000000
20
305.000000
0
VERTEX
8
0
10
321.000000
20
305.000000
0
VERTEX
8
0
10
325.000000
20
308.000000
0
VERTEX
8
0
10
315.000000
20
319.000000
0
VERTEX
8
0
10
301.900000
20
311.200000
0
VERTEX
8
0
10
290.846154
20
304.230769
0
VERTEX
8
0
10
283.000000
20
300.000000
0
VERTEX
8
0
10
279.000000
20
296.000000
0
VERTEX
8
0
10
272.000000
20
285.000000
0
VERTEX
8
0
10
272.000000
20
277.000000
0
VERTEX
8
0
10
277.000000
20
270.000000
0
VERTEX
8
0
10
296.000000
20
265.000000
0
VERTEX
8
0
10
298.000000
20
263.000000
0
VERTEX
8
0
10
298.647059
20
259.911765
0
VERTEX
8
0
10
303.000000
20
249.000000
0
VERTEX
8
0
10
305.900000
20
246.800000
0
VERTEX
8
0
10
307.000000
20
246.000000
0
VERTEX
8
0
10
314.000000
20
246.000000
0
VERTEX
8
0
10
319.820000
20
248.240000
0
VERTEX
8
0
10
326.000000
20
253.000000
0
VERTEX
8
0
10
331.230769
20
260.846154
0
VERTEX
8
0
10
337.700000
20
271.100000
0
VERTEX
8
0
10
340.700000
20
279.100000
0
VERTEX
8
0
10
347.000000
20
295.000000
0
VERTEX
8
0
10
341.180000
20
298.240000
0
VERTEX
8
0
10
333.000000
20
304.000000
0
VERTEX
8
0
10
332.000000
20
304.000000
0
VERTEX
8
0
10
330.000000
20
302.000000
0
VERTEX
8
0
10
330.000000
20
299.000000
0
VERTEX
8
0
10
331.000000
20
297.000000
0
VERTEX
8
0
10
332.900000
20
295.800000
0
VERTEX
8
0
10
334.000000
20
295.000000
0
VERTEX
8
0
10
336.000000
20
296.000000
0
VERTEX
8
0
10
337.000000
20
296.000000
0
VERTEX
8
0
10
341.000000
20
291.000000
0
VERTEX
8
0
10
341.000000
20
290.000000
0
VERTEX
8
0
10
337.000000
20
285.000000
0
VERTEX
8
0
10
332.000000
20
285.000000
0
VERTEX
8
0
10
330.100000
20
286.200000
0
VERTEX
8
0
10
328.900000
20
286.800000
0
VERTEX
8
0
10
323.000000
20
293.000000
0
VERTEX
8
0
10
321.000000
20
292.000000
0
VERTEX
8
0
10
326.000000
20
279.000000
0
VERTEX
8
0
10
323.200000
20
267.900000
0
VERTEX
8
0
10
323.000000
20
267.000000
0
VERTEX
8
0
10
322.000000
20
266.000000
0
VERTEX
8
0
10
321.250000
20
266.250000
0
VERTEX
8
0
10
320.594595
20
271.932432
0
VERTEX
8
0
10
319.200000
20
275.100000
0
VERTEX
8
0
10
316.000000
20
281.000000
0
VERTEX
8
0
10
313.000000
20
284.000000
0
VERTEX
8
0
10
312.000000
20
283.000000
0
VERTEX
8
0
10
312.000000
20
281.000000
0
VERTEX
8
0
10
313.000000
20
280.000000
0
VERTEX
8
0
10
313.000000
20
273.000000
0
VERTEX
8
0
10
312.000000
20
271.000000
0
VERTEX
8
0
10
309.100000
20
268.800000
0
VERTEX
8
0
10
307.900000
20
268.200000
0
VERTEX
8
0
10
300.000000
20
266.000000
0
VERTEX
8
0
10
298.000000
20
268.000000
0
VERTEX
8
0
10
298.000000
20
277.000000
0
VERTEX
8
0
10
299.000000
20
281.000000
0
VERTEX
8
0
10
304.900000
20
285.200000
0
VERTEX
8
0
10
309.000000
20
287.000000
0
SEQEND
0
POLYLINE
8
0
6
CONTINUOUS
66
1
62
7
10
0.0
20
0.0
30
0.000000
0
VERTEX
8
0
10
199.000000
20
285.000000
0
VERTEX
8
0
10
198.000000
20
285.000000
0
VERTEX
8
0
10
184.000000
20
282.000000
0
VERTEX
8
0
10
182.800000
20
280.100000
0
VERTEX
8
0
10
176.000000
20
266.000000
0
VERTEX
8
0
10
177.000000
20
265.000000
0
VERTEX
8
0
10
194.000000
20
262.000000
0
VERTEX
8
0
10
196.000000
20
263.000000
0
VERTEX
8
0
10
201.230769
20
270.846154
0
VERTEX
8
0
10
205.000000
20
277.000000
0
VERTEX
8
0
10
207.000000
20
275.000000
0
VERTEX
8
0
10
208.594595
20
259.932432
0
VERTEX
8
0
10
211.000000
20
244.000000
0
VERTEX
8
0
10
212.000000
20
243.000000
0
VERTEX
8
0
10
213.000000
20
244.000000
0
VERTEX
8
0
10
215.615385
20
250.076923
0
VERTEX
8
0
10
218.000000
20
279.000000
0
VERTEX
8
0
10
219.000000
20
280.000000
0
VERTEX
8
0
10
221.000000
20
278.000000
0
VERTEX
8
0
10
221.594595
20
271.932432
0
VERTEX
8
0
10
222.700000
20
265.900000
0
VERTEX
8
0
10
226.000000
20
260.000000
0
VERTEX
8
0
10
229.000000
20
257.000000
0
VERTEX
8
0
10
236.000000
20
254.000000
0
VERTEX
8
0
10
239.100000
20
254.700000
0
VERTEX
8
0
10
246.000000
20
258.000000
0
VERTEX
8
0
10
247.000000
20
259.000000
0
VERTEX
8
0
10
247.000000
20
264.000000
0
VERTEX
8
0
10
245.800000
20
265.900000
0
VERTEX
8
0
10
244.000000
20
269.000000
0
VERTEX
8
0
10
235.000000
20
269.000000
0
VERTEX
8
0
10
232.000000
20
272.000000
0
VERTEX
8
0
10
231.352941
20
275.088235
0
VERTEX
8
0
10
230.000000
20
279.000000
0
VERTEX
8
0
10
231.000000
20
288.000000
0
VERTEX
8
0
10
232.000000
20
289.000000
0
VERTEX
8
0
10
234.000000
20
289.000000
0
VERTEX
8
0
10
239.000000
20
281.000000
0
VERTEX
8
0
10
241.000000
20
283.000000
0
VERTEX
8
0
10
241.700000
20
287.100000
0
VERTEX
8
0
10
245.230769
20
294.846154
0
VERTEX
8
0
10
249.000000
20
300.000000
0
VERTEX
8
0
10
255.100000
20
302.800000
0
VERTEX
8
0
10
269.900000
20
311.200000
0
VERTEX
8
0
10
297.100000
20
325.800000
0
VERTEX
8
0
10
298.000000
20
326.000000
0
VERTEX
8
0
10
302.000000
20
330.000000
0
VERTEX
8
0
10
301.000000
20
331.000000
0
VERTEX
8
0
10
298.911765
20
330.352941
0
VERTEX
8
0
10
294.911765
20
329.352941
0
VERTEX
8
0
10
275.100000
20
320.800000
0
VERTEX
8
0
10
267.900000
20
317.200000
0
VERTEX
8
0
10
250.911765
20
312.352941
0
VERTEX
8
0
10
248.088235
20
311.647059
0
VERTEX
8
0
10
243.000000
20
310.000000
0
VERTEX
8
0
10
236.000000
20
310.000000
0
VERTEX
8
0
10
222.000000
20
313.000000
0
VERTEX
8
0
10
221.000000
20
312.000000
0
VERTEX
8
0
10
221.800000
20
309.900000
0
VERTEX
8
0
10
222.000000
20
309.000000
0
VERTEX
8
0
10
224.820000
20
306.760000
0
VERTEX
8
0
10
229.000000
20
304.000000
0
VERTEX
8
0
10
230.000000
20
303.000000
0
VERTEX
8
0
10
227.000000
20
301.000000
0
VERTEX
8
0
10
222.911765
20
301.647059
0
VERTEX
8
0
10
214.000000
20
305.000000
0
VERTEX
8
0
10
212.000000
20
307.000000
0
VERTEX
8
0
10
215.000000
20
310.000000
0
VERTEX
8
0
10
216.000000
20
310.000000
0
VERTEX
8
0
10
218.000000
20
314.000000
0
VERTEX
8
0
10
218.000000
20
316.000000
0
VERTEX
8
0
10
215.000000
20
321.000000
0
VERTEX
8
0
10
209.000000
20
323.000000
0
VERTEX
8
0
10
207.911765
20
322.352941
0
VERTEX
8
0
10
203.000000
20
321.000000
0
VERTEX
8
0
10
200.769231
20
318.153846
0
VERTEX
8
0
10
198.000000
20
313.000000
0
VERTEX
8
0
10
198.000000
20
309.000000
0
VERTEX
8
0
10
198.700000
20
307.900000
0
VERTEX
8
0
10
201.000000
20
303.000000
0
VERTEX
8
0
10
212.000000
20
295.000000
0
VERTEX
8
0
10
211.000000
20
293.000000
0
VERTEX
8
0
10
206.088235
20
294.352941
0
VERTEX
8
0
10
189.100000
20
305.200000
0
VERTEX
8
0
10
185.088235
20
306.352941
0
VERTEX
8
0
10
184.000000
20
307.000000
0
VERTEX
8
0
10
176.000000
20
307.000000
0
VERTEX
8
0
10
175.000000
20
306.000000
0
VERTEX
8
0
10
175.000000
20
304.000000
0
VERTEX
8
0
10
198.000000
20
287.000000
0
VERTEX
8
0
10
199.000000
20
285.000000
0
SEQEND
0
POLYLINE
8
0
6
CONTINUOUS
66
1
62
7
10
0.0
20
0.0
30
0.000000
0
VERTEX
8
0
10
686.000000
20
238.000000
0
VERTEX
8
0
10
691.000000
20
240.000000
0
VERTEX
8
0
10
692.230769
20
241.846154
0
VERTEX
8
0
10
694.647059
20
246.088235
0
VERTEX
8
0
10
696.000000
20
253.000000
0
VERTEX
8
0
10
693.000000
20
258.000000
0
VERTEX
8
0
10
687.100000
20
263.200000
0
VERTEX
8
0
10
683.000000
20
265.000000
0
VERTEX
8
0
10
676.900000
20
263.200000
0
VERTEX
8
0
10
673.000000
20
261.000000
0
VERTEX
8
0
10
669.800000
20
256.100000
0
VERTEX
8
0
10
669.000000
20
255.000000
0
VERTEX
8
0
10
669.000000
20
248.000000
0
VERTEX
8
0
10
671.200000
20
244.100000
0
VERTEX
8
0
10
672.000000
20
242.000000
0
VERTEX
8
0
10
676.900000
20
238.800000
0
VERTEX
8
0
10
686.000000
20
238.000000
0
SEQEND
0
POLYLINE
8
0
6
CONTINUOUS
66
1
62
7
10
0.0
20
0.0
30
0.000000
0
VERTEX
8
0
10
391.000000
20
255.000000
0
VERTEX
8
0
10
388.000000
20
249.000000
0
VERTEX
8
0
10
389.230769
20
245.153846
0
VERTEX
8
0
10
393.000000
20
238.000000
0
VERTEX
8
0
10
395.900000
20
235.800000
0
VERTEX
8
0
10
399.000000
20
236.000000
0
VERTEX
8
0
10
402.000000
20
239.000000
0
VERTEX
8
0
10
407.000000
20
247.000000
0
VERTEX
8
0
10
399.000000
20
257.000000
0
SEQEND
0
POLYLINE
8
0
6
CONTINUOUS
66
1
62
7
10
0.0
20
0.0
30
0.000000
0
VERTEX
8
0
10
97.000000
20
233.000000
0
VERTEX
8
0
10
103.000000
20
237.000000
0
VERTEX
8
0
10
103.200000
20
237.900000
0
VERTEX
8
0
10
106.000000
20
243.000000
0
VERTEX
8
0
10
105.000000
20
253.000000
0
VERTEX
8
0
10
99.100000
20
258.200000
0
VERTEX
8
0
10
98.000000
20
259.000000
0
VERTEX
8
0
10
90.000000
20
259.000000
0
VERTEX
8
0
10
84.000000
20
256.000000
0
VERTEX
8
0
10
80.000000
20
248.000000
0
VERTEX
8
0
10
80.000000
20
244.000000
0
VERTEX
8
0
10
81.352941
20
240.088235
0
VERTEX
8
0
10
82.200000
20
238.100000
0
VERTEX
8
0
10
84.000000
20
235.000000
0
VERTEX
8
0
10
97.000000
20
233.000000
0
SEQEND
0
POLYLINE
8
0
6
CONTINUOUS
66
1
62
7
10
0.0
20
0.0
30
0.000000
0
VERTEX
8
0
10
390.000000
20
256.000000
0
VERTEX
8
0
10
389.000000
20
256.000000
0
VERTEX
8
0
10
385.000000
20
252.000000
0
VERTEX
8
0
10
385.000000
20
251.000000
0
VERTEX
8
0
10
381.000000
20
247.000000
0
VERTEX
8
0
10
378.900000
20
246.200000
0
VERTEX
8
0
10
378.100000
20
245.800000
0
VERTEX
8
0
10
377.000000
20
245.000000
0
VERTEX
8
0
10
376.000000
20
246.000000
0
VERTEX
8
0
10
376.000000
20
248.000000
0
VERTEX
8
0
10
386.000000
20
262.000000
0
VERTEX
8
0
10
385.000000
20
263.000000
0
VERTEX
8
0
10
379.000000
20
263.000000
0
VERTEX
8
0
10
376.000000
20
266.000000
0
VERTEX
8
0
10
375.000000
20
271.000000
0
VERTEX
8
0
10
375.000000
20
275.000000
0
VERTEX
8
0
10
377.000000
20
277.000000
0
VERTEX
8
0
10
382.000000
20
273.000000
0
VERTEX
8
0
10
385.000000
20
273.000000
0
VERTEX
8
0
10
390.000000
20
278.000000
0
VERTEX
8
0
10
391.000000
20
285.000000
0
VERTEX
8
0
10
387.000000
20
287.000000
0
VERTEX
8
0
10
376.000000
20
287.000000
0
VERTEX
8
0
10
375.000000
20
286.000000
0
VERTEX
8
0
10
370.000000
20
253.000000
0
VERTEX
8
0
10
370.000000
20
243.000000
0
VERTEX
8
0
10
371.450820
20
232.040984
0
VERTEX
8
0
10
373.230769
20
225.153846
0
VERTEX
8
0
10
375.000000
20
222.000000
0
VERTEX
8
0
10
378.088235
20
220.352941
0
VERTEX
8
0
10
382.000000
20
219.000000
0
VERTEX
8
0
10
389.820000
20
221.240000
0
VERTEX
8
0
10
398.352941
20
227.411765
0
VERTEX
8
0
10
405.900000
20
223.800000
0
VERTEX
8
0
10
409.000000
20
222.000000
0
VERTEX
8
0
10
415.000000
20
222.000000
0
VERTEX
8
0
10
416.846154
20
223.230769
0
VERTEX
8
0
10
423.000000
20
228.000000
0
VERTEX
8
0
10
426.800000
20
234.100000
0
VERTEX
8
0
10
427.200000
20
234.900000
0
VERTEX
8
0
10
428.000000
20
236.000000
0
VERTEX
8
0
10
428.000000
20
244.000000
0
VERTEX
8
0
10
418.200000
20
275.100000
0
VERTEX
8
0
10
416.000000
20
279.000000
0
SEQEND
0
POLYLINE
8
0
6
CONTINUOUS
66
1
62
7
10
0.0
20
0.0
30
0.000000
0
VERTEX
8
0
10
207.000000
20
213.000000
0
VERTEX
8
0
10
216.911765
20
216.352941
0
VERTEX
8
0
10
233.900000
20
224.200000
0
VERTEX
8
0
10
243.180000
20
230.760000
0
VERTEX
8
0
10
264.000000
20
247.000000
0
VERTEX
8
0
10
268.000000
20
251.000000
0
VERTEX
8
0
10
266.000000
20
254.000000
0
VERTEX
8
0
10
262.846154
20
255.769231
0
VERTEX
8
0
10
257.000000
20
261.000000
0
VERTEX
8
0
10
256.756098
20
261.804878
0
VERTEX
8
0
10
252.384615
20
268.076923
0
VERTEX
8
0
10
251.615385
20
271.923077
0
VERTEX
8
0
10
251.000000
20
279.000000
0
VERTEX
8
0
10
252.800000
20
284.100000
0
VERTEX
8
0
10
257.240000
20
291.820000
0
VERTEX
8
0
10
259.760000
20
295.180000
0
VERTEX
8
0
10
267.000000
20
303.000000
0
VERTEX
8
0
10
277.100000
20
308.800000
0
VERTEX
8
0
10
309.000000
20
327.000000
0
VERTEX
8
0
10
301.000000
20
338.000000
0
VERTEX
8
0
10
299.900000
20
337.200000
0
VERTEX
8
0
10
262.900000
20
323.300000
0
VERTEX
8
0
10
249.932432
20
320.405405
0
VERTEX
8
0
10
245.067568
20
319.594595
0
VERTEX
8
0
10
244.000000
20
319.000000
0
VERTEX
8
0
10
233.000000
20
319.000000
0
VERTEX
8
0
10
225.180000
20
323.240000
0
VERTEX
8
0
10
221.000000
20
326.000000
0
VERTEX
8
0
10
217.700000
20
332.900000
0
VERTEX
8
0
10
216.000000
20
337.000000
0
VERTEX
8
0
10
214.000000
20
339.000000
0
VERTEX
8
0
10
196.067568
20
336.594595
0
VERTEX
8
0
10
176.100000
20
330.700000
0
VERTEX
8
0
10
169.900000
20
328.200000
0
VERTEX
8
0
10
153.000000
20
319.000000
0
VERTEX
8
0
10
146.800000
20
310.100000
0
VERTEX
8
0
10
144.000000
20
305.000000
0
VERTEX
8
0
10
144.000000
20
295.000000
0
VERTEX
8
0
10
145.352941
20
291.088235
0
VERTEX
8
0
10
148.800000
20
281.900000
0
VERTEX
8
0
10
151.000000
20
278.000000
0
VERTEX
8
0
10
158.846154
20
271.769231
0
VERTEX
8
0
10
166.000000
20
267.000000
0
VERTEX
8
0
10
164.200000
20
258.900000
0
VERTEX
8
0
10
163.800000
20
258.100000
0
VERTEX
8
0
10
163.000000
20
257.000000
0
VERTEX
8
0
10
164.900000
20
255.800000
0
VERTEX
8
0
10
172.750000
20
253.750000
0
VERTEX
8
0
10
173.560976
20
248.951220
0
VERTEX
8
0
10
176.352941
20
231.088235
0
VERTEX
8
0
10
178.230769
20
227.153846
0
VERTEX
8
0
10
184.000000
20
219.000000
0
VERTEX
8
0
10
188.100000
20
217.200000
0
VERTEX
8
0
10
196.060000
20
214.420000
0
VERTEX
8
0
10
207.000000
20
213.000000
0
SEQEND
0
POLYLINE
8
0
6
CONTINUOUS
66
1
62
7
10
0.0
20
0.0
30
0.000000
0
VERTEX
8
0
10
489.000000
20
199.000000
0
VERTEX
8
0
10
486.000000
20
199.000000
0
SEQEND
0
POLYLINE
8
0
6
CONTINUOUS
66
1
62
7
10
0.0
20
0.0
30
0.000000
0
VERTEX
8
0
10
657.000000
20
198.000000
0
VERTEX
8
0
10
665.000000
20
202.000000
0
VERTEX
8
0
10
667.200000
20
204.900000
0
VERTEX
8
0
10
668.300000
20
207.900000
0
VERTEX
8
0
10
669.000000
20
209.000000
0
VERTEX
8
0
10
668.352941
20
214.088235
0
VERTEX
8
0
10
665.000000
20
222.000000
0
VERTEX
8
0
10
659.000000
20
226.000000
0
VERTEX
8
0
10
651.000000
20
226.000000
0
VERTEX
8
0
10
643.800000
20
218.100000
0
VERTEX
8
0
10
643.000000
20
217.000000
0
VERTEX
8
0
10
643.000000
20
207.000000
0
VERTEX
8
0
10
651.000000
20
199.000000
0
VERTEX
8
0
10
657.000000
20
198.000000
0
SEQEND
0
POLYLINE
8
0
6
CONTINUOUS
66
1
62
7
10
0.0
20
0.0
30
0.000000
0
VERTEX
8
0
10
119.000000
20
191.000000
0
VERTEX
8
0
10
120.100000
20
191.700000
0
VERTEX
8
0
10
125.000000
20
194.000000
0
VERTEX
8
0
10
129.000000
20
198.000000
0
VERTEX
8
0
10
129.000000
20
210.000000
0
VERTEX
8
0
10
124.100000
20
214.200000
0
VERTEX
8
0
10
119.000000
20
217.000000
0
VERTEX
8
0
10
111.000000
20
216.000000
0
VERTEX
8
0
10
104.000000
20
209.000000
0
VERTEX
8
0
10
102.000000
20
204.000000
0
VERTEX
8
0
10
102.647059
20
202.911765
0
VERTEX
8
0
10
104.000000
20
197.000000
0
VERTEX
8
0
10
108.000000
20
193.000000
0
VERTEX
8
0
10
114.067568
20
191.405405
0
VERTEX
8
0
10
119.000000
20
191.000000
0
SEQEND
0
POLYLINE
8
0
6
CONTINUOUS
66
1
62
7
10
0.0
20
0.0
30
0.000000
0
VERTEX
8
0
10
325.000000
20
185.000000
0
VERTEX
8
0
10
324.000000
20
186.000000
0
SEQEND
0
POLYLINE
8
0
6
CONTINUOUS
66
1
62
7
10
0.0
20
0.0
30
0.000000
0
VERTEX
8
0
10
325.000000
20
185.000000
0
VERTEX
8
0
10
326.000000
20
186.000000
0
VERTEX
8
0
10
325.000000
20
187.000000
0
VERTEX
8
0
10
324.000000
20
186.000000
0
SEQEND
0
POLYLINE
8
0
6
CONTINUOUS
66
1
62
7
10
0.0
20
0.0
30
0.000000
0
VERTEX
8
0
10
360.000000
20
287.000000
0
VERTEX
8
0
10
358.400000
20
284.800000
0
VERTEX
8
0
10
348.300000
20
255.900000
0
VERTEX
8
0
10
347.700000
20
254.100000
0
VERTEX
8
0
10
341.800000
20
239.100000
0
VERTEX
8
0
10
341.200000
20
237.900000
0
VERTEX
8
0
10
333.243902
20
225.804878
0
VERTEX
8
0
10
321.000000
20
212.000000
0
VERTEX
8
0
10
320.000000
20
212.000000
0
VERTEX
8
0
10
317.000000
20
209.000000
0
VERTEX
8
0
10
317.000000
20
208.000000
0
VERTEX
8
0
10
319.000000
20
206.000000
0
VERTEX
8
0
10
323.088235
20
206.647059
0
VERTEX
8
0
10
325.911765
20
207.352941
0
VERTEX
8
0
10
327.000000
20
208.000000
0
VERTEX
8
0
10
328.000000
20
207.000000
0
VERTEX
8
0
10
325.200000
20
200.900000
0
VERTEX
8
0
10
323.000000
20
196.000000
0
VERTEX
8
0
10
319.100000
20
192.800000
0
VERTEX
8
0
10
316.000000
20
191.000000
0
VERTEX
8
0
10
310.000000
20
191.000000
0
VERTEX
8
0
10
305.000000
20
195.000000
0
VERTEX
8
0
10
309.000000
20
201.000000
0
VERTEX
8
0
10
308.200000
20
203.100000
0
VERTEX
8
0
10
305.000000
20
207.000000
0
VERTEX
8
0
10
300.900000
20
206.300000
0
VERTEX
8
0
10
299.200000
20
205.600000
0
VERTEX
8
0
10
294.000000
20
202.000000
0
VERTEX
8
0
10
293.000000
20
192.000000
0
VERTEX
8
0
10
295.000000
20
187.000000
0
VERTEX
8
0
10
297.900000
20
184.800000
0
VERTEX
8
0
10
305.000000
20
181.000000
0
VERTEX
8
0
10
313.000000
20
181.000000
0
VERTEX
8
0
10
322.900000
20
185.200000
0
VERTEX
8
0
10
324.000000
20
186.000000
0
SEQEND
0
POLYLINE
8
0
6
CONTINUOUS
66
1
62
7
10
0.0
20
0.0
30
0.000000
0
VERTEX
8
0
10
568.000000
20
172.000000
0
VERTEX
8
0
10
578.769231
20
189.153846
0
VERTEX
8
0
10
589.000000
20
200.000000
0
VERTEX
8
0
10
598.000000
20
206.000000
0
VERTEX
8
0
10
603.000000
20
211.000000
0
VERTEX
8
0
10
602.000000
20
213.000000
0
VERTEX
8
0
10
582.067568
20
215.405405
0
VERTEX
8
0
10
578.100000
20
217.200000
0
VERTEX
8
0
10
568.900000
20
221.800000
0
VERTEX
8
0
10
553.000000
20
233.000000
0
VERTEX
8
0
10
529.249315
20
258.231507
0
VERTEX
8
0
10
529.000000
20
259.000000
0
VERTEX
8
0
10
525.000000
20
263.000000
0
VERTEX
8
0
10
523.100000
20
263.300000
0
VERTEX
8
0
10
518.100000
20
266.200000
0
VERTEX
8
0
10
517.000000
20
267.000000
0
VERTEX
8
0
10
515.000000
20
265.000000
0
VERTEX
8
0
10
521.248869
20
256.226244
0
VERTEX
8
0
10
530.751131
20
245.773756
0
VERTEX
8
0
10
539.760000
20
233.820000
0
VERTEX
8
0
10
546.769231
20
222.846154
0
VERTEX
8
0
10
555.800000
20
203.900000
0
VERTEX
8
0
10
556.700000
20
201.900000
0
VERTEX
8
0
10
566.000000
20
172.000000
0
VERTEX
8
0
10
568.000000
20
172.000000
0
SEQEND
0
POLYLINE
8
0
6
CONTINUOUS
66
1
62
7
10
0.0
20
0.0
30
0.000000
0
VERTEX
8
0
10
320.000000
20
167.000000
0
VERTEX
8
0
10
322.000000
20
168.000000
0
SEQEND
0
POLYLINE
8
0
6
CONTINUOUS
66
1
62
7
10
0.0
20
0.0
30
0.000000
0
VERTEX
8
0
10
325.000000
20
185.000000
0
VERTEX
8
0
10
325.000000
20
184.000000
0
VERTEX
8
0
10
323.100000
20
182.800000
0
VERTEX
8
0
10
313.923077
20
178.384615
0
VERTEX
8
0
10
303.060000
20
176.580000
0
VERTEX
8
0
10
289.900000
20
174.200000
0
VERTEX
8
0
10
289.153846
20
173.769231
0
VERTEX
8
0
10
284.000000
20
170.000000
0
VERTEX
8
0
10
285.000000
20
169.000000
0
VERTEX
8
0
10
304.000000
20
166.000000
0
VERTEX
8
0
10
320.000000
20
167.000000
0
SEQEND
0
POLYLINE
8
0
6
CONTINUOUS
66
1
62
7
10
0.0
20
0.0
30
0.000000
0
VERTEX
8
0
10
625.000000
20
162.000000
0
VERTEX
8
0
10
630.100000
20
163.800000
0
VERTEX
8
0
10
636.000000
20
168.000000
0
VERTEX
8
0
10
637.000000
20
172.000000
0
VERTEX
8
0
10
636.352941
20
178.088235
0
VERTEX
8
0
10
634.000000
20
184.000000
0
VERTEX
8
0
10
631.000000
20
187.000000
0
VERTEX
8
0
10
628.900000
20
187.700000
0
VERTEX
8
0
10
627.100000
20
188.300000
0
VERTEX
8
0
10
626.000000
20
189.000000
0
VERTEX
8
0
10
622.000000
20
189.000000
0
VERTEX
8
0
10
618.088235
20
187.647059
0
VERTEX
8
0
10
615.000000
20
187.000000
0
VERTEX
8
0
10
610.800000
20
181.100000
0
VERTEX
8
0
10
610.000000
20
180.000000
0
VERTEX
8
0
10
610.000000
20
171.000000
0
VERTEX
8
0
10
613.000000
20
167.000000
0
VERTEX
8
0
10
613.846154
20
166.769231
0
VERTEX
8
0
10
623.100000
20
162.300000
0
VERTEX
8
0
10
625.000000
20
162.000000
0
SEQEND
0
POLYLINE
8
0
6
CONTINUOUS
66
1
62
7
10
0.0
20
0.0
30
0.000000
0
VERTEX
8
0
10
148.000000
20
152.000000
0
VERTEX
8
0
10
153.000000
20
154.000000
0
VERTEX
8
0
10
156.200000
20
158.900000
0
VERTEX
8
0
10
158.000000
20
162.000000
0
VERTEX
8
0
10
158.000000
20
169.000000
0
VERTEX
8
0
10
155.200000
20
174.100000
0
VERTEX
8
0
10
152.000000
20
178.000000
0
VERTEX
8
0
10
147.000000
20
180.000000
0
VERTEX
8
0
10
141.911765
20
179.352941
0
VERTEX
8
0
10
139.000000
20
179.000000
0
VERTEX
8
0
10
132.000000
20
169.000000
0
VERTEX
8
0
10
132.000000
20
167.000000
0
VERTEX
8
0
10
135.230769
20
160.153846
0
VERTEX
8
0
10
137.000000
20
157.000000
0
VERTEX
8
0
10
142.200000
20
153.400000
0
VERTEX
8
0
10
148.000000
20
152.000000
0
SEQEND
0
POLYLINE
8
0
6
CONTINUOUS
66
1
62
7
10
0.0
20
0.0
30
0.000000
0
VERTEX
8
0
10
489.000000
20
199.000000
0
VERTEX
8
0
10
489.000000
20
200.000000
0
VERTEX
8
0
10
504.000000
20
207.000000
0
VERTEX
8
0
10
509.000000
20
215.000000
0
VERTEX
8
0
10
507.000000
20
222.000000
0
VERTEX
8
0
10
503.000000
20
226.000000
0
VERTEX
8
0
10
497.000000
20
227.000000
0
VERTEX
8
0
10
495.000000
20
226.000000
0
VERTEX
8
0
10
490.800000
20
221.100000
0
VERTEX
8
0
10
490.000000
20
218.000000
0
VERTEX
8
0
10
493.200000
20
212.100000
0
VERTEX
8
0
10
494.000000
20
211.000000
0
VERTEX
8
0
10
492.000000
20
209.000000
0
VERTEX
8
0
10
488.911765
20
208.352941
0
VERTEX
8
0
10
485.000000
20
207.000000
0
VERTEX
8
0
10
478.088235
20
208.352941
0
VERTEX
8
0
10
476.000000
20
209.000000
0
VERTEX
8
0
10
473.000000
20
213.000000
0
VERTEX
8
0
10
473.000000
20
216.000000
0
VERTEX
8
0
10
474.000000
20
217.000000
0
VERTEX
8
0
10
478.900000
20
214.700000
0
VERTEX
8
0
10
480.100000
20
214.200000
0
VERTEX
8
0
10
485.000000
20
212.000000
0
VERTEX
8
0
10
487.000000
20
214.000000
0
VERTEX
8
0
10
485.180000
20
215.240000
0
VERTEX
8
0
10
469.820000
20
226.760000
0
VERTEX
8
0
10
463.000000
20
233.000000
0
VERTEX
8
0
10
459.243902
20
238.195122
0
VERTEX
8
0
10
446.200000
20
262.100000
0
VERTEX
8
0
10
445.200000
20
264.100000
0
VERTEX
8
0
10
431.000000
20
292.000000
0
VERTEX
8
0
10
429.000000
20
294.000000
0
VERTEX
8
0
10
428.000000
20
294.000000
0
VERTEX
8
0
10
426.000000
20
292.000000
0
VERTEX
8
0
10
435.800000
20
271.900000
0
VERTEX
8
0
10
437.200000
20
269.100000
0
VERTEX
8
0
10
452.647059
20
230.911765
0
VERTEX
8
0
10
453.352941
20
228.088235
0
VERTEX
8
0
10
456.000000
20
216.000000
0
VERTEX
8
0
10
456.000000
20
209.000000
0
VERTEX
8
0
10
455.000000
20
208.000000
0
VERTEX
8
0
10
455.000000
20
201.000000
0
VERTEX
8
0
10
457.000000
20
199.000000
0
VERTEX
8
0
10
460.000000
20
202.000000
0
VERTEX
8
0
10
462.800000
20
208.100000
0
VERTEX
8
0
10
463.200000
20
208.900000
0
VERTEX
8
0
10
466.000000
20
213.000000
0
VERTEX
8
0
10
467.000000
20
212.000000
0
VERTEX
8
0
10
467.352941
20
209.088235
0
VERTEX
8
0
10
468.000000
20
208.000000
0
VERTEX
8
0
10
468.000000
20
198.000000
0
VERTEX
8
0
10
466.800000
20
196.100000
0
VERTEX
8
0
10
463.000000
20
190.000000
0
VERTEX
8
0
10
460.000000
20
188.000000
0
VERTEX
8
0
10
457.700000
20
192.900000
0
VERTEX
8
0
10
457.200000
20
194.100000
0
VERTEX
8
0
10
454.000000
20
198.000000
0
VERTEX
8
0
10
451.000000
20
199.000000
0
VERTEX
8
0
10
448.000000
20
199.000000
0
VERTEX
8
0
10
443.000000
20
195.000000
0
VERTEX
8
0
10
442.000000
20
189.000000
0
VERTEX
8
0
10
447.000000
20
180.000000
0
VERTEX
8
0
10
457.000000
20
178.000000
0
VERTEX
8
0
10
460.911765
20
179.352941
0
VERTEX
8
0
10
467.804878
20
183.243902
0
VERTEX
8
0
10
472.000000
20
187.000000
0
VERTEX
8
0
10
473.000000
20
187.000000
0
VERTEX
8
0
10
474.000000
20
186.000000
0
VERTEX
8
0
10
472.769231
20
184.153846
0
VERTEX
8
0
10
468.000000
20
178.000000
0
VERTEX
8
0
10
462.000000
20
174.000000
0
VERTEX
8
0
10
456.769231
20
168.153846
0
VERTEX
8
0
10
455.000000
20
166.000000
0
VERTEX
8
0
10
455.000000
20
159.000000
0
VERTEX
8
0
10
457.000000
20
153.000000
0
VERTEX
8
0
10
458.000000
20
152.000000
0
VERTEX
8
0
10
459.240000
20
153.820000
0
VERTEX
8
0
10
476.756098
20
175.195122
0
VERTEX
8
0
10
479.647059
20
182.088235
0
VERTEX
8
0
10
480.000000
20
185.000000
0
VERTEX
8
0
10
482.000000
20
187.000000
0
VERTEX
8
0
10
484.000000
20
185.000000
0
VERTEX
8
0
10
484.538071
20
182.967005
0
VERTEX
8
0
10
485.615385
20
168.923077
0
VERTEX
8
0
10
486.000000
20
165.000000
0
VERTEX
8
0
10
493.100000
20
161.300000
0
VERTEX
8
0
10
494.900000
20
160.700000
0
VERTEX
8
0
10
498.000000
20
159.000000
0
VERTEX
8
0
10
500.000000
20
161.000000
0
VERTEX
8
0
10
503.000000
20
174.000000
0
VERTEX
8
0
10
503.000000
20
176.000000
0
VERTEX
8
0
10
501.180000
20
177.240000
0
VERTEX
8
0
10
489.000000
20
186.000000
0
VERTEX
8
0
10
489.000000
20
187.000000
0
VERTEX
8
0
10
491.000000
20
189.000000
0
VERTEX
8
0
10
513.000000
20
192.000000
0
VERTEX
8
0
10
514.088235
20
191.352941
0
VERTEX
8
0
10
519.000000
20
190.000000
0
VERTEX
8
0
10
521.000000
20
192.000000
0
VERTEX
8
0
10
520.000000
20
195.000000
0
VERTEX
8
0
10
516.100000
20
198.200000
0
VERTEX
8
0
10
489.000000
20
199.000000
0
SEQEND
0
POLYLINE
8
0
6
CONTINUOUS
66
1
62
7
10
0.0
20
0.0
30
0.000000
0
VERTEX
8
0
10
241.000000
20
147.000000
0
VERTEX
8
0
10
242.000000
20
148.000000
0
VERTEX
8
0
10
240.000000
20
157.000000
0
VERTEX
8
0
10
240.000000
20
168.000000
0
VERTEX
8
0
10
244.300000
20
178.900000
0
VERTEX
8
0
10
246.800000
20
185.100000
0
VERTEX
8
0
10
265.760000
20
214.180000
0
VERTEX
8
0
10
269.243902
20
218.804878
0
VERTEX
8
0
10
282.000000
20
237.000000
0
VERTEX
8
0
10
282.000000
20
239.000000
0
VERTEX
8
0
10
280.000000
20
240.000000
0
VERTEX
8
0
10
275.000000
20
235.000000
0
VERTEX
8
0
10
256.000000
20
210.000000
0
VERTEX
8
0
10
248.000000
20
202.000000
0
VERTEX
8
0
10
232.153846
20
189.769231
0
VERTEX
8
0
10
229.846154
20
188.230769
0
VERTEX
8
0
10
216.900000
20
183.200000
0
VERTEX
8
0
10
216.100000
20
182.800000
0
VERTEX
8
0
10
204.951220
20
180.439024
0
VERTEX
8
0
10
197.000000
20
180.000000
0
VERTEX
8
0
10
196.000000
20
179.000000
0
VERTEX
8
0
10
199.900000
20
176.800000
0
VERTEX
8
0
10
208.100000
20
172.200000
0
VERTEX
8
0
10
218.804878
20
166.756098
0
VERTEX
8
0
10
241.000000
20
147.000000
0
SEQEND
0
POLYLINE
8
0
6
CONTINUOUS
66
1
62
7
10
0.0
20
0.0
30
0.000000
0
VERTEX
8
0
10
320.000000
20
167.000000
0
VERTEX
8
0
10
320.000000
20
166.000000
0
VERTEX
8
0
10
314.000000
20
157.000000
0
VERTEX
8
0
10
315.647059
20
146.911765
0
VERTEX
8
0
10
318.000000
20
139.000000
0
VERTEX
8
0
10
319.000000
20
138.000000
0
VERTEX
8
0
10
331.000000
20
147.000000
0
VERTEX
8
0
10
333.000000
20
149.000000
0
VERTEX
8
0
10
331.000000
20
166.000000
0
VERTEX
8
0
10
332.000000
20
167.000000
0
VERTEX
8
0
10
334.000000
20
165.000000
0
VERTEX
8
0
10
334.000000
20
164.000000
0
VERTEX
8
0
10
340.900000
20
159.800000
0
VERTEX
8
0
10
342.100000
20
159.200000
0
VERTEX
8
0
10
351.000000
20
154.000000
0
VERTEX
8
0
10
360.000000
20
144.000000
0
VERTEX
8
0
10
361.200000
20
145.900000
0
VERTEX
8
0
10
363.000000
20
149.000000
0
VERTEX
8
0
10
362.200000
20
151.100000
0
VERTEX
8
0
10
359.000000
20
158.000000
0
VERTEX
8
0
10
344.180000
20
170.240000
0
VERTEX
8
0
10
340.000000
20
173.000000
0
VERTEX
8
0
10
335.000000
20
179.000000
0
VERTEX
8
0
10
335.000000
20
183.000000
0
VERTEX
8
0
10
336.000000
20
184.000000
0
VERTEX
8
0
10
337.000000
20
182.000000
0
VERTEX
8
0
10
344.000000
20
175.000000
0
VERTEX
8
0
10
350.000000
20
172.000000
0
VERTEX
8
0
10
355.076923
20
172.615385
0
VERTEX
8
0
10
360.100000
20
173.800000
0
VERTEX
8
0
10
363.000000
20
175.000000
0
VERTEX
8
0
10
368.000000
20
181.000000
0
VERTEX
8
0
10
367.000000
20
188.000000
0
VERTEX
8
0
10
361.846154
20
191.769231
0
VERTEX
8
0
10
358.000000
20
193.000000
0
VERTEX
8
0
10
353.000000
20
189.000000
0
VERTEX
8
0
10
352.300000
20
186.900000
0
VERTEX
8
0
10
351.000000
20
183.000000
0
VERTEX
8
0
10
350.000000
20
182.000000
0
VERTEX
8
0
10
343.000000
20
183.000000
0
VERTEX
8
0
10
340.800000
20
186.900000
0
VERTEX
8
0
10
339.700000
20
189.900000
0
VERTEX
8
0
10
338.000000
20
195.000000
0
VERTEX
8
0
10
339.000000
20
201.000000
0
VERTEX
8
0
10
340.000000
20
202.000000
0
VERTEX
8
0
10
350.000000
20
198.000000
0
VERTEX
8
0
10
351.000000
20
199.000000
0
VERTEX
8
0
10
351.000000
20
201.000000
0
VERTEX
8
0
10
348.000000
20
217.000000
0
VERTEX
8
0
10
348.000000
20
231.000000
0
VERTEX
8
0
10
354.352941
20
259.911765
0
VERTEX
8
0
10
354.647059
20
261.088235
0
VERTEX
8
0
10
361.000000
20
286.000000
0
VERTEX
8
0
10
360.000000
20
287.000000
0
SEQEND
0
POLYLINE
8
0
6
CONTINUOUS
66
1
62
7
10
0.0
20
0.0
30
0.000000
0
VERTEX
8
0
10
471.000000
20
129.000000
0
VERTEX
8
0
10
476.100000
20
131.800000
0
VERTEX
8
0
10
480.000000
20
134.000000
0
VERTEX
8
0
10
489.000000
20
145.000000
0
VERTEX
8
0
10
501.000000
20
145.000000
0
VERTEX
8
0
10
509.000000
20
159.000000
0
VERTEX
8
0
10
521.100000
20
159.800000
0
VERTEX
8
0
10
528.000000
20
163.000000
0
VERTEX
8
0
10
530.000000
20
165.000000
0
VERTEX
8
0
10
535.594595
20
177.067568
0
VERTEX
8
0
10
537.000000
20
183.000000
0
VERTEX
8
0
10
535.352941
20
194.088235
0
VERTEX
8
0
10
534.200000
20
198.100000
0
VERTEX
8
0
10
513.230769
20
229.153846
0
VERTEX
8
0
10
512.800000
20
229.900000
0
VERTEX
8
0
10
503.000000
20
244.000000
0
VERTEX
8
0
10
500.000000
20
244.000000
0
VERTEX
8
0
10
496.100000
20
241.800000
0
VERTEX
8
0
10
486.000000
20
237.000000
0
VERTEX
8
0
10
482.000000
20
237.000000
0
VERTEX
8
0
10
473.100000
20
240.200000
0
VERTEX
8
0
10
471.900000
20
240.800000
0
VERTEX
8
0
10
464.000000
20
246.000000
0
VERTEX
8
0
10
460.000000
20
250.000000
0
VERTEX
8
0
10
453.200000
20
262.100000
0
VERTEX
8
0
10
447.800000
20
270.900000
0
VERTEX
8
0
10
435.300000
20
296.100000
0
VERTEX
8
0
10
435.000000
20
298.000000
0
VERTEX
8
0
10
433.000000
20
300.000000
0
VERTEX
8
0
10
429.100000
20
298.800000
0
VERTEX
8
0
10
427.100000
20
297.800000
0
VERTEX
8
0
10
418.000000
20
293.000000
0
VERTEX
8
0
10
422.769231
20
284.846154
0
VERTEX
8
0
10
431.700000
20
266.900000
0
VERTEX
8
0
10
434.200000
20
261.100000
0
VERTEX
8
0
10
440.580000
20
244.940000
0
VERTEX
8
0
10
442.000000
20
238.000000
0
VERTEX
8
0
10
441.405405
20
228.932432
0
VERTEX
8
0
10
440.594595
20
224.067568
0
VERTEX
8
0
10
437.754098
20
218.204918
0
VERTEX
8
0
10
430.000000
20
209.000000
0
VERTEX
8
0
10
425.900000
20
207.200000
0
VERTEX
8
0
10
422.000000
20
204.000000
0
VERTEX
8
0
10
424.647059
20
193.911765
0
VERTEX
8
0
10
429.352941
20
175.088235
0
VERTEX
8
0
10
435.800000
20
156.900000
0
VERTEX
8
0
10
441.240000
20
145.180000
0
VERTEX
8
0
10
443.760000
20
141.820000
0
VERTEX
8
0
10
451.000000
20
134.000000
0
VERTEX
8
0
10
453.100000
20
133.200000
0
VERTEX
8
0
10
462.911765
20
129.647059
0
VERTEX
8
0
10
471.000000
20
129.000000
0
SEQEND
0
POLYLINE
8
0
6
CONTINUOUS
66
1
62
7
10
0.0
20
0.0
30
0.000000
0
VERTEX
8
0
10
592.000000
20
126.000000
0
VERTEX
8
0
10
599.000000
20
130.000000
0
VERTEX
8
0
10
602.200000
20
133.900000
0
VERTEX
8
0
10
604.000000
20
137.000000
0
VERTEX
8
0
10
602.200000
20
144.100000
0
VERTEX
8
0
10
601.000000
20
147.000000
0
VERTEX
8
0
10
594.100000
20
153.200000
0
VERTEX
8
0
10
591.000000
20
155.000000
0
VERTEX
8
0
10
583.900000
20
153.200000
0
VERTEX
8
0
10
577.000000
20
147.000000
0
VERTEX
8
0
10
575.000000
20
142.000000
0
VERTEX
8
0
10
575.000000
20
139.000000
0
VERTEX
8
0
10
575.800000
20
137.900000
0
VERTEX
8
0
10
579.000000
20
132.000000
0
VERTEX
8
0
10
582.000000
20
129.000000
0
VERTEX
8
0
10
589.088235
20
126.352941
0
VERTEX
8
0
10
592.000000
20
126.000000
0
SEQEND
0
POLYLINE
8
0
6
CONTINUOUS
66
1
62
7
10
0.0
20
0.0
30
0.000000
0
VERTEX
8
0
10
360.000000
20
290.000000
0
VERTEX
8
0
10
358.000000
20
290.000000
0
VERTEX
8
0
10
352.300000
20
276.900000
0
VERTEX
8
0
10
351.200000
20
273.900000
0
VERTEX
8
0
10
340.769231
20
253.153846
0
VERTEX
8
0
10
339.230769
20
250.846154
0
VERTEX
8
0
10
330.000000
20
235.000000
0
VERTEX
8
0
10
319.100000
20
224.800000
0
VERTEX
8
0
10
312.000000
20
221.000000
0
VERTEX
8
0
10
309.000000
20
221.000000
0
VERTEX
8
0
10
301.100000
20
224.200000
0
VERTEX
8
0
10
300.000000
20
225.000000
0
VERTEX
8
0
10
299.000000
20
225.000000
0
VERTEX
8
0
10
281.240000
20
202.820000
0
VERTEX
8
0
10
274.300000
20
188.900000
0
VERTEX
8
0
10
273.700000
20
187.100000
0
VERTEX
8
0
10
271.420000
20
180.940000
0
VERTEX
8
0
10
270.000000
20
174.000000
0
VERTEX
8
0
10
270.594595
20
163.932432
0
VERTEX
8
0
10
271.405405
20
159.067568
0
VERTEX
8
0
10
274.000000
20
153.000000
0
VERTEX
8
0
10
280.000000
20
147.000000
0
VERTEX
8
0
10
286.100000
20
144.200000
0
VERTEX
8
0
10
286.900000
20
143.800000
0
VERTEX
8
0
10
292.030973
20
141.464602
0
VERTEX
8
0
10
306.000000
20
141.000000
0
VERTEX
8
0
10
309.000000
20
138.000000
0
VERTEX
8
0
10
310.800000
20
133.900000
0
VERTEX
8
0
10
312.000000
20
131.000000
0
VERTEX
8
0
10
315.000000
20
128.000000
0
VERTEX
8
0
10
319.100000
20
129.800000
0
VERTEX
8
0
10
326.000000
20
133.000000
0
VERTEX
8
0
10
338.900000
20
123.800000
0
VERTEX
8
0
10
346.000000
20
122.000000
0
VERTEX
8
0
10
358.000000
20
122.000000
0
VERTEX
8
0
10
359.900000
20
123.200000
0
VERTEX
8
0
10
361.100000
20
123.800000
0
VERTEX
8
0
10
367.000000
20
129.000000
0
VERTEX
8
0
10
371.200000
20
134.900000
0
VERTEX
8
0
10
376.594595
20
154.067568
0
VERTEX
8
0
10
378.405405
20
164.932432
0
VERTEX
8
0
10
380.000000
20
172.000000
0
VERTEX
8
0
10
380.000000
20
198.000000
0
VERTEX
8
0
10
379.000000
20
201.000000
0
VERTEX
8
0
10
374.100000
20
203.300000
0
VERTEX
8
0
10
368.900000
20
204.700000
0
VERTEX
8
0
10
367.000000
20
205.000000
0
VERTEX
8
0
10
361.000000
20
211.000000
0
VERTEX
8
0
10
360.200000
20
213.100000
0
VERTEX
8
0
10
359.800000
20
213.900000
0
VERTEX
8
0
10
357.000000
20
223.000000
0
VERTEX
8
0
10
357.000000
20
235.000000
0
VERTEX
8
0
10
359.420000
20
252.940000
0
VERTEX
8
0
10
359.580000
20
254.060000
0
VERTEX
8
0
10
364.352941
20
281.911765
0
VERTEX
8
0
10
366.000000
20
287.000000
0
VERTEX
8
0
10
366.000000
20
288.000000
0
VERTEX
8
0
10
364.000000
20
290.000000
0
VERTEX
8
0
10
360.000000
20
290.000000
0
SEQEND
0
POLYLINE
8
0
6
CONTINUOUS
66
1
62
7
10
0.0
20
0.0
30
0.000000
0
VERTEX
8
0
10
182.000000
20
121.000000
0
VERTEX
8
0
10
190.000000
20
129.000000
0
VERTEX
8
0
10
190.000000
20
134.000000
0
VERTEX
8
0
10
188.000000
20
141.000000
0
VERTEX
8
0
10
185.000000
20
144.000000
0
VERTEX
8
0
10
179.911765
20
146.647059
0
VERTEX
8
0
10
176.000000
20
148.000000
0
VERTEX
8
0
10
169.900000
20
146.200000
0
VERTEX
8
0
10
169.000000
20
146.000000
0
VERTEX
8
0
10
166.769231
20
143.153846
0
VERTEX
8
0
10
164.800000
20
140.100000
0
VERTEX
8
0
10
163.000000
20
136.000000
0
VERTEX
8
0
10
163.000000
20
132.000000
0
VERTEX
8
0
10
163.700000
20
130.900000
0
VERTEX
8
0
10
165.000000
20
127.000000
0
VERTEX
8
0
10
168.000000
20
124.000000
0
VERTEX
8
0
10
176.060000
20
121.420000
0
VERTEX
8
0
10
182.000000
20
121.000000
0
SEQEND
0
POLYLINE
8
0
6
CONTINUOUS
66
1
62
7
10
0.0
20
0.0
30
0.000000
0
VERTEX
8
0
10
487.000000
20
118.000000
0
VERTEX
8
0
10
505.200000
20
132.600000
0
VERTEX
8
0
10
516.088235
20
135.647059
0
VERTEX
8
0
10
525.100000
20
138.800000
0
VERTEX
8
0
10
539.000000
20
147.000000
0
VERTEX
8
0
10
544.000000
20
152.000000
0
VERTEX
8
0
10
552.769231
20
164.153846
0
VERTEX
8
0
10
556.000000
20
176.000000
0
VERTEX
8
0
10
556.000000
20
181.000000
0
VERTEX
8
0
10
553.615385
20
192.923077
0
VERTEX
8
0
10
553.300000
20
194.100000
0
VERTEX
8
0
10
547.769231
20
206.846154
0
VERTEX
8
0
10
544.200000
20
213.100000
0
VERTEX
8
0
10
525.752212
20
237.783186
0
VERTEX
8
0
10
512.200000
20
254.100000
0
VERTEX
8
0
10
511.800000
20
254.900000
0
VERTEX
8
0
10
511.000000
20
256.000000
0
VERTEX
8
0
10
511.000000
20
266.000000
0
VERTEX
8
0
10
512.000000
20
269.000000
0
VERTEX
8
0
10
512.250000
20
269.750000
0
VERTEX
8
0
10
520.932432
20
271.405405
0
VERTEX
8
0
10
522.000000
20
272.000000
0
VERTEX
8
0
10
525.000000
20
272.000000
0
VERTEX
8
0
10
542.000000
20
255.000000
0
VERTEX
8
0
10
542.000000
20
254.000000
0
VERTEX
8
0
10
549.804878
20
246.756098
0
VERTEX
8
0
10
554.195122
20
243.243902
0
VERTEX
8
0
10
569.153846
20
233.230769
0
VERTEX
8
0
10
582.076923
20
227.384615
0
VERTEX
8
0
10
585.923077
20
226.615385
0
VERTEX
8
0
10
587.000000
20
226.000000
0
VERTEX
8
0
10
600.000000
20
226.000000
0
VERTEX
8
0
10
621.000000
20
235.000000
0
VERTEX
8
0
10
624.245902
20
239.795082
0
VERTEX
8
0
10
630.600000
20
248.200000
0
VERTEX
8
0
10
632.352941
20
253.911765
0
VERTEX
8
0
10
635.000000
20
269.000000
0
VERTEX
8
0
10
635.000000
20
286.000000
0
VERTEX
8
0
10
634.000000
20
287.000000
0
VERTEX
8
0
10
634.000000
20
289.000000
0
VERTEX
8
0
10
641.000000
20
296.000000
0
VERTEX
8
0
10
642.000000
20
296.000000
0
VERTEX
8
0
10
647.000000
20
301.000000
0
VERTEX
8
0
10
650.800000
20
309.100000
0
VERTEX
8
0
10
651.200000
20
309.900000
0
VERTEX
8
0
10
657.000000
20
326.000000
0
VERTEX
8
0
10
657.000000
20
330.000000
0
VERTEX
8
0
10
653.647059
20
347.911765
0
VERTEX
8
0
10
649.769231
20
358.846154
0
VERTEX
8
0
10
641.000000
20
371.000000
0
VERTEX
8
0
10
631.900000
20
376.800000
0
VERTEX
8
0
10
631.100000
20
377.200000
0
VERTEX
8
0
10
618.000000
20
381.000000
0
VERTEX
8
0
10
575.000000
20
381.000000
0
VERTEX
8
0
10
559.000000
20
379.000000
0
VERTEX
8
0
10
553.000000
20
379.000000
0
VERTEX
8
0
10
551.000000
20
381.000000
0
VERTEX
8
0
10
548.200000
20
388.100000
0
VERTEX
8
0
10
548.000000
20
390.000000
0
SEQEND
0
POLYLINE
8
0
6
CONTINUOUS
66
1
62
7
10
0.0
20
0.0
30
0.000000
0
VERTEX
8
0
10
488.000000
20
117.000000
0
VERTEX
8
0
10
487.000000
20
118.000000
0
SEQEND
0
POLYLINE
8
0
6
CONTINUOUS
66
1
62
7
10
0.0
20
0.0
30
0.000000
0
VERTEX
8
0
10
486.000000
20
116.000000
0
VERTEX
8
0
10
487.000000
20
118.000000
0
SEQEND
0
POLYLINE
8
0
6
CONTINUOUS
66
1
62
7
10
0.0
20
0.0
30
0.000000
0
VERTEX
8
0
10
486.000000
20
116.000000
0
VERTEX
8
0
10
488.000000
20
117.000000
0
SEQEND
0
POLYLINE
8
0
6
CONTINUOUS
66
1
62
7
10
0.0
20
0.0
30
0.000000
0
VERTEX
8
0
10
476.000000
20
112.000000
0
VERTEX
8
0
10
486.000000
20
116.000000
0
SEQEND
0
POLYLINE
8
0
6
CONTINUOUS
66
1
62
7
10
0.0
20
0.0
30
0.000000
0
VERTEX
8
0
10
473.000000
20
111.000000
0
VERTEX
8
0
10
472.000000
20
112.000000
0
VERTEX
8
0
10
470.000000
20
111.000000
0
SEQEND
0
POLYLINE
8
0
6
CONTINUOUS
66
1
62
7
10
0.0
20
0.0
30
0.000000
0
VERTEX
8
0
10
474.000000
20
111.000000
0
VERTEX
8
0
10
473.000000
20
111.000000
0
SEQEND
0
POLYLINE
8
0
6
CONTINUOUS
66
1
62
7
10
0.0
20
0.0
30
0.000000
0
VERTEX
8
0
10
474.000000
20
111.000000
0
VERTEX
8
0
10
474.000000
20
112.000000
0
VERTEX
8
0
10
475.000000
20
113.000000
0
VERTEX
8
0
10
476.000000
20
112.000000
0
SEQEND
0
POLYLINE
8
0
6
CONTINUOUS
66
1
62
7
10
0.0
20
0.0
30
0.000000
0
VERTEX
8
0
10
474.000000
20
111.000000
0
VERTEX
8
0
10
476.000000
20
112.000000
0
SEQEND
0
POLYLINE
8
0
6
CONTINUOUS
66
1
62
7
10
0.0
20
0.0
30
0.000000
0
VERTEX
8
0
10
470.000000
20
110.000000
0
VERTEX
8
0
10
470.000000
20
111.000000
0
SEQEND
0
POLYLINE
8
0
6
CONTINUOUS
66
1
62
7
10
0.0
20
0.0
30
0.000000
0
VERTEX
8
0
10
470.000000
20
110.000000
0
VERTEX
8
0
10
473.000000
20
111.000000
0
SEQEND
0
POLYLINE
8
0
6
CONTINUOUS
66
1
62
7
10
0.0
20
0.0
30
0.000000
0
VERTEX
8
0
10
328.000000
20
103.000000
0
VERTEX
8
0
10
315.088235
20
105.352941
0
VERTEX
8
0
10
283.900000
20
114.800000
0
VERTEX
8
0
10
275.100000
20
118.300000
0
VERTEX
8
0
10
246.100000
20
133.200000
0
VERTEX
8
0
10
232.900000
20
140.800000
0
VERTEX
8
0
10
216.820000
20
151.760000
0
VERTEX
8
0
10
192.000000
20
172.000000
0
VERTEX
8
0
10
177.000000
20
187.000000
0
VERTEX
8
0
10
161.247788
20
205.216814
0
VERTEX
8
0
10
149.240000
20
221.180000
0
VERTEX
8
0
10
134.200000
20
246.100000
0
VERTEX
8
0
10
130.800000
20
252.900000
0
VERTEX
8
0
10
121.300000
20
273.100000
0
VERTEX
8
0
10
119.300000
20
278.100000
0
VERTEX
8
0
10
105.647059
20
319.911765
0
VERTEX
8
0
10
103.430769
20
334.053846
0
VERTEX
8
0
10
100.647059
20
350.911765
0
VERTEX
8
0
10
100.000000
20
352.000000
0
VERTEX
8
0
10
100.000000
20
383.000000
0
VERTEX
8
0
10
104.430769
20
427.946154
0
VERTEX
8
0
10
105.420000
20
434.940000
0
VERTEX
8
0
10
109.300000
20
451.900000
0
VERTEX
8
0
10
114.700000
20
467.100000
0
VERTEX
8
0
10
127.800000
20
503.100000
0
VERTEX
8
0
10
148.800000
20
539.100000
0
VERTEX
8
0
10
163.243902
20
558.804878
0
VERTEX
8
0
10
173.000000
20
571.000000
0
VERTEX
8
0
10
203.795082
20
599.245902
0
VERTEX
8
0
10
213.180000
20
606.760000
0
VERTEX
8
0
10
233.153846
20
620.769231
0
VERTEX
8
0
10
244.804878
20
627.243902
0
VERTEX
8
0
10
249.195122
20
630.756098
0
VERTEX
8
0
10
265.100000
20
638.800000
0
VERTEX
8
0
10
267.900000
20
640.200000
0
VERTEX
8
0
10
308.076923
20
655.615385
0
VERTEX
8
0
10
317.932432
20
657.405405
0
VERTEX
8
0
10
350.040984
20
663.549180
0
VERTEX
8
0
10
359.959016
20
664.450820
0
VERTEX
8
0
10
377.000000
20
666.000000
0
VERTEX
8
0
10
394.000000
20
666.000000
0
VERTEX
8
0
10
406.964706
20
664.541176
0
VERTEX
8
0
10
419.940000
20
662.580000
0
VERTEX
8
0
10
458.911765
20
655.647059
0
VERTEX
8
0
10
472.900000
20
650.700000
0
VERTEX
8
0
10
489.900000
20
643.800000
0
VERTEX
8
0
10
526.900000
20
626.700000
0
VERTEX
8
0
10
554.804878
20
607.756098
0
VERTEX
8
0
10
565.204918
20
599.245902
0
VERTEX
8
0
10
571.000000
20
595.000000
0
VERTEX
8
0
10
592.000000
20
574.000000
0
VERTEX
8
0
10
600.751381
20
563.776243
0
VERTEX
8
0
10
619.769231
20
538.846154
0
VERTEX
8
0
10
626.769231
20
527.846154
0
VERTEX
8
0
10
641.800000
20
500.900000
0
VERTEX
8
0
10
642.800000
20
498.900000
0
VERTEX
8
0
10
655.700000
20
463.900000
0
VERTEX
8
0
10
656.300000
20
462.100000
0
VERTEX
8
0
10
661.615385
20
444.923077
0
VERTEX
8
0
10
662.384615
20
441.076923
0
VERTEX
8
0
10
666.569231
20
414.946154
0
VERTEX
8
0
10
667.430769
20
408.053846
0
VERTEX
8
0
10
669.000000
20
399.000000
0
VERTEX
8
0
10
669.000000
20
371.000000
0
VERTEX
8
0
10
663.580000
20
323.060000
0
VERTEX
8
0
10
650.647059
20
281.088235
0
VERTEX
8
0
10
649.700000
20
278.100000
0
VERTEX
8
0
10
639.800000
20
257.100000
0
VERTEX
8
0
10
638.800000
20
255.100000
0
VERTEX
8
0
10
618.200000
20
217.900000
0
VERTEX
8
0
10
616.230769
20
214.846154
0
VERTEX
8
0
10
601.000000
20
195.000000
0
VERTEX
8
0
10
574.100000
20
168.800000
0
VERTEX
8
0
10
567.180000
20
163.760000
0
VERTEX
8
0
10
553.776243
20
152.248619
0
VERTEX
8
0
10
545.846154
20
147.230769
0
VERTEX
8
0
10
542.153846
20
144.769231
0
VERTEX
8
0
10
519.900000
20
131.200000
0
VERTEX
8
0
10
519.100000
20
130.800000
0
VERTEX
8
0
10
489.900000
20
117.300000
0
VERTEX
8
0
10
488.000000
20
117.000000
0
SEQEND
0
POLYLINE
8
0
6
CONTINUOUS
66
1
62
7
10
0.0
20
0.0
30
0.000000
0
VERTEX
8
0
10
328.000000
20
103.000000
0
VERTEX
8
0
10
328.000000
20
104.000000
0
VERTEX
8
0
10
322.100000
20
107.200000
0
VERTEX
8
0
10
320.900000
20
107.800000
0
VERTEX
8
0
10
308.000000
20
118.000000
0
VERTEX
8
0
10
300.067568
20
116.594595
0
VERTEX
8
0
10
293.000000
20
116.000000
0
VERTEX
8
0
10
287.067568
20
117.405405
0
VERTEX
8
0
10
271.100000
20
123.300000
0
VERTEX
8
0
10
262.000000
20
129.000000
0
VERTEX
8
0
10
250.800000
20
143.900000
0
VERTEX
8
0
10
248.000000
20
149.000000
0
VERTEX
8
0
10
248.000000
20
163.000000
0
VERTEX
8
0
10
250.352941
20
173.911765
0
VERTEX
8
0
10
251.300000
20
176.900000
0
VERTEX
8
0
10
263.200000
20
197.900000
0
VERTEX
8
0
10
263.800000
20
199.100000
0
VERTEX
8
0
10
276.760000
20
217.180000
0
VERTEX
8
0
10
280.240000
20
221.820000
0
VERTEX
8
0
10
286.000000
20
229.000000
0
VERTEX
8
0
10
287.000000
20
229.000000
0
VERTEX
8
0
10
289.200000
20
231.900000
0
VERTEX
8
0
10
291.000000
20
237.000000
0
VERTEX
8
0
10
290.000000
20
247.000000
0
VERTEX
8
0
10
288.000000
20
249.000000
0
VERTEX
8
0
10
283.932432
20
248.405405
0
VERTEX
8
0
10
277.000000
20
247.000000
0
VERTEX
8
0
10
266.752941
20
235.211765
0
VERTEX
8
0
10
261.247059
20
228.788235
0
VERTEX
8
0
10
256.000000
20
222.000000
0
VERTEX
8
0
10
244.000000
20
210.000000
0
VERTEX
8
0
10
228.820000
20
199.240000
0
VERTEX
8
0
10
224.100000
20
196.800000
0
VERTEX
8
0
10
207.923077
20
190.384615
0
VERTEX
8
0
10
204.076923
20
189.615385
0
VERTEX
8
0
10
192.000000
20
188.000000
0
VERTEX
8
0
10
180.153846
20
192.230769
0
VERTEX
8
0
10
177.846154
20
193.769231
0
VERTEX
8
0
10
175.000000
20
195.000000
0
VERTEX
8
0
10
164.000000
20
206.000000
0
VERTEX
8
0
10
157.230769
20
218.153846
0
VERTEX
8
0
10
154.800000
20
222.900000
0
VERTEX
8
0
10
149.000000
20
238.000000
0
VERTEX
8
0
10
151.000000
20
251.000000
0
VERTEX
8
0
10
141.000000
20
257.000000
0
VERTEX
8
0
10
132.000000
20
266.000000
0
VERTEX
8
0
10
127.230769
20
273.153846
0
VERTEX
8
0
10
122.352941
20
284.088235
0
VERTEX
8
0
10
121.647059
20
286.911765
0
VERTEX
8
0
10
120.000000
20
292.000000
0
VERTEX
8
0
10
120.000000
20
303.000000
0
VERTEX
8
0
10
121.384615
20
307.923077
0
VERTEX
8
0
10
122.700000
20
313.100000
0
VERTEX
8
0
10
125.769231
20
319.153846
0
VERTEX
8
0
10
129.000000
20
324.000000
0
VERTEX
8
0
10
134.846154
20
328.230769
0
VERTEX
8
0
10
148.153846
20
336.769231
0
VERTEX
8
0
10
157.088235
20
340.647059
0
VERTEX
8
0
10
163.911765
20
342.352941
0
VERTEX
8
0
10
197.053846
20
349.569231
0
VERTEX
8
0
10
213.088235
20
351.647059
0
VERTEX
8
0
10
216.000000
20
352.000000
0
VERTEX
8
0
10
223.000000
20
363.000000
0
VERTEX
8
0
10
223.000000
20
364.000000
0
VERTEX
8
0
10
221.000000
20
367.000000
0
VERTEX
8
0
10
220.100000
20
367.200000
0
VERTEX
8
0
10
219.000000
20
368.000000
0
VERTEX
8
0
10
211.000000
20
368.000000
0
VERTEX
8
0
10
204.100000
20
365.700000
0
VERTEX
8
0
10
203.000000
20
365.000000
0
VERTEX
8
0
10
175.000000
20
365.000000
0
VERTEX
8
0
10
172.800000
20
366.400000
0
VERTEX
8
0
10
144.900000
20
370.800000
0
VERTEX
8
0
10
135.900000
20
374.800000
0
VERTEX
8
0
10
130.204918
20
378.245902
0
VERTEX
8
0
10
124.000000
20
383.000000
0
VERTEX
8
0
10
115.800000
20
393.900000
0
VERTEX
8
0
10
115.200000
20
395.100000
0
VERTEX
8
0
10
111.760000
20
403.820000
0
VERTEX
8
0
10
109.000000
20
407.000000
0
VERTEX
8
0
10
109.000000
20
423.000000
0
VERTEX
8
0
10
111.230769
20
426.846154
0
VERTEX
8
0
10
112.769231
20
429.153846
0
VERTEX
8
0
10
119.000000
20
438.000000
0
VERTEX
8
0
10
130.000000
20
449.000000
0
VERTEX
8
0
10
136.000000
20
452.000000
0
VERTEX
8
0
10
136.200000
20
452.900000
0
VERTEX
8
0
10
133.352941
20
464.088235
0
VERTEX
8
0
10
132.000000
20
468.000000
0
VERTEX
8
0
10
132.569231
20
477.053846
0
VERTEX
8
0
10
133.430769
20
483.946154
0
VERTEX
8
0
10
138.200000
20
495.900000
0
VERTEX
8
0
10
138.800000
20
497.100000
0
VERTEX
8
0
10
140.000000
20
500.000000
0
VERTEX
8
0
10
149.000000
20
509.000000
0
VERTEX
8
0
10
162.100000
20
514.700000
0
VERTEX
8
0
10
166.900000
20
516.300000
0
VERTEX
8
0
10
168.000000
20
517.000000
0
VERTEX
8
0
10
179.946154
20
515.569231
0
VERTEX
8
0
10
189.900000
20
512.800000
0
VERTEX
8
0
10
199.100000
20
509.200000
0
VERTEX
8
0
10
207.820000
20
503.760000
0
VERTEX
8
0
10
211.180000
20
501.240000
0
VERTEX
8
0
10
240.900000
20
479.800000
0
VERTEX
8
0
10
242.900000
20
478.800000
0
VERTEX
8
0
10
248.000000
20
476.000000
0
VERTEX
8
0
10
257.940000
20
477.420000
0
VERTEX
8
0
10
261.000000
20
479.000000
0
VERTEX
8
0
10
248.000000
20
493.000000
0
VERTEX
8
0
10
242.804878
20
496.756098
0
VERTEX
8
0
10
238.000000
20
500.000000
0
VERTEX
8
0
10
219.760000
20
518.820000
0
VERTEX
8
0
10
215.230769
20
525.153846
0
VERTEX
8
0
10
205.700000
20
541.900000
0
VERTEX
8
0
10
203.000000
20
560.000000
0
VERTEX
8
0
10
207.230769
20
576.846154
0
VERTEX
8
0
10
208.769231
20
579.153846
0
VERTEX
8
0
10
212.000000
20
584.000000
0
VERTEX
8
0
10
223.000000
20
595.000000
0
VERTEX
8
0
10
225.100000
20
595.800000
0
VERTEX
8
0
10
235.100000
20
600.800000
0
VERTEX
8
0
10
243.048780
20
602.560976
0
VERTEX
8
0
10
260.076923
20
604.615385
0
VERTEX
8
0
10
264.000000
20
605.000000
0
VERTEX
8
0
10
268.000000
20
609.000000
0
VERTEX
8
0
10
270.000000
20
613.000000
0
VERTEX
8
0
10
280.000000
20
623.000000
0
VERTEX
8
0
10
283.153846
20
624.769231
0
VERTEX
8
0
10
286.153846
20
626.769231
0
VERTEX
8
0
10
293.100000
20
629.700000
0
VERTEX
8
0
10
294.900000
20
630.300000
0
VERTEX
8
0
10
300.000000
20
633.000000
0
VERTEX
8
0
10
318.000000
20
633.000000
0
VERTEX
8
0
10
323.932432
20
631.594595
0
VERTEX
8
0
10
327.846154
20
629.769231
0
VERTEX
8
0
10
333.000000
20
626.000000
0
VERTEX
8
0
10
342.200000
20
610.100000
0
VERTEX
8
0
10
344.800000
20
604.900000
0
VERTEX
8
0
10
349.615385
20
591.923077
0
VERTEX
8
0
10
352.200000
20
582.100000
0
VERTEX
8
0
10
356.569231
20
553.946154
0
VERTEX
8
0
10
358.000000
20
544.000000
0
VERTEX
8
0
10
360.000000
20
542.000000
0
VERTEX
8
0
10
363.088235
20
541.352941
0
VERTEX
8
0
10
370.000000
20
540.000000
0
VERTEX
8
0
10
373.900000
20
542.200000
0
VERTEX
8
0
10
376.000000
20
543.000000
0
VERTEX
8
0
10
378.000000
20
546.000000
0
VERTEX
8
0
10
377.000000
20
577.000000
0
VERTEX
8
0
10
379.445545
20
604.955446
0
VERTEX
8
0
10
380.647059
20
610.088235
0
VERTEX
8
0
10
383.240000
20
616.820000
0
VERTEX
8
0
10
387.769231
20
623.153846
0
VERTEX
8
0
10
399.000000
20
635.000000
0
VERTEX
8
0
10
401.846154
20
636.230769
0
VERTEX
8
0
10
408.100000
20
639.700000
0
VERTEX
8
0
10
417.946154
20
641.430769
0
VERTEX
8
0
10
428.000000
20
642.000000
0
VERTEX
8
0
10
433.932432
20
640.594595
0
VERTEX
8
0
10
441.900000
20
636.800000
0
VERTEX
8
0
10
443.100000
20
636.200000
0
VERTEX
8
0
10
452.000000
20
628.000000
0
VERTEX
8
0
10
454.000000
20
624.000000
0
VERTEX
8
0
10
457.000000
20
621.000000
0
VERTEX
8
0
10
463.067568
20
622.594595
0
VERTEX
8
0
10
467.932432
20
623.405405
0
VERTEX
8
0
10
475.000000
20
624.000000
0
VERTEX
8
0
10
485.923077
20
621.615385
0
VERTEX
8
0
10
489.100000
20
620.300000
0
VERTEX
8
0
10
504.000000
20
614.000000
0
VERTEX
8
0
10
512.756098
20
603.804878
0
VERTEX
8
0
10
517.647059
20
593.911765
0
VERTEX
8
0
10
518.352941
20
591.088235
0
VERTEX
8
0
10
520.000000
20
586.000000
0
VERTEX
8
0
10
520.000000
20
580.000000
0
VERTEX
8
0
10
515.647059
20
562.088235
0
VERTEX
8
0
10
513.200000
20
553.900000
0
VERTEX
8
0
10
503.240000
20
536.820000
0
VERTEX
8
0
10
486.243902
20
515.804878
0
VERTEX
8
0
10
480.000000
20
506.000000
0
VERTEX
8
0
10
481.000000
20
501.000000
0
VERTEX
8
0
10
482.000000
20
500.000000
0
VERTEX
8
0
10
485.923077
20
499.615385
0
VERTEX
8
0
10
487.000000
20
499.000000
0
VERTEX
8
0
10
501.000000
20
499.000000
0
VERTEX
8
0
10
524.239367
20
521.750226
0
VERTEX
8
0
10
540.180000
20
535.760000
0
VERTEX
8
0
10
547.900000
20
541.200000
0
VERTEX
8
0
10
561.900000
20
547.300000
0
VERTEX
8
0
10
569.000000
20
549.000000
0
VERTEX
8
0
10
577.000000
20
549.000000
0
VERTEX
8
0
10
583.900000
20
546.800000
0
VERTEX
8
0
10
594.000000
20
540.000000
0
VERTEX
8
0
10
606.200000
20
524.100000
0
VERTEX
8
0
10
608.594595
20
515.932432
0
VERTEX
8
0
10
609.405405
20
511.067568
0
VERTEX
8
0
10
609.250000
20
494.250000
0
VERTEX
8
0
10
616.900000
20
491.700000
0
VERTEX
8
0
10
627.000000
20
486.000000
0
VERTEX
8
0
10
635.230769
20
475.153846
0
VERTEX
8
0
10
645.000000
20
456.000000
0
VERTEX
8
0
10
645.000000
20
438.000000
0
VERTEX
8
0
10
642.800000
20
433.100000
0
VERTEX
8
0
10
642.200000
20
431.900000
0
VERTEX
8
0
10
638.752212
20
426.216814
0
VERTEX
8
0
10
626.000000
20
412.000000
0
VERTEX
8
0
10
623.900000
20
411.200000
0
VERTEX
8
0
10
621.900000
20
410.200000
0
VERTEX
8
0
10
607.911765
20
405.352941
0
VERTEX
8
0
10
593.060000
20
402.580000
0
VERTEX
8
0
10
558.951220
20
399.439024
0
VERTEX
8
0
10
551.000000
20
399.000000
0
VERTEX
8
0
10
547.000000
20
394.000000
0
VERTEX
8
0
10
547.000000
20
391.000000
0
VERTEX
8
0
10
548.000000
20
390.000000
0
SEQEND
0
POLYLINE
8
0
6
CONTINUOUS
66
1
62
7
10
0.0
20
0.0
30
0.000000
0
VERTEX
8
0
10
330.000000
20
103.000000
0
VERTEX
8
0
10
328.000000
20
103.000000
0
SEQEND
0
POLYLINE
8
0
6
CONTINUOUS
66
1
62
7
10
0.0
20
0.0
30
0.000000
0
VERTEX
8
0
10
332.000000
20
102.000000
0
VERTEX
8
0
10
330.000000
20
103.000000
0
SEQEND
0
POLYLINE
8
0
6
CONTINUOUS
66
1
62
7
10
0.0
20
0.0
30
0.000000
0
VERTEX
8
0
10
332.000000
20
102.000000
0
VERTEX
8
0
10
332.000000
20
103.000000
0
VERTEX
8
0
10
331.000000
20
104.000000
0
VERTEX
8
0
10
330.000000
20
103.000000
0
SEQEND
0
POLYLINE
8
0
6
CONTINUOUS
66
1
62
7
10
0.0
20
0.0
30
0.000000
0
VERTEX
8
0
10
342.000000
20
101.000000
0
VERTEX
8
0
10
332.000000
20
102.000000
0
SEQEND
0
POLYLINE
8
0
6
CONTINUOUS
66
1
62
7
10
0.0
20
0.0
30
0.000000
0
VERTEX
8
0
10
342.000000
20
101.000000
0
VERTEX
8
0
10
360.100000
20
102.800000
0
VERTEX
8
0
10
374.000000
20
110.000000
0
VERTEX
8
0
10
384.230769
20
121.846154
0
VERTEX
8
0
10
389.200000
20
131.900000
0
VERTEX
8
0
10
389.700000
20
133.100000
0
VERTEX
8
0
10
392.507933
20
143.007689
0
VERTEX
8
0
10
393.000000
20
206.000000
0
VERTEX
8
0
10
398.900000
20
210.200000
0
VERTEX
8
0
10
402.000000
20
210.000000
0
VERTEX
8
0
10
405.230769
20
206.153846
0
VERTEX
8
0
10
407.700000
20
201.900000
0
VERTEX
8
0
10
411.615385
20
183.923077
0
VERTEX
8
0
10
421.352941
20
139.088235
0
VERTEX
8
0
10
426.243902
20
129.195122
0
VERTEX
8
0
10
430.000000
20
124.000000
0
VERTEX
8
0
10
436.846154
20
117.769231
0
VERTEX
8
0
10
439.846154
20
115.769231
0
VERTEX
8
0
10
448.060000
20
111.420000
0
VERTEX
8
0
10
455.000000
20
110.000000
0
VERTEX
8
0
10
464.000000
20
110.000000
0
VERTEX
8
0
10
470.000000
20
111.000000
0
SEQEND
0
POLYLINE
8
0
6
CONTINUOUS
66
1
62
7
10
0.0
20
0.0
30
0.000000
0
VERTEX
8
0
10
379.000000
20
100.000000
0
VERTEX
8
0
10
382.900000
20
102.200000
0
VERTEX
8
0
10
400.067568
20
108.594595
0
VERTEX
8
0
10
404.932432
20
109.405405
0
VERTEX
8
0
10
406.000000
20
110.000000
0
VERTEX
8
0
10
417.000000
20
110.000000
0
VERTEX
8
0
10
418.088235
20
109.352941
0
VERTEX
8
0
10
433.000000
20
106.000000
0
VERTEX
8
0
10
434.000000
20
108.000000
0
VERTEX
8
0
10
424.756098
20
119.804878
0
VERTEX
8
0
10
421.243902
20
124.195122
0
VERTEX
8
0
10
419.200000
20
128.100000
0
VERTEX
8
0
10
414.700000
20
137.900000
0
VERTEX
8
0
10
409.405405
20
160.067568
0
VERTEX
8
0
10
405.405405
20
183.067568
0
VERTEX
8
0
10
402.000000
20
204.000000
0
VERTEX
8
0
10
400.000000
20
206.000000
0
VERTEX
8
0
10
398.000000
20
204.000000
0
VERTEX
8
0
10
397.000000
20
201.000000
0
VERTEX
8
0
10
397.569231
20
194.946154
0
VERTEX
8
0
10
398.430769
20
188.053846
0
VERTEX
8
0
10
399.000000
20
187.000000
0
VERTEX
8
0
10
399.000000
20
140.000000
0
VERTEX
8
0
10
396.647059
20
132.088235
0
VERTEX
8
0
10
394.200000
20
125.900000
0
VERTEX
8
0
10
386.760000
20
112.180000
0
VERTEX
8
0
10
384.240000
20
108.820000
0
VERTEX
8
0
10
378.000000
20
101.000000
0
VERTEX
8
0
10
379.000000
20
100.000000
0
SEQEND
0
POLYLINE
8
0
6
CONTINUOUS
66
1
62
7
10
0.0
20
0.0
30
0.000000
0
VERTEX
8
0
10
342.000000
20
101.000000
0
VERTEX
8
0
10
343.067568
20
100.405405
0
VERTEX
8
0
10
381.000000
20
97.000000
0
VERTEX
8
0
10
415.000000
20
97.000000
0
VERTEX
8
0
10
459.923077
20
106.384615
0
VERTEX
8
0
10
461.088235
20
106.647059
0
VERTEX
8
0
10
468.900000
20
109.200000
0
VERTEX
8
0
10
470.000000
20
110.000000
0
SEQEND
0
POLYLINE
8
0
6
CONTINUOUS
66
1
62
7
10
0.0
20
0.0
30
0.000000
0
VERTEX
8
0
10
550.000000
20
97.000000
0
VERTEX
8
0
10
557.000000
20
99.000000
0
VERTEX
8
0
10
562.200000
20
105.900000
0
VERTEX
8
0
10
564.000000
20
111.000000
0
VERTEX
8
0
10
562.800000
20
114.900000
0
VERTEX
8
0
10
561.000000
20
119.000000
0
VERTEX
8
0
10
555.100000
20
123.200000
0
VERTEX
8
0
10
552.000000
20
125.000000
0
VERTEX
8
0
10
546.000000
20
125.000000
0
VERTEX
8
0
10
544.180000
20
123.760000
0
VERTEX
8
0
10
540.000000
20
121.000000
0
VERTEX
8
0
10
536.800000
20
115.100000
0
VERTEX
8
0
10
536.000000
20
114.000000
0
VERTEX
8
0
10
536.000000
20
110.000000
0
VERTEX
8
0
10
539.000000
20
102.000000
0
VERTEX
8
0
10
548.100000
20
97.300000
0
VERTEX
8
0
10
550.000000
20
97.000000
0
SEQEND
0
POLYLINE
8
0
6
CONTINUOUS
66
1
62
7
10
0.0
20
0.0
30
0.000000
0
VERTEX
8
0
10
217.000000
20
90.000000
0
VERTEX
8
0
10
223.000000
20
92.000000
0
VERTEX
8
0
10
228.200000
20
97.900000
0
VERTEX
8
0
10
230.000000
20
103.000000
0
VERTEX
8
0
10
229.200000
20
106.100000
0
VERTEX
8
0
10
228.000000
20
109.000000
0
VERTEX
8
0
10
222.000000
20
115.000000
0
VERTEX
8
0
10
218.846154
20
116.769231
0
VERTEX
8
0
10
218.100000
20
117.200000
0
VERTEX
8
0
10
217.000000
20
118.000000
0
VERTEX
8
0
10
212.000000
20
118.000000
0
VERTEX
8
0
10
210.153846
20
116.769231
0
VERTEX
8
0
10
207.000000
20
115.000000
0
VERTEX
8
0
10
203.800000
20
110.100000
0
VERTEX
8
0
10
203.000000
20
109.000000
0
VERTEX
8
0
10
203.000000
20
101.000000
0
VERTEX
8
0
10
205.000000
20
96.000000
0
VERTEX
8
0
10
207.000000
20
94.000000
0
VERTEX
8
0
10
215.100000
20
90.300000
0
VERTEX
8
0
10
217.000000
20
90.000000
0
SEQEND
0
POLYLINE
8
0
6
CONTINUOUS
66
1
62
7
10
0.0
20
0.0
30
0.000000
0
VERTEX
8
0
10
419.000000
20
89.000000
0
VERTEX
8
0
10
456.923077
20
97.384615
0
VERTEX
8
0
10
471.900000
20
101.300000
0
VERTEX
8
0
10
492.900000
20
109.300000
0
VERTEX
8
0
10
517.900000
20
120.200000
0
VERTEX
8
0
10
532.900000
20
128.200000
0
VERTEX
8
0
10
549.846154
20
139.230769
0
VERTEX
8
0
10
552.153846
20
140.769231
0
VERTEX
8
0
10
582.783186
20
166.247788
0
VERTEX
8
0
10
590.216814
20
172.752212
0
VERTEX
8
0
10
607.000000
20
189.000000
0
VERTEX
8
0
10
624.760000
20
212.180000
0
VERTEX
8
0
10
635.200000
20
228.900000
0
VERTEX
8
0
10
643.800000
20
243.100000
0
VERTEX
8
0
10
660.700000
20
282.100000
0
VERTEX
8
0
10
666.300000
20
301.900000
0
VERTEX
8
0
10
672.384615
20
329.923077
0
VERTEX
8
0
10
673.405405
20
335.932432
0
VERTEX
8
0
10
675.533074
20
352.029183
0
VERTEX
8
0
10
676.466926
20
366.970817
0
VERTEX
8
0
10
677.000000
20
399.000000
0
VERTEX
8
0
10
675.560976
20
407.951220
0
VERTEX
8
0
10
674.569231
20
415.946154
0
VERTEX
8
0
10
671.352941
20
437.088235
0
VERTEX
8
0
10
670.352941
20
441.088235
0
VERTEX
8
0
10
662.800000
20
470.900000
0
VERTEX
8
0
10
657.200000
20
484.100000
0
VERTEX
8
0
10
643.769231
20
515.846154
0
VERTEX
8
0
10
637.230769
20
527.153846
0
VERTEX
8
0
10
614.240000
20
560.180000
0
VERTEX
8
0
10
596.000000
20
582.000000
0
VERTEX
8
0
10
578.000000
20
600.000000
0
VERTEX
8
0
10
570.788235
20
605.752941
0
VERTEX
8
0
10
543.820000
20
626.760000
0
VERTEX
8
0
10
526.900000
20
635.800000
0
VERTEX
8
0
10
513.846154
20
642.769231
0
VERTEX
8
0
10
489.900000
20
654.700000
0
VERTEX
8
0
10
470.100000
20
661.300000
0
VERTEX
8
0
10
446.932432
20
667.594595
0
VERTEX
8
0
10
436.067568
20
669.405405
0
VERTEX
8
0
10
411.970817
20
672.533074
0
VERTEX
8
0
10
397.029183
20
673.466926
0
VERTEX
8
0
10
366.000000
20
674.000000
0
VERTEX
8
0
10
334.076923
20
669.615385
0
VERTEX
8
0
10
325.076923
20
667.615385
0
VERTEX
8
0
10
292.900000
20
659.200000
0
VERTEX
8
0
10
287.100000
20
656.700000
0
VERTEX
8
0
10
237.100000
20
633.800000
0
VERTEX
8
0
10
227.846154
20
628.230769
0
VERTEX
8
0
10
208.204918
20
613.754098
0
VERTEX
8
0
10
202.795082
20
609.245902
0
VERTEX
8
0
10
184.000000
20
593.000000
0
VERTEX
8
0
10
172.000000
20
581.000000
0
VERTEX
8
0
10
150.240000
20
554.820000
0
VERTEX
8
0
10
140.240000
20
540.820000
0
VERTEX
8
0
10
126.200000
20
515.900000
0
VERTEX
8
0
10
121.800000
20
508.100000
0
VERTEX
8
0
10
110.300000
20
482.900000
0
VERTEX
8
0
10
104.700000
20
467.100000
0
VERTEX
8
0
10
97.405405
20
437.932432
0
VERTEX
8
0
10
96.594595
20
433.067568
0
VERTEX
8
0
10
92.000000
20
393.000000
0
VERTEX
8
0
10
92.000000
20
373.000000
0
VERTEX
8
0
10
95.405405
20
338.067568
0
VERTEX
8
0
10
100.405405
20
311.067568
0
VERTEX
8
0
10
106.300000
20
289.100000
0
VERTEX
8
0
10
106.647059
20
287.911765
0
VERTEX
8
0
10
110.200000
20
278.100000
0
VERTEX
8
0
10
110.800000
20
276.900000
0
VERTEX
8
0
10
130.230769
20
237.153846
0
VERTEX
8
0
10
134.800000
20
228.900000
0
VERTEX
8
0
10
152.760000
20
201.820000
0
VERTEX
8
0
10
168.000000
20
184.000000
0
VERTEX
8
0
10
182.000000
20
170.000000
0
VERTEX
8
0
10
200.216814
20
154.247788
0
VERTEX
8
0
10
210.223757
20
145.248619
0
VERTEX
8
0
10
246.900000
20
122.800000
0
VERTEX
8
0
10
248.900000
20
121.800000
0
VERTEX
8
0
10
284.088235
20
105.352941
0
VERTEX
8
0
10
293.911765
20
102.647059
0
VERTEX
8
0
10
340.060000
20
91.420000
0
VERTEX
8
0
10
345.940000
20
90.580000
0
VERTEX
8
0
10
354.007459
20
89.492311
0
VERTEX
8
0
10
419.000000
20
89.000000
0
SEQEND
0
POLYLINE
8
0
6
CONTINUOUS
66
1
62
7
10
0.0
20
0.0
30
0.000000
0
VERTEX
8
0
10
506.000000
20
74.000000
0
VERTEX
8
0
10
511.100000
20
75.800000
0
VERTEX
8
0
10
517.000000
20
81.000000
0
VERTEX
8
0
10
518.300000
20
84.900000
0
VERTEX
8
0
10
519.000000
20
86.000000
0
VERTEX
8
0
10
518.384615
20
91.076923
0
VERTEX
8
0
10
515.000000
20
99.000000
0
VERTEX
8
0
10
513.000000
20
101.000000
0
VERTEX
8
0
10
509.000000
20
102.000000
0
VERTEX
8
0
10
498.000000
20
101.000000
0
VERTEX
8
0
10
497.000000
20
100.000000
0
VERTEX
8
0
10
492.000000
20
90.000000
0
VERTEX
8
0
10
492.000000
20
86.000000
0
VERTEX
8
0
10
493.300000
20
83.100000
0
VERTEX
8
0
10
493.800000
20
81.900000
0
VERTEX
8
0
10
499.000000
20
76.000000
0
VERTEX
8
0
10
501.100000
20
75.300000
0
VERTEX
8
0
10
506.000000
20
74.000000
0
SEQEND
0
POLYLINE
8
0
6
CONTINUOUS
66
1
62
7
10
0.0
20
0.0
30
0.000000
0
VERTEX
8
0
10
261.000000
20
67.000000
0
VERTEX
8
0
10
265.846154
20
69.230769
0
VERTEX
8
0
10
271.000000
20
73.000000
0
VERTEX
8
0
10
273.000000
20
80.000000
0
VERTEX
8
0
10
272.352941
20
84.088235
0
VERTEX
8
0
10
271.000000
20
90.000000
0
VERTEX
8
0
10
264.100000
20
94.200000
0
VERTEX
8
0
10
263.000000
20
95.000000
0
VERTEX
8
0
10
256.000000
20
95.000000
0
VERTEX
8
0
10
254.100000
20
93.800000
0
VERTEX
8
0
10
252.000000
20
93.000000
0
VERTEX
8
0
10
247.800000
20
86.100000
0
VERTEX
8
0
10
247.000000
20
85.000000
0
VERTEX
8
0
10
247.000000
20
81.000000
0
VERTEX
8
0
10
249.240000
20
75.180000
0
VERTEX
8
0
10
252.000000
20
71.000000
0
VERTEX
8
0
10
257.900000
20
67.800000
0
VERTEX
8
0
10
261.000000
20
67.000000
0
SEQEND
0
POLYLINE
8
0
6
CONTINUOUS
66
1
62
7
10
0.0
20
0.0
30
0.000000
0
VERTEX
8
0
10
458.000000
20
59.000000
0
VERTEX
8
0
10
468.000000
20
64.000000
0
VERTEX
8
0
10
470.200000
20
67.900000
0
VERTEX
8
0
10
472.000000
20
72.000000
0
VERTEX
8
0
10
472.000000
20
76.000000
0
VERTEX
8
0
10
470.600000
20
78.800000
0
VERTEX
8
0
10
469.230769
20
81.153846
0
VERTEX
8
0
10
465.000000
20
86.000000
0
VERTEX
8
0
10
462.900000
20
86.800000
0
VERTEX
8
0
10
462.100000
20
87.200000
0
VERTEX
8
0
10
461.000000
20
88.000000
0
VERTEX
8
0
10
456.911765
20
87.352941
0
VERTEX
8
0
10
452.000000
20
86.000000
0
VERTEX
8
0
10
447.000000
20
81.000000
0
VERTEX
8
0
10
446.000000
20
77.000000
0
VERTEX
8
0
10
446.000000
20
70.000000
0
VERTEX
8
0
10
447.352941
20
66.088235
0
VERTEX
8
0
10
447.800000
20
64.900000
0
VERTEX
8
0
10
450.000000
20
62.000000
0
VERTEX
8
0
10
455.100000
20
60.200000
0
VERTEX
8
0
10
458.000000
20
59.000000
0
SEQEND
0
POLYLINE
8
0
6
CONTINUOUS
66
1
62
7
10
0.0
20
0.0
30
0.000000
0
VERTEX
8
0
10
309.000000
20
57.000000
0
VERTEX
8
0
10
314.100000
20
58.800000
0
VERTEX
8
0
10
320.000000
20
64.000000
0
VERTEX
8
0
10
321.000000
20
72.000000
0
VERTEX
8
0
10
319.647059
20
75.911765
0
VERTEX
8
0
10
319.300000
20
77.100000
0
VERTEX
8
0
10
319.000000
20
79.000000
0
VERTEX
8
0
10
316.000000
20
82.000000
0
VERTEX
8
0
10
312.800000
20
83.600000
0
VERTEX
8
0
10
311.100000
20
84.300000
0
VERTEX
8
0
10
310.000000
20
85.000000
0
VERTEX
8
0
10
306.000000
20
85.000000
0
VERTEX
8
0
10
303.100000
20
83.700000
0
VERTEX
8
0
10
301.900000
20
83.200000
0
VERTEX
8
0
10
299.000000
20
81.000000
0
VERTEX
8
0
10
297.517241
20
77.793103
0
VERTEX
8
0
10
296.647059
20
75.088235
0
VERTEX
8
0
10
296.000000
20
69.000000
0
VERTEX
8
0
10
297.352941
20
65.088235
0
VERTEX
8
0
10
297.800000
20
63.900000
0
VERTEX
8
0
10
302.000000
20
59.000000
0
VERTEX
8
0
10
304.100000
20
58.300000
0
VERTEX
8
0
10
309.000000
20
57.000000
0
SEQEND
0
POLYLINE
8
0
6
CONTINUOUS
66
1
62
7
10
0.0
20
0.0
30
0.000000
0
VERTEX
8
0
10
364.000000
20
53.000000
0
VERTEX
8
0
10
368.000000
20
54.000000
0
VERTEX
8
0
10
372.000000
20
58.000000
0
VERTEX
8
0
10
372.300000
20
59.900000
0
VERTEX
8
0
10
373.000000
20
61.000000
0
VERTEX
8
0
10
373.000000
20
69.000000
0
VERTEX
8
0
10
371.800000
20
70.900000
0
VERTEX
8
0
10
371.000000
20
73.000000
0
VERTEX
8
0
10
366.000000
20
78.000000
0
VERTEX
8
0
10
357.000000
20
79.000000
0
VERTEX
8
0
10
350.000000
20
77.000000
0
VERTEX
8
0
10
348.000000
20
75.000000
0
VERTEX
8
0
10
347.000000
20
65.000000
0
VERTEX
8
0
10
347.647059
20
63.911765
0
VERTEX
8
0
10
349.000000
20
59.000000
0
VERTEX
8
0
10
351.000000
20
57.000000
0
VERTEX
8
0
10
359.067568
20
53.405405
0
VERTEX
8
0
10
364.000000
20
53.000000
0
SEQEND
0
POLYLINE
8
0
6
CONTINUOUS
66
1
62
7
10
0.0
20
0.0
30
0.000000
0
VERTEX
8
0
10
412.000000
20
51.000000
0
VERTEX
8
0
10
417.100000
20
52.800000
0
VERTEX
8
0
10
420.000000
20
55.000000
0
VERTEX
8
0
10
423.384615
20
62.923077
0
VERTEX
8
0
10
424.000000
20
67.000000
0
VERTEX
8
0
10
419.000000
20
75.000000
0
VERTEX
8
0
10
418.100000
20
75.200000
0
VERTEX
8
0
10
413.000000
20
78.000000
0
VERTEX
8
0
10
404.000000
20
77.000000
0
VERTEX
8
0
10
397.800000
20
70.100000
0
VERTEX
8
0
10
397.000000
20
69.000000
0
VERTEX
8
0
10
397.000000
20
61.000000
0
VERTEX
8
0
10
402.000000
20
54.000000
0
VERTEX
8
0
10
402.900000
20
53.800000
0
VERTEX
8
0
10
409.088235
20
51.352941
0
VERTEX
8
0
10
412.000000
20
51.000000
0
SEQEND
0
POLYLINE
8
0
6
CONTINUOUS
66
1
62
7
10
0.0
20
0.0
30
0.000000
0
VERTEX
8
0
10
413.000000
20
36.000000
0
VERTEX
8
0
10
461.940000
20
44.420000
0
VERTEX
8
0
10
481.900000
20
50.300000
0
VERTEX
8
0
10
506.900000
20
58.300000
0
VERTEX
8
0
10
545.900000
20
75.200000
0
VERTEX
8
0
10
556.153846
20
80.769231
0
VERTEX
8
0
10
589.820000
20
102.240000
0
VERTEX
8
0
10
593.180000
20
104.760000
0
VERTEX
8
0
10
623.220690
20
130.751724
0
VERTEX
8
0
10
636.000000
20
143.000000
0
VERTEX
8
0
10
636.497238
20
144.552486
0
VERTEX
8
0
10
653.750365
20
163.236496
0
VERTEX
8
0
10
659.769231
20
172.153846
0
VERTEX
8
0
10
662.760000
20
176.180000
0
VERTEX
8
0
10
684.800000
20
209.100000
0
VERTEX
8
0
10
690.200000
20
218.900000
0
VERTEX
8
0
10
709.700000
20
261.100000
0
VERTEX
8
0
10
715.352941
20
279.911765
0
VERTEX
8
0
10
725.000000
20
317.000000
0
VERTEX
8
0
10
723.000000
20
322.000000
0
VERTEX
8
0
10
725.275862
20
325.310345
0
VERTEX
8
0
10
727.549180
20
337.040984
0
VERTEX
8
0
10
729.466926
20
362.970817
0
VERTEX
8
0
10
730.000000
20
386.000000
0
VERTEX
8
0
10
727.549180
20
420.959016
0
VERTEX
8
0
10
722.615385
20
447.923077
0
VERTEX
8
0
10
721.384615
20
455.076923
0
VERTEX
8
0
10
717.700000
20
470.900000
0
VERTEX
8
0
10
709.300000
20
498.100000
0
VERTEX
8
0
10
690.200000
20
539.100000
0
VERTEX
8
0
10
685.200000
20
548.100000
0
VERTEX
8
0
10
668.756098
20
575.804878
0
VERTEX
8
0
10
653.230769
20
596.153846
0
VERTEX
8
0
10
645.000000
20
607.000000
0
VERTEX
8
0
10
615.000000
20
637.000000
0
VERTEX
8
0
10
584.180000
20
662.240000
0
VERTEX
8
0
10
580.820000
20
664.760000
0
VERTEX
8
0
10
552.100000
20
683.200000
0
VERTEX
8
0
10
538.100000
20
690.200000
0
VERTEX
8
0
10
511.900000
20
701.700000
0
VERTEX
8
0
10
496.100000
20
707.300000
0
VERTEX
8
0
10
436.100000
20
721.300000
0
VERTEX
8
0
10
429.060000
20
722.420000
0
VERTEX
8
0
10
403.982192
20
724.519178
0
VERTEX
8
0
10
362.000000
20
726.000000
0
VERTEX
8
0
10
357.076923
20
724.615385
0
VERTEX
8
0
10
313.076923
20
717.615385
0
VERTEX
8
0
10
280.088235
20
708.647059
0
VERTEX
8
0
10
260.100000
20
701.700000
0
VERTEX
8
0
10
224.100000
20
686.800000
0
VERTEX
8
0
10
210.900000
20
680.200000
0
VERTEX
8
0
10
184.180000
20
662.760000
0
VERTEX
8
0
10
180.820000
20
660.240000
0
VERTEX
8
0
10
154.000000
20
639.000000
0
VERTEX
8
0
10
134.000000
20
619.000000
0
VERTEX
8
0
10
127.247788
20
610.783186
0
VERTEX
8
0
10
106.230769
20
585.846154
0
VERTEX
8
0
10
79.200000
20
541.900000
0
VERTEX
8
0
10
74.200000
20
532.900000
0
VERTEX
8
0
10
63.300000
20
507.900000
0
VERTEX
8
0
10
54.700000
20
482.100000
0
VERTEX
8
0
10
47.384615
20
456.923077
0
VERTEX
8
0
10
46.615385
20
453.076923
0
VERTEX
8
0
10
39.000000
20
410.000000
0
VERTEX
8
0
10
39.000000
20
349.000000
0
VERTEX
8
0
10
40.439024
20
340.048780
0
VERTEX
8
0
10
46.647059
20
302.911765
0
VERTEX
8
0
10
57.700000
20
269.900000
0
VERTEX
8
0
10
64.300000
20
251.100000
0
VERTEX
8
0
10
76.200000
20
225.100000
0
VERTEX
8
0
10
82.200000
20
213.100000
0
VERTEX
8
0
10
101.230769
20
182.153846
0
VERTEX
8
0
10
102.769231
20
179.846154
0
VERTEX
8
0
10
116.249315
20
162.231507
0
VERTEX
8
0
10
129.000000
20
148.000000
0
VERTEX
8
0
10
167.846154
20
110.769231
0
VERTEX
8
0
10
187.153846
20
98.230769
0
VERTEX
8
0
10
218.900000
20
78.800000
0
VERTEX
8
0
10
234.900000
20
69.800000
0
VERTEX
8
0
10
250.088235
20
62.352941
0
VERTEX
8
0
10
280.100000
20
52.300000
0
VERTEX
8
0
10
303.923077
20
45.615385
0
VERTEX
8
0
10
312.911765
20
43.647059
0
VERTEX
8
0
10
341.048780
20
38.439024
0
VERTEX
8
0
10
348.951220
20
37.560976
0
VERTEX
8
0
10
372.011615
20
36.487819
0
VERTEX
8
0
10
413.000000
20
36.000000
0
SEQEND
0
POLYLINE
8
0
6
CONTINUOUS
66
1
62
7
10
0.0
20
0.0
30
0.000000
0
VERTEX
8
0
10
401.000000
20
26.000000
0
VERTEX
8
0
10
449.067568
20
31.594595
0
VERTEX
8
0
10
453.932432
20
32.405405
0
VERTEX
8
0
10
483.100000
20
39.700000
0
VERTEX
8
0
10
504.911765
20
46.352941
0
VERTEX
8
0
10
545.900000
20
64.200000
0
VERTEX
8
0
10
551.100000
20
66.800000
0
VERTEX
8
0
10
585.846154
20
87.230769
0
VERTEX
8
0
10
595.153846
20
93.769231
0
VERTEX
8
0
10
619.000000
20
112.000000
0
VERTEX
8
0
10
648.000000
20
140.000000
0
VERTEX
8
0
10
660.760000
20
156.180000
0
VERTEX
8
0
10
666.243902
20
163.804878
0
VERTEX
8
0
10
681.800000
20
184.100000
0
VERTEX
8
0
10
693.769231
20
205.153846
0
VERTEX
8
0
10
708.800000
20
234.100000
0
VERTEX
8
0
10
715.200000
20
247.900000
0
VERTEX
8
0
10
724.300000
20
274.900000
0
VERTEX
8
0
10
729.615385
20
295.076923
0
VERTEX
8
0
10
730.384615
20
298.923077
0
VERTEX
8
0
10
740.000000
20
347.000000
0
VERTEX
8
0
10
740.000000
20
412.000000
0
VERTEX
8
0
10
731.594595
20
456.932432
0
VERTEX
8
0
10
724.700000
20
482.900000
0
VERTEX
8
0
10
716.700000
20
506.900000
0
VERTEX
8
0
10
705.800000
20
532.900000
0
VERTEX
8
0
10
701.230769
20
541.153846
0
VERTEX
8
0
10
679.760000
20
578.820000
0
VERTEX
8
0
10
670.240000
20
592.180000
0
VERTEX
8
0
10
635.000000
20
633.000000
0
VERTEX
8
0
10
624.000000
20
644.000000
0
VERTEX
8
0
10
599.804878
20
664.756098
0
VERTEX
8
0
10
559.100000
20
690.200000
0
VERTEX
8
0
10
549.100000
20
696.200000
0
VERTEX
8
0
10
523.900000
20
707.700000
0
VERTEX
8
0
10
502.100000
20
715.300000
0
VERTEX
8
0
10
475.911765
20
723.647059
0
VERTEX
8
0
10
473.088235
20
724.352941
0
VERTEX
8
0
10
444.940000
20
730.580000
0
VERTEX
8
0
10
439.060000
20
731.420000
0
VERTEX
8
0
10
411.970817
20
734.533074
0
VERTEX
8
0
10
397.029183
20
735.466926
0
VERTEX
8
0
10
360.000000
20
736.000000
0
VERTEX
8
0
10
316.076923
20
729.615385
0
VERTEX
8
0
10
310.067568
20
728.594595
0
VERTEX
8
0
10
283.088235
20
721.647059
0
VERTEX
8
0
10
260.100000
20
713.700000
0
VERTEX
8
0
10
224.900000
20
699.200000
0
VERTEX
8
0
10
212.153846
20
692.769231
0
VERTEX
8
0
10
182.846154
20
674.230769
0
VERTEX
8
0
10
145.000000
20
643.000000
0
VERTEX
8
0
10
122.000000
20
620.000000
0
VERTEX
8
0
10
108.245902
20
603.795082
0
VERTEX
8
0
10
97.240000
20
588.820000
0
VERTEX
8
0
10
77.230769
20
556.846154
0
VERTEX
8
0
10
70.800000
20
547.100000
0
VERTEX
8
0
10
48.300000
20
496.900000
0
VERTEX
8
0
10
42.700000
20
480.100000
0
VERTEX
8
0
10
33.594595
20
437.067568
0
VERTEX
8
0
10
32.594595
20
431.067568
0
VERTEX
8
0
10
30.475113
20
409.977376
0
VERTEX
8
0
10
29.524887
20
390.022624
0
VERTEX
8
0
10
29.000000
20
358.000000
0
VERTEX
8
0
10
31.445545
20
336.044554
0
VERTEX
8
0
10
37.647059
20
301.911765
0
VERTEX
8
0
10
48.200000
20
262.100000
0
VERTEX
8
0
10
55.300000
20
246.100000
0
VERTEX
8
0
10
69.200000
20
217.100000
0
VERTEX
8
0
10
77.200000
20
202.100000
0
VERTEX
8
0
10
96.240000
20
173.180000
0
VERTEX
8
0
10
100.769231
20
166.846154
0
VERTEX
8
0
10
107.248619
20
157.223757
0
VERTEX
8
0
10
115.751381
20
147.776243
0
VERTEX
8
0
10
129.000000
20
134.000000
0
VERTEX
8
0
10
160.180000
20
105.240000
0
VERTEX
8
0
10
176.204918
20
92.245902
0
VERTEX
8
0
10
184.153846
20
87.230769
0
VERTEX
8
0
10
193.153846
20
81.230769
0
VERTEX
8
0
10
215.100000
20
69.200000
0
VERTEX
8
0
10
232.900000
20
59.800000
0
VERTEX
8
0
10
247.100000
20
53.300000
0
VERTEX
8
0
10
281.900000
20
40.800000
0
VERTEX
8
0
10
289.067568
20
38.405405
0
VERTEX
8
0
10
305.088235
20
35.352941
0
VERTEX
8
0
10
346.940000
20
28.580000
0
VERTEX
8
0
10
401.000000
20
26.000000
0
SEQEND
0
POLYLINE
8
0
6
CONTINUOUS
66
1
62
7
10
0.0
20
0.0
30
0.000000
0
VERTEX
8
0
10
392.000000
20
11.000000
0
VERTEX
8
0
10
434.959016
20
14.450820
0
VERTEX
8
0
10
464.923077
20
20.384615
0
VERTEX
8
0
10
479.923077
20
23.384615
0
VERTEX
8
0
10
497.900000
20
29.300000
0
VERTEX
8
0
10
529.100000
20
40.700000
0
VERTEX
8
0
10
542.846154
20
47.230769
0
VERTEX
8
0
10
566.846154
20
60.230769
0
VERTEX
8
0
10
586.180000
20
71.760000
0
VERTEX
8
0
10
624.180000
20
98.760000
0
VERTEX
8
0
10
645.249730
20
119.761622
0
VERTEX
8
0
10
665.750270
20
141.238378
0
VERTEX
8
0
10
698.760000
20
185.180000
0
VERTEX
8
0
10
703.800000
20
195.100000
0
VERTEX
8
0
10
716.200000
20
218.900000
0
VERTEX
8
0
10
725.700000
20
239.100000
0
VERTEX
8
0
10
737.300000
20
271.900000
0
VERTEX
8
0
10
741.615385
20
285.076923
0
VERTEX
8
0
10
744.384615
20
298.923077
0
VERTEX
8
0
10
750.549180
20
330.040984
0
VERTEX
8
0
10
754.000000
20
373.000000
0
VERTEX
8
0
10
753.466926
20
390.029183
0
VERTEX
8
0
10
750.549180
20
431.959016
0
VERTEX
8
0
10
743.615385
20
466.923077
0
VERTEX
8
0
10
741.615385
20
476.923077
0
VERTEX
8
0
10
736.700000
20
491.900000
0
VERTEX
8
0
10
725.700000
20
522.900000
0
VERTEX
8
0
10
715.800000
20
543.900000
0
VERTEX
8
0
10
703.200000
20
568.100000
0
VERTEX
8
0
10
698.760000
20
576.820000
0
VERTEX
8
0
10
696.240000
20
580.180000
0
VERTEX
8
0
10
665.750270
20
620.761622
0
VERTEX
8
0
10
645.249730
20
642.238378
0
VERTEX
8
0
10
624.180000
20
663.240000
0
VERTEX
8
0
10
586.846154
20
689.769231
0
VERTEX
8
0
10
568.100000
20
701.200000
0
VERTEX
8
0
10
544.846154
20
713.769231
0
VERTEX
8
0
10
525.900000
20
722.700000
0
VERTEX
8
0
10
493.100000
20
734.300000
0
VERTEX
8
0
10
479.923077
20
738.615385
0
VERTEX
8
0
10
466.076923
20
741.384615
0
VERTEX
8
0
10
434.955446
20
747.554455
0
VERTEX
8
0
10
393.000000
20
751.000000
0
VERTEX
8
0
10
375.970817
20
750.466926
0
VERTEX
8
0
10
334.040984
20
747.549180
0
VERTEX
8
0
10
299.076923
20
740.615385
0
VERTEX
8
0
10
289.076923
20
738.615385
0
VERTEX
8
0
10
274.100000
20
733.700000
0
VERTEX
8
0
10
241.900000
20
722.200000
0
VERTEX
8
0
10
224.153846
20
713.769231
0
VERTEX
8
0
10
200.900000
20
701.200000
0
VERTEX
8
0
10
182.153846
20
689.769231
0
VERTEX
8
0
10
144.820000
20
663.240000
0
VERTEX
8
0
10
122.750270
20
641.238378
0
VERTEX
8
0
10
102.249730
20
619.761622
0
VERTEX
8
0
10
72.240000
20
579.820000
0
VERTEX
8
0
10
64.200000
20
564.900000
0
VERTEX
8
0
10
52.800000
20
543.100000
0
VERTEX
8
0
10
43.300000
20
522.900000
0
VERTEX
8
0
10
31.700000
20
490.100000
0
VERTEX
8
0
10
27.384615
20
476.923077
0
VERTEX
8
0
10
24.615385
20
463.076923
0
VERTEX
8
0
10
18.450820
20
431.959016
0
VERTEX
8
0
10
15.000000
20
389.000000
0
VERTEX
8
0
10
16.533074
20
355.970817
0
VERTEX
8
0
10
18.450820
20
330.040984
0
VERTEX
8
0
10
26.384615
20
290.076923
0
VERTEX
8
0
10
27.384615
20
285.076923
0
VERTEX
8
0
10
33.300000
20
267.100000
0
VERTEX
8
0
10
43.300000
20
239.100000
0
VERTEX
8
0
10
55.200000
20
214.100000
0
VERTEX
8
0
10
67.800000
20
189.900000
0
VERTEX
8
0
10
72.240000
20
182.180000
0
VERTEX
8
0
10
77.760000
20
174.820000
0
VERTEX
8
0
10
102.249730
20
142.238378
0
VERTEX
8
0
10
144.000000
20
99.000000
0
VERTEX
8
0
10
151.153846
20
94.230769
0
VERTEX
8
0
10
186.180000
20
69.240000
0
VERTEX
8
0
10
206.100000
20
58.200000
0
VERTEX
8
0
10
226.900000
20
46.800000
0
VERTEX
8
0
10
244.900000
20
38.700000
0
VERTEX
8
0
10
278.900000
20
26.700000
0
VERTEX
8
0
10
289.076923
20
23.384615
0
VERTEX
8
0
10
307.923077
20
19.615385
0
VERTEX
8
0
10
334.040984
20
14.450820
0
VERTEX
8
0
10
343.959016
20
13.549180
0
VERTEX
8
0
10
392.000000
20
11.000000
0
SEQEND
0
ENDSEC
0
EOF
