  0
SECTION
  2
HEADER
  9
$ACADVER
  1
AC1021
  9
$ACADMAINTVER
 70
    25
  9
$DWGCODEPAGE
  3
ANSI_1252
  9
$INSBASE
 10
0.0
 20
0.0
 30
0.0
  9
$EXTMIN
 10
-12.14855
 20
-7.58095
 30
0.0
  9
$EXTMAX
 10
12.71459
 20
7.84839
 30
0.0
  9
$LIMMIN
 10
0.0
 20
0.0
  9
$LIMMAX
 10
12.0
 20
9.0
  9
$ORTHOMODE
 70
     0
  9
$REGENMODE
 70
     1
  9
$FILLMODE
 70
     1
  9
$QTEXTMODE
 70
     0
  9
$MIRRTEXT
 70
     1
  9
$LTSCALE
 40
1.0
  9
$ATTMODE
 70
     1
  9
$TEXTSIZE
 40
0.2
  9
$TRACEWID
 40
0.05
  9
$TEXTSTYLE
  7
Standard
  9
$CLAYER
  8
0
  9
$CELTYPE
  6
ByLayer
  9
$CECOLOR
 62
   256
  9
$CELTSCALE
 40
1.0
  9
$DISPSILH
 70
     0
  9
$DIMSCALE
 40
1.0
  9
$DIMASZ
 40
0.18
  9
$DIMEXO
 40
0.0625
  9
$DIMDLI
 40
0.38
  9
$DIMRND
 40
0.0
  9
$DIMDLE
 40
0.0
  9
$DIMEXE
 40
0.18
  9
$DIMTP
 40
0.0
  9
$DIMTM
 40
0.0
  9
$DIMTXT
 40
0.18
  9
$DIMCEN
 40
0.09
  9
$DIMTSZ
 40
0.0
  9
$DIMTOL
 70
     0
  9
$DIMLIM
 70
     0
  9
$DIMTIH
 70
     1
  9
$DIMTOH
 70
     1
  9
$DIMSE1
 70
     0
  9
$DIMSE2
 70
     0
  9
$DIMTAD
 70
     0
  9
$DIMZIN
 70
     0
  9
$DIMBLK
  1

  9
$DIMASO
 70
     1
  9
$DIMSHO
 70
     1
  9
$DIMPOST
  1

  9
$DIMAPOST
  1

  9
$DIMALT
 70
     0
  9
$DIMALTD
 70
     2
  9
$DIMALTF
 40
25.4
  9
$DIMLFAC
 40
1.0
  9
$DIMTOFL
 70
     0
  9
$DIMTVP
 40
0.0
  9
$DIMTIX
 70
     0
  9
$DIMSOXD
 70
     0
  9
$DIMSAH
 70
     0
  9
$DIMBLK1
  1

  9
$DIMBLK2
  1

  9
$DIMSTYLE
  2
Standard
  9
$DIMCLRD
 70
     0
  9
$DIMCLRE
 70
     0
  9
$DIMCLRT
 70
     0
  9
$DIMTFAC
 40
1.0
  9
$DIMGAP
 40
0.09
  9
$DIMJUST
 70
     0
  9
$DIMSD1
 70
     0
  9
$DIMSD2
 70
     0
  9
$DIMTOLJ
 70
     1
  9
$DIMTZIN
 70
     0
  9
$DIMALTZ
 70
     0
  9
$DIMALTTZ
 70
     0
  9
$DIMUPT
 70
     0
  9
$DIMDEC
 70
     4
  9
$DIMTDEC
 70
     4
  9
$DIMALTU
 70
     2
  9
$DIMALTTD
 70
     2
  9
$DIMTXSTY
  7
Standard
  9
$DIMAUNIT
 70
     0
  9
$DIMADEC
 70
     0
  9
$DIMALTRND
 40
0.0
  9
$DIMAZIN
 70
     0
  9
$DIMDSEP
 70
    46
  9
$DIMATFIT
 70
     3
  9
$DIMFRAC
 70
     0
  9
$DIMLDRBLK
  1

  9
$DIMLUNIT
 70
     2
  9
$DIMLWD
 70
    -2
  9
$DIMLWE
 70
    -2
  9
$DIMTMOVE
 70
     0
  9
$DIMFXL
 40
1.0
  9
$DIMFXLON
 70
     0
  9
$DIMJOGANG
 40
0.7853981633974483
  9
$DIMTFILL
 70
     0
  9
$DIMTFILLCLR
 70
     0
  9
$DIMARCSYM
 70
     0
  9
$DIMLTYPE
  6

  9
$DIMLTEX1
  6

  9
$DIMLTEX2
  6

  9
$LUNITS
 70
     2
  9
$LUPREC
 70
     4
  9
$SKETCHINC
 40
0.1
  9
$FILLETRAD
 40
0.5
  9
$AUNITS
 70
     0
  9
$AUPREC
 70
     0
  9
$MENU
  1
.
  9
$ELEVATION
 40
0.0
  9
$PELEVATION
 40
0.0
  9
$THICKNESS
 40
0.0
  9
$LIMCHECK
 70
     0
  9
$CHAMFERA
 40
0.5
  9
$CHAMFERB
 40
0.5
  9
$CHAMFERC
 40
1.0
  9
$CHAMFERD
 40
0.0
  9
$SKPOLY
 70
     0
  9
$TDCREATE
 40
2455567.909106273
  9
$TDUCREATE
 40
2455567.867439607
  9
$TDUPDATE
 40
2455567.909106285
  9
$TDUUPDATE
 40
2455567.867439618
  9
$TDINDWG
 40
0.0000000116
  9
$TDUSRTIMER
 40
0.0000000116
  9
$USRTIMER
 70
     1
  9
$ANGBASE
 50
0.0
  9
$ANGDIR
 70
     0
  9
$PDMODE
 70
     0
  9
$PDSIZE
 40
0.0
  9
$PLINEWID
 40
0.0
  9
$SPLFRAME
 70
     0
  9
$SPLINETYPE
 70
     6
  9
$SPLINESEGS
 70
     8
  9
$HANDSEED
  5
92
  9
$SURFTAB1
 70
     6
  9
$SURFTAB2
 70
     6
  9
$SURFTYPE
 70
     6
  9
$SURFU
 70
     6
  9
$SURFV
 70
     6
  9
$UCSBASE
  2

  9
$UCSNAME
  2

  9
$UCSORG
 10
0.0
 20
0.0
 30
0.0
  9
$UCSXDIR
 10
1.0
 20
0.0
 30
0.0
  9
$UCSYDIR
 10
0.0
 20
1.0
 30
0.0
  9
$UCSORTHOREF
  2

  9
$UCSORTHOVIEW
 70
     0
  9
$UCSORGTOP
 10
0.0
 20
0.0
 30
0.0
  9
$UCSORGBOTTOM
 10
0.0
 20
0.0
 30
0.0
  9
$UCSORGLEFT
 10
0.0
 20
0.0
 30
0.0
  9
$UCSORGRIGHT
 10
0.0
 20
0.0
 30
0.0
  9
$UCSORGFRONT
 10
0.0
 20
0.0
 30
0.0
  9
$UCSORGBACK
 10
0.0
 20
0.0
 30
0.0
  9
$PUCSBASE
  2

  9
$PUCSNAME
  2

  9
$PUCSORG
 10
0.0
 20
0.0
 30
0.0
  9
$PUCSXDIR
 10
1.0
 20
0.0
 30
0.0
  9
$PUCSYDIR
 10
0.0
 20
1.0
 30
0.0
  9
$PUCSORTHOREF
  2

  9
$PUCSORTHOVIEW
 70
     0
  9
$PUCSORGTOP
 10
0.0
 20
0.0
 30
0.0
  9
$PUCSORGBOTTOM
 10
0.0
 20
0.0
 30
0.0
  9
$PUCSORGLEFT
 10
0.0
 20
0.0
 30
0.0
  9
$PUCSORGRIGHT
 10
0.0
 20
0.0
 30
0.0
  9
$PUCSORGFRONT
 10
0.0
 20
0.0
 30
0.0
  9
$PUCSORGBACK
 10
0.0
 20
0.0
 30
0.0
  9
$USERI1
 70
     0
  9
$USERI2
 70
     0
  9
$USERI3
 70
     0
  9
$USERI4
 70
     0
  9
$USERI5
 70
     0
  9
$USERR1
 40
0.0
  9
$USERR2
 40
0.0
  9
$USERR3
 40
0.0
  9
$USERR4
 40
0.0
  9
$USERR5
 40
0.0
  9
$WORLDVIEW
 70
     1
  9
$SHADEDGE
 70
     3
  9
$SHADEDIF
 70
    70
  9
$TILEMODE
 70
     1
  9
$MAXACTVP
 70
    64
  9
$PINSBASE
 10
0.0
 20
0.0
 30
0.0
  9
$PLIMCHECK
 70
     0
  9
$PEXTMIN
 10
1.000000000000000E 20
 20
1.000000000000000E 20
 30
1.000000000000000E 20
  9
$PEXTMAX
 10
-1.000000000000000E 20
 20
-1.000000000000000E 20
 30
-1.000000000000000E 20
  9
$PLIMMIN
 10
0.0
 20
0.0
  9
$PLIMMAX
 10
12.0
 20
9.0
  9
$UNITMODE
 70
     0
  9
$VISRETAIN
 70
     1
  9
$PLINEGEN
 70
     0
  9
$PSLTSCALE
 70
     1
  9
$TREEDEPTH
 70
  3020
  9
$CMLSTYLE
  2
Standard
  9
$CMLJUST
 70
     0
  9
$CMLSCALE
 40
1.0
  9
$PROXYGRAPHICS
 70
     1
  9
$MEASUREMENT
 70
     0
  9
$CELWEIGHT
370
    -1
  9
$ENDCAPS
280
     0
  9
$JOINSTYLE
280
     0
  9
$LWDISPLAY
290
     0
  9
$INSUNITS
 70
     5
  9
$HYPERLINKBASE
  1

  9
$STYLESHEET
  1

  9
$XEDIT
290
     1
  9
$CEPSNTYPE
380
     0
  9
$PSTYLEMODE
290
     1
  9
$FINGERPRINTGUID
  2
{7510F3C2-9A5C-45CA-8A5D-C67D4079E001}
  9
$VERSIONGUID
  2
{FAEB1C32-E019-11D5-929B-00C0DF256EC4}
  9
$EXTNAMES
290
     1
  9
$PSVPSCALE
 40
0.0
  9
$OLESTARTUP
290
     0
  9
$SORTENTS
280
   127
  9
$INDEXCTL
280
     0
  9
$HIDETEXT
280
     1
  9
$XCLIPFRAME
290
     0
  9
$HALOGAP
280
     0
  9
$OBSCOLOR
 70
   257
  9
$OBSLTYPE
280
     0
  9
$INTERSECTIONDISPLAY
280
     0
  9
$INTERSECTIONCOLOR
 70
   257
  9
$DIMASSOC
280
     2
  9
$PROJECTNAME
  1

  9
$CAMERADISPLAY
290
     0
  9
$LENSLENGTH
 40
50.0
  9
$CAMERAHEIGHT
 40
0.0
  9
$STEPSPERSEC
 40
2.0
  9
$STEPSIZE
 40
6.0
  9
$3DDWFPREC
 40
2.0
  9
$PSOLWIDTH
 40
0.25
  9
$PSOLHEIGHT
 40
4.0
  9
$LOFTANG1
 40
1.570796326794897
  9
$LOFTANG2
 40
1.570796326794897
  9
$LOFTMAG1
 40
0.0
  9
$LOFTMAG2
 40
0.0
  9
$LOFTPARAM
 70
     7
  9
$LOFTNORMALS
280
     1
  9
$LATITUDE
 40
37.795
  9
$LONGITUDE
 40
-122.394
  9
$NORTHDIRECTION
 40
0.0
  9
$TIMEZONE
 70
 -8000
  9
$LIGHTGLYPHDISPLAY
280
     1
  9
$TILEMODELIGHTSYNCH
280
     1
  9
$SOLIDHIST
280
     1
  9
$SHOWHIST
280
     1
  9
$DWFFRAME
280
     2
  9
$DGNFRAME
280
     2
  9
$REALWORLDSCALE
290
     1
  9
$INTERFERECOLOR
 62
   256
  9
$CSHADOW
280
     0
  9
$SHADOWPLANELOCATION
 40
0.0
  0
ENDSEC
  0
SECTION
  2
CLASSES
  0
CLASS
  1
ACDBDICTIONARYWDFLT
  2
AcDbDictionaryWithDefault
  3
ObjectDBX Classes
 90
        0
 91
        4
280
     0
281
     0
  0
CLASS
  1
VISUALSTYLE
  2
AcDbVisualStyle
  3
ObjectDBX Classes
 90
     4095
 91
        4
280
     0
281
     0
  0
CLASS
  1
MATERIAL
  2
AcDbMaterial
  3
ObjectDBX Classes
 90
     1153
 91
        4
280
     0
281
     0
  0
ENDSEC
  0
SECTION
  2
TABLES
  0
TABLE
  2
VPORT
  5
8
330
0
100
AcDbSymbolTable
 70
     1
  0
VPORT
  5
29
330
8
100
AcDbSymbolTableRecord
100
AcDbViewportTableRecord
  2
*Active
 70
     0
 10
0.0
 20
0.0
 11
1.0
 21
1.0
 12
10.42990654205607
 22
4.5
 13
0.0
 23
0.0
 14
0.5
 24
0.5
 15
0.5
 25
0.5
 16
0.0
 26
0.0
 36
1.0
 17
0.0
 27
0.0
 37
0.0
 40
9.0
 41
1.972972972850329
 42
50.0
 43
0.0
 44
0.0
 50
0.0
 51
0.0
 71
     0
 72
   100
 73
     1
 74
     3
 75
     0
 76
     0
 77
     0
 78
     0
281
     0
 65
     1
110
0.0
120
0.0
130
0.0
111
1.0
121
0.0
131
0.0
112
0.0
122
1.0
132
0.0
 79
     0
146
0.0
 60
     3
 61
     5
292
     1
282
     1
141
0.0
142
0.0
 63
   250
  0
ENDTAB
  0
TABLE
  2
LTYPE
  5
5
330
0
100
AcDbSymbolTable
 70
     1
  0
LTYPE
  5
14
330
5
100
AcDbSymbolTableRecord
100
AcDbLinetypeTableRecord
  2
ByBlock
 70
     0
  3

 72
    65
 73
     0
 40
0.0
  0
LTYPE
  5
15
330
5
100
AcDbSymbolTableRecord
100
AcDbLinetypeTableRecord
  2
ByLayer
 70
     0
  3

 72
    65
 73
     0
 40
0.0
  0
LTYPE
  5
16
330
5
100
AcDbSymbolTableRecord
100
AcDbLinetypeTableRecord
  2
Continuous
 70
     0
  3
Solid line
 72
    65
 73
     0
 40
0.0
  0
ENDTAB
  0
TABLE
  2
LAYER
  5
2
330
0
100
AcDbSymbolTable
 70
     2
  0
LAYER
  5
10
330
2
100
AcDbSymbolTableRecord
100
AcDbLayerTableRecord
  2
0
 70
     0
 62
     7
  6
Continuous
370
    -3
390
F
347
3E
  0
LAYER
  5
40
330
2
100
AcDbSymbolTableRecord
100
AcDbLayerTableRecord
  2
Livello 1
 70
     0
 62
     7
  6
Continuous
370
    -3
390
F
347
3E
  0
ENDTAB
  0
TABLE
  2
STYLE
  5
3
330
0
100
AcDbSymbolTable
 70
     1
  0
STYLE
  5
11
330
3
100
AcDbSymbolTableRecord
100
AcDbTextStyleTableRecord
  2
Standard
 70
     0
 40
0.0
 41
1.0
 50
0.0
 71
     0
 42
0.2
  3
txt
  4

  0
ENDTAB
  0
TABLE
  2
VIEW
  5
6
330
0
100
AcDbSymbolTable
 70
     0
  0
ENDTAB
  0
TABLE
  2
UCS
  5
7
330
0
100
AcDbSymbolTable
 70
     0
  0
ENDTAB
  0
TABLE
  2
APPID
  5
9
330
0
100
AcDbSymbolTable
 70
     2
  0
APPID
  5
12
330
9
100
AcDbSymbolTableRecord
100
AcDbRegAppTableRecord
  2
ACAD
 70
     0
  0
APPID
  5
3F
330
9
100
AcDbSymbolTableRecord
100
AcDbRegAppTableRecord
  2
ODA
 70
     0
  0
ENDTAB
  0
TABLE
  2
DIMSTYLE
  5
A
330
0
100
AcDbSymbolTable
 70
     1
100
AcDbDimStyleTable
  0
DIMSTYLE
105
27
330
A
100
AcDbSymbolTableRecord
100
AcDbDimStyleTableRecord
  2
Standard
 70
     0
178
     0
340
11
  0
ENDTAB
  0
TABLE
  2
BLOCK_RECORD
  5
1
330
0
100
AcDbSymbolTable
 70
     1
  0
BLOCK_RECORD
  5
1F
330
1
100
AcDbSymbolTableRecord
100
AcDbBlockTableRecord
  2
*Model_Space
340
22
 70
     0
280
     1
281
     0
  0
BLOCK_RECORD
  5
1B
330
1
100
AcDbSymbolTableRecord
100
AcDbBlockTableRecord
  2
*Paper_Space
340
1E
 70
     0
280
     1
281
     0
  0
BLOCK_RECORD
  5
23
330
1
100
AcDbSymbolTableRecord
100
AcDbBlockTableRecord
  2
*Paper_Space0
340
26
 70
     0
280
     1
281
     0
  0
ENDTAB
  0
ENDSEC
  0
SECTION
  2
BLOCKS
  0
BLOCK
  5
20
330
1F
100
AcDbEntity
  8
0
100
AcDbBlockBegin
  2
*Model_Space
 70
     0
 10
0.0
 20
0.0
 30
0.0
  3
*Model_Space
  1

  0
ENDBLK
  5
21
330
1F
100
AcDbEntity
  8
0
100
AcDbBlockEnd
  0
BLOCK
  5
1C
330
1B
100
AcDbEntity
 67
     1
  8
0
100
AcDbBlockBegin
  2
*Paper_Space
 70
     0
 10
0.0
 20
0.0
 30
0.0
  3
*Paper_Space
  1

  0
ENDBLK
  5
1D
330
1B
100
AcDbEntity
 67
     1
  8
0
100
AcDbBlockEnd
  0
BLOCK
  5
24
330
23
100
AcDbEntity
  8
0
100
AcDbBlockBegin
  2
*Paper_Space0
 70
     0
 10
0.0
 20
0.0
 30
0.0
  3
*Paper_Space0
  1

  0
ENDBLK
  5
25
330
23
100
AcDbEntity
  8
0
100
AcDbBlockEnd
  0
ENDSEC
  0
SECTION
  2
ENTITIES
  0
SPLINE
  5
41
330
1F
100
AcDbEntity
  8
Livello 1
 62
   250
370
    20
100
AcDbSpline
210
0.0
220
0.0
230
1.0
 70
    11
 71
     3
 72
    52
 73
    48
 74
     0
 42
0.0000000001
 43
0.0000000001
 40
0.0
 40
0.0
 40
0.0
 40
0.0
 40
0.0769230769230769
 40
0.0769230769230769
 40
0.0769230769230769
 40
0.0769230769230769
 40
0.1538461538461539
 40
0.1538461538461539
 40
0.1538461538461539
 40
0.1538461538461539
 40
0.2307692307692308
 40
0.2307692307692308
 40
0.2307692307692308
 40
0.2307692307692308
 40
0.3076923076923077
 40
0.3076923076923077
 40
0.3076923076923077
 40
0.3076923076923077
 40
0.3846153846153846
 40
0.3846153846153846
 40
0.3846153846153846
 40
0.3846153846153846
 40
0.4615384615384616
 40
0.4615384615384616
 40
0.4615384615384616
 40
0.4615384615384616
 40
0.5384615384615384
 40
0.5384615384615384
 40
0.5384615384615384
 40
0.5384615384615384
 40
0.6153846153846154
 40
0.6153846153846154
 40
0.6153846153846154
 40
0.6153846153846154
 40
0.6923076923076923
 40
0.6923076923076923
 40
0.6923076923076923
 40
0.6923076923076923
 40
0.7692307692307693
 40
0.7692307692307693
 40
0.7692307692307693
 40
0.7692307692307693
 40
0.8461538461538461
 40
0.8461538461538461
 40
0.8461538461538461
 40
0.8461538461538461
 40
1.0
 40
1.0
 40
1.0
 40
1.0
 10
6.97976
 20
-3.78513
 30
0.0
 10
7.05034
 20
-3.92811
 30
0.0
 10
6.97033
 20
-4.27471
 30
0.0
 10
6.78298
 20
-4.28343
 30
0.0
 10
6.78298
 20
-4.28343
 30
0.0
 10
6.78298
 20
-4.28343
 30
0.0
 10
6.78298
 20
-4.11774
 30
0.0
 10
6.78298
 20
-4.11774
 30
0.0
 10
6.78298
 20
-4.11774
 30
0.0
 10
6.78298
 20
-4.11774
 30
0.0
 10
6.78298
 20
-3.85578
 30
0.0
 10
6.78298
 20
-3.85578
 30
0.0
 10
6.78298
 20
-3.85578
 30
0.0
 10
6.73293
 20
-3.85578
 30
0.0
 10
6.68302
 20
-3.85578
 30
0.0
 10
6.63298
 20
-3.85578
 30
0.0
 10
6.63298
 20
-3.85578
 30
0.0
 10
6.63298
 20
-4.03596
 30
0.0
 10
6.63298
 20
-4.21613
 30
0.0
 10
6.63298
 20
-4.39631
 30
0.0
 10
6.63298
 20
-4.39631
 30
0.0
 10
6.63298
 20
-4.45055
 30
0.0
 10
6.42273
 20
-4.45983
 30
0.0
 10
6.42273
 20
-4.39632
 30
0.0
 10
6.42273
 20
-4.39632
 30
0.0
 10
6.42273
 20
-4.39632
 30
0.0
 10
6.42273
 20
-3.85578
 30
0.0
 10
6.42273
 20
-3.85578
 30
0.0
 10
6.42273
 20
-3.85578
 30
0.0
 10
6.42273
 20
-3.85578
 30
0.0
 10
6.27273
 20
-3.85578
 30
0.0
 10
6.27273
 20
-3.85578
 30
0.0
 10
6.27273
 20
-3.85578
 30
0.0
 10
6.27273
 20
-3.85578
 30
0.0
 10
6.27273
 20
-4.32007
 30
0.0
 10
6.27273
 20
-4.32007
 30
0.0
 10
6.27273
 20
-4.32007
 30
0.0
 10
6.0753
 20
-4.39073
 30
0.0
 10
6.03635
 20
-3.82799
 30
0.0
 10
6.06651
 20
-3.75052
 30
0.0
 10
6.06651
 20
-3.75052
 30
0.0
 10
6.13916
 20
-3.54339
 30
0.0
 10
6.30557
 20
-3.44349
 30
0.0
 10
6.52115
 20
-3.46763
 30
0.0
 10
6.52115
 20
-3.46763
 30
0.0
 10
6.68398
 20
-3.50233
 30
0.0
 10
6.90798
 20
-3.62456
 30
0.0
 10
6.97976
 20
-3.78513
 30
0.0
  0
SPLINE
  5
42
330
1F
100
AcDbEntity
  8
Livello 1
 62
   250
370
    20
100
AcDbSpline
210
0.0
220
0.0
230
1.0
 70
    11
 71
     3
 72
    48
 73
    44
 74
     0
 42
0.0000000001
 43
0.0000000001
 40
0.0
 40
0.0
 40
0.0
 40
0.0
 40
0.0833333333333333
 40
0.0833333333333333
 40
0.0833333333333333
 40
0.0833333333333333
 40
0.1666666666666667
 40
0.1666666666666667
 40
0.1666666666666667
 40
0.1666666666666667
 40
0.25
 40
0.25
 40
0.25
 40
0.25
 40
0.3333333333333333
 40
0.3333333333333333
 40
0.3333333333333333
 40
0.3333333333333333
 40
0.4166666666666667
 40
0.4166666666666667
 40
0.4166666666666667
 40
0.4166666666666667
 40
0.5
 40
0.5
 40
0.5
 40
0.5
 40
0.5833333333333334
 40
0.5833333333333334
 40
0.5833333333333334
 40
0.5833333333333334
 40
0.6666666666666666
 40
0.6666666666666666
 40
0.6666666666666666
 40
0.6666666666666666
 40
0.75
 40
0.75
 40
0.75
 40
0.75
 40
0.8333333333333334
 40
0.8333333333333334
 40
0.8333333333333334
 40
0.8333333333333334
 40
1.0
 40
1.0
 40
1.0
 40
1.0
 10
6.78887
 20
-5.03321
 30
0.0
 10
6.78627
 20
-5.02653
 30
0.0
 10
6.78887
 20
-4.83013
 30
0.0
 10
6.78887
 20
-4.81027
 30
0.0
 10
6.78887
 20
-4.81027
 30
0.0
 10
6.78887
 20
-4.81027
 30
0.0
 10
6.63887
 20
-4.81027
 30
0.0
 10
6.63887
 20
-4.81027
 30
0.0
 10
6.63887
 20
-4.81027
 30
0.0
 10
6.63887
 20
-4.82305
 30
0.0
 10
6.63987
 20
-5.0931
 30
0.0
 10
6.63887
 20
-5.09538
 30
0.0
 10
6.63887
 20
-5.09538
 30
0.0
 10
6.63738
 20
-5.12532
 30
0.0
 10
6.47594
 20
-5.15984
 30
0.0
 10
6.43831
 20
-5.09582
 30
0.0
 10
6.43831
 20
-5.09582
 30
0.0
 10
6.43831
 20
-5.09582
 30
0.0
 10
6.43831
 20
-4.81027
 30
0.0
 10
6.43831
 20
-4.81027
 30
0.0
 10
6.43831
 20
-4.81027
 30
0.0
 10
6.43831
 20
-4.81027
 30
0.0
 10
6.28831
 20
-4.81027
 30
0.0
 10
6.28831
 20
-4.81027
 30
0.0
 10
6.28831
 20
-4.81027
 30
0.0
 10
6.28831
 20
-4.85842
 30
0.0
 10
6.28831
 20
-4.90656
 30
0.0
 10
6.28831
 20
-4.95471
 30
0.0
 10
6.28831
 20
-4.95471
 30
0.0
 10
6.28831
 20
-4.97191
 30
0.0
 10
6.22447
 20
-4.96463
 30
0.0
 10
6.19651
 20
-4.95471
 30
0.0
 10
6.19651
 20
-4.95471
 30
0.0
 10
6.04198
 20
-4.88376
 30
0.0
 10
6.16501
 20
-4.62687
 30
0.0
 10
6.30234
 20
-4.56666
 30
0.0
 10
6.30234
 20
-4.56666
 30
0.0
 10
6.42126
 20
-4.523
 30
0.0
 10
6.5415
 20
-4.52301
 30
0.0
 10
6.65512
 20
-4.56666
 30
0.0
 10
6.65512
 20
-4.56666
 30
0.0
 10
6.84912
 20
-4.63522
 30
0.0
 10
7.10491
 20
-4.8457
 30
0.0
 10
6.78887
 20
-5.03321
 30
0.0
  0
SPLINE
  5
43
330
1F
100
AcDbEntity
  8
Livello 1
 62
   250
370
    20
100
AcDbSpline
210
0.0
220
0.0
230
1.0
 70
    11
 71
     3
 72
    48
 73
    44
 74
     0
 42
0.0000000001
 43
0.0000000001
 40
0.0
 40
0.0
 40
0.0
 40
0.0
 40
0.0833333333333333
 40
0.0833333333333333
 40
0.0833333333333333
 40
0.0833333333333333
 40
0.1666666666666667
 40
0.1666666666666667
 40
0.1666666666666667
 40
0.1666666666666667
 40
0.25
 40
0.25
 40
0.25
 40
0.25
 40
0.3333333333333333
 40
0.3333333333333333
 40
0.3333333333333333
 40
0.3333333333333333
 40
0.4166666666666667
 40
0.4166666666666667
 40
0.4166666666666667
 40
0.4166666666666667
 40
0.5
 40
0.5
 40
0.5
 40
0.5
 40
0.5833333333333334
 40
0.5833333333333334
 40
0.5833333333333334
 40
0.5833333333333334
 40
0.6666666666666666
 40
0.6666666666666666
 40
0.6666666666666666
 40
0.6666666666666666
 40
0.75
 40
0.75
 40
0.75
 40
0.75
 40
0.8333333333333334
 40
0.8333333333333334
 40
0.8333333333333334
 40
0.8333333333333334
 40
1.0
 40
1.0
 40
1.0
 40
1.0
 10
6.7577
 20
-6.33905
 30
0.0
 10
6.7551
 20
-6.33237
 30
0.0
 10
6.7577
 20
-6.13597
 30
0.0
 10
6.7577
 20
-6.11611
 30
0.0
 10
6.7577
 20
-6.11611
 30
0.0
 10
6.7577
 20
-6.11611
 30
0.0
 10
6.6077
 20
-6.11611
 30
0.0
 10
6.6077
 20
-6.11611
 30
0.0
 10
6.6077
 20
-6.11611
 30
0.0
 10
6.6077
 20
-6.12889
 30
0.0
 10
6.6087
 20
-6.39894
 30
0.0
 10
6.6077
 20
-6.40122
 30
0.0
 10
6.6077
 20
-6.40122
 30
0.0
 10
6.60621
 20
-6.43116
 30
0.0
 10
6.44477
 20
-6.46568
 30
0.0
 10
6.40714
 20
-6.40166
 30
0.0
 10
6.40714
 20
-6.40166
 30
0.0
 10
6.40714
 20
-6.40166
 30
0.0
 10
6.40714
 20
-6.11611
 30
0.0
 10
6.40714
 20
-6.11611
 30
0.0
 10
6.40714
 20
-6.11611
 30
0.0
 10
6.40714
 20
-6.11611
 30
0.0
 10
6.25714
 20
-6.11611
 30
0.0
 10
6.25714
 20
-6.11611
 30
0.0
 10
6.25714
 20
-6.11611
 30
0.0
 10
6.25714
 20
-6.16426
 30
0.0
 10
6.25714
 20
-6.29111
 30
0.0
 10
6.25714
 20
-6.33926
 30
0.0
 10
6.25714
 20
-6.33926
 30
0.0
 10
6.23002
 20
-6.33662
 30
0.0
 10
6.18669
 20
-6.3267
 30
0.0
 10
6.15476
 20
-6.30553
 30
0.0
 10
6.15476
 20
-6.30553
 30
0.0
 10
6.02669
 20
-6.18827
 30
0.0
 10
6.17486
 20
-5.94593
 30
0.0
 10
6.30954
 20
-5.91615
 30
0.0
 10
6.30954
 20
-5.91615
 30
0.0
 10
6.43092
 20
-5.88865
 30
0.0
 10
6.51563
 20
-5.90444
 30
0.0
 10
6.63255
 20
-5.92343
 30
0.0
 10
6.63255
 20
-5.92343
 30
0.0
 10
6.84506
 20
-5.97613
 30
0.0
 10
7.17165
 20
-6.25076
 30
0.0
 10
6.7577
 20
-6.33905
 30
0.0
  0
SPLINE
  5
44
330
1F
100
AcDbEntity
  8
Livello 1
 62
   250
370
    20
100
AcDbSpline
210
0.0
220
0.0
230
1.0
 70
    11
 71
     3
 72
    48
 73
    44
 74
     0
 42
0.0000000001
 43
0.0000000001
 40
0.0
 40
0.0
 40
0.0
 40
0.0
 40
0.0833333333333333
 40
0.0833333333333333
 40
0.0833333333333333
 40
0.0833333333333333
 40
0.1666666666666667
 40
0.1666666666666667
 40
0.1666666666666667
 40
0.1666666666666667
 40
0.25
 40
0.25
 40
0.25
 40
0.25
 40
0.3333333333333333
 40
0.3333333333333333
 40
0.3333333333333333
 40
0.3333333333333333
 40
0.4166666666666667
 40
0.4166666666666667
 40
0.4166666666666667
 40
0.4166666666666667
 40
0.5
 40
0.5
 40
0.5
 40
0.5
 40
0.5833333333333334
 40
0.5833333333333334
 40
0.5833333333333334
 40
0.5833333333333334
 40
0.6666666666666666
 40
0.6666666666666666
 40
0.6666666666666666
 40
0.6666666666666666
 40
0.75
 40
0.75
 40
0.75
 40
0.75
 40
0.8333333333333334
 40
0.8333333333333334
 40
0.8333333333333334
 40
0.8333333333333334
 40
1.0
 40
1.0
 40
1.0
 40
1.0
 10
6.26138
 20
-5.27077
 30
0.0
 10
6.09919
 20
-5.40193
 30
0.0
 10
6.1013
 20
-5.50222
 30
0.0
 10
6.15554
 20
-5.62355
 30
0.0
 10
6.15554
 20
-5.62355
 30
0.0
 10
6.22384
 20
-5.71956
 30
0.0
 10
6.24294
 20
-5.7315
 30
0.0
 10
6.28324
 20
-5.73997
 30
0.0
 10
6.28324
 20
-5.73997
 30
0.0
 10
6.28324
 20
-5.73997
 30
0.0
 10
6.28324
 20
-5.48087
 30
0.0
 10
6.28324
 20
-5.48087
 30
0.0
 10
6.28324
 20
-5.48087
 30
0.0
 10
6.28324
 20
-5.48087
 30
0.0
 10
6.43324
 20
-5.48087
 30
0.0
 10
6.43324
 20
-5.48087
 30
0.0
 10
6.43324
 20
-5.48087
 30
0.0
 10
6.43324
 20
-5.48087
 30
0.0
 10
6.43324
 20
-5.78407
 30
0.0
 10
6.43324
 20
-5.78407
 30
0.0
 10
6.43324
 20
-5.78407
 30
0.0
 10
6.43324
 20
-5.81186
 30
0.0
 10
6.63848
 20
-5.81978
 30
0.0
 10
6.64054
 20
-5.78406
 30
0.0
 10
6.64054
 20
-5.78406
 30
0.0
 10
6.64054
 20
-5.67625
 30
0.0
 10
6.64054
 20
-5.58867
 30
0.0
 10
6.64054
 20
-5.48087
 30
0.0
 10
6.64054
 20
-5.48087
 30
0.0
 10
6.64054
 20
-5.48087
 30
0.0
 10
6.79054
 20
-5.48087
 30
0.0
 10
6.79054
 20
-5.48087
 30
0.0
 10
6.79054
 20
-5.48087
 30
0.0
 10
6.79054
 20
-5.48087
 30
0.0
 10
6.79054
 20
-5.66236
 30
0.0
 10
6.79054
 20
-5.66236
 30
0.0
 10
6.79054
 20
-5.66236
 30
0.0
 10
6.90178
 20
-5.67784
 30
0.0
 10
6.99132
 20
-5.48164
 30
0.0
 10
6.90663
 20
-5.39858
 30
0.0
 10
6.90663
 20
-5.39858
 30
0.0
 10
6.76609
 20
-5.23653
 30
0.0
 10
6.43412
 20
-5.17514
 30
0.0
 10
6.26138
 20
-5.27077
 30
0.0
  0
SPLINE
  5
45
330
1F
100
AcDbEntity
  8
Livello 1
 62
   250
370
    20
100
AcDbSpline
210
0.0
220
0.0
230
1.0
 70
    11
 71
     3
 72
    56
 73
    52
 74
     0
 42
0.0000000001
 43
0.0000000001
 40
0.0
 40
0.0
 40
0.0
 40
0.0
 40
0.0714285714285714
 40
0.0714285714285714
 40
0.0714285714285714
 40
0.0714285714285714
 40
0.1428571428571428
 40
0.1428571428571428
 40
0.1428571428571428
 40
0.1428571428571428
 40
0.2142857142857143
 40
0.2142857142857143
 40
0.2142857142857143
 40
0.2142857142857143
 40
0.2857142857142857
 40
0.2857142857142857
 40
0.2857142857142857
 40
0.2857142857142857
 40
0.3571428571428572
 40
0.3571428571428572
 40
0.3571428571428572
 40
0.3571428571428572
 40
0.4285714285714285
 40
0.4285714285714285
 40
0.4285714285714285
 40
0.4285714285714285
 40
0.5
 40
0.5
 40
0.5
 40
0.5
 40
0.5714285714285714
 40
0.5714285714285714
 40
0.5714285714285714
 40
0.5714285714285714
 40
0.6428571428571429
 40
0.6428571428571429
 40
0.6428571428571429
 40
0.6428571428571429
 40
0.7142857142857143
 40
0.7142857142857143
 40
0.7142857142857143
 40
0.7142857142857143
 40
0.7857142857142857
 40
0.7857142857142857
 40
0.7857142857142857
 40
0.7857142857142857
 40
0.8571428571428571
 40
0.8571428571428571
 40
0.8571428571428571
 40
0.8571428571428571
 40
1.0
 40
1.0
 40
1.0
 40
1.0
 10
7.63632
 20
-4.39475
 30
0.0
 10
7.4971
 20
-4.4804
 30
0.0
 10
7.30936
 20
-4.44067
 30
0.0
 10
7.20817
 20
-4.29158
 30
0.0
 10
7.20817
 20
-4.29158
 30
0.0
 10
7.18692
 20
-4.25471
 30
0.0
 10
7.21729
 20
-4.22326
 30
0.0
 10
7.24094
 20
-4.22458
 30
0.0
 10
7.24094
 20
-4.22458
 30
0.0
 10
7.24094
 20
-4.22458
 30
0.0
 10
7.4921
 20
-4.22458
 30
0.0
 10
7.4921
 20
-4.22458
 30
0.0
 10
7.4921
 20
-4.22458
 30
0.0
 10
7.4921
 20
-4.22458
 30
0.0
 10
7.4921
 20
-4.07458
 30
0.0
 10
7.4921
 20
-4.07458
 30
0.0
 10
7.4921
 20
-4.07458
 30
0.0
 10
7.4921
 20
-4.07458
 30
0.0
 10
7.15529
 20
-4.07458
 30
0.0
 10
7.15529
 20
-4.07458
 30
0.0
 10
7.15529
 20
-4.07458
 30
0.0
 10
7.09635
 20
-4.05126
 30
0.0
 10
7.09934
 20
-3.90382
 30
0.0
 10
7.15169
 20
-3.874
 30
0.0
 10
7.15169
 20
-3.874
 30
0.0
 10
7.15169
 20
-3.874
 30
0.0
 10
7.48879
 20
-3.874
 30
0.0
 10
7.48879
 20
-3.874
 30
0.0
 10
7.48879
 20
-3.874
 30
0.0
 10
7.48879
 20
-3.82295
 30
0.0
 10
7.48879
 20
-3.775
 30
0.0
 10
7.48879
 20
-3.724
 30
0.0
 10
7.48879
 20
-3.724
 30
0.0
 10
7.48879
 20
-3.724
 30
0.0
 10
7.22038
 20
-3.724
 30
0.0
 10
7.22038
 20
-3.724
 30
0.0
 10
7.22038
 20
-3.724
 30
0.0
 10
7.20278
 20
-3.7272
 30
0.0
 10
7.20416
 20
-3.70563
 30
0.0
 10
7.20817
 20
-3.69186
 30
0.0
 10
7.20817
 20
-3.69186
 30
0.0
 10
7.28294
 20
-3.51282
 30
0.0
 10
7.49243
 20
-3.48956
 30
0.0
 10
7.6315
 20
-3.55074
 30
0.0
 10
7.6315
 20
-3.55074
 30
0.0
 10
7.68846
 20
-3.5862
 30
0.0
 10
7.7388
 20
-3.62332
 30
0.0
 10
7.77261
 20
-3.69186
 30
0.0
 10
7.77261
 20
-3.69186
 30
0.0
 10
7.8879
 20
-3.87418
 30
0.0
 10
7.818
 20
-4.28296
 30
0.0
 10
7.63632
 20
-4.39475
 30
0.0
  0
SPLINE
  5
46
330
1F
100
AcDbEntity
  8
Livello 1
 62
   250
370
    20
100
AcDbSpline
210
0.0
220
0.0
230
1.0
 70
    11
 71
     3
 72
    56
 73
    52
 74
     0
 42
0.0000000001
 43
0.0000000001
 40
0.0
 40
0.0
 40
0.0
 40
0.0
 40
0.0714285714285714
 40
0.0714285714285714
 40
0.0714285714285714
 40
0.0714285714285714
 40
0.1428571428571428
 40
0.1428571428571428
 40
0.1428571428571428
 40
0.1428571428571428
 40
0.2142857142857143
 40
0.2142857142857143
 40
0.2142857142857143
 40
0.2142857142857143
 40
0.2857142857142857
 40
0.2857142857142857
 40
0.2857142857142857
 40
0.2857142857142857
 40
0.3571428571428572
 40
0.3571428571428572
 40
0.3571428571428572
 40
0.3571428571428572
 40
0.4285714285714285
 40
0.4285714285714285
 40
0.4285714285714285
 40
0.4285714285714285
 40
0.5
 40
0.5
 40
0.5
 40
0.5
 40
0.5714285714285714
 40
0.5714285714285714
 40
0.5714285714285714
 40
0.5714285714285714
 40
0.6428571428571429
 40
0.6428571428571429
 40
0.6428571428571429
 40
0.6428571428571429
 40
0.7142857142857143
 40
0.7142857142857143
 40
0.7142857142857143
 40
0.7142857142857143
 40
0.7857142857142857
 40
0.7857142857142857
 40
0.7857142857142857
 40
0.7857142857142857
 40
0.8571428571428571
 40
0.8571428571428571
 40
0.8571428571428571
 40
0.8571428571428571
 40
1.0
 40
1.0
 40
1.0
 40
1.0
 10
7.63632
 20
-5.3956
 30
0.0
 10
7.4971
 20
-5.48125
 30
0.0
 10
7.30936
 20
-5.44152
 30
0.0
 10
7.20817
 20
-5.29243
 30
0.0
 10
7.20817
 20
-5.29243
 30
0.0
 10
7.18692
 20
-5.25556
 30
0.0
 10
7.21729
 20
-5.22411
 30
0.0
 10
7.24094
 20
-5.22543
 30
0.0
 10
7.24094
 20
-5.22543
 30
0.0
 10
7.24094
 20
-5.22543
 30
0.0
 10
7.51029
 20
-5.22543
 30
0.0
 10
7.51029
 20
-5.22543
 30
0.0
 10
7.51029
 20
-5.22543
 30
0.0
 10
7.51029
 20
-5.22543
 30
0.0
 10
7.51029
 20
-5.07543
 30
0.0
 10
7.51029
 20
-5.07543
 30
0.0
 10
7.51029
 20
-5.07543
 30
0.0
 10
7.51029
 20
-5.07543
 30
0.0
 10
7.15529
 20
-5.07543
 30
0.0
 10
7.15529
 20
-5.07543
 30
0.0
 10
7.15529
 20
-5.07543
 30
0.0
 10
7.09635
 20
-5.05211
 30
0.0
 10
7.09934
 20
-4.90467
 30
0.0
 10
7.15169
 20
-4.87485
 30
0.0
 10
7.15169
 20
-4.87485
 30
0.0
 10
7.15169
 20
-4.87485
 30
0.0
 10
7.50946
 20
-4.87402
 30
0.0
 10
7.50946
 20
-4.87402
 30
0.0
 10
7.50946
 20
-4.87402
 30
0.0
 10
7.50946
 20
-4.82297
 30
0.0
 10
7.50946
 20
-4.77626
 30
0.0
 10
7.50946
 20
-4.72526
 30
0.0
 10
7.50946
 20
-4.72526
 30
0.0
 10
7.50946
 20
-4.72526
 30
0.0
 10
7.22038
 20
-4.72485
 30
0.0
 10
7.22038
 20
-4.72485
 30
0.0
 10
7.22038
 20
-4.72485
 30
0.0
 10
7.20278
 20
-4.72805
 30
0.0
 10
7.20416
 20
-4.70648
 30
0.0
 10
7.20817
 20
-4.69271
 30
0.0
 10
7.20817
 20
-4.69271
 30
0.0
 10
7.28294
 20
-4.51367
 30
0.0
 10
7.49243
 20
-4.49041
 30
0.0
 10
7.6315
 20
-4.55159
 30
0.0
 10
7.6315
 20
-4.55159
 30
0.0
 10
7.68846
 20
-4.58705
 30
0.0
 10
7.7388
 20
-4.62417
 30
0.0
 10
7.77261
 20
-4.69271
 30
0.0
 10
7.77261
 20
-4.69271
 30
0.0
 10
7.8879
 20
-4.87503
 30
0.0
 10
7.818
 20
-5.28381
 30
0.0
 10
7.63632
 20
-5.3956
 30
0.0
  0
SPLINE
  5
47
330
1F
100
AcDbEntity
  8
Livello 1
 62
   250
370
    20
100
AcDbSpline
210
0.0
220
0.0
230
1.0
 70
    11
 71
     3
 72
    56
 73
    52
 74
     0
 42
0.0000000001
 43
0.0000000001
 40
0.0
 40
0.0
 40
0.0
 40
0.0
 40
0.0714285714285714
 40
0.0714285714285714
 40
0.0714285714285714
 40
0.0714285714285714
 40
0.1428571428571428
 40
0.1428571428571428
 40
0.1428571428571428
 40
0.1428571428571428
 40
0.2142857142857143
 40
0.2142857142857143
 40
0.2142857142857143
 40
0.2142857142857143
 40
0.2857142857142857
 40
0.2857142857142857
 40
0.2857142857142857
 40
0.2857142857142857
 40
0.3571428571428572
 40
0.3571428571428572
 40
0.3571428571428572
 40
0.3571428571428572
 40
0.4285714285714285
 40
0.4285714285714285
 40
0.4285714285714285
 40
0.4285714285714285
 40
0.5
 40
0.5
 40
0.5
 40
0.5
 40
0.5714285714285714
 40
0.5714285714285714
 40
0.5714285714285714
 40
0.5714285714285714
 40
0.6428571428571429
 40
0.6428571428571429
 40
0.6428571428571429
 40
0.6428571428571429
 40
0.7142857142857143
 40
0.7142857142857143
 40
0.7142857142857143
 40
0.7142857142857143
 40
0.7857142857142857
 40
0.7857142857142857
 40
0.7857142857142857
 40
0.7857142857142857
 40
0.8571428571428571
 40
0.8571428571428571
 40
0.8571428571428571
 40
0.8571428571428571
 40
1.0
 40
1.0
 40
1.0
 40
1.0
 10
7.66174
 20
-6.39684
 30
0.0
 10
7.52252
 20
-6.48249
 30
0.0
 10
7.35132
 20
-6.42705
 30
0.0
 10
7.24351
 20
-6.28705
 30
0.0
 10
7.24351
 20
-6.28705
 30
0.0
 10
7.22226
 20
-6.25018
 30
0.0
 10
7.21377
 20
-6.22535
 30
0.0
 10
7.23742
 20
-6.22667
 30
0.0
 10
7.23742
 20
-6.22667
 30
0.0
 10
7.23742
 20
-6.22667
 30
0.0
 10
7.57127
 20
-6.22667
 30
0.0
 10
7.57127
 20
-6.22667
 30
0.0
 10
7.57127
 20
-6.22667
 30
0.0
 10
7.57127
 20
-6.22667
 30
0.0
 10
7.57291
 20
-6.07667
 30
0.0
 10
7.57291
 20
-6.07667
 30
0.0
 10
7.57291
 20
-6.07667
 30
0.0
 10
7.57291
 20
-6.07667
 30
0.0
 10
7.11621
 20
-6.07667
 30
0.0
 10
7.11621
 20
-6.07667
 30
0.0
 10
7.11621
 20
-6.07667
 30
0.0
 10
7.05232
 20
-6.07485
 30
0.0
 10
7.06027
 20
-5.8778
 30
0.0
 10
7.11426
 20
-5.87609
 30
0.0
 10
7.11426
 20
-5.87609
 30
0.0
 10
7.11426
 20
-5.87609
 30
0.0
 10
7.5696
 20
-5.87609
 30
0.0
 10
7.5696
 20
-5.87609
 30
0.0
 10
7.5696
 20
-5.87609
 30
0.0
 10
7.5696
 20
-5.82504
 30
0.0
 10
7.56712
 20
-5.7775
 30
0.0
 10
7.56712
 20
-5.7265
 30
0.0
 10
7.56712
 20
-5.7265
 30
0.0
 10
7.56712
 20
-5.7265
 30
0.0
 10
7.18792
 20
-5.72609
 30
0.0
 10
7.18792
 20
-5.72609
 30
0.0
 10
7.18792
 20
-5.72609
 30
0.0
 10
7.17032
 20
-5.72929
 30
0.0
 10
7.15021
 20
-5.70606
 30
0.0
 10
7.15422
 20
-5.69229
 30
0.0
 10
7.15422
 20
-5.69229
 30
0.0
 10
7.22899
 20
-5.51325
 30
0.0
 10
7.51785
 20
-5.49165
 30
0.0
 10
7.65692
 20
-5.55283
 30
0.0
 10
7.65692
 20
-5.55283
 30
0.0
 10
7.71388
 20
-5.58829
 30
0.0
 10
7.76422
 20
-5.62541
 30
0.0
 10
7.79803
 20
-5.69395
 30
0.0
 10
7.79803
 20
-5.69395
 30
0.0
 10
7.9282
 20
-5.87462
 30
0.0
 10
7.8798
 20
-6.2619
 30
0.0
 10
7.66174
 20
-6.39684
 30
0.0
  0
SPLINE
  5
48
330
1F
100
AcDbEntity
  8
Livello 1
 62
   250
370
    20
100
AcDbSpline
210
0.0
220
0.0
230
1.0
 70
    11
 71
     3
 72
    72
 73
    68
 74
     0
 42
0.0000000001
 43
0.0000000001
 40
0.0
 40
0.0
 40
0.0
 40
0.0
 40
0.0555555555555556
 40
0.0555555555555556
 40
0.0555555555555556
 40
0.0555555555555556
 40
0.1111111111111111
 40
0.1111111111111111
 40
0.1111111111111111
 40
0.1111111111111111
 40
0.1666666666666667
 40
0.1666666666666667
 40
0.1666666666666667
 40
0.1666666666666667
 40
0.2222222222222222
 40
0.2222222222222222
 40
0.2222222222222222
 40
0.2222222222222222
 40
0.2777777777777778
 40
0.2777777777777778
 40
0.2777777777777778
 40
0.2777777777777778
 40
0.3333333333333333
 40
0.3333333333333333
 40
0.3333333333333333
 40
0.3333333333333333
 40
0.3888888888888889
 40
0.3888888888888889
 40
0.3888888888888889
 40
0.3888888888888889
 40
0.4444444444444444
 40
0.4444444444444444
 40
0.4444444444444444
 40
0.4444444444444444
 40
0.5
 40
0.5
 40
0.5
 40
0.5
 40
0.5555555555555556
 40
0.5555555555555556
 40
0.5555555555555556
 40
0.5555555555555556
 40
0.6111111111111112
 40
0.6111111111111112
 40
0.6111111111111112
 40
0.6111111111111112
 40
0.6666666666666666
 40
0.6666666666666666
 40
0.6666666666666666
 40
0.6666666666666666
 40
0.7222222222222222
 40
0.7222222222222222
 40
0.7222222222222222
 40
0.7222222222222222
 40
0.7777777777777778
 40
0.7777777777777778
 40
0.7777777777777778
 40
0.7777777777777778
 40
0.8333333333333334
 40
0.8333333333333334
 40
0.8333333333333334
 40
0.8333333333333334
 40
0.8888888888888888
 40
0.8888888888888888
 40
0.8888888888888888
 40
0.8888888888888888
 40
1.0
 40
1.0
 40
1.0
 40
1.0
 10
10.79203
 20
-4.49065
 30
0.0
 10
11.04501
 20
-3.83896
 30
0.0
 10
10.46399
 20
-3.28505
 30
0.0
 10
9.78688
 20
-3.39208
 30
0.0
 10
9.78688
 20
-3.39208
 30
0.0
 10
9.49621
 20
-3.4428
 30
0.0
 10
8.98229
 20
-3.60264
 30
0.0
 10
8.90494
 20
-3.60375
 30
0.0
 10
8.90494
 20
-3.60375
 30
0.0
 10
8.75556
 20
-3.61101
 30
0.0
 10
8.6025
 20
-3.60743
 30
0.0
 10
8.44633
 20
-3.63903
 30
0.0
 10
8.44633
 20
-3.63903
 30
0.0
 10
8.25583
 20
-3.67191
 30
0.0
 10
8.04691
 20
-3.76522
 30
0.0
 10
8.05497
 20
-3.93808
 30
0.0
 10
8.05497
 20
-3.93808
 30
0.0
 10
8.05497
 20
-3.93808
 30
0.0
 10
8.31025
 20
-3.93808
 30
0.0
 10
8.31025
 20
-3.93808
 30
0.0
 10
8.31025
 20
-3.93808
 30
0.0
 10
8.72183
 20
-3.93808
 30
0.0
 10
9.13478
 20
-3.93808
 30
0.0
 10
9.54206
 20
-3.93808
 30
0.0
 10
9.54206
 20
-3.93808
 30
0.0
 10
9.54206
 20
-3.93808
 30
0.0
 10
9.54206
 20
-4.08808
 30
0.0
 10
9.54206
 20
-4.08808
 30
0.0
 10
9.54206
 20
-4.08808
 30
0.0
 10
9.02196
 20
-4.08808
 30
0.0
 10
8.4996
 20
-4.08808
 30
0.0
 10
7.97739
 20
-4.08808
 30
0.0
 10
7.97739
 20
-4.08808
 30
0.0
 10
7.87388
 20
-4.1215
 30
0.0
 10
7.93073
 20
-4.28895
 30
0.0
 10
7.95784
 20
-4.28895
 30
0.0
 10
7.95784
 20
-4.28895
 30
0.0
 10
8.48742
 20
-4.28895
 30
0.0
 10
9.01039
 20
-4.28895
 30
0.0
 10
9.53997
 20
-4.28895
 30
0.0
 10
9.53997
 20
-4.28895
 30
0.0
 10
9.53997
 20
-4.28895
 30
0.0
 10
9.53997
 20
-4.43895
 30
0.0
 10
9.53997
 20
-4.43895
 30
0.0
 10
9.53997
 20
-4.43895
 30
0.0
 10
9.04258
 20
-4.43895
 30
0.0
 10
8.54519
 20
-4.43895
 30
0.0
 10
8.0478
 20
-4.43895
 30
0.0
 10
8.0478
 20
-4.43895
 30
0.0
 10
7.95867
 20
-4.43895
 30
0.0
 10
7.98624
 20
-4.55477
 30
0.0
 10
8.12883
 20
-4.69736
 30
0.0
 10
8.12883
 20
-4.69736
 30
0.0
 10
8.28356
 20
-4.82465
 30
0.0
 10
8.84226
 20
-4.94737
 30
0.0
 10
9.04605
 20
-4.97958
 30
0.0
 10
9.04605
 20
-4.97958
 30
0.0
 10
9.35121
 20
-5.01349
 30
0.0
 10
9.70211
 20
-5.08541
 30
0.0
 10
9.99855
 20
-5.08541
 30
0.0
 10
9.99855
 20
-5.08541
 30
0.0
 10
10.14983
 20
-5.0615
 30
0.0
 10
10.3183
 20
-5.03659
 30
0.0
 10
10.45385
 20
-4.93776
 30
0.0
 10
10.45385
 20
-4.93776
 30
0.0
 10
10.62148
 20
-4.81555
 30
0.0
 10
10.72222
 20
-4.69348
 30
0.0
 10
10.79203
 20
-4.49065
 30
0.0
  0
SPLINE
  5
49
330
1F
100
AcDbEntity
  8
Livello 1
 62
   250
370
    20
100
AcDbSpline
210
0.0
220
0.0
230
1.0
 70
    11
 71
     3
 72
    60
 73
    56
 74
     0
 42
0.0000000001
 43
0.0000000001
 40
0.0
 40
0.0
 40
0.0
 40
0.0
 40
0.0666666666666667
 40
0.0666666666666667
 40
0.0666666666666667
 40
0.0666666666666667
 40
0.1333333333333333
 40
0.1333333333333333
 40
0.1333333333333333
 40
0.1333333333333333
 40
0.2
 40
0.2
 40
0.2
 40
0.2
 40
0.2666666666666667
 40
0.2666666666666667
 40
0.2666666666666667
 40
0.2666666666666667
 40
0.3333333333333333
 40
0.3333333333333333
 40
0.3333333333333333
 40
0.3333333333333333
 40
0.4
 40
0.4
 40
0.4
 40
0.4
 40
0.4666666666666667
 40
0.4666666666666667
 40
0.4666666666666667
 40
0.4666666666666667
 40
0.5333333333333333
 40
0.5333333333333333
 40
0.5333333333333333
 40
0.5333333333333333
 40
0.6
 40
0.6
 40
0.6
 40
0.6
 40
0.6666666666666666
 40
0.6666666666666666
 40
0.6666666666666666
 40
0.6666666666666666
 40
0.7333333333333333
 40
0.7333333333333333
 40
0.7333333333333333
 40
0.7333333333333333
 40
0.8
 40
0.8
 40
0.8
 40
0.8
 40
0.8666666666666667
 40
0.8666666666666667
 40
0.8666666666666667
 40
0.8666666666666667
 40
1.0
 40
1.0
 40
1.0
 40
1.0
 10
10.764
 20
-5.90393
 30
0.0
 10
10.76077
 20
-5.34069
 30
0.0
 10
10.26521
 20
-5.16071
 30
0.0
 10
9.83734
 20
-5.19311
 30
0.0
 10
9.83734
 20
-5.19311
 30
0.0
 10
9.56279
 20
-5.21925
 30
0.0
 10
9.15002
 20
-5.35601
 30
0.0
 10
9.06729
 20
-5.36785
 30
0.0
 10
9.06729
 20
-5.36785
 30
0.0
 10
9.06729
 20
-5.36785
 30
0.0
 10
8.36336
 20
-5.36681
 30
0.0
 10
8.36336
 20
-5.36681
 30
0.0
 10
8.36336
 20
-5.36681
 30
0.0
 10
8.23167
 20
-5.37914
 30
0.0
 10
8.13109
 20
-5.45068
 30
0.0
 10
8.11315
 20
-5.58393
 30
0.0
 10
8.11315
 20
-5.58393
 30
0.0
 10
8.11731
 20
-5.58633
 30
0.0
 10
8.12166
 20
-5.6023
 30
0.0
 10
8.12604
 20
-5.60455
 30
0.0
 10
8.12604
 20
-5.60455
 30
0.0
 10
8.12604
 20
-5.60455
 30
0.0
 10
9.66321
 20
-5.60455
 30
0.0
 10
9.66321
 20
-5.60455
 30
0.0
 10
9.66321
 20
-5.60455
 30
0.0
 10
9.66321
 20
-5.60455
 30
0.0
 10
9.66321
 20
-5.75455
 30
0.0
 10
9.66321
 20
-5.75455
 30
0.0
 10
9.66321
 20
-5.75455
 30
0.0
 10
9.66321
 20
-5.75455
 30
0.0
 10
8.06472
 20
-5.75455
 30
0.0
 10
8.06472
 20
-5.75455
 30
0.0
 10
8.06472
 20
-5.75455
 30
0.0
 10
7.97974
 20
-5.76388
 30
0.0
 10
7.99302
 20
-5.95582
 30
0.0
 10
8.06732
 20
-5.95582
 30
0.0
 10
8.06732
 20
-5.95582
 30
0.0
 10
8.60083
 20
-5.95582
 30
0.0
 10
9.13427
 20
-5.95582
 30
0.0
 10
9.6676
 20
-5.95582
 30
0.0
 10
9.6676
 20
-5.95582
 30
0.0
 10
9.6676
 20
-5.95582
 30
0.0
 10
9.6676
 20
-6.10582
 30
0.0
 10
9.6676
 20
-6.10582
 30
0.0
 10
9.6676
 20
-6.10582
 30
0.0
 10
9.6676
 20
-6.10582
 30
0.0
 10
8.10653
 20
-6.10582
 30
0.0
 10
8.10653
 20
-6.10582
 30
0.0
 10
8.10653
 20
-6.10582
 30
0.0
 10
8.10844
 20
-6.2858
 30
0.0
 10
8.32768
 20
-6.36691
 30
0.0
 10
8.55956
 20
-6.40398
 30
0.0
 10
8.55956
 20
-6.40398
 30
0.0
 10
9.19841
 20
-6.50608
 30
0.0
 10
10.75771
 20
-6.89098
 30
0.0
 10
10.764
 20
-5.90393
 30
0.0
  0
SPLINE
  5
4A
330
1F
100
AcDbEntity
  8
Livello 1
 62
   250
370
    20
100
AcDbSpline
210
0.0
220
0.0
230
1.0
 70
    11
 71
     3
 72
    40
 73
    36
 74
     0
 42
0.0000000001
 43
0.0000000001
 40
0.0
 40
0.0
 40
0.0
 40
0.0
 40
0.1
 40
0.1
 40
0.1
 40
0.1
 40
0.2
 40
0.2
 40
0.2
 40
0.2
 40
0.3
 40
0.3
 40
0.3
 40
0.3
 40
0.4
 40
0.4
 40
0.4
 40
0.4
 40
0.5
 40
0.5
 40
0.5
 40
0.5
 40
0.6
 40
0.6
 40
0.6
 40
0.6
 40
0.7
 40
0.7
 40
0.7
 40
0.7
 40
0.8
 40
0.8
 40
0.8
 40
0.8
 40
1.0
 40
1.0
 40
1.0
 40
1.0
 10
4.59119
 20
-5.92157
 30
0.0
 10
4.57947
 20
-6.11976
 30
0.0
 10
4.69094
 20
-6.30795
 30
0.0
 10
4.88135
 20
-6.37753
 30
0.0
 10
4.88135
 20
-6.37753
 30
0.0
 10
5.09803
 20
-6.44095
 30
0.0
 10
5.39177
 20
-6.30527
 30
0.0
 10
5.4004
 20
-6.30493
 30
0.0
 10
5.4004
 20
-6.30493
 30
0.0
 10
5.52849
 20
-6.29771
 30
0.0
 10
5.85304
 20
-6.36793
 30
0.0
 10
5.82633
 20
-6.17018
 30
0.0
 10
5.82633
 20
-6.17018
 30
0.0
 10
5.82633
 20
-6.17018
 30
0.0
 10
5.26053
 20
-6.16979
 30
0.0
 10
5.26053
 20
-6.16979
 30
0.0
 10
5.26053
 20
-6.16979
 30
0.0
 10
5.26053
 20
-6.16979
 30
0.0
 10
5.26053
 20
-6.01979
 30
0.0
 10
5.26053
 20
-6.01979
 30
0.0
 10
5.26053
 20
-6.01979
 30
0.0
 10
5.26053
 20
-6.01979
 30
0.0
 10
5.8312
 20
-6.01979
 30
0.0
 10
5.8312
 20
-6.01979
 30
0.0
 10
5.8312
 20
-6.01979
 30
0.0
 10
5.86214
 20
-5.93072
 30
0.0
 10
5.67726
 20
-5.81016
 30
0.0
 10
5.597
 20
-5.7914
 30
0.0
 10
5.597
 20
-5.7914
 30
0.0
 10
5.40434
 20
-5.72613
 30
0.0
 10
5.18095
 20
-5.89268
 30
0.0
 10
4.84078
 20
-5.84307
 30
0.0
 10
4.84078
 20
-5.84307
 30
0.0
 10
4.66721
 20
-5.79141
 30
0.0
 10
4.59393
 20
-5.80296
 30
0.0
 10
4.59119
 20
-5.92157
 30
0.0
  0
SPLINE
  5
4B
330
1F
100
AcDbEntity
  8
Livello 1
 62
   250
370
    20
100
AcDbSpline
210
0.0
220
0.0
230
1.0
 70
    11
 71
     3
 72
    48
 73
    44
 74
     0
 42
0.0000000001
 43
0.0000000001
 40
0.0
 40
0.0
 40
0.0
 40
0.0
 40
0.0833333333333333
 40
0.0833333333333333
 40
0.0833333333333333
 40
0.0833333333333333
 40
0.1666666666666667
 40
0.1666666666666667
 40
0.1666666666666667
 40
0.1666666666666667
 40
0.25
 40
0.25
 40
0.25
 40
0.25
 40
0.3333333333333333
 40
0.3333333333333333
 40
0.3333333333333333
 40
0.3333333333333333
 40
0.4166666666666667
 40
0.4166666666666667
 40
0.4166666666666667
 40
0.4166666666666667
 40
0.5
 40
0.5
 40
0.5
 40
0.5
 40
0.5833333333333334
 40
0.5833333333333334
 40
0.5833333333333334
 40
0.5833333333333334
 40
0.6666666666666666
 40
0.6666666666666666
 40
0.6666666666666666
 40
0.6666666666666666
 40
0.75
 40
0.75
 40
0.75
 40
0.75
 40
0.8333333333333334
 40
0.8333333333333334
 40
0.8333333333333334
 40
0.8333333333333334
 40
1.0
 40
1.0
 40
1.0
 40
1.0
 10
4.47373
 20
-5.14515
 30
0.0
 10
4.59169
 20
-4.99835
 30
0.0
 10
4.90196
 20
-5.14186
 30
0.0
 10
5.00378
 20
-5.14206
 30
0.0
 10
5.00378
 20
-5.14206
 30
0.0
 10
5.24697
 20
-5.14256
 30
0.0
 10
5.44476
 20
-4.92738
 30
0.0
 10
5.92101
 20
-5.21262
 30
0.0
 10
5.92101
 20
-5.21262
 30
0.0
 10
5.96115
 20
-5.23374
 30
0.0
 10
5.93737
 20
-5.2939
 30
0.0
 10
5.89354
 20
-5.2939
 30
0.0
 10
5.89354
 20
-5.2939
 30
0.0
 10
5.89354
 20
-5.2939
 30
0.0
 10
5.21561
 20
-5.2939
 30
0.0
 10
5.21561
 20
-5.2939
 30
0.0
 10
5.21561
 20
-5.2939
 30
0.0
 10
5.21561
 20
-5.34396
 30
0.0
 10
5.21561
 20
-5.39375
 30
0.0
 10
5.21561
 20
-5.4439
 30
0.0
 10
5.21561
 20
-5.4439
 30
0.0
 10
5.21561
 20
-5.4439
 30
0.0
 10
5.96025
 20
-5.4439
 30
0.0
 10
5.96025
 20
-5.4439
 30
0.0
 10
5.96025
 20
-5.4439
 30
0.0
 10
6.0108
 20
-5.4702
 30
0.0
 10
5.88381
 20
-5.62357
 30
0.0
 10
5.82532
 20
-5.63595
 30
0.0
 10
5.82532
 20
-5.63595
 30
0.0
 10
5.76446
 20
-5.64653
 30
0.0
 10
5.68508
 20
-5.6505
 30
0.0
 10
5.63878
 20
-5.63595
 30
0.0
 10
5.63878
 20
-5.63595
 30
0.0
 10
5.61289
 20
-5.63212
 30
0.0
 10
5.5652
 20
-5.60434
 30
0.0
 10
5.53794
 20
-5.60391
 30
0.0
 10
5.53794
 20
-5.60391
 30
0.0
 10
5.50788
 20
-5.6049
 30
0.0
 10
4.85204
 20
-5.88334
 30
0.0
 10
4.61661
 20
-5.50983
 30
0.0
 10
4.61661
 20
-5.50983
 30
0.0
 10
4.50988
 20
-5.40832
 30
0.0
 10
4.40838
 20
-5.31372
 30
0.0
 10
4.47373
 20
-5.14515
 30
0.0
  0
SPLINE
  5
4C
330
1F
100
AcDbEntity
  8
Livello 1
 62
   250
370
    20
100
AcDbSpline
210
0.0
220
0.0
230
1.0
 70
    11
 71
     3
 72
    40
 73
    36
 74
     0
 42
0.0000000001
 43
0.0000000001
 40
0.0
 40
0.0
 40
0.0
 40
0.0
 40
0.1
 40
0.1
 40
0.1
 40
0.1
 40
0.2
 40
0.2
 40
0.2
 40
0.2
 40
0.3
 40
0.3
 40
0.3
 40
0.3
 40
0.4
 40
0.4
 40
0.4
 40
0.4
 40
0.5
 40
0.5
 40
0.5
 40
0.5
 40
0.6
 40
0.6
 40
0.6
 40
0.6
 40
0.7
 40
0.7
 40
0.7
 40
0.7
 40
0.8
 40
0.8
 40
0.8
 40
0.8
 40
1.0
 40
1.0
 40
1.0
 40
1.0
 10
4.57984
 20
-4.38503
 30
0.0
 10
4.71423
 20
-4.29471
 30
0.0
 10
4.89318
 20
-4.42085
 30
0.0
 10
5.17956
 20
-4.38503
 30
0.0
 10
5.17956
 20
-4.38503
 30
0.0
 10
5.32284
 20
-4.36238
 30
0.0
 10
5.74944
 20
-4.16797
 30
0.0
 10
5.8782
 20
-4.55715
 30
0.0
 10
5.8782
 20
-4.55715
 30
0.0
 10
5.8782
 20
-4.55715
 30
0.0
 10
5.28325
 20
-4.55715
 30
0.0
 10
5.28325
 20
-4.55715
 30
0.0
 10
5.28325
 20
-4.55715
 30
0.0
 10
5.28325
 20
-4.55715
 30
0.0
 10
5.28325
 20
-4.70715
 30
0.0
 10
5.28325
 20
-4.70715
 30
0.0
 10
5.28325
 20
-4.70715
 30
0.0
 10
5.28325
 20
-4.70715
 30
0.0
 10
5.89172
 20
-4.70715
 30
0.0
 10
5.89172
 20
-4.70715
 30
0.0
 10
5.89172
 20
-4.70715
 30
0.0
 10
5.91248
 20
-4.94642
 30
0.0
 10
5.59834
 20
-4.81973
 30
0.0
 10
5.53365
 20
-4.85819
 30
0.0
 10
5.53365
 20
-4.85819
 30
0.0
 10
5.37068
 20
-4.95225
 30
0.0
 10
5.22202
 20
-4.97271
 30
0.0
 10
5.14428
 20
-4.98475
 30
0.0
 10
5.14428
 20
-4.98475
 30
0.0
 10
4.92898
 20
-5.0173
 30
0.0
 10
4.84652
 20
-4.95117
 30
0.0
 10
4.72095
 20
-4.87892
 30
0.0
 10
4.72095
 20
-4.87892
 30
0.0
 10
4.56231
 20
-4.71708
 30
0.0
 10
4.47091
 20
-4.53466
 30
0.0
 10
4.57984
 20
-4.38503
 30
0.0
  0
SPLINE
  5
4D
330
1F
100
AcDbEntity
  8
Livello 1
 62
   250
370
    20
100
AcDbSpline
210
0.0
220
0.0
230
1.0
 70
    11
 71
     3
 72
    52
 73
    48
 74
     0
 42
0.0000000001
 43
0.0000000001
 40
0.0
 40
0.0
 40
0.0
 40
0.0
 40
0.0769230769230769
 40
0.0769230769230769
 40
0.0769230769230769
 40
0.0769230769230769
 40
0.1538461538461539
 40
0.1538461538461539
 40
0.1538461538461539
 40
0.1538461538461539
 40
0.2307692307692308
 40
0.2307692307692308
 40
0.2307692307692308
 40
0.2307692307692308
 40
0.3076923076923077
 40
0.3076923076923077
 40
0.3076923076923077
 40
0.3076923076923077
 40
0.3846153846153846
 40
0.3846153846153846
 40
0.3846153846153846
 40
0.3846153846153846
 40
0.4615384615384616
 40
0.4615384615384616
 40
0.4615384615384616
 40
0.4615384615384616
 40
0.5384615384615384
 40
0.5384615384615384
 40
0.5384615384615384
 40
0.5384615384615384
 40
0.6153846153846154
 40
0.6153846153846154
 40
0.6153846153846154
 40
0.6153846153846154
 40
0.6923076923076923
 40
0.6923076923076923
 40
0.6923076923076923
 40
0.6923076923076923
 40
0.7692307692307693
 40
0.7692307692307693
 40
0.7692307692307693
 40
0.7692307692307693
 40
0.8461538461538461
 40
0.8461538461538461
 40
0.8461538461538461
 40
0.8461538461538461
 40
1.0
 40
1.0
 40
1.0
 40
1.0
 10
5.56277
 20
-3.63794
 30
0.0
 10
5.62684
 20
-3.64766
 30
0.0
 10
5.84716
 20
-3.70402
 30
0.0
 10
5.84632
 20
-3.84519
 30
0.0
 10
5.84632
 20
-3.84519
 30
0.0
 10
5.84632
 20
-3.84519
 30
0.0
 10
5.2784
 20
-3.84519
 30
0.0
 10
5.2784
 20
-3.84519
 30
0.0
 10
5.2784
 20
-3.84519
 30
0.0
 10
5.2784
 20
-3.91082
 30
0.0
 10
5.2784
 20
-3.92952
 30
0.0
 10
5.2784
 20
-3.99519
 30
0.0
 10
5.2784
 20
-3.99519
 30
0.0
 10
5.2784
 20
-3.99519
 30
0.0
 10
5.80736
 20
-3.99519
 30
0.0
 10
5.80736
 20
-3.99519
 30
0.0
 10
5.80736
 20
-3.99519
 30
0.0
 10
5.90814
 20
-4.03268
 30
0.0
 10
5.80719
 20
-4.12483
 30
0.0
 10
5.75636
 20
-4.15123
 30
0.0
 10
5.75636
 20
-4.15123
 30
0.0
 10
5.71271
 20
-4.1843
 30
0.0
 10
5.54416
 20
-4.17692
 30
0.0
 10
5.49239
 20
-4.15874
 30
0.0
 10
5.49239
 20
-4.15874
 30
0.0
 10
5.43641
 20
-4.14308
 30
0.0
 10
5.41013
 20
-4.20994
 30
0.0
 10
5.24527
 20
-4.23766
 30
0.0
 10
5.24527
 20
-4.23766
 30
0.0
 10
4.93206
 20
-4.29052
 30
0.0
 10
4.57629
 20
-4.05485
 30
0.0
 10
4.57457
 20
-3.7667
 30
0.0
 10
4.57457
 20
-3.7667
 30
0.0
 10
4.57421
 20
-3.70528
 30
0.0
 10
4.60036
 20
-3.64539
 30
0.0
 10
4.67442
 20
-3.60643
 30
0.0
 10
4.67442
 20
-3.60643
 30
0.0
 10
4.71069
 20
-3.5848
 30
0.0
 10
4.78916
 20
-3.62025
 30
0.0
 10
4.85722
 20
-3.63794
 30
0.0
 10
4.85722
 20
-3.63794
 30
0.0
 10
5.01804
 20
-3.69009
 30
0.0
 10
5.10339
 20
-3.67322
 30
0.0
 10
5.28055
 20
-3.67322
 30
0.0
 10
5.28055
 20
-3.67322
 30
0.0
 10
5.383
 20
-3.62138
 30
0.0
 10
5.51211
 20
-3.62889
 30
0.0
 10
5.56277
 20
-3.63794
 30
0.0
  0
SPLINE
  5
4E
330
1F
100
AcDbEntity
  8
Livello 1
 62
   250
370
    20
100
AcDbSpline
210
0.0
220
0.0
230
1.0
 70
    11
 71
     3
 72
   388
 73
   384
 74
     0
 42
0.0000000001
 43
0.0000000001
 40
0.0
 40
0.0
 40
0.0
 40
0.0
 40
0.0103092783505155
 40
0.0103092783505155
 40
0.0103092783505155
 40
0.0103092783505155
 40
0.0206185567010309
 40
0.0206185567010309
 40
0.0206185567010309
 40
0.0206185567010309
 40
0.0309278350515464
 40
0.0309278350515464
 40
0.0309278350515464
 40
0.0309278350515464
 40
0.0412371134020619
 40
0.0412371134020619
 40
0.0412371134020619
 40
0.0412371134020619
 40
0.0515463917525773
 40
0.0515463917525773
 40
0.0515463917525773
 40
0.0515463917525773
 40
0.0618556701030928
 40
0.0618556701030928
 40
0.0618556701030928
 40
0.0618556701030928
 40
0.0721649484536082
 40
0.0721649484536082
 40
0.0721649484536082
 40
0.0721649484536082
 40
0.0824742268041237
 40
0.0824742268041237
 40
0.0824742268041237
 40
0.0824742268041237
 40
0.0927835051546392
 40
0.0927835051546392
 40
0.0927835051546392
 40
0.0927835051546392
 40
0.1030927835051546
 40
0.1030927835051546
 40
0.1030927835051546
 40
0.1030927835051546
 40
0.1134020618556701
 40
0.1134020618556701
 40
0.1134020618556701
 40
0.1134020618556701
 40
0.1237113402061856
 40
0.1237113402061856
 40
0.1237113402061856
 40
0.1237113402061856
 40
0.134020618556701
 40
0.134020618556701
 40
0.134020618556701
 40
0.134020618556701
 40
0.1443298969072165
 40
0.1443298969072165
 40
0.1443298969072165
 40
0.1443298969072165
 40
0.154639175257732
 40
0.154639175257732
 40
0.154639175257732
 40
0.154639175257732
 40
0.1649484536082474
 40
0.1649484536082474
 40
0.1649484536082474
 40
0.1649484536082474
 40
0.1752577319587629
 40
0.1752577319587629
 40
0.1752577319587629
 40
0.1752577319587629
 40
0.1855670103092784
 40
0.1855670103092784
 40
0.1855670103092784
 40
0.1855670103092784
 40
0.1958762886597938
 40
0.1958762886597938
 40
0.1958762886597938
 40
0.1958762886597938
 40
0.2061855670103093
 40
0.2061855670103093
 40
0.2061855670103093
 40
0.2061855670103093
 40
0.2164948453608248
 40
0.2164948453608248
 40
0.2164948453608248
 40
0.2164948453608248
 40
0.2268041237113402
 40
0.2268041237113402
 40
0.2268041237113402
 40
0.2268041237113402
 40
0.2371134020618557
 40
0.2371134020618557
 40
0.2371134020618557
 40
0.2371134020618557
 40
0.2474226804123711
 40
0.2474226804123711
 40
0.2474226804123711
 40
0.2474226804123711
 40
0.2577319587628866
 40
0.2577319587628866
 40
0.2577319587628866
 40
0.2577319587628866
 40
0.2680412371134021
 40
0.2680412371134021
 40
0.2680412371134021
 40
0.2680412371134021
 40
0.2783505154639175
 40
0.2783505154639175
 40
0.2783505154639175
 40
0.2783505154639175
 40
0.288659793814433
 40
0.288659793814433
 40
0.288659793814433
 40
0.288659793814433
 40
0.2989690721649484
 40
0.2989690721649484
 40
0.2989690721649484
 40
0.2989690721649484
 40
0.3092783505154639
 40
0.3092783505154639
 40
0.3092783505154639
 40
0.3092783505154639
 40
0.3195876288659794
 40
0.3195876288659794
 40
0.3195876288659794
 40
0.3195876288659794
 40
0.3298969072164948
 40
0.3298969072164948
 40
0.3298969072164948
 40
0.3298969072164948
 40
0.3402061855670103
 40
0.3402061855670103
 40
0.3402061855670103
 40
0.3402061855670103
 40
0.3505154639175257
 40
0.3505154639175257
 40
0.3505154639175257
 40
0.3505154639175257
 40
0.3608247422680412
 40
0.3608247422680412
 40
0.3608247422680412
 40
0.3608247422680412
 40
0.3711340206185567
 40
0.3711340206185567
 40
0.3711340206185567
 40
0.3711340206185567
 40
0.3814432989690721
 40
0.3814432989690721
 40
0.3814432989690721
 40
0.3814432989690721
 40
0.3917525773195876
 40
0.3917525773195876
 40
0.3917525773195876
 40
0.3917525773195876
 40
0.4020618556701031
 40
0.4020618556701031
 40
0.4020618556701031
 40
0.4020618556701031
 40
0.4123711340206185
 40
0.4123711340206185
 40
0.4123711340206185
 40
0.4123711340206185
 40
0.422680412371134
 40
0.422680412371134
 40
0.422680412371134
 40
0.422680412371134
 40
0.4329896907216495
 40
0.4329896907216495
 40
0.4329896907216495
 40
0.4329896907216495
 40
0.4432989690721649
 40
0.4432989690721649
 40
0.4432989690721649
 40
0.4432989690721649
 40
0.4536082474226804
 40
0.4536082474226804
 40
0.4536082474226804
 40
0.4536082474226804
 40
0.4639175257731959
 40
0.4639175257731959
 40
0.4639175257731959
 40
0.4639175257731959
 40
0.4742268041237113
 40
0.4742268041237113
 40
0.4742268041237113
 40
0.4742268041237113
 40
0.4845360824742268
 40
0.4845360824742268
 40
0.4845360824742268
 40
0.4845360824742268
 40
0.4948453608247423
 40
0.4948453608247423
 40
0.4948453608247423
 40
0.4948453608247423
 40
0.5051546391752577
 40
0.5051546391752577
 40
0.5051546391752577
 40
0.5051546391752577
 40
0.5154639175257731
 40
0.5154639175257731
 40
0.5154639175257731
 40
0.5154639175257731
 40
0.5257731958762887
 40
0.5257731958762887
 40
0.5257731958762887
 40
0.5257731958762887
 40
0.5360824742268041
 40
0.5360824742268041
 40
0.5360824742268041
 40
0.5360824742268041
 40
0.5463917525773195
 40
0.5463917525773195
 40
0.5463917525773195
 40
0.5463917525773195
 40
0.5567010309278351
 40
0.5567010309278351
 40
0.5567010309278351
 40
0.5567010309278351
 40
0.5670103092783505
 40
0.5670103092783505
 40
0.5670103092783505
 40
0.5670103092783505
 40
0.5773195876288659
 40
0.5773195876288659
 40
0.5773195876288659
 40
0.5773195876288659
 40
0.5876288659793815
 40
0.5876288659793815
 40
0.5876288659793815
 40
0.5876288659793815
 40
0.5979381443298969
 40
0.5979381443298969
 40
0.5979381443298969
 40
0.5979381443298969
 40
0.6082474226804123
 40
0.6082474226804123
 40
0.6082474226804123
 40
0.6082474226804123
 40
0.6185567010309279
 40
0.6185567010309279
 40
0.6185567010309279
 40
0.6185567010309279
 40
0.6288659793814433
 40
0.6288659793814433
 40
0.6288659793814433
 40
0.6288659793814433
 40
0.6391752577319587
 40
0.6391752577319587
 40
0.6391752577319587
 40
0.6391752577319587
 40
0.6494845360824743
 40
0.6494845360824743
 40
0.6494845360824743
 40
0.6494845360824743
 40
0.6597938144329897
 40
0.6597938144329897
 40
0.6597938144329897
 40
0.6597938144329897
 40
0.6701030927835051
 40
0.6701030927835051
 40
0.6701030927835051
 40
0.6701030927835051
 40
0.6804123711340206
 40
0.6804123711340206
 40
0.6804123711340206
 40
0.6804123711340206
 40
0.6907216494845361
 40
0.6907216494845361
 40
0.6907216494845361
 40
0.6907216494845361
 40
0.7010309278350515
 40
0.7010309278350515
 40
0.7010309278350515
 40
0.7010309278350515
 40
0.711340206185567
 40
0.711340206185567
 40
0.711340206185567
 40
0.711340206185567
 40
0.7216494845360825
 40
0.7216494845360825
 40
0.7216494845360825
 40
0.7216494845360825
 40
0.7319587628865979
 40
0.7319587628865979
 40
0.7319587628865979
 40
0.7319587628865979
 40
0.7422680412371134
 40
0.7422680412371134
 40
0.7422680412371134
 40
0.7422680412371134
 40
0.7525773195876289
 40
0.7525773195876289
 40
0.7525773195876289
 40
0.7525773195876289
 40
0.7628865979381443
 40
0.7628865979381443
 40
0.7628865979381443
 40
0.7628865979381443
 40
0.7731958762886598
 40
0.7731958762886598
 40
0.7731958762886598
 40
0.7731958762886598
 40
0.7835051546391752
 40
0.7835051546391752
 40
0.7835051546391752
 40
0.7835051546391752
 40
0.7938144329896907
 40
0.7938144329896907
 40
0.7938144329896907
 40
0.7938144329896907
 40
0.8041237113402062
 40
0.8041237113402062
 40
0.8041237113402062
 40
0.8041237113402062
 40
0.8144329896907216
 40
0.8144329896907216
 40
0.8144329896907216
 40
0.8144329896907216
 40
0.8247422680412371
 40
0.8247422680412371
 40
0.8247422680412371
 40
0.8247422680412371
 40
0.8350515463917526
 40
0.8350515463917526
 40
0.8350515463917526
 40
0.8350515463917526
 40
0.845360824742268
 40
0.845360824742268
 40
0.845360824742268
 40
0.845360824742268
 40
0.8556701030927835
 40
0.8556701030927835
 40
0.8556701030927835
 40
0.8556701030927835
 40
0.865979381443299
 40
0.865979381443299
 40
0.865979381443299
 40
0.865979381443299
 40
0.8762886597938144
 40
0.8762886597938144
 40
0.8762886597938144
 40
0.8762886597938144
 40
0.8865979381443299
 40
0.8865979381443299
 40
0.8865979381443299
 40
0.8865979381443299
 40
0.8969072164948454
 40
0.8969072164948454
 40
0.8969072164948454
 40
0.8969072164948454
 40
0.9072164948453608
 40
0.9072164948453608
 40
0.9072164948453608
 40
0.9072164948453608
 40
0.9175257731958762
 40
0.9175257731958762
 40
0.9175257731958762
 40
0.9175257731958762
 40
0.9278350515463918
 40
0.9278350515463918
 40
0.9278350515463918
 40
0.9278350515463918
 40
0.9381443298969072
 40
0.9381443298969072
 40
0.9381443298969072
 40
0.9381443298969072
 40
0.9484536082474226
 40
0.9484536082474226
 40
0.9484536082474226
 40
0.9484536082474226
 40
0.9587628865979382
 40
0.9587628865979382
 40
0.9587628865979382
 40
0.9587628865979382
 40
0.9690721649484536
 40
0.9690721649484536
 40
0.9690721649484536
 40
0.9690721649484536
 40
0.979381443298969
 40
0.979381443298969
 40
0.979381443298969
 40
0.979381443298969
 40
1.0
 40
1.0
 40
1.0
 40
1.0
 10
10.39081
 20
0.47059
 30
0.0
 10
10.39081
 20
0.47059
 30
0.0
 10
10.15509
 20
0.17889
 30
0.0
 10
10.15509
 20
0.17889
 30
0.0
 10
10.15509
 20
0.17889
 30
0.0
 10
10.15509
 20
0.17889
 30
0.0
 10
10.03843
 20
0.27318
 30
0.0
 10
10.03843
 20
0.27318
 30
0.0
 10
10.03843
 20
0.27318
 30
0.0
 10
10.03843
 20
0.27318
 30
0.0
 10
10.3102
 20
0.60947
 30
0.0
 10
10.3102
 20
0.60947
 30
0.0
 10
10.3102
 20
0.60947
 30
0.0
 10
10.22886
 20
0.70385
 30
0.0
 10
10.1283
 20
0.79797
 30
0.0
 10
10.05771
 20
0.84111
 30
0.0
 10
10.05771
 20
0.84111
 30
0.0
 10
10.05771
 20
0.84111
 30
0.0
 10
9.86842
 20
0.60689
 30
0.0
 10
9.86842
 20
0.60689
 30
0.0
 10
9.86842
 20
0.60689
 30
0.0
 10
9.86842
 20
0.60689
 30
0.0
 10
9.75175
 20
0.70118
 30
0.0
 10
9.75175
 20
0.70118
 30
0.0
 10
9.75175
 20
0.70118
 30
0.0
 10
9.75175
 20
0.70118
 30
0.0
 10
9.92967
 20
0.92133
 30
0.0
 10
9.92967
 20
0.92133
 30
0.0
 10
9.92967
 20
0.92133
 30
0.0
 10
9.75228
 20
1.03862
 30
0.0
 10
9.56361
 20
1.09895
 30
0.0
 10
9.35036
 20
1.10048
 30
0.0
 10
9.35036
 20
1.10048
 30
0.0
 10
9.35036
 20
1.10048
 30
0.0
 10
9.44318
 20
0.812
 30
0.0
 10
9.44318
 20
0.812
 30
0.0
 10
9.44318
 20
0.812
 30
0.0
 10
9.44318
 20
0.812
 30
0.0
 10
9.30039
 20
0.76606
 30
0.0
 10
9.30039
 20
0.76606
 30
0.0
 10
9.30039
 20
0.76606
 30
0.0
 10
9.30039
 20
0.76606
 30
0.0
 10
9.18468
 20
1.12564
 30
0.0
 10
9.18468
 20
1.12564
 30
0.0
 10
9.18468
 20
1.12564
 30
0.0
 10
9.02446
 20
1.16015
 30
0.0
 10
8.91335
 20
1.12879
 30
0.0
 10
8.78334
 20
1.0929
 30
0.0
 10
8.78334
 20
1.0929
 30
0.0
 10
8.78334
 20
1.0929
 30
0.0
 10
8.89449
 20
0.74749
 30
0.0
 10
8.89449
 20
0.74749
 30
0.0
 10
8.89449
 20
0.74749
 30
0.0
 10
8.89449
 20
0.74749
 30
0.0
 10
8.7517
 20
0.70154
 30
0.0
 10
8.7517
 20
0.70154
 30
0.0
 10
8.7517
 20
0.70154
 30
0.0
 10
8.7517
 20
0.70154
 30
0.0
 10
8.64106
 20
1.04538
 30
0.0
 10
8.64106
 20
1.04538
 30
0.0
 10
8.64106
 20
1.04538
 30
0.0
 10
8.53023
 20
1.00749
 30
0.0
 10
8.38608
 20
0.9253
 30
0.0
 10
8.30233
 20
0.8575
 30
0.0
 10
8.30233
 20
0.8575
 30
0.0
 10
8.34201
 20
0.73419
 30
0.0
 10
8.38169
 20
0.61088
 30
0.0
 10
8.42138
 20
0.48756
 30
0.0
 10
8.42138
 20
0.48756
 30
0.0
 10
8.42138
 20
0.48756
 30
0.0
 10
8.27859
 20
0.44161
 30
0.0
 10
8.27859
 20
0.44161
 30
0.0
 10
8.27859
 20
0.44161
 30
0.0
 10
8.27859
 20
0.44161
 30
0.0
 10
8.16542
 20
0.79331
 30
0.0
 10
8.16542
 20
0.79331
 30
0.0
 10
8.16542
 20
0.79331
 30
0.0
 10
8.03576
 20
0.69011
 30
0.0
 10
7.9136
 20
0.55883
 30
0.0
 10
7.81697
 20
0.40441
 30
0.0
 10
7.81697
 20
0.40441
 30
0.0
 10
7.88951
 20
0.17897
 30
0.0
 10
7.95546
 20
-0.0435
 30
0.0
 10
8.02668
 20
-0.26483
 30
0.0
 10
8.02668
 20
-0.26483
 30
0.0
 10
7.97716
 20
-0.28076
 30
0.0
 10
7.93437
 20
-0.29453
 30
0.0
 10
7.88389
 20
-0.31078
 30
0.0
 10
7.88389
 20
-0.31078
 30
0.0
 10
7.88389
 20
-0.31078
 30
0.0
 10
7.72074
 20
0.19626
 30
0.0
 10
7.72074
 20
0.19626
 30
0.0
 10
7.72074
 20
0.19626
 30
0.0
 10
7.59652
 20
0.05728
 30
0.0
 10
7.5084
 20
-0.14175
 30
0.0
 10
7.42262
 20
-0.3095
 30
0.0
 10
7.42262
 20
-0.3095
 30
0.0
 10
7.48379
 20
-0.49957
 30
0.0
 10
7.54492
 20
-0.68954
 30
0.0
 10
7.60608
 20
-0.87963
 30
0.0
 10
7.60608
 20
-0.87963
 30
0.0
 10
7.55411
 20
-0.89635
 30
0.0
 10
7.51512
 20
-0.9089
 30
0.0
 10
7.46329
 20
-0.92557
 30
0.0
 10
7.46329
 20
-0.92557
 30
0.0
 10
7.46329
 20
-0.92557
 30
0.0
 10
7.35265
 20
-0.58174
 30
0.0
 10
7.35265
 20
-0.58174
 30
0.0
 10
7.35265
 20
-0.58174
 30
0.0
 10
7.23227
 20
-0.66844
 30
0.0
 10
7.16722
 20
-0.86189
 30
0.0
 10
7.08814
 20
-1.01601
 30
0.0
 10
7.08814
 20
-1.01601
 30
0.0
 10
7.14991
 20
-1.20798
 30
0.0
 10
7.21025
 20
-1.39861
 30
0.0
 10
7.27183
 20
-1.58998
 30
0.0
 10
7.27183
 20
-1.58998
 30
0.0
 10
7.27183
 20
-1.58998
 30
0.0
 10
7.12903
 20
-1.63593
 30
0.0
 10
7.12903
 20
-1.63593
 30
0.0
 10
7.12903
 20
-1.63593
 30
0.0
 10
7.12903
 20
-1.63593
 30
0.0
 10
7.10844
 20
-1.57193
 30
0.0
 10
7.10844
 20
-1.57193
 30
0.0
 10
7.10844
 20
-1.57193
 30
0.0
 10
7.10844
 20
-1.57193
 30
0.0
 10
7.01856
 20
-1.29261
 30
0.0
 10
7.01856
 20
-1.29261
 30
0.0
 10
7.01856
 20
-1.29261
 30
0.0
 10
6.90487
 20
-1.32208
 30
0.0
 10
6.75168
 20
-1.63941
 30
0.0
 10
6.75125
 20
-1.76451
 30
0.0
 10
6.75125
 20
-1.76451
 30
0.0
 10
6.75125
 20
-1.76451
 30
0.0
 10
6.88698
 20
-2.18632
 30
0.0
 10
6.88698
 20
-2.18632
 30
0.0
 10
6.88698
 20
-2.18632
 30
0.0
 10
6.83832
 20
-2.20198
 30
0.0
 10
6.79709
 20
-2.21524
 30
0.0
 10
6.74419
 20
-2.23227
 30
0.0
 10
6.74419
 20
-2.23227
 30
0.0
 10
6.74419
 20
-2.23227
 30
0.0
 10
6.63287
 20
-1.88633
 30
0.0
 10
6.63287
 20
-1.88633
 30
0.0
 10
6.63287
 20
-1.88633
 30
0.0
 10
6.54472
 20
-1.98686
 30
0.0
 10
6.41739
 20
-2.09799
 30
0.0
 10
6.32092
 20
-2.18715
 30
0.0
 10
6.32092
 20
-2.18715
 30
0.0
 10
6.35734
 20
-2.30033
 30
0.0
 10
6.39361
 20
-2.41303
 30
0.0
 10
6.43002
 20
-2.52618
 30
0.0
 10
6.43002
 20
-2.52618
 30
0.0
 10
6.43002
 20
-2.52618
 30
0.0
 10
6.28723
 20
-2.57213
 30
0.0
 10
6.28723
 20
-2.57213
 30
0.0
 10
6.28723
 20
-2.57213
 30
0.0
 10
6.25446
 20
-2.47028
 30
0.0
 10
6.21261
 20
-2.35104
 30
0.0
 10
6.17982
 20
-2.24913
 30
0.0
 10
6.17982
 20
-2.24913
 30
0.0
 10
6.02555
 20
-2.28022
 30
0.0
 10
5.93902
 20
-2.27818
 30
0.0
 10
5.77609
 20
-2.24309
 30
0.0
 10
5.77609
 20
-2.24309
 30
0.0
 10
5.77609
 20
-2.24309
 30
0.0
 10
5.87541
 20
-2.55176
 30
0.0
 10
5.87541
 20
-2.55176
 30
0.0
 10
5.87541
 20
-2.55176
 30
0.0
 10
5.82627
 20
-2.56758
 30
0.0
 10
5.78224
 20
-2.58174
 30
0.0
 10
5.73262
 20
-2.59771
 30
0.0
 10
5.73262
 20
-2.59771
 30
0.0
 10
5.68604
 20
-2.45293
 30
0.0
 10
5.6403
 20
-2.31078
 30
0.0
 10
5.59261
 20
-2.16258
 30
0.0
 10
5.59261
 20
-2.16258
 30
0.0
 10
5.4574
 20
-2.04965
 30
0.0
 10
5.20761
 20
-1.78155
 30
0.0
 10
5.35658
 20
-1.42909
 30
0.0
 10
5.35658
 20
-1.42909
 30
0.0
 10
5.50594
 20
-1.1526
 30
0.0
 10
5.50122
 20
-1.13396
 30
0.0
 10
5.78912
 20
-1.01536
 30
0.0
 10
5.78912
 20
-1.01536
 30
0.0
 10
5.78912
 20
-1.01536
 30
0.0
 10
5.58859
 20
-0.38677
 30
0.0
 10
5.58859
 20
-0.38677
 30
0.0
 10
5.58859
 20
-0.38677
 30
0.0
 10
5.36196
 20
-0.35658
 30
0.0
 10
5.31992
 20
-0.38669
 30
0.0
 10
5.20823
 20
-0.47731
 30
0.0
 10
5.20823
 20
-0.47731
 30
0.0
 10
5.20823
 20
-0.47731
 30
0.0
 10
5.34422
 20
-0.89992
 30
0.0
 10
5.34422
 20
-0.89992
 30
0.0
 10
5.34422
 20
-0.89992
 30
0.0
 10
5.34422
 20
-0.89992
 30
0.0
 10
5.38143
 20
-1.01556
 30
0.0
 10
5.38143
 20
-1.01556
 30
0.0
 10
5.38143
 20
-1.01556
 30
0.0
 10
5.38143
 20
-1.01556
 30
0.0
 10
5.23864
 20
-1.06151
 30
0.0
 10
5.23864
 20
-1.06151
 30
0.0
 10
5.23864
 20
-1.06151
 30
0.0
 10
5.23864
 20
-1.06151
 30
0.0
 10
5.21
 20
-0.97252
 30
0.0
 10
5.21
 20
-0.97252
 30
0.0
 10
5.21
 20
-0.97252
 30
0.0
 10
5.21
 20
-0.97252
 30
0.0
 10
5.06865
 20
-0.53324
 30
0.0
 10
5.06865
 20
-0.53324
 30
0.0
 10
5.06865
 20
-0.53324
 30
0.0
 10
4.90594
 20
-0.5741
 30
0.0
 10
4.82749
 20
-0.62984
 30
0.0
 10
4.72288
 20
-0.74379
 30
0.0
 10
4.72288
 20
-0.74379
 30
0.0
 10
4.83045
 20
-1.07806
 30
0.0
 10
4.93801
 20
-1.41234
 30
0.0
 10
5.04557
 20
-1.74661
 30
0.0
 10
5.04557
 20
-1.74661
 30
0.0
 10
4.99745
 20
-1.7621
 30
0.0
 10
4.95067
 20
-1.77715
 30
0.0
 10
4.90279
 20
-1.79256
 30
0.0
 10
4.90279
 20
-1.79256
 30
0.0
 10
4.8054
 20
-1.4899
 30
0.0
 10
4.66802
 20
-1.06299
 30
0.0
 10
4.56897
 20
-0.75516
 30
0.0
 10
4.56897
 20
-0.75516
 30
0.0
 10
4.52921
 20
-0.67991
 30
0.0
 10
4.46209
 20
-0.6958
 30
0.0
 10
4.43599
 20
-0.7206
 30
0.0
 10
4.43599
 20
-0.7206
 30
0.0
 10
4.2976
 20
-0.80136
 30
0.0
 10
4.33967
 20
-1.57291
 30
0.0
 10
4.42436
 20
-1.83611
 30
0.0
 10
4.42436
 20
-1.83611
 30
0.0
 10
4.55173
 20
-2.23193
 30
0.0
 10
4.69334
 20
-2.67983
 30
0.0
 10
4.98129
 20
-2.99103
 30
0.0
 10
4.98129
 20
-2.99103
 30
0.0
 10
5.09964
 20
-2.97595
 30
0.0
 10
5.16573
 20
-2.82613
 30
0.0
 10
5.35069
 20
-2.87217
 30
0.0
 10
5.35069
 20
-2.87217
 30
0.0
 10
5.51088
 20
-2.90046
 30
0.0
 10
5.84242
 20
-3.23277
 30
0.0
 10
6.5766
 20
-2.99652
 30
0.0
 10
6.5766
 20
-2.99652
 30
0.0
 10
7.02252
 20
-2.85303
 30
0.0
 10
6.9379
 20
-2.61333
 30
0.0
 10
7.11856
 20
-2.37742
 30
0.0
 10
7.11856
 20
-2.37742
 30
0.0
 10
7.15896
 20
-2.32467
 30
0.0
 10
7.28074
 20
-2.27057
 30
0.0
 10
7.44591
 20
-2.01266
 30
0.0
 10
7.44591
 20
-2.01266
 30
0.0
 10
7.44591
 20
-2.01266
 30
0.0
 10
7.78186
 20
-1.35795
 30
0.0
 10
7.78186
 20
-1.35795
 30
0.0
 10
7.78186
 20
-1.35795
 30
0.0
 10
7.80287
 20
-1.53949
 30
0.0
 10
7.87331
 20
-2.11071
 30
0.0
 10
8.32947
 20
-2.00167
 30
0.0
 10
8.32947
 20
-2.00167
 30
0.0
 10
8.52274
 20
-2.19222
 30
0.0
 10
8.6147
 20
-2.61059
 30
0.0
 10
9.27779
 20
-2.86851
 30
0.0
 10
9.27779
 20
-2.86851
 30
0.0
 10
9.82214
 20
-3.11983
 30
0.0
 10
10.72883
 20
-2.79735
 30
0.0
 10
10.56745
 20
-2.27756
 30
0.0
 10
10.56745
 20
-2.27756
 30
0.0
 10
10.56745
 20
-2.27756
 30
0.0
 10
10.33027
 20
-2.57106
 30
0.0
 10
10.33027
 20
-2.57106
 30
0.0
 10
10.33027
 20
-2.57106
 30
0.0
 10
10.33027
 20
-2.57106
 30
0.0
 10
10.21361
 20
-2.47678
 30
0.0
 10
10.21361
 20
-2.47678
 30
0.0
 10
10.21361
 20
-2.47678
 30
0.0
 10
10.29592
 20
-2.37493
 30
0.0
 10
10.45162
 20
-2.19185
 30
0.0
 10
10.513
 20
-2.10045
 30
0.0
 10
10.513
 20
-2.10045
 30
0.0
 10
10.50793
 20
-2.03531
 30
0.0
 10
10.34554
 20
-1.87862
 30
0.0
 10
10.2036
 20
-1.92163
 30
0.0
 10
10.2036
 20
-1.92163
 30
0.0
 10
10.2036
 20
-1.92163
 30
0.0
 10
9.78744
 20
-2.43659
 30
0.0
 10
9.78744
 20
-2.43659
 30
0.0
 10
9.78744
 20
-2.43659
 30
0.0
 10
9.78744
 20
-2.43659
 30
0.0
 10
9.67077
 20
-2.3423
 30
0.0
 10
9.67077
 20
-2.3423
 30
0.0
 10
9.67077
 20
-2.3423
 30
0.0
 10
9.67077
 20
-2.3423
 30
0.0
 10
10.0581
 20
-1.86301
 30
0.0
 10
10.0581
 20
-1.86301
 30
0.0
 10
10.0581
 20
-1.86301
 30
0.0
 10
9.95191
 20
-1.83386
 30
0.0
 10
9.81525
 20
-1.78302
 30
0.0
 10
9.7082
 20
-1.74149
 30
0.0
 10
9.7082
 20
-1.74149
 30
0.0
 10
9.7082
 20
-1.74149
 30
0.0
 10
9.30066
 20
-2.24737
 30
0.0
 10
9.30066
 20
-2.24737
 30
0.0
 10
9.30066
 20
-2.24737
 30
0.0
 10
9.25462
 20
-2.21016
 30
0.0
 10
9.22214
 20
-2.18391
 30
0.0
 10
9.18399
 20
-2.15308
 30
0.0
 10
9.18399
 20
-2.15308
 30
0.0
 10
9.18399
 20
-2.15308
 30
0.0
 10
9.54156
 20
-1.71063
 30
0.0
 10
9.54156
 20
-1.71063
 30
0.0
 10
9.54156
 20
-1.71063
 30
0.0
 10
9.4245
 20
-1.6575
 30
0.0
 10
9.3555
 20
-1.61158
 30
0.0
 10
9.23371
 20
-1.54908
 30
0.0
 10
9.23371
 20
-1.54908
 30
0.0
 10
9.23371
 20
-1.54908
 30
0.0
 10
8.95001
 20
-1.90015
 30
0.0
 10
8.95001
 20
-1.90015
 30
0.0
 10
8.95001
 20
-1.90015
 30
0.0
 10
8.95001
 20
-1.90015
 30
0.0
 10
8.83334
 20
-1.80586
 30
0.0
 10
8.83334
 20
-1.80586
 30
0.0
 10
8.83334
 20
-1.80586
 30
0.0
 10
8.87898
 20
-1.74926
 30
0.0
 10
9.06305
 20
-1.539
 30
0.0
 10
9.09565
 20
-1.48127
 30
0.0
 10
9.09565
 20
-1.48127
 30
0.0
 10
9.00697
 20
-1.44625
 30
0.0
 10
8.8777
 20
-1.36594
 30
0.0
 10
8.7923
 20
-1.29251
 30
0.0
 10
8.7923
 20
-1.29251
 30
0.0
 10
8.7923
 20
-1.29251
 30
0.0
 10
8.54169
 20
-1.60262
 30
0.0
 10
8.54169
 20
-1.60262
 30
0.0
 10
8.54169
 20
-1.60262
 30
0.0
 10
8.54169
 20
-1.60262
 30
0.0
 10
8.42502
 20
-1.50834
 30
0.0
 10
8.42502
 20
-1.50834
 30
0.0
 10
8.42502
 20
-1.50834
 30
0.0
 10
8.42502
 20
-1.50834
 30
0.0
 10
8.66762
 20
-1.20814
 30
0.0
 10
8.66762
 20
-1.20814
 30
0.0
 10
8.66762
 20
-1.20814
 30
0.0
 10
8.58571
 20
-1.1301
 30
0.0
 10
8.50653
 20
-1.03901
 30
0.0
 10
8.45036
 20
-0.94922
 30
0.0
 10
8.45036
 20
-0.94922
 30
0.0
 10
8.45036
 20
-0.94922
 30
0.0
 10
8.23599
 20
-1.21449
 30
0.0
 10
8.23599
 20
-1.21449
 30
0.0
 10
8.23599
 20
-1.21449
 30
0.0
 10
8.23599
 20
-1.21449
 30
0.0
 10
8.11932
 20
-1.12021
 30
0.0
 10
8.11932
 20
-1.12021
 30
0.0
 10
8.11932
 20
-1.12021
 30
0.0
 10
8.11932
 20
-1.12021
 30
0.0
 10
8.38677
 20
-0.78926
 30
0.0
 10
8.38677
 20
-0.78926
 30
0.0
 10
8.38677
 20
-0.78926
 30
0.0
 10
8.31272
 20
-0.55915
 30
0.0
 10
8.28804
 20
-0.34504
 30
0.0
 10
8.39168
 20
-0.11479
 30
0.0
 10
8.39168
 20
-0.11479
 30
0.0
 10
8.60126
 20
0.35082
 30
0.0
 10
9.21272
 20
0.56565
 30
0.0
 10
9.67861
 20
0.26226
 30
0.0
 10
9.67861
 20
0.26226
 30
0.0
 10
9.824
 20
0.17852
 30
0.0
 10
10.03828
 20
-0.04133
 30
0.0
 10
10.17466
 20
-0.25345
 30
0.0
 10
10.17466
 20
-0.25345
 30
0.0
 10
10.34201
 20
-0.15785
 30
0.0
 10
10.48298
 20
0.02248
 30
0.0
 10
10.59263
 20
0.18579
 30
0.0
 10
10.59263
 20
0.18579
 30
0.0
 10
10.553
 20
0.34518
 30
0.0
 10
10.47847
 20
0.45791
 30
0.0
 10
10.39081
 20
0.47059
 30
0.0
  0
SPLINE
  5
4F
330
1F
100
AcDbEntity
  8
Livello 1
 62
   250
370
    20
100
AcDbSpline
210
0.0
220
0.0
230
1.0
 70
    11
 71
     3
 72
   188
 73
   184
 74
     0
 42
0.0000000001
 43
0.0000000001
 40
0.0
 40
0.0
 40
0.0
 40
0.0
 40
0.0212765957446809
 40
0.0212765957446809
 40
0.0212765957446809
 40
0.0212765957446809
 40
0.0425531914893617
 40
0.0425531914893617
 40
0.0425531914893617
 40
0.0425531914893617
 40
0.0638297872340425
 40
0.0638297872340425
 40
0.0638297872340425
 40
0.0638297872340425
 40
0.0851063829787234
 40
0.0851063829787234
 40
0.0851063829787234
 40
0.0851063829787234
 40
0.1063829787234043
 40
0.1063829787234043
 40
0.1063829787234043
 40
0.1063829787234043
 40
0.1276595744680851
 40
0.1276595744680851
 40
0.1276595744680851
 40
0.1276595744680851
 40
0.148936170212766
 40
0.148936170212766
 40
0.148936170212766
 40
0.148936170212766
 40
0.1702127659574468
 40
0.1702127659574468
 40
0.1702127659574468
 40
0.1702127659574468
 40
0.1914893617021277
 40
0.1914893617021277
 40
0.1914893617021277
 40
0.1914893617021277
 40
0.2127659574468085
 40
0.2127659574468085
 40
0.2127659574468085
 40
0.2127659574468085
 40
0.2340425531914894
 40
0.2340425531914894
 40
0.2340425531914894
 40
0.2340425531914894
 40
0.2553191489361702
 40
0.2553191489361702
 40
0.2553191489361702
 40
0.2553191489361702
 40
0.2765957446808511
 40
0.2765957446808511
 40
0.2765957446808511
 40
0.2765957446808511
 40
0.2978723404255319
 40
0.2978723404255319
 40
0.2978723404255319
 40
0.2978723404255319
 40
0.3191489361702128
 40
0.3191489361702128
 40
0.3191489361702128
 40
0.3191489361702128
 40
0.3404255319148936
 40
0.3404255319148936
 40
0.3404255319148936
 40
0.3404255319148936
 40
0.3617021276595745
 40
0.3617021276595745
 40
0.3617021276595745
 40
0.3617021276595745
 40
0.3829787234042553
 40
0.3829787234042553
 40
0.3829787234042553
 40
0.3829787234042553
 40
0.4042553191489361
 40
0.4042553191489361
 40
0.4042553191489361
 40
0.4042553191489361
 40
0.425531914893617
 40
0.425531914893617
 40
0.425531914893617
 40
0.425531914893617
 40
0.4468085106382979
 40
0.4468085106382979
 40
0.4468085106382979
 40
0.4468085106382979
 40
0.4680851063829787
 40
0.4680851063829787
 40
0.4680851063829787
 40
0.4680851063829787
 40
0.4893617021276596
 40
0.4893617021276596
 40
0.4893617021276596
 40
0.4893617021276596
 40
0.5106382978723404
 40
0.5106382978723404
 40
0.5106382978723404
 40
0.5106382978723404
 40
0.5319148936170213
 40
0.5319148936170213
 40
0.5319148936170213
 40
0.5319148936170213
 40
0.5531914893617021
 40
0.5531914893617021
 40
0.5531914893617021
 40
0.5531914893617021
 40
0.574468085106383
 40
0.574468085106383
 40
0.574468085106383
 40
0.574468085106383
 40
0.5957446808510638
 40
0.5957446808510638
 40
0.5957446808510638
 40
0.5957446808510638
 40
0.6170212765957447
 40
0.6170212765957447
 40
0.6170212765957447
 40
0.6170212765957447
 40
0.6382978723404256
 40
0.6382978723404256
 40
0.6382978723404256
 40
0.6382978723404256
 40
0.6595744680851063
 40
0.6595744680851063
 40
0.6595744680851063
 40
0.6595744680851063
 40
0.6808510638297872
 40
0.6808510638297872
 40
0.6808510638297872
 40
0.6808510638297872
 40
0.7021276595744681
 40
0.7021276595744681
 40
0.7021276595744681
 40
0.7021276595744681
 40
0.723404255319149
 40
0.723404255319149
 40
0.723404255319149
 40
0.723404255319149
 40
0.7446808510638298
 40
0.7446808510638298
 40
0.7446808510638298
 40
0.7446808510638298
 40
0.7659574468085106
 40
0.7659574468085106
 40
0.7659574468085106
 40
0.7659574468085106
 40
0.7872340425531915
 40
0.7872340425531915
 40
0.7872340425531915
 40
0.7872340425531915
 40
0.8085106382978723
 40
0.8085106382978723
 40
0.8085106382978723
 40
0.8085106382978723
 40
0.8297872340425532
 40
0.8297872340425532
 40
0.8297872340425532
 40
0.8297872340425532
 40
0.851063829787234
 40
0.851063829787234
 40
0.851063829787234
 40
0.851063829787234
 40
0.8723404255319149
 40
0.8723404255319149
 40
0.8723404255319149
 40
0.8723404255319149
 40
0.8936170212765957
 40
0.8936170212765957
 40
0.8936170212765957
 40
0.8936170212765957
 40
0.9148936170212766
 40
0.9148936170212766
 40
0.9148936170212766
 40
0.9148936170212766
 40
0.9361702127659575
 40
0.9361702127659575
 40
0.9361702127659575
 40
0.9361702127659575
 40
0.9574468085106383
 40
0.9574468085106383
 40
0.9574468085106383
 40
0.9574468085106383
 40
1.0
 40
1.0
 40
1.0
 40
1.0
 10
5.83301
 20
5.2041
 30
0.0
 10
5.8233
 20
4.98961
 30
0.0
 10
5.82803
 20
4.65137
 30
0.0
 10
5.75773
 20
4.45853
 30
0.0
 10
5.75773
 20
4.45853
 30
0.0
 10
5.70956
 20
4.32638
 30
0.0
 10
5.66357
 20
4.19914
 30
0.0
 10
5.90385
 20
4.0019
 30
0.0
 10
5.90385
 20
4.0019
 30
0.0
 10
5.98446
 20
3.94567
 30
0.0
 10
6.00165
 20
3.92951
 30
0.0
 10
6.08685
 20
3.87732
 30
0.0
 10
6.08685
 20
3.87732
 30
0.0
 10
6.06322
 20
3.79234
 30
0.0
 10
5.97048
 20
3.6956
 30
0.0
 10
6.03636
 20
3.68573
 30
0.0
 10
6.03636
 20
3.68573
 30
0.0
 10
6.03636
 20
3.68573
 30
0.0
 10
6.25855
 20
3.68573
 30
0.0
 10
6.25855
 20
3.68573
 30
0.0
 10
6.25855
 20
3.68573
 30
0.0
 10
6.25855
 20
3.68573
 30
0.0
 10
6.25855
 20
3.53573
 30
0.0
 10
6.25855
 20
3.53573
 30
0.0
 10
6.25855
 20
3.53573
 30
0.0
 10
6.14555
 20
3.53573
 30
0.0
 10
6.03256
 20
3.53573
 30
0.0
 10
5.91956
 20
3.53573
 30
0.0
 10
5.91956
 20
3.53573
 30
0.0
 10
5.82052
 20
3.43524
 30
0.0
 10
5.69144
 20
3.26501
 30
0.0
 10
5.68391
 20
3.14278
 30
0.0
 10
5.68391
 20
3.14278
 30
0.0
 10
5.68934
 20
3.14056
 30
0.0
 10
5.87431
 20
3.14278
 30
0.0
 10
5.89313
 20
3.14278
 30
0.0
 10
5.89313
 20
3.14278
 30
0.0
 10
5.89313
 20
3.0844
 30
0.0
 10
5.89313
 20
3.0466
 30
0.0
 10
5.89313
 20
2.99278
 30
0.0
 10
5.89313
 20
2.99278
 30
0.0
 10
5.82946
 20
2.99278
 30
0.0
 10
5.63849
 20
2.98697
 30
0.0
 10
5.58387
 20
2.99278
 30
0.0
 10
5.58387
 20
2.99278
 30
0.0
 10
5.57546
 20
2.82778
 30
0.0
 10
5.60143
 20
2.72434
 30
0.0
 10
5.68442
 20
2.59677
 30
0.0
 10
5.68442
 20
2.59677
 30
0.0
 10
5.79259
 20
2.59677
 30
0.0
 10
5.90072
 20
2.59677
 30
0.0
 10
6.00888
 20
2.59677
 30
0.0
 10
6.00888
 20
2.59677
 30
0.0
 10
6.00888
 20
2.54626
 30
0.0
 10
6.00888
 20
2.49725
 30
0.0
 10
6.00888
 20
2.44677
 30
0.0
 10
6.00888
 20
2.44677
 30
0.0
 10
6.00888
 20
2.44677
 30
0.0
 10
5.83043
 20
2.44677
 30
0.0
 10
5.83043
 20
2.44677
 30
0.0
 10
5.83043
 20
2.44677
 30
0.0
 10
5.80144
 20
2.34663
 30
0.0
 10
5.87165
 20
2.33592
 30
0.0
 10
5.87022
 20
2.24021
 30
0.0
 10
5.87022
 20
2.24021
 30
0.0
 10
5.79325
 20
2.25052
 30
0.0
 10
5.73316
 20
2.23242
 30
0.0
 10
5.69218
 20
2.16746
 30
0.0
 10
5.69218
 20
2.16746
 30
0.0
 10
5.50641
 20
2.28841
 30
0.0
 10
5.27601
 20
2.40271
 30
0.0
 10
5.04171
 20
2.44677
 30
0.0
 10
5.04171
 20
2.44677
 30
0.0
 10
4.93301
 20
2.46331
 30
0.0
 10
4.81521
 20
2.48067
 30
0.0
 10
4.66599
 20
2.44677
 30
0.0
 10
4.66599
 20
2.44677
 30
0.0
 10
4.58152
 20
2.42808
 30
0.0
 10
4.49953
 20
2.39491
 30
0.0
 10
4.42218
 20
2.34385
 30
0.0
 10
4.42218
 20
2.34385
 30
0.0
 10
4.32145
 20
2.29329
 30
0.0
 10
4.16661
 20
2.0696
 30
0.0
 10
4.26257
 20
2.00974
 30
0.0
 10
4.26257
 20
2.00974
 30
0.0
 10
4.26257
 20
2.00974
 30
0.0
 10
5.29782
 20
2.00974
 30
0.0
 10
5.29782
 20
2.00974
 30
0.0
 10
5.29782
 20
2.00974
 30
0.0
 10
5.29782
 20
1.94619
 30
0.0
 10
5.29782
 20
1.93893
 30
0.0
 10
5.29782
 20
1.85974
 30
0.0
 10
5.29782
 20
1.85974
 30
0.0
 10
4.96363
 20
1.85974
 30
0.0
 10
4.62765
 20
1.85974
 30
0.0
 10
4.29071
 20
1.85974
 30
0.0
 10
4.29071
 20
1.85974
 30
0.0
 10
4.10674
 20
1.86307
 30
0.0
 10
4.26811
 20
1.50587
 30
0.0
 10
4.34166
 20
1.50587
 30
0.0
 10
4.34166
 20
1.50587
 30
0.0
 10
4.34166
 20
1.50587
 30
0.0
 10
5.58225
 20
1.50587
 30
0.0
 10
5.58225
 20
1.50587
 30
0.0
 10
5.58225
 20
1.50587
 30
0.0
 10
5.58225
 20
1.45274
 30
0.0
 10
5.58225
 20
1.40856
 30
0.0
 10
5.58225
 20
1.35587
 30
0.0
 10
5.58225
 20
1.35587
 30
0.0
 10
5.17306
 20
1.35587
 30
0.0
 10
4.76147
 20
1.35587
 30
0.0
 10
4.34932
 20
1.35587
 30
0.0
 10
4.34932
 20
1.35587
 30
0.0
 10
4.34014
 20
1.35257
 30
0.0
 10
4.31869
 20
1.18838
 30
0.0
 10
4.49274
 20
1.17968
 30
0.0
 10
4.49274
 20
1.17968
 30
0.0
 10
4.49274
 20
1.17968
 30
0.0
 10
7.13637
 20
1.17968
 30
0.0
 10
7.13637
 20
1.17968
 30
0.0
 10
7.13637
 20
1.17968
 30
0.0
 10
7.28912
 20
1.37207
 30
0.0
 10
7.13966
 20
1.72852
 30
0.0
 10
7.08676
 20
1.81302
 30
0.0
 10
7.08676
 20
1.81302
 30
0.0
 10
7.04155
 20
1.8924
 30
0.0
 10
6.97321
 20
1.9602
 30
0.0
 10
6.89162
 20
2.02635
 30
0.0
 10
6.89162
 20
2.02635
 30
0.0
 10
6.88716
 20
2.11613
 30
0.0
 10
6.86655
 20
2.30973
 30
0.0
 10
6.50357
 20
2.30857
 30
0.0
 10
6.50357
 20
2.30857
 30
0.0
 10
6.35457
 20
2.53641
 30
0.0
 10
6.2252
 20
2.67945
 30
0.0
 10
6.15079
 20
2.90829
 30
0.0
 10
6.15079
 20
2.90829
 30
0.0
 10
6.31653
 20
3.295
 30
0.0
 10
6.76948
 20
3.71224
 30
0.0
 10
6.98781
 20
4.12033
 30
0.0
 10
6.98781
 20
4.12033
 30
0.0
 10
6.98781
 20
4.12033
 30
0.0
 10
6.50049
 20
4.12033
 30
0.0
 10
6.50049
 20
4.12033
 30
0.0
 10
6.50049
 20
4.12033
 30
0.0
 10
6.50049
 20
4.12033
 30
0.0
 10
6.50049
 20
4.27033
 30
0.0
 10
6.50049
 20
4.27033
 30
0.0
 10
6.50049
 20
4.27033
 30
0.0
 10
6.66538
 20
4.27033
 30
0.0
 10
6.83062
 20
4.27033
 30
0.0
 10
6.99681
 20
4.27033
 30
0.0
 10
6.99681
 20
4.27033
 30
0.0
 10
7.00942
 20
4.27386
 30
0.0
 10
7.02214
 20
4.27805
 30
0.0
 10
7.03493
 20
4.28302
 30
0.0
 10
7.03493
 20
4.28302
 30
0.0
 10
7.11093
 20
4.34836
 30
0.0
 10
7.19493
 20
4.66794
 30
0.0
 10
7.13857
 20
4.66666
 30
0.0
 10
7.13857
 20
4.66666
 30
0.0
 10
7.13857
 20
4.66666
 30
0.0
 10
7.13754
 20
4.66704
 30
0.0
 10
7.13754
 20
4.66704
 30
0.0
 10
7.13754
 20
4.66704
 30
0.0
 10
7.13754
 20
4.66704
 30
0.0
 10
6.49896
 20
4.66704
 30
0.0
 10
6.49896
 20
4.66704
 30
0.0
 10
6.49896
 20
4.66704
 30
0.0
 10
6.49896
 20
4.66704
 30
0.0
 10
6.49896
 20
4.81704
 30
0.0
 10
6.49896
 20
4.81704
 30
0.0
 10
6.49896
 20
4.81704
 30
0.0
 10
6.49896
 20
4.81704
 30
0.0
 10
7.15899
 20
4.81704
 30
0.0
 10
7.15899
 20
4.81704
 30
0.0
 10
7.15899
 20
4.81704
 30
0.0
 10
7.21616
 20
4.86405
 30
0.0
 10
7.26505
 20
5.13636
 30
0.0
 10
7.20197
 20
5.20135
 30
0.0
 10
7.20197
 20
5.20135
 30
0.0
 10
6.77476
 20
5.20135
 30
0.0
 10
6.21888
 20
5.2041
 30
0.0
 10
5.83301
 20
5.2041
 30
0.0
  0
SPLINE
  5
50
330
1F
100
AcDbEntity
  8
Livello 1
 62
   250
370
    20
100
AcDbSpline
210
0.0
220
0.0
230
1.0
 70
    11
 71
     3
 72
   180
 73
   176
 74
     0
 42
0.0000000001
 43
0.0000000001
 40
0.0
 40
0.0
 40
0.0
 40
0.0
 40
0.0222222222222222
 40
0.0222222222222222
 40
0.0222222222222222
 40
0.0222222222222222
 40
0.0444444444444444
 40
0.0444444444444444
 40
0.0444444444444444
 40
0.0444444444444444
 40
0.0666666666666667
 40
0.0666666666666667
 40
0.0666666666666667
 40
0.0666666666666667
 40
0.0888888888888889
 40
0.0888888888888889
 40
0.0888888888888889
 40
0.0888888888888889
 40
0.1111111111111111
 40
0.1111111111111111
 40
0.1111111111111111
 40
0.1111111111111111
 40
0.1333333333333333
 40
0.1333333333333333
 40
0.1333333333333333
 40
0.1333333333333333
 40
0.1555555555555556
 40
0.1555555555555556
 40
0.1555555555555556
 40
0.1555555555555556
 40
0.1777777777777778
 40
0.1777777777777778
 40
0.1777777777777778
 40
0.1777777777777778
 40
0.2
 40
0.2
 40
0.2
 40
0.2
 40
0.2222222222222222
 40
0.2222222222222222
 40
0.2222222222222222
 40
0.2222222222222222
 40
0.2444444444444444
 40
0.2444444444444444
 40
0.2444444444444444
 40
0.2444444444444444
 40
0.2666666666666667
 40
0.2666666666666667
 40
0.2666666666666667
 40
0.2666666666666667
 40
0.2888888888888889
 40
0.2888888888888889
 40
0.2888888888888889
 40
0.2888888888888889
 40
0.3111111111111111
 40
0.3111111111111111
 40
0.3111111111111111
 40
0.3111111111111111
 40
0.3333333333333333
 40
0.3333333333333333
 40
0.3333333333333333
 40
0.3333333333333333
 40
0.3555555555555556
 40
0.3555555555555556
 40
0.3555555555555556
 40
0.3555555555555556
 40
0.3777777777777778
 40
0.3777777777777778
 40
0.3777777777777778
 40
0.3777777777777778
 40
0.4
 40
0.4
 40
0.4
 40
0.4
 40
0.4222222222222222
 40
0.4222222222222222
 40
0.4222222222222222
 40
0.4222222222222222
 40
0.4444444444444444
 40
0.4444444444444444
 40
0.4444444444444444
 40
0.4444444444444444
 40
0.4666666666666667
 40
0.4666666666666667
 40
0.4666666666666667
 40
0.4666666666666667
 40
0.4888888888888889
 40
0.4888888888888889
 40
0.4888888888888889
 40
0.4888888888888889
 40
0.5111111111111111
 40
0.5111111111111111
 40
0.5111111111111111
 40
0.5111111111111111
 40
0.5333333333333333
 40
0.5333333333333333
 40
0.5333333333333333
 40
0.5333333333333333
 40
0.5555555555555556
 40
0.5555555555555556
 40
0.5555555555555556
 40
0.5555555555555556
 40
0.5777777777777777
 40
0.5777777777777777
 40
0.5777777777777777
 40
0.5777777777777777
 40
0.6
 40
0.6
 40
0.6
 40
0.6
 40
0.6222222222222222
 40
0.6222222222222222
 40
0.6222222222222222
 40
0.6222222222222222
 40
0.6444444444444445
 40
0.6444444444444445
 40
0.6444444444444445
 40
0.6444444444444445
 40
0.6666666666666666
 40
0.6666666666666666
 40
0.6666666666666666
 40
0.6666666666666666
 40
0.6888888888888889
 40
0.6888888888888889
 40
0.6888888888888889
 40
0.6888888888888889
 40
0.7111111111111111
 40
0.7111111111111111
 40
0.7111111111111111
 40
0.7111111111111111
 40
0.7333333333333333
 40
0.7333333333333333
 40
0.7333333333333333
 40
0.7333333333333333
 40
0.7555555555555555
 40
0.7555555555555555
 40
0.7555555555555555
 40
0.7555555555555555
 40
0.7777777777777778
 40
0.7777777777777778
 40
0.7777777777777778
 40
0.7777777777777778
 40
0.8
 40
0.8
 40
0.8
 40
0.8
 40
0.8222222222222222
 40
0.8222222222222222
 40
0.8222222222222222
 40
0.8222222222222222
 40
0.8444444444444444
 40
0.8444444444444444
 40
0.8444444444444444
 40
0.8444444444444444
 40
0.8666666666666667
 40
0.8666666666666667
 40
0.8666666666666667
 40
0.8666666666666667
 40
0.8888888888888888
 40
0.8888888888888888
 40
0.8888888888888888
 40
0.8888888888888888
 40
0.9111111111111111
 40
0.9111111111111111
 40
0.9111111111111111
 40
0.9111111111111111
 40
0.9333333333333333
 40
0.9333333333333333
 40
0.9333333333333333
 40
0.9333333333333333
 40
0.9555555555555556
 40
0.9555555555555556
 40
0.9555555555555556
 40
0.9555555555555556
 40
1.0
 40
1.0
 40
1.0
 40
1.0
 10
5.41587
 20
2.59264
 30
0.0
 10
5.42558
 20
2.80713
 30
0.0
 10
5.3966
 20
3.14085
 30
0.0
 10
5.34864
 20
3.3404
 30
0.0
 10
5.34864
 20
3.3404
 30
0.0
 10
5.28495
 20
3.60544
 30
0.0
 10
5.05142
 20
3.78988
 30
0.0
 10
4.88227
 20
3.89349
 30
0.0
 10
4.88227
 20
3.89349
 30
0.0
 10
4.9059
 20
3.97847
 30
0.0
 10
5.0069
 20
4.0901
 30
0.0
 10
4.94102
 20
4.09997
 30
0.0
 10
4.94102
 20
4.09997
 30
0.0
 10
4.94102
 20
4.09997
 30
0.0
 10
4.71883
 20
4.09997
 30
0.0
 10
4.71883
 20
4.09997
 30
0.0
 10
4.71883
 20
4.09997
 30
0.0
 10
4.71883
 20
4.09997
 30
0.0
 10
4.71883
 20
4.24997
 30
0.0
 10
4.71883
 20
4.24997
 30
0.0
 10
4.71883
 20
4.24997
 30
0.0
 10
4.83183
 20
4.24997
 30
0.0
 10
4.94482
 20
4.24997
 30
0.0
 10
5.05782
 20
4.24997
 30
0.0
 10
5.05782
 20
4.24997
 30
0.0
 10
5.15686
 20
4.35046
 30
0.0
 10
5.28594
 20
4.52069
 30
0.0
 10
5.29347
 20
4.64292
 30
0.0
 10
5.29347
 20
4.64292
 30
0.0
 10
5.28804
 20
4.64514
 30
0.0
 10
5.10307
 20
4.64292
 30
0.0
 10
5.08425
 20
4.64292
 30
0.0
 10
5.08425
 20
4.64292
 30
0.0
 10
5.08425
 20
4.7013
 30
0.0
 10
5.08425
 20
4.7391
 30
0.0
 10
5.08425
 20
4.79292
 30
0.0
 10
5.08425
 20
4.79292
 30
0.0
 10
5.14792
 20
4.79292
 30
0.0
 10
5.33889
 20
4.79873
 30
0.0
 10
5.39351
 20
4.79292
 30
0.0
 10
5.39351
 20
4.79292
 30
0.0
 10
5.40192
 20
4.95792
 30
0.0
 10
5.37595
 20
5.06136
 30
0.0
 10
5.29296
 20
5.18893
 30
0.0
 10
5.29296
 20
5.18893
 30
0.0
 10
5.18479
 20
5.18893
 30
0.0
 10
5.07666
 20
5.18893
 30
0.0
 10
4.9685
 20
5.18893
 30
0.0
 10
4.9685
 20
5.18893
 30
0.0
 10
4.9685
 20
5.23944
 30
0.0
 10
4.9685
 20
5.28845
 30
0.0
 10
4.9685
 20
5.33893
 30
0.0
 10
4.9685
 20
5.33893
 30
0.0
 10
4.9685
 20
5.33893
 30
0.0
 10
5.14695
 20
5.33893
 30
0.0
 10
5.14695
 20
5.33893
 30
0.0
 10
5.14695
 20
5.33893
 30
0.0
 10
5.17594
 20
5.43907
 30
0.0
 10
5.10573
 20
5.44978
 30
0.0
 10
5.10716
 20
5.54549
 30
0.0
 10
5.10716
 20
5.54549
 30
0.0
 10
5.18413
 20
5.53518
 30
0.0
 10
5.24422
 20
5.55328
 30
0.0
 10
5.2852
 20
5.61824
 30
0.0
 10
5.2852
 20
5.61824
 30
0.0
 10
5.47097
 20
5.49729
 30
0.0
 10
5.70137
 20
5.38299
 30
0.0
 10
5.93567
 20
5.33893
 30
0.0
 10
5.93567
 20
5.33893
 30
0.0
 10
6.04437
 20
5.32239
 30
0.0
 10
6.16217
 20
5.30503
 30
0.0
 10
6.31139
 20
5.33893
 30
0.0
 10
6.31139
 20
5.33893
 30
0.0
 10
6.39586
 20
5.35762
 30
0.0
 10
6.47785
 20
5.39079
 30
0.0
 10
6.5552
 20
5.44185
 30
0.0
 10
6.5552
 20
5.44185
 30
0.0
 10
6.65593
 20
5.49241
 30
0.0
 10
6.81077
 20
5.7161
 30
0.0
 10
6.71481
 20
5.77596
 30
0.0
 10
6.71481
 20
5.77596
 30
0.0
 10
6.71481
 20
5.77596
 30
0.0
 10
5.67956
 20
5.77596
 30
0.0
 10
5.67956
 20
5.77596
 30
0.0
 10
5.67956
 20
5.77596
 30
0.0
 10
5.67956
 20
5.83951
 30
0.0
 10
5.67956
 20
5.84677
 30
0.0
 10
5.67956
 20
5.92596
 30
0.0
 10
5.67956
 20
5.92596
 30
0.0
 10
6.01375
 20
5.92596
 30
0.0
 10
6.34973
 20
5.92596
 30
0.0
 10
6.68667
 20
5.92596
 30
0.0
 10
6.68667
 20
5.92596
 30
0.0
 10
6.87064
 20
5.92263
 30
0.0
 10
6.70927
 20
6.27983
 30
0.0
 10
6.63572
 20
6.27983
 30
0.0
 10
6.63572
 20
6.27983
 30
0.0
 10
6.63572
 20
6.27983
 30
0.0
 10
5.39513
 20
6.27983
 30
0.0
 10
5.39513
 20
6.27983
 30
0.0
 10
5.39513
 20
6.27983
 30
0.0
 10
5.39513
 20
6.33296
 30
0.0
 10
5.39513
 20
6.37714
 30
0.0
 10
5.39513
 20
6.42983
 30
0.0
 10
5.39513
 20
6.42983
 30
0.0
 10
5.80432
 20
6.42983
 30
0.0
 10
6.21591
 20
6.42983
 30
0.0
 10
6.62806
 20
6.42983
 30
0.0
 10
6.62806
 20
6.42983
 30
0.0
 10
6.63724
 20
6.43313
 30
0.0
 10
6.65869
 20
6.59732
 30
0.0
 10
6.48464
 20
6.60602
 30
0.0
 10
6.48464
 20
6.60602
 30
0.0
 10
6.48464
 20
6.60602
 30
0.0
 10
3.84101
 20
6.60602
 30
0.0
 10
3.84101
 20
6.60602
 30
0.0
 10
3.84101
 20
6.60602
 30
0.0
 10
3.68827
 20
6.41363
 30
0.0
 10
3.83772
 20
6.05718
 30
0.0
 10
3.89062
 20
5.97268
 30
0.0
 10
3.89062
 20
5.97268
 30
0.0
 10
3.93583
 20
5.8933
 30
0.0
 10
4.00417
 20
5.8255
 30
0.0
 10
4.08576
 20
5.75935
 30
0.0
 10
4.08576
 20
5.75935
 30
0.0
 10
4.09022
 20
5.66957
 30
0.0
 10
4.11083
 20
5.47597
 30
0.0
 10
4.47381
 20
5.47713
 30
0.0
 10
4.47381
 20
5.47713
 30
0.0
 10
4.62281
 20
5.24929
 30
0.0
 10
4.75218
 20
5.10625
 30
0.0
 10
4.82659
 20
4.87741
 30
0.0
 10
4.82659
 20
4.87741
 30
0.0
 10
4.69757
 20
4.57754
 30
0.0
 10
4.2973
 20
4.17686
 30
0.0
 10
3.96179
 20
3.91046
 30
0.0
 10
3.96179
 20
3.91046
 30
0.0
 10
3.82631
 20
3.87466
 30
0.0
 10
3.68293
 20
3.83824
 30
0.0
 10
3.68199
 20
3.66868
 30
0.0
 10
3.68199
 20
3.66868
 30
0.0
 10
3.68199
 20
3.66868
 30
0.0
 10
4.47689
 20
3.66537
 30
0.0
 10
4.47689
 20
3.66537
 30
0.0
 10
4.47689
 20
3.66537
 30
0.0
 10
4.47689
 20
3.66537
 30
0.0
 10
4.47689
 20
3.51537
 30
0.0
 10
4.47689
 20
3.51537
 30
0.0
 10
4.47689
 20
3.51537
 30
0.0
 10
4.312
 20
3.51537
 30
0.0
 10
3.8458
 20
3.51537
 30
0.0
 10
3.67961
 20
3.51537
 30
0.0
 10
3.67961
 20
3.51537
 30
0.0
 10
3.62434
 20
3.51577
 30
0.0
 10
3.57287
 20
3.12129
 30
0.0
 10
3.64368
 20
3.12226
 30
0.0
 10
3.64368
 20
3.12226
 30
0.0
 10
3.64368
 20
3.12226
 30
0.0
 10
4.47842
 20
3.11866
 30
0.0
 10
4.47842
 20
3.11866
 30
0.0
 10
4.47842
 20
3.11866
 30
0.0
 10
4.47842
 20
3.11866
 30
0.0
 10
4.47842
 20
2.96866
 30
0.0
 10
4.47842
 20
2.96866
 30
0.0
 10
4.47842
 20
2.96866
 30
0.0
 10
4.47842
 20
2.96866
 30
0.0
 10
3.61992
 20
2.97839
 30
0.0
 10
3.61992
 20
2.97839
 30
0.0
 10
3.61992
 20
2.97839
 30
0.0
 10
3.56275
 20
2.93138
 30
0.0
 10
3.55087
 20
2.65928
 30
0.0
 10
3.61395
 20
2.59429
 30
0.0
 10
3.61395
 20
2.59429
 30
0.0
 10
4.04115
 20
2.59429
 30
0.0
 10
5.03
 20
2.59264
 30
0.0
 10
5.41587
 20
2.59264
 30
0.0
  0
SPLINE
  5
51
330
1F
100
AcDbEntity
  8
Livello 1
 62
   250
370
    20
100
AcDbSpline
210
0.0
220
0.0
230
1.0
 70
    11
 71
     3
 72
   152
 73
   148
 74
     0
 42
0.0000000001
 43
0.0000000001
 40
0.0
 40
0.0
 40
0.0
 40
0.0
 40
0.0263157894736842
 40
0.0263157894736842
 40
0.0263157894736842
 40
0.0263157894736842
 40
0.0526315789473684
 40
0.0526315789473684
 40
0.0526315789473684
 40
0.0526315789473684
 40
0.0789473684210526
 40
0.0789473684210526
 40
0.0789473684210526
 40
0.0789473684210526
 40
0.1052631578947368
 40
0.1052631578947368
 40
0.1052631578947368
 40
0.1052631578947368
 40
0.131578947368421
 40
0.131578947368421
 40
0.131578947368421
 40
0.131578947368421
 40
0.1578947368421053
 40
0.1578947368421053
 40
0.1578947368421053
 40
0.1578947368421053
 40
0.1842105263157895
 40
0.1842105263157895
 40
0.1842105263157895
 40
0.1842105263157895
 40
0.2105263157894737
 40
0.2105263157894737
 40
0.2105263157894737
 40
0.2105263157894737
 40
0.2368421052631579
 40
0.2368421052631579
 40
0.2368421052631579
 40
0.2368421052631579
 40
0.2631578947368421
 40
0.2631578947368421
 40
0.2631578947368421
 40
0.2631578947368421
 40
0.2894736842105263
 40
0.2894736842105263
 40
0.2894736842105263
 40
0.2894736842105263
 40
0.3157894736842105
 40
0.3157894736842105
 40
0.3157894736842105
 40
0.3157894736842105
 40
0.3421052631578947
 40
0.3421052631578947
 40
0.3421052631578947
 40
0.3421052631578947
 40
0.3684210526315789
 40
0.3684210526315789
 40
0.3684210526315789
 40
0.3684210526315789
 40
0.3947368421052632
 40
0.3947368421052632
 40
0.3947368421052632
 40
0.3947368421052632
 40
0.4210526315789473
 40
0.4210526315789473
 40
0.4210526315789473
 40
0.4210526315789473
 40
0.4473684210526316
 40
0.4473684210526316
 40
0.4473684210526316
 40
0.4473684210526316
 40
0.4736842105263158
 40
0.4736842105263158
 40
0.4736842105263158
 40
0.4736842105263158
 40
0.5
 40
0.5
 40
0.5
 40
0.5
 40
0.5263157894736842
 40
0.5263157894736842
 40
0.5263157894736842
 40
0.5263157894736842
 40
0.5526315789473685
 40
0.5526315789473685
 40
0.5526315789473685
 40
0.5526315789473685
 40
0.5789473684210527
 40
0.5789473684210527
 40
0.5789473684210527
 40
0.5789473684210527
 40
0.6052631578947368
 40
0.6052631578947368
 40
0.6052631578947368
 40
0.6052631578947368
 40
0.631578947368421
 40
0.631578947368421
 40
0.631578947368421
 40
0.631578947368421
 40
0.6578947368421053
 40
0.6578947368421053
 40
0.6578947368421053
 40
0.6578947368421053
 40
0.6842105263157895
 40
0.6842105263157895
 40
0.6842105263157895
 40
0.6842105263157895
 40
0.7105263157894737
 40
0.7105263157894737
 40
0.7105263157894737
 40
0.7105263157894737
 40
0.7368421052631579
 40
0.7368421052631579
 40
0.7368421052631579
 40
0.7368421052631579
 40
0.7631578947368421
 40
0.7631578947368421
 40
0.7631578947368421
 40
0.7631578947368421
 40
0.7894736842105263
 40
0.7894736842105263
 40
0.7894736842105263
 40
0.7894736842105263
 40
0.8157894736842105
 40
0.8157894736842105
 40
0.8157894736842105
 40
0.8157894736842105
 40
0.8421052631578947
 40
0.8421052631578947
 40
0.8421052631578947
 40
0.8421052631578947
 40
0.868421052631579
 40
0.868421052631579
 40
0.868421052631579
 40
0.868421052631579
 40
0.8947368421052632
 40
0.8947368421052632
 40
0.8947368421052632
 40
0.8947368421052632
 40
0.9210526315789473
 40
0.9210526315789473
 40
0.9210526315789473
 40
0.9210526315789473
 40
0.9473684210526315
 40
0.9473684210526315
 40
0.9473684210526315
 40
0.9473684210526315
 40
1.0
 40
1.0
 40
1.0
 40
1.0
 10
9.98283
 20
2.03591
 30
0.0
 10
10.13781
 20
2.13073
 30
0.0
 10
10.20228
 20
2.29555
 30
0.0
 10
10.42335
 20
2.30534
 30
0.0
 10
10.42335
 20
2.30534
 30
0.0
 10
10.44017
 20
2.30637
 30
0.0
 10
10.65439
 20
2.22917
 30
0.0
 10
10.77613
 20
2.34062
 30
0.0
 10
10.77613
 20
2.34062
 30
0.0
 10
10.91947
 20
2.47184
 30
0.0
 10
10.88826
 20
2.90283
 30
0.0
 10
10.73431
 20
3.11342
 30
0.0
 10
10.73431
 20
3.11342
 30
0.0
 10
10.45166
 20
3.53071
 30
0.0
 10
10.21218
 20
3.44396
 30
0.0
 10
10.07058
 20
3.36367
 30
0.0
 10
10.07058
 20
3.36367
 30
0.0
 10
9.76818
 20
3.05454
 30
0.0
 10
9.85436
 20
2.80548
 30
0.0
 10
9.64724
 20
2.6934
 30
0.0
 10
9.64724
 20
2.6934
 30
0.0
 10
9.55157
 20
2.68691
 30
0.0
 10
9.39323
 20
2.70667
 30
0.0
 10
9.4003
 20
2.34062
 30
0.0
 10
9.4003
 20
2.34062
 30
0.0
 10
8.80076
 20
1.93548
 30
0.0
 10
8.64933
 20
1.73137
 30
0.0
 10
7.99272
 20
1.56451
 30
0.0
 10
7.99272
 20
1.56451
 30
0.0
 10
7.98475
 20
1.81847
 30
0.0
 10
8.357
 20
2.12127
 30
0.0
 10
8.48308
 20
2.34062
 30
0.0
 10
8.48308
 20
2.34062
 30
0.0
 10
8.53781
 20
2.45832
 30
0.0
 10
8.54309
 20
2.48821
 30
0.0
 10
8.55363
 20
2.62548
 30
0.0
 10
8.55363
 20
2.62548
 30
0.0
 10
8.55363
 20
2.62548
 30
0.0
 10
7.7418
 20
2.62548
 30
0.0
 10
7.7418
 20
2.62548
 30
0.0
 10
7.7418
 20
2.62548
 30
0.0
 10
7.68221
 20
2.48373
 30
0.0
 10
7.62466
 20
2.41286
 30
0.0
 10
7.42475
 20
2.30534
 30
0.0
 10
7.42475
 20
2.30534
 30
0.0
 10
7.42039
 20
2.27071
 30
0.0
 10
7.42384
 20
2.22329
 30
0.0
 10
7.45678
 20
2.2253
 30
0.0
 10
7.45678
 20
2.2253
 30
0.0
 10
7.45678
 20
2.2253
 30
0.0
 10
7.88227
 20
2.2253
 30
0.0
 10
7.88227
 20
2.2253
 30
0.0
 10
7.88227
 20
2.2253
 30
0.0
 10
7.88227
 20
2.17492
 30
0.0
 10
7.88227
 20
2.12601
 30
0.0
 10
7.88227
 20
2.0753
 30
0.0
 10
7.88227
 20
2.0753
 30
0.0
 10
7.74102
 20
2.0753
 30
0.0
 10
7.60358
 20
2.0753
 30
0.0
 10
7.46002
 20
2.0753
 30
0.0
 10
7.46002
 20
2.0753
 30
0.0
 10
7.4008
 20
2.07394
 30
0.0
 10
7.40227
 20
1.68243
 30
0.0
 10
7.45519
 20
1.68217
 30
0.0
 10
7.45519
 20
1.68217
 30
0.0
 10
7.45519
 20
1.68217
 30
0.0
 10
7.67325
 20
1.68217
 30
0.0
 10
7.67325
 20
1.68217
 30
0.0
 10
7.67325
 20
1.68217
 30
0.0
 10
7.67325
 20
1.68217
 30
0.0
 10
7.67325
 20
1.53217
 30
0.0
 10
7.67325
 20
1.53217
 30
0.0
 10
7.67325
 20
1.53217
 30
0.0
 10
7.67325
 20
1.53217
 30
0.0
 10
7.45109
 20
1.53217
 30
0.0
 10
7.45109
 20
1.53217
 30
0.0
 10
7.45109
 20
1.53217
 30
0.0
 10
7.39602
 20
1.3903
 30
0.0
 10
7.40759
 20
1.28393
 30
0.0
 10
7.46266
 20
1.14206
 30
0.0
 10
7.46266
 20
1.14206
 30
0.0
 10
7.64553
 20
1.13707
 30
0.0
 10
7.89462
 20
1.13589
 30
0.0
 10
8.09796
 20
1.1356
 30
0.0
 10
8.09796
 20
1.1356
 30
0.0
 10
8.14481
 20
1.13537
 30
0.0
 10
8.34441
 20
1.2363
 30
0.0
 10
8.34064
 20
1.27293
 30
0.0
 10
8.34064
 20
1.27293
 30
0.0
 10
8.34064
 20
1.27293
 30
0.0
 10
8.28045
 20
1.36484
 30
0.0
 10
8.28045
 20
1.36484
 30
0.0
 10
8.28045
 20
1.36484
 30
0.0
 10
8.32378
 20
1.39322
 30
0.0
 10
8.3589
 20
1.41621
 30
0.0
 10
8.40594
 20
1.44702
 30
0.0
 10
8.40594
 20
1.44702
 30
0.0
 10
8.40594
 20
1.44702
 30
0.0
 10
8.49856
 20
1.30559
 30
0.0
 10
8.49856
 20
1.30559
 30
0.0
 10
8.49856
 20
1.30559
 30
0.0
 10
8.61343
 20
1.33005
 30
0.0
 10
8.77645
 20
1.4046
 30
0.0
 10
8.85781
 20
1.4871
 30
0.0
 10
8.85781
 20
1.4871
 30
0.0
 10
8.85781
 20
1.4871
 30
0.0
 10
8.77645
 20
1.61134
 30
0.0
 10
8.77645
 20
1.61134
 30
0.0
 10
8.77645
 20
1.61134
 30
0.0
 10
8.77645
 20
1.61134
 30
0.0
 10
8.90194
 20
1.69352
 30
0.0
 10
8.90194
 20
1.69352
 30
0.0
 10
8.90194
 20
1.69352
 30
0.0
 10
8.94265
 20
1.63136
 30
0.0
 10
8.96584
 20
1.59376
 30
0.0
 10
9.00715
 20
1.53261
 30
0.0
 10
9.00715
 20
1.53261
 30
0.0
 10
9.15026
 20
1.59
 30
0.0
 10
9.20365
 20
1.64752
 30
0.0
 10
9.333
 20
1.73211
 30
0.0
 10
9.333
 20
1.73211
 30
0.0
 10
9.333
 20
1.73211
 30
0.0
 10
9.22598
 20
1.89553
 30
0.0
 10
9.22598
 20
1.89553
 30
0.0
 10
9.22598
 20
1.89553
 30
0.0
 10
9.26876
 20
1.92353
 30
0.0
 10
9.30941
 20
1.95016
 30
0.0
 10
9.35147
 20
1.97771
 30
0.0
 10
9.35147
 20
1.97771
 30
0.0
 10
9.35147
 20
1.97771
 30
0.0
 10
9.4614
 20
1.80984
 30
0.0
 10
9.4614
 20
1.80984
 30
0.0
 10
9.4614
 20
1.80984
 30
0.0
 10
9.54692
 20
1.84635
 30
0.0
 10
9.71641
 20
2.01341
 30
0.0
 10
9.80012
 20
2.02051
 30
0.0
 10
9.80012
 20
2.02051
 30
0.0
 10
9.80012
 20
2.02051
 30
0.0
 10
9.67997
 20
2.20399
 30
0.0
 10
9.67997
 20
2.20399
 30
0.0
 10
9.67997
 20
2.20399
 30
0.0
 10
9.67997
 20
2.20399
 30
0.0
 10
9.80546
 20
2.28617
 30
0.0
 10
9.80546
 20
2.28617
 30
0.0
 10
9.80546
 20
2.28617
 30
0.0
 10
9.87544
 20
2.17928
 30
0.0
 10
9.91273
 20
2.14296
 30
0.0
 10
9.98283
 20
2.03591
 30
0.0
  0
SPLINE
  5
52
330
1F
100
AcDbEntity
  8
Livello 1
 62
   250
370
    20
100
AcDbSpline
210
0.0
220
0.0
230
1.0
 70
    11
 71
     3
 72
   252
 73
   248
 74
     0
 42
0.0000000001
 43
0.0000000001
 40
0.0
 40
0.0
 40
0.0
 40
0.0
 40
0.0158730158730159
 40
0.0158730158730159
 40
0.0158730158730159
 40
0.0158730158730159
 40
0.0317460317460317
 40
0.0317460317460317
 40
0.0317460317460317
 40
0.0317460317460317
 40
0.0476190476190476
 40
0.0476190476190476
 40
0.0476190476190476
 40
0.0476190476190476
 40
0.0634920634920635
 40
0.0634920634920635
 40
0.0634920634920635
 40
0.0634920634920635
 40
0.0793650793650794
 40
0.0793650793650794
 40
0.0793650793650794
 40
0.0793650793650794
 40
0.0952380952380952
 40
0.0952380952380952
 40
0.0952380952380952
 40
0.0952380952380952
 40
0.1111111111111111
 40
0.1111111111111111
 40
0.1111111111111111
 40
0.1111111111111111
 40
0.126984126984127
 40
0.126984126984127
 40
0.126984126984127
 40
0.126984126984127
 40
0.1428571428571428
 40
0.1428571428571428
 40
0.1428571428571428
 40
0.1428571428571428
 40
0.1587301587301587
 40
0.1587301587301587
 40
0.1587301587301587
 40
0.1587301587301587
 40
0.1746031746031746
 40
0.1746031746031746
 40
0.1746031746031746
 40
0.1746031746031746
 40
0.1904761904761905
 40
0.1904761904761905
 40
0.1904761904761905
 40
0.1904761904761905
 40
0.2063492063492063
 40
0.2063492063492063
 40
0.2063492063492063
 40
0.2063492063492063
 40
0.2222222222222222
 40
0.2222222222222222
 40
0.2222222222222222
 40
0.2222222222222222
 40
0.2380952380952381
 40
0.2380952380952381
 40
0.2380952380952381
 40
0.2380952380952381
 40
0.253968253968254
 40
0.253968253968254
 40
0.253968253968254
 40
0.253968253968254
 40
0.2698412698412698
 40
0.2698412698412698
 40
0.2698412698412698
 40
0.2698412698412698
 40
0.2857142857142857
 40
0.2857142857142857
 40
0.2857142857142857
 40
0.2857142857142857
 40
0.3015873015873016
 40
0.3015873015873016
 40
0.3015873015873016
 40
0.3015873015873016
 40
0.3174603174603174
 40
0.3174603174603174
 40
0.3174603174603174
 40
0.3174603174603174
 40
0.3333333333333333
 40
0.3333333333333333
 40
0.3333333333333333
 40
0.3333333333333333
 40
0.3492063492063492
 40
0.3492063492063492
 40
0.3492063492063492
 40
0.3492063492063492
 40
0.3650793650793651
 40
0.3650793650793651
 40
0.3650793650793651
 40
0.3650793650793651
 40
0.3809523809523809
 40
0.3809523809523809
 40
0.3809523809523809
 40
0.3809523809523809
 40
0.3968253968253968
 40
0.3968253968253968
 40
0.3968253968253968
 40
0.3968253968253968
 40
0.4126984126984127
 40
0.4126984126984127
 40
0.4126984126984127
 40
0.4126984126984127
 40
0.4285714285714285
 40
0.4285714285714285
 40
0.4285714285714285
 40
0.4285714285714285
 40
0.4444444444444444
 40
0.4444444444444444
 40
0.4444444444444444
 40
0.4444444444444444
 40
0.4603174603174603
 40
0.4603174603174603
 40
0.4603174603174603
 40
0.4603174603174603
 40
0.4761904761904762
 40
0.4761904761904762
 40
0.4761904761904762
 40
0.4761904761904762
 40
0.492063492063492
 40
0.492063492063492
 40
0.492063492063492
 40
0.492063492063492
 40
0.5079365079365079
 40
0.5079365079365079
 40
0.5079365079365079
 40
0.5079365079365079
 40
0.5238095238095238
 40
0.5238095238095238
 40
0.5238095238095238
 40
0.5238095238095238
 40
0.5396825396825397
 40
0.5396825396825397
 40
0.5396825396825397
 40
0.5396825396825397
 40
0.5555555555555556
 40
0.5555555555555556
 40
0.5555555555555556
 40
0.5555555555555556
 40
0.5714285714285714
 40
0.5714285714285714
 40
0.5714285714285714
 40
0.5714285714285714
 40
0.5873015873015873
 40
0.5873015873015873
 40
0.5873015873015873
 40
0.5873015873015873
 40
0.6031746031746031
 40
0.6031746031746031
 40
0.6031746031746031
 40
0.6031746031746031
 40
0.6190476190476191
 40
0.6190476190476191
 40
0.6190476190476191
 40
0.6190476190476191
 40
0.6349206349206349
 40
0.6349206349206349
 40
0.6349206349206349
 40
0.6349206349206349
 40
0.6507936507936508
 40
0.6507936507936508
 40
0.6507936507936508
 40
0.6507936507936508
 40
0.6666666666666666
 40
0.6666666666666666
 40
0.6666666666666666
 40
0.6666666666666666
 40
0.6825396825396826
 40
0.6825396825396826
 40
0.6825396825396826
 40
0.6825396825396826
 40
0.6984126984126984
 40
0.6984126984126984
 40
0.6984126984126984
 40
0.6984126984126984
 40
0.7142857142857143
 40
0.7142857142857143
 40
0.7142857142857143
 40
0.7142857142857143
 40
0.7301587301587301
 40
0.7301587301587301
 40
0.7301587301587301
 40
0.7301587301587301
 40
0.746031746031746
 40
0.746031746031746
 40
0.746031746031746
 40
0.746031746031746
 40
0.7619047619047619
 40
0.7619047619047619
 40
0.7619047619047619
 40
0.7619047619047619
 40
0.7777777777777778
 40
0.7777777777777778
 40
0.7777777777777778
 40
0.7777777777777778
 40
0.7936507936507936
 40
0.7936507936507936
 40
0.7936507936507936
 40
0.7936507936507936
 40
0.8095238095238095
 40
0.8095238095238095
 40
0.8095238095238095
 40
0.8095238095238095
 40
0.8253968253968254
 40
0.8253968253968254
 40
0.8253968253968254
 40
0.8253968253968254
 40
0.8412698412698413
 40
0.8412698412698413
 40
0.8412698412698413
 40
0.8412698412698413
 40
0.8571428571428571
 40
0.8571428571428571
 40
0.8571428571428571
 40
0.8571428571428571
 40
0.873015873015873
 40
0.873015873015873
 40
0.873015873015873
 40
0.873015873015873
 40
0.8888888888888888
 40
0.8888888888888888
 40
0.8888888888888888
 40
0.8888888888888888
 40
0.9047619047619048
 40
0.9047619047619048
 40
0.9047619047619048
 40
0.9047619047619048
 40
0.9206349206349206
 40
0.9206349206349206
 40
0.9206349206349206
 40
0.9206349206349206
 40
0.9365079365079365
 40
0.9365079365079365
 40
0.9365079365079365
 40
0.9365079365079365
 40
0.9523809523809523
 40
0.9523809523809523
 40
0.9523809523809523
 40
0.9523809523809523
 40
0.9682539682539683
 40
0.9682539682539683
 40
0.9682539682539683
 40
0.9682539682539683
 40
1.0
 40
1.0
 40
1.0
 40
1.0
 10
10.37794
 20
5.95084
 30
0.0
 10
10.29155
 20
5.86425
 30
0.0
 10
10.06267
 20
5.57824
 30
0.0
 10
10.09177
 20
5.1967
 30
0.0
 10
10.09177
 20
5.1967
 30
0.0
 10
10.04108
 20
5.19574
 30
0.0
 10
9.86191
 20
5.16755
 30
0.0
 10
9.75353
 20
5.07508
 30
0.0
 10
9.75353
 20
5.07508
 30
0.0
 10
9.65868
 20
5.16992
 30
0.0
 10
9.44995
 20
5.47101
 30
0.0
 10
9.21378
 20
5.45695
 30
0.0
 10
9.21378
 20
5.45695
 30
0.0
 10
9.13549
 20
5.45227
 30
0.0
 10
9.034
 20
5.40279
 30
0.0
 10
9.06022
 20
5.37827
 30
0.0
 10
9.06022
 20
5.37827
 30
0.0
 10
9.06022
 20
5.37827
 30
0.0
 10
9.45332
 20
5.05869
 30
0.0
 10
9.45332
 20
5.05869
 30
0.0
 10
9.45332
 20
5.05869
 30
0.0
 10
9.41627
 20
5.01313
 30
0.0
 10
9.39825
 20
4.99096
 30
0.0
 10
9.35869
 20
4.9423
 30
0.0
 10
9.35869
 20
4.9423
 30
0.0
 10
9.21706
 20
5.05742
 30
0.0
 10
9.07559
 20
5.17245
 30
0.0
 10
8.9339
 20
5.28763
 30
0.0
 10
8.9339
 20
5.28763
 30
0.0
 10
8.78324
 20
5.07569
 30
0.0
 10
9.09882
 20
4.89018
 30
0.0
 10
9.35489
 20
4.61029
 30
0.0
 10
9.35489
 20
4.61029
 30
0.0
 10
9.35489
 20
4.61029
 30
0.0
 10
9.35357
 20
4.33027
 30
0.0
 10
9.35357
 20
4.33027
 30
0.0
 10
9.35357
 20
4.33027
 30
0.0
 10
9.18631
 20
4.26738
 30
0.0
 10
9.11941
 20
4.24667
 30
0.0
 10
9.14322
 20
3.94001
 30
0.0
 10
9.14322
 20
3.94001
 30
0.0
 10
8.81005
 20
3.60683
 30
0.0
 10
8.0646
 20
3.17653
 30
0.0
 10
7.79826
 20
3.18595
 30
0.0
 10
7.79826
 20
3.18595
 30
0.0
 10
7.9213
 20
3.58044
 30
0.0
 10
8.17827
 20
3.62141
 30
0.0
 10
8.25864
 20
4.16403
 30
0.0
 10
8.25864
 20
4.16403
 30
0.0
 10
8.25864
 20
4.16403
 30
0.0
 10
7.55029
 20
4.16347
 30
0.0
 10
7.55029
 20
4.16347
 30
0.0
 10
7.55029
 20
4.16347
 30
0.0
 10
7.44806
 20
3.90823
 30
0.0
 10
7.21382
 20
3.94825
 30
0.0
 10
7.22897
 20
3.78721
 30
0.0
 10
7.22897
 20
3.78721
 30
0.0
 10
7.22897
 20
3.78721
 30
0.0
 10
7.6606
 20
3.78721
 30
0.0
 10
7.6606
 20
3.78721
 30
0.0
 10
7.6606
 20
3.78721
 30
0.0
 10
7.6606
 20
3.7379
 30
0.0
 10
7.6606
 20
3.68738
 30
0.0
 10
7.6606
 20
3.63721
 30
0.0
 10
7.6606
 20
3.63721
 30
0.0
 10
7.6606
 20
3.63721
 30
0.0
 10
7.23646
 20
3.63721
 30
0.0
 10
7.23646
 20
3.63721
 30
0.0
 10
7.23646
 20
3.63721
 30
0.0
 10
7.23646
 20
3.63721
 30
0.0
 10
7.23558
 20
3.23798
 30
0.0
 10
7.23558
 20
3.23798
 30
0.0
 10
7.23558
 20
3.23798
 30
0.0
 10
7.23558
 20
3.23798
 30
0.0
 10
7.48493
 20
3.2402
 30
0.0
 10
7.48493
 20
3.2402
 30
0.0
 10
7.48493
 20
3.2402
 30
0.0
 10
7.48493
 20
3.19004
 30
0.0
 10
7.48493
 20
3.14036
 30
0.0
 10
7.48493
 20
3.0902
 30
0.0
 10
7.48493
 20
3.0902
 30
0.0
 10
7.48493
 20
3.0902
 30
0.0
 10
7.23806
 20
3.09015
 30
0.0
 10
7.23806
 20
3.09015
 30
0.0
 10
7.23806
 20
3.09015
 30
0.0
 10
7.23806
 20
3.09015
 30
0.0
 10
7.23711
 20
2.70265
 30
0.0
 10
7.23711
 20
2.70265
 30
0.0
 10
7.23711
 20
2.70265
 30
0.0
 10
7.23711
 20
2.70265
 30
0.0
 10
7.97625
 20
2.70378
 30
0.0
 10
7.97625
 20
2.70378
 30
0.0
 10
7.97625
 20
2.70378
 30
0.0
 10
8.01399
 20
2.70384
 30
0.0
 10
8.15646
 20
2.77107
 30
0.0
 10
8.15269
 20
2.8077
 30
0.0
 10
8.15269
 20
2.8077
 30
0.0
 10
8.15269
 20
2.8077
 30
0.0
 10
8.08083
 20
2.91743
 30
0.0
 10
8.08083
 20
2.91743
 30
0.0
 10
8.08083
 20
2.91743
 30
0.0
 10
8.12416
 20
2.94581
 30
0.0
 10
8.15928
 20
2.9688
 30
0.0
 10
8.20632
 20
2.99961
 30
0.0
 10
8.20632
 20
2.99961
 30
0.0
 10
8.20632
 20
2.99961
 30
0.0
 10
8.31182
 20
2.83851
 30
0.0
 10
8.31182
 20
2.83851
 30
0.0
 10
8.31182
 20
2.83851
 30
0.0
 10
8.42801
 20
2.85635
 30
0.0
 10
8.61582
 20
2.90513
 30
0.0
 10
8.66543
 20
3.02864
 30
0.0
 10
8.66543
 20
3.02864
 30
0.0
 10
8.66543
 20
3.02864
 30
0.0
 10
8.57683
 20
3.16393
 30
0.0
 10
8.57683
 20
3.16393
 30
0.0
 10
8.57683
 20
3.16393
 30
0.0
 10
8.57683
 20
3.16393
 30
0.0
 10
8.70232
 20
3.24611
 30
0.0
 10
8.70232
 20
3.24611
 30
0.0
 10
8.70232
 20
3.24611
 30
0.0
 10
8.74303
 20
3.18395
 30
0.0
 10
8.78441
 20
3.11922
 30
0.0
 10
8.82572
 20
3.05807
 30
0.0
 10
8.82572
 20
3.05807
 30
0.0
 10
8.96883
 20
3.11546
 30
0.0
 10
9.03135
 20
3.15839
 30
0.0
 10
9.1607
 20
3.24298
 30
0.0
 10
9.1607
 20
3.24298
 30
0.0
 10
9.1607
 20
3.24298
 30
0.0
 10
9.02636
 20
3.44812
 30
0.0
 10
9.02636
 20
3.44812
 30
0.0
 10
9.02636
 20
3.44812
 30
0.0
 10
9.06914
 20
3.47612
 30
0.0
 10
9.10979
 20
3.50275
 30
0.0
 10
9.15185
 20
3.5303
 30
0.0
 10
9.15185
 20
3.5303
 30
0.0
 10
9.15185
 20
3.5303
 30
0.0
 10
9.27909
 20
3.33599
 30
0.0
 10
9.27909
 20
3.33599
 30
0.0
 10
9.27909
 20
3.33599
 30
0.0
 10
9.36461
 20
3.3725
 30
0.0
 10
9.55014
 20
3.50663
 30
0.0
 10
9.65238
 20
3.49388
 30
0.0
 10
9.65238
 20
3.49388
 30
0.0
 10
9.65238
 20
3.49388
 30
0.0
 10
9.48035
 20
3.75658
 30
0.0
 10
9.48035
 20
3.75658
 30
0.0
 10
9.48035
 20
3.75658
 30
0.0
 10
9.48035
 20
3.75658
 30
0.0
 10
9.60584
 20
3.83876
 30
0.0
 10
9.60584
 20
3.83876
 30
0.0
 10
9.60584
 20
3.83876
 30
0.0
 10
9.67582
 20
3.73187
 30
0.0
 10
9.74574
 20
3.62514
 30
0.0
 10
9.81584
 20
3.51809
 30
0.0
 10
9.81584
 20
3.51809
 30
0.0
 10
9.95961
 20
3.60705
 30
0.0
 10
10.4073
 20
3.44845
 30
0.0
 10
10.68485
 20
3.66572
 30
0.0
 10
10.68485
 20
3.66572
 30
0.0
 10
10.75013
 20
3.72314
 30
0.0
 10
10.7946
 20
3.74543
 30
0.0
 10
10.83587
 20
3.76539
 30
0.0
 10
10.83587
 20
3.76539
 30
0.0
 10
10.88843
 20
3.73841
 30
0.0
 10
10.95379
 20
3.68166
 30
0.0
 10
11.0835
 20
3.55195
 30
0.0
 10
11.0835
 20
3.55195
 30
0.0
 10
11.28869
 20
3.38474
 30
0.0
 10
11.48174
 20
3.33793
 30
0.0
 10
11.51811
 20
3.48456
 30
0.0
 10
11.51811
 20
3.48456
 30
0.0
 10
11.51811
 20
3.48456
 30
0.0
 10
11.06785
 20
3.81969
 30
0.0
 10
11.06785
 20
3.81969
 30
0.0
 10
11.06785
 20
3.81969
 30
0.0
 10
11.06785
 20
3.81969
 30
0.0
 10
11.15742
 20
3.94002
 30
0.0
 10
11.15742
 20
3.94002
 30
0.0
 10
11.15742
 20
3.94002
 30
0.0
 10
11.15742
 20
3.94002
 30
0.0
 10
11.56364
 20
3.63767
 30
0.0
 10
11.56364
 20
3.63767
 30
0.0
 10
11.56364
 20
3.63767
 30
0.0
 10
11.60294
 20
3.60773
 30
0.0
 10
11.66043
 20
3.72052
 30
0.0
 10
11.57739
 20
3.86945
 30
0.0
 10
11.57739
 20
3.86945
 30
0.0
 10
11.45146
 20
4.07508
 30
0.0
 10
11.21482
 20
4.12835
 30
0.0
 10
11.01294
 20
4.22223
 30
0.0
 10
11.01294
 20
4.22223
 30
0.0
 10
11.01294
 20
4.22223
 30
0.0
 10
11.01558
 20
4.50358
 30
0.0
 10
11.01558
 20
4.50358
 30
0.0
 10
11.01558
 20
4.50358
 30
0.0
 10
11.3458
 20
4.6047
 30
0.0
 10
11.71073
 20
4.65793
 30
0.0
 10
11.77395
 20
4.84675
 30
0.0
 10
11.77395
 20
4.84675
 30
0.0
 10
11.81934
 20
4.9287
 30
0.0
 10
11.81245
 20
5.03588
 30
0.0
 10
11.77105
 20
5.03806
 30
0.0
 10
11.77105
 20
5.03806
 30
0.0
 10
11.58363
 20
4.94923
 30
0.0
 10
11.39626
 20
4.86042
 30
0.0
 10
11.20884
 20
4.77159
 30
0.0
 10
11.20884
 20
4.77159
 30
0.0
 10
11.20884
 20
4.77159
 30
0.0
 10
11.14459
 20
4.90714
 30
0.0
 10
11.14459
 20
4.90714
 30
0.0
 10
11.14459
 20
4.90714
 30
0.0
 10
11.14459
 20
4.90714
 30
0.0
 10
11.69101
 20
5.16612
 30
0.0
 10
11.69101
 20
5.16612
 30
0.0
 10
11.69101
 20
5.16612
 30
0.0
 10
11.5296
 20
5.4143
 30
0.0
 10
10.87623
 20
5.17133
 30
0.0
 10
10.72807
 20
4.92602
 30
0.0
 10
10.72807
 20
4.92602
 30
0.0
 10
10.70132
 20
4.9907
 30
0.0
 10
10.64282
 20
5.0567
 30
0.0
 10
10.56448
 20
5.09624
 30
0.0
 10
10.56448
 20
5.09624
 30
0.0
 10
10.7959
 20
5.41159
 30
0.0
 10
11.04359
 20
5.90212
 30
0.0
 10
10.74297
 20
5.95065
 30
0.0
 10
10.74297
 20
5.95065
 30
0.0
 10
10.74297
 20
5.95065
 30
0.0
 10
10.50638
 20
5.37721
 30
0.0
 10
10.50638
 20
5.37721
 30
0.0
 10
10.50638
 20
5.37721
 30
0.0
 10
10.45498
 20
5.39843
 30
0.0
 10
10.42484
 20
5.41087
 30
0.0
 10
10.36771
 20
5.43444
 30
0.0
 10
10.36771
 20
5.43444
 30
0.0
 10
10.43147
 20
5.58899
 30
0.0
 10
10.49501
 20
5.74297
 30
0.0
 10
10.55888
 20
5.89776
 30
0.0
 10
10.55888
 20
5.89776
 30
0.0
 10
10.57221
 20
5.93008
 30
0.0
 10
10.56317
 20
5.96523
 30
0.0
 10
10.54552
 20
5.99538
 30
0.0
 10
10.54552
 20
5.99538
 30
0.0
 10
10.52699
 20
6.02995
 30
0.0
 10
10.41554
 20
5.99714
 30
0.0
 10
10.37794
 20
5.95084
 30
0.0
  0
SPLINE
  5
53
330
1F
100
AcDbEntity
  8
Livello 1
 62
   250
100
AcDbSpline
210
0.0
220
0.0
230
1.0
 70
    11
 71
     3
 72
    64
 73
    60
 74
     0
 42
0.0000000001
 43
0.0000000001
 40
0.0
 40
0.0
 40
0.0
 40
0.0
 40
0.0625
 40
0.0625
 40
0.0625
 40
0.0625
 40
0.125
 40
0.125
 40
0.125
 40
0.125
 40
0.1875
 40
0.1875
 40
0.1875
 40
0.1875
 40
0.25
 40
0.25
 40
0.25
 40
0.25
 40
0.3125
 40
0.3125
 40
0.3125
 40
0.3125
 40
0.375
 40
0.375
 40
0.375
 40
0.375
 40
0.4375
 40
0.4375
 40
0.4375
 40
0.4375
 40
0.5
 40
0.5
 40
0.5
 40
0.5
 40
0.5625
 40
0.5625
 40
0.5625
 40
0.5625
 40
0.625
 40
0.625
 40
0.625
 40
0.625
 40
0.6875
 40
0.6875
 40
0.6875
 40
0.6875
 40
0.75
 40
0.75
 40
0.75
 40
0.75
 40
0.8125
 40
0.8125
 40
0.8125
 40
0.8125
 40
0.875
 40
0.875
 40
0.875
 40
0.875
 40
1.0
 40
1.0
 40
1.0
 40
1.0
 10
5.18271
 20
-0.31785
 30
0.0
 10
5.18271
 20
-0.31785
 30
0.0
 10
5.5548
 20
0.21134
 30
0.0
 10
5.5548
 20
0.21134
 30
0.0
 10
5.5548
 20
0.21134
 30
0.0
 10
5.5548
 20
0.21134
 30
0.0
 10
5.21052
 20
0.70028
 30
0.0
 10
5.21052
 20
0.70028
 30
0.0
 10
5.21052
 20
0.70028
 30
0.0
 10
5.21052
 20
0.70028
 30
0.0
 10
5.4262
 20
0.70028
 30
0.0
 10
5.4262
 20
0.70028
 30
0.0
 10
5.4262
 20
0.70028
 30
0.0
 10
5.4262
 20
0.70028
 30
0.0
 10
5.58263
 20
0.4617
 30
0.0
 10
5.58263
 20
0.4617
 30
0.0
 10
5.58263
 20
0.4617
 30
0.0
 10
5.61176
 20
0.4162
 30
0.0
 10
5.63565
 20
0.37823
 30
0.0
 10
5.65332
 20
0.34748
 30
0.0
 10
5.65332
 20
0.34748
 30
0.0
 10
5.68146
 20
0.38969
 30
0.0
 10
5.70731
 20
0.42701
 30
0.0
 10
5.7312
 20
0.45973
 30
0.0
 10
5.7312
 20
0.45973
 30
0.0
 10
5.7312
 20
0.45973
 30
0.0
 10
5.90269
 20
0.70028
 30
0.0
 10
5.90269
 20
0.70028
 30
0.0
 10
5.90269
 20
0.70028
 30
0.0
 10
5.90269
 20
0.70028
 30
0.0
 10
6.10886
 20
0.70028
 30
0.0
 10
6.10886
 20
0.70028
 30
0.0
 10
6.10886
 20
0.70028
 30
0.0
 10
6.10886
 20
0.70028
 30
0.0
 10
5.75706
 20
0.22083
 30
0.0
 10
5.75706
 20
0.22083
 30
0.0
 10
5.75706
 20
0.22083
 30
0.0
 10
5.75706
 20
0.22083
 30
0.0
 10
6.13572
 20
-0.31785
 30
0.0
 10
6.13572
 20
-0.31785
 30
0.0
 10
6.13572
 20
-0.31785
 30
0.0
 10
6.13572
 20
-0.31785
 30
0.0
 10
5.92398
 20
-0.31785
 30
0.0
 10
5.92398
 20
-0.31785
 30
0.0
 10
5.92398
 20
-0.31785
 30
0.0
 10
5.92398
 20
-0.31785
 30
0.0
 10
5.71485
 20
-0.0014
 30
0.0
 10
5.71485
 20
-0.0014
 30
0.0
 10
5.71485
 20
-0.0014
 30
0.0
 10
5.71485
 20
-0.0014
 30
0.0
 10
5.65921
 20
0.08404
 30
0.0
 10
5.65921
 20
0.08404
 30
0.0
 10
5.65921
 20
0.08404
 30
0.0
 10
5.65921
 20
0.08404
 30
0.0
 10
5.39183
 20
-0.31785
 30
0.0
 10
5.39183
 20
-0.31785
 30
0.0
 10
5.39183
 20
-0.31785
 30
0.0
 10
5.39183
 20
-0.31785
 30
0.0
 10
5.18271
 20
-0.31785
 30
0.0
 10
5.18271
 20
-0.31785
 30
0.0
  0
SPLINE
  5
54
330
1F
100
AcDbEntity
  8
Livello 1
 62
   250
100
AcDbSpline
210
0.0
220
0.0
230
1.0
 70
    11
 71
     3
 72
    92
 73
    88
 74
     0
 42
0.0000000001
 43
0.0000000001
 40
0.0
 40
0.0
 40
0.0
 40
0.0
 40
0.0434782608695652
 40
0.0434782608695652
 40
0.0434782608695652
 40
0.0434782608695652
 40
0.0869565217391304
 40
0.0869565217391304
 40
0.0869565217391304
 40
0.0869565217391304
 40
0.1304347826086956
 40
0.1304347826086956
 40
0.1304347826086956
 40
0.1304347826086956
 40
0.1739130434782609
 40
0.1739130434782609
 40
0.1739130434782609
 40
0.1739130434782609
 40
0.2173913043478261
 40
0.2173913043478261
 40
0.2173913043478261
 40
0.2173913043478261
 40
0.2608695652173913
 40
0.2608695652173913
 40
0.2608695652173913
 40
0.2608695652173913
 40
0.3043478260869565
 40
0.3043478260869565
 40
0.3043478260869565
 40
0.3043478260869565
 40
0.3478260869565217
 40
0.3478260869565217
 40
0.3478260869565217
 40
0.3478260869565217
 40
0.391304347826087
 40
0.391304347826087
 40
0.391304347826087
 40
0.391304347826087
 40
0.4347826086956522
 40
0.4347826086956522
 40
0.4347826086956522
 40
0.4347826086956522
 40
0.4782608695652174
 40
0.4782608695652174
 40
0.4782608695652174
 40
0.4782608695652174
 40
0.5217391304347826
 40
0.5217391304347826
 40
0.5217391304347826
 40
0.5217391304347826
 40
0.5652173913043478
 40
0.5652173913043478
 40
0.5652173913043478
 40
0.5652173913043478
 40
0.6086956521739131
 40
0.6086956521739131
 40
0.6086956521739131
 40
0.6086956521739131
 40
0.6521739130434783
 40
0.6521739130434783
 40
0.6521739130434783
 40
0.6521739130434783
 40
0.6956521739130435
 40
0.6956521739130435
 40
0.6956521739130435
 40
0.6956521739130435
 40
0.7391304347826086
 40
0.7391304347826086
 40
0.7391304347826086
 40
0.7391304347826086
 40
0.782608695652174
 40
0.782608695652174
 40
0.782608695652174
 40
0.782608695652174
 40
0.8260869565217391
 40
0.8260869565217391
 40
0.8260869565217391
 40
0.8260869565217391
 40
0.8695652173913043
 40
0.8695652173913043
 40
0.8695652173913043
 40
0.8695652173913043
 40
0.9130434782608695
 40
0.9130434782608695
 40
0.9130434782608695
 40
0.9130434782608695
 40
1.0
 40
1.0
 40
1.0
 40
1.0
 10
7.1388
 20
-0.15194
 30
0.0
 10
7.1388
 20
-0.15194
 30
0.0
 10
7.1388
 20
-0.31785
 30
0.0
 10
7.1388
 20
-0.31785
 30
0.0
 10
7.1388
 20
-0.31785
 30
0.0
 10
7.1388
 20
-0.31785
 30
0.0
 10
6.20968
 20
-0.31785
 30
0.0
 10
6.20968
 20
-0.31785
 30
0.0
 10
6.20968
 20
-0.31785
 30
0.0
 10
6.20838
 20
-0.27629
 30
0.0
 10
6.21492
 20
-0.23636
 30
0.0
 10
6.22965
 20
-0.19807
 30
0.0
 10
6.22965
 20
-0.19807
 30
0.0
 10
6.25321
 20
-0.13459
 30
0.0
 10
6.29118
 20
-0.07241
 30
0.0
 10
6.34322
 20
-0.01088
 30
0.0
 10
6.34322
 20
-0.01088
 30
0.0
 10
6.39556
 20
0.05032
 30
0.0
 10
6.47084
 20
0.12134
 30
0.0
 10
6.56902
 20
0.20186
 30
0.0
 10
6.56902
 20
0.20186
 30
0.0
 10
6.72185
 20
0.32719
 30
0.0
 10
6.82527
 20
0.42636
 30
0.0
 10
6.87896
 20
0.49967
 30
0.0
 10
6.87896
 20
0.49967
 30
0.0
 10
6.93262
 20
0.57263
 30
0.0
 10
6.95946
 20
0.64202
 30
0.0
 10
6.95946
 20
0.70714
 30
0.0
 10
6.95946
 20
0.70714
 30
0.0
 10
6.95946
 20
0.77554
 30
0.0
 10
6.93492
 20
0.83315
 30
0.0
 10
6.88615
 20
0.88027
 30
0.0
 10
6.88615
 20
0.88027
 30
0.0
 10
6.83705
 20
0.92707
 30
0.0
 10
6.77325
 20
0.95064
 30
0.0
 10
6.69469
 20
0.95064
 30
0.0
 10
6.69469
 20
0.95064
 30
0.0
 10
6.61157
 20
0.95064
 30
0.0
 10
6.54513
 20
0.92575
 30
0.0
 10
6.49538
 20
0.87568
 30
0.0
 10
6.49538
 20
0.87568
 30
0.0
 10
6.44531
 20
0.82596
 30
0.0
 10
6.42012
 20
0.75689
 30
0.0
 10
6.41945
 20
0.66885
 30
0.0
 10
6.41945
 20
0.66885
 30
0.0
 10
6.41945
 20
0.66885
 30
0.0
 10
6.24208
 20
0.68685
 30
0.0
 10
6.24208
 20
0.68685
 30
0.0
 10
6.24208
 20
0.68685
 30
0.0
 10
6.25418
 20
0.81939
 30
0.0
 10
6.30001
 20
0.92021
 30
0.0
 10
6.37921
 20
0.98958
 30
0.0
 10
6.37921
 20
0.98958
 30
0.0
 10
6.45841
 20
1.05897
 30
0.0
 10
6.5651
 20
1.09364
 30
0.0
 10
6.69861
 20
1.09364
 30
0.0
 10
6.69861
 20
1.09364
 30
0.0
 10
6.83345
 20
1.09364
 30
0.0
 10
6.94014
 20
1.05602
 30
0.0
 10
7.01869
 20
0.98139
 30
0.0
 10
7.01869
 20
0.98139
 30
0.0
 10
7.09756
 20
0.90646
 30
0.0
 10
7.13683
 20
0.81383
 30
0.0
 10
7.13683
 20
0.70322
 30
0.0
 10
7.13683
 20
0.70322
 30
0.0
 10
7.13683
 20
0.64694
 30
0.0
 10
7.12537
 20
0.59162
 30
0.0
 10
7.10213
 20
0.53729
 30
0.0
 10
7.10213
 20
0.53729
 30
0.0
 10
7.07924
 20
0.48297
 30
0.0
 10
7.04095
 20
0.42571
 30
0.0
 10
6.98759
 20
0.3658
 30
0.0
 10
6.98759
 20
0.3658
 30
0.0
 10
6.93425
 20
0.3056
 30
0.0
 10
6.84556
 20
0.22313
 30
0.0
 10
6.72153
 20
0.11839
 30
0.0
 10
6.72153
 20
0.11839
 30
0.0
 10
6.61811
 20
0.03135
 30
0.0
 10
6.55167
 20
-0.02756
 30
0.0
 10
6.52222
 20
-0.05866
 30
0.0
 10
6.52222
 20
-0.05866
 30
0.0
 10
6.49276
 20
-0.08941
 30
0.0
 10
6.46855
 20
-0.12051
 30
0.0
 10
6.44925
 20
-0.15194
 30
0.0
 10
6.44925
 20
-0.15194
 30
0.0
 10
6.44925
 20
-0.15194
 30
0.0
 10
7.1388
 20
-0.15194
 30
0.0
 10
7.1388
 20
-0.15194
 30
0.0
  0
SPLINE
  5
55
330
1F
100
AcDbEntity
  8
Livello 1
 62
   250
370
    20
100
AcDbSpline
210
0.0
220
0.0
230
1.0
 70
    11
 71
     3
 72
    84
 73
    80
 74
     0
 42
0.0000000001
 43
0.0000000001
 40
0.0
 40
0.0
 40
0.0
 40
0.0
 40
0.0476190476190476
 40
0.0476190476190476
 40
0.0476190476190476
 40
0.0476190476190476
 40
0.0952380952380952
 40
0.0952380952380952
 40
0.0952380952380952
 40
0.0952380952380952
 40
0.1428571428571428
 40
0.1428571428571428
 40
0.1428571428571428
 40
0.1428571428571428
 40
0.1904761904761905
 40
0.1904761904761905
 40
0.1904761904761905
 40
0.1904761904761905
 40
0.2380952380952381
 40
0.2380952380952381
 40
0.2380952380952381
 40
0.2380952380952381
 40
0.2857142857142857
 40
0.2857142857142857
 40
0.2857142857142857
 40
0.2857142857142857
 40
0.3333333333333333
 40
0.3333333333333333
 40
0.3333333333333333
 40
0.3333333333333333
 40
0.3809523809523809
 40
0.3809523809523809
 40
0.3809523809523809
 40
0.3809523809523809
 40
0.4285714285714285
 40
0.4285714285714285
 40
0.4285714285714285
 40
0.4285714285714285
 40
0.4761904761904762
 40
0.4761904761904762
 40
0.4761904761904762
 40
0.4761904761904762
 40
0.5238095238095238
 40
0.5238095238095238
 40
0.5238095238095238
 40
0.5238095238095238
 40
0.5714285714285714
 40
0.5714285714285714
 40
0.5714285714285714
 40
0.5714285714285714
 40
0.6190476190476191
 40
0.6190476190476191
 40
0.6190476190476191
 40
0.6190476190476191
 40
0.6666666666666666
 40
0.6666666666666666
 40
0.6666666666666666
 40
0.6666666666666666
 40
0.7142857142857143
 40
0.7142857142857143
 40
0.7142857142857143
 40
0.7142857142857143
 40
0.7619047619047619
 40
0.7619047619047619
 40
0.7619047619047619
 40
0.7619047619047619
 40
0.8095238095238095
 40
0.8095238095238095
 40
0.8095238095238095
 40
0.8095238095238095
 40
0.8571428571428571
 40
0.8571428571428571
 40
0.8571428571428571
 40
0.8571428571428571
 40
0.9047619047619048
 40
0.9047619047619048
 40
0.9047619047619048
 40
0.9047619047619048
 40
1.0
 40
1.0
 40
1.0
 40
1.0
 10
-7.00168
 20
-1.53514
 30
0.0
 10
-7.00051
 20
-1.46833
 30
0.0
 10
-6.98646
 20
-1.42844
 30
0.0
 10
-6.95522
 20
-1.38212
 30
0.0
 10
-6.95522
 20
-1.38212
 30
0.0
 10
-6.95522
 20
-1.38212
 30
0.0
 10
-6.28977
 20
-1.38212
 30
0.0
 10
-6.28977
 20
-1.38212
 30
0.0
 10
-6.28977
 20
-1.38212
 30
0.0
 10
-6.28977
 20
-1.33215
 30
0.0
 10
-6.293
 20
-1.28217
 30
0.0
 10
-6.293
 20
-1.23212
 30
0.0
 10
-6.293
 20
-1.23212
 30
0.0
 10
-6.4898
 20
-1.23212
 30
0.0
 10
-6.68935
 20
-1.23212
 30
0.0
 10
-6.88727
 20
-1.23212
 30
0.0
 10
-6.88727
 20
-1.23212
 30
0.0
 10
-6.89269
 20
-1.22869
 30
0.0
 10
-6.89813
 20
-1.21014
 30
0.0
 10
-6.90364
 20
-1.20622
 30
0.0
 10
-6.90364
 20
-1.20622
 30
0.0
 10
-6.85142
 20
-1.02188
 30
0.0
 10
-6.61425
 20
-0.83409
 30
0.0
 10
-6.43894
 20
-0.7939
 30
0.0
 10
-6.43894
 20
-0.7939
 30
0.0
 10
-6.30042
 20
-0.759
 30
0.0
 10
-6.16187
 20
-0.75386
 30
0.0
 10
-6.01839
 20
-0.78841
 30
0.0
 10
-6.01839
 20
-0.78841
 30
0.0
 10
-5.83126
 20
-0.84438
 30
0.0
 10
-5.54874
 20
-1.18905
 30
0.0
 10
-5.60581
 20
-1.45142
 30
0.0
 10
-5.60581
 20
-1.45142
 30
0.0
 10
-5.60581
 20
-1.45142
 30
0.0
 10
-5.98923
 20
-1.45142
 30
0.0
 10
-5.98923
 20
-1.45142
 30
0.0
 10
-5.98923
 20
-1.45142
 30
0.0
 10
-5.98923
 20
-1.45142
 30
0.0
 10
-5.98923
 20
-1.53514
 30
0.0
 10
-5.98923
 20
-1.53514
 30
0.0
 10
-5.98923
 20
-1.53514
 30
0.0
 10
-5.98923
 20
-1.53514
 30
0.0
 10
-5.98923
 20
-1.61886
 30
0.0
 10
-5.98923
 20
-1.61886
 30
0.0
 10
-5.98923
 20
-1.61886
 30
0.0
 10
-5.98923
 20
-1.61886
 30
0.0
 10
-5.60581
 20
-1.61886
 30
0.0
 10
-5.60581
 20
-1.61886
 30
0.0
 10
-5.60581
 20
-1.61886
 30
0.0
 10
-5.54874
 20
-1.88123
 30
0.0
 10
-5.83126
 20
-2.2259
 30
0.0
 10
-6.01839
 20
-2.28187
 30
0.0
 10
-6.01839
 20
-2.28187
 30
0.0
 10
-6.16187
 20
-2.31642
 30
0.0
 10
-6.30042
 20
-2.31128
 30
0.0
 10
-6.43894
 20
-2.27638
 30
0.0
 10
-6.43894
 20
-2.27638
 30
0.0
 10
-6.61425
 20
-2.23619
 30
0.0
 10
-6.85142
 20
-2.0484
 30
0.0
 10
-6.90364
 20
-1.86406
 30
0.0
 10
-6.90364
 20
-1.86406
 30
0.0
 10
-6.89813
 20
-1.86014
 30
0.0
 10
-6.89269
 20
-1.84159
 30
0.0
 10
-6.88727
 20
-1.83816
 30
0.0
 10
-6.88727
 20
-1.83816
 30
0.0
 10
-6.68935
 20
-1.83816
 30
0.0
 10
-6.48657
 20
-1.83816
 30
0.0
 10
-6.28977
 20
-1.83816
 30
0.0
 10
-6.28977
 20
-1.83816
 30
0.0
 10
-6.28977
 20
-1.78811
 30
0.0
 10
-6.28977
 20
-1.73813
 30
0.0
 10
-6.28977
 20
-1.68816
 30
0.0
 10
-6.28977
 20
-1.68816
 30
0.0
 10
-6.28977
 20
-1.68816
 30
0.0
 10
-6.95522
 20
-1.68816
 30
0.0
 10
-6.95522
 20
-1.68816
 30
0.0
 10
-6.95522
 20
-1.68816
 30
0.0
 10
-6.98646
 20
-1.64184
 30
0.0
 10
-7.00051
 20
-1.60195
 30
0.0
 10
-7.00168
 20
-1.53514
 30
0.0
  0
SPLINE
  5
56
330
1F
100
AcDbEntity
  8
Livello 1
 62
   250
370
    20
100
AcDbSpline
210
0.0
220
0.0
230
1.0
 70
    11
 71
     3
 72
   132
 73
   128
 74
     0
 42
0.0000000001
 43
0.0000000001
 40
0.0
 40
0.0
 40
0.0
 40
0.0
 40
0.0303030303030303
 40
0.0303030303030303
 40
0.0303030303030303
 40
0.0303030303030303
 40
0.0606060606060606
 40
0.0606060606060606
 40
0.0606060606060606
 40
0.0606060606060606
 40
0.0909090909090909
 40
0.0909090909090909
 40
0.0909090909090909
 40
0.0909090909090909
 40
0.1212121212121212
 40
0.1212121212121212
 40
0.1212121212121212
 40
0.1212121212121212
 40
0.1515151515151515
 40
0.1515151515151515
 40
0.1515151515151515
 40
0.1515151515151515
 40
0.1818181818181818
 40
0.1818181818181818
 40
0.1818181818181818
 40
0.1818181818181818
 40
0.2121212121212121
 40
0.2121212121212121
 40
0.2121212121212121
 40
0.2121212121212121
 40
0.2424242424242424
 40
0.2424242424242424
 40
0.2424242424242424
 40
0.2424242424242424
 40
0.2727272727272727
 40
0.2727272727272727
 40
0.2727272727272727
 40
0.2727272727272727
 40
0.303030303030303
 40
0.303030303030303
 40
0.303030303030303
 40
0.303030303030303
 40
0.3333333333333333
 40
0.3333333333333333
 40
0.3333333333333333
 40
0.3333333333333333
 40
0.3636363636363636
 40
0.3636363636363636
 40
0.3636363636363636
 40
0.3636363636363636
 40
0.3939393939393939
 40
0.3939393939393939
 40
0.3939393939393939
 40
0.3939393939393939
 40
0.4242424242424243
 40
0.4242424242424243
 40
0.4242424242424243
 40
0.4242424242424243
 40
0.4545454545454545
 40
0.4545454545454545
 40
0.4545454545454545
 40
0.4545454545454545
 40
0.4848484848484849
 40
0.4848484848484849
 40
0.4848484848484849
 40
0.4848484848484849
 40
0.5151515151515151
 40
0.5151515151515151
 40
0.5151515151515151
 40
0.5151515151515151
 40
0.5454545454545454
 40
0.5454545454545454
 40
0.5454545454545454
 40
0.5454545454545454
 40
0.5757575757575758
 40
0.5757575757575758
 40
0.5757575757575758
 40
0.5757575757575758
 40
0.6060606060606061
 40
0.6060606060606061
 40
0.6060606060606061
 40
0.6060606060606061
 40
0.6363636363636364
 40
0.6363636363636364
 40
0.6363636363636364
 40
0.6363636363636364
 40
0.6666666666666666
 40
0.6666666666666666
 40
0.6666666666666666
 40
0.6666666666666666
 40
0.696969696969697
 40
0.696969696969697
 40
0.696969696969697
 40
0.696969696969697
 40
0.7272727272727273
 40
0.7272727272727273
 40
0.7272727272727273
 40
0.7272727272727273
 40
0.7575757575757576
 40
0.7575757575757576
 40
0.7575757575757576
 40
0.7575757575757576
 40
0.7878787878787878
 40
0.7878787878787878
 40
0.7878787878787878
 40
0.7878787878787878
 40
0.8181818181818182
 40
0.8181818181818182
 40
0.8181818181818182
 40
0.8181818181818182
 40
0.8484848484848485
 40
0.8484848484848485
 40
0.8484848484848485
 40
0.8484848484848485
 40
0.8787878787878788
 40
0.8787878787878788
 40
0.8787878787878788
 40
0.8787878787878788
 40
0.9090909090909091
 40
0.9090909090909091
 40
0.9090909090909091
 40
0.9090909090909091
 40
0.9393939393939394
 40
0.9393939393939394
 40
0.9393939393939394
 40
0.9393939393939394
 40
1.0
 40
1.0
 40
1.0
 40
1.0
 10
-5.41072
 20
-1.53515
 30
0.0
 10
-5.41063
 20
-1.57275
 30
0.0
 10
-5.39723
 20
-1.61909
 30
0.0
 10
-5.37041
 20
-1.68818
 30
0.0
 10
-5.37041
 20
-1.68818
 30
0.0
 10
-5.19674
 20
-1.68818
 30
0.0
 10
-5.02312
 20
-1.68817
 30
0.0
 10
-4.84943
 20
-1.68817
 30
0.0
 10
-4.84943
 20
-1.68817
 30
0.0
 10
-4.84943
 20
-1.74446
 30
0.0
 10
-4.84943
 20
-1.78147
 30
0.0
 10
-4.84943
 20
-1.83817
 30
0.0
 10
-4.84943
 20
-1.83817
 30
0.0
 10
-5.01651
 20
-1.83817
 30
0.0
 10
-5.18323
 20
-1.83818
 30
0.0
 10
-5.35023
 20
-1.83818
 30
0.0
 10
-5.35023
 20
-1.83818
 30
0.0
 10
-5.34974
 20
-2.09854
 30
0.0
 10
-4.83722
 20
-2.39308
 30
0.0
 10
-4.55794
 20
-2.34902
 30
0.0
 10
-4.55794
 20
-2.34902
 30
0.0
 10
-4.55794
 20
-2.2535
 30
0.0
 10
-4.5576
 20
-2.15998
 30
0.0
 10
-4.5576
 20
-2.065
 30
0.0
 10
-4.5576
 20
-2.065
 30
0.0
 10
-4.5576
 20
-2.065
 30
0.0
 10
-4.4076
 20
-2.065
 30
0.0
 10
-4.4076
 20
-2.065
 30
0.0
 10
-4.4076
 20
-2.065
 30
0.0
 10
-4.4076
 20
-2.065
 30
0.0
 10
-4.4076
 20
-2.12862
 30
0.0
 10
-4.4076
 20
-2.12862
 30
0.0
 10
-4.4076
 20
-2.12862
 30
0.0
 10
-4.4076
 20
-2.12862
 30
0.0
 10
-4.4076
 20
-2.38154
 30
0.0
 10
-4.4076
 20
-2.38154
 30
0.0
 10
-4.4076
 20
-2.38154
 30
0.0
 10
-4.33896
 20
-2.40798
 30
0.0
 10
-4.27826
 20
-2.41106
 30
0.0
 10
-4.20929
 20
-2.37945
 30
0.0
 10
-4.20929
 20
-2.37945
 30
0.0
 10
-4.20929
 20
-2.28369
 30
0.0
 10
-4.20929
 20
-2.15992
 30
0.0
 10
-4.20929
 20
-2.06417
 30
0.0
 10
-4.20929
 20
-2.06417
 30
0.0
 10
-4.20929
 20
-2.06417
 30
0.0
 10
-4.05929
 20
-2.06417
 30
0.0
 10
-4.05929
 20
-2.06417
 30
0.0
 10
-4.05929
 20
-2.06417
 30
0.0
 10
-4.05929
 20
-2.06417
 30
0.0
 10
-4.05929
 20
-2.35067
 30
0.0
 10
-4.05929
 20
-2.35067
 30
0.0
 10
-4.05929
 20
-2.35067
 30
0.0
 10
-3.70594
 20
-2.29248
 30
0.0
 10
-3.5761
 20
-1.96457
 30
0.0
 10
-3.56137
 20
-1.61887
 30
0.0
 10
-3.56137
 20
-1.61887
 30
0.0
 10
-3.56137
 20
-1.61887
 30
0.0
 10
-3.90998
 20
-1.61887
 30
0.0
 10
-3.90998
 20
-1.61887
 30
0.0
 10
-3.90998
 20
-1.61887
 30
0.0
 10
-3.90998
 20
-1.61887
 30
0.0
 10
-3.91075
 20
-1.53515
 30
0.0
 10
-3.91075
 20
-1.53515
 30
0.0
 10
-3.91075
 20
-1.53515
 30
0.0
 10
-3.91075
 20
-1.53515
 30
0.0
 10
-3.90998
 20
-1.45143
 30
0.0
 10
-3.90998
 20
-1.45143
 30
0.0
 10
-3.90998
 20
-1.45143
 30
0.0
 10
-3.90998
 20
-1.45143
 30
0.0
 10
-3.56161
 20
-1.45143
 30
0.0
 10
-3.56161
 20
-1.45143
 30
0.0
 10
-3.56161
 20
-1.45143
 30
0.0
 10
-3.57634
 20
-1.10573
 30
0.0
 10
-3.70618
 20
-0.77781
 30
0.0
 10
-4.05953
 20
-0.71962
 30
0.0
 10
-4.05953
 20
-0.71962
 30
0.0
 10
-4.05953
 20
-0.71962
 30
0.0
 10
-4.05953
 20
-1.00612
 30
0.0
 10
-4.05953
 20
-1.00612
 30
0.0
 10
-4.05953
 20
-1.00612
 30
0.0
 10
-4.05953
 20
-1.00612
 30
0.0
 10
-4.20953
 20
-1.00612
 30
0.0
 10
-4.20953
 20
-1.00612
 30
0.0
 10
-4.20953
 20
-1.00612
 30
0.0
 10
-4.20953
 20
-0.91037
 30
0.0
 10
-4.20953
 20
-0.7866
 30
0.0
 10
-4.20953
 20
-0.69084
 30
0.0
 10
-4.20953
 20
-0.69084
 30
0.0
 10
-4.2785
 20
-0.65923
 30
0.0
 10
-4.3392
 20
-0.66231
 30
0.0
 10
-4.40784
 20
-0.68875
 30
0.0
 10
-4.40784
 20
-0.68875
 30
0.0
 10
-4.40784
 20
-0.68875
 30
0.0
 10
-4.40784
 20
-0.94167
 30
0.0
 10
-4.40784
 20
-0.94167
 30
0.0
 10
-4.40784
 20
-0.94167
 30
0.0
 10
-4.40784
 20
-0.94167
 30
0.0
 10
-4.40784
 20
-1.00529
 30
0.0
 10
-4.40784
 20
-1.00529
 30
0.0
 10
-4.40784
 20
-1.00529
 30
0.0
 10
-4.40784
 20
-1.00529
 30
0.0
 10
-4.55784
 20
-1.00529
 30
0.0
 10
-4.55784
 20
-1.00529
 30
0.0
 10
-4.55784
 20
-1.00529
 30
0.0
 10
-4.55784
 20
-0.91031
 30
0.0
 10
-4.55818
 20
-0.81679
 30
0.0
 10
-4.55818
 20
-0.72127
 30
0.0
 10
-4.55818
 20
-0.72127
 30
0.0
 10
-4.83746
 20
-0.67721
 30
0.0
 10
-5.34998
 20
-0.97177
 30
0.0
 10
-5.35047
 20
-1.23213
 30
0.0
 10
-5.35047
 20
-1.23213
 30
0.0
 10
-5.18347
 20
-1.23213
 30
0.0
 10
-5.01651
 20
-1.23213
 30
0.0
 10
-4.84943
 20
-1.23213
 30
0.0
 10
-4.84943
 20
-1.23213
 30
0.0
 10
-4.84943
 20
-1.28883
 30
0.0
 10
-4.84943
 20
-1.32584
 30
0.0
 10
-4.84943
 20
-1.38213
 30
0.0
 10
-4.84943
 20
-1.38213
 30
0.0
 10
-5.02312
 20
-1.38213
 30
0.0
 10
-5.20195
 20
-1.38213
 30
0.0
 10
-5.37562
 20
-1.38213
 30
0.0
 10
-5.37562
 20
-1.38213
 30
0.0
 10
-5.40244
 20
-1.45122
 30
0.0
 10
-5.41087
 20
-1.49754
 30
0.0
 10
-5.41072
 20
-1.53515
 30
0.0
  0
SPLINE
  5
57
330
1F
100
AcDbEntity
  8
Livello 1
 62
   250
370
    20
100
AcDbSpline
210
0.0
220
0.0
230
1.0
 70
    11
 71
     3
 72
    68
 73
    64
 74
     0
 42
0.0000000001
 43
0.0000000001
 40
0.0
 40
0.0
 40
0.0
 40
0.0
 40
0.0588235294117647
 40
0.0588235294117647
 40
0.0588235294117647
 40
0.0588235294117647
 40
0.1176470588235294
 40
0.1176470588235294
 40
0.1176470588235294
 40
0.1176470588235294
 40
0.1764705882352941
 40
0.1764705882352941
 40
0.1764705882352941
 40
0.1764705882352941
 40
0.2352941176470588
 40
0.2352941176470588
 40
0.2352941176470588
 40
0.2352941176470588
 40
0.2941176470588235
 40
0.2941176470588235
 40
0.2941176470588235
 40
0.2941176470588235
 40
0.3529411764705883
 40
0.3529411764705883
 40
0.3529411764705883
 40
0.3529411764705883
 40
0.4117647058823529
 40
0.4117647058823529
 40
0.4117647058823529
 40
0.4117647058823529
 40
0.4705882352941176
 40
0.4705882352941176
 40
0.4705882352941176
 40
0.4705882352941176
 40
0.5294117647058824
 40
0.5294117647058824
 40
0.5294117647058824
 40
0.5294117647058824
 40
0.5882352941176471
 40
0.5882352941176471
 40
0.5882352941176471
 40
0.5882352941176471
 40
0.6470588235294118
 40
0.6470588235294118
 40
0.6470588235294118
 40
0.6470588235294118
 40
0.7058823529411765
 40
0.7058823529411765
 40
0.7058823529411765
 40
0.7058823529411765
 40
0.7647058823529411
 40
0.7647058823529411
 40
0.7647058823529411
 40
0.7647058823529411
 40
0.8235294117647058
 40
0.8235294117647058
 40
0.8235294117647058
 40
0.8235294117647058
 40
0.8823529411764706
 40
0.8823529411764706
 40
0.8823529411764706
 40
0.8823529411764706
 40
1.0
 40
1.0
 40
1.0
 40
1.0
 10
-2.386
 20
-1.44913
 30
0.0
 10
-2.386
 20
-1.44913
 30
0.0
 10
-2.02672
 20
-1.44913
 30
0.0
 10
-2.02672
 20
-1.44913
 30
0.0
 10
-2.02672
 20
-1.44913
 30
0.0
 10
-2.02672
 20
-1.19891
 30
0.0
 10
-2.03112
 20
-0.881
 30
0.0
 10
-2.27366
 20
-0.73247
 30
0.0
 10
-2.27366
 20
-0.73247
 30
0.0
 10
-2.45215
 20
-0.6586
 30
0.0
 10
-2.64246
 20
-0.65419
 30
0.0
 10
-2.87338
 20
-0.69719
 30
0.0
 10
-2.87338
 20
-0.69719
 30
0.0
 10
-3.06033
 20
-0.74519
 30
0.0
 10
-3.28047
 20
-0.97187
 30
0.0
 10
-3.33531
 20
-1.23212
 30
0.0
 10
-3.33531
 20
-1.23212
 30
0.0
 10
-3.33531
 20
-1.23212
 30
0.0
 10
-2.83669
 20
-1.23212
 30
0.0
 10
-2.83669
 20
-1.23212
 30
0.0
 10
-2.83669
 20
-1.23212
 30
0.0
 10
-2.83669
 20
-1.23212
 30
0.0
 10
-2.83669
 20
-1.38212
 30
0.0
 10
-2.83669
 20
-1.38212
 30
0.0
 10
-2.83669
 20
-1.38212
 30
0.0
 10
-3.00163
 20
-1.38212
 30
0.0
 10
-3.17271
 20
-1.38212
 30
0.0
 10
-3.33762
 20
-1.38212
 30
0.0
 10
-3.33762
 20
-1.38212
 30
0.0
 10
-3.3858
 20
-1.50647
 30
0.0
 10
-3.38581
 20
-1.56382
 30
0.0
 10
-3.33762
 20
-1.68817
 30
0.0
 10
-3.33762
 20
-1.68817
 30
0.0
 10
-3.17271
 20
-1.68817
 30
0.0
 10
-3.00163
 20
-1.68816
 30
0.0
 10
-2.83669
 20
-1.68816
 30
0.0
 10
-2.83669
 20
-1.68816
 30
0.0
 10
-2.83669
 20
-1.68816
 30
0.0
 10
-2.83669
 20
-1.83816
 30
0.0
 10
-2.83669
 20
-1.83816
 30
0.0
 10
-2.83669
 20
-1.83816
 30
0.0
 10
-2.83669
 20
-1.83816
 30
0.0
 10
-3.332
 20
-1.83817
 30
0.0
 10
-3.332
 20
-1.83817
 30
0.0
 10
-3.332
 20
-1.83817
 30
0.0
 10
-3.27716
 20
-2.09842
 30
0.0
 10
-3.06033
 20
-2.32509
 30
0.0
 10
-2.87338
 20
-2.37309
 30
0.0
 10
-2.87338
 20
-2.37309
 30
0.0
 10
-2.64246
 20
-2.41609
 30
0.0
 10
-2.45215
 20
-2.41168
 30
0.0
 10
-2.27366
 20
-2.33781
 30
0.0
 10
-2.27366
 20
-2.33781
 30
0.0
 10
-2.03112
 20
-2.18928
 30
0.0
 10
-2.02672
 20
-1.87137
 30
0.0
 10
-2.02672
 20
-1.62115
 30
0.0
 10
-2.02672
 20
-1.62115
 30
0.0
 10
-2.02672
 20
-1.62115
 30
0.0
 10
-2.386
 20
-1.62115
 30
0.0
 10
-2.386
 20
-1.62115
 30
0.0
 10
-2.386
 20
-1.62115
 30
0.0
 10
-2.386
 20
-1.62115
 30
0.0
 10
-2.386
 20
-1.44913
 30
0.0
 10
-2.386
 20
-1.44913
 30
0.0
  0
SPLINE
  5
58
330
1F
100
AcDbEntity
  8
Livello 1
 62
   250
370
    20
100
AcDbSpline
210
0.0
220
0.0
230
1.0
 70
    11
 71
     3
 72
    72
 73
    68
 74
     0
 42
0.0000000001
 43
0.0000000001
 40
0.0
 40
0.0
 40
0.0
 40
0.0
 40
0.0555555555555556
 40
0.0555555555555556
 40
0.0555555555555556
 40
0.0555555555555556
 40
0.1111111111111111
 40
0.1111111111111111
 40
0.1111111111111111
 40
0.1111111111111111
 40
0.1666666666666667
 40
0.1666666666666667
 40
0.1666666666666667
 40
0.1666666666666667
 40
0.2222222222222222
 40
0.2222222222222222
 40
0.2222222222222222
 40
0.2222222222222222
 40
0.2777777777777778
 40
0.2777777777777778
 40
0.2777777777777778
 40
0.2777777777777778
 40
0.3333333333333333
 40
0.3333333333333333
 40
0.3333333333333333
 40
0.3333333333333333
 40
0.3888888888888889
 40
0.3888888888888889
 40
0.3888888888888889
 40
0.3888888888888889
 40
0.4444444444444444
 40
0.4444444444444444
 40
0.4444444444444444
 40
0.4444444444444444
 40
0.5
 40
0.5
 40
0.5
 40
0.5
 40
0.5555555555555556
 40
0.5555555555555556
 40
0.5555555555555556
 40
0.5555555555555556
 40
0.6111111111111112
 40
0.6111111111111112
 40
0.6111111111111112
 40
0.6111111111111112
 40
0.6666666666666666
 40
0.6666666666666666
 40
0.6666666666666666
 40
0.6666666666666666
 40
0.7222222222222222
 40
0.7222222222222222
 40
0.7222222222222222
 40
0.7222222222222222
 40
0.7777777777777778
 40
0.7777777777777778
 40
0.7777777777777778
 40
0.7777777777777778
 40
0.8333333333333334
 40
0.8333333333333334
 40
0.8333333333333334
 40
0.8333333333333334
 40
0.8888888888888888
 40
0.8888888888888888
 40
0.8888888888888888
 40
0.8888888888888888
 40
1.0
 40
1.0
 40
1.0
 40
1.0
 10
-0.52026
 20
-1.57376
 30
0.0
 10
-0.56055
 20
-1.57133
 30
0.0
 10
-0.60287
 20
-1.55604
 30
0.0
 10
-0.67154
 20
-1.52938
 30
0.0
 10
-0.67154
 20
-1.52938
 30
0.0
 10
-0.67154
 20
-1.52938
 30
0.0
 10
-0.67382
 20
-0.90136
 30
0.0
 10
-0.67382
 20
-0.90136
 30
0.0
 10
-0.67382
 20
-0.90136
 30
0.0
 10
-0.67382
 20
-0.90136
 30
0.0
 10
-0.82154
 20
-0.90173
 30
0.0
 10
-0.82154
 20
-0.90173
 30
0.0
 10
-0.82154
 20
-0.90173
 30
0.0
 10
-0.82154
 20
-0.90173
 30
0.0
 10
-0.82154
 20
-1.3979
 30
0.0
 10
-0.82154
 20
-1.3979
 30
0.0
 10
-0.82154
 20
-1.3979
 30
0.0
 10
-0.82154
 20
-1.40826
 30
0.0
 10
-0.84206
 20
-1.40699
 30
0.0
 10
-0.8525
 20
-1.39488
 30
0.0
 10
-0.8525
 20
-1.39488
 30
0.0
 10
-0.97504
 20
-1.28206
 30
0.0
 10
-1.09181
 20
-0.96741
 30
0.0
 10
-0.9975
 20
-0.69408
 30
0.0
 10
-0.9975
 20
-0.69408
 30
0.0
 10
-0.94948
 20
-0.57236
 30
0.0
 10
-0.86679
 20
-0.40346
 30
0.0
 10
-0.60398
 20
-0.40699
 30
0.0
 10
-0.60398
 20
-0.40699
 30
0.0
 10
-0.60398
 20
-0.40699
 30
0.0
 10
-0.60398
 20
-0.76874
 30
0.0
 10
-0.60398
 20
-0.76874
 30
0.0
 10
-0.60398
 20
-0.76874
 30
0.0
 10
-0.60398
 20
-0.76874
 30
0.0
 10
-0.43654
 20
-0.76874
 30
0.0
 10
-0.43654
 20
-0.76874
 30
0.0
 10
-0.43654
 20
-0.76874
 30
0.0
 10
-0.43654
 20
-0.76874
 30
0.0
 10
-0.43654
 20
-0.40699
 30
0.0
 10
-0.43654
 20
-0.40699
 30
0.0
 10
-0.43654
 20
-0.40699
 30
0.0
 10
-0.17373
 20
-0.40346
 30
0.0
 10
-0.09104
 20
-0.57236
 30
0.0
 10
-0.04302
 20
-0.69408
 30
0.0
 10
-0.04302
 20
-0.69408
 30
0.0
 10
0.05129
 20
-0.96741
 30
0.0
 10
-0.06548
 20
-1.28206
 30
0.0
 10
-0.18802
 20
-1.39488
 30
0.0
 10
-0.18802
 20
-1.39488
 30
0.0
 10
-0.19846
 20
-1.40699
 30
0.0
 10
-0.21898
 20
-1.40826
 30
0.0
 10
-0.21898
 20
-1.3979
 30
0.0
 10
-0.21898
 20
-1.3979
 30
0.0
 10
-0.21898
 20
-1.3979
 30
0.0
 10
-0.21898
 20
-0.90173
 30
0.0
 10
-0.21898
 20
-0.90173
 30
0.0
 10
-0.21898
 20
-0.90173
 30
0.0
 10
-0.21898
 20
-0.90173
 30
0.0
 10
-0.3667
 20
-0.90136
 30
0.0
 10
-0.3667
 20
-0.90136
 30
0.0
 10
-0.3667
 20
-0.90136
 30
0.0
 10
-0.3667
 20
-0.90136
 30
0.0
 10
-0.36898
 20
-1.52938
 30
0.0
 10
-0.36898
 20
-1.52938
 30
0.0
 10
-0.36898
 20
-1.52938
 30
0.0
 10
-0.43765
 20
-1.55604
 30
0.0
 10
-0.47997
 20
-1.57133
 30
0.0
 10
-0.52026
 20
-1.57376
 30
0.0
  0
SPLINE
  5
59
330
1F
100
AcDbEntity
  8
Livello 1
 62
   250
370
    20
100
AcDbSpline
210
0.0
220
0.0
230
1.0
 70
    11
 71
     3
 72
    96
 73
    92
 74
     0
 42
0.0000000001
 43
0.0000000001
 40
0.0
 40
0.0
 40
0.0
 40
0.0
 40
0.0416666666666667
 40
0.0416666666666667
 40
0.0416666666666667
 40
0.0416666666666667
 40
0.0833333333333333
 40
0.0833333333333333
 40
0.0833333333333333
 40
0.0833333333333333
 40
0.125
 40
0.125
 40
0.125
 40
0.125
 40
0.1666666666666667
 40
0.1666666666666667
 40
0.1666666666666667
 40
0.1666666666666667
 40
0.2083333333333333
 40
0.2083333333333333
 40
0.2083333333333333
 40
0.2083333333333333
 40
0.25
 40
0.25
 40
0.25
 40
0.25
 40
0.2916666666666667
 40
0.2916666666666667
 40
0.2916666666666667
 40
0.2916666666666667
 40
0.3333333333333333
 40
0.3333333333333333
 40
0.3333333333333333
 40
0.3333333333333333
 40
0.375
 40
0.375
 40
0.375
 40
0.375
 40
0.4166666666666667
 40
0.4166666666666667
 40
0.4166666666666667
 40
0.4166666666666667
 40
0.4583333333333333
 40
0.4583333333333333
 40
0.4583333333333333
 40
0.4583333333333333
 40
0.5
 40
0.5
 40
0.5
 40
0.5
 40
0.5416666666666666
 40
0.5416666666666666
 40
0.5416666666666666
 40
0.5416666666666666
 40
0.5833333333333334
 40
0.5833333333333334
 40
0.5833333333333334
 40
0.5833333333333334
 40
0.625
 40
0.625
 40
0.625
 40
0.625
 40
0.6666666666666666
 40
0.6666666666666666
 40
0.6666666666666666
 40
0.6666666666666666
 40
0.7083333333333334
 40
0.7083333333333334
 40
0.7083333333333334
 40
0.7083333333333334
 40
0.75
 40
0.75
 40
0.75
 40
0.75
 40
0.7916666666666666
 40
0.7916666666666666
 40
0.7916666666666666
 40
0.7916666666666666
 40
0.8333333333333334
 40
0.8333333333333334
 40
0.8333333333333334
 40
0.8333333333333334
 40
0.875
 40
0.875
 40
0.875
 40
0.875
 40
0.9166666666666666
 40
0.9166666666666666
 40
0.9166666666666666
 40
0.9166666666666666
 40
1.0
 40
1.0
 40
1.0
 40
1.0
 10
-1.03372
 20
-2.45272
 30
0.0
 10
-1.25819
 20
-2.33263
 30
0.0
 10
-1.44149
 20
-2.16457
 30
0.0
 10
-1.58164
 20
-1.94725
 30
0.0
 10
-1.58164
 20
-1.94725
 30
0.0
 10
-1.77005
 20
-1.62528
 30
0.0
 10
-1.85704
 20
-1.46657
 30
0.0
 10
-1.93441
 20
-1.06531
 30
0.0
 10
-1.93441
 20
-1.06531
 30
0.0
 10
-1.9658
 20
-0.93214
 30
0.0
 10
-1.94686
 20
-0.7637
 30
0.0
 10
-1.96969
 20
-0.64197
 30
0.0
 10
-1.96969
 20
-0.64197
 30
0.0
 10
-2.06274
 20
-0.59802
 30
0.0
 10
-2.19678
 20
-0.305
 30
0.0
 10
-2.04025
 20
0.0283
 30
0.0
 10
-2.04025
 20
0.0283
 30
0.0
 10
-1.98046
 20
0.15033
 30
0.0
 10
-1.73765
 20
0.33843
 30
0.0
 10
-1.58164
 20
0.41636
 30
0.0
 10
-1.58164
 20
0.41636
 30
0.0
 10
-1.36212
 20
0.52601
 30
0.0
 10
-1.22843
 20
0.5695
 30
0.0
 10
-1.15664
 20
0.61264
 30
0.0
 10
-1.15664
 20
0.61264
 30
0.0
 10
-0.95574
 20
0.71816
 30
0.0
 10
-1.03126
 20
0.7884
 30
0.0
 10
-0.82329
 20
0.84597
 30
0.0
 10
-0.82329
 20
0.84597
 30
0.0
 10
-0.82329
 20
0.66504
 30
0.0
 10
-0.82328
 20
0.48691
 30
0.0
 10
-0.82328
 20
0.30613
 30
0.0
 10
-0.82328
 20
0.30613
 30
0.0
 10
-0.82328
 20
0.30613
 30
0.0
 10
-0.67328
 20
0.30613
 30
0.0
 10
-0.67328
 20
0.30613
 30
0.0
 10
-0.67328
 20
0.30613
 30
0.0
 10
-0.67328
 20
0.52103
 30
0.0
 10
-0.67315
 20
0.73507
 30
0.0
 10
-0.67315
 20
0.95221
 30
0.0
 10
-0.67315
 20
0.95221
 30
0.0
 10
-0.59523
 20
0.99025
 30
0.0
 10
-0.49722
 20
0.9991
 30
0.0
 10
-0.36773
 20
0.94884
 30
0.0
 10
-0.36773
 20
0.94884
 30
0.0
 10
-0.36773
 20
0.73536
 30
0.0
 10
-0.36724
 20
0.51934
 30
0.0
 10
-0.36724
 20
0.30613
 30
0.0
 10
-0.36724
 20
0.30613
 30
0.0
 10
-0.36724
 20
0.30613
 30
0.0
 10
-0.21724
 20
0.30613
 30
0.0
 10
-0.21724
 20
0.30613
 30
0.0
 10
-0.21724
 20
0.30613
 30
0.0
 10
-0.21724
 20
0.48518
 30
0.0
 10
-0.21723
 20
0.66556
 30
0.0
 10
-0.21723
 20
0.84597
 30
0.0
 10
-0.21723
 20
0.84597
 30
0.0
 10
-0.06028
 20
0.82813
 30
0.0
 10
-0.07262
 20
0.72359
 30
0.0
 10
0.07226
 20
0.63064
 30
0.0
 10
0.07226
 20
0.63064
 30
0.0
 10
0.14296
 20
0.59352
 30
0.0
 10
0.2837
 20
0.5419
 30
0.0
 10
0.53503
 20
0.41636
 30
0.0
 10
0.53503
 20
0.41636
 30
0.0
 10
1.04316
 20
0.16254
 30
0.0
 10
1.25269
 20
-0.31655
 30
0.0
 10
0.88781
 20
-0.71253
 30
0.0
 10
0.88781
 20
-0.71253
 30
0.0
 10
0.94012
 20
-0.98336
 30
0.0
 10
0.71399
 20
-2.11279
 30
0.0
 10
-0.02941
 20
-2.44114
 30
0.0
 10
-0.02941
 20
-2.44114
 30
0.0
 10
-0.25854
 20
-2.55558
 30
0.0
 10
-0.3519
 20
-2.53193
 30
0.0
 10
-0.43654
 20
-2.41035
 30
0.0
 10
-0.43654
 20
-2.41035
 30
0.0
 10
-0.43654
 20
-2.34858
 30
0.0
 10
-0.43654
 20
-2.28428
 30
0.0
 10
-0.43654
 20
-2.22265
 30
0.0
 10
-0.43654
 20
-2.22265
 30
0.0
 10
-0.49549
 20
-2.22265
 30
0.0
 10
-0.54454
 20
-2.22348
 30
0.0
 10
-0.60398
 20
-2.22348
 30
0.0
 10
-0.60398
 20
-2.22348
 30
0.0
 10
-0.60398
 20
-2.22348
 30
0.0
 10
-0.60398
 20
-2.41035
 30
0.0
 10
-0.60398
 20
-2.41035
 30
0.0
 10
-0.60398
 20
-2.41035
 30
0.0
 10
-0.75848
 20
-2.5586
 30
0.0
 10
-0.81973
 20
-2.54269
 30
0.0
 10
-1.03372
 20
-2.45272
 30
0.0
  0
SPLINE
  5
5A
330
1F
100
AcDbEntity
  8
Livello 1
 62
   250
370
    20
100
AcDbSpline
210
0.0
220
0.0
230
1.0
 70
    11
 71
     3
 72
    52
 73
    48
 74
     0
 42
0.0000000001
 43
0.0000000001
 40
0.0
 40
0.0
 40
0.0
 40
0.0
 40
0.0769230769230769
 40
0.0769230769230769
 40
0.0769230769230769
 40
0.0769230769230769
 40
0.1538461538461539
 40
0.1538461538461539
 40
0.1538461538461539
 40
0.1538461538461539
 40
0.2307692307692308
 40
0.2307692307692308
 40
0.2307692307692308
 40
0.2307692307692308
 40
0.3076923076923077
 40
0.3076923076923077
 40
0.3076923076923077
 40
0.3076923076923077
 40
0.3846153846153846
 40
0.3846153846153846
 40
0.3846153846153846
 40
0.3846153846153846
 40
0.4615384615384616
 40
0.4615384615384616
 40
0.4615384615384616
 40
0.4615384615384616
 40
0.5384615384615384
 40
0.5384615384615384
 40
0.5384615384615384
 40
0.5384615384615384
 40
0.6153846153846154
 40
0.6153846153846154
 40
0.6153846153846154
 40
0.6153846153846154
 40
0.6923076923076923
 40
0.6923076923076923
 40
0.6923076923076923
 40
0.6923076923076923
 40
0.7692307692307693
 40
0.7692307692307693
 40
0.7692307692307693
 40
0.7692307692307693
 40
0.8461538461538461
 40
0.8461538461538461
 40
0.8461538461538461
 40
0.8461538461538461
 40
1.0
 40
1.0
 40
1.0
 40
1.0
 10
-0.81786
 20
-2.07552
 30
0.0
 10
-0.81786
 20
-1.97467
 30
0.0
 10
-0.81787
 20
-1.88027
 30
0.0
 10
-0.81787
 20
-1.77942
 30
0.0
 10
-0.81787
 20
-1.77942
 30
0.0
 10
-0.92719
 20
-1.74727
 30
0.0
 10
-1.00827
 20
-1.69415
 30
0.0
 10
-1.08452
 20
-1.63389
 30
0.0
 10
-1.08452
 20
-1.63389
 30
0.0
 10
-1.38277
 20
-1.39538
 30
0.0
 10
-1.49259
 20
-0.80502
 30
0.0
 10
-1.18816
 20
-0.43031
 30
0.0
 10
-1.18816
 20
-0.43031
 30
0.0
 10
-1.01455
 20
-0.21661
 30
0.0
 10
-0.8126
 20
-0.11281
 30
0.0
 10
-0.51788
 20
-0.11281
 30
0.0
 10
-0.51788
 20
-0.11281
 30
0.0
 10
-0.08228
 20
-0.11281
 30
0.0
 10
0.31555
 20
-0.43979
 30
0.0
 10
0.32878
 20
-0.85364
 30
0.0
 10
0.32878
 20
-0.85364
 30
0.0
 10
0.32878
 20
-1.29603
 30
0.0
 10
0.2706
 20
-1.59707
 30
0.0
 10
-0.21182
 20
-1.77739
 30
0.0
 10
-0.21182
 20
-1.77739
 30
0.0
 10
-0.21182
 20
-1.77739
 30
0.0
 10
-0.21182
 20
-2.07552
 30
0.0
 10
-0.21182
 20
-2.07552
 30
0.0
 10
-0.21182
 20
-2.07552
 30
0.0
 10
-0.21182
 20
-2.07552
 30
0.0
 10
-0.36182
 20
-2.07552
 30
0.0
 10
-0.36182
 20
-2.07552
 30
0.0
 10
-0.36182
 20
-2.07552
 30
0.0
 10
-0.36182
 20
-2.07552
 30
0.0
 10
-0.36182
 20
-1.8373
 30
0.0
 10
-0.36182
 20
-1.8373
 30
0.0
 10
-0.36182
 20
-1.8373
 30
0.0
 10
-0.36182
 20
-1.8373
 30
0.0
 10
-0.66787
 20
-1.83728
 30
0.0
 10
-0.66787
 20
-1.83728
 30
0.0
 10
-0.66787
 20
-1.83728
 30
0.0
 10
-0.66787
 20
-1.83728
 30
0.0
 10
-0.66786
 20
-2.07552
 30
0.0
 10
-0.66786
 20
-2.07552
 30
0.0
 10
-0.66786
 20
-2.07552
 30
0.0
 10
-0.66786
 20
-2.07552
 30
0.0
 10
-0.81786
 20
-2.07552
 30
0.0
 10
-0.81786
 20
-2.07552
 30
0.0
  0
SPLINE
  5
5B
330
1F
100
AcDbEntity
  8
Livello 1
 62
   250
370
    20
100
AcDbSpline
210
0.0
220
0.0
230
1.0
 70
    11
 71
     3
 72
    88
 73
    84
 74
     0
 42
0.0000000001
 43
0.0000000001
 40
0.0
 40
0.0
 40
0.0
 40
0.0
 40
0.0454545454545455
 40
0.0454545454545455
 40
0.0454545454545455
 40
0.0454545454545455
 40
0.0909090909090909
 40
0.0909090909090909
 40
0.0909090909090909
 40
0.0909090909090909
 40
0.1363636363636364
 40
0.1363636363636364
 40
0.1363636363636364
 40
0.1363636363636364
 40
0.1818181818181818
 40
0.1818181818181818
 40
0.1818181818181818
 40
0.1818181818181818
 40
0.2272727272727273
 40
0.2272727272727273
 40
0.2272727272727273
 40
0.2272727272727273
 40
0.2727272727272727
 40
0.2727272727272727
 40
0.2727272727272727
 40
0.2727272727272727
 40
0.3181818181818182
 40
0.3181818181818182
 40
0.3181818181818182
 40
0.3181818181818182
 40
0.3636363636363636
 40
0.3636363636363636
 40
0.3636363636363636
 40
0.3636363636363636
 40
0.4090909090909091
 40
0.4090909090909091
 40
0.4090909090909091
 40
0.4090909090909091
 40
0.4545454545454545
 40
0.4545454545454545
 40
0.4545454545454545
 40
0.4545454545454545
 40
0.5
 40
0.5
 40
0.5
 40
0.5
 40
0.5454545454545454
 40
0.5454545454545454
 40
0.5454545454545454
 40
0.5454545454545454
 40
0.5909090909090909
 40
0.5909090909090909
 40
0.5909090909090909
 40
0.5909090909090909
 40
0.6363636363636364
 40
0.6363636363636364
 40
0.6363636363636364
 40
0.6363636363636364
 40
0.6818181818181818
 40
0.6818181818181818
 40
0.6818181818181818
 40
0.6818181818181818
 40
0.7272727272727273
 40
0.7272727272727273
 40
0.7272727272727273
 40
0.7272727272727273
 40
0.7727272727272727
 40
0.7727272727272727
 40
0.7727272727272727
 40
0.7727272727272727
 40
0.8181818181818182
 40
0.8181818181818182
 40
0.8181818181818182
 40
0.8181818181818182
 40
0.8636363636363636
 40
0.8636363636363636
 40
0.8636363636363636
 40
0.8636363636363636
 40
0.9090909090909091
 40
0.9090909090909091
 40
0.9090909090909091
 40
0.9090909090909091
 40
1.0
 40
1.0
 40
1.0
 40
1.0
 10
-0.43654
 20
5.54045
 30
0.0
 10
-0.43654
 20
5.54045
 30
0.0
 10
-0.43654
 20
4.43944
 30
0.0
 10
-0.43654
 20
4.43944
 30
0.0
 10
-0.43654
 20
4.43944
 30
0.0
 10
-0.35937
 20
4.38702
 30
0.0
 10
-0.21507
 20
4.37111
 30
0.0
 10
-0.16153
 20
4.40087
 30
0.0
 10
-0.16153
 20
4.40087
 30
0.0
 10
0.29413
 20
4.64768
 30
0.0
 10
0.43819
 20
4.99814
 30
0.0
 10
0.43819
 20
5.49448
 30
0.0
 10
0.43819
 20
5.49448
 30
0.0
 10
0.43819
 20
5.70829
 30
0.0
 10
0.41388
 20
5.70837
 30
0.0
 10
0.36763
 20
5.95309
 30
0.0
 10
0.36763
 20
5.95309
 30
0.0
 10
0.63104
 20
6.09287
 30
0.0
 10
0.6348
 20
6.32181
 30
0.0
 10
0.5251
 20
6.54501
 30
0.0
 10
0.5251
 20
6.54501
 30
0.0
 10
0.39858
 20
6.89285
 30
0.0
 10
-0.02729
 20
7.16474
 30
0.0
 10
-0.21724
 20
7.18956
 30
0.0
 10
-0.21724
 20
7.18956
 30
0.0
 10
-0.21724
 20
7.18956
 30
0.0
 10
-0.21724
 20
6.656
 30
0.0
 10
-0.21724
 20
6.656
 30
0.0
 10
-0.21724
 20
6.656
 30
0.0
 10
-0.26742
 20
6.656
 30
0.0
 10
-0.31708
 20
6.656
 30
0.0
 10
-0.36724
 20
6.656
 30
0.0
 10
-0.36724
 20
6.656
 30
0.0
 10
-0.36724
 20
6.656
 30
0.0
 10
-0.36723
 20
7.21955
 30
0.0
 10
-0.36723
 20
7.21955
 30
0.0
 10
-0.36723
 20
7.21955
 30
0.0
 10
-0.41655
 20
7.24951
 30
0.0
 10
-0.45181
 20
7.26063
 30
0.0
 10
-0.52026
 20
7.26012
 30
0.0
 10
-0.52026
 20
7.26012
 30
0.0
 10
-0.58871
 20
7.26063
 30
0.0
 10
-0.62397
 20
7.24951
 30
0.0
 10
-0.67329
 20
7.21955
 30
0.0
 10
-0.67329
 20
7.21955
 30
0.0
 10
-0.67329
 20
7.21955
 30
0.0
 10
-0.67328
 20
6.656
 30
0.0
 10
-0.67328
 20
6.656
 30
0.0
 10
-0.67328
 20
6.656
 30
0.0
 10
-0.72344
 20
6.656
 30
0.0
 10
-0.7731
 20
6.656
 30
0.0
 10
-0.82328
 20
6.656
 30
0.0
 10
-0.82328
 20
6.656
 30
0.0
 10
-0.82328
 20
6.656
 30
0.0
 10
-0.82329
 20
7.18956
 30
0.0
 10
-0.82329
 20
7.18956
 30
0.0
 10
-0.82329
 20
7.18956
 30
0.0
 10
-1.01324
 20
7.16474
 30
0.0
 10
-1.4391
 20
6.89285
 30
0.0
 10
-1.56562
 20
6.54501
 30
0.0
 10
-1.56562
 20
6.54501
 30
0.0
 10
-1.67532
 20
6.32181
 30
0.0
 10
-1.67156
 20
6.09287
 30
0.0
 10
-1.40815
 20
5.95309
 30
0.0
 10
-1.40815
 20
5.95309
 30
0.0
 10
-1.4544
 20
5.70837
 30
0.0
 10
-1.47871
 20
5.70829
 30
0.0
 10
-1.47871
 20
5.49448
 30
0.0
 10
-1.47871
 20
5.49448
 30
0.0
 10
-1.47871
 20
4.99814
 30
0.0
 10
-1.33465
 20
4.64768
 30
0.0
 10
-0.87899
 20
4.40087
 30
0.0
 10
-0.87899
 20
4.40087
 30
0.0
 10
-0.81719
 20
4.37111
 30
0.0
 10
-0.68115
 20
4.38868
 30
0.0
 10
-0.60398
 20
4.4411
 30
0.0
 10
-0.60398
 20
4.4411
 30
0.0
 10
-0.60398
 20
4.4411
 30
0.0
 10
-0.60398
 20
5.54045
 30
0.0
 10
-0.60398
 20
5.54045
 30
0.0
 10
-0.60398
 20
5.54045
 30
0.0
 10
-0.60398
 20
5.54045
 30
0.0
 10
-0.43654
 20
5.54045
 30
0.0
 10
-0.43654
 20
5.54045
 30
0.0
  0
SPLINE
  5
5C
330
1F
100
AcDbEntity
  8
Livello 1
 62
   250
370
    20
100
AcDbSpline
210
0.0
220
0.0
230
1.0
 70
    11
 71
     3
 72
    32
 73
    28
 74
     0
 42
0.0000000001
 43
0.0000000001
 40
0.0
 40
0.0
 40
0.0
 40
0.0
 40
0.125
 40
0.125
 40
0.125
 40
0.125
 40
0.25
 40
0.25
 40
0.25
 40
0.25
 40
0.375
 40
0.375
 40
0.375
 40
0.375
 40
0.5
 40
0.5
 40
0.5
 40
0.5
 40
0.625
 40
0.625
 40
0.625
 40
0.625
 40
0.75
 40
0.75
 40
0.75
 40
0.75
 40
1.0
 40
1.0
 40
1.0
 40
1.0
 10
-0.52026
 20
3.03213
 30
0.0
 10
-0.29377
 20
3.03213
 30
0.0
 10
-0.11016
 20
2.84852
 30
0.0
 10
-0.11016
 20
2.62203
 30
0.0
 10
-0.11016
 20
2.62203
 30
0.0
 10
-0.11016
 20
2.42116
 30
0.0
 10
-0.25459
 20
2.25404
 30
0.0
 10
-0.44526
 20
2.21879
 30
0.0
 10
-0.44526
 20
2.21879
 30
0.0
 10
-0.44526
 20
2.21879
 30
0.0
 10
-0.44526
 20
2.68483
 30
0.0
 10
-0.44526
 20
2.68483
 30
0.0
 10
-0.44526
 20
2.68483
 30
0.0
 10
-0.44526
 20
2.68483
 30
0.0
 10
-0.59526
 20
2.68483
 30
0.0
 10
-0.59526
 20
2.68483
 30
0.0
 10
-0.59526
 20
2.68483
 30
0.0
 10
-0.59526
 20
2.68483
 30
0.0
 10
-0.59526
 20
2.21879
 30
0.0
 10
-0.59526
 20
2.21879
 30
0.0
 10
-0.59526
 20
2.21879
 30
0.0
 10
-0.78593
 20
2.25404
 30
0.0
 10
-0.93036
 20
2.42116
 30
0.0
 10
-0.93036
 20
2.62203
 30
0.0
 10
-0.93036
 20
2.62203
 30
0.0
 10
-0.93036
 20
2.84852
 30
0.0
 10
-0.74675
 20
3.03213
 30
0.0
 10
-0.52026
 20
3.03213
 30
0.0
  0
SPLINE
  5
5D
330
1F
100
AcDbEntity
  8
Livello 1
 62
   250
370
    20
100
AcDbSpline
210
0.0
220
0.0
230
1.0
 70
    11
 71
     3
 72
    92
 73
    88
 74
     0
 42
0.0000000001
 43
0.0000000001
 40
0.0
 40
0.0
 40
0.0
 40
0.0
 40
0.0434782608695652
 40
0.0434782608695652
 40
0.0434782608695652
 40
0.0434782608695652
 40
0.0869565217391304
 40
0.0869565217391304
 40
0.0869565217391304
 40
0.0869565217391304
 40
0.1304347826086956
 40
0.1304347826086956
 40
0.1304347826086956
 40
0.1304347826086956
 40
0.1739130434782609
 40
0.1739130434782609
 40
0.1739130434782609
 40
0.1739130434782609
 40
0.2173913043478261
 40
0.2173913043478261
 40
0.2173913043478261
 40
0.2173913043478261
 40
0.2608695652173913
 40
0.2608695652173913
 40
0.2608695652173913
 40
0.2608695652173913
 40
0.3043478260869565
 40
0.3043478260869565
 40
0.3043478260869565
 40
0.3043478260869565
 40
0.3478260869565217
 40
0.3478260869565217
 40
0.3478260869565217
 40
0.3478260869565217
 40
0.391304347826087
 40
0.391304347826087
 40
0.391304347826087
 40
0.391304347826087
 40
0.4347826086956522
 40
0.4347826086956522
 40
0.4347826086956522
 40
0.4347826086956522
 40
0.4782608695652174
 40
0.4782608695652174
 40
0.4782608695652174
 40
0.4782608695652174
 40
0.5217391304347826
 40
0.5217391304347826
 40
0.5217391304347826
 40
0.5217391304347826
 40
0.5652173913043478
 40
0.5652173913043478
 40
0.5652173913043478
 40
0.5652173913043478
 40
0.6086956521739131
 40
0.6086956521739131
 40
0.6086956521739131
 40
0.6086956521739131
 40
0.6521739130434783
 40
0.6521739130434783
 40
0.6521739130434783
 40
0.6521739130434783
 40
0.6956521739130435
 40
0.6956521739130435
 40
0.6956521739130435
 40
0.6956521739130435
 40
0.7391304347826086
 40
0.7391304347826086
 40
0.7391304347826086
 40
0.7391304347826086
 40
0.782608695652174
 40
0.782608695652174
 40
0.782608695652174
 40
0.782608695652174
 40
0.8260869565217391
 40
0.8260869565217391
 40
0.8260869565217391
 40
0.8260869565217391
 40
0.8695652173913043
 40
0.8695652173913043
 40
0.8695652173913043
 40
0.8695652173913043
 40
0.9130434782608695
 40
0.9130434782608695
 40
0.9130434782608695
 40
0.9130434782608695
 40
1.0
 40
1.0
 40
1.0
 40
1.0
 10
-0.52026
 20
4.31147
 30
0.0
 10
-0.52026
 20
4.31147
 30
0.0
 10
-0.36723
 20
4.30992
 30
0.0
 10
-0.36723
 20
4.30992
 30
0.0
 10
-0.36723
 20
4.30992
 30
0.0
 10
-0.36723
 20
4.30992
 30
0.0
 10
-0.36724
 20
3.74637
 30
0.0
 10
-0.36724
 20
3.74637
 30
0.0
 10
-0.36724
 20
3.74637
 30
0.0
 10
-0.31666
 20
3.74637
 30
0.0
 10
-0.26756
 20
3.74637
 30
0.0
 10
-0.21724
 20
3.74637
 30
0.0
 10
-0.21724
 20
3.74637
 30
0.0
 10
-0.21724
 20
3.74637
 30
0.0
 10
-0.21723
 20
4.28621
 30
0.0
 10
-0.21723
 20
4.28621
 30
0.0
 10
-0.21723
 20
4.28621
 30
0.0
 10
0.0169
 20
4.24197
 30
0.0
 10
0.22937
 20
4.12163
 30
0.0
 10
0.42695
 20
3.99242
 30
0.0
 10
0.42695
 20
3.99242
 30
0.0
 10
1.23686
 20
3.32387
 30
0.0
 10
0.70984
 20
2.93581
 30
0.0
 10
0.70917
 20
2.93409
 30
0.0
 10
0.70917
 20
2.93409
 30
0.0
 10
0.67312
 20
2.84188
 30
0.0
 10
0.85535
 20
1.87922
 30
0.0
 10
0.14473
 20
1.20547
 30
0.0
 10
0.14473
 20
1.20547
 30
0.0
 10
0.07043
 20
1.11846
 30
0.0
 10
-0.1087
 20
0.99184
 30
0.0
 10
-0.2786
 20
1.09964
 30
0.0
 10
-0.2786
 20
1.09964
 30
0.0
 10
-0.38276
 20
1.16572
 30
0.0
 10
-0.42166
 20
1.2414
 30
0.0
 10
-0.43654
 20
1.31834
 30
0.0
 10
-0.43654
 20
1.31834
 30
0.0
 10
-0.43654
 20
1.31834
 30
0.0
 10
-0.43654
 20
1.70176
 30
0.0
 10
-0.43654
 20
1.70176
 30
0.0
 10
-0.43654
 20
1.70176
 30
0.0
 10
-0.43654
 20
1.70176
 30
0.0
 10
-0.52026
 20
1.70176
 30
0.0
 10
-0.52026
 20
1.70176
 30
0.0
 10
-0.52026
 20
1.70176
 30
0.0
 10
-0.52026
 20
1.70176
 30
0.0
 10
-0.60398
 20
1.70176
 30
0.0
 10
-0.60398
 20
1.70176
 30
0.0
 10
-0.60398
 20
1.70176
 30
0.0
 10
-0.60398
 20
1.70176
 30
0.0
 10
-0.60398
 20
1.31834
 30
0.0
 10
-0.60398
 20
1.31834
 30
0.0
 10
-0.60398
 20
1.31834
 30
0.0
 10
-0.61886
 20
1.2414
 30
0.0
 10
-0.65776
 20
1.16572
 30
0.0
 10
-0.76192
 20
1.09964
 30
0.0
 10
-0.76192
 20
1.09964
 30
0.0
 10
-0.93182
 20
0.99184
 30
0.0
 10
-1.11095
 20
1.11846
 30
0.0
 10
-1.18525
 20
1.20547
 30
0.0
 10
-1.18525
 20
1.20547
 30
0.0
 10
-1.89587
 20
1.87922
 30
0.0
 10
-1.71364
 20
2.84188
 30
0.0
 10
-1.74969
 20
2.93409
 30
0.0
 10
-1.74969
 20
2.93409
 30
0.0
 10
-1.75036
 20
2.93581
 30
0.0
 10
-2.27738
 20
3.32387
 30
0.0
 10
-1.46747
 20
3.99242
 30
0.0
 10
-1.46747
 20
3.99242
 30
0.0
 10
-1.26989
 20
4.12163
 30
0.0
 10
-1.05742
 20
4.24197
 30
0.0
 10
-0.82329
 20
4.28621
 30
0.0
 10
-0.82329
 20
4.28621
 30
0.0
 10
-0.82329
 20
4.28621
 30
0.0
 10
-0.82328
 20
3.74637
 30
0.0
 10
-0.82328
 20
3.74637
 30
0.0
 10
-0.82328
 20
3.74637
 30
0.0
 10
-0.77296
 20
3.74637
 30
0.0
 10
-0.72386
 20
3.74637
 30
0.0
 10
-0.67328
 20
3.74637
 30
0.0
 10
-0.67328
 20
3.74637
 30
0.0
 10
-0.67328
 20
3.74637
 30
0.0
 10
-0.67329
 20
4.30992
 30
0.0
 10
-0.67329
 20
4.30992
 30
0.0
 10
-0.67329
 20
4.30992
 30
0.0
 10
-0.67329
 20
4.30992
 30
0.0
 10
-0.52026
 20
4.31147
 30
0.0
 10
-0.52026
 20
4.31147
 30
0.0
  0
SPLINE
  5
5E
330
1F
100
AcDbEntity
  8
Livello 1
 62
   250
370
    20
100
AcDbSpline
210
0.0
220
0.0
230
1.0
 70
    11
 71
     3
 72
    16
 73
    12
 74
     0
 42
0.0000000001
 43
0.0000000001
 40
0.0
 40
0.0
 40
0.0
 40
0.0
 40
0.25
 40
0.25
 40
0.25
 40
0.25
 40
0.5
 40
0.5
 40
0.5
 40
0.5
 40
1.0
 40
1.0
 40
1.0
 40
1.0
 10
-0.79719
 20
2.05213
 30
0.0
 10
-1.61772
 20
2.49112
 30
0.0
 10
-1.0079
 20
3.62111
 30
0.0
 10
-0.19747
 20
3.25159
 30
0.0
 10
-0.19747
 20
3.25159
 30
0.0
 10
0.16081
 20
3.08822
 30
0.0
 10
0.33431
 20
2.41514
 30
0.0
 10
-0.1622
 20
2.08741
 30
0.0
 10
-0.1622
 20
2.08741
 30
0.0
 10
-0.37951
 20
1.94397
 30
0.0
 10
-0.58068
 20
1.96109
 30
0.0
 10
-0.79719
 20
2.05213
 30
0.0
  0
SPLINE
  5
5F
330
1F
100
AcDbEntity
  8
Livello 1
 62
   250
370
    20
100
AcDbSpline
210
0.0
220
0.0
230
1.0
 70
    11
 71
     3
 72
    56
 73
    52
 74
     0
 42
0.0000000001
 43
0.0000000001
 40
0.0
 40
0.0
 40
0.0
 40
0.0
 40
0.0714285714285714
 40
0.0714285714285714
 40
0.0714285714285714
 40
0.0714285714285714
 40
0.1428571428571428
 40
0.1428571428571428
 40
0.1428571428571428
 40
0.1428571428571428
 40
0.2142857142857143
 40
0.2142857142857143
 40
0.2142857142857143
 40
0.2142857142857143
 40
0.2857142857142857
 40
0.2857142857142857
 40
0.2857142857142857
 40
0.2857142857142857
 40
0.3571428571428572
 40
0.3571428571428572
 40
0.3571428571428572
 40
0.3571428571428572
 40
0.4285714285714285
 40
0.4285714285714285
 40
0.4285714285714285
 40
0.4285714285714285
 40
0.5
 40
0.5
 40
0.5
 40
0.5
 40
0.5714285714285714
 40
0.5714285714285714
 40
0.5714285714285714
 40
0.5714285714285714
 40
0.6428571428571429
 40
0.6428571428571429
 40
0.6428571428571429
 40
0.6428571428571429
 40
0.7142857142857143
 40
0.7142857142857143
 40
0.7142857142857143
 40
0.7142857142857143
 40
0.7857142857142857
 40
0.7857142857142857
 40
0.7857142857142857
 40
0.7857142857142857
 40
0.8571428571428571
 40
0.8571428571428571
 40
0.8571428571428571
 40
0.8571428571428571
 40
1.0
 40
1.0
 40
1.0
 40
1.0
 10
-3.8219
 20
3.86609
 30
0.0
 10
-3.76926
 20
3.95854
 30
0.0
 10
-3.74969
 20
3.96653
 30
0.0
 10
-3.70575
 20
4.00007
 30
0.0
 10
-3.70575
 20
4.00007
 30
0.0
 10
-3.70575
 20
4.00007
 30
0.0
 10
-3.70575
 20
4.35932
 30
0.0
 10
-3.70575
 20
4.35932
 30
0.0
 10
-3.70575
 20
4.35932
 30
0.0
 10
-3.70575
 20
4.35932
 30
0.0
 10
-3.55575
 20
4.35932
 30
0.0
 10
-3.55575
 20
4.35932
 30
0.0
 10
-3.55575
 20
4.35932
 30
0.0
 10
-3.55575
 20
4.35932
 30
0.0
 10
-3.55575
 20
4.11039
 30
0.0
 10
-3.55575
 20
4.11039
 30
0.0
 10
-3.55575
 20
4.11039
 30
0.0
 10
-3.55575
 20
4.11039
 30
0.0
 10
-3.24725
 20
4.11039
 30
0.0
 10
-3.24725
 20
4.11039
 30
0.0
 10
-3.24725
 20
4.11039
 30
0.0
 10
-3.24725
 20
4.11039
 30
0.0
 10
-3.24725
 20
4.3613
 30
0.0
 10
-3.24725
 20
4.3613
 30
0.0
 10
-3.24725
 20
4.3613
 30
0.0
 10
-3.24725
 20
4.3613
 30
0.0
 10
-3.09725
 20
4.3613
 30
0.0
 10
-3.09725
 20
4.3613
 30
0.0
 10
-3.09725
 20
4.3613
 30
0.0
 10
-3.09725
 20
4.3613
 30
0.0
 10
-3.09725
 20
4.03851
 30
0.0
 10
-3.09725
 20
4.03851
 30
0.0
 10
-3.09725
 20
4.03851
 30
0.0
 10
-3.03645
 20
3.96165
 30
0.0
 10
-3.01075
 20
3.94715
 30
0.0
 10
-2.9539
 20
3.83365
 30
0.0
 10
-2.9539
 20
3.83365
 30
0.0
 10
-2.92467
 20
3.76465
 30
0.0
 10
-2.9109
 20
3.63856
 30
0.0
 10
-2.92672
 20
3.47407
 30
0.0
 10
-2.92672
 20
3.47407
 30
0.0
 10
-2.92804
 20
3.35893
 30
0.0
 10
-3.10053
 20
3.12396
 30
0.0
 10
-3.20894
 20
3.08601
 30
0.0
 10
-3.20894
 20
3.08601
 30
0.0
 10
-3.29779
 20
3.04558
 30
0.0
 10
-3.43829
 20
3.02835
 30
0.0
 10
-3.597
 20
3.08601
 30
0.0
 10
-3.597
 20
3.08601
 30
0.0
 10
-3.76928
 20
3.13655
 30
0.0
 10
-4.00219
 20
3.52574
 30
0.0
 10
-3.8219
 20
3.86609
 30
0.0
  0
SPLINE
  5
60
330
1F
100
AcDbEntity
  8
Livello 1
 62
   250
370
    20
100
AcDbSpline
210
0.0
220
0.0
230
1.0
 70
    11
 71
     3
 72
   148
 73
   144
 74
     0
 42
0.0000000001
 43
0.0000000001
 40
0.0
 40
0.0
 40
0.0
 40
0.0
 40
0.027027027027027
 40
0.027027027027027
 40
0.027027027027027
 40
0.027027027027027
 40
0.0540540540540541
 40
0.0540540540540541
 40
0.0540540540540541
 40
0.0540540540540541
 40
0.0810810810810811
 40
0.0810810810810811
 40
0.0810810810810811
 40
0.0810810810810811
 40
0.1081081081081081
 40
0.1081081081081081
 40
0.1081081081081081
 40
0.1081081081081081
 40
0.1351351351351351
 40
0.1351351351351351
 40
0.1351351351351351
 40
0.1351351351351351
 40
0.1621621621621622
 40
0.1621621621621622
 40
0.1621621621621622
 40
0.1621621621621622
 40
0.1891891891891892
 40
0.1891891891891892
 40
0.1891891891891892
 40
0.1891891891891892
 40
0.2162162162162162
 40
0.2162162162162162
 40
0.2162162162162162
 40
0.2162162162162162
 40
0.2432432432432433
 40
0.2432432432432433
 40
0.2432432432432433
 40
0.2432432432432433
 40
0.2702702702702703
 40
0.2702702702702703
 40
0.2702702702702703
 40
0.2702702702702703
 40
0.2972972972972973
 40
0.2972972972972973
 40
0.2972972972972973
 40
0.2972972972972973
 40
0.3243243243243243
 40
0.3243243243243243
 40
0.3243243243243243
 40
0.3243243243243243
 40
0.3513513513513514
 40
0.3513513513513514
 40
0.3513513513513514
 40
0.3513513513513514
 40
0.3783783783783784
 40
0.3783783783783784
 40
0.3783783783783784
 40
0.3783783783783784
 40
0.4054054054054054
 40
0.4054054054054054
 40
0.4054054054054054
 40
0.4054054054054054
 40
0.4324324324324325
 40
0.4324324324324325
 40
0.4324324324324325
 40
0.4324324324324325
 40
0.4594594594594595
 40
0.4594594594594595
 40
0.4594594594594595
 40
0.4594594594594595
 40
0.4864864864864865
 40
0.4864864864864865
 40
0.4864864864864865
 40
0.4864864864864865
 40
0.5135135135135135
 40
0.5135135135135135
 40
0.5135135135135135
 40
0.5135135135135135
 40
0.5405405405405406
 40
0.5405405405405406
 40
0.5405405405405406
 40
0.5405405405405406
 40
0.5675675675675675
 40
0.5675675675675675
 40
0.5675675675675675
 40
0.5675675675675675
 40
0.5945945945945946
 40
0.5945945945945946
 40
0.5945945945945946
 40
0.5945945945945946
 40
0.6216216216216216
 40
0.6216216216216216
 40
0.6216216216216216
 40
0.6216216216216216
 40
0.6486486486486487
 40
0.6486486486486487
 40
0.6486486486486487
 40
0.6486486486486487
 40
0.6756756756756757
 40
0.6756756756756757
 40
0.6756756756756757
 40
0.6756756756756757
 40
0.7027027027027027
 40
0.7027027027027027
 40
0.7027027027027027
 40
0.7027027027027027
 40
0.7297297297297297
 40
0.7297297297297297
 40
0.7297297297297297
 40
0.7297297297297297
 40
0.7567567567567568
 40
0.7567567567567568
 40
0.7567567567567568
 40
0.7567567567567568
 40
0.7837837837837838
 40
0.7837837837837838
 40
0.7837837837837838
 40
0.7837837837837838
 40
0.8108108108108109
 40
0.8108108108108109
 40
0.8108108108108109
 40
0.8108108108108109
 40
0.8378378378378378
 40
0.8378378378378378
 40
0.8378378378378378
 40
0.8378378378378378
 40
0.8648648648648649
 40
0.8648648648648649
 40
0.8648648648648649
 40
0.8648648648648649
 40
0.8918918918918919
 40
0.8918918918918919
 40
0.8918918918918919
 40
0.8918918918918919
 40
0.918918918918919
 40
0.918918918918919
 40
0.918918918918919
 40
0.918918918918919
 40
0.9459459459459459
 40
0.9459459459459459
 40
0.9459459459459459
 40
0.9459459459459459
 40
1.0
 40
1.0
 40
1.0
 40
1.0
 10
-3.39985
 20
4.59464
 30
0.0
 10
-3.39985
 20
4.59464
 30
0.0
 10
-3.48358
 20
4.59464
 30
0.0
 10
-3.48358
 20
4.59464
 30
0.0
 10
-3.48358
 20
4.59464
 30
0.0
 10
-3.48358
 20
4.59464
 30
0.0
 10
-3.48358
 20
4.95498
 30
0.0
 10
-3.48358
 20
4.95498
 30
0.0
 10
-3.48358
 20
4.95498
 30
0.0
 10
-4.06091
 20
4.92198
 30
0.0
 10
-4.27053
 20
4.70553
 30
0.0
 10
-4.65533
 20
4.32073
 30
0.0
 10
-4.65533
 20
4.32073
 30
0.0
 10
-4.79518
 20
4.10689
 30
0.0
 10
-4.85536
 20
3.99381
 30
0.0
 10
-4.93755
 20
3.75629
 30
0.0
 10
-4.93755
 20
3.75629
 30
0.0
 10
-4.95699
 20
3.66242
 30
0.0
 10
-4.95973
 20
3.53867
 30
0.0
 10
-4.84006
 20
3.47124
 30
0.0
 10
-4.84006
 20
3.47124
 30
0.0
 10
-4.76168
 20
3.59961
 30
0.0
 10
-4.6356
 20
3.82537
 30
0.0
 10
-4.55721
 20
3.96115
 30
0.0
 10
-4.55721
 20
3.96115
 30
0.0
 10
-4.55721
 20
3.96115
 30
0.0
 10
-4.42731
 20
3.88615
 30
0.0
 10
-4.42731
 20
3.88615
 30
0.0
 10
-4.42731
 20
3.88615
 30
0.0
 10
-4.42731
 20
3.88615
 30
0.0
 10
-4.80415
 20
3.23343
 30
0.0
 10
-4.80415
 20
3.23343
 30
0.0
 10
-4.80415
 20
3.23343
 30
0.0
 10
-4.79281
 20
3.16867
 30
0.0
 10
-4.78506
 20
3.13258
 30
0.0
 10
-4.68472
 20
3.04303
 30
0.0
 10
-4.68472
 20
3.04303
 30
0.0
 10
-4.68472
 20
3.04303
 30
0.0
 10
-4.25957
 20
3.7794
 30
0.0
 10
-4.25957
 20
3.7794
 30
0.0
 10
-4.25957
 20
3.7794
 30
0.0
 10
-4.25957
 20
3.7794
 30
0.0
 10
-4.12967
 20
3.7044
 30
0.0
 10
-4.12967
 20
3.7044
 30
0.0
 10
-4.12967
 20
3.7044
 30
0.0
 10
-4.12967
 20
3.7044
 30
0.0
 10
-4.60126
 20
2.88758
 30
0.0
 10
-4.60126
 20
2.88758
 30
0.0
 10
-4.60126
 20
2.88758
 30
0.0
 10
-4.49272
 20
2.71017
 30
0.0
 10
-4.29087
 20
2.51605
 30
0.0
 10
-4.11955
 20
2.39501
 30
0.0
 10
-4.11955
 20
2.39501
 30
0.0
 10
-3.98819
 20
2.3148
 30
0.0
 10
-3.84425
 20
2.25914
 30
0.0
 10
-3.70289
 20
2.22794
 30
0.0
 10
-3.70289
 20
2.22794
 30
0.0
 10
-3.70289
 20
2.39835
 30
0.0
 10
-3.70288
 20
2.57267
 30
0.0
 10
-3.70288
 20
2.7427
 30
0.0
 10
-3.70288
 20
2.7427
 30
0.0
 10
-3.70288
 20
2.7427
 30
0.0
 10
-3.55288
 20
2.7427
 30
0.0
 10
-3.55288
 20
2.7427
 30
0.0
 10
-3.55288
 20
2.7427
 30
0.0
 10
-3.55288
 20
2.57605
 30
0.0
 10
-3.55289
 20
2.41002
 30
0.0
 10
-3.55289
 20
2.24067
 30
0.0
 10
-3.55289
 20
2.24067
 30
0.0
 10
-3.529
 20
2.20867
 30
0.0
 10
-3.48283
 20
2.20315
 30
0.0
 10
-3.39985
 20
2.20297
 30
0.0
 10
-3.39985
 20
2.20297
 30
0.0
 10
-3.31688
 20
2.20315
 30
0.0
 10
-3.27073
 20
2.20783
 30
0.0
 10
-3.24684
 20
2.23983
 30
0.0
 10
-3.24684
 20
2.23983
 30
0.0
 10
-3.24684
 20
2.40918
 30
0.0
 10
-3.24684
 20
2.57605
 30
0.0
 10
-3.24684
 20
2.7427
 30
0.0
 10
-3.24684
 20
2.7427
 30
0.0
 10
-3.24684
 20
2.7427
 30
0.0
 10
-3.09684
 20
2.7427
 30
0.0
 10
-3.09684
 20
2.7427
 30
0.0
 10
-3.09684
 20
2.7427
 30
0.0
 10
-3.09684
 20
2.57267
 30
0.0
 10
-3.09684
 20
2.39794
 30
0.0
 10
-3.09684
 20
2.22753
 30
0.0
 10
-3.09684
 20
2.22753
 30
0.0
 10
-2.95548
 20
2.25873
 30
0.0
 10
-2.81152
 20
2.3148
 30
0.0
 10
-2.68016
 20
2.39501
 30
0.0
 10
-2.68016
 20
2.39501
 30
0.0
 10
-2.50884
 20
2.51605
 30
0.0
 10
-2.30699
 20
2.71017
 30
0.0
 10
-2.19845
 20
2.88758
 30
0.0
 10
-2.19845
 20
2.88758
 30
0.0
 10
-2.19845
 20
2.88758
 30
0.0
 10
-2.67004
 20
3.7044
 30
0.0
 10
-2.67004
 20
3.7044
 30
0.0
 10
-2.67004
 20
3.7044
 30
0.0
 10
-2.67004
 20
3.7044
 30
0.0
 10
-2.54014
 20
3.7794
 30
0.0
 10
-2.54014
 20
3.7794
 30
0.0
 10
-2.54014
 20
3.7794
 30
0.0
 10
-2.54014
 20
3.7794
 30
0.0
 10
-2.11499
 20
3.04303
 30
0.0
 10
-2.11499
 20
3.04303
 30
0.0
 10
-2.11499
 20
3.04303
 30
0.0
 10
-2.01465
 20
3.13258
 30
0.0
 10
-2.0069
 20
3.16867
 30
0.0
 10
-1.99556
 20
3.23343
 30
0.0
 10
-1.99556
 20
3.23343
 30
0.0
 10
-1.99556
 20
3.23343
 30
0.0
 10
-2.3724
 20
3.88615
 30
0.0
 10
-2.3724
 20
3.88615
 30
0.0
 10
-2.3724
 20
3.88615
 30
0.0
 10
-2.3724
 20
3.88615
 30
0.0
 10
-2.2425
 20
3.96115
 30
0.0
 10
-2.2425
 20
3.96115
 30
0.0
 10
-2.2425
 20
3.96115
 30
0.0
 10
-2.16411
 20
3.82537
 30
0.0
 10
-2.03803
 20
3.59961
 30
0.0
 10
-1.95965
 20
3.47124
 30
0.0
 10
-1.95965
 20
3.47124
 30
0.0
 10
-1.83998
 20
3.53867
 30
0.0
 10
-1.84272
 20
3.66242
 30
0.0
 10
-1.86216
 20
3.75629
 30
0.0
 10
-1.86216
 20
3.75629
 30
0.0
 10
-1.94435
 20
3.99381
 30
0.0
 10
-2.00453
 20
4.10689
 30
0.0
 10
-2.14438
 20
4.32073
 30
0.0
 10
-2.14438
 20
4.32073
 30
0.0
 10
-2.52918
 20
4.70553
 30
0.0
 10
-2.73881
 20
4.92198
 30
0.0
 10
-3.31614
 20
4.95498
 30
0.0
 10
-3.31614
 20
4.95498
 30
0.0
 10
-3.31614
 20
4.95498
 30
0.0
 10
-3.31614
 20
4.59464
 30
0.0
 10
-3.31614
 20
4.59464
 30
0.0
 10
-3.31614
 20
4.59464
 30
0.0
 10
-3.31614
 20
4.59464
 30
0.0
 10
-3.39985
 20
4.59464
 30
0.0
 10
-3.39985
 20
4.59464
 30
0.0
  0
SPLINE
  5
61
330
1F
100
AcDbEntity
  8
Livello 1
 62
   250
370
    20
100
AcDbSpline
210
0.0
220
0.0
230
1.0
 70
    11
 71
     3
 72
   132
 73
   128
 74
     0
 42
0.0000000001
 43
0.0000000001
 40
0.0
 40
0.0
 40
0.0
 40
0.0
 40
0.0303030303030303
 40
0.0303030303030303
 40
0.0303030303030303
 40
0.0303030303030303
 40
0.0606060606060606
 40
0.0606060606060606
 40
0.0606060606060606
 40
0.0606060606060606
 40
0.0909090909090909
 40
0.0909090909090909
 40
0.0909090909090909
 40
0.0909090909090909
 40
0.1212121212121212
 40
0.1212121212121212
 40
0.1212121212121212
 40
0.1212121212121212
 40
0.1515151515151515
 40
0.1515151515151515
 40
0.1515151515151515
 40
0.1515151515151515
 40
0.1818181818181818
 40
0.1818181818181818
 40
0.1818181818181818
 40
0.1818181818181818
 40
0.2121212121212121
 40
0.2121212121212121
 40
0.2121212121212121
 40
0.2121212121212121
 40
0.2424242424242424
 40
0.2424242424242424
 40
0.2424242424242424
 40
0.2424242424242424
 40
0.2727272727272727
 40
0.2727272727272727
 40
0.2727272727272727
 40
0.2727272727272727
 40
0.303030303030303
 40
0.303030303030303
 40
0.303030303030303
 40
0.303030303030303
 40
0.3333333333333333
 40
0.3333333333333333
 40
0.3333333333333333
 40
0.3333333333333333
 40
0.3636363636363636
 40
0.3636363636363636
 40
0.3636363636363636
 40
0.3636363636363636
 40
0.3939393939393939
 40
0.3939393939393939
 40
0.3939393939393939
 40
0.3939393939393939
 40
0.4242424242424243
 40
0.4242424242424243
 40
0.4242424242424243
 40
0.4242424242424243
 40
0.4545454545454545
 40
0.4545454545454545
 40
0.4545454545454545
 40
0.4545454545454545
 40
0.4848484848484849
 40
0.4848484848484849
 40
0.4848484848484849
 40
0.4848484848484849
 40
0.5151515151515151
 40
0.5151515151515151
 40
0.5151515151515151
 40
0.5151515151515151
 40
0.5454545454545454
 40
0.5454545454545454
 40
0.5454545454545454
 40
0.5454545454545454
 40
0.5757575757575758
 40
0.5757575757575758
 40
0.5757575757575758
 40
0.5757575757575758
 40
0.6060606060606061
 40
0.6060606060606061
 40
0.6060606060606061
 40
0.6060606060606061
 40
0.6363636363636364
 40
0.6363636363636364
 40
0.6363636363636364
 40
0.6363636363636364
 40
0.6666666666666666
 40
0.6666666666666666
 40
0.6666666666666666
 40
0.6666666666666666
 40
0.696969696969697
 40
0.696969696969697
 40
0.696969696969697
 40
0.696969696969697
 40
0.7272727272727273
 40
0.7272727272727273
 40
0.7272727272727273
 40
0.7272727272727273
 40
0.7575757575757576
 40
0.7575757575757576
 40
0.7575757575757576
 40
0.7575757575757576
 40
0.7878787878787878
 40
0.7878787878787878
 40
0.7878787878787878
 40
0.7878787878787878
 40
0.8181818181818182
 40
0.8181818181818182
 40
0.8181818181818182
 40
0.8181818181818182
 40
0.8484848484848485
 40
0.8484848484848485
 40
0.8484848484848485
 40
0.8484848484848485
 40
0.8787878787878788
 40
0.8787878787878788
 40
0.8787878787878788
 40
0.8787878787878788
 40
0.9090909090909091
 40
0.9090909090909091
 40
0.9090909090909091
 40
0.9090909090909091
 40
0.9393939393939394
 40
0.9393939393939394
 40
0.9393939393939394
 40
0.9393939393939394
 40
1.0
 40
1.0
 40
1.0
 40
1.0
 10
-3.39985
 20
7.27625
 30
0.0
 10
-3.92156
 20
7.36178
 30
0.0
 10
-4.28428
 20
7.07916
 30
0.0
 10
-4.49494
 20
6.87
 30
0.0
 10
-4.49494
 20
6.87
 30
0.0
 10
-4.6465
 20
6.74251
 30
0.0
 10
-4.94174
 20
6.47176
 30
0.0
 10
-4.97732
 20
6.32124
 30
0.0
 10
-4.97732
 20
6.32124
 30
0.0
 10
-5.02714
 20
6.16851
 30
0.0
 10
-5.05805
 20
5.87839
 30
0.0
 10
-4.92306
 20
5.75918
 30
0.0
 10
-4.92306
 20
5.75918
 30
0.0
 10
-4.92306
 20
5.75918
 30
0.0
 10
-4.56301
 20
6.38281
 30
0.0
 10
-4.56301
 20
6.38281
 30
0.0
 10
-4.56301
 20
6.38281
 30
0.0
 10
-4.50882
 20
6.35152
 30
0.0
 10
-4.48666
 20
6.33873
 30
0.0
 10
-4.43311
 20
6.30781
 30
0.0
 10
-4.43311
 20
6.30781
 30
0.0
 10
-4.43311
 20
6.30781
 30
0.0
 10
-4.82432
 20
5.6302
 30
0.0
 10
-4.82432
 20
5.6302
 30
0.0
 10
-4.82432
 20
5.6302
 30
0.0
 10
-4.79234
 20
5.57817
 30
0.0
 10
-4.71241
 20
5.53275
 30
0.0
 10
-4.64901
 20
5.53363
 30
0.0
 10
-4.64901
 20
5.53363
 30
0.0
 10
-4.64901
 20
5.53363
 30
0.0
 10
-4.26702
 20
6.19526
 30
0.0
 10
-4.26702
 20
6.19526
 30
0.0
 10
-4.26702
 20
6.19526
 30
0.0
 10
-4.21594
 20
6.16577
 30
0.0
 10
-4.19423
 20
6.15323
 30
0.0
 10
-4.13712
 20
6.12026
 30
0.0
 10
-4.13712
 20
6.12026
 30
0.0
 10
-4.13712
 20
6.12026
 30
0.0
 10
-4.18778
 20
6.03251
 30
0.0
 10
-4.18778
 20
6.03251
 30
0.0
 10
-4.18778
 20
6.03251
 30
0.0
 10
-4.18778
 20
6.03251
 30
0.0
 10
-4.49248
 20
5.50473
 30
0.0
 10
-4.49248
 20
5.50473
 30
0.0
 10
-4.49248
 20
5.50473
 30
0.0
 10
-4.44977
 20
5.39753
 30
0.0
 10
-4.07252
 20
4.99587
 30
0.0
 10
-3.70391
 20
5.05044
 30
0.0
 10
-3.70391
 20
5.05044
 30
0.0
 10
-3.70391
 20
5.43523
 30
0.0
 10
-3.70391
 20
5.81922
 30
0.0
 10
-3.70391
 20
6.20354
 30
0.0
 10
-3.70391
 20
6.20354
 30
0.0
 10
-3.64646
 20
6.20354
 30
0.0
 10
-3.61588
 20
6.20354
 30
0.0
 10
-3.55391
 20
6.20354
 30
0.0
 10
-3.55391
 20
6.20354
 30
0.0
 10
-3.55391
 20
6.20354
 30
0.0
 10
-3.55391
 20
5.0499
 30
0.0
 10
-3.55391
 20
5.0499
 30
0.0
 10
-3.55391
 20
5.0499
 30
0.0
 10
-3.52999
 20
5.02868
 30
0.0
 10
-3.46313
 20
5.01627
 30
0.0
 10
-3.39985
 20
5.01535
 30
0.0
 10
-3.39985
 20
5.01535
 30
0.0
 10
-3.33657
 20
5.01627
 30
0.0
 10
-3.26971
 20
5.02868
 30
0.0
 10
-3.24579
 20
5.0499
 30
0.0
 10
-3.24579
 20
5.0499
 30
0.0
 10
-3.24579
 20
5.0499
 30
0.0
 10
-3.24579
 20
6.20354
 30
0.0
 10
-3.24579
 20
6.20354
 30
0.0
 10
-3.24579
 20
6.20354
 30
0.0
 10
-3.18382
 20
6.20354
 30
0.0
 10
-3.15324
 20
6.20354
 30
0.0
 10
-3.09579
 20
6.20354
 30
0.0
 10
-3.09579
 20
6.20354
 30
0.0
 10
-3.09579
 20
5.81922
 30
0.0
 10
-3.09579
 20
5.43523
 30
0.0
 10
-3.09579
 20
5.05044
 30
0.0
 10
-3.09579
 20
5.05044
 30
0.0
 10
-2.72718
 20
4.99587
 30
0.0
 10
-2.34993
 20
5.39753
 30
0.0
 10
-2.30722
 20
5.50473
 30
0.0
 10
-2.30722
 20
5.50473
 30
0.0
 10
-2.30722
 20
5.50473
 30
0.0
 10
-2.61192
 20
6.03251
 30
0.0
 10
-2.61192
 20
6.03251
 30
0.0
 10
-2.61192
 20
6.03251
 30
0.0
 10
-2.61192
 20
6.03251
 30
0.0
 10
-2.66258
 20
6.12026
 30
0.0
 10
-2.66258
 20
6.12026
 30
0.0
 10
-2.66258
 20
6.12026
 30
0.0
 10
-2.60547
 20
6.15323
 30
0.0
 10
-2.58376
 20
6.16577
 30
0.0
 10
-2.53268
 20
6.19526
 30
0.0
 10
-2.53268
 20
6.19526
 30
0.0
 10
-2.53268
 20
6.19526
 30
0.0
 10
-2.15069
 20
5.53363
 30
0.0
 10
-2.15069
 20
5.53363
 30
0.0
 10
-2.15069
 20
5.53363
 30
0.0
 10
-2.08729
 20
5.53275
 30
0.0
 10
-2.00736
 20
5.57817
 30
0.0
 10
-1.97538
 20
5.6302
 30
0.0
 10
-1.97538
 20
5.6302
 30
0.0
 10
-1.97538
 20
5.6302
 30
0.0
 10
-2.36659
 20
6.30781
 30
0.0
 10
-2.36659
 20
6.30781
 30
0.0
 10
-2.36659
 20
6.30781
 30
0.0
 10
-2.31304
 20
6.33873
 30
0.0
 10
-2.29088
 20
6.35152
 30
0.0
 10
-2.23669
 20
6.38281
 30
0.0
 10
-2.23669
 20
6.38281
 30
0.0
 10
-2.23669
 20
6.38281
 30
0.0
 10
-1.87664
 20
5.75918
 30
0.0
 10
-1.87664
 20
5.75918
 30
0.0
 10
-1.87664
 20
5.75918
 30
0.0
 10
-1.74165
 20
5.87839
 30
0.0
 10
-1.77256
 20
6.16851
 30
0.0
 10
-1.82238
 20
6.32124
 30
0.0
 10
-1.82238
 20
6.32124
 30
0.0
 10
-1.85796
 20
6.47176
 30
0.0
 10
-2.1532
 20
6.74251
 30
0.0
 10
-2.30476
 20
6.87
 30
0.0
 10
-2.30476
 20
6.87
 30
0.0
 10
-2.51542
 20
7.07916
 30
0.0
 10
-2.87814
 20
7.36178
 30
0.0
 10
-3.39985
 20
7.27625
 30
0.0
  0
SPLINE
  5
62
330
1F
100
AcDbEntity
  8
Livello 1
 62
   250
370
    20
100
AcDbSpline
210
0.0
220
0.0
230
1.0
 70
    11
 71
     3
 72
    20
 73
    16
 74
     0
 42
0.0000000001
 43
0.0000000001
 40
0.0
 40
0.0
 40
0.0
 40
0.0
 40
0.2
 40
0.2
 40
0.2
 40
0.2
 40
0.4
 40
0.4
 40
0.4
 40
0.4
 40
0.6
 40
0.6
 40
0.6
 40
0.6
 40
1.0
 40
1.0
 40
1.0
 40
1.0
 10
-4.01408
 20
0.80888
 30
0.0
 10
-4.01408
 20
1.14774
 30
0.0
 10
-3.73938
 20
1.42244
 30
0.0
 10
-3.40051
 20
1.42244
 30
0.0
 10
-3.40051
 20
1.42244
 30
0.0
 10
-3.06165
 20
1.42244
 30
0.0
 10
-2.78695
 20
1.14774
 30
0.0
 10
-2.78695
 20
0.80888
 30
0.0
 10
-2.78695
 20
0.80888
 30
0.0
 10
-2.78695
 20
0.47001
 30
0.0
 10
-3.06165
 20
0.19531
 30
0.0
 10
-3.40051
 20
0.19531
 30
0.0
 10
-3.40051
 20
0.19531
 30
0.0
 10
-3.73938
 20
0.19531
 30
0.0
 10
-4.01408
 20
0.47001
 30
0.0
 10
-4.01408
 20
0.80888
 30
0.0
  0
SPLINE
  5
63
330
1F
100
AcDbEntity
  8
Livello 1
 62
   250
370
    20
100
AcDbSpline
210
0.0
220
0.0
230
1.0
 70
    11
 71
     3
 72
    68
 73
    64
 74
     0
 42
0.0000000001
 43
0.0000000001
 40
0.0
 40
0.0
 40
0.0
 40
0.0
 40
0.0588235294117647
 40
0.0588235294117647
 40
0.0588235294117647
 40
0.0588235294117647
 40
0.1176470588235294
 40
0.1176470588235294
 40
0.1176470588235294
 40
0.1176470588235294
 40
0.1764705882352941
 40
0.1764705882352941
 40
0.1764705882352941
 40
0.1764705882352941
 40
0.2352941176470588
 40
0.2352941176470588
 40
0.2352941176470588
 40
0.2352941176470588
 40
0.2941176470588235
 40
0.2941176470588235
 40
0.2941176470588235
 40
0.2941176470588235
 40
0.3529411764705883
 40
0.3529411764705883
 40
0.3529411764705883
 40
0.3529411764705883
 40
0.4117647058823529
 40
0.4117647058823529
 40
0.4117647058823529
 40
0.4117647058823529
 40
0.4705882352941176
 40
0.4705882352941176
 40
0.4705882352941176
 40
0.4705882352941176
 40
0.5294117647058824
 40
0.5294117647058824
 40
0.5294117647058824
 40
0.5294117647058824
 40
0.5882352941176471
 40
0.5882352941176471
 40
0.5882352941176471
 40
0.5882352941176471
 40
0.6470588235294118
 40
0.6470588235294118
 40
0.6470588235294118
 40
0.6470588235294118
 40
0.7058823529411765
 40
0.7058823529411765
 40
0.7058823529411765
 40
0.7058823529411765
 40
0.7647058823529411
 40
0.7647058823529411
 40
0.7647058823529411
 40
0.7647058823529411
 40
0.8235294117647058
 40
0.8235294117647058
 40
0.8235294117647058
 40
0.8235294117647058
 40
0.8823529411764706
 40
0.8823529411764706
 40
0.8823529411764706
 40
0.8823529411764706
 40
1.0
 40
1.0
 40
1.0
 40
1.0
 10
-3.24684
 20
-0.68614
 30
0.0
 10
-3.24684
 20
-0.68614
 30
0.0
 10
-3.24684
 20
-0.17223
 30
0.0
 10
-3.24684
 20
-0.17223
 30
0.0
 10
-3.24684
 20
-0.17223
 30
0.0
 10
-3.18561
 20
-0.17223
 30
0.0
 10
-3.14417
 20
-0.17223
 30
0.0
 10
-3.09684
 20
-0.17223
 30
0.0
 10
-3.09684
 20
-0.17223
 30
0.0
 10
-3.09684
 20
-0.33087
 30
0.0
 10
-3.09684
 20
-0.48667
 30
0.0
 10
-3.09684
 20
-0.64517
 30
0.0
 10
-3.09684
 20
-0.64517
 30
0.0
 10
-2.43783
 20
-0.5485
 30
0.0
 10
-2.01082
 20
0.09429
 30
0.0
 10
-1.93721
 20
0.69088
 30
0.0
 10
-1.93721
 20
0.69088
 30
0.0
 10
-1.82638
 20
1.39208
 30
0.0
 10
-2.34732
 20
1.91473
 30
0.0
 10
-2.96502
 20
2.11573
 30
0.0
 10
-2.96502
 20
2.11573
 30
0.0
 10
-3.08537
 20
2.14417
 30
0.0
 10
-3.20707
 20
2.14997
 30
0.0
 10
-3.31617
 20
2.13093
 30
0.0
 10
-3.31617
 20
2.13093
 30
0.0
 10
-3.31617
 20
2.01299
 30
0.0
 10
-3.31617
 20
1.89779
 30
0.0
 10
-3.31617
 20
1.78142
 30
0.0
 10
-3.31617
 20
1.78142
 30
0.0
 10
-3.31617
 20
1.78142
 30
0.0
 10
-3.40051
 20
1.78142
 30
0.0
 10
-3.40051
 20
1.78142
 30
0.0
 10
-3.40051
 20
1.78142
 30
0.0
 10
-3.40051
 20
1.78142
 30
0.0
 10
-3.48361
 20
1.78142
 30
0.0
 10
-3.48361
 20
1.78142
 30
0.0
 10
-3.48361
 20
1.78142
 30
0.0
 10
-3.48361
 20
1.89779
 30
0.0
 10
-3.48361
 20
2.01382
 30
0.0
 10
-3.48361
 20
2.13176
 30
0.0
 10
-3.48361
 20
2.13176
 30
0.0
 10
-4.09215
 20
2.23795
 30
0.0
 10
-4.99956
 20
1.54961
 30
0.0
 10
-4.86382
 20
0.69088
 30
0.0
 10
-4.86382
 20
0.69088
 30
0.0
 10
-4.79021
 20
0.09429
 30
0.0
 10
-4.3619
 20
-0.5487
 30
0.0
 10
-3.70289
 20
-0.64537
 30
0.0
 10
-3.70289
 20
-0.64537
 30
0.0
 10
-3.70289
 20
-0.48687
 30
0.0
 10
-3.70288
 20
-0.33087
 30
0.0
 10
-3.70288
 20
-0.17223
 30
0.0
 10
-3.70288
 20
-0.17223
 30
0.0
 10
-3.65555
 20
-0.17223
 30
0.0
 10
-3.61411
 20
-0.17223
 30
0.0
 10
-3.55288
 20
-0.17223
 30
0.0
 10
-3.55288
 20
-0.17223
 30
0.0
 10
-3.55288
 20
-0.17223
 30
0.0
 10
-3.55289
 20
-0.68614
 30
0.0
 10
-3.55289
 20
-0.68614
 30
0.0
 10
-3.55289
 20
-0.68614
 30
0.0
 10
-3.55289
 20
-0.68614
 30
0.0
 10
-3.24684
 20
-0.68614
 30
0.0
 10
-3.24684
 20
-0.68614
 30
0.0
  0
SPLINE
  5
64
330
1F
100
AcDbEntity
  8
Livello 1
 62
   250
370
    20
100
AcDbSpline
210
0.0
220
0.0
230
1.0
 70
    11
 71
     3
 72
    20
 73
    16
 74
     0
 42
0.0000000001
 43
0.0000000001
 40
0.0
 40
0.0
 40
0.0
 40
0.0
 40
0.2
 40
0.2
 40
0.2
 40
0.2
 40
0.4
 40
0.4
 40
0.4
 40
0.4
 40
0.6
 40
0.6
 40
0.6
 40
0.6
 40
1.0
 40
1.0
 40
1.0
 40
1.0
 10
-9.7461
 20
1.7975
 30
0.0
 10
-9.7461
 20
1.62806
 30
0.0
 10
-9.88346
 20
1.4907
 30
0.0
 10
-10.0529
 20
1.4907
 30
0.0
 10
-10.0529
 20
1.4907
 30
0.0
 10
-10.22233
 20
1.4907
 30
0.0
 10
-10.35969
 20
1.62806
 30
0.0
 10
-10.35969
 20
1.7975
 30
0.0
 10
-10.35969
 20
1.7975
 30
0.0
 10
-10.35969
 20
1.96693
 30
0.0
 10
-10.22233
 20
2.10429
 30
0.0
 10
-10.0529
 20
2.10429
 30
0.0
 10
-10.0529
 20
2.10429
 30
0.0
 10
-9.88346
 20
2.10429
 30
0.0
 10
-9.7461
 20
1.96693
 30
0.0
 10
-9.7461
 20
1.7975
 30
0.0
  0
SPLINE
  5
65
330
1F
100
AcDbEntity
  8
Livello 1
 62
   250
370
    20
100
AcDbSpline
210
0.0
220
0.0
230
1.0
 70
    11
 71
     3
 72
   124
 73
   120
 74
     0
 42
0.0000000001
 43
0.0000000001
 40
0.0
 40
0.0
 40
0.0
 40
0.0
 40
0.032258064516129
 40
0.032258064516129
 40
0.032258064516129
 40
0.032258064516129
 40
0.0645161290322581
 40
0.0645161290322581
 40
0.0645161290322581
 40
0.0645161290322581
 40
0.0967741935483871
 40
0.0967741935483871
 40
0.0967741935483871
 40
0.0967741935483871
 40
0.1290322580645161
 40
0.1290322580645161
 40
0.1290322580645161
 40
0.1290322580645161
 40
0.1612903225806452
 40
0.1612903225806452
 40
0.1612903225806452
 40
0.1612903225806452
 40
0.1935483870967742
 40
0.1935483870967742
 40
0.1935483870967742
 40
0.1935483870967742
 40
0.2258064516129032
 40
0.2258064516129032
 40
0.2258064516129032
 40
0.2258064516129032
 40
0.2580645161290323
 40
0.2580645161290323
 40
0.2580645161290323
 40
0.2580645161290323
 40
0.2903225806451613
 40
0.2903225806451613
 40
0.2903225806451613
 40
0.2903225806451613
 40
0.3225806451612903
 40
0.3225806451612903
 40
0.3225806451612903
 40
0.3225806451612903
 40
0.3548387096774194
 40
0.3548387096774194
 40
0.3548387096774194
 40
0.3548387096774194
 40
0.3870967741935484
 40
0.3870967741935484
 40
0.3870967741935484
 40
0.3870967741935484
 40
0.4193548387096774
 40
0.4193548387096774
 40
0.4193548387096774
 40
0.4193548387096774
 40
0.4516129032258064
 40
0.4516129032258064
 40
0.4516129032258064
 40
0.4516129032258064
 40
0.4838709677419355
 40
0.4838709677419355
 40
0.4838709677419355
 40
0.4838709677419355
 40
0.5161290322580645
 40
0.5161290322580645
 40
0.5161290322580645
 40
0.5161290322580645
 40
0.5483870967741935
 40
0.5483870967741935
 40
0.5483870967741935
 40
0.5483870967741935
 40
0.5806451612903226
 40
0.5806451612903226
 40
0.5806451612903226
 40
0.5806451612903226
 40
0.6129032258064516
 40
0.6129032258064516
 40
0.6129032258064516
 40
0.6129032258064516
 40
0.6451612903225806
 40
0.6451612903225806
 40
0.6451612903225806
 40
0.6451612903225806
 40
0.6774193548387096
 40
0.6774193548387096
 40
0.6774193548387096
 40
0.6774193548387096
 40
0.7096774193548387
 40
0.7096774193548387
 40
0.7096774193548387
 40
0.7096774193548387
 40
0.7419354838709677
 40
0.7419354838709677
 40
0.7419354838709677
 40
0.7419354838709677
 40
0.7741935483870968
 40
0.7741935483870968
 40
0.7741935483870968
 40
0.7741935483870968
 40
0.8064516129032258
 40
0.8064516129032258
 40
0.8064516129032258
 40
0.8064516129032258
 40
0.8387096774193549
 40
0.8387096774193549
 40
0.8387096774193549
 40
0.8387096774193549
 40
0.8709677419354839
 40
0.8709677419354839
 40
0.8709677419354839
 40
0.8709677419354839
 40
0.9032258064516129
 40
0.9032258064516129
 40
0.9032258064516129
 40
0.9032258064516129
 40
0.9354838709677419
 40
0.9354838709677419
 40
0.9354838709677419
 40
0.9354838709677419
 40
1.0
 40
1.0
 40
1.0
 40
1.0
 10
-10.20593
 20
0.56074
 30
0.0
 10
-10.20593
 20
0.7277
 30
0.0
 10
-10.20592
 20
0.90303
 30
0.0
 10
-10.20592
 20
1.06761
 30
0.0
 10
-10.20592
 20
1.06761
 30
0.0
 10
-10.20592
 20
1.06761
 30
0.0
 10
-10.35592
 20
1.06761
 30
0.0
 10
-10.35592
 20
1.06761
 30
0.0
 10
-10.35592
 20
1.06761
 30
0.0
 10
-10.35592
 20
1.06761
 30
0.0
 10
-10.35593
 20
0.5957
 30
0.0
 10
-10.35593
 20
0.5957
 30
0.0
 10
-10.35593
 20
0.5957
 30
0.0
 10
-10.8281
 20
0.61773
 30
0.0
 10
-11.25023
 20
1.18474
 30
0.0
 10
-11.28821
 20
1.58349
 30
0.0
 10
-11.28821
 20
1.58349
 30
0.0
 10
-11.29565
 20
1.66585
 30
0.0
 10
-11.294
 20
1.75484
 30
0.0
 10
-11.28821
 20
1.82811
 30
0.0
 10
-11.28821
 20
1.82811
 30
0.0
 10
-11.28821
 20
1.82811
 30
0.0
 10
-10.78335
 20
1.82811
 30
0.0
 10
-10.78335
 20
1.82811
 30
0.0
 10
-10.78335
 20
1.82811
 30
0.0
 10
-10.78335
 20
1.82811
 30
0.0
 10
-10.78335
 20
1.97811
 30
0.0
 10
-10.78335
 20
1.97811
 30
0.0
 10
-10.78335
 20
1.97811
 30
0.0
 10
-10.78335
 20
1.97811
 30
0.0
 10
-10.96682
 20
1.97811
 30
0.0
 10
-10.96682
 20
1.97811
 30
0.0
 10
-10.96682
 20
1.97811
 30
0.0
 10
-11.00555
 20
1.98137
 30
0.0
 10
-11.04727
 20
1.98027
 30
0.0
 10
-11.091
 20
1.97811
 30
0.0
 10
-11.091
 20
1.97811
 30
0.0
 10
-11.091
 20
1.97811
 30
0.0
 10
-11.25661
 20
1.97811
 30
0.0
 10
-11.25661
 20
1.97811
 30
0.0
 10
-11.25661
 20
1.97811
 30
0.0
 10
-11.30572
 20
2.04836
 30
0.0
 10
-11.25537
 20
2.13384
 30
0.0
 10
-11.22757
 20
2.17393
 30
0.0
 10
-11.22757
 20
2.17393
 30
0.0
 10
-11.22757
 20
2.17393
 30
0.0
 10
-10.78997
 20
2.17393
 30
0.0
 10
-10.78997
 20
2.17393
 30
0.0
 10
-10.78997
 20
2.17393
 30
0.0
 10
-10.78997
 20
2.17393
 30
0.0
 10
-10.78997
 20
2.32394
 30
0.0
 10
-10.78997
 20
2.32394
 30
0.0
 10
-10.78997
 20
2.32394
 30
0.0
 10
-10.91074
 20
2.32394
 30
0.0
 10
-11.02943
 20
2.32394
 30
0.0
 10
-11.15153
 20
2.32394
 30
0.0
 10
-11.15153
 20
2.32394
 30
0.0
 10
-10.90961
 20
3.12635
 30
0.0
 10
-9.19618
 20
3.12635
 30
0.0
 10
-8.95426
 20
2.32394
 30
0.0
 10
-8.95426
 20
2.32394
 30
0.0
 10
-9.07636
 20
2.32394
 30
0.0
 10
-9.19505
 20
2.32394
 30
0.0
 10
-9.31582
 20
2.32394
 30
0.0
 10
-9.31582
 20
2.32394
 30
0.0
 10
-9.31582
 20
2.32394
 30
0.0
 10
-9.31582
 20
2.17393
 30
0.0
 10
-9.31582
 20
2.17393
 30
0.0
 10
-9.31582
 20
2.17393
 30
0.0
 10
-9.31582
 20
2.17393
 30
0.0
 10
-8.87822
 20
2.17393
 30
0.0
 10
-8.87822
 20
2.17393
 30
0.0
 10
-8.87822
 20
2.17393
 30
0.0
 10
-8.85042
 20
2.13384
 30
0.0
 10
-8.80007
 20
2.04836
 30
0.0
 10
-8.84918
 20
1.97811
 30
0.0
 10
-8.84918
 20
1.97811
 30
0.0
 10
-8.84918
 20
1.97811
 30
0.0
 10
-9.01479
 20
1.97811
 30
0.0
 10
-9.01479
 20
1.97811
 30
0.0
 10
-9.01479
 20
1.97811
 30
0.0
 10
-9.05852
 20
1.98027
 30
0.0
 10
-9.10024
 20
1.98137
 30
0.0
 10
-9.13897
 20
1.97811
 30
0.0
 10
-9.13897
 20
1.97811
 30
0.0
 10
-9.13897
 20
1.97811
 30
0.0
 10
-9.32244
 20
1.97811
 30
0.0
 10
-9.32244
 20
1.97811
 30
0.0
 10
-9.32244
 20
1.97811
 30
0.0
 10
-9.32244
 20
1.97811
 30
0.0
 10
-9.32244
 20
1.82811
 30
0.0
 10
-9.32244
 20
1.82811
 30
0.0
 10
-9.32244
 20
1.82811
 30
0.0
 10
-9.32244
 20
1.82811
 30
0.0
 10
-8.81758
 20
1.82811
 30
0.0
 10
-8.81758
 20
1.82811
 30
0.0
 10
-8.81758
 20
1.82811
 30
0.0
 10
-8.81179
 20
1.75484
 30
0.0
 10
-8.81014
 20
1.66585
 30
0.0
 10
-8.81758
 20
1.58349
 30
0.0
 10
-8.81758
 20
1.58349
 30
0.0
 10
-8.85556
 20
1.18474
 30
0.0
 10
-9.27771
 20
0.61607
 30
0.0
 10
-9.74988
 20
0.59404
 30
0.0
 10
-9.74988
 20
0.59404
 30
0.0
 10
-9.74988
 20
0.59404
 30
0.0
 10
-9.74988
 20
1.06585
 30
0.0
 10
-9.74988
 20
1.06585
 30
0.0
 10
-9.74988
 20
1.06585
 30
0.0
 10
-9.74988
 20
1.06585
 30
0.0
 10
-9.89988
 20
1.06761
 30
0.0
 10
-9.89988
 20
1.06761
 30
0.0
 10
-9.89988
 20
1.06761
 30
0.0
 10
-9.89988
 20
0.90303
 30
0.0
 10
-9.89988
 20
0.7277
 30
0.0
 10
-9.89988
 20
0.56074
 30
0.0
 10
-9.89988
 20
0.56074
 30
0.0
 10
-9.89988
 20
0.56074
 30
0.0
 10
-10.20593
 20
0.56074
 30
0.0
 10
-10.20593
 20
0.56074
 30
0.0
  0
SPLINE
  5
66
330
1F
100
AcDbEntity
  8
Livello 1
 62
   250
370
    20
100
AcDbSpline
210
0.0
220
0.0
230
1.0
 70
    11
 71
     3
 72
    92
 73
    88
 74
     0
 42
0.0000000001
 43
0.0000000001
 40
0.0
 40
0.0
 40
0.0
 40
0.0
 40
0.0434782608695652
 40
0.0434782608695652
 40
0.0434782608695652
 40
0.0434782608695652
 40
0.0869565217391304
 40
0.0869565217391304
 40
0.0869565217391304
 40
0.0869565217391304
 40
0.1304347826086956
 40
0.1304347826086956
 40
0.1304347826086956
 40
0.1304347826086956
 40
0.1739130434782609
 40
0.1739130434782609
 40
0.1739130434782609
 40
0.1739130434782609
 40
0.2173913043478261
 40
0.2173913043478261
 40
0.2173913043478261
 40
0.2173913043478261
 40
0.2608695652173913
 40
0.2608695652173913
 40
0.2608695652173913
 40
0.2608695652173913
 40
0.3043478260869565
 40
0.3043478260869565
 40
0.3043478260869565
 40
0.3043478260869565
 40
0.3478260869565217
 40
0.3478260869565217
 40
0.3478260869565217
 40
0.3478260869565217
 40
0.391304347826087
 40
0.391304347826087
 40
0.391304347826087
 40
0.391304347826087
 40
0.4347826086956522
 40
0.4347826086956522
 40
0.4347826086956522
 40
0.4347826086956522
 40
0.4782608695652174
 40
0.4782608695652174
 40
0.4782608695652174
 40
0.4782608695652174
 40
0.5217391304347826
 40
0.5217391304347826
 40
0.5217391304347826
 40
0.5217391304347826
 40
0.5652173913043478
 40
0.5652173913043478
 40
0.5652173913043478
 40
0.5652173913043478
 40
0.6086956521739131
 40
0.6086956521739131
 40
0.6086956521739131
 40
0.6086956521739131
 40
0.6521739130434783
 40
0.6521739130434783
 40
0.6521739130434783
 40
0.6521739130434783
 40
0.6956521739130435
 40
0.6956521739130435
 40
0.6956521739130435
 40
0.6956521739130435
 40
0.7391304347826086
 40
0.7391304347826086
 40
0.7391304347826086
 40
0.7391304347826086
 40
0.782608695652174
 40
0.782608695652174
 40
0.782608695652174
 40
0.782608695652174
 40
0.8260869565217391
 40
0.8260869565217391
 40
0.8260869565217391
 40
0.8260869565217391
 40
0.8695652173913043
 40
0.8695652173913043
 40
0.8695652173913043
 40
0.8695652173913043
 40
0.9130434782608695
 40
0.9130434782608695
 40
0.9130434782608695
 40
0.9130434782608695
 40
1.0
 40
1.0
 40
1.0
 40
1.0
 10
-9.0156
 20
2.831
 30
0.0
 10
-9.0156
 20
2.831
 30
0.0
 10
-9.0156
 20
3.37293
 30
0.0
 10
-9.0156
 20
3.37293
 30
0.0
 10
-9.0156
 20
3.37293
 30
0.0
 10
-9.0156
 20
3.37293
 30
0.0
 10
-8.8656
 20
3.37176
 30
0.0
 10
-8.8656
 20
3.37176
 30
0.0
 10
-8.8656
 20
3.37176
 30
0.0
 10
-8.8656
 20
3.21346
 30
0.0
 10
-8.8656
 20
3.05514
 30
0.0
 10
-8.8656
 20
2.89684
 30
0.0
 10
-8.8656
 20
2.89684
 30
0.0
 10
-8.49432
 20
3.04575
 30
0.0
 10
-7.99625
 20
3.13958
 30
0.0
 10
-7.68571
 20
3.39868
 30
0.0
 10
-7.68571
 20
3.39868
 30
0.0
 10
-7.17634
 20
3.8507
 30
0.0
 10
-7.49756
 20
4.31371
 30
0.0
 10
-7.5446
 20
4.4223
 30
0.0
 10
-7.5446
 20
4.4223
 30
0.0
 10
-7.55313
 20
4.77183
 30
0.0
 10
-7.62618
 20
5.14426
 30
0.0
 10
-7.79761
 20
5.44038
 30
0.0
 10
-7.79761
 20
5.44038
 30
0.0
 10
-7.65384
 20
5.36779
 30
0.0
 10
-7.09178
 20
5.17995
 30
0.0
 10
-6.5921
 20
5.5859
 30
0.0
 10
-6.5921
 20
5.5859
 30
0.0
 10
-6.00845
 20
6.06008
 30
0.0
 10
-6.35312
 20
7.17636
 30
0.0
 10
-7.2271
 20
7.31451
 30
0.0
 10
-7.2271
 20
7.31451
 30
0.0
 10
-7.63911
 20
7.36555
 30
0.0
 10
-8.028
 20
7.20958
 30
0.0
 10
-8.21488
 20
6.92646
 30
0.0
 10
-8.21488
 20
6.92646
 30
0.0
 10
-8.35819
 20
6.70935
 30
0.0
 10
-8.41484
 20
6.20613
 30
0.0
 10
-8.28508
 20
5.91452
 30
0.0
 10
-8.28508
 20
5.91452
 30
0.0
 10
-8.93225
 20
6.18695
 30
0.0
 10
-9.38383
 20
6.19536
 30
0.0
 10
-10.05216
 20
5.91584
 30
0.0
 10
-10.05216
 20
5.91584
 30
0.0
 10
-9.92768
 20
6.17569
 30
0.0
 10
-9.97905
 20
6.70935
 30
0.0
 10
-10.12236
 20
6.92646
 30
0.0
 10
-10.12236
 20
6.92646
 30
0.0
 10
-10.30924
 20
7.20958
 30
0.0
 10
-10.69813
 20
7.36555
 30
0.0
 10
-11.11014
 20
7.31451
 30
0.0
 10
-11.11014
 20
7.31451
 30
0.0
 10
-11.98412
 20
7.17636
 30
0.0
 10
-12.32879
 20
6.06008
 30
0.0
 10
-11.74514
 20
5.5859
 30
0.0
 10
-11.74514
 20
5.5859
 30
0.0
 10
-11.24546
 20
5.17995
 30
0.0
 10
-10.6834
 20
5.36779
 30
0.0
 10
-10.53963
 20
5.44038
 30
0.0
 10
-10.53963
 20
5.44038
 30
0.0
 10
-10.71106
 20
5.14426
 30
0.0
 10
-10.78411
 20
4.77183
 30
0.0
 10
-10.79264
 20
4.4223
 30
0.0
 10
-10.79264
 20
4.4223
 30
0.0
 10
-10.83968
 20
4.31371
 30
0.0
 10
-11.1609
 20
3.8507
 30
0.0
 10
-10.65153
 20
3.39868
 30
0.0
 10
-10.65153
 20
3.39868
 30
0.0
 10
-10.34099
 20
3.13958
 30
0.0
 10
-9.84293
 20
3.04246
 30
0.0
 10
-9.47165
 20
2.89355
 30
0.0
 10
-9.47165
 20
2.89355
 30
0.0
 10
-9.47165
 20
3.05185
 30
0.0
 10
-9.47164
 20
3.21463
 30
0.0
 10
-9.47164
 20
3.37293
 30
0.0
 10
-9.47164
 20
3.37293
 30
0.0
 10
-9.47164
 20
3.37293
 30
0.0
 10
-9.32164
 20
3.37293
 30
0.0
 10
-9.32164
 20
3.37293
 30
0.0
 10
-9.32164
 20
3.37293
 30
0.0
 10
-9.32164
 20
3.37293
 30
0.0
 10
-9.32165
 20
2.831
 30
0.0
 10
-9.32165
 20
2.831
 30
0.0
 10
-9.32165
 20
2.831
 30
0.0
 10
-9.23487
 20
2.77784
 30
0.0
 10
-9.10238
 20
2.77784
 30
0.0
 10
-9.0156
 20
2.831
 30
0.0
  0
SPLINE
  5
67
330
1F
100
AcDbEntity
  8
Livello 1
 62
   250
370
    20
100
AcDbSpline
210
0.0
220
0.0
230
1.0
 70
    11
 71
     3
 72
    48
 73
    44
 74
     0
 42
0.0000000001
 43
0.0000000001
 40
0.0
 40
0.0
 40
0.0
 40
0.0
 40
0.0833333333333333
 40
0.0833333333333333
 40
0.0833333333333333
 40
0.0833333333333333
 40
0.1666666666666667
 40
0.1666666666666667
 40
0.1666666666666667
 40
0.1666666666666667
 40
0.25
 40
0.25
 40
0.25
 40
0.25
 40
0.3333333333333333
 40
0.3333333333333333
 40
0.3333333333333333
 40
0.3333333333333333
 40
0.4166666666666667
 40
0.4166666666666667
 40
0.4166666666666667
 40
0.4166666666666667
 40
0.5
 40
0.5
 40
0.5
 40
0.5
 40
0.5833333333333334
 40
0.5833333333333334
 40
0.5833333333333334
 40
0.5833333333333334
 40
0.6666666666666666
 40
0.6666666666666666
 40
0.6666666666666666
 40
0.6666666666666666
 40
0.75
 40
0.75
 40
0.75
 40
0.75
 40
0.8333333333333334
 40
0.8333333333333334
 40
0.8333333333333334
 40
0.8333333333333334
 40
1.0
 40
1.0
 40
1.0
 40
1.0
 10
-9.0156
 20
5.73308
 30
0.0
 10
-9.0156
 20
5.73308
 30
0.0
 10
-8.8656
 20
5.73308
 30
0.0
 10
-8.8656
 20
5.73308
 30
0.0
 10
-8.8656
 20
5.73308
 30
0.0
 10
-8.8656
 20
5.73308
 30
0.0
 10
-8.8656
 20
5.27412
 30
0.0
 10
-8.8656
 20
5.27412
 30
0.0
 10
-8.8656
 20
5.27412
 30
0.0
 10
-8.56662
 20
5.15083
 30
0.0
 10
-8.34568
 20
4.91041
 30
0.0
 10
-8.34568
 20
4.51142
 30
0.0
 10
-8.34568
 20
4.51142
 30
0.0
 10
-8.34568
 20
4.11243
 30
0.0
 10
-8.71412
 20
3.68848
 30
0.0
 10
-9.16862
 20
3.68848
 30
0.0
 10
-9.16862
 20
3.68848
 30
0.0
 10
-9.62312
 20
3.68848
 30
0.0
 10
-9.99156
 20
4.10927
 30
0.0
 10
-9.99156
 20
4.51142
 30
0.0
 10
-9.99156
 20
4.51142
 30
0.0
 10
-9.99156
 20
4.91357
 30
0.0
 10
-9.77941
 20
5.15762
 30
0.0
 10
-9.47165
 20
5.27672
 30
0.0
 10
-9.47165
 20
5.27672
 30
0.0
 10
-9.47165
 20
5.27672
 30
0.0
 10
-9.47164
 20
5.73308
 30
0.0
 10
-9.47164
 20
5.73308
 30
0.0
 10
-9.47164
 20
5.73308
 30
0.0
 10
-9.47164
 20
5.73308
 30
0.0
 10
-9.32164
 20
5.73308
 30
0.0
 10
-9.32164
 20
5.73308
 30
0.0
 10
-9.32164
 20
5.73308
 30
0.0
 10
-9.32164
 20
5.73308
 30
0.0
 10
-9.32165
 20
5.31878
 30
0.0
 10
-9.32165
 20
5.31878
 30
0.0
 10
-9.32165
 20
5.31878
 30
0.0
 10
-9.21257
 20
5.33844
 30
0.0
 10
-9.12471
 20
5.34216
 30
0.0
 10
-9.0156
 20
5.32013
 30
0.0
 10
-9.0156
 20
5.32013
 30
0.0
 10
-9.0156
 20
5.32013
 30
0.0
 10
-9.0156
 20
5.73308
 30
0.0
 10
-9.0156
 20
5.73308
 30
0.0
  0
SPLINE
  5
68
330
1F
100
AcDbEntity
  8
Livello 1
 62
   250
370
    20
100
AcDbSpline
210
0.0
220
0.0
230
1.0
 70
    11
 71
     3
 72
    76
 73
    72
 74
     0
 42
0.0000000001
 43
0.0000000001
 40
0.0
 40
0.0
 40
0.0
 40
0.0
 40
0.0526315789473684
 40
0.0526315789473684
 40
0.0526315789473684
 40
0.0526315789473684
 40
0.1052631578947368
 40
0.1052631578947368
 40
0.1052631578947368
 40
0.1052631578947368
 40
0.1578947368421053
 40
0.1578947368421053
 40
0.1578947368421053
 40
0.1578947368421053
 40
0.2105263157894737
 40
0.2105263157894737
 40
0.2105263157894737
 40
0.2105263157894737
 40
0.2631578947368421
 40
0.2631578947368421
 40
0.2631578947368421
 40
0.2631578947368421
 40
0.3157894736842105
 40
0.3157894736842105
 40
0.3157894736842105
 40
0.3157894736842105
 40
0.3684210526315789
 40
0.3684210526315789
 40
0.3684210526315789
 40
0.3684210526315789
 40
0.4210526315789473
 40
0.4210526315789473
 40
0.4210526315789473
 40
0.4210526315789473
 40
0.4736842105263158
 40
0.4736842105263158
 40
0.4736842105263158
 40
0.4736842105263158
 40
0.5263157894736842
 40
0.5263157894736842
 40
0.5263157894736842
 40
0.5263157894736842
 40
0.5789473684210527
 40
0.5789473684210527
 40
0.5789473684210527
 40
0.5789473684210527
 40
0.631578947368421
 40
0.631578947368421
 40
0.631578947368421
 40
0.631578947368421
 40
0.6842105263157895
 40
0.6842105263157895
 40
0.6842105263157895
 40
0.6842105263157895
 40
0.7368421052631579
 40
0.7368421052631579
 40
0.7368421052631579
 40
0.7368421052631579
 40
0.7894736842105263
 40
0.7894736842105263
 40
0.7894736842105263
 40
0.7894736842105263
 40
0.8421052631578947
 40
0.8421052631578947
 40
0.8421052631578947
 40
0.8421052631578947
 40
0.8947368421052632
 40
0.8947368421052632
 40
0.8947368421052632
 40
0.8947368421052632
 40
1.0
 40
1.0
 40
1.0
 40
1.0
 10
-6.89757
 20
1.85781
 30
0.0
 10
-6.89757
 20
1.85781
 30
0.0
 10
-6.89814
 20
2.0143
 30
0.0
 10
-6.89814
 20
2.0143
 30
0.0
 10
-6.89814
 20
2.0143
 30
0.0
 10
-6.89814
 20
2.0143
 30
0.0
 10
-7.35728
 20
2.0143
 30
0.0
 10
-7.35728
 20
2.0143
 30
0.0
 10
-7.35728
 20
2.0143
 30
0.0
 10
-7.35728
 20
2.0143
 30
0.0
 10
-7.35728
 20
2.1643
 30
0.0
 10
-7.35728
 20
2.1643
 30
0.0
 10
-7.35728
 20
2.1643
 30
0.0
 10
-7.35728
 20
2.1643
 30
0.0
 10
-6.8703
 20
2.1643
 30
0.0
 10
-6.8703
 20
2.1643
 30
0.0
 10
-6.8703
 20
2.1643
 30
0.0
 10
-6.76277
 20
2.43853
 30
0.0
 10
-6.65957
 20
2.54556
 30
0.0
 10
-6.43787
 20
2.70965
 30
0.0
 10
-6.43787
 20
2.70965
 30
0.0
 10
-6.43787
 20
2.70965
 30
0.0
 10
-6.44173
 20
3.59986
 30
0.0
 10
-6.44173
 20
3.59986
 30
0.0
 10
-6.44173
 20
3.59986
 30
0.0
 10
-6.56076
 20
3.57477
 30
0.0
 10
-6.64909
 20
3.53519
 30
0.0
 10
-6.75537
 20
3.48576
 30
0.0
 10
-6.75537
 20
3.48576
 30
0.0
 10
-6.96687
 20
3.37261
 30
0.0
 10
-7.15885
 20
3.25753
 30
0.0
 10
-7.31982
 20
3.06243
 30
0.0
 10
-7.31982
 20
3.06243
 30
0.0
 10
-7.67209
 20
2.63545
 30
0.0
 10
-7.72272
 20
2.36057
 30
0.0
 10
-7.77126
 20
1.85781
 30
0.0
 10
-7.77126
 20
1.85781
 30
0.0
 10
-7.72272
 20
1.35505
 30
0.0
 10
-7.67209
 20
1.08017
 30
0.0
 10
-7.31982
 20
0.65319
 30
0.0
 10
-7.31982
 20
0.65319
 30
0.0
 10
-7.15885
 20
0.45809
 30
0.0
 10
-6.96687
 20
0.34301
 30
0.0
 10
-6.75537
 20
0.22986
 30
0.0
 10
-6.75537
 20
0.22986
 30
0.0
 10
-6.64909
 20
0.18043
 30
0.0
 10
-6.56076
 20
0.14085
 30
0.0
 10
-6.44173
 20
0.11576
 30
0.0
 10
-6.44173
 20
0.11576
 30
0.0
 10
-6.44173
 20
0.11576
 30
0.0
 10
-6.43787
 20
1.00597
 30
0.0
 10
-6.43787
 20
1.00597
 30
0.0
 10
-6.43787
 20
1.00597
 30
0.0
 10
-6.65957
 20
1.17006
 30
0.0
 10
-6.76277
 20
1.27709
 30
0.0
 10
-6.8703
 20
1.55132
 30
0.0
 10
-6.8703
 20
1.55132
 30
0.0
 10
-6.8703
 20
1.55132
 30
0.0
 10
-7.35728
 20
1.55132
 30
0.0
 10
-7.35728
 20
1.55132
 30
0.0
 10
-7.35728
 20
1.55132
 30
0.0
 10
-7.35728
 20
1.55132
 30
0.0
 10
-7.35728
 20
1.70132
 30
0.0
 10
-7.35728
 20
1.70132
 30
0.0
 10
-7.35728
 20
1.70132
 30
0.0
 10
-7.35728
 20
1.70132
 30
0.0
 10
-6.89814
 20
1.70132
 30
0.0
 10
-6.89814
 20
1.70132
 30
0.0
 10
-6.89814
 20
1.70132
 30
0.0
 10
-6.89814
 20
1.70132
 30
0.0
 10
-6.89757
 20
1.85781
 30
0.0
 10
-6.89757
 20
1.85781
 30
0.0
  0
SPLINE
  5
69
330
1F
100
AcDbEntity
  8
Livello 1
 62
   250
370
    20
100
AcDbSpline
210
0.0
220
0.0
230
1.0
 70
    11
 71
     3
 72
    76
 73
    72
 74
     0
 42
0.0000000001
 43
0.0000000001
 40
0.0
 40
0.0
 40
0.0
 40
0.0
 40
0.0526315789473684
 40
0.0526315789473684
 40
0.0526315789473684
 40
0.0526315789473684
 40
0.1052631578947368
 40
0.1052631578947368
 40
0.1052631578947368
 40
0.1052631578947368
 40
0.1578947368421053
 40
0.1578947368421053
 40
0.1578947368421053
 40
0.1578947368421053
 40
0.2105263157894737
 40
0.2105263157894737
 40
0.2105263157894737
 40
0.2105263157894737
 40
0.2631578947368421
 40
0.2631578947368421
 40
0.2631578947368421
 40
0.2631578947368421
 40
0.3157894736842105
 40
0.3157894736842105
 40
0.3157894736842105
 40
0.3157894736842105
 40
0.3684210526315789
 40
0.3684210526315789
 40
0.3684210526315789
 40
0.3684210526315789
 40
0.4210526315789473
 40
0.4210526315789473
 40
0.4210526315789473
 40
0.4210526315789473
 40
0.4736842105263158
 40
0.4736842105263158
 40
0.4736842105263158
 40
0.4736842105263158
 40
0.5263157894736842
 40
0.5263157894736842
 40
0.5263157894736842
 40
0.5263157894736842
 40
0.5789473684210527
 40
0.5789473684210527
 40
0.5789473684210527
 40
0.5789473684210527
 40
0.631578947368421
 40
0.631578947368421
 40
0.631578947368421
 40
0.631578947368421
 40
0.6842105263157895
 40
0.6842105263157895
 40
0.6842105263157895
 40
0.6842105263157895
 40
0.7368421052631579
 40
0.7368421052631579
 40
0.7368421052631579
 40
0.7368421052631579
 40
0.7894736842105263
 40
0.7894736842105263
 40
0.7894736842105263
 40
0.7894736842105263
 40
0.8421052631578947
 40
0.8421052631578947
 40
0.8421052631578947
 40
0.8421052631578947
 40
0.8947368421052632
 40
0.8947368421052632
 40
0.8947368421052632
 40
0.8947368421052632
 40
1.0
 40
1.0
 40
1.0
 40
1.0
 10
-5.51251
 20
1.87066
 30
0.0
 10
-5.51251
 20
1.87066
 30
0.0
 10
-5.51251
 20
1.94529
 30
0.0
 10
-5.51251
 20
1.94529
 30
0.0
 10
-5.51251
 20
1.94529
 30
0.0
 10
-5.51251
 20
1.94529
 30
0.0
 10
-5.04685
 20
1.94529
 30
0.0
 10
-5.04685
 20
1.94529
 30
0.0
 10
-5.04685
 20
1.94529
 30
0.0
 10
-5.05652
 20
2.38866
 30
0.0
 10
-5.3191
 20
2.8648
 30
0.0
 10
-5.65154
 20
3.13489
 30
0.0
 10
-5.65154
 20
3.13489
 30
0.0
 10
-5.85586
 20
3.30089
 30
0.0
 10
-6.10355
 20
3.38348
 30
0.0
 10
-6.35323
 20
3.38348
 30
0.0
 10
-6.35323
 20
3.38348
 30
0.0
 10
-6.35323
 20
3.38348
 30
0.0
 10
-6.35543
 20
2.17951
 30
0.0
 10
-6.35543
 20
2.17951
 30
0.0
 10
-6.35543
 20
2.17951
 30
0.0
 10
-6.35543
 20
2.17951
 30
0.0
 10
-5.72484
 20
2.17951
 30
0.0
 10
-5.72484
 20
2.17951
 30
0.0
 10
-5.72484
 20
2.17951
 30
0.0
 10
-5.72484
 20
2.12946
 30
0.0
 10
-5.72484
 20
2.07955
 30
0.0
 10
-5.72484
 20
2.02951
 30
0.0
 10
-5.72484
 20
2.02951
 30
0.0
 10
-5.72484
 20
2.02951
 30
0.0
 10
-6.3604
 20
2.02951
 30
0.0
 10
-6.3604
 20
2.02951
 30
0.0
 10
-6.3604
 20
2.02951
 30
0.0
 10
-6.35977
 20
1.9636
 30
0.0
 10
-6.35907
 20
1.92087
 30
0.0
 10
-6.35843
 20
1.87066
 30
0.0
 10
-6.35843
 20
1.87066
 30
0.0
 10
-6.35907
 20
1.82045
 30
0.0
 10
-6.35977
 20
1.77772
 30
0.0
 10
-6.3604
 20
1.71181
 30
0.0
 10
-6.3604
 20
1.71181
 30
0.0
 10
-6.3604
 20
1.71181
 30
0.0
 10
-5.72484
 20
1.71181
 30
0.0
 10
-5.72484
 20
1.71181
 30
0.0
 10
-5.72484
 20
1.71181
 30
0.0
 10
-5.72484
 20
1.66177
 30
0.0
 10
-5.72484
 20
1.61186
 30
0.0
 10
-5.72484
 20
1.56181
 30
0.0
 10
-5.72484
 20
1.56181
 30
0.0
 10
-5.72484
 20
1.56181
 30
0.0
 10
-6.35543
 20
1.56181
 30
0.0
 10
-6.35543
 20
1.56181
 30
0.0
 10
-6.35543
 20
1.56181
 30
0.0
 10
-6.35543
 20
1.56181
 30
0.0
 10
-6.35323
 20
0.35784
 30
0.0
 10
-6.35323
 20
0.35784
 30
0.0
 10
-6.35323
 20
0.35784
 30
0.0
 10
-6.10355
 20
0.35784
 30
0.0
 10
-5.85586
 20
0.44043
 30
0.0
 10
-5.65154
 20
0.60643
 30
0.0
 10
-5.65154
 20
0.60643
 30
0.0
 10
-5.3191
 20
0.87652
 30
0.0
 10
-5.05652
 20
1.35266
 30
0.0
 10
-5.04685
 20
1.79603
 30
0.0
 10
-5.04685
 20
1.79603
 30
0.0
 10
-5.04685
 20
1.79603
 30
0.0
 10
-5.51251
 20
1.79603
 30
0.0
 10
-5.51251
 20
1.79603
 30
0.0
 10
-5.51251
 20
1.79603
 30
0.0
 10
-5.51251
 20
1.79603
 30
0.0
 10
-5.51251
 20
1.87066
 30
0.0
 10
-5.51251
 20
1.87066
 30
0.0
  0
SPLINE
  5
6A
330
1F
100
AcDbEntity
  8
Livello 1
 62
   250
370
    20
100
AcDbSpline
210
0.0
220
0.0
230
1.0
 70
    11
 71
     3
 72
    68
 73
    64
 74
     0
 42
0.0000000001
 43
0.0000000001
 40
0.0
 40
0.0
 40
0.0
 40
0.0
 40
0.0588235294117647
 40
0.0588235294117647
 40
0.0588235294117647
 40
0.0588235294117647
 40
0.1176470588235294
 40
0.1176470588235294
 40
0.1176470588235294
 40
0.1176470588235294
 40
0.1764705882352941
 40
0.1764705882352941
 40
0.1764705882352941
 40
0.1764705882352941
 40
0.2352941176470588
 40
0.2352941176470588
 40
0.2352941176470588
 40
0.2352941176470588
 40
0.2941176470588235
 40
0.2941176470588235
 40
0.2941176470588235
 40
0.2941176470588235
 40
0.3529411764705883
 40
0.3529411764705883
 40
0.3529411764705883
 40
0.3529411764705883
 40
0.4117647058823529
 40
0.4117647058823529
 40
0.4117647058823529
 40
0.4117647058823529
 40
0.4705882352941176
 40
0.4705882352941176
 40
0.4705882352941176
 40
0.4705882352941176
 40
0.5294117647058824
 40
0.5294117647058824
 40
0.5294117647058824
 40
0.5294117647058824
 40
0.5882352941176471
 40
0.5882352941176471
 40
0.5882352941176471
 40
0.5882352941176471
 40
0.6470588235294118
 40
0.6470588235294118
 40
0.6470588235294118
 40
0.6470588235294118
 40
0.7058823529411765
 40
0.7058823529411765
 40
0.7058823529411765
 40
0.7058823529411765
 40
0.7647058823529411
 40
0.7647058823529411
 40
0.7647058823529411
 40
0.7647058823529411
 40
0.8235294117647058
 40
0.8235294117647058
 40
0.8235294117647058
 40
0.8235294117647058
 40
0.8823529411764706
 40
0.8823529411764706
 40
0.8823529411764706
 40
0.8823529411764706
 40
1.0
 40
1.0
 40
1.0
 40
1.0
 10
-5.85882
 20
4.80345
 30
0.0
 10
-5.85882
 20
4.80345
 30
0.0
 10
-5.85882
 20
4.95954
 30
0.0
 10
-5.85882
 20
4.95954
 30
0.0
 10
-5.85882
 20
4.95954
 30
0.0
 10
-5.85882
 20
4.95954
 30
0.0
 10
-6.24805
 20
4.95954
 30
0.0
 10
-6.24805
 20
4.95954
 30
0.0
 10
-6.24805
 20
4.95954
 30
0.0
 10
-6.24805
 20
4.95954
 30
0.0
 10
-6.24805
 20
5.10954
 30
0.0
 10
-6.24805
 20
5.10954
 30
0.0
 10
-6.24805
 20
5.10954
 30
0.0
 10
-6.11829
 20
5.10954
 30
0.0
 10
-5.95171
 20
5.10954
 30
0.0
 10
-5.81955
 20
5.10954
 30
0.0
 10
-5.81955
 20
5.10954
 30
0.0
 10
-5.76968
 20
5.3248
 30
0.0
 10
-5.72156
 20
5.41143
 30
0.0
 10
-5.54132
 20
5.60667
 30
0.0
 10
-5.54132
 20
5.60667
 30
0.0
 10
-5.54132
 20
5.60667
 30
0.0
 10
-5.53856
 20
6.37396
 30
0.0
 10
-5.53856
 20
6.37396
 30
0.0
 10
-5.53856
 20
6.37396
 30
0.0
 10
-5.97865
 20
6.3156
 30
0.0
 10
-6.53326
 20
5.65505
 30
0.0
 10
-6.59965
 20
5.14806
 30
0.0
 10
-6.59965
 20
5.14806
 30
0.0
 10
-6.63272
 20
5.00139
 30
0.0
 10
-6.62948
 20
4.9305
 30
0.0
 10
-6.63493
 20
4.80345
 30
0.0
 10
-6.63493
 20
4.80345
 30
0.0
 10
-6.62948
 20
4.6764
 30
0.0
 10
-6.63272
 20
4.60551
 30
0.0
 10
-6.59965
 20
4.45884
 30
0.0
 10
-6.59965
 20
4.45884
 30
0.0
 10
-6.53326
 20
3.95185
 30
0.0
 10
-5.97865
 20
3.2913
 30
0.0
 10
-5.53856
 20
3.23294
 30
0.0
 10
-5.53856
 20
3.23294
 30
0.0
 10
-5.53856
 20
3.23294
 30
0.0
 10
-5.54132
 20
4.00023
 30
0.0
 10
-5.54132
 20
4.00023
 30
0.0
 10
-5.54132
 20
4.00023
 30
0.0
 10
-5.72156
 20
4.19547
 30
0.0
 10
-5.76968
 20
4.2821
 30
0.0
 10
-5.81955
 20
4.49736
 30
0.0
 10
-5.81955
 20
4.49736
 30
0.0
 10
-5.95171
 20
4.49736
 30
0.0
 10
-6.11829
 20
4.49736
 30
0.0
 10
-6.24805
 20
4.49736
 30
0.0
 10
-6.24805
 20
4.49736
 30
0.0
 10
-6.24805
 20
4.49736
 30
0.0
 10
-6.24805
 20
4.64736
 30
0.0
 10
-6.24805
 20
4.64736
 30
0.0
 10
-6.24805
 20
4.64736
 30
0.0
 10
-6.24805
 20
4.64736
 30
0.0
 10
-5.85882
 20
4.64736
 30
0.0
 10
-5.85882
 20
4.64736
 30
0.0
 10
-5.85882
 20
4.64736
 30
0.0
 10
-5.85882
 20
4.64736
 30
0.0
 10
-5.85882
 20
4.80345
 30
0.0
 10
-5.85882
 20
4.80345
 30
0.0
  0
SPLINE
  5
6B
330
1F
100
AcDbEntity
  8
Livello 1
 62
   250
370
    20
100
AcDbSpline
210
0.0
220
0.0
230
1.0
 70
    11
 71
     3
 72
    68
 73
    64
 74
     0
 42
0.0000000001
 43
0.0000000001
 40
0.0
 40
0.0
 40
0.0
 40
0.0
 40
0.0588235294117647
 40
0.0588235294117647
 40
0.0588235294117647
 40
0.0588235294117647
 40
0.1176470588235294
 40
0.1176470588235294
 40
0.1176470588235294
 40
0.1176470588235294
 40
0.1764705882352941
 40
0.1764705882352941
 40
0.1764705882352941
 40
0.1764705882352941
 40
0.2352941176470588
 40
0.2352941176470588
 40
0.2352941176470588
 40
0.2352941176470588
 40
0.2941176470588235
 40
0.2941176470588235
 40
0.2941176470588235
 40
0.2941176470588235
 40
0.3529411764705883
 40
0.3529411764705883
 40
0.3529411764705883
 40
0.3529411764705883
 40
0.4117647058823529
 40
0.4117647058823529
 40
0.4117647058823529
 40
0.4117647058823529
 40
0.4705882352941176
 40
0.4705882352941176
 40
0.4705882352941176
 40
0.4705882352941176
 40
0.5294117647058824
 40
0.5294117647058824
 40
0.5294117647058824
 40
0.5294117647058824
 40
0.5882352941176471
 40
0.5882352941176471
 40
0.5882352941176471
 40
0.5882352941176471
 40
0.6470588235294118
 40
0.6470588235294118
 40
0.6470588235294118
 40
0.6470588235294118
 40
0.7058823529411765
 40
0.7058823529411765
 40
0.7058823529411765
 40
0.7058823529411765
 40
0.7647058823529411
 40
0.7647058823529411
 40
0.7647058823529411
 40
0.7647058823529411
 40
0.8235294117647058
 40
0.8235294117647058
 40
0.8235294117647058
 40
0.8235294117647058
 40
0.8823529411764706
 40
0.8823529411764706
 40
0.8823529411764706
 40
0.8823529411764706
 40
1.0
 40
1.0
 40
1.0
 40
1.0
 10
-5.47237
 20
4.85464
 30
0.0
 10
-5.47237
 20
4.85464
 30
0.0
 10
-5.47237
 20
5.0198
 30
0.0
 10
-5.47237
 20
5.0198
 30
0.0
 10
-5.47237
 20
5.0198
 30
0.0
 10
-5.47237
 20
5.0198
 30
0.0
 10
-5.23185
 20
5.0198
 30
0.0
 10
-5.23185
 20
5.0198
 30
0.0
 10
-5.23185
 20
5.0198
 30
0.0
 10
-5.23185
 20
5.0198
 30
0.0
 10
-5.18537
 20
5.0198
 30
0.0
 10
-5.18537
 20
5.0198
 30
0.0
 10
-5.18537
 20
5.0198
 30
0.0
 10
-5.18537
 20
5.0198
 30
0.0
 10
-5.18537
 20
5.1698
 30
0.0
 10
-5.18537
 20
5.1698
 30
0.0
 10
-5.18537
 20
5.1698
 30
0.0
 10
-5.18537
 20
5.1698
 30
0.0
 10
-5.42528
 20
5.1698
 30
0.0
 10
-5.42528
 20
5.1698
 30
0.0
 10
-5.42528
 20
5.1698
 30
0.0
 10
-5.42528
 20
5.1698
 30
0.0
 10
-5.46273
 20
5.1698
 30
0.0
 10
-5.46273
 20
5.1698
 30
0.0
 10
-5.46273
 20
5.1698
 30
0.0
 10
-5.46273
 20
5.1698
 30
0.0
 10
-5.46686
 20
6.1939
 30
0.0
 10
-5.46686
 20
6.1939
 30
0.0
 10
-5.46686
 20
6.1939
 30
0.0
 10
-5.0701
 20
5.97287
 30
0.0
 10
-4.84245
 20
5.4933
 30
0.0
 10
-4.82946
 20
4.85464
 30
0.0
 10
-4.82946
 20
4.85464
 30
0.0
 10
-4.84245
 20
4.21598
 30
0.0
 10
-5.0701
 20
3.73641
 30
0.0
 10
-5.46686
 20
3.51538
 30
0.0
 10
-5.46686
 20
3.51538
 30
0.0
 10
-5.46686
 20
3.51538
 30
0.0
 10
-5.46273
 20
4.53948
 30
0.0
 10
-5.46273
 20
4.53948
 30
0.0
 10
-5.46273
 20
4.53948
 30
0.0
 10
-5.46273
 20
4.53948
 30
0.0
 10
-5.42528
 20
4.53948
 30
0.0
 10
-5.42528
 20
4.53948
 30
0.0
 10
-5.42528
 20
4.53948
 30
0.0
 10
-5.42528
 20
4.53948
 30
0.0
 10
-5.18537
 20
4.53948
 30
0.0
 10
-5.18537
 20
4.53948
 30
0.0
 10
-5.18537
 20
4.53948
 30
0.0
 10
-5.18537
 20
4.53948
 30
0.0
 10
-5.18537
 20
4.68948
 30
0.0
 10
-5.18537
 20
4.68948
 30
0.0
 10
-5.18537
 20
4.68948
 30
0.0
 10
-5.18537
 20
4.68948
 30
0.0
 10
-5.23185
 20
4.68948
 30
0.0
 10
-5.23185
 20
4.68948
 30
0.0
 10
-5.23185
 20
4.68948
 30
0.0
 10
-5.23185
 20
4.68948
 30
0.0
 10
-5.47237
 20
4.68948
 30
0.0
 10
-5.47237
 20
4.68948
 30
0.0
 10
-5.47237
 20
4.68948
 30
0.0
 10
-5.47237
 20
4.68948
 30
0.0
 10
-5.47237
 20
4.85464
 30
0.0
 10
-5.47237
 20
4.85464
 30
0.0
  0
SPLINE
  5
6C
330
1F
100
AcDbEntity
  8
Livello 1
 62
   250
370
    20
100
AcDbSpline
210
0.0
220
0.0
230
1.0
 70
    11
 71
     3
 72
   168
 73
   164
 74
     0
 42
0.0000000001
 43
0.0000000001
 40
0.0
 40
0.0
 40
0.0
 40
0.0
 40
0.0238095238095238
 40
0.0238095238095238
 40
0.0238095238095238
 40
0.0238095238095238
 40
0.0476190476190476
 40
0.0476190476190476
 40
0.0476190476190476
 40
0.0476190476190476
 40
0.0714285714285714
 40
0.0714285714285714
 40
0.0714285714285714
 40
0.0714285714285714
 40
0.0952380952380952
 40
0.0952380952380952
 40
0.0952380952380952
 40
0.0952380952380952
 40
0.119047619047619
 40
0.119047619047619
 40
0.119047619047619
 40
0.119047619047619
 40
0.1428571428571428
 40
0.1428571428571428
 40
0.1428571428571428
 40
0.1428571428571428
 40
0.1666666666666667
 40
0.1666666666666667
 40
0.1666666666666667
 40
0.1666666666666667
 40
0.1904761904761905
 40
0.1904761904761905
 40
0.1904761904761905
 40
0.1904761904761905
 40
0.2142857142857143
 40
0.2142857142857143
 40
0.2142857142857143
 40
0.2142857142857143
 40
0.2380952380952381
 40
0.2380952380952381
 40
0.2380952380952381
 40
0.2380952380952381
 40
0.2619047619047619
 40
0.2619047619047619
 40
0.2619047619047619
 40
0.2619047619047619
 40
0.2857142857142857
 40
0.2857142857142857
 40
0.2857142857142857
 40
0.2857142857142857
 40
0.3095238095238095
 40
0.3095238095238095
 40
0.3095238095238095
 40
0.3095238095238095
 40
0.3333333333333333
 40
0.3333333333333333
 40
0.3333333333333333
 40
0.3333333333333333
 40
0.3571428571428572
 40
0.3571428571428572
 40
0.3571428571428572
 40
0.3571428571428572
 40
0.3809523809523809
 40
0.3809523809523809
 40
0.3809523809523809
 40
0.3809523809523809
 40
0.4047619047619048
 40
0.4047619047619048
 40
0.4047619047619048
 40
0.4047619047619048
 40
0.4285714285714285
 40
0.4285714285714285
 40
0.4285714285714285
 40
0.4285714285714285
 40
0.4523809523809524
 40
0.4523809523809524
 40
0.4523809523809524
 40
0.4523809523809524
 40
0.4761904761904762
 40
0.4761904761904762
 40
0.4761904761904762
 40
0.4761904761904762
 40
0.5
 40
0.5
 40
0.5
 40
0.5
 40
0.5238095238095238
 40
0.5238095238095238
 40
0.5238095238095238
 40
0.5238095238095238
 40
0.5476190476190477
 40
0.5476190476190477
 40
0.5476190476190477
 40
0.5476190476190477
 40
0.5714285714285714
 40
0.5714285714285714
 40
0.5714285714285714
 40
0.5714285714285714
 40
0.5952380952380952
 40
0.5952380952380952
 40
0.5952380952380952
 40
0.5952380952380952
 40
0.6190476190476191
 40
0.6190476190476191
 40
0.6190476190476191
 40
0.6190476190476191
 40
0.6428571428571429
 40
0.6428571428571429
 40
0.6428571428571429
 40
0.6428571428571429
 40
0.6666666666666666
 40
0.6666666666666666
 40
0.6666666666666666
 40
0.6666666666666666
 40
0.6904761904761905
 40
0.6904761904761905
 40
0.6904761904761905
 40
0.6904761904761905
 40
0.7142857142857143
 40
0.7142857142857143
 40
0.7142857142857143
 40
0.7142857142857143
 40
0.7380952380952381
 40
0.7380952380952381
 40
0.7380952380952381
 40
0.7380952380952381
 40
0.7619047619047619
 40
0.7619047619047619
 40
0.7619047619047619
 40
0.7619047619047619
 40
0.7857142857142857
 40
0.7857142857142857
 40
0.7857142857142857
 40
0.7857142857142857
 40
0.8095238095238095
 40
0.8095238095238095
 40
0.8095238095238095
 40
0.8095238095238095
 40
0.8333333333333334
 40
0.8333333333333334
 40
0.8333333333333334
 40
0.8333333333333334
 40
0.8571428571428571
 40
0.8571428571428571
 40
0.8571428571428571
 40
0.8571428571428571
 40
0.8809523809523809
 40
0.8809523809523809
 40
0.8809523809523809
 40
0.8809523809523809
 40
0.9047619047619048
 40
0.9047619047619048
 40
0.9047619047619048
 40
0.9047619047619048
 40
0.9285714285714286
 40
0.9285714285714286
 40
0.9285714285714286
 40
0.9285714285714286
 40
0.9523809523809523
 40
0.9523809523809523
 40
0.9523809523809523
 40
0.9523809523809523
 40
1.0
 40
1.0
 40
1.0
 40
1.0
 10
-7.79197
 20
-1.95117
 30
0.0
 10
-8.23622
 20
-1.8358
 30
0.0
 10
-8.25803
 20
-1.38192
 30
0.0
 10
-8.15894
 20
-1.03817
 30
0.0
 10
-8.15894
 20
-1.03817
 30
0.0
 10
-8.24506
 20
-0.92149
 30
0.0
 10
-8.25506
 20
-0.94457
 30
0.0
 10
-8.28904
 20
-0.81965
 30
0.0
 10
-8.28904
 20
-0.81965
 30
0.0
 10
-8.28904
 20
-0.81965
 30
0.0
 10
-7.91006
 20
-0.9875
 30
0.0
 10
-7.91006
 20
-0.9875
 30
0.0
 10
-7.91006
 20
-0.9875
 30
0.0
 10
-7.88952
 20
-0.9411
 30
0.0
 10
-7.86994
 20
-0.89691
 30
0.0
 10
-7.84931
 20
-0.85034
 30
0.0
 10
-7.84931
 20
-0.85034
 30
0.0
 10
-8.03444
 20
-0.76834
 30
0.0
 10
-8.22008
 20
-0.68613
 30
0.0
 10
-8.40556
 20
-0.60398
 30
0.0
 10
-8.40556
 20
-0.60398
 30
0.0
 10
-8.40556
 20
-0.60398
 30
0.0
 10
-8.40556
 20
-0.60397
 30
0.0
 10
-8.40556
 20
-0.60397
 30
0.0
 10
-8.40556
 20
-0.60397
 30
0.0
 10
-8.38517
 20
-0.46861
 30
0.0
 10
-8.36627
 20
-0.38152
 30
0.0
 10
-8.31793
 20
-0.26249
 30
0.0
 10
-8.31793
 20
-0.26249
 30
0.0
 10
-8.31793
 20
-0.26249
 30
0.0
 10
-7.81031
 20
-0.48732
 30
0.0
 10
-7.81031
 20
-0.48732
 30
0.0
 10
-7.81031
 20
-0.48732
 30
0.0
 10
-7.81031
 20
-0.48732
 30
0.0
 10
-7.74956
 20
-0.35016
 30
0.0
 10
-7.74956
 20
-0.35016
 30
0.0
 10
-7.74956
 20
-0.35016
 30
0.0
 10
-7.74956
 20
-0.35016
 30
0.0
 10
-8.27453
 20
-0.11765
 30
0.0
 10
-8.27453
 20
-0.11765
 30
0.0
 10
-8.27453
 20
-0.11765
 30
0.0
 10
-8.23019
 20
0.01798
 30
0.0
 10
-8.18098
 20
0.08428
 30
0.0
 10
-8.07499
 20
0.1764
 30
0.0
 10
-8.07499
 20
0.1764
 30
0.0
 10
-8.07499
 20
0.1764
 30
0.0
 10
-7.02512
 20
-0.28858
 30
0.0
 10
-7.02512
 20
-0.28858
 30
0.0
 10
-7.02512
 20
-0.28858
 30
0.0
 10
-7.02512
 20
-0.28858
 30
0.0
 10
-6.96437
 20
-0.15142
 30
0.0
 10
-6.96437
 20
-0.15142
 30
0.0
 10
-6.96437
 20
-0.15142
 30
0.0
 10
-7.26912
 20
-0.01646
 30
0.0
 10
-7.57364
 20
0.11842
 30
0.0
 10
-7.87843
 20
0.25341
 30
0.0
 10
-7.87843
 20
0.25341
 30
0.0
 10
-7.78016
 20
0.38381
 30
0.0
 10
-7.60548
 20
0.41936
 30
0.0
 10
-7.39326
 20
0.36007
 30
0.0
 10
-7.39326
 20
0.36007
 30
0.0
 10
-7.2562
 20
0.32177
 30
0.0
 10
-7.19559
 20
0.28328
 30
0.0
 10
-7.08228
 20
0.20713
 30
0.0
 10
-7.08228
 20
0.20713
 30
0.0
 10
-6.97442
 20
0.12336
 30
0.0
 10
-6.89138
 20
0.03452
 30
0.0
 10
-6.62014
 20
-0.03392
 30
0.0
 10
-6.62014
 20
-0.03392
 30
0.0
 10
-6.50714
 20
-0.04968
 30
0.0
 10
-6.47264
 20
-0.0541
 30
0.0
 10
-6.38479
 20
-0.05157
 30
0.0
 10
-6.38479
 20
-0.05157
 30
0.0
 10
-6.38479
 20
-0.05157
 30
0.0
 10
-6.04156
 20
-0.17887
 30
0.0
 10
-6.04156
 20
-0.17887
 30
0.0
 10
-6.04156
 20
-0.17887
 30
0.0
 10
-6.01707
 20
-0.18864
 30
0.0
 10
-5.99178
 20
-0.19843
 30
0.0
 10
-5.96529
 20
-0.20827
 30
0.0
 10
-5.96529
 20
-0.20827
 30
0.0
 10
-5.96529
 20
-0.20827
 30
0.0
 10
-5.96494
 20
-0.20728
 30
0.0
 10
-5.96494
 20
-0.20728
 30
0.0
 10
-5.96494
 20
-0.20728
 30
0.0
 10
-5.96494
 20
-0.20728
 30
0.0
 10
-5.9583
 20
-0.20975
 30
0.0
 10
-5.9583
 20
-0.20975
 30
0.0
 10
-5.9583
 20
-0.20975
 30
0.0
 10
-5.9583
 20
-0.20975
 30
0.0
 10
-5.90614
 20
-0.06911
 30
0.0
 10
-5.90614
 20
-0.06911
 30
0.0
 10
-5.90614
 20
-0.06911
 30
0.0
 10
-5.93732
 20
-0.05754
 30
0.0
 10
-6.05273
 20
-0.01526
 30
0.0
 10
-6.05507
 20
-0.01145
 30
0.0
 10
-6.05507
 20
-0.01145
 30
0.0
 10
-6.05507
 20
-0.01145
 30
0.0
 10
-5.75583
 20
0.20942
 30
0.0
 10
-5.75583
 20
0.20942
 30
0.0
 10
-5.75583
 20
0.20942
 30
0.0
 10
-5.62353
 20
0.16034
 30
0.0
 10
-5.49198
 20
0.11156
 30
0.0
 10
-5.35985
 20
0.06256
 30
0.0
 10
-5.35985
 20
0.06256
 30
0.0
 10
-5.34215
 20
0.11029
 30
0.0
 10
-5.32551
 20
0.15514
 30
0.0
 10
-5.30769
 20
0.2032
 30
0.0
 10
-5.30769
 20
0.2032
 30
0.0
 10
-5.30769
 20
0.2032
 30
0.0
 10
-5.6397
 20
0.32634
 30
0.0
 10
-5.6397
 20
0.32634
 30
0.0
 10
-5.6397
 20
0.32634
 30
0.0
 10
-5.60052
 20
0.46966
 30
0.0
 10
-5.58894
 20
0.48635
 30
0.0
 10
-5.51454
 20
0.60674
 30
0.0
 10
-5.51454
 20
0.60674
 30
0.0
 10
-5.33547
 20
0.5724
 30
0.0
 10
-5.09126
 20
0.46002
 30
0.0
 10
-4.94484
 20
0.36954
 30
0.0
 10
-4.94484
 20
0.36954
 30
0.0
 10
-5.14548
 20
-0.27537
 30
0.0
 10
-6.00477
 20
-0.82839
 30
0.0
 10
-6.71679
 20
-0.67525
 30
0.0
 10
-6.71679
 20
-0.67525
 30
0.0
 10
-7.00764
 20
-0.61837
 30
0.0
 10
-7.20444
 20
-0.50537
 30
0.0
 10
-7.4486
 20
-0.34626
 30
0.0
 10
-7.4486
 20
-0.34626
 30
0.0
 10
-7.42683
 20
-0.48058
 30
0.0
 10
-7.38015
 20
-0.59059
 30
0.0
 10
-7.38042
 20
-0.72661
 30
0.0
 10
-7.38042
 20
-0.72661
 30
0.0
 10
-7.39767
 20
-0.85218
 30
0.0
 10
-7.45025
 20
-0.97152
 30
0.0
 10
-7.53112
 20
-1.05708
 30
0.0
 10
-7.53112
 20
-1.05708
 30
0.0
 10
-7.58459
 20
-1.10405
 30
0.0
 10
-7.63796
 20
-1.10591
 30
0.0
 10
-7.66087
 20
-1.11239
 30
0.0
 10
-7.66087
 20
-1.11239
 30
0.0
 10
-7.65047
 20
-1.14352
 30
0.0
 10
-7.61381
 20
-1.18267
 30
0.0
 10
-7.5399
 20
-1.2828
 30
0.0
 10
-7.5399
 20
-1.2828
 30
0.0
 10
-7.50669
 20
-1.34154
 30
0.0
 10
-7.4694
 20
-1.43237
 30
0.0
 10
-7.50003
 20
-1.5322
 30
0.0
 10
-7.50003
 20
-1.5322
 30
0.0
 10
-7.50003
 20
-1.5322
 30
0.0
 10
-7.73814
 20
-1.42675
 30
0.0
 10
-7.73814
 20
-1.42675
 30
0.0
 10
-7.73814
 20
-1.42675
 30
0.0
 10
-7.75849
 20
-1.47271
 30
0.0
 10
-7.77857
 20
-1.51801
 30
0.0
 10
-7.79889
 20
-1.56391
 30
0.0
 10
-7.79889
 20
-1.56391
 30
0.0
 10
-7.79889
 20
-1.56391
 30
0.0
 10
-7.47554
 20
-1.70711
 30
0.0
 10
-7.47554
 20
-1.70711
 30
0.0
 10
-7.47554
 20
-1.70711
 30
0.0
 10
-7.51901
 20
-1.92094
 30
0.0
 10
-7.68781
 20
-1.95585
 30
0.0
 10
-7.79197
 20
-1.95117
 30
0.0
  0
SPLINE
  5
6D
330
1F
100
AcDbEntity
  8
Livello 1
 62
   250
370
    20
100
AcDbSpline
210
0.0
220
0.0
230
1.0
 70
    11
 71
     3
 72
    76
 73
    72
 74
     0
 42
0.0000000001
 43
0.0000000001
 40
0.0
 40
0.0
 40
0.0
 40
0.0
 40
0.0526315789473684
 40
0.0526315789473684
 40
0.0526315789473684
 40
0.0526315789473684
 40
0.1052631578947368
 40
0.1052631578947368
 40
0.1052631578947368
 40
0.1052631578947368
 40
0.1578947368421053
 40
0.1578947368421053
 40
0.1578947368421053
 40
0.1578947368421053
 40
0.2105263157894737
 40
0.2105263157894737
 40
0.2105263157894737
 40
0.2105263157894737
 40
0.2631578947368421
 40
0.2631578947368421
 40
0.2631578947368421
 40
0.2631578947368421
 40
0.3157894736842105
 40
0.3157894736842105
 40
0.3157894736842105
 40
0.3157894736842105
 40
0.3684210526315789
 40
0.3684210526315789
 40
0.3684210526315789
 40
0.3684210526315789
 40
0.4210526315789473
 40
0.4210526315789473
 40
0.4210526315789473
 40
0.4210526315789473
 40
0.4736842105263158
 40
0.4736842105263158
 40
0.4736842105263158
 40
0.4736842105263158
 40
0.5263157894736842
 40
0.5263157894736842
 40
0.5263157894736842
 40
0.5263157894736842
 40
0.5789473684210527
 40
0.5789473684210527
 40
0.5789473684210527
 40
0.5789473684210527
 40
0.631578947368421
 40
0.631578947368421
 40
0.631578947368421
 40
0.631578947368421
 40
0.6842105263157895
 40
0.6842105263157895
 40
0.6842105263157895
 40
0.6842105263157895
 40
0.7368421052631579
 40
0.7368421052631579
 40
0.7368421052631579
 40
0.7368421052631579
 40
0.7894736842105263
 40
0.7894736842105263
 40
0.7894736842105263
 40
0.7894736842105263
 40
0.8421052631578947
 40
0.8421052631578947
 40
0.8421052631578947
 40
0.8421052631578947
 40
0.8947368421052632
 40
0.8947368421052632
 40
0.8947368421052632
 40
0.8947368421052632
 40
1.0
 40
1.0
 40
1.0
 40
1.0
 10
-8.43046
 20
2.22799
 30
0.0
 10
-8.53553
 20
2.17464
 30
0.0
 10
-8.63987
 20
2.12167
 30
0.0
 10
-8.74525
 20
2.06817
 30
0.0
 10
-8.74525
 20
2.06817
 30
0.0
 10
-8.77479
 20
1.89962
 30
0.0
 10
-8.74679
 20
1.76537
 30
0.0
 10
-8.71203
 20
1.5913
 30
0.0
 10
-8.71203
 20
1.5913
 30
0.0
 10
-8.71203
 20
1.5913
 30
0.0
 10
-8.45087
 20
1.72389
 30
0.0
 10
-8.45087
 20
1.72389
 30
0.0
 10
-8.45087
 20
1.72389
 30
0.0
 10
-8.42767
 20
1.6782
 30
0.0
 10
-8.40597
 20
1.63545
 30
0.0
 10
-8.38296
 20
1.59014
 30
0.0
 10
-8.38296
 20
1.59014
 30
0.0
 10
-8.47732
 20
1.54224
 30
0.0
 10
-8.56958
 20
1.4954
 30
0.0
 10
-8.66487
 20
1.44702
 30
0.0
 10
-8.66487
 20
1.44702
 30
0.0
 10
-8.67232
 20
1.32121
 30
0.0
 10
-8.65751
 20
1.19071
 30
0.0
 10
-8.55353
 20
1.06622
 30
0.0
 10
-8.55353
 20
1.06622
 30
0.0
 10
-8.45699
 20
1.11523
 30
0.0
 10
-8.36048
 20
1.16423
 30
0.0
 10
-8.26394
 20
1.21324
 30
0.0
 10
-8.26394
 20
1.21324
 30
0.0
 10
-8.23137
 20
1.14908
 30
0.0
 10
-8.21869
 20
1.12412
 30
0.0
 10
-8.19604
 20
1.07949
 30
0.0
 10
-8.19604
 20
1.07949
 30
0.0
 10
-8.19604
 20
1.07949
 30
0.0
 10
-8.51125
 20
0.91946
 30
0.0
 10
-8.51125
 20
0.91946
 30
0.0
 10
-8.51125
 20
0.91946
 30
0.0
 10
-8.52258
 20
0.89825
 30
0.0
 10
-8.35584
 20
0.65158
 30
0.0
 10
-8.278
 20
0.60796
 30
0.0
 10
-8.278
 20
0.60796
 30
0.0
 10
-8.278
 20
0.60796
 30
0.0
 10
-7.64945
 20
0.92491
 30
0.0
 10
-7.64945
 20
0.92491
 30
0.0
 10
-7.64945
 20
0.92491
 30
0.0
 10
-7.74784
 20
1.04486
 30
0.0
 10
-7.82308
 20
1.16179
 30
0.0
 10
-7.85601
 20
1.2574
 30
0.0
 10
-7.85601
 20
1.2574
 30
0.0
 10
-8.0579
 20
1.94156
 30
0.0
 10
-8.14696
 20
1.88973
 30
0.0
 10
-8.17589
 20
1.9654
 30
0.0
 10
-8.17589
 20
1.9654
 30
0.0
 10
-8.26729
 20
2.2045
 30
0.0
 10
-7.85367
 20
2.58846
 30
0.0
 10
-7.98878
 20
3.09215
 30
0.0
 10
-7.98878
 20
3.09215
 30
0.0
 10
-7.98878
 20
3.09215
 30
0.0
 10
-8.71693
 20
2.71938
 30
0.0
 10
-8.71693
 20
2.71938
 30
0.0
 10
-8.71693
 20
2.71938
 30
0.0
 10
-8.7449
 20
2.6033
 30
0.0
 10
-8.78266
 20
2.40703
 30
0.0
 10
-8.73789
 20
2.24013
 30
0.0
 10
-8.73789
 20
2.24013
 30
0.0
 10
-8.72944
 20
2.24098
 30
0.0
 10
-8.52332
 20
2.34907
 30
0.0
 10
-8.49836
 20
2.36174
 30
0.0
 10
-8.49836
 20
2.36174
 30
0.0
 10
-8.47587
 20
2.31745
 30
0.0
 10
-8.45307
 20
2.27253
 30
0.0
 10
-8.43046
 20
2.22799
 30
0.0
  0
SPLINE
  5
6E
330
1F
100
AcDbEntity
  8
Livello 1
 62
   250
370
    20
100
AcDbSpline
210
0.0
220
0.0
230
1.0
 70
    11
 71
     3
 72
    80
 73
    76
 74
     0
 42
0.0000000001
 43
0.0000000001
 40
0.0
 40
0.0
 40
0.0
 40
0.0
 40
0.05
 40
0.05
 40
0.05
 40
0.05
 40
0.1
 40
0.1
 40
0.1
 40
0.1
 40
0.15
 40
0.15
 40
0.15
 40
0.15
 40
0.2
 40
0.2
 40
0.2
 40
0.2
 40
0.25
 40
0.25
 40
0.25
 40
0.25
 40
0.3
 40
0.3
 40
0.3
 40
0.3
 40
0.35
 40
0.35
 40
0.35
 40
0.35
 40
0.4
 40
0.4
 40
0.4
 40
0.4
 40
0.45
 40
0.45
 40
0.45
 40
0.45
 40
0.5
 40
0.5
 40
0.5
 40
0.5
 40
0.55
 40
0.55
 40
0.55
 40
0.55
 40
0.6
 40
0.6
 40
0.6
 40
0.6
 40
0.65
 40
0.65
 40
0.65
 40
0.65
 40
0.7
 40
0.7
 40
0.7
 40
0.7
 40
0.75
 40
0.75
 40
0.75
 40
0.75
 40
0.8
 40
0.8
 40
0.8
 40
0.8
 40
0.85
 40
0.85
 40
0.85
 40
0.85
 40
0.9
 40
0.9
 40
0.9
 40
0.9
 40
1.0
 40
1.0
 40
1.0
 40
1.0
 10
-10.94877
 20
5.18311
 30
0.0
 10
-11.40041
 20
4.48599
 30
0.0
 10
-11.53797
 20
4.37862
 30
0.0
 10
-11.67198
 20
3.43438
 30
0.0
 10
-11.67198
 20
3.43438
 30
0.0
 10
-11.70483
 20
2.7117
 30
0.0
 10
-11.42843
 20
1.95317
 30
0.0
 10
-11.34399
 20
1.37777
 30
0.0
 10
-11.34399
 20
1.37777
 30
0.0
 10
-11.28265
 20
0.79023
 30
0.0
 10
-11.3732
 20
0.0193
 30
0.0
 10
-11.42712
 20
-0.44969
 30
0.0
 10
-11.42712
 20
-0.44969
 30
0.0
 10
-11.1061
 20
-0.74003
 30
0.0
 10
-10.90127
 20
-0.89063
 30
0.0
 10
-10.78168
 20
-1.3664
 30
0.0
 10
-10.78168
 20
-1.3664
 30
0.0
 10
-10.78168
 20
-1.3664
 30
0.0
 10
-11.24053
 20
-1.88035
 30
0.0
 10
-11.24053
 20
-1.88035
 30
0.0
 10
-11.24053
 20
-1.88035
 30
0.0
 10
-11.2782
 20
-1.90643
 30
0.0
 10
-11.3241
 20
-1.89658
 30
0.0
 10
-11.34755
 20
-1.85635
 30
0.0
 10
-11.34755
 20
-1.85635
 30
0.0
 10
-11.39103
 20
-1.78169
 30
0.0
 10
-11.41984
 20
-1.60514
 30
0.0
 10
-11.43212
 20
-1.46932
 30
0.0
 10
-11.43212
 20
-1.46932
 30
0.0
 10
-11.34789
 20
-1.3762
 30
0.0
 10
-11.26367
 20
-1.28307
 30
0.0
 10
-11.17944
 20
-1.18994
 30
0.0
 10
-11.17944
 20
-1.18994
 30
0.0
 10
-11.17944
 20
-1.18994
 30
0.0
 10
-11.29069
 20
-1.08933
 30
0.0
 10
-11.29069
 20
-1.08933
 30
0.0
 10
-11.29069
 20
-1.08933
 30
0.0
 10
-11.29069
 20
-1.08933
 30
0.0
 10
-11.50819
 20
-1.32981
 30
0.0
 10
-11.50819
 20
-1.32981
 30
0.0
 10
-11.50819
 20
-1.32981
 30
0.0
 10
-11.5472
 20
-1.37294
 30
0.0
 10
-11.82571
 20
-1.10645
 30
0.0
 10
-11.78792
 20
-1.06577
 30
0.0
 10
-11.78792
 20
-1.06577
 30
0.0
 10
-11.78792
 20
-1.06577
 30
0.0
 10
-11.52914
 20
-0.77966
 30
0.0
 10
-11.52914
 20
-0.77966
 30
0.0
 10
-11.52914
 20
-0.77966
 30
0.0
 10
-11.52914
 20
-0.77966
 30
0.0
 10
-11.64039
 20
-0.67904
 30
0.0
 10
-11.64039
 20
-0.67904
 30
0.0
 10
-11.64039
 20
-0.67904
 30
0.0
 10
-11.73639
 20
-0.78518
 30
0.0
 10
-11.83238
 20
-0.89131
 30
0.0
 10
-11.92837
 20
-0.99745
 30
0.0
 10
-11.92837
 20
-0.99745
 30
0.0
 10
-12.16974
 20
-0.77914
 30
0.0
 10
-12.17835
 20
-0.69602
 30
0.0
 10
-12.07863
 20
-0.58619
 30
0.0
 10
-12.07863
 20
-0.58619
 30
0.0
 10
-11.98111
 20
-0.47836
 30
0.0
 10
-11.88394
 20
-0.37626
 30
0.0
 10
-11.78591
 20
-0.26787
 30
0.0
 10
-11.78591
 20
-0.26787
 30
0.0
 10
-11.70156
 20
0.15783
 30
0.0
 10
-11.65741
 20
0.48426
 30
0.0
 10
-11.62046
 20
0.91432
 30
0.0
 10
-11.62046
 20
0.91432
 30
0.0
 10
-11.57284
 20
1.96177
 30
0.0
 10
-12.1953
 20
3.03828
 30
0.0
 10
-11.7576
 20
4.13017
 30
0.0
 10
-11.7576
 20
4.13017
 30
0.0
 10
-11.63117
 20
4.44557
 30
0.0
 10
-11.24752
 20
5.01264
 30
0.0
 10
-10.94877
 20
5.18311
 30
0.0
  0
SPLINE
  5
6F
330
1F
100
AcDbEntity
  8
Livello 1
 62
   250
370
    20
100
AcDbSpline
210
0.0
220
0.0
230
1.0
 70
    11
 71
     3
 72
    20
 73
    16
 74
     0
 42
0.0000000001
 43
0.0000000001
 40
0.0
 40
0.0
 40
0.0
 40
0.0
 40
0.2
 40
0.2
 40
0.2
 40
0.2
 40
0.4
 40
0.4
 40
0.4
 40
0.4
 40
0.6
 40
0.6
 40
0.6
 40
0.6
 40
1.0
 40
1.0
 40
1.0
 40
1.0
 10
2.79858
 20
7.83839
 30
0.0
 10
2.79858
 20
7.83839
 30
0.0
 10
12.70459
 20
7.83839
 30
0.0
 10
12.70459
 20
7.83839
 30
0.0
 10
12.70459
 20
7.83839
 30
0.0
 10
12.70459
 20
7.83839
 30
0.0
 10
12.70459
 20
-7.57095
 30
0.0
 10
12.70459
 20
-7.57095
 30
0.0
 10
12.70459
 20
-7.57095
 30
0.0
 10
12.70459
 20
-7.57095
 30
0.0
 10
2.79858
 20
-7.57095
 30
0.0
 10
2.79858
 20
-7.57095
 30
0.0
 10
2.79858
 20
-7.57095
 30
0.0
 10
2.79858
 20
-7.57095
 30
0.0
 10
2.79858
 20
7.83839
 30
0.0
 10
2.79858
 20
7.83839
 30
0.0
  0
ENDSEC
  0
SECTION
  2
OBJECTS
  0
DICTIONARY
  5
C
330
0
100
AcDbDictionary
281
     1
  3
ACAD_GROUP
350
D
  3
ACAD_LAYOUT
350
1A
  3
ACAD_MATERIAL
350
3B
  3
ACAD_MLEADERSTYLE
350
91
  3
ACAD_MLINESTYLE
350
17
  3
ACAD_PLOTSETTINGS
350
19
  3
ACAD_PLOTSTYLENAME
350
E
  3
ACAD_TABLESTYLE
350
90
  3
ACAD_VISUALSTYLE
350
2A
  0
DICTIONARY
  5
D
102
{ACAD_REACTORS
330
C
102
}
330
C
100
AcDbDictionary
281
     1
  0
DICTIONARY
  5
1A
102
{ACAD_REACTORS
330
C
102
}
330
C
100
AcDbDictionary
281
     1
  3
Layout1
350
1E
  3
Layout2
350
26
  3
Model
350
22
  0
DICTIONARY
  5
3B
102
{ACAD_REACTORS
330
C
102
}
330
C
100
AcDbDictionary
281
     1
  3
ByBlock
350
3D
  3
ByLayer
350
3C
  3
Global
350
3E
  0
DICTIONARY
  5
91
102
{ACAD_REACTORS
330
C
102
}
330
C
100
AcDbDictionary
281
     1
  0
DICTIONARY
  5
17
102
{ACAD_REACTORS
330
C
102
}
330
C
100
AcDbDictionary
281
     1
  3
Standard
350
18
  0
DICTIONARY
  5
19
102
{ACAD_REACTORS
330
C
102
}
330
C
100
AcDbDictionary
281
     1
  0
ACDBDICTIONARYWDFLT
  5
E
102
{ACAD_REACTORS
330
C
102
}
330
C
100
AcDbDictionary
281
     1
  3
Normal
350
F
100
AcDbDictionaryWithDefault
340
F
  0
DICTIONARY
  5
90
102
{ACAD_REACTORS
330
C
102
}
330
C
100
AcDbDictionary
281
     1
  0
DICTIONARY
  5
2A
102
{ACAD_REACTORS
330
C
102
}
330
C
100
AcDbDictionary
281
     1
  3
2dWireframe
350
2F
  3
3D Hidden
350
31
  3
3dWireframe
350
30
  3
Basic
350
32
  3
Brighten
350
36
  3
ColorChange
350
3A
  3
Conceptual
350
34
  3
Dim
350
35
  3
Facepattern
350
39
  3
Flat
350
2B
  3
FlatWithEdges
350
2C
  3
Gouraud
350
2D
  3
GouraudWithEdges
350
2E
  3
Linepattern
350
38
  3
Realistic
350
33
  3
Thicken
350
37
  0
LAYOUT
  5
1E
102
{ACAD_REACTORS
330
1A
102
}
330
1A
100
AcDbPlotSettings
  1

  2
none_device
  4

  6

 40
0.0
 41
0.0
 42
0.0
 43
0.0
 44
0.0
 45
0.0
 46
0.0
 47
0.0
 48
0.0
 49
0.0
140
0.0
141
0.0
142
1.0
143
1.0
 70
   688
 72
     0
 73
     0
 74
     5
  7

 75
    16
 76
     0
 77
     2
 78
   300
147
1.0
148
0.0
149
0.0
100
AcDbLayout
  1
Layout1
 70
     1
 71
     1
 10
0.0
 20
0.0
 11
12.0
 21
9.0
 12
0.0
 22
0.0
 32
0.0
 14
1.000000000000000E 20
 24
1.000000000000000E 20
 34
1.000000000000000E 20
 15
-1.000000000000000E 20
 25
-1.000000000000000E 20
 35
-1.000000000000000E 20
146
0.0
 13
0.0
 23
0.0
 33
0.0
 16
1.0
 26
0.0
 36
0.0
 17
0.0
 27
1.0
 37
0.0
 76
     0
330
1B
  0
LAYOUT
  5
26
102
{ACAD_REACTORS
330
1A
102
}
330
1A
100
AcDbPlotSettings
  1

  2
none_device
  4

  6

 40
0.0
 41
0.0
 42
0.0
 43
0.0
 44
0.0
 45
0.0
 46
0.0
 47
0.0
 48
0.0
 49
0.0
140
0.0
141
0.0
142
1.0
143
1.0
 70
   688
 72
     0
 73
     0
 74
     5
  7

 75
    16
 76
     0
 77
     2
 78
   300
147
1.0
148
0.0
149
0.0
100
AcDbLayout
  1
Layout2
 70
     1
 71
     2
 10
0.0
 20
0.0
 11
0.0
 21
0.0
 12
0.0
 22
0.0
 32
0.0
 14
0.0
 24
0.0
 34
0.0
 15
0.0
 25
0.0
 35
0.0
146
0.0
 13
0.0
 23
0.0
 33
0.0
 16
1.0
 26
0.0
 36
0.0
 17
0.0
 27
1.0
 37
0.0
 76
     0
330
23
  0
LAYOUT
  5
22
102
{ACAD_REACTORS
330
1A
102
}
330
1A
100
AcDbPlotSettings
  1

  2
none_device
  4

  6

 40
0.0
 41
0.0
 42
0.0
 43
0.0
 44
0.0
 45
0.0
 46
0.0
 47
0.0
 48
0.0
 49
0.0
140
0.0
141
0.0
142
1.0
143
1.0
 70
  1712
 72
     0
 73
     0
 74
     0
  7

 75
     0
 76
     0
 77
     2
 78
   300
147
1.0
148
0.0
149
0.0
100
AcDbLayout
  1
Model
 70
     1
 71
     0
 10
0.0
 20
0.0
 11
12.0
 21
9.0
 12
0.0
 22
0.0
 32
0.0
 14
-12.14855
 24
-7.58095
 34
0.0
 15
12.71459
 25
7.84839
 35
0.0
146
0.0
 13
0.0
 23
0.0
 33
0.0
 16
1.0
 26
0.0
 36
0.0
 17
0.0
 27
1.0
 37
0.0
 76
     0
330
1F
331
29
  0
MATERIAL
  5
3D
102
{ACAD_REACTORS
330
3B
102
}
330
3B
100
AcDbMaterial
  1
ByBlock
 72
     1
 94
      127
  0
MATERIAL
  5
3C
102
{ACAD_REACTORS
330
3B
102
}
330
3B
100
AcDbMaterial
  1
ByLayer
 72
     1
 94
      127
  0
MATERIAL
  5
3E
102
{ACAD_REACTORS
330
3B
102
}
330
3B
100
AcDbMaterial
  1
Global
 72
     1
 94
      127
  0
MLINESTYLE
  5
18
102
{ACAD_REACTORS
330
17
102
}
330
17
100
AcDbMlineStyle
  2
Standard
 70
     0
  3

 62
   256
 51
90.0
 52
90.0
 71
     2
 49
0.5
 62
   256
  6
BYLAYER
 49
-0.5
 62
   256
  6
BYLAYER
  0
ACDBPLACEHOLDER
  5
F
102
{ACAD_REACTORS
330
E
102
}
330
E
  0
VISUALSTYLE
  5
2F
102
{ACAD_REACTORS
330
2A
102
}
102
{ACAD_XDICTIONARY
360
78
102
}
330
2A
100
AcDbVisualStyle
  2
2dWireframe
 70
     4
 71
     0
 72
     2
 73
     0
 90
        0
 40
-0.6
 41
-30.0
 62
     5
 63
     7
421
 16777215
 74
     1
 91
        4
 64
     7
 65
   257
 75
     1
175
     1
 42
1.0
 92
        0
 66
   257
 43
1.0
 76
     1
 77
     6
 78
     2
 67
     7
 79
     5
170
     0
171
     0
290
     0
174
     0
 93
        1
 44
0.0
173
     0
291
     0
 45
0.0
  0
VISUALSTYLE
  5
31
102
{ACAD_REACTORS
330
2A
102
}
102
{ACAD_XDICTIONARY
360
7C
102
}
330
2A
100
AcDbVisualStyle
  2
3D Hidden
 70
     6
 71
     1
 72
     2
 73
     2
 90
        0
 40
-0.6
 41
-30.0
 62
     5
 63
     7
421
 16777215
 74
     2
 91
        2
 64
     7
 65
   257
 75
     2
175
     1
 42
40.0
 92
        0
 66
   257
 43
1.0
 76
     1
 77
     6
 78
     2
 67
     7
 79
     3
170
     0
171
     0
290
     0
174
     0
 93
        1
 44
0.0
173
     0
291
     0
 45
0.0
  0
VISUALSTYLE
  5
30
102
{ACAD_REACTORS
330
2A
102
}
102
{ACAD_XDICTIONARY
360
7A
102
}
330
2A
100
AcDbVisualStyle
  2
3dWireframe
 70
     5
 71
     0
 72
     2
 73
     0
 90
        0
 40
-0.6
 41
-30.0
 62
     5
 63
     7
421
 16777215
 74
     1
 91
        4
 64
     7
 65
   257
 75
     1
175
     1
 42
1.0
 92
        0
 66
   257
 43
1.0
 76
     1
 77
     6
 78
     2
 67
     7
 79
     5
170
     0
171
     0
290
     0
174
     0
 93
        1
 44
0.0
173
     0
291
     0
 45
0.0
  0
VISUALSTYLE
  5
32
102
{ACAD_REACTORS
330
2A
102
}
102
{ACAD_XDICTIONARY
360
7E
102
}
330
2A
100
AcDbVisualStyle
  2
Basic
 70
     7
 71
     1
 72
     0
 73
     1
 90
        0
 40
-0.6
 41
-30.0
 62
     5
 63
     7
421
 16777215
 74
     0
 91
        4
 64
     7
 65
   257
 75
     1
175
     1
 42
1.0
 92
        8
 66
     7
 43
1.0
 76
     1
 77
     6
 78
     2
 67
     7
 79
     5
170
     0
171
     0
290
     0
174
     0
 93
        1
 44
0.0
173
     0
291
     1
 45
0.0
  0
VISUALSTYLE
  5
36
102
{ACAD_REACTORS
330
2A
102
}
102
{ACAD_XDICTIONARY
360
86
102
}
330
2A
100
AcDbVisualStyle
  2
Brighten
 70
    12
 71
     2
 72
     2
 73
     0
 90
        0
 40
-0.6
 41
-30.0
 62
     5
 63
     7
421
 16777215
 74
     1
 91
        4
 64
     7
 65
   257
 75
     1
175
     1
 42
1.0
 92
        8
 66
     7
 43
1.0
 76
     1
 77
     6
 78
     2
 67
     7
 79
     5
170
     0
171
     0
290
     0
174
     0
 93
        1
 44
50.0
173
     0
291
     1
 45
0.0
  0
VISUALSTYLE
  5
3A
102
{ACAD_REACTORS
330
2A
102
}
102
{ACAD_XDICTIONARY
360
8E
102
}
330
2A
100
AcDbVisualStyle
  2
ColorChange
 70
    16
 71
     2
 72
     2
 73
     3
 90
        0
 40
-0.6
 41
-30.0
 62
     5
 63
     8
421
  8421504
 74
     1
 91
        4
 64
     7
 65
   257
 75
     1
175
     1
 42
1.0
 92
        8
 66
     8
424
  8421504
 43
1.0
 76
     1
 77
     6
 78
     2
 67
     7
 79
     5
170
     0
171
     0
290
     0
174
     0
 93
        1
 44
0.0
173
     0
291
     1
 45
0.0
  0
VISUALSTYLE
  5
34
102
{ACAD_REACTORS
330
2A
102
}
102
{ACAD_XDICTIONARY
360
82
102
}
330
2A
100
AcDbVisualStyle
  2
Conceptual
 70
     9
 71
     3
 72
     2
 73
     0
 90
        0
 40
-0.6
 41
-30.0
 62
     5
 63
     7
421
 16777215
 74
     2
 91
        2
 64
     7
 65
   257
 75
     1
175
     1
 42
40.0
 92
        8
 66
     7
 43
1.0
 76
     1
 77
     6
 78
     2
 67
     7
 79
     3
170
     0
171
     0
290
     0
174
     0
 93
        1
 44
0.0
173
     0
291
     0
 45
0.0
  0
VISUALSTYLE
  5
35
102
{ACAD_REACTORS
330
2A
102
}
102
{ACAD_XDICTIONARY
360
84
102
}
330
2A
100
AcDbVisualStyle
  2
Dim
 70
    11
 71
     2
 72
     2
 73
     0
 90
        0
 40
-0.6
 41
-30.0
 62
     5
 63
     7
421
 16777215
 74
     1
 91
        4
 64
     7
 65
   257
 75
     1
175
     1
 42
1.0
 92
        8
 66
     7
 43
1.0
 76
     1
 77
     6
 78
     2
 67
     7
 79
     5
170
     0
171
     0
290
     0
174
     0
 93
        1
 44
-50.0
173
     0
291
     1
 45
0.0
  0
VISUALSTYLE
  5
39
102
{ACAD_REACTORS
330
2A
102
}
102
{ACAD_XDICTIONARY
360
8C
102
}
330
2A
100
AcDbVisualStyle
  2
Facepattern
 70
    15
 71
     2
 72
     2
 73
     0
 90
        0
 40
-0.6
 41
-30.0
 62
     5
 63
     7
421
 16777215
 74
     1
 91
        4
 64
     7
 65
   257
 75
     1
175
     1
 42
1.0
 92
        8
 66
     7
 43
1.0
 76
     1
 77
     6
 78
     2
 67
     7
 79
     5
170
     0
171
     0
290
     0
174
     0
 93
        1
 44
0.0
173
     0
291
     1
 45
0.0
  0
VISUALSTYLE
  5
2B
102
{ACAD_REACTORS
330
2A
102
}
102
{ACAD_XDICTIONARY
360
70
102
}
330
2A
100
AcDbVisualStyle
  2
Flat
 70
     0
 71
     2
 72
     1
 73
     1
 90
        2
 40
-0.6
 41
30.0
 62
     5
 63
     7
421
 16777215
 74
     0
 91
        4
 64
     7
 65
   257
 75
     1
175
     1
 42
1.0
 92
        8
 66
     7
 43
1.0
 76
     1
 77
     6
 78
     2
 67
     7
 79
     5
170
     0
171
     0
290
     0
174
     0
 93
       13
 44
0.0
173
     0
291
     1
 45
0.0
  0
VISUALSTYLE
  5
2C
102
{ACAD_REACTORS
330
2A
102
}
102
{ACAD_XDICTIONARY
360
72
102
}
330
2A
100
AcDbVisualStyle
  2
FlatWithEdges
 70
     1
 71
     2
 72
     1
 73
     1
 90
        2
 40
-0.6
 41
30.0
 62
     5
 63
     7
421
 16777215
 74
     1
 91
        4
 64
     7
 65
   257
 75
     1
175
     1
 42
1.0
 92
        0
 66
   257
 43
1.0
 76
     1
 77
     6
 78
     2
 67
     7
 79
     5
170
     0
171
     0
290
     0
174
     0
 93
       13
 44
0.0
173
     0
291
     1
 45
0.0
  0
VISUALSTYLE
  5
2D
102
{ACAD_REACTORS
330
2A
102
}
102
{ACAD_XDICTIONARY
360
74
102
}
330
2A
100
AcDbVisualStyle
  2
Gouraud
 70
     2
 71
     2
 72
     2
 73
     1
 90
        2
 40
-0.6
 41
30.0
 62
     5
 63
     7
421
 16777215
 74
     0
 91
        4
 64
     7
 65
   257
 75
     1
175
     1
 42
1.0
 92
        0
 66
     7
 43
1.0
 76
     1
 77
     6
 78
     2
 67
     7
 79
     5
170
     0
171
     0
290
     0
174
     0
 93
       13
 44
0.0
173
     0
291
     1
 45
0.0
  0
VISUALSTYLE
  5
2E
102
{ACAD_REACTORS
330
2A
102
}
102
{ACAD_XDICTIONARY
360
76
102
}
330
2A
100
AcDbVisualStyle
  2
GouraudWithEdges
 70
     3
 71
     2
 72
     2
 73
     1
 90
        2
 40
-0.6
 41
30.0
 62
     5
 63
     7
421
 16777215
 74
     1
 91
        4
 64
     7
 65
   257
 75
     1
175
     1
 42
1.0
 92
        0
 66
   257
 43
1.0
 76
     1
 77
     6
 78
     2
 67
     7
 79
     5
170
     0
171
     0
290
     0
174
     0
 93
       13
 44
0.0
173
     0
291
     1
 45
0.0
  0
VISUALSTYLE
  5
38
102
{ACAD_REACTORS
330
2A
102
}
102
{ACAD_XDICTIONARY
360
8A
102
}
330
2A
100
AcDbVisualStyle
  2
Linepattern
 70
    14
 71
     2
 72
     2
 73
     0
 90
        0
 40
-0.6
 41
-30.0
 62
     5
 63
     7
421
 16777215
 74
     1
 91
        4
 64
     7
 65
   257
 75
     7
175
     7
 42
1.0
 92
        8
 66
     7
 43
1.0
 76
     1
 77
     6
 78
     2
 67
     7
 79
     5
170
     0
171
     0
290
     0
174
     0
 93
        1
 44
0.0
173
     0
291
     1
 45
0.0
  0
VISUALSTYLE
  5
33
102
{ACAD_REACTORS
330
2A
102
}
102
{ACAD_XDICTIONARY
360
80
102
}
330
2A
100
AcDbVisualStyle
  2
Realistic
 70
     8
 71
     2
 72
     2
 73
     0
 90
        0
 40
-0.6
 41
-30.0
 62
     5
 63
     7
421
 16777215
 74
     1
 91
        0
 64
     7
 65
   257
 75
     1
175
     1
 42
1.0
 92
        8
 66
     8
424
  7895160
 43
1.0
 76
     1
 77
     6
 78
     2
 67
     7
 79
     5
170
     0
171
     0
290
     0
174
     0
 93
       13
 44
0.0
173
     0
291
     0
 45
0.0
  0
VISUALSTYLE
  5
37
102
{ACAD_REACTORS
330
2A
102
}
102
{ACAD_XDICTIONARY
360
88
102
}
330
2A
100
AcDbVisualStyle
  2
Thicken
 70
    13
 71
     2
 72
     2
 73
     0
 90
        0
 40
-0.6
 41
-30.0
 62
     5
 63
     7
421
 16777215
 74
     1
 91
        4
 64
     7
 65
   257
 75
     1
175
     1
 42
1.0
 92
       12
 66
     7
 43
1.0
 76
     1
 77
     6
 78
     2
 67
     7
 79
     5
170
     0
171
     0
290
     0
174
     0
 93
        1
 44
0.0
173
     0
291
     1
 45
0.0
  0
DICTIONARY
  5
78
330
2F
100
AcDbDictionary
280
     1
281
     1
  3
ACAD_XREC_ROUNDTRIP
360
79
  0
DICTIONARY
  5
7C
330
31
100
AcDbDictionary
280
     1
281
     1
  3
ACAD_XREC_ROUNDTRIP
360
7D
  0
DICTIONARY
  5
7A
330
30
100
AcDbDictionary
280
     1
281
     1
  3
ACAD_XREC_ROUNDTRIP
360
7B
  0
DICTIONARY
  5
7E
330
32
100
AcDbDictionary
280
     1
281
     1
  3
ACAD_XREC_ROUNDTRIP
360
7F
  0
DICTIONARY
  5
86
330
36
100
AcDbDictionary
280
     1
281
     1
  3
ACAD_XREC_ROUNDTRIP
360
87
  0
DICTIONARY
  5
8E
330
3A
100
AcDbDictionary
280
     1
281
     1
  3
ACAD_XREC_ROUNDTRIP
360
8F
  0
DICTIONARY
  5
82
330
34
100
AcDbDictionary
280
     1
281
     1
  3
ACAD_XREC_ROUNDTRIP
360
83
  0
DICTIONARY
  5
84
330
35
100
AcDbDictionary
280
     1
281
     1
  3
ACAD_XREC_ROUNDTRIP
360
85
  0
DICTIONARY
  5
8C
330
39
100
AcDbDictionary
280
     1
281
     1
  3
ACAD_XREC_ROUNDTRIP
360
8D
  0
DICTIONARY
  5
70
330
2B
100
AcDbDictionary
280
     1
281
     1
  3
ACAD_XREC_ROUNDTRIP
360
71
  0
DICTIONARY
  5
72
330
2C
100
AcDbDictionary
280
     1
281
     1
  3
ACAD_XREC_ROUNDTRIP
360
73
  0
DICTIONARY
  5
74
330
2D
100
AcDbDictionary
280
     1
281
     1
  3
ACAD_XREC_ROUNDTRIP
360
75
  0
DICTIONARY
  5
76
330
2E
100
AcDbDictionary
280
     1
281
     1
  3
ACAD_XREC_ROUNDTRIP
360
77
  0
DICTIONARY
  5
8A
330
38
100
AcDbDictionary
280
     1
281
     1
  3
ACAD_XREC_ROUNDTRIP
360
8B
  0
DICTIONARY
  5
80
330
33
100
AcDbDictionary
280
     1
281
     1
  3
ACAD_XREC_ROUNDTRIP
360
81
  0
DICTIONARY
  5
88
330
37
100
AcDbDictionary
280
     1
281
     1
  3
ACAD_XREC_ROUNDTRIP
360
89
  0
XRECORD
  5
79
102
{ACAD_REACTORS
330
78
102
}
330
78
100
AcDbXrecord
280
     1
102
RTVSPropertyOp0
 70
     1
102
RTVSPropertyOp1
 70
     1
102
RTVSPropertyOp2
 70
     1
102
RTVSPropertyOp3
 70
     1
102
RTVSPropertyOp4
 70
     1
102
RTVSPropertyOp5
 70
     1
102
RTVSPropertyOp6
 70
     1
102
RTVSPropertyOp7
 70
     1
102
RTVSPropertyOp8
 70
     1
102
RTVSPropertyOp9
 70
     1
102
RTVSPropertyOp10
 70
     1
102
RTVSPropertyOp11
 70
     1
102
RTVSPropertyOp12
 70
     1
102
RTVSPropertyOp13
 70
     1
102
RTVSPropertyOp14
 70
     1
102
RTVSPropertyOp15
 70
     1
102
RTVSPropertyOp16
 70
     1
102
RTVSPropertyOp17
 70
     1
102
RTVSPropertyOp18
 70
     1
102
RTVSPropertyOp19
 70
     1
102
RTVSPropertyOp20
 70
     1
102
RTVSPropertyOp21
 70
     1
102
RTVSPropertyOp22
 70
     1
102
RTVSPropertyOp23
 70
     1
102
RTVSPropertyOp24
 70
     1
102
RTVSPropertyOp25
 70
     1
102
RTVSPropertyOp26
 70
     1
102
RTVSPropertyOp27
 70
     1
  0
XRECORD
  5
7D
102
{ACAD_REACTORS
330
7C
102
}
330
7C
100
AcDbXrecord
280
     1
102
RTVSPropertyOp0
 70
     1
102
RTVSPropertyOp1
 70
     1
102
RTVSPropertyOp2
 70
     1
102
RTVSPropertyOp3
 70
     1
102
RTVSPropertyOp4
 70
     1
102
RTVSPropertyOp5
 70
     1
102
RTVSPropertyOp6
 70
     1
102
RTVSPropertyOp7
 70
     1
102
RTVSPropertyOp8
 70
     1
102
RTVSPropertyOp9
 70
     1
102
RTVSPropertyOp10
 70
     1
102
RTVSPropertyOp11
 70
     1
102
RTVSPropertyOp12
 70
     1
102
RTVSPropertyOp13
 70
     1
102
RTVSPropertyOp14
 70
     1
102
RTVSPropertyOp15
 70
     1
102
RTVSPropertyOp16
 70
     1
102
RTVSPropertyOp17
 70
     1
102
RTVSPropertyOp18
 70
     1
102
RTVSPropertyOp19
 70
     1
102
RTVSPropertyOp20
 70
     1
102
RTVSPropertyOp21
 70
     1
102
RTVSPropertyOp22
 70
     1
102
RTVSPropertyOp23
 70
     1
102
RTVSPropertyOp24
 70
     1
102
RTVSPropertyOp25
 70
     1
102
RTVSPropertyOp26
 70
     1
102
RTVSPropertyOp27
 70
     1
  0
XRECORD
  5
7B
102
{ACAD_REACTORS
330
7A
102
}
330
7A
100
AcDbXrecord
280
     1
102
RTVSPropertyOp0
 70
     1
102
RTVSPropertyOp1
 70
     1
102
RTVSPropertyOp2
 70
     1
102
RTVSPropertyOp3
 70
     1
102
RTVSPropertyOp4
 70
     1
102
RTVSPropertyOp5
 70
     1
102
RTVSPropertyOp6
 70
     1
102
RTVSPropertyOp7
 70
     1
102
RTVSPropertyOp8
 70
     1
102
RTVSPropertyOp9
 70
     1
102
RTVSPropertyOp10
 70
     1
102
RTVSPropertyOp11
 70
     1
102
RTVSPropertyOp12
 70
     1
102
RTVSPropertyOp13
 70
     1
102
RTVSPropertyOp14
 70
     1
102
RTVSPropertyOp15
 70
     1
102
RTVSPropertyOp16
 70
     1
102
RTVSPropertyOp17
 70
     1
102
RTVSPropertyOp18
 70
     1
102
RTVSPropertyOp19
 70
     1
102
RTVSPropertyOp20
 70
     1
102
RTVSPropertyOp21
 70
     1
102
RTVSPropertyOp22
 70
     1
102
RTVSPropertyOp23
 70
     1
102
RTVSPropertyOp24
 70
     1
102
RTVSPropertyOp25
 70
     1
102
RTVSPropertyOp26
 70
     1
102
RTVSPropertyOp27
 70
     1
  0
XRECORD
  5
7F
102
{ACAD_REACTORS
330
7E
102
}
330
7E
100
AcDbXrecord
280
     1
102
RTVSPropertyOp0
 70
     1
102
RTVSPropertyOp1
 70
     1
102
RTVSPropertyOp2
 70
     1
102
RTVSPropertyOp3
 70
     1
102
RTVSPropertyOp4
 70
     1
102
RTVSPropertyOp5
 70
     1
102
RTVSPropertyOp6
 70
     1
102
RTVSPropertyOp7
 70
     1
102
RTVSPropertyOp8
 70
     1
102
RTVSPropertyOp9
 70
     1
102
RTVSPropertyOp10
 70
     1
102
RTVSPropertyOp11
 70
     1
102
RTVSPropertyOp12
 70
     1
102
RTVSPropertyOp13
 70
     1
102
RTVSPropertyOp14
 70
     1
102
RTVSPropertyOp15
 70
     1
102
RTVSPropertyOp16
 70
     1
102
RTVSPropertyOp17
 70
     1
102
RTVSPropertyOp18
 70
     1
102
RTVSPropertyOp19
 70
     1
102
RTVSPropertyOp20
 70
     1
102
RTVSPropertyOp21
 70
     1
102
RTVSPropertyOp22
 70
     1
102
RTVSPropertyOp23
 70
     1
102
RTVSPropertyOp24
 70
     1
102
RTVSPropertyOp25
 70
     1
102
RTVSPropertyOp26
 70
     1
102
RTVSPropertyOp27
 70
     1
  0
XRECORD
  5
87
102
{ACAD_REACTORS
330
86
102
}
330
86
100
AcDbXrecord
280
     1
102
RTVSPropertyOp0
 70
     1
102
RTVSPropertyOp1
 70
     1
102
RTVSPropertyOp2
 70
     1
102
RTVSPropertyOp3
 70
     1
102
RTVSPropertyOp4
 70
     1
102
RTVSPropertyOp5
 70
     1
102
RTVSPropertyOp6
 70
     1
102
RTVSPropertyOp7
 70
     1
102
RTVSPropertyOp8
 70
     1
102
RTVSPropertyOp9
 70
     1
102
RTVSPropertyOp10
 70
     1
102
RTVSPropertyOp11
 70
     1
102
RTVSPropertyOp12
 70
     1
102
RTVSPropertyOp13
 70
     1
102
RTVSPropertyOp14
 70
     1
102
RTVSPropertyOp15
 70
     1
102
RTVSPropertyOp16
 70
     1
102
RTVSPropertyOp17
 70
     1
102
RTVSPropertyOp18
 70
     1
102
RTVSPropertyOp19
 70
     1
102
RTVSPropertyOp20
 70
     1
102
RTVSPropertyOp21
 70
     1
102
RTVSPropertyOp22
 70
     1
102
RTVSPropertyOp23
 70
     1
102
RTVSPropertyOp24
 70
     1
102
RTVSPropertyOp25
 70
     1
102
RTVSPropertyOp26
 70
     1
102
RTVSPropertyOp27
 70
     1
  0
XRECORD
  5
8F
102
{ACAD_REACTORS
330
8E
102
}
330
8E
100
AcDbXrecord
280
     1
102
RTVSPropertyOp0
 70
     1
102
RTVSPropertyOp1
 70
     1
102
RTVSPropertyOp2
 70
     1
102
RTVSPropertyOp3
 70
     1
102
RTVSPropertyOp4
 70
     1
102
RTVSPropertyOp5
 70
     1
102
RTVSPropertyOp6
 70
     1
102
RTVSPropertyOp7
 70
     1
102
RTVSPropertyOp8
 70
     1
102
RTVSPropertyOp9
 70
     1
102
RTVSPropertyOp10
 70
     1
102
RTVSPropertyOp11
 70
     1
102
RTVSPropertyOp12
 70
     1
102
RTVSPropertyOp13
 70
     1
102
RTVSPropertyOp14
 70
     1
102
RTVSPropertyOp15
 70
     1
102
RTVSPropertyOp16
 70
     1
102
RTVSPropertyOp17
 70
     1
102
RTVSPropertyOp18
 70
     1
102
RTVSPropertyOp19
 70
     1
102
RTVSPropertyOp20
 70
     1
102
RTVSPropertyOp21
 70
     1
102
RTVSPropertyOp22
 70
     1
102
RTVSPropertyOp23
 70
     1
102
RTVSPropertyOp24
 70
     1
102
RTVSPropertyOp25
 70
     1
102
RTVSPropertyOp26
 70
     1
102
RTVSPropertyOp27
 70
     1
  0
XRECORD
  5
83
102
{ACAD_REACTORS
330
82
102
}
330
82
100
AcDbXrecord
280
     1
102
RTVSPropertyOp0
 70
     1
102
RTVSPropertyOp1
 70
     1
102
RTVSPropertyOp2
 70
     1
102
RTVSPropertyOp3
 70
     1
102
RTVSPropertyOp4
 70
     1
102
RTVSPropertyOp5
 70
     1
102
RTVSPropertyOp6
 70
     1
102
RTVSPropertyOp7
 70
     1
102
RTVSPropertyOp8
 70
     1
102
RTVSPropertyOp9
 70
     1
102
RTVSPropertyOp10
 70
     1
102
RTVSPropertyOp11
 70
     1
102
RTVSPropertyOp12
 70
     1
102
RTVSPropertyOp13
 70
     1
102
RTVSPropertyOp14
 70
     1
102
RTVSPropertyOp15
 70
     1
102
RTVSPropertyOp16
 70
     1
102
RTVSPropertyOp17
 70
     1
102
RTVSPropertyOp18
 70
     1
102
RTVSPropertyOp19
 70
     1
102
RTVSPropertyOp20
 70
     1
102
RTVSPropertyOp21
 70
     1
102
RTVSPropertyOp22
 70
     1
102
RTVSPropertyOp23
 70
     1
102
RTVSPropertyOp24
 70
     1
102
RTVSPropertyOp25
 70
     1
102
RTVSPropertyOp26
 70
     1
102
RTVSPropertyOp27
 70
     1
  0
XRECORD
  5
85
102
{ACAD_REACTORS
330
84
102
}
330
84
100
AcDbXrecord
280
     1
102
RTVSPropertyOp0
 70
     1
102
RTVSPropertyOp1
 70
     1
102
RTVSPropertyOp2
 70
     1
102
RTVSPropertyOp3
 70
     1
102
RTVSPropertyOp4
 70
     1
102
RTVSPropertyOp5
 70
     1
102
RTVSPropertyOp6
 70
     1
102
RTVSPropertyOp7
 70
     1
102
RTVSPropertyOp8
 70
     1
102
RTVSPropertyOp9
 70
     1
102
RTVSPropertyOp10
 70
     1
102
RTVSPropertyOp11
 70
     1
102
RTVSPropertyOp12
 70
     1
102
RTVSPropertyOp13
 70
     1
102
RTVSPropertyOp14
 70
     1
102
RTVSPropertyOp15
 70
     1
102
RTVSPropertyOp16
 70
     1
102
RTVSPropertyOp17
 70
     1
102
RTVSPropertyOp18
 70
     1
102
RTVSPropertyOp19
 70
     1
102
RTVSPropertyOp20
 70
     1
102
RTVSPropertyOp21
 70
     1
102
RTVSPropertyOp22
 70
     1
102
RTVSPropertyOp23
 70
     1
102
RTVSPropertyOp24
 70
     1
102
RTVSPropertyOp25
 70
     1
102
RTVSPropertyOp26
 70
     1
102
RTVSPropertyOp27
 70
     1
  0
XRECORD
  5
8D
102
{ACAD_REACTORS
330
8C
102
}
330
8C
100
AcDbXrecord
280
     1
102
RTVSPropertyOp0
 70
     1
102
RTVSPropertyOp1
 70
     1
102
RTVSPropertyOp2
 70
     1
102
RTVSPropertyOp3
 70
     1
102
RTVSPropertyOp4
 70
     1
102
RTVSPropertyOp5
 70
     1
102
RTVSPropertyOp6
 70
     1
102
RTVSPropertyOp7
 70
     1
102
RTVSPropertyOp8
 70
     1
102
RTVSPropertyOp9
 70
     1
102
RTVSPropertyOp10
 70
     1
102
RTVSPropertyOp11
 70
     1
102
RTVSPropertyOp12
 70
     1
102
RTVSPropertyOp13
 70
     1
102
RTVSPropertyOp14
 70
     1
102
RTVSPropertyOp15
 70
     1
102
RTVSPropertyOp16
 70
     1
102
RTVSPropertyOp17
 70
     1
102
RTVSPropertyOp18
 70
     1
102
RTVSPropertyOp19
 70
     1
102
RTVSPropertyOp20
 70
     1
102
RTVSPropertyOp21
 70
     1
102
RTVSPropertyOp22
 70
     1
102
RTVSPropertyOp23
 70
     1
102
RTVSPropertyOp24
 70
     1
102
RTVSPropertyOp25
 70
     1
102
RTVSPropertyOp26
 70
     1
102
RTVSPropertyOp27
 70
     1
  0
XRECORD
  5
71
102
{ACAD_REACTORS
330
70
102
}
330
70
100
AcDbXrecord
280
     1
102
RTVSPropertyOp0
 70
     1
102
RTVSPropertyOp1
 70
     1
102
RTVSPropertyOp2
 70
     1
102
RTVSPropertyOp3
 70
     1
102
RTVSPropertyOp4
 70
     1
102
RTVSPropertyOp5
 70
     1
102
RTVSPropertyOp6
 70
     1
102
RTVSPropertyOp7
 70
     1
102
RTVSPropertyOp8
 70
     1
102
RTVSPropertyOp9
 70
     1
102
RTVSPropertyOp10
 70
     1
102
RTVSPropertyOp11
 70
     1
102
RTVSPropertyOp12
 70
     1
102
RTVSPropertyOp13
 70
     1
102
RTVSPropertyOp14
 70
     1
102
RTVSPropertyOp15
 70
     1
102
RTVSPropertyOp16
 70
     1
102
RTVSPropertyOp17
 70
     1
102
RTVSPropertyOp18
 70
     1
102
RTVSPropertyOp19
 70
     1
102
RTVSPropertyOp20
 70
     1
102
RTVSPropertyOp21
 70
     1
102
RTVSPropertyOp22
 70
     1
102
RTVSPropertyOp23
 70
     1
102
RTVSPropertyOp24
 70
     1
102
RTVSPropertyOp25
 70
     1
102
RTVSPropertyOp26
 70
     1
102
RTVSPropertyOp27
 70
     1
  0
XRECORD
  5
73
102
{ACAD_REACTORS
330
72
102
}
330
72
100
AcDbXrecord
280
     1
102
RTVSPropertyOp0
 70
     1
102
RTVSPropertyOp1
 70
     1
102
RTVSPropertyOp2
 70
     1
102
RTVSPropertyOp3
 70
     1
102
RTVSPropertyOp4
 70
     1
102
RTVSPropertyOp5
 70
     1
102
RTVSPropertyOp6
 70
     1
102
RTVSPropertyOp7
 70
     1
102
RTVSPropertyOp8
 70
     1
102
RTVSPropertyOp9
 70
     1
102
RTVSPropertyOp10
 70
     1
102
RTVSPropertyOp11
 70
     1
102
RTVSPropertyOp12
 70
     1
102
RTVSPropertyOp13
 70
     1
102
RTVSPropertyOp14
 70
     1
102
RTVSPropertyOp15
 70
     1
102
RTVSPropertyOp16
 70
     1
102
RTVSPropertyOp17
 70
     1
102
RTVSPropertyOp18
 70
     1
102
RTVSPropertyOp19
 70
     1
102
RTVSPropertyOp20
 70
     1
102
RTVSPropertyOp21
 70
     1
102
RTVSPropertyOp22
 70
     1
102
RTVSPropertyOp23
 70
     1
102
RTVSPropertyOp24
 70
     1
102
RTVSPropertyOp25
 70
     1
102
RTVSPropertyOp26
 70
     1
102
RTVSPropertyOp27
 70
     1
  0
XRECORD
  5
75
102
{ACAD_REACTORS
330
74
102
}
330
74
100
AcDbXrecord
280
     1
102
RTVSPropertyOp0
 70
     1
102
RTVSPropertyOp1
 70
     1
102
RTVSPropertyOp2
 70
     1
102
RTVSPropertyOp3
 70
     1
102
RTVSPropertyOp4
 70
     1
102
RTVSPropertyOp5
 70
     1
102
RTVSPropertyOp6
 70
     1
102
RTVSPropertyOp7
 70
     1
102
RTVSPropertyOp8
 70
     1
102
RTVSPropertyOp9
 70
     1
102
RTVSPropertyOp10
 70
     1
102
RTVSPropertyOp11
 70
     1
102
RTVSPropertyOp12
 70
     1
102
RTVSPropertyOp13
 70
     1
102
RTVSPropertyOp14
 70
     1
102
RTVSPropertyOp15
 70
     1
102
RTVSPropertyOp16
 70
     1
102
RTVSPropertyOp17
 70
     1
102
RTVSPropertyOp18
 70
     1
102
RTVSPropertyOp19
 70
     1
102
RTVSPropertyOp20
 70
     1
102
RTVSPropertyOp21
 70
     1
102
RTVSPropertyOp22
 70
     1
102
RTVSPropertyOp23
 70
     1
102
RTVSPropertyOp24
 70
     1
102
RTVSPropertyOp25
 70
     1
102
RTVSPropertyOp26
 70
     1
102
RTVSPropertyOp27
 70
     1
  0
XRECORD
  5
77
102
{ACAD_REACTORS
330
76
102
}
330
76
100
AcDbXrecord
280
     1
102
RTVSPropertyOp0
 70
     1
102
RTVSPropertyOp1
 70
     1
102
RTVSPropertyOp2
 70
     1
102
RTVSPropertyOp3
 70
     1
102
RTVSPropertyOp4
 70
     1
102
RTVSPropertyOp5
 70
     1
102
RTVSPropertyOp6
 70
     1
102
RTVSPropertyOp7
 70
     1
102
RTVSPropertyOp8
 70
     1
102
RTVSPropertyOp9
 70
     1
102
RTVSPropertyOp10
 70
     1
102
RTVSPropertyOp11
 70
     1
102
RTVSPropertyOp12
 70
     1
102
RTVSPropertyOp13
 70
     1
102
RTVSPropertyOp14
 70
     1
102
RTVSPropertyOp15
 70
     1
102
RTVSPropertyOp16
 70
     1
102
RTVSPropertyOp17
 70
     1
102
RTVSPropertyOp18
 70
     1
102
RTVSPropertyOp19
 70
     1
102
RTVSPropertyOp20
 70
     1
102
RTVSPropertyOp21
 70
     1
102
RTVSPropertyOp22
 70
     1
102
RTVSPropertyOp23
 70
     1
102
RTVSPropertyOp24
 70
     1
102
RTVSPropertyOp25
 70
     1
102
RTVSPropertyOp26
 70
     1
102
RTVSPropertyOp27
 70
     1
  0
XRECORD
  5
8B
102
{ACAD_REACTORS
330
8A
102
}
330
8A
100
AcDbXrecord
280
     1
102
RTVSPropertyOp0
 70
     1
102
RTVSPropertyOp1
 70
     1
102
RTVSPropertyOp2
 70
     1
102
RTVSPropertyOp3
 70
     1
102
RTVSPropertyOp4
 70
     1
102
RTVSPropertyOp5
 70
     1
102
RTVSPropertyOp6
 70
     1
102
RTVSPropertyOp7
 70
     1
102
RTVSPropertyOp8
 70
     1
102
RTVSPropertyOp9
 70
     1
102
RTVSPropertyOp10
 70
     1
102
RTVSPropertyOp11
 70
     1
102
RTVSPropertyOp12
 70
     1
102
RTVSPropertyOp13
 70
     1
102
RTVSPropertyOp14
 70
     1
102
RTVSPropertyOp15
 70
     1
102
RTVSPropertyOp16
 70
     1
102
RTVSPropertyOp17
 70
     1
102
RTVSPropertyOp18
 70
     1
102
RTVSPropertyOp19
 70
     1
102
RTVSPropertyOp20
 70
     1
102
RTVSPropertyOp21
 70
     1
102
RTVSPropertyOp22
 70
     1
102
RTVSPropertyOp23
 70
     1
102
RTVSPropertyOp24
 70
     1
102
RTVSPropertyOp25
 70
     1
102
RTVSPropertyOp26
 70
     1
102
RTVSPropertyOp27
 70
     1
  0
XRECORD
  5
81
102
{ACAD_REACTORS
330
80
102
}
330
80
100
AcDbXrecord
280
     1
102
RTVSPropertyOp0
 70
     1
102
RTVSPropertyOp1
 70
     1
102
RTVSPropertyOp2
 70
     1
102
RTVSPropertyOp3
 70
     1
102
RTVSPropertyOp4
 70
     1
102
RTVSPropertyOp5
 70
     1
102
RTVSPropertyOp6
 70
     1
102
RTVSPropertyOp7
 70
     1
102
RTVSPropertyOp8
 70
     1
102
RTVSPropertyOp9
 70
     1
102
RTVSPropertyOp10
 70
     1
102
RTVSPropertyOp11
 70
     1
102
RTVSPropertyOp12
 70
     1
102
RTVSPropertyOp13
 70
     1
102
RTVSPropertyOp14
 70
     1
102
RTVSPropertyOp15
 70
     1
102
RTVSPropertyOp16
 70
     1
102
RTVSPropertyOp17
 70
     1
102
RTVSPropertyOp18
 70
     1
102
RTVSPropertyOp19
 70
     1
102
RTVSPropertyOp20
 70
     1
102
RTVSPropertyOp21
 70
     1
102
RTVSPropertyOp22
 70
     1
102
RTVSPropertyOp23
 70
     1
102
RTVSPropertyOp24
 70
     1
102
RTVSPropertyOp25
 70
     1
102
RTVSPropertyOp26
 70
     1
102
RTVSPropertyOp27
 70
     1
  0
XRECORD
  5
89
102
{ACAD_REACTORS
330
88
102
}
330
88
100
AcDbXrecord
280
     1
102
RTVSPropertyOp0
 70
     1
102
RTVSPropertyOp1
 70
     1
102
RTVSPropertyOp2
 70
     1
102
RTVSPropertyOp3
 70
     1
102
RTVSPropertyOp4
 70
     1
102
RTVSPropertyOp5
 70
     1
102
RTVSPropertyOp6
 70
     1
102
RTVSPropertyOp7
 70
     1
102
RTVSPropertyOp8
 70
     1
102
RTVSPropertyOp9
 70
     1
102
RTVSPropertyOp10
 70
     1
102
RTVSPropertyOp11
 70
     1
102
RTVSPropertyOp12
 70
     1
102
RTVSPropertyOp13
 70
     1
102
RTVSPropertyOp14
 70
     1
102
RTVSPropertyOp15
 70
     1
102
RTVSPropertyOp16
 70
     1
102
RTVSPropertyOp17
 70
     1
102
RTVSPropertyOp18
 70
     1
102
RTVSPropertyOp19
 70
     1
102
RTVSPropertyOp20
 70
     1
102
RTVSPropertyOp21
 70
     1
102
RTVSPropertyOp22
 70
     1
102
RTVSPropertyOp23
 70
     1
102
RTVSPropertyOp24
 70
     1
102
RTVSPropertyOp25
 70
     1
102
RTVSPropertyOp26
 70
     1
102
RTVSPropertyOp27
 70
     1
  0
ENDSEC
  0
EOF
