  0
SECTION
  2
HEADER
  9
$ACADVER
  1
AC1014
  9
$HANDSEED
  5
FFFF
  9
$MEASUREMENT
 70
     1
  0
ENDSEC
  0
SECTION
  2
TABLES
  0
TABLE
  2
VPORT
  5
8
330
0
100
AcDbSymbolTable
 70
     4
  0
VPORT
  5
2E
330
8
100
AcDbSymbolTableRecord
100
AcDbViewportTableRecord
  2
*ACTIVE
 70
     0
 10
0.0
 20
0.0
 11
1.0
 21
1.0
 12
210.0
 22
148.5
 13
0.0
 23
0.0
 14
10.0
 24
10.0
 15
10.0
 25
10.0
 16
0.0
 26
0.0
 36
1.0
 17
0.0
 27
0.0
 37
0.0
 40
341.0
 41
1.24
 42
50.0
 43
0.0
 44
0.0
 50
0.0
 51
0.0
 71
     0
 72
   100
 73
     1
 74
     3
 75
     0
 76
     0
 77
     0
 78
     0
  0
ENDTAB
  0
TABLE
  2
LTYPE
  5
5
330
0
100
AcDbSymbolTable
 70
     1
  0
LTYPE
  5
14
330
5
100
AcDbSymbolTableRecord
100
AcDbLinetypeTableRecord
  2
BYBLOCK
 70
     0
  3

 72
    65
 73
     0
 40
0.0
  0
LTYPE
  5
15
330
5
100
AcDbSymbolTableRecord
100
AcDbLinetypeTableRecord
  2
BYLAYER
 70
     0
  3

 72
    65
 73
     0
 40
0.0
  0
LTYPE
  5
16
330
5
100
AcDbSymbolTableRecord
100
AcDbLinetypeTableRecord
  2
CONTINUOUS
 70
     0
  3
Solid line
 72
    65
 73
     0
 40
0.0
  0
ENDTAB
  0
TABLE
  2
LAYER
  5
2
100
AcDbSymbolTable
 70
1
  0
LAYER
  5
50
100
AcDbSymbolTableRecord
100
AcDbLayerTableRecord
  2
0
 70
0
  6
CONTINUOUS
  0
ENDTAB
  0
TABLE
  2
STYLE
  5
3
330
0
100
AcDbSymbolTable
 70
     1
  0
STYLE
  5
11
330
3
100
AcDbSymbolTableRecord
100
AcDbTextStyleTableRecord
  2
STANDARD
 70
     0
 40
0.0
 41
1.0
 50
0.0
 71
     0
 42
2.5
  3
txt
  4

  0
ENDTAB
  0
TABLE
  2
VIEW
  5
6
330
0
100
AcDbSymbolTable
 70
     0
  0
ENDTAB
  0
TABLE
  2
UCS
  5
7
330
0
100
AcDbSymbolTable
 70
     0
  0
ENDTAB
  0
TABLE
  2
APPID
  5
9
330
0
100
AcDbSymbolTable
 70
     2
  0
APPID
  5
12
330
9
100
AcDbSymbolTableRecord
100
AcDbRegAppTableRecord
  2
ACAD
 70
     0
  0
ENDTAB
  0
TABLE
  2
DIMSTYLE
  5
A
330
0
100
AcDbSymbolTable
 70
     1
  0
DIMSTYLE
105
27
330
A
100
AcDbSymbolTableRecord
100
AcDbDimStyleTableRecord
  2
ISO-25
 70
     0
  3

  4

  5

  6

  7

 40
1.0
 41
2.5
 42
0.625
 43
3.75
 44
1.25
 45
0.0
 46
0.0
 47
0.0
 48
0.0
140
2.5
141
2.5
142
0.0
143
0.03937007874016
144
1.0
145
0.0
146
1.0
147
0.625
 71
     0
 72
     0
 73
     0
 74
     0
 75
     0
 76
     0
 77
     1
 78
     8
170
     0
171
     3
172
     1
173
     0
174
     0
175
     0
176
     0
177
     0
178
     0
270
     2
271
     2
272
     2
273
     2
274
     3
340
11
275
     0
280
     0
281
     0
282
     0
283
     0
284
     8
285
     0
286
     0
287
     3
288
     0
  0
ENDTAB
  0
TABLE
  2
BLOCK_RECORD
  5
1
330
0
100
AcDbSymbolTable
 70
     1
  0
BLOCK_RECORD
  5
1F
330
1
100
AcDbSymbolTableRecord
100
AcDbBlockTableRecord
  2
*MODEL_SPACE
  0
BLOCK_RECORD
  5
1B
330
1
100
AcDbSymbolTableRecord
100
AcDbBlockTableRecord
  2
*PAPER_SPACE
  0
ENDTAB
  0
ENDSEC
  0
SECTION
  2
BLOCKS
  0
BLOCK
  5
20
330
1F
100
AcDbEntity
  8
0
100
AcDbBlockBegin
  2
*MODEL_SPACE
 70
     0
 10
0.0
 20
0.0
 30
0.0
  3
*MODEL_SPACE
  1

  0
ENDBLK
  5
21
330
1F
100
AcDbEntity
  8
0
100
AcDbBlockEnd
  0
BLOCK
  5
1C
330
1B
100
AcDbEntity
 67
     1
  8
0
100
AcDbBlockBegin
  2
*PAPER_SPACE
  1

  0
ENDBLK
  5
1D
330
1B
100
AcDbEntity
 67
     1
  8
0
100
AcDbBlockEnd
  0
ENDSEC
  0
SECTION
  2
ENTITIES
  0
SPLINE
  5
100
100
AcDbEntity
  8
0
 62
7
100
AcDbSpline
 70
8
 71
3
 72
8
 73
4
 74
0
 40
0
 40
0
 40
0
 40
0
 40
1
 40
1
 40
1
 40
1
 10
73.341156
 20
2.620283
 30
0.0
 10
71.916843
 20
2.898569
 30
0.0
 10
70.266311
 20
4.000405
 30
0.0
 10
69.442465
 20
5.222907
 30
0.0
  0
SPLINE
  5
101
100
AcDbEntity
  8
0
 62
7
100
AcDbSpline
 70
8
 71
3
 72
8
 73
4
 74
0
 40
0
 40
0
 40
0
 40
0
 40
1
 40
1
 40
1
 40
1
 10
69.442465
 20
5.222907
 30
0.0
 10
68.107504
 20
7.203855
 30
0.0
 10
68.979455
 20
11.937521
 30
0.0
 10
71.314085
 20
15.383613
 30
0.0
  0
SPLINE
  5
102
100
AcDbEntity
  8
0
 62
7
100
AcDbSpline
 70
8
 71
3
 72
8
 73
4
 74
0
 40
0
 40
0
 40
0
 40
0
 40
1
 40
1
 40
1
 40
1
 10
71.314085
 20
15.383613
 30
0.0
 10
71.685639
 20
15.932055
 30
0.0
 10
71.855470
 20
16.752168
 30
0.0
 10
71.944180
 20
18.426322
 30
0.0
  0
SPLINE
  5
103
100
AcDbEntity
  8
0
 62
7
100
AcDbSpline
 70
8
 71
3
 72
8
 73
4
 74
0
 40
0
 40
0
 40
0
 40
0
 40
1
 40
1
 40
1
 40
1
 10
70.844280
 20
22.305719
 30
0.0
 10
70.172543
 20
23.178844
 30
0.0
 10
69.018282
 20
24.667125
 30
0.0
 10
68.279253
 20
25.613011
 30
0.0
  0
SPLINE
  5
104
100
AcDbEntity
  8
0
 62
7
100
AcDbSpline
 70
8
 71
3
 72
8
 73
4
 74
0
 40
0
 40
0
 40
0
 40
0
 40
1
 40
1
 40
1
 40
1
 10
68.279253
 20
25.613011
 30
0.0
 10
67.540225
 20
26.558896
 30
0.0
 10
66.506992
 20
28.225771
 30
0.0
 10
65.983178
 20
29.317177
 30
0.0
  0
LWPOLYLINE
  5
105
100
AcDbEntity
  8
0
 62
7
100
AcDbPolyline
 90
3
 70
0
 10
71.944180
 20
18.426322
 30
0.0
 10
72.065621
 20
20.718219
 30
0.0
 10
70.844280
 20
22.305719
 30
0.0
  0
SPLINE
  5
106
100
AcDbEntity
  8
0
 62
7
100
AcDbSpline
 70
8
 71
3
 72
8
 73
4
 74
0
 40
0
 40
0
 40
0
 40
0
 40
1
 40
1
 40
1
 40
1
 10
65.018777
 20
35.270302
 30
0.0
 10
65.007003
 20
39.164009
 30
0.0
 10
65.025630
 20
39.296187
 30
0.0
 10
66.003953
 20
42.260666
 30
0.0
  0
SPLINE
  5
107
100
AcDbEntity
  8
0
 62
7
100
AcDbSpline
 70
8
 71
3
 72
8
 73
4
 74
0
 40
0
 40
0
 40
0
 40
0
 40
1
 40
1
 40
1
 40
1
 10
66.003953
 20
42.260666
 30
0.0
 10
66.552403
 20
43.922556
 30
0.0
 10
67.133364
 20
45.441608
 30
0.0
 10
67.294980
 20
45.636344
 30
0.0
  0
SPLINE
  5
108
100
AcDbEntity
  8
0
 62
7
100
AcDbSpline
 70
8
 71
3
 72
8
 73
4
 74
0
 40
0
 40
0
 40
0
 40
0
 40
1
 40
1
 40
1
 40
1
 10
67.294980
 20
45.636344
 30
0.0
 10
67.459154
 20
45.834160
 30
0.0
 10
67.523016
 20
46.395934
 30
0.0
 10
67.439699
 20
46.909360
 30
0.0
  0
SPLINE
  5
109
100
AcDbEntity
  8
0
 62
7
100
AcDbSpline
 70
8
 71
3
 72
8
 73
4
 74
0
 40
0
 40
0
 40
0
 40
0
 40
1
 40
1
 40
1
 40
1
 10
67.439699
 20
46.909360
 30
0.0
 10
67.256713
 20
48.036977
 30
0.0
 10
67.544545
 20
48.252179
 30
0.0
 10
68.504731
 20
47.705650
 30
0.0
  0
SPLINE
  5
10a
100
AcDbEntity
  8
0
 62
7
100
AcDbSpline
 70
8
 71
3
 72
8
 73
4
 74
0
 40
0
 40
0
 40
0
 40
0
 40
1
 40
1
 40
1
 40
1
 10
68.504731
 20
47.705650
 30
0.0
 10
71.517783
 20
45.990648
 30
0.0
 10
72.257896
 20
45.555207
 30
0.0
 10
72.579050
 20
45.308565
 30
0.0
  0
SPLINE
  5
10b
100
AcDbEntity
  8
0
 62
7
100
AcDbSpline
 70
8
 71
3
 72
8
 73
4
 74
0
 40
0
 40
0
 40
0
 40
0
 40
1
 40
1
 40
1
 40
1
 10
72.579050
 20
45.308565
 30
0.0
 10
73.056824
 20
44.941641
 30
0.0
 10
74.863664
 20
44.214764
 30
0.0
 10
75.799873
 20
44.012855
 30
0.0
  0
SPLINE
  5
10c
100
AcDbEntity
  8
0
 62
7
100
AcDbSpline
 70
8
 71
3
 72
8
 73
4
 74
0
 40
0
 40
0
 40
0
 40
0
 40
1
 40
1
 40
1
 40
1
 10
75.799873
 20
44.012855
 30
0.0
 10
76.965313
 20
43.761509
 30
0.0
 10
76.945030
 20
43.197854
 30
0.0
 10
75.724464
 20
41.917175
 30
0.0
  0
SPLINE
  5
10d
100
AcDbEntity
  8
0
 62
7
100
AcDbSpline
 70
8
 71
3
 72
8
 73
4
 74
0
 40
0
 40
0
 40
0
 40
0
 40
1
 40
1
 40
1
 40
1
 10
75.724464
 20
41.917175
 30
0.0
 10
73.862128
 20
39.963119
 30
0.0
 10
73.058803
 20
38.228217
 30
0.0
 10
72.504853
 20
34.963949
 30
0.0
  0
SPLINE
  5
10e
100
AcDbEntity
  8
0
 62
7
100
AcDbSpline
 70
8
 71
3
 72
8
 73
4
 74
0
 40
0
 40
0
 40
0
 40
0
 40
1
 40
1
 40
1
 40
1
 10
72.504853
 20
34.963949
 30
0.0
 10
72.227530
 20
33.329761
 30
0.0
 10
72.248633
 20
32.731194
 30
0.0
 10
72.658774
 20
30.598324
 30
0.0
  0
SPLINE
  5
10f
100
AcDbEntity
  8
0
 62
7
100
AcDbSpline
 70
8
 71
3
 72
8
 73
4
 74
0
 40
0
 40
0
 40
0
 40
0
 40
1
 40
1
 40
1
 40
1
 10
72.658774
 20
30.598324
 30
0.0
 10
73.446725
 20
26.500720
 30
0.0
 10
74.436541
 20
24.485904
 30
0.0
 10
75.258041
 20
25.307404
 30
0.0
  0
SPLINE
  5
110
100
AcDbEntity
  8
0
 62
7
100
AcDbSpline
 70
8
 71
3
 72
8
 73
4
 74
0
 40
0
 40
0
 40
0
 40
0
 40
1
 40
1
 40
1
 40
1
 10
75.258041
 20
25.307404
 30
0.0
 10
75.619083
 20
25.668446
 30
0.0
 10
75.972985
 20
27.427240
 30
0.0
 10
75.985021
 20
28.920302
 30
0.0
  0
SPLINE
  5
111
100
AcDbEntity
  8
0
 62
7
100
AcDbSpline
 70
8
 71
3
 72
8
 73
4
 74
0
 40
0
 40
0
 40
0
 40
0
 40
1
 40
1
 40
1
 40
1
 10
75.985021
 20
28.920302
 30
0.0
 10
75.992403
 20
29.837592
 30
0.0
 10
76.192010
 20
30.567720
 30
0.0
 10
76.635978
 20
31.301552
 30
0.0
  0
SPLINE
  5
112
100
AcDbEntity
  8
0
 62
7
100
AcDbSpline
 70
8
 71
3
 72
8
 73
4
 74
0
 40
0
 40
0
 40
0
 40
0
 40
1
 40
1
 40
1
 40
1
 10
76.635978
 20
31.301552
 30
0.0
 10
79.211681
 20
35.558907
 30
0.0
 10
79.176361
 20
35.468078
 30
0.0
 10
79.414867
 20
38.447930
 30
0.0
  0
SPLINE
  5
113
100
AcDbEntity
  8
0
 62
7
100
AcDbSpline
 70
8
 71
3
 72
8
 73
4
 74
0
 40
0
 40
0
 40
0
 40
0
 40
1
 40
1
 40
1
 40
1
 10
79.414867
 20
38.447930
 30
0.0
 10
79.538679
 20
39.994819
 30
0.0
 10
79.695593
 20
41.316066
 30
0.0
 10
79.763564
 20
41.384037
 30
0.0
  0
SPLINE
  5
114
100
AcDbEntity
  8
0
 62
7
100
AcDbSpline
 70
8
 71
3
 72
8
 73
4
 74
0
 40
0
 40
0
 40
0
 40
0
 40
1
 40
1
 40
1
 40
1
 10
79.763564
 20
41.384037
 30
0.0
 10
79.831533
 20
41.452006
 30
0.0
 10
80.908207
 20
41.184198
 30
0.0
 10
82.156173
 20
40.788905
 30
0.0
  0
LWPOLYLINE
  5
115
100
AcDbEntity
  8
0
 62
7
100
AcDbPolyline
 90
3
 70
0
 10
65.983178
 20
29.317177
 30
0.0
 10
65.030789
 20
31.301552
 30
0.0
 10
65.018777
 20
35.270302
 30
0.0
  0
SPLINE
  5
116
100
AcDbEntity
  8
0
 62
7
100
AcDbSpline
 70
8
 71
3
 72
8
 73
4
 74
0
 40
0
 40
0
 40
0
 40
0
 40
1
 40
1
 40
1
 40
1
 10
83.276083
 20
38.993162
 30
0.0
 10
82.369131
 20
38.143109
 30
0.0
 10
82.005728
 20
37.525825
 30
0.0
 10
81.551679
 20
36.064052
 30
0.0
  0
SPLINE
  5
117
100
AcDbEntity
  8
0
 62
7
100
AcDbSpline
 70
8
 71
3
 72
8
 73
4
 74
0
 40
0
 40
0
 40
0
 40
0
 40
1
 40
1
 40
1
 40
1
 10
81.551679
 20
36.064052
 30
0.0
 10
81.019925
 20
34.352106
 30
0.0
 10
80.990252
 20
33.881647
 30
0.0
 10
81.159525
 20
29.846344
 30
0.0
  0
LWPOLYLINE
  5
118
100
AcDbEntity
  8
0
 62
7
100
AcDbPolyline
 90
3
 70
0
 10
82.156173
 20
40.788905
 30
0.0
 10
84.425203
 20
40.070188
 30
0.0
 10
83.276083
 20
38.993162
 30
0.0
  0
SPLINE
  5
119
100
AcDbEntity
  8
0
 62
7
100
AcDbSpline
 70
8
 71
3
 72
8
 73
4
 74
0
 40
0
 40
0
 40
0
 40
0
 40
1
 40
1
 40
1
 40
1
 10
82.988555
 20
22.141029
 30
0.0
 10
84.733948
 20
18.599457
 30
0.0
 10
85.636322
 20
17.441344
 30
0.0
 10
88.433635
 20
15.152775
 30
0.0
  0
SPLINE
  5
11a
100
AcDbEntity
  8
0
 62
7
100
AcDbSpline
 70
8
 71
3
 72
8
 73
4
 74
0
 40
0
 40
0
 40
0
 40
0
 40
1
 40
1
 40
1
 40
1
 10
88.433635
 20
15.152775
 30
0.0
 10
90.264266
 20
13.655080
 30
0.0
 10
93.941879
 20
11.925435
 30
0.0
 10
98.079690
 20
10.616070
 30
0.0
  0
SPLINE
  5
11b
100
AcDbEntity
  8
0
 62
7
100
AcDbSpline
 70
8
 71
3
 72
8
 73
4
 74
0
 40
0
 40
0
 40
0
 40
0
 40
1
 40
1
 40
1
 40
1
 10
98.079690
 20
10.616070
 30
0.0
 10
99.243856
 20
10.247683
 30
0.0
 10
101.089325
 20
9.655635
 30
0.0
 10
102.180731
 20
9.300411
 30
0.0
  0
SPLINE
  5
11c
100
AcDbEntity
  8
0
 62
7
100
AcDbSpline
 70
8
 71
3
 72
8
 73
4
 74
0
 40
0
 40
0
 40
0
 40
0
 40
1
 40
1
 40
1
 40
1
 10
102.180731
 20
9.300411
 30
0.0
 10
103.272138
 20
8.945184
 30
0.0
 10
104.436897
 20
8.616611
 30
0.0
 10
104.769084
 20
8.570251
 30
0.0
  0
SPLINE
  5
11d
100
AcDbEntity
  8
0
 62
7
100
AcDbSpline
 70
8
 71
3
 72
8
 73
4
 74
0
 40
0
 40
0
 40
0
 40
0
 40
1
 40
1
 40
1
 40
1
 10
104.769084
 20
8.570251
 30
0.0
 10
105.892402
 20
8.413477
 30
0.0
 10
105.677597
 20
8.189465
 30
0.0
 10
103.868003
 20
7.630538
 30
0.0
  0
SPLINE
  5
11e
100
AcDbEntity
  8
0
 62
7
100
AcDbSpline
 70
8
 71
3
 72
8
 73
4
 74
0
 40
0
 40
0
 40
0
 40
0
 40
1
 40
1
 40
1
 40
1
 10
103.868003
 20
7.630538
 30
0.0
 10
97.924157
 20
5.794671
 30
0.0
 10
92.503445
 20
5.784842
 30
0.0
 10
88.394373
 20
7.602479
 30
0.0
  0
SPLINE
  5
11f
100
AcDbEntity
  8
0
 62
7
100
AcDbSpline
 70
8
 71
3
 72
8
 73
4
 74
0
 40
0
 40
0
 40
0
 40
0
 40
1
 40
1
 40
1
 40
1
 10
88.394373
 20
7.602479
 30
0.0
 10
85.932367
 20
8.691547
 30
0.0
 10
81.873154
 20
13.503479
 30
0.0
 10
80.734035
 20
16.683323
 30
0.0
  0
SPLINE
  5
120
100
AcDbEntity
  8
0
 62
7
100
AcDbSpline
 70
8
 71
3
 72
8
 73
4
 74
0
 40
0
 40
0
 40
0
 40
0
 40
1
 40
1
 40
1
 40
1
 10
80.734035
 20
16.683323
 30
0.0
 10
80.538548
 20
17.229026
 30
0.0
 10
80.283457
 20
17.675511
 30
0.0
 10
80.167170
 20
17.675511
 30
0.0
  0
SPLINE
  5
121
100
AcDbEntity
  8
0
 62
7
100
AcDbSpline
 70
8
 71
3
 72
8
 73
4
 74
0
 40
0
 40
0
 40
0
 40
0
 40
1
 40
1
 40
1
 40
1
 10
80.167170
 20
17.675511
 30
0.0
 10
80.050883
 20
17.675511
 30
0.0
 10
79.955739
 20
17.926373
 30
0.0
 10
79.955739
 20
18.232985
 30
0.0
  0
SPLINE
  5
122
100
AcDbEntity
  8
0
 62
7
100
AcDbSpline
 70
8
 71
3
 72
8
 73
4
 74
0
 40
0
 40
0
 40
0
 40
0
 40
1
 40
1
 40
1
 40
1
 10
79.955739
 20
18.232985
 30
0.0
 10
79.955739
 20
18.942330
 30
0.0
 10
79.585405
 20
18.806086
 30
0.0
 10
77.752975
 20
17.422585
 30
0.0
  0
SPLINE
  5
123
100
AcDbEntity
  8
0
 62
7
100
AcDbSpline
 70
8
 71
3
 72
8
 73
4
 74
0
 40
0
 40
0
 40
0
 40
0
 40
1
 40
1
 40
1
 40
1
 10
77.752975
 20
17.422585
 30
0.0
 10
76.379041
 20
16.385257
 30
0.0
 10
75.206797
 20
14.834100
 30
0.0
 10
74.305509
 20
12.860774
 30
0.0
  0
SPLINE
  5
124
100
AcDbEntity
  8
0
 62
7
100
AcDbSpline
 70
8
 71
3
 72
8
 73
4
 74
0
 40
0
 40
0
 40
0
 40
0
 40
1
 40
1
 40
1
 40
1
 10
74.305509
 20
12.860774
 30
0.0
 10
73.984170
 20
12.157218
 30
0.0
 10
73.848291
 20
11.079861
 30
0.0
 10
73.821642
 20
9.024316
 30
0.0
  0
SPLINE
  5
125
100
AcDbEntity
  8
0
 62
7
100
AcDbSpline
 70
8
 71
3
 72
8
 73
4
 74
0
 40
0
 40
0
 40
0
 40
0
 40
1
 40
1
 40
1
 40
1
 10
73.821642
 20
9.024316
 30
0.0
 10
73.781968
 20
5.963933
 30
0.0
 10
74.233987
 20
4.363273
 30
0.0
 10
75.448221
 20
3.264408
 30
0.0
  0
SPLINE
  5
126
100
AcDbEntity
  8
0
 62
7
100
AcDbSpline
 70
8
 71
3
 72
8
 73
4
 74
0
 40
0
 40
0
 40
0
 40
0
 40
1
 40
1
 40
1
 40
1
 10
75.448221
 20
3.264408
 30
0.0
 10
76.498119
 20
2.314263
 30
0.0
 10
75.877870
 20
2.124654
 30
0.0
 10
73.341156
 20
2.620283
 30
0.0
  0
LWPOLYLINE
  5
127
100
AcDbEntity
  8
0
 62
7
100
AcDbPolyline
 90
3
 70
0
 10
81.159525
 20
29.846344
 30
0.0
 10
81.342656
 20
25.480719
 30
0.0
 10
82.988555
 20
22.141029
 30
0.0
  0
SPLINE
  5
128
100
AcDbEntity
  8
0
 62
7
100
AcDbSpline
 70
8
 71
3
 72
8
 73
4
 74
0
 40
0
 40
0
 40
0
 40
0
 40
1
 40
1
 40
1
 40
1
 10
61.434906
 20
8.647282
 30
0.0
 10
61.434906
 20
8.774983
 30
0.0
 10
61.613500
 20
9.027687
 30
0.0
 10
61.831781
 20
9.208844
 30
0.0
  0
SPLINE
  5
129
100
AcDbEntity
  8
0
 62
7
100
AcDbSpline
 70
8
 71
3
 72
8
 73
4
 74
0
 40
0
 40
0
 40
0
 40
0
 40
1
 40
1
 40
1
 40
1
 10
61.831781
 20
9.208844
 30
0.0
 10
62.123373
 20
9.450843
 30
0.0
 10
62.225375
 20
10.073592
 30
0.0
 10
62.216287
 20
11.556344
 30
0.0
  0
SPLINE
  5
12a
100
AcDbEntity
  8
0
 62
7
100
AcDbSpline
 70
8
 71
3
 72
8
 73
4
 74
0
 40
0
 40
0
 40
0
 40
0
 40
1
 40
1
 40
1
 40
1
 10
62.216287
 20
11.556344
 30
0.0
 10
62.206206
 20
13.202343
 30
0.0
 10
62.047641
 20
13.955649
 30
0.0
 10
61.356391
 20
15.641698
 30
0.0
  0
SPLINE
  5
12b
100
AcDbEntity
  8
0
 62
7
100
AcDbSpline
 70
8
 71
3
 72
8
 73
4
 74
0
 40
0
 40
0
 40
0
 40
0
 40
1
 40
1
 40
1
 40
1
 10
61.356391
 20
15.641698
 30
0.0
 10
60.508592
 20
17.709589
 30
0.0
 10
58.874898
 20
20.008628
 30
0.0
 10
57.844981
 20
20.583178
 30
0.0
  0
SPLINE
  5
12c
100
AcDbEntity
  8
0
 62
7
100
AcDbSpline
 70
8
 71
3
 72
8
 73
4
 74
0
 40
0
 40
0
 40
0
 40
0
 40
1
 40
1
 40
1
 40
1
 10
57.844981
 20
20.583178
 30
0.0
 10
57.236566
 20
20.922589
 30
0.0
 10
56.293001
 20
20.424915
 30
0.0
 10
52.448354
 20
17.736775
 30
0.0
  0
SPLINE
  5
12d
100
AcDbEntity
  8
0
 62
7
100
AcDbSpline
 70
8
 71
3
 72
8
 73
4
 74
0
 40
0
 40
0
 40
0
 40
0
 40
1
 40
1
 40
1
 40
1
 10
52.448354
 20
17.736775
 30
0.0
 10
50.036013
 20
16.050091
 30
0.0
 10
45.157784
 20
13.642036
 30
0.0
 10
43.227091
 20
13.184854
 30
0.0
  0
SPLINE
  5
12e
100
AcDbEntity
  8
0
 62
7
100
AcDbSpline
 70
8
 71
3
 72
8
 73
4
 74
0
 40
0
 40
0
 40
0
 40
0
 40
1
 40
1
 40
1
 40
1
 10
43.227091
 20
13.184854
 30
0.0
 10
41.571960
 20
12.792924
 30
0.0
 10
37.264247
 20
12.675177
 30
0.0
 10
37.138335
 20
13.018423
 30
0.0
  0
SPLINE
  5
12f
100
AcDbEntity
  8
0
 62
7
100
AcDbSpline
 70
8
 71
3
 72
8
 73
4
 74
0
 40
0
 40
0
 40
0
 40
0
 40
1
 40
1
 40
1
 40
1
 10
37.138335
 20
13.018423
 30
0.0
 10
37.090374
 20
13.149162
 30
0.0
 10
38.221468
 20
13.883201
 30
0.0
 10
39.651877
 20
14.649622
 30
0.0
  0
SPLINE
  5
130
100
AcDbEntity
  8
0
 62
7
100
AcDbSpline
 70
8
 71
3
 72
8
 73
4
 74
0
 40
0
 40
0
 40
0
 40
0
 40
1
 40
1
 40
1
 40
1
 10
39.651877
 20
14.649622
 30
0.0
 10
42.503566
 20
16.177578
 30
0.0
 10
47.034585
 20
19.661923
 30
0.0
 10
48.639256
 20
21.560904
 30
0.0
  0
SPLINE
  5
131
100
AcDbEntity
  8
0
 62
7
100
AcDbSpline
 70
8
 71
3
 72
8
 73
4
 74
0
 40
0
 40
0
 40
0
 40
0
 40
1
 40
1
 40
1
 40
1
 10
48.639256
 20
21.560904
 30
0.0
 10
49.201186
 20
22.225897
 30
0.0
 10
49.948282
 20
23.022708
 30
0.0
 10
50.299472
 20
23.331601
 30
0.0
  0
SPLINE
  5
132
100
AcDbEntity
  8
0
 62
7
100
AcDbSpline
 70
8
 71
3
 72
8
 73
4
 74
0
 40
0
 40
0
 40
0
 40
0
 40
1
 40
1
 40
1
 40
1
 10
50.299472
 20
23.331601
 30
0.0
 10
53.088072
 20
25.784336
 30
0.0
 10
54.047837
 20
27.639912
 30
0.0
 10
54.969198
 20
32.359886
 30
0.0
  0
SPLINE
  5
133
100
AcDbEntity
  8
0
 62
7
100
AcDbSpline
 70
8
 71
3
 72
8
 73
4
 74
0
 40
0
 40
0
 40
0
 40
0
 40
1
 40
1
 40
1
 40
1
 10
54.969198
 20
32.359886
 30
0.0
 10
55.674895
 20
35.975049
 30
0.0
 10
55.863852
 20
39.748960
 30
0.0
 10
55.490229
 20
42.766030
 30
0.0
  0
SPLINE
  5
134
100
AcDbEntity
  8
0
 62
7
100
AcDbSpline
 70
8
 71
3
 72
8
 73
4
 74
0
 40
0
 40
0
 40
0
 40
0
 40
1
 40
1
 40
1
 40
1
 10
55.490229
 20
42.766030
 30
0.0
 10
55.358292
 20
43.831423
 30
0.0
 10
55.384520
 20
44.649829
 30
0.0
 10
55.562302
 20
45.014989
 30
0.0
  0
SPLINE
  5
135
100
AcDbEntity
  8
0
 62
7
100
AcDbSpline
 70
8
 71
3
 72
8
 73
4
 74
0
 40
0
 40
0
 40
0
 40
0
 40
1
 40
1
 40
1
 40
1
 10
55.562302
 20
45.014989
 30
0.0
 10
56.228033
 20
46.382398
 30
0.0
 10
56.423848
 20
47.686465
 30
0.0
 10
56.368696
 20
50.385311
 30
0.0
  0
SPLINE
  5
136
100
AcDbEntity
  8
0
 62
7
100
AcDbSpline
 70
8
 71
3
 72
8
 73
4
 74
0
 40
0
 40
0
 40
0
 40
0
 40
1
 40
1
 40
1
 40
1
 10
56.368696
 20
50.385311
 30
0.0
 10
56.328329
 20
52.360690
 30
0.0
 10
56.418935
 20
53.463195
 30
0.0
 10
56.657888
 20
53.904235
 30
0.0
  0
SPLINE
  5
137
100
AcDbEntity
  8
0
 62
7
100
AcDbSpline
 70
8
 71
3
 72
8
 73
4
 74
0
 40
0
 40
0
 40
0
 40
0
 40
1
 40
1
 40
1
 40
1
 10
56.657888
 20
53.904235
 30
0.0
 10
57.102481
 20
54.724827
 30
0.0
 10
56.885602
 20
57.613225
 30
0.0
 10
56.262453
 20
59.170626
 30
0.0
  0
SPLINE
  5
138
100
AcDbEntity
  8
0
 62
7
100
AcDbSpline
 70
8
 71
3
 72
8
 73
4
 74
0
 40
0
 40
0
 40
0
 40
0
 40
1
 40
1
 40
1
 40
1
 10
56.262453
 20
59.170626
 30
0.0
 10
56.014932
 20
59.789240
 30
0.0
 10
55.872676
 20
60.355641
 30
0.0
 10
55.946328
 20
60.429296
 30
0.0
  0
SPLINE
  5
139
100
AcDbEntity
  8
0
 62
7
100
AcDbSpline
 70
8
 71
3
 72
8
 73
4
 74
0
 40
0
 40
0
 40
0
 40
0
 40
1
 40
1
 40
1
 40
1
 10
55.946328
 20
60.429296
 30
0.0
 10
56.182914
 20
60.665879
 30
0.0
 10
56.931200
 20
59.730161
 30
0.0
 10
57.090805
 20
58.998154
 30
0.0
  0
SPLINE
  5
13a
100
AcDbEntity
  8
0
 62
7
100
AcDbSpline
 70
8
 71
3
 72
8
 73
4
 74
0
 40
0
 40
0
 40
0
 40
0
 40
1
 40
1
 40
1
 40
1
 10
57.090805
 20
58.998154
 30
0.0
 10
57.175839
 20
58.608148
 30
0.0
 10
57.467852
 20
57.744736
 30
0.0
 10
57.739719
 20
57.079457
 30
0.0
  0
SPLINE
  5
13b
100
AcDbEntity
  8
0
 62
7
100
AcDbSpline
 70
8
 71
3
 72
8
 73
4
 74
0
 40
0
 40
0
 40
0
 40
0
 40
1
 40
1
 40
1
 40
1
 10
57.739719
 20
57.079457
 30
0.0
 10
58.011589
 20
56.414181
 30
0.0
 10
58.490858
 20
54.630447
 30
0.0
 10
58.804765
 20
53.115610
 30
0.0
  0
SPLINE
  5
13c
100
AcDbEntity
  8
0
 62
7
100
AcDbSpline
 70
8
 71
3
 72
8
 73
4
 74
0
 40
0
 40
0
 40
0
 40
0
 40
1
 40
1
 40
1
 40
1
 10
58.804765
 20
53.115610
 30
0.0
 10
59.298779
 20
50.731597
 30
0.0
 10
59.350518
 20
49.894929
 30
0.0
 10
59.189660
 20
46.891554
 30
0.0
  0
SPLINE
  5
13d
100
AcDbEntity
  8
0
 62
7
100
AcDbSpline
 70
8
 71
3
 72
8
 73
4
 74
0
 40
0
 40
0
 40
0
 40
0
 40
1
 40
1
 40
1
 40
1
 10
59.189660
 20
46.891554
 30
0.0
 10
59.020186
 20
43.727312
 30
0.0
 10
59.052209
 20
43.307476
 30
0.0
 10
59.553306
 20
42.124151
 30
0.0
  0
SPLINE
  5
13e
100
AcDbEntity
  8
0
 62
7
100
AcDbSpline
 70
8
 71
3
 72
8
 73
4
 74
0
 40
0
 40
0
 40
0
 40
0
 40
1
 40
1
 40
1
 40
1
 10
59.553306
 20
42.124151
 30
0.0
 10
60.953092
 20
38.818603
 30
0.0
 10
61.299225
 20
34.845945
 30
0.0
 10
60.353300
 20
32.942416
 30
0.0
  0
SPLINE
  5
13f
100
AcDbEntity
  8
0
 62
7
100
AcDbSpline
 70
8
 71
3
 72
8
 73
4
 74
0
 40
0
 40
0
 40
0
 40
0
 40
1
 40
1
 40
1
 40
1
 10
60.353300
 20
32.942416
 30
0.0
 10
60.049458
 20
32.330983
 30
0.0
 10
59.737847
 20
31.115799
 30
0.0
 10
59.660830
 20
30.242010
 30
0.0
  0
SPLINE
  5
140
100
AcDbEntity
  8
0
 62
7
100
AcDbSpline
 70
8
 71
3
 72
8
 73
4
 74
0
 40
0
 40
0
 40
0
 40
0
 40
1
 40
1
 40
1
 40
1
 10
59.660830
 20
30.242010
 30
0.0
 10
59.538931
 20
28.859012
 30
0.0
 10
59.612956
 20
28.488233
 30
0.0
 10
60.232518
 20
27.378491
 30
0.0
  0
SPLINE
  5
141
100
AcDbEntity
  8
0
 62
7
100
AcDbSpline
 70
8
 71
3
 72
8
 73
4
 74
0
 40
0
 40
0
 40
0
 40
0
 40
1
 40
1
 40
1
 40
1
 10
60.232518
 20
27.378491
 30
0.0
 10
60.623961
 20
26.677345
 30
0.0
 10
61.143933
 20
25.894213
 30
0.0
 10
61.388009
 20
25.638196
 30
0.0
  0
SPLINE
  5
142
100
AcDbEntity
  8
0
 62
7
100
AcDbSpline
 70
8
 71
3
 72
8
 73
4
 74
0
 40
0
 40
0
 40
0
 40
0
 40
1
 40
1
 40
1
 40
1
 10
61.388009
 20
25.638196
 30
0.0
 10
64.743708
 20
22.118304
 30
0.0
 10
65.877818
 20
19.977955
 30
0.0
 10
66.127268
 20
16.694020
 30
0.0
  0
SPLINE
  5
143
100
AcDbEntity
  8
0
 62
7
100
AcDbSpline
 70
8
 71
3
 72
8
 73
4
 74
0
 40
0
 40
0
 40
0
 40
0
 40
1
 40
1
 40
1
 40
1
 10
66.127268
 20
16.694020
 30
0.0
 10
66.354571
 20
13.701662
 30
0.0
 10
65.837475
 20
12.278154
 30
0.0
 10
63.636221
 20
9.836441
 30
0.0
  0
SPLINE
  5
144
100
AcDbEntity
  8
0
 62
7
100
AcDbSpline
 70
8
 71
3
 72
8
 73
4
 74
0
 40
0
 40
0
 40
0
 40
0
 40
1
 40
1
 40
1
 40
1
 10
63.636221
 20
9.836441
 30
0.0
 10
62.659337
 20
8.752845
 30
0.0
 10
61.434906
 20
8.091400
 30
0.0
 10
61.434906
 20
8.647282
 30
0.0
  0
LWPOLYLINE
  5
145
100
AcDbEntity
  8
0
 62
7
100
AcDbPolyline
 90
1
 70
1
 10
73.341156
 20
2.620283
 30
0.0
  0
SPLINE
  5
146
100
AcDbEntity
  8
0
 62
7
100
AcDbSpline
 70
8
 71
3
 72
8
 73
4
 74
0
 40
0
 40
0
 40
0
 40
0
 40
1
 40
1
 40
1
 40
1
 10
80.881781
 20
49.415777
 30
0.0
 10
80.590739
 20
49.528846
 30
0.0
 10
79.876364
 20
49.773832
 30
0.0
 10
79.294281
 20
49.960189
 30
0.0
  0
SPLINE
  5
147
100
AcDbEntity
  8
0
 62
7
100
AcDbSpline
 70
8
 71
3
 72
8
 73
4
 74
0
 40
0
 40
0
 40
0
 40
0
 40
1
 40
1
 40
1
 40
1
 10
79.294281
 20
49.960189
 30
0.0
 10
78.712198
 20
50.146545
 30
0.0
 10
77.759698
 20
50.604296
 30
0.0
 10
77.177614
 20
50.977416
 30
0.0
  0
SPLINE
  5
148
100
AcDbEntity
  8
0
 62
7
100
AcDbSpline
 70
8
 71
3
 72
8
 73
4
 74
0
 40
0
 40
0
 40
0
 40
0
 40
1
 40
1
 40
1
 40
1
 10
77.177614
 20
50.977416
 30
0.0
 10
76.595531
 20
51.350534
 30
0.0
 10
75.583500
 20
51.925453
 30
0.0
 10
74.928656
 20
52.255015
 30
0.0
  0
SPLINE
  5
149
100
AcDbEntity
  8
0
 62
7
100
AcDbSpline
 70
8
 71
3
 72
8
 73
4
 74
0
 40
0
 40
0
 40
0
 40
0
 40
1
 40
1
 40
1
 40
1
 10
74.928656
 20
52.255015
 30
0.0
 10
70.694576
 20
54.385890
 30
0.0
 10
68.400488
 20
56.501411
 30
0.0
 10
66.810882
 20
59.740914
 30
0.0
  0
SPLINE
  5
14a
100
AcDbEntity
  8
0
 62
7
100
AcDbSpline
 70
8
 71
3
 72
8
 73
4
 74
0
 40
0
 40
0
 40
0
 40
0
 40
1
 40
1
 40
1
 40
1
 10
66.810882
 20
59.740914
 30
0.0
 10
65.572619
 20
62.264401
 30
0.0
 10
65.438592
 20
62.944076
 30
0.0
 10
65.166716
 20
68.078636
 30
0.0
  0
SPLINE
  5
14b
100
AcDbEntity
  8
0
 62
7
100
AcDbSpline
 70
8
 71
3
 72
8
 73
4
 74
0
 40
0
 40
0
 40
0
 40
0
 40
1
 40
1
 40
1
 40
1
 10
65.166716
 20
68.078636
 30
0.0
 10
64.968088
 20
71.829880
 30
0.0
 10
64.844287
 20
72.598209
 30
0.0
 10
64.079578
 20
74.825511
 30
0.0
  0
SPLINE
  5
14c
100
AcDbEntity
  8
0
 62
7
100
AcDbSpline
 70
8
 71
3
 72
8
 73
4
 74
0
 40
0
 40
0
 40
0
 40
0
 40
1
 40
1
 40
1
 40
1
 10
64.079578
 20
74.825511
 30
0.0
 10
63.604936
 20
76.207959
 30
0.0
 10
63.133211
 20
77.398584
 30
0.0
 10
63.031299
 20
77.471344
 30
0.0
  0
SPLINE
  5
14d
100
AcDbEntity
  8
0
 62
7
100
AcDbSpline
 70
8
 71
3
 72
8
 73
4
 74
0
 40
0
 40
0
 40
0
 40
0
 40
1
 40
1
 40
1
 40
1
 10
63.031299
 20
77.471344
 30
0.0
 10
62.929386
 20
77.544105
 30
0.0
 10
62.444717
 20
78.362164
 30
0.0
 10
61.954259
 20
79.289254
 30
0.0
  0
SPLINE
  5
14e
100
AcDbEntity
  8
0
 62
7
100
AcDbSpline
 70
8
 71
3
 72
8
 73
4
 74
0
 40
0
 40
0
 40
0
 40
0
 40
1
 40
1
 40
1
 40
1
 10
61.954259
 20
79.289254
 30
0.0
 10
60.897405
 20
81.286972
 30
0.0
 10
57.629925
 20
84.359525
 30
0.0
 10
54.150281
 20
86.627668
 30
0.0
  0
SPLINE
  5
14f
100
AcDbEntity
  8
0
 62
7
100
AcDbSpline
 70
8
 71
3
 72
8
 73
4
 74
0
 40
0
 40
0
 40
0
 40
0
 40
1
 40
1
 40
1
 40
1
 10
54.150281
 20
86.627668
 30
0.0
 10
51.310500
 20
88.478733
 30
0.0
 10
46.970207
 20
90.406479
 30
0.0
 10
45.059478
 20
90.665361
 30
0.0
  0
LWPOLYLINE
  5
150
100
AcDbEntity
  8
0
 62
7
100
AcDbPolyline
 90
1
 70
1
 10
61.434906
 20
8.647282
 30
0.0
  0
SPLINE
  5
151
100
AcDbEntity
  8
0
 62
7
100
AcDbSpline
 70
8
 71
3
 72
8
 73
4
 74
0
 40
0
 40
0
 40
0
 40
0
 40
1
 40
1
 40
1
 40
1
 10
44.633864
 20
91.337434
 30
0.0
 10
46.158121
 20
92.015813
 30
0.0
 10
47.446012
 20
92.136317
 30
0.0
 10
49.328967
 20
91.776743
 30
0.0
  0
SPLINE
  5
152
100
AcDbEntity
  8
0
 62
7
100
AcDbSpline
 70
8
 71
3
 72
8
 73
4
 74
0
 40
0
 40
0
 40
0
 40
0
 40
1
 40
1
 40
1
 40
1
 10
49.328967
 20
91.776743
 30
0.0
 10
55.038355
 20
90.686467
 30
0.0
 10
60.873418
 20
87.560452
 30
0.0
 10
65.090609
 20
83.332772
 30
0.0
  0
SPLINE
  5
153
100
AcDbEntity
  8
0
 62
7
100
AcDbSpline
 70
8
 71
3
 72
8
 73
4
 74
0
 40
0
 40
0
 40
0
 40
0
 40
1
 40
1
 40
1
 40
1
 10
65.090609
 20
83.332772
 30
0.0
 10
66.447353
 20
81.972653
 30
0.0
 10
67.597864
 20
80.901090
 30
0.0
 10
67.647296
 20
80.951522
 30
0.0
  0
SPLINE
  5
154
100
AcDbEntity
  8
0
 62
7
100
AcDbSpline
 70
8
 71
3
 72
8
 73
4
 74
0
 40
0
 40
0
 40
0
 40
0
 40
1
 40
1
 40
1
 40
1
 10
67.647296
 20
80.951522
 30
0.0
 10
67.696728
 20
81.001957
 30
0.0
 10
67.449332
 20
81.936188
 30
0.0
 10
67.097524
 20
83.027594
 30
0.0
  0
SPLINE
  5
155
100
AcDbEntity
  8
0
 62
7
100
AcDbSpline
 70
8
 71
3
 72
8
 73
4
 74
0
 40
0
 40
0
 40
0
 40
0
 40
1
 40
1
 40
1
 40
1
 10
67.097524
 20
83.027594
 30
0.0
 10
65.109452
 20
89.195132
 30
0.0
 10
65.049858
 20
91.271392
 30
0.0
 10
66.787040
 20
93.845134
 30
0.0
  0
SPLINE
  5
156
100
AcDbEntity
  8
0
 62
7
100
AcDbSpline
 70
8
 71
3
 72
8
 73
4
 74
0
 40
0
 40
0
 40
0
 40
0
 40
1
 40
1
 40
1
 40
1
 10
66.787040
 20
93.845134
 30
0.0
 10
67.315980
 20
94.628790
 30
0.0
 10
68.075498
 20
95.484310
 30
0.0
 10
68.474857
 20
95.746287
 30
0.0
  0
SPLINE
  5
157
100
AcDbEntity
  8
0
 62
7
100
AcDbSpline
 70
8
 71
3
 72
8
 73
4
 74
0
 40
0
 40
0
 40
0
 40
0
 40
1
 40
1
 40
1
 40
1
 10
68.474857
 20
95.746287
 30
0.0
 10
69.825195
 20
96.632093
 30
0.0
 10
74.460754
 20
101.403240
 30
0.0
 10
75.956194
 20
103.446445
 30
0.0
  0
SPLINE
  5
158
100
AcDbEntity
  8
0
 62
7
100
AcDbSpline
 70
8
 71
3
 72
8
 73
4
 74
0
 40
0
 40
0
 40
0
 40
0
 40
1
 40
1
 40
1
 40
1
 10
75.956194
 20
103.446445
 30
0.0
 10
78.863034
 20
107.418031
 30
0.0
 10
79.621690
 20
108.607844
 30
0.0
 10
80.989932
 20
111.340956
 30
0.0
  0
SPLINE
  5
159
100
AcDbEntity
  8
0
 62
7
100
AcDbSpline
 70
8
 71
3
 72
8
 73
4
 74
0
 40
0
 40
0
 40
0
 40
0
 40
1
 40
1
 40
1
 40
1
 10
80.989932
 20
111.340956
 30
0.0
 10
81.751747
 20
112.862707
 30
0.0
 10
82.472480
 20
114.228719
 30
0.0
 10
82.591561
 20
114.376539
 30
0.0
  0
SPLINE
  5
15a
100
AcDbEntity
  8
0
 62
7
100
AcDbSpline
 70
8
 71
3
 72
8
 73
4
 74
0
 40
0
 40
0
 40
0
 40
0
 40
1
 40
1
 40
1
 40
1
 10
82.591561
 20
114.376539
 30
0.0
 10
82.710642
 20
114.524359
 30
0.0
 10
83.245489
 20
115.716865
 30
0.0
 10
83.780111
 20
117.026552
 30
0.0
  0
SPLINE
  5
15b
100
AcDbEntity
  8
0
 62
7
100
AcDbSpline
 70
8
 71
3
 72
8
 73
4
 74
0
 40
0
 40
0
 40
0
 40
0
 40
1
 40
1
 40
1
 40
1
 10
83.780111
 20
117.026552
 30
0.0
 10
85.376134
 20
120.936401
 30
0.0
 10
86.583335
 20
123.296019
 30
0.0
 10
87.733082
 20
124.753097
 30
0.0
  0
SPLINE
  5
15c
100
AcDbEntity
  8
0
 62
7
100
AcDbSpline
 70
8
 71
3
 72
8
 73
4
 74
0
 40
0
 40
0
 40
0
 40
0
 40
1
 40
1
 40
1
 40
1
 10
87.733082
 20
124.753097
 30
0.0
 10
88.330492
 20
125.510195
 30
0.0
 10
88.908578
 20
126.135273
 30
0.0
 10
89.017718
 20
126.142160
 30
0.0
  0
SPLINE
  5
15d
100
AcDbEntity
  8
0
 62
7
100
AcDbSpline
 70
8
 71
3
 72
8
 73
4
 74
0
 40
0
 40
0
 40
0
 40
0
 40
1
 40
1
 40
1
 40
1
 10
89.017718
 20
126.142160
 30
0.0
 10
89.297417
 20
126.159808
 30
0.0
 10
89.264104
 20
125.521487
 30
0.0
 10
88.940968
 20
124.671579
 30
0.0
  0
SPLINE
  5
15e
100
AcDbEntity
  8
0
 62
7
100
AcDbSpline
 70
8
 71
3
 72
8
 73
4
 74
0
 40
0
 40
0
 40
0
 40
0
 40
1
 40
1
 40
1
 40
1
 10
88.940968
 20
124.671579
 30
0.0
 10
88.619722
 20
123.826632
 30
0.0
 10
88.053172
 20
112.648725
 30
0.0
 10
88.097532
 20
108.030719
 30
0.0
  0
SPLINE
  5
15f
100
AcDbEntity
  8
0
 62
7
100
AcDbSpline
 70
8
 71
3
 72
8
 73
4
 74
0
 40
0
 40
0
 40
0
 40
0
 40
1
 40
1
 40
1
 40
1
 10
88.097532
 20
108.030719
 30
0.0
 10
88.114307
 20
106.284469
 30
0.0
 10
88.164498
 20
103.237096
 30
0.0
 10
88.209072
 20
101.258777
 30
0.0
  0
SPLINE
  5
160
100
AcDbEntity
  8
0
 62
7
100
AcDbSpline
 70
8
 71
3
 72
8
 73
4
 74
0
 40
0
 40
0
 40
0
 40
0
 40
1
 40
1
 40
1
 40
1
 10
88.209072
 20
101.258777
 30
0.0
 10
88.270882
 20
98.515506
 30
0.0
 10
88.204495
 20
97.558587
 30
0.0
 10
87.929405
 20
97.226795
 30
0.0
  0
SPLINE
  5
161
100
AcDbEntity
  8
0
 62
7
100
AcDbSpline
 70
8
 71
3
 72
8
 73
4
 74
0
 40
0
 40
0
 40
0
 40
0
 40
1
 40
1
 40
1
 40
1
 10
87.929405
 20
97.226795
 30
0.0
 10
87.445839
 20
96.643576
 30
0.0
 10
87.258110
 20
96.805197
 30
0.0
 10
86.355140
 20
98.582125
 30
0.0
  0
SPLINE
  5
162
100
AcDbEntity
  8
0
 62
7
100
AcDbSpline
 70
8
 71
3
 72
8
 73
4
 74
0
 40
0
 40
0
 40
0
 40
0
 40
1
 40
1
 40
1
 40
1
 10
86.355140
 20
98.582125
 30
0.0
 10
85.733321
 20
99.805784
 30
0.0
 10
85.547031
 20
100.597454
 30
0.0
 10
85.390913
 20
102.679770
 30
0.0
  0
SPLINE
  5
163
100
AcDbEntity
  8
0
 62
7
100
AcDbSpline
 70
8
 71
3
 72
8
 73
4
 74
0
 40
0
 40
0
 40
0
 40
0
 40
1
 40
1
 40
1
 40
1
 10
85.390913
 20
102.679770
 30
0.0
 10
85.170812
 20
105.615515
 30
0.0
 10
85.043079
 20
105.781761
 30
0.0
 10
83.007539
 20
105.781761
 30
0.0
  0
SPLINE
  5
164
100
AcDbEntity
  8
0
 62
7
100
AcDbSpline
 70
8
 71
3
 72
8
 73
4
 74
0
 40
0
 40
0
 40
0
 40
0
 40
1
 40
1
 40
1
 40
1
 10
83.007539
 20
105.781761
 30
0.0
 10
81.494781
 20
105.781761
 30
0.0
 10
81.365236
 20
105.495177
 30
0.0
 10
82.039928
 20
103.641200
 30
0.0
  0
SPLINE
  5
165
100
AcDbEntity
  8
0
 62
7
100
AcDbSpline
 70
8
 71
3
 72
8
 73
4
 74
0
 40
0
 40
0
 40
0
 40
0
 40
1
 40
1
 40
1
 40
1
 10
82.039928
 20
103.641200
 30
0.0
 10
82.326411
 20
102.853977
 30
0.0
 10
82.812549
 20
101.257386
 30
0.0
 10
83.120233
 20
100.093219
 30
0.0
  0
SPLINE
  5
166
100
AcDbEntity
  8
0
 62
7
100
AcDbSpline
 70
8
 71
3
 72
8
 73
4
 74
0
 40
0
 40
0
 40
0
 40
0
 40
1
 40
1
 40
1
 40
1
 10
83.120233
 20
100.093219
 30
0.0
 10
83.427917
 20
98.929052
 30
0.0
 10
83.890977
 20
97.678896
 30
0.0
 10
84.149255
 20
97.315094
 30
0.0
  0
SPLINE
  5
167
100
AcDbEntity
  8
0
 62
7
100
AcDbSpline
 70
8
 71
3
 72
8
 73
4
 74
0
 40
0
 40
0
 40
0
 40
0
 40
1
 40
1
 40
1
 40
1
 10
84.149255
 20
97.315094
 30
0.0
 10
84.407534
 20
96.951292
 30
0.0
 10
85.075668
 20
95.673587
 30
0.0
 10
85.633999
 20
94.475750
 30
0.0
  0
SPLINE
  5
168
100
AcDbEntity
  8
0
 62
7
100
AcDbSpline
 70
8
 71
3
 72
8
 73
4
 74
0
 40
0
 40
0
 40
0
 40
0
 40
1
 40
1
 40
1
 40
1
 10
85.633999
 20
94.475750
 30
0.0
 10
86.628557
 20
92.342031
 30
0.0
 10
86.645636
 20
92.253493
 30
0.0
 10
86.476118
 20
90.110125
 30
0.0
  0
SPLINE
  5
169
100
AcDbEntity
  8
0
 62
7
100
AcDbSpline
 70
8
 71
3
 72
8
 73
4
 74
0
 40
0
 40
0
 40
0
 40
0
 40
1
 40
1
 40
1
 40
1
 10
86.476118
 20
90.110125
 30
0.0
 10
86.132387
 20
85.764068
 30
0.0
 10
84.735384
 20
82.504402
 30
0.0
 10
82.077872
 20
79.847570
 30
0.0
  0
SPLINE
  5
16a
100
AcDbEntity
  8
0
 62
7
100
AcDbSpline
 70
8
 71
3
 72
8
 73
4
 74
0
 40
0
 40
0
 40
0
 40
0
 40
1
 40
1
 40
1
 40
1
 10
82.077872
 20
79.847570
 30
0.0
 10
81.128981
 20
78.898919
 30
0.0
 10
79.935896
 20
77.923689
 30
0.0
 10
79.426573
 20
77.680391
 30
0.0
  0
SPLINE
  5
16b
100
AcDbEntity
  8
0
 62
7
100
AcDbSpline
 70
8
 71
3
 72
8
 73
4
 74
0
 40
0
 40
0
 40
0
 40
0
 40
1
 40
1
 40
1
 40
1
 10
79.426573
 20
77.680391
 30
0.0
 10
77.727125
 20
76.868581
 30
0.0
 10
75.193239
 20
73.821515
 30
0.0
 10
75.193239
 20
72.589692
 30
0.0
  0
SPLINE
  5
16c
100
AcDbEntity
  8
0
 62
7
100
AcDbSpline
 70
8
 71
3
 72
8
 73
4
 74
0
 40
0
 40
0
 40
0
 40
0
 40
1
 40
1
 40
1
 40
1
 10
75.193239
 20
72.589692
 30
0.0
 10
75.193239
 20
72.141048
 30
0.0
 10
75.995898
 20
72.032397
 30
0.0
 10
76.397093
 20
72.426735
 30
0.0
  0
SPLINE
  5
16d
100
AcDbEntity
  8
0
 62
7
100
AcDbSpline
 70
8
 71
3
 72
8
 73
4
 74
0
 40
0
 40
0
 40
0
 40
0
 40
1
 40
1
 40
1
 40
1
 10
76.397093
 20
72.426735
 30
0.0
 10
76.719173
 20
72.743306
 30
0.0
 10
81.883602
 20
74.471840
 30
0.0
 10
83.225860
 20
74.712322
 30
0.0
  0
SPLINE
  5
16e
100
AcDbEntity
  8
0
 62
7
100
AcDbSpline
 70
8
 71
3
 72
8
 73
4
 74
0
 40
0
 40
0
 40
0
 40
0
 40
1
 40
1
 40
1
 40
1
 10
83.225860
 20
74.712322
 30
0.0
 10
84.334951
 20
74.911027
 30
0.0
 10
84.706770
 20
74.633042
 30
0.0
 10
84.714188
 20
73.599598
 30
0.0
  0
SPLINE
  5
16f
100
AcDbEntity
  8
0
 62
7
100
AcDbSpline
 70
8
 71
3
 72
8
 73
4
 74
0
 40
0
 40
0
 40
0
 40
0
 40
1
 40
1
 40
1
 40
1
 10
84.714188
 20
73.599598
 30
0.0
 10
84.718290
 20
73.027990
 30
0.0
 10
84.114307
 20
72.719906
 30
0.0
 10
82.974992
 20
72.712456
 30
0.0
  0
SPLINE
  5
170
100
AcDbEntity
  8
0
 62
7
100
AcDbSpline
 70
8
 71
3
 72
8
 73
4
 74
0
 40
0
 40
0
 40
0
 40
0
 40
1
 40
1
 40
1
 40
1
 10
82.974992
 20
72.712456
 30
0.0
 10
82.132628
 20
72.706952
 30
0.0
 10
76.986829
 20
70.106199
 30
0.0
 10
77.106711
 20
69.746553
 30
0.0
  0
SPLINE
  5
171
100
AcDbEntity
  8
0
 62
7
100
AcDbSpline
 70
8
 71
3
 72
8
 73
4
 74
0
 40
0
 40
0
 40
0
 40
0
 40
1
 40
1
 40
1
 40
1
 10
77.106711
 20
69.746553
 30
0.0
 10
77.254947
 20
69.301847
 30
0.0
 10
80.750802
 20
68.183816
 30
0.0
 10
81.555701
 20
68.323693
 30
0.0
  0
SPLINE
  5
172
100
AcDbEntity
  8
0
 62
7
100
AcDbSpline
 70
8
 71
3
 72
8
 73
4
 74
0
 40
0
 40
0
 40
0
 40
0
 40
1
 40
1
 40
1
 40
1
 10
81.555701
 20
68.323693
 30
0.0
 10
82.614331
 20
68.507663
 30
0.0
 10
82.833321
 20
68.189546
 30
0.0
 10
83.005512
 20
66.217609
 30
0.0
  0
SPLINE
  5
173
100
AcDbEntity
  8
0
 62
7
100
AcDbSpline
 70
8
 71
3
 72
8
 73
4
 74
0
 40
0
 40
0
 40
0
 40
0
 40
1
 40
1
 40
1
 40
1
 10
83.005512
 20
66.217609
 30
0.0
 10
83.205169
 20
63.931157
 30
0.0
 10
82.831570
 20
62.949955
 30
0.0
 10
81.172246
 20
61.402807
 30
0.0
  0
SPLINE
  5
174
100
AcDbEntity
  8
0
 62
7
100
AcDbSpline
 70
8
 71
3
 72
8
 73
4
 74
0
 40
0
 40
0
 40
0
 40
0
 40
1
 40
1
 40
1
 40
1
 10
81.172246
 20
61.402807
 30
0.0
 10
79.608286
 20
59.944571
 30
0.0
 10
78.794554
 20
58.363895
 30
0.0
 10
78.989473
 20
57.162750
 30
0.0
  0
SPLINE
  5
175
100
AcDbEntity
  8
0
 62
7
100
AcDbSpline
 70
8
 71
3
 72
8
 73
4
 74
0
 40
0
 40
0
 40
0
 40
0
 40
1
 40
1
 40
1
 40
1
 10
78.989473
 20
57.162750
 30
0.0
 10
79.215697
 20
55.768708
 30
0.0
 10
80.944828
 20
52.645186
 30
0.0
 10
82.097155
 20
51.549004
 30
0.0
  0
SPLINE
  5
176
100
AcDbEntity
  8
0
 62
7
100
AcDbSpline
 70
8
 71
3
 72
8
 73
4
 74
0
 40
0
 40
0
 40
0
 40
0
 40
1
 40
1
 40
1
 40
1
 10
82.097155
 20
51.549004
 30
0.0
 10
83.064191
 20
50.629084
 30
0.0
 10
83.392034
 20
49.867913
 30
0.0
 10
82.932302
 20
49.609999
 30
0.0
  0
SPLINE
  5
177
100
AcDbEntity
  8
0
 62
7
100
AcDbSpline
 70
8
 71
3
 72
8
 73
4
 74
0
 40
0
 40
0
 40
0
 40
0
 40
1
 40
1
 40
1
 40
1
 10
82.932302
 20
49.609999
 30
0.0
 10
82.433967
 20
49.330427
 30
0.0
 10
81.362658
 20
49.228954
 30
0.0
 10
80.881781
 20
49.415777
 30
0.0
  0
LWPOLYLINE
  5
178
100
AcDbEntity
  8
0
 62
7
100
AcDbPolyline
 90
3
 70
0
 10
45.059478
 20
90.665361
 30
0.0
 10
43.575531
 20
90.866418
 30
0.0
 10
44.633864
 20
91.337434
 30
0.0
  0
SPLINE
  5
179
100
AcDbEntity
  8
0
 62
7
100
AcDbSpline
 70
8
 71
3
 72
8
 73
4
 74
0
 40
0
 40
0
 40
0
 40
0
 40
1
 40
1
 40
1
 40
1
 10
90.041225
 20
49.784648
 30
0.0
 10
89.811140
 20
50.061884
 30
0.0
 10
89.920924
 20
50.367464
 30
0.0
 10
90.522616
 20
51.124593
 30
0.0
  0
SPLINE
  5
17a
100
AcDbEntity
  8
0
 62
7
100
AcDbSpline
 70
8
 71
3
 72
8
 73
4
 74
0
 40
0
 40
0
 40
0
 40
0
 40
1
 40
1
 40
1
 40
1
 10
90.522616
 20
51.124593
 30
0.0
 10
91.785062
 20
52.713176
 30
0.0
 10
92.214581
 20
54.165751
 30
0.0
 10
92.073143
 20
56.368244
 30
0.0
  0
SPLINE
  5
17b
100
AcDbEntity
  8
0
 62
7
100
AcDbSpline
 70
8
 71
3
 72
8
 73
4
 74
0
 40
0
 40
0
 40
0
 40
0
 40
1
 40
1
 40
1
 40
1
 10
92.073143
 20
56.368244
 30
0.0
 10
91.915848
 20
58.817597
 30
0.0
 10
91.440606
 20
59.789309
 30
0.0
 10
89.162157
 20
62.320231
 30
0.0
  0
SPLINE
  5
17c
100
AcDbEntity
  8
0
 62
7
100
AcDbSpline
 70
8
 71
3
 72
8
 73
4
 74
0
 40
0
 40
0
 40
0
 40
0
 40
1
 40
1
 40
1
 40
1
 10
89.162157
 20
62.320231
 30
0.0
 10
87.186415
 20
64.514902
 30
0.0
 10
86.401627
 20
65.802185
 30
0.0
 10
86.647991
 20
66.444199
 30
0.0
  0
SPLINE
  5
17d
100
AcDbEntity
  8
0
 62
7
100
AcDbSpline
 70
8
 71
3
 72
8
 73
4
 74
0
 40
0
 40
0
 40
0
 40
0
 40
1
 40
1
 40
1
 40
1
 10
86.647991
 20
66.444199
 30
0.0
 10
86.751843
 20
66.714828
 30
0.0
 10
87.375357
 20
66.903769
 30
0.0
 10
88.595978
 20
67.034487
 30
0.0
  0
SPLINE
  5
17e
100
AcDbEntity
  8
0
 62
7
100
AcDbSpline
 70
8
 71
3
 72
8
 73
4
 74
0
 40
0
 40
0
 40
0
 40
0
 40
1
 40
1
 40
1
 40
1
 10
88.595978
 20
67.034487
 30
0.0
 10
89.583363
 20
67.140227
 30
0.0
 10
91.160132
 20
67.486115
 30
0.0
 10
92.099908
 20
67.803125
 30
0.0
  0
LWPOLYLINE
  5
17f
100
AcDbEntity
  8
0
 62
7
100
AcDbPolyline
 90
1
 70
1
 10
80.881781
 20
49.415777
 30
0.0
  0
SPLINE
  5
180
100
AcDbEntity
  8
0
 62
7
100
AcDbSpline
 70
8
 71
3
 72
8
 73
4
 74
0
 40
0
 40
0
 40
0
 40
0
 40
1
 40
1
 40
1
 40
1
 10
93.083351
 20
68.890531
 30
0.0
 10
92.684468
 20
69.171592
 30
0.0
 10
92.038122
 20
69.650388
 30
0.0
 10
91.647029
 20
69.954518
 30
0.0
  0
SPLINE
  5
181
100
AcDbEntity
  8
0
 62
7
100
AcDbSpline
 70
8
 71
3
 72
8
 73
4
 74
0
 40
0
 40
0
 40
0
 40
0
 40
1
 40
1
 40
1
 40
1
 10
91.647029
 20
69.954518
 30
0.0
 10
91.255935
 20
70.258649
 30
0.0
 10
90.221573
 20
70.895789
 30
0.0
 10
89.348448
 20
71.370386
 30
0.0
  0
SPLINE
  5
182
100
AcDbEntity
  8
0
 62
7
100
AcDbSpline
 70
8
 71
3
 72
8
 73
4
 74
0
 40
0
 40
0
 40
0
 40
0
 40
1
 40
1
 40
1
 40
1
 10
89.348448
 20
71.370386
 30
0.0
 10
88.475323
 20
71.844979
 30
0.0
 10
87.673474
 20
72.370053
 30
0.0
 10
87.566561
 20
72.537212
 30
0.0
  0
SPLINE
  5
183
100
AcDbEntity
  8
0
 62
7
100
AcDbSpline
 70
8
 71
3
 72
8
 73
4
 74
0
 40
0
 40
0
 40
0
 40
0
 40
1
 40
1
 40
1
 40
1
 10
87.566561
 20
72.537212
 30
0.0
 10
87.227413
 20
73.067474
 30
0.0
 10
87.347986
 20
73.953272
 30
0.0
 10
87.842426
 20
74.563880
 30
0.0
  0
SPLINE
  5
184
100
AcDbEntity
  8
0
 62
7
100
AcDbSpline
 70
8
 71
3
 72
8
 73
4
 74
0
 40
0
 40
0
 40
0
 40
0
 40
1
 40
1
 40
1
 40
1
 10
87.842426
 20
74.563880
 30
0.0
 10
88.392807
 20
75.243571
 30
0.0
 10
88.616658
 20
75.213266
 30
0.0
 10
93.355149
 20
73.817546
 30
0.0
  0
SPLINE
  5
185
100
AcDbEntity
  8
0
 62
7
100
AcDbSpline
 70
8
 71
3
 72
8
 73
4
 74
0
 40
0
 40
0
 40
0
 40
0
 40
1
 40
1
 40
1
 40
1
 10
93.355149
 20
73.817546
 30
0.0
 10
96.578399
 20
72.868139
 30
0.0
 10
98.820121
 20
72.639947
 30
0.0
 10
98.941782
 20
73.248864
 30
0.0
  0
SPLINE
  5
186
100
AcDbEntity
  8
0
 62
7
100
AcDbSpline
 70
8
 71
3
 72
8
 73
4
 74
0
 40
0
 40
0
 40
0
 40
0
 40
1
 40
1
 40
1
 40
1
 10
98.941782
 20
73.248864
 30
0.0
 10
98.986586
 20
73.473112
 30
0.0
 10
98.545716
 20
74.323448
 30
0.0
 10
97.962072
 20
75.138497
 30
0.0
  0
SPLINE
  5
187
100
AcDbEntity
  8
0
 62
7
100
AcDbSpline
 70
8
 71
3
 72
8
 73
4
 74
0
 40
0
 40
0
 40
0
 40
0
 40
1
 40
1
 40
1
 40
1
 10
97.962072
 20
75.138497
 30
0.0
 10
96.816680
 20
76.738020
 30
0.0
 10
95.097568
 20
77.888367
 30
0.0
 10
92.662155
 20
78.684951
 30
0.0
  0
SPLINE
  5
188
100
AcDbEntity
  8
0
 62
7
100
AcDbSpline
 70
8
 71
3
 72
8
 73
4
 74
0
 40
0
 40
0
 40
0
 40
0
 40
1
 40
1
 40
1
 40
1
 10
92.662155
 20
78.684951
 30
0.0
 10
91.089602
 20
79.199309
 30
0.0
 10
89.215727
 20
80.985162
 30
0.0
 10
88.219740
 20
82.918702
 30
0.0
  0
SPLINE
  5
189
100
AcDbEntity
  8
0
 62
7
100
AcDbSpline
 70
8
 71
3
 72
8
 73
4
 74
0
 40
0
 40
0
 40
0
 40
0
 40
1
 40
1
 40
1
 40
1
 10
88.219740
 20
82.918702
 30
0.0
 10
87.707830
 20
83.912488
 30
0.0
 10
87.657204
 20
84.247207
 30
0.0
 10
87.873377
 20
85.208748
 30
0.0
  0
SPLINE
  5
18a
100
AcDbEntity
  8
0
 62
7
100
AcDbSpline
 70
8
 71
3
 72
8
 73
4
 74
0
 40
0
 40
0
 40
0
 40
0
 40
1
 40
1
 40
1
 40
1
 10
87.873377
 20
85.208748
 30
0.0
 10
88.012625
 20
85.828124
 30
0.0
 10
88.192102
 20
87.263547
 30
0.0
 10
88.272218
 20
88.398575
 30
0.0
  0
SPLINE
  5
18b
100
AcDbEntity
  8
0
 62
7
100
AcDbSpline
 70
8
 71
3
 72
8
 73
4
 74
0
 40
0
 40
0
 40
0
 40
0
 40
1
 40
1
 40
1
 40
1
 10
88.272218
 20
88.398575
 30
0.0
 10
88.441702
 20
90.799724
 30
0.0
 10
88.619018
 20
91.215972
 30
0.0
 10
90.154482
 20
92.817177
 30
0.0
  0
SPLINE
  5
18c
100
AcDbEntity
  8
0
 62
7
100
AcDbSpline
 70
8
 71
3
 72
8
 73
4
 74
0
 40
0
 40
0
 40
0
 40
0
 40
1
 40
1
 40
1
 40
1
 10
90.154482
 20
92.817177
 30
0.0
 10
91.254868
 20
93.964678
 30
0.0
 10
94.582840
 20
100.043046
 30
0.0
 10
95.439219
 20
102.469479
 30
0.0
  0
SPLINE
  5
18d
100
AcDbEntity
  8
0
 62
7
100
AcDbSpline
 70
8
 71
3
 72
8
 73
4
 74
0
 40
0
 40
0
 40
0
 40
0
 40
1
 40
1
 40
1
 40
1
 10
95.439219
 20
102.469479
 30
0.0
 10
95.759072
 20
103.375733
 30
0.0
 10
95.758767
 20
103.552046
 30
0.0
 10
95.437103
 20
103.732087
 30
0.0
  0
SPLINE
  5
18e
100
AcDbEntity
  8
0
 62
7
100
AcDbSpline
 70
8
 71
3
 72
8
 73
4
 74
0
 40
0
 40
0
 40
0
 40
0
 40
1
 40
1
 40
1
 40
1
 10
95.437103
 20
103.732087
 30
0.0
 10
95.231437
 20
103.847183
 30
0.0
 10
94.875636
 20
104.128885
 30
0.0
 10
94.646433
 20
104.358088
 30
0.0
  0
SPLINE
  5
18f
100
AcDbEntity
  8
0
 62
7
100
AcDbSpline
 70
8
 71
3
 72
8
 73
4
 74
0
 40
0
 40
0
 40
0
 40
0
 40
1
 40
1
 40
1
 40
1
 10
94.646433
 20
104.358088
 30
0.0
 10
94.068715
 20
104.935806
 30
0.0
 10
93.555910
 20
104.659938
 30
0.0
 10
93.356785
 20
103.664314
 30
0.0
  0
SPLINE
  5
190
100
AcDbEntity
  8
0
 62
7
100
AcDbSpline
 70
8
 71
3
 72
8
 73
4
 74
0
 40
0
 40
0
 40
0
 40
0
 40
1
 40
1
 40
1
 40
1
 10
93.356785
 20
103.664314
 30
0.0
 10
93.153828
 20
102.649811
 30
0.0
 10
91.034153
 20
98.108844
 30
0.0
 10
90.763497
 20
98.108844
 30
0.0
  0
SPLINE
  5
191
100
AcDbEntity
  8
0
 62
7
100
AcDbSpline
 70
8
 71
3
 72
8
 73
4
 74
0
 40
0
 40
0
 40
0
 40
0
 40
1
 40
1
 40
1
 40
1
 10
90.763497
 20
98.108844
 30
0.0
 10
90.657897
 20
98.108844
 30
0.0
 10
90.491868
 20
98.639836
 30
0.0
 10
90.394547
 20
99.288828
 30
0.0
  0
SPLINE
  5
192
100
AcDbEntity
  8
0
 62
7
100
AcDbSpline
 70
8
 71
3
 72
8
 73
4
 74
0
 40
0
 40
0
 40
0
 40
0
 40
1
 40
1
 40
1
 40
1
 10
90.394547
 20
99.288828
 30
0.0
 10
90.184264
 20
100.691095
 30
0.0
 10
90.443296
 20
114.143988
 30
0.0
 10
90.688210
 20
114.540265
 30
0.0
  0
SPLINE
  5
193
100
AcDbEntity
  8
0
 62
7
100
AcDbSpline
 70
8
 71
3
 72
8
 73
4
 74
0
 40
0
 40
0
 40
0
 40
0
 40
1
 40
1
 40
1
 40
1
 10
90.688210
 20
114.540265
 30
0.0
 10
90.965827
 20
114.989464
 30
0.0
 10
91.855488
 20
118.821520
 30
0.0
 10
91.858865
 20
119.582668
 30
0.0
  0
SPLINE
  5
194
100
AcDbEntity
  8
0
 62
7
100
AcDbSpline
 70
8
 71
3
 72
8
 73
4
 74
0
 40
0
 40
0
 40
0
 40
0
 40
1
 40
1
 40
1
 40
1
 10
91.858865
 20
119.582668
 30
0.0
 10
91.863124
 20
120.541830
 30
0.0
 10
93.175230
 20
124.511520
 30
0.0
 10
93.899942
 20
125.757802
 30
0.0
  0
LWPOLYLINE
  5
195
100
AcDbEntity
  8
0
 62
7
100
AcDbPolyline
 90
3
 70
0
 10
92.099908
 20
67.803125
 30
0.0
 10
93.808592
 20
68.379509
 30
0.0
 10
93.083351
 20
68.890531
 30
0.0
  0
SPLINE
  5
196
100
AcDbEntity
  8
0
 62
7
100
AcDbSpline
 70
8
 71
3
 72
8
 73
4
 74
0
 40
0
 40
0
 40
0
 40
0
 40
1
 40
1
 40
1
 40
1
 10
94.396243
 20
125.757802
 30
0.0
 10
94.499967
 20
125.466761
 30
0.0
 10
94.847730
 20
124.633323
 30
0.0
 10
95.169048
 20
123.905719
 30
0.0
  0
SPLINE
  5
197
100
AcDbEntity
  8
0
 62
7
100
AcDbSpline
 70
8
 71
3
 72
8
 73
4
 74
0
 40
0
 40
0
 40
0
 40
0
 40
1
 40
1
 40
1
 40
1
 10
95.169048
 20
123.905719
 30
0.0
 10
95.490366
 20
123.178115
 30
0.0
 10
95.967791
 20
121.927959
 30
0.0
 10
96.229993
 20
121.127594
 30
0.0
  0
SPLINE
  5
198
100
AcDbEntity
  8
0
 62
7
100
AcDbSpline
 70
8
 71
3
 72
8
 73
4
 74
0
 40
0
 40
0
 40
0
 40
0
 40
1
 40
1
 40
1
 40
1
 10
96.229993
 20
121.127594
 30
0.0
 10
96.492192
 20
120.327230
 30
0.0
 10
97.333464
 20
118.351459
 30
0.0
 10
98.099483
 20
116.736995
 30
0.0
  0
SPLINE
  5
199
100
AcDbEntity
  8
0
 62
7
100
AcDbSpline
 70
8
 71
3
 72
8
 73
4
 74
0
 40
0
 40
0
 40
0
 40
0
 40
1
 40
1
 40
1
 40
1
 10
98.099483
 20
116.736995
 30
0.0
 10
99.336863
 20
114.129084
 30
0.0
 10
100.653456
 20
109.895756
 30
0.0
 10
101.259772
 20
106.575511
 30
0.0
  0
SPLINE
  5
19a
100
AcDbEntity
  8
0
 62
7
100
AcDbSpline
 70
8
 71
3
 72
8
 73
4
 74
0
 40
0
 40
0
 40
0
 40
0
 40
1
 40
1
 40
1
 40
1
 10
101.259772
 20
106.575511
 30
0.0
 10
101.498146
 20
105.270149
 30
0.0
 10
103.021516
 20
101.204501
 30
0.0
 10
103.391227
 20
100.886969
 30
0.0
  0
SPLINE
  5
19b
100
AcDbEntity
  8
0
 62
7
100
AcDbSpline
 70
8
 71
3
 72
8
 73
4
 74
0
 40
0
 40
0
 40
0
 40
0
 40
1
 40
1
 40
1
 40
1
 10
103.391227
 20
100.886969
 30
0.0
 10
103.560660
 20
100.741448
 30
0.0
 10
103.969587
 20
100.065737
 30
0.0
 10
104.299951
 20
99.385390
 30
0.0
  0
LWPOLYLINE
  5
19c
100
AcDbEntity
  8
0
 62
7
100
AcDbPolyline
 90
3
 70
0
 10
93.899942
 20
125.757802
 30
0.0
 10
94.207653
 20
126.286969
 30
0.0
 10
94.396243
 20
125.757802
 30
0.0
  0
SPLINE
  5
19d
100
AcDbEntity
  8
0
 62
7
100
AcDbSpline
 70
8
 71
3
 72
8
 73
4
 74
0
 40
0
 40
0
 40
0
 40
0
 40
1
 40
1
 40
1
 40
1
 10
104.312022
 20
97.004140
 30
0.0
 10
103.988293
 20
96.374799
 30
0.0
 10
103.322747
 20
95.264573
 30
0.0
 10
102.833027
 20
94.536969
 30
0.0
  0
SPLINE
  5
19e
100
AcDbEntity
  8
0
 62
7
100
AcDbSpline
 70
8
 71
3
 72
8
 73
4
 74
0
 40
0
 40
0
 40
0
 40
0
 40
1
 40
1
 40
1
 40
1
 10
102.833027
 20
94.536969
 30
0.0
 10
101.893375
 20
93.140874
 30
0.0
 10
101.317703
 20
91.521272
 30
0.0
 10
101.885956
 20
91.872472
 30
0.0
  0
SPLINE
  5
19f
100
AcDbEntity
  8
0
 62
7
100
AcDbSpline
 70
8
 71
3
 72
8
 73
4
 74
0
 40
0
 40
0
 40
0
 40
0
 40
1
 40
1
 40
1
 40
1
 10
101.885956
 20
91.872472
 30
0.0
 10
102.299376
 20
92.127978
 30
0.0
 10
107.057074
 20
92.801866
 30
0.0
 10
108.398448
 20
92.794910
 30
0.0
  0
LWPOLYLINE
  5
1a0
100
AcDbEntity
  8
0
 62
7
100
AcDbPolyline
 90
3
 70
0
 10
104.299951
 20
99.385390
 30
0.0
 10
104.900616
 20
98.148397
 30
0.0
 10
104.312022
 20
97.004140
 30
0.0
  0
SPLINE
  5
1a1
100
AcDbEntity
  8
0
 62
7
100
AcDbSpline
 70
8
 71
3
 72
8
 73
4
 74
0
 40
0
 40
0
 40
0
 40
0
 40
1
 40
1
 40
1
 40
1
 10
108.795323
 20
92.354016
 30
0.0
 10
106.800309
 20
91.040765
 30
0.0
 10
104.032823
 20
87.162682
 30
0.0
 10
104.032823
 20
85.680315
 30
0.0
  0
SPLINE
  5
1a2
100
AcDbEntity
  8
0
 62
7
100
AcDbSpline
 70
8
 71
3
 72
8
 73
4
 74
0
 40
0
 40
0
 40
0
 40
0
 40
1
 40
1
 40
1
 40
1
 10
104.032823
 20
85.680315
 30
0.0
 10
104.032823
 20
85.115723
 30
0.0
 10
104.060030
 20
85.120819
 30
0.0
 10
105.025010
 20
85.866123
 30
0.0
  0
SPLINE
  5
1a3
100
AcDbEntity
  8
0
 62
7
100
AcDbSpline
 70
8
 71
3
 72
8
 73
4
 74
0
 40
0
 40
0
 40
0
 40
0
 40
1
 40
1
 40
1
 40
1
 10
105.025010
 20
85.866123
 30
0.0
 10
106.746257
 20
87.195530
 30
0.0
 10
111.474152
 20
88.781964
 30
0.0
 10
115.243650
 20
89.294965
 30
0.0
  0
LWPOLYLINE
  5
1a4
100
AcDbEntity
  8
0
 62
7
100
AcDbPolyline
 90
3
 70
0
 10
108.398448
 20
92.794910
 30
0.0
 10
109.456781
 20
92.789433
 30
0.0
 10
108.795323
 20
92.354016
 30
0.0
  0
SPLINE
  5
1a5
100
AcDbEntity
  8
0
 62
7
100
AcDbSpline
 70
8
 71
3
 72
8
 73
4
 74
0
 40
0
 40
0
 40
0
 40
0
 40
1
 40
1
 40
1
 40
1
 10
115.243650
 20
88.523220
 30
0.0
 10
114.680246
 20
88.022086
 30
0.0
 10
113.445375
 20
87.095552
 30
0.0
 10
112.499489
 20
86.464256
 30
0.0
  0
SPLINE
  5
1a6
100
AcDbEntity
  8
0
 62
7
100
AcDbSpline
 70
8
 71
3
 72
8
 73
4
 74
0
 40
0
 40
0
 40
0
 40
0
 40
1
 40
1
 40
1
 40
1
 10
112.499489
 20
86.464256
 30
0.0
 10
109.655499
 20
84.566146
 30
0.0
 10
108.056045
 20
83.084188
 30
0.0
 10
107.852826
 20
82.158938
 30
0.0
  0
SPLINE
  5
1a7
100
AcDbEntity
  8
0
 62
7
100
AcDbSpline
 70
8
 71
3
 72
8
 73
4
 74
0
 40
0
 40
0
 40
0
 40
0
 40
1
 40
1
 40
1
 40
1
 10
107.852826
 20
82.158938
 30
0.0
 10
107.752108
 20
81.700373
 30
0.0
 10
107.565447
 20
81.142681
 30
0.0
 10
107.438023
 20
80.919622
 30
0.0
  0
SPLINE
  5
1a8
100
AcDbEntity
  8
0
 62
7
100
AcDbSpline
 70
8
 71
3
 72
8
 73
4
 74
0
 40
0
 40
0
 40
0
 40
0
 40
1
 40
1
 40
1
 40
1
 10
107.438023
 20
80.919622
 30
0.0
 10
107.191895
 20
80.488766
 30
0.0
 10
106.569330
 20
77.848815
 30
0.0
 10
106.094480
 20
75.222396
 30
0.0
  0
SPLINE
  5
1a9
100
AcDbEntity
  8
0
 62
7
100
AcDbSpline
 70
8
 71
3
 72
8
 73
4
 74
0
 40
0
 40
0
 40
0
 40
0
 40
1
 40
1
 40
1
 40
1
 10
106.094480
 20
75.222396
 30
0.0
 10
105.728326
 20
73.197178
 30
0.0
 10
104.809877
 20
69.312454
 30
0.0
 10
103.936361
 20
66.094271
 30
0.0
  0
SPLINE
  5
1aa
100
AcDbEntity
  8
0
 62
7
100
AcDbSpline
 70
8
 71
3
 72
8
 73
4
 74
0
 40
0
 40
0
 40
0
 40
0
 40
1
 40
1
 40
1
 40
1
 10
103.936361
 20
66.094271
 30
0.0
 10
103.268439
 20
63.633541
 30
0.0
 10
101.134765
 20
58.413880
 30
0.0
 10
100.475386
 20
57.627605
 30
0.0
  0
SPLINE
  5
1ab
100
AcDbEntity
  8
0
 62
7
100
AcDbSpline
 70
8
 71
3
 72
8
 73
4
 74
0
 40
0
 40
0
 40
0
 40
0
 40
1
 40
1
 40
1
 40
1
 10
100.475386
 20
57.627605
 30
0.0
 10
100.292334
 20
57.409323
 30
0.0
 10
99.853520
 20
56.734559
 30
0.0
 10
99.500248
 20
56.128132
 30
0.0
  0
SPLINE
  5
1ac
100
AcDbEntity
  8
0
 62
7
100
AcDbSpline
 70
8
 71
3
 72
8
 73
4
 74
0
 40
0
 40
0
 40
0
 40
0
 40
1
 40
1
 40
1
 40
1
 10
99.500248
 20
56.128132
 30
0.0
 10
99.139544
 20
55.508946
 30
0.0
 10
97.724836
 20
54.089072
 30
0.0
 10
96.273498
 20
52.889602
 30
0.0
  0
SPLINE
  5
1ad
100
AcDbEntity
  8
0
 62
7
100
AcDbSpline
 70
8
 71
3
 72
8
 73
4
 74
0
 40
0
 40
0
 40
0
 40
0
 40
1
 40
1
 40
1
 40
1
 10
96.273498
 20
52.889602
 30
0.0
 10
93.505208
 20
50.601724
 30
0.0
 10
93.034056
 20
50.287208
 30
0.0
 10
91.597406
 20
49.768099
 30
0.0
  0
SPLINE
  5
1ae
100
AcDbEntity
  8
0
 62
7
100
AcDbSpline
 70
8
 71
3
 72
8
 73
4
 74
0
 40
0
 40
0
 40
0
 40
0
 40
1
 40
1
 40
1
 40
1
 10
91.597406
 20
49.768099
 30
0.0
 10
90.436560
 20
49.348647
 30
0.0
 10
90.402786
 20
49.349006
 30
0.0
 10
90.041225
 20
49.784661
 30
0.0
  0
LWPOLYLINE
  5
1af
100
AcDbEntity
  8
0
 62
7
100
AcDbPolyline
 90
3
 70
0
 10
115.243650
 20
89.294965
 30
0.0
 10
116.268018
 20
89.434376
 30
0.0
 10
115.243650
 20
88.523220
 30
0.0
  0
SPLINE
  5
1b0
100
AcDbEntity
  8
0
 62
7
100
AcDbSpline
 70
8
 71
3
 72
8
 73
4
 74
0
 40
0
 40
0
 40
0
 40
0
 40
1
 40
1
 40
1
 40
1
 10
121.495323
 20
93.997634
 30
0.0
 10
117.819765
 20
94.563314
 30
0.0
 10
114.430696
 20
96.175883
 30
0.0
 10
110.647406
 20
99.159229
 30
0.0
  0
SPLINE
  5
1b1
100
AcDbEntity
  8
0
 62
7
100
AcDbSpline
 70
8
 71
3
 72
8
 73
4
 74
0
 40
0
 40
0
 40
0
 40
0
 40
1
 40
1
 40
1
 40
1
 10
110.647406
 20
99.159229
 30
0.0
 10
108.804509
 20
100.612464
 30
0.0
 10
105.884906
 20
103.886011
 30
0.0
 10
105.884906
 20
104.499090
 30
0.0
  0
SPLINE
  5
1b2
100
AcDbEntity
  8
0
 62
7
100
AcDbSpline
 70
8
 71
3
 72
8
 73
4
 74
0
 40
0
 40
0
 40
0
 40
0
 40
1
 40
1
 40
1
 40
1
 10
105.884906
 20
104.499090
 30
0.0
 10
105.884906
 20
104.601986
 30
0.0
 10
106.450453
 20
104.367536
 30
0.0
 10
107.141677
 20
103.978091
 30
0.0
  0
SPLINE
  5
1b3
100
AcDbEntity
  8
0
 62
7
100
AcDbSpline
 70
8
 71
3
 72
8
 73
4
 74
0
 40
0
 40
0
 40
0
 40
0
 40
1
 40
1
 40
1
 40
1
 10
107.141677
 20
103.978091
 30
0.0
 10
110.853659
 20
101.886695
 30
0.0
 10
114.691290
 20
101.368831
 30
0.0
 10
120.258782
 20
102.208013
 30
0.0
  0
SPLINE
  5
1b4
100
AcDbEntity
  8
0
 62
7
100
AcDbSpline
 70
8
 71
3
 72
8
 73
4
 74
0
 40
0
 40
0
 40
0
 40
0
 40
1
 40
1
 40
1
 40
1
 10
120.258782
 20
102.208013
 30
0.0
 10
121.688738
 20
102.423550
 30
0.0
 10
123.415145
 20
102.864322
 30
0.0
 10
124.095240
 20
103.187508
 30
0.0
  0
LWPOLYLINE
  5
1b5
100
AcDbEntity
  8
0
 62
7
100
AcDbPolyline
 90
1
 70
1
 10
90.041225
 20
49.784661
 30
0.0
  0
SPLINE
  5
1b6
100
AcDbEntity
  8
0
 62
7
100
AcDbSpline
 70
8
 71
3
 72
8
 73
4
 74
0
 40
0
 40
0
 40
0
 40
0
 40
1
 40
1
 40
1
 40
1
 10
124.273448
 20
103.845516
 30
0.0
 10
121.660370
 20
104.019339
 30
0.0
 10
117.750175
 20
104.562407
 30
0.0
 10
115.853358
 20
105.014948
 30
0.0
  0
SPLINE
  5
1b7
100
AcDbEntity
  8
0
 62
7
100
AcDbSpline
 70
8
 71
3
 72
8
 73
4
 74
0
 40
0
 40
0
 40
0
 40
0
 40
1
 40
1
 40
1
 40
1
 10
115.853358
 20
105.014948
 30
0.0
 10
112.268513
 20
105.870211
 30
0.0
 10
107.418510
 20
108.470830
 30
0.0
 10
106.122994
 20
110.232457
 30
0.0
  0
SPLINE
  5
1b8
100
AcDbEntity
  8
0
 62
7
100
AcDbSpline
 70
8
 71
3
 72
8
 73
4
 74
0
 40
0
 40
0
 40
0
 40
0
 40
1
 40
1
 40
1
 40
1
 10
106.122994
 20
110.232457
 30
0.0
 10
105.204088
 20
111.481976
 30
0.0
 10
105.247887
 20
111.535633
 30
0.0
 10
106.623051
 20
110.845028
 30
0.0
  0
SPLINE
  5
1b9
100
AcDbEntity
  8
0
 62
7
100
AcDbSpline
 70
8
 71
3
 72
8
 73
4
 74
0
 40
0
 40
0
 40
0
 40
0
 40
1
 40
1
 40
1
 40
1
 10
106.623051
 20
110.845028
 30
0.0
 10
107.162957
 20
110.573889
 30
0.0
 10
108.616729
 20
110.024087
 30
0.0
 10
109.853656
 20
109.623249
 30
0.0
  0
SPLINE
  5
1ba
100
AcDbEntity
  8
0
 62
7
100
AcDbSpline
 70
8
 71
3
 72
8
 73
4
 74
0
 40
0
 40
0
 40
0
 40
0
 40
1
 40
1
 40
1
 40
1
 10
109.853656
 20
109.623249
 30
0.0
 10
111.090583
 20
109.222410
 30
0.0
 10
112.480564
 20
108.736096
 30
0.0
 10
112.942502
 20
108.542553
 30
0.0
  0
SPLINE
  5
1bb
100
AcDbEntity
  8
0
 62
7
100
AcDbSpline
 70
8
 71
3
 72
8
 73
4
 74
0
 40
0
 40
0
 40
0
 40
0
 40
1
 40
1
 40
1
 40
1
 10
112.942502
 20
108.542553
 30
0.0
 10
113.831431
 20
108.170107
 30
0.0
 10
118.521350
 20
107.248947
 30
0.0
 10
120.966156
 20
106.966602
 30
0.0
  0
SPLINE
  5
1bc
100
AcDbEntity
  8
0
 62
7
100
AcDbSpline
 70
8
 71
3
 72
8
 73
4
 74
0
 40
0
 40
0
 40
0
 40
0
 40
1
 40
1
 40
1
 40
1
 10
120.966156
 20
106.966602
 30
0.0
 10
121.766520
 20
106.874170
 30
0.0
 10
124.117452
 20
106.933262
 30
0.0
 10
126.190446
 20
107.097917
 30
0.0
  0
SPLINE
  5
1bd
100
AcDbEntity
  8
0
 62
7
100
AcDbSpline
 70
8
 71
3
 72
8
 73
4
 74
0
 40
0
 40
0
 40
0
 40
0
 40
1
 40
1
 40
1
 40
1
 10
126.190446
 20
107.097917
 30
0.0
 10
129.163659
 20
107.334076
 30
0.0
 10
130.268657
 20
107.534004
 30
0.0
 10
131.423511
 20
108.044734
 30
0.0
  0
SPLINE
  5
1be
100
AcDbEntity
  8
0
 62
7
100
AcDbSpline
 70
8
 71
3
 72
8
 73
4
 74
0
 40
0
 40
0
 40
0
 40
0
 40
1
 40
1
 40
1
 40
1
 10
131.423511
 20
108.044734
 30
0.0
 10
132.228701
 20
108.400829
 30
0.0
 10
133.037800
 20
108.692177
 30
0.0
 10
133.221505
 20
108.692177
 30
0.0
  0
SPLINE
  5
1bf
100
AcDbEntity
  8
0
 62
7
100
AcDbSpline
 70
8
 71
3
 72
8
 73
4
 74
0
 40
0
 40
0
 40
0
 40
0
 40
1
 40
1
 40
1
 40
1
 10
133.221505
 20
108.692177
 30
0.0
 10
133.876489
 20
108.692177
 30
0.0
 10
137.541460
 20
111.226214
 30
0.0
 10
138.571311
 20
112.391142
 30
0.0
  0
SPLINE
  5
1c0
100
AcDbEntity
  8
0
 62
7
100
AcDbSpline
 70
8
 71
3
 72
8
 73
4
 74
0
 40
0
 40
0
 40
0
 40
0
 40
1
 40
1
 40
1
 40
1
 10
138.571311
 20
112.391142
 30
0.0
 10
139.147696
 20
113.043126
 30
0.0
 10
139.707030
 20
113.697970
 30
0.0
 10
139.814281
 20
113.846351
 30
0.0
  0
SPLINE
  5
1c1
100
AcDbEntity
  8
0
 62
7
100
AcDbSpline
 70
8
 71
3
 72
8
 73
4
 74
0
 40
0
 40
0
 40
0
 40
0
 40
1
 40
1
 40
1
 40
1
 10
139.814281
 20
113.846351
 30
0.0
 10
139.921530
 20
113.994732
 30
0.0
 10
140.437619
 20
114.695909
 30
0.0
 10
140.961142
 20
115.404519
 30
0.0
  0
SPLINE
  5
1c2
100
AcDbEntity
  8
0
 62
7
100
AcDbSpline
 70
8
 71
3
 72
8
 73
4
 74
0
 40
0
 40
0
 40
0
 40
0
 40
1
 40
1
 40
1
 40
1
 10
140.961142
 20
115.404519
 30
0.0
 10
143.455411
 20
118.780602
 30
0.0
 10
144.905275
 20
122.481115
 30
0.0
 10
144.709668
 20
124.971834
 30
0.0
  0
SPLINE
  5
1c3
100
AcDbEntity
  8
0
 62
7
100
AcDbSpline
 70
8
 71
3
 72
8
 73
4
 74
0
 40
0
 40
0
 40
0
 40
0
 40
1
 40
1
 40
1
 40
1
 10
144.709668
 20
124.971834
 30
0.0
 10
144.588648
 20
126.512783
 30
0.0
 10
143.846862
 20
128.417759
 30
0.0
 10
142.987030
 20
129.395823
 30
0.0
  0
SPLINE
  5
1c4
100
AcDbEntity
  8
0
 62
7
100
AcDbSpline
 70
8
 71
3
 72
8
 73
4
 74
0
 40
0
 40
0
 40
0
 40
0
 40
1
 40
1
 40
1
 40
1
 10
142.987030
 20
129.395823
 30
0.0
 10
142.612279
 20
129.822099
 30
0.0
 10
142.633279
 20
129.858844
 30
0.0
 10
143.251656
 20
129.858844
 30
0.0
  0
SPLINE
  5
1c5
100
AcDbEntity
  8
0
 62
7
100
AcDbSpline
 70
8
 71
3
 72
8
 73
4
 74
0
 40
0
 40
0
 40
0
 40
0
 40
1
 40
1
 40
1
 40
1
 10
143.251656
 20
129.858844
 30
0.0
 10
143.908563
 20
129.858844
 30
0.0
 10
145.460053
 20
128.438063
 30
0.0
 10
146.043063
 20
127.302564
 30
0.0
  0
SPLINE
  5
1c6
100
AcDbEntity
  8
0
 62
7
100
AcDbSpline
 70
8
 71
3
 72
8
 73
4
 74
0
 40
0
 40
0
 40
0
 40
0
 40
1
 40
1
 40
1
 40
1
 10
146.043063
 20
127.302564
 30
0.0
 10
146.486531
 20
126.438919
 30
0.0
 10
146.619669
 20
124.401247
 30
0.0
 10
146.336565
 20
122.810622
 30
0.0
  0
SPLINE
  5
1c7
100
AcDbEntity
  8
0
 62
7
100
AcDbSpline
 70
8
 71
3
 72
8
 73
4
 74
0
 40
0
 40
0
 40
0
 40
0
 40
1
 40
1
 40
1
 40
1
 10
146.336565
 20
122.810622
 30
0.0
 10
146.184773
 20
121.957716
 30
0.0
 10
146.005756
 20
120.857375
 30
0.0
 10
145.938737
 20
120.365414
 30
0.0
  0
SPLINE
  5
1c8
100
AcDbEntity
  8
0
 62
7
100
AcDbSpline
 70
8
 71
3
 72
8
 73
4
 74
0
 40
0
 40
0
 40
0
 40
0
 40
1
 40
1
 40
1
 40
1
 10
145.938737
 20
120.365414
 30
0.0
 10
145.871745
 20
119.873456
 30
0.0
 10
145.457460
 20
118.538860
 30
0.0
 10
145.018120
 20
117.399647
 30
0.0
  0
SPLINE
  5
1c9
100
AcDbEntity
  8
0
 62
7
100
AcDbSpline
 70
8
 71
3
 72
8
 73
4
 74
0
 40
0
 40
0
 40
0
 40
0
 40
1
 40
1
 40
1
 40
1
 10
145.018120
 20
117.399647
 30
0.0
 10
144.265618
 20
115.448305
 30
0.0
 10
143.770953
 20
114.725498
 30
0.0
 10
140.743413
 20
111.153223
 30
0.0
  0
SPLINE
  5
1ca
100
AcDbEntity
  8
0
 62
7
100
AcDbSpline
 70
8
 71
3
 72
8
 73
4
 74
0
 40
0
 40
0
 40
0
 40
0
 40
1
 40
1
 40
1
 40
1
 10
140.743413
 20
111.153223
 30
0.0
 10
139.749014
 20
109.979910
 30
0.0
 10
137.943315
 20
106.489627
 30
0.0
 10
137.106464
 20
104.123276
 30
0.0
  0
SPLINE
  5
1cb
100
AcDbEntity
  8
0
 62
7
100
AcDbSpline
 70
8
 71
3
 72
8
 73
4
 74
0
 40
0
 40
0
 40
0
 40
0
 40
1
 40
1
 40
1
 40
1
 10
137.106464
 20
104.123276
 30
0.0
 10
135.953590
 20
100.863313
 30
0.0
 10
132.874885
 20
96.835217
 30
0.0
 10
130.623448
 20
95.641075
 30
0.0
  0
SPLINE
  5
1cc
100
AcDbEntity
  8
0
 62
7
100
AcDbSpline
 70
8
 71
3
 72
8
 73
4
 74
0
 40
0
 40
0
 40
0
 40
0
 40
1
 40
1
 40
1
 40
1
 10
130.623448
 20
95.641075
 30
0.0
 10
127.141692
 20
93.794384
 30
0.0
 10
125.148115
 20
93.435456
 30
0.0
 10
121.495323
 20
93.997634
 30
0.0
  0
LWPOLYLINE
  5
1cd
100
AcDbEntity
  8
0
 62
7
100
AcDbPolyline
 90
3
 70
0
 10
124.095240
 20
103.187508
 30
0.0
 10
125.331781
 20
103.775116
 30
0.0
 10
124.273448
 20
103.845516
 30
0.0
  0
SPLINE
  5
1ce
100
AcDbEntity
  8
0
 62
7
100
AcDbSpline
 70
8
 71
3
 72
8
 73
4
 74
0
 40
0
 40
0
 40
0
 40
0
 40
1
 40
1
 40
1
 40
1
 10
44.369281
 20
97.594536
 30
0.0
 10
40.313798
 20
97.992533
 30
0.0
 10
37.790953
 20
98.536326
 30
0.0
 10
32.330739
 20
100.189416
 30
0.0
  0
SPLINE
  5
1cf
100
AcDbEntity
  8
0
 62
7
100
AcDbSpline
 70
8
 71
3
 72
8
 73
4
 74
0
 40
0
 40
0
 40
0
 40
0
 40
1
 40
1
 40
1
 40
1
 10
32.330739
 20
100.189416
 30
0.0
 10
28.846656
 20
101.244228
 30
0.0
 10
25.436097
 20
102.806751
 30
0.0
 10
22.541156
 20
104.674445
 30
0.0
  0
SPLINE
  5
1d0
100
AcDbEntity
  8
0
 62
7
100
AcDbSpline
 70
8
 71
3
 72
8
 73
4
 74
0
 40
0
 40
0
 40
0
 40
0
 40
1
 40
1
 40
1
 40
1
 10
22.541156
 20
104.674445
 30
0.0
 10
21.740791
 20
105.190806
 30
0.0
 10
20.312041
 20
106.021862
 30
0.0
 10
19.366156
 20
106.521237
 30
0.0
  0
SPLINE
  5
1d1
100
AcDbEntity
  8
0
 62
7
100
AcDbSpline
 70
8
 71
3
 72
8
 73
4
 74
0
 40
0
 40
0
 40
0
 40
0
 40
1
 40
1
 40
1
 40
1
 10
19.366156
 20
106.521237
 30
0.0
 10
15.919249
 20
108.341009
 30
0.0
 10
11.776279
 20
111.770901
 30
0.0
 10
10.843712
 20
113.576817
 30
0.0
  0
SPLINE
  5
1d2
100
AcDbEntity
  8
0
 62
7
100
AcDbSpline
 70
8
 71
3
 72
8
 73
4
 74
0
 40
0
 40
0
 40
0
 40
0
 40
1
 40
1
 40
1
 40
1
 10
10.843712
 20
113.576817
 30
0.0
 10
9.113271
 20
116.927813
 30
0.0
 10
8.730290
 20
118.262927
 30
0.0
 10
8.590722
 20
121.430955
 30
0.0
  0
SPLINE
  5
1d3
100
AcDbEntity
  8
0
 62
7
100
AcDbSpline
 70
8
 71
3
 72
8
 73
4
 74
0
 40
0
 40
0
 40
0
 40
0
 40
1
 40
1
 40
1
 40
1
 10
8.590722
 20
121.430955
 30
0.0
 10
8.414769
 20
125.424935
 30
0.0
 10
9.163061
 20
129.496058
 30
0.0
 10
10.480231
 20
131.710927
 30
0.0
  0
SPLINE
  5
1d4
100
AcDbEntity
  8
0
 62
7
100
AcDbSpline
 70
8
 71
3
 72
8
 73
4
 74
0
 40
0
 40
0
 40
0
 40
0
 40
1
 40
1
 40
1
 40
1
 10
10.480231
 20
131.710927
 30
0.0
 10
12.274632
 20
134.728278
 30
0.0
 10
12.604181
 20
135.144444
 30
0.0
 10
13.148448
 20
135.080444
 30
0.0
  0
SPLINE
  5
1d5
100
AcDbEntity
  8
0
 62
7
100
AcDbSpline
 70
8
 71
3
 72
8
 73
4
 74
0
 40
0
 40
0
 40
0
 40
0
 40
1
 40
1
 40
1
 40
1
 10
13.148448
 20
135.080444
 30
0.0
 10
13.735161
 20
135.011451
 30
0.0
 10
13.722519
 20
135.298400
 30
0.0
 10
13.388732
 20
129.626791
 30
0.0
  0
SPLINE
  5
1d6
100
AcDbEntity
  8
0
 62
7
100
AcDbSpline
 70
8
 71
3
 72
8
 73
4
 74
0
 40
0
 40
0
 40
0
 40
0
 40
1
 40
1
 40
1
 40
1
 10
13.388732
 20
129.626791
 30
0.0
 10
13.211567
 20
126.616460
 30
0.0
 10
13.553863
 20
123.773427
 30
0.0
 10
14.093463
 20
123.773427
 30
0.0
  0
SPLINE
  5
1d7
100
AcDbEntity
  8
0
 62
7
100
AcDbSpline
 70
8
 71
3
 72
8
 73
4
 74
0
 40
0
 40
0
 40
0
 40
0
 40
1
 40
1
 40
1
 40
1
 10
14.093463
 20
123.773427
 30
0.0
 10
14.228548
 20
123.773427
 30
0.0
 10
14.339073
 20
123.644147
 30
0.0
 10
14.339073
 20
123.486135
 30
0.0
  0
SPLINE
  5
1d8
100
AcDbEntity
  8
0
 62
7
100
AcDbSpline
 70
8
 71
3
 72
8
 73
4
 74
0
 40
0
 40
0
 40
0
 40
0
 40
1
 40
1
 40
1
 40
1
 10
14.339073
 20
123.486135
 30
0.0
 10
14.339073
 20
122.848783
 30
0.0
 10
16.405085
 20
120.358993
 30
0.0
 10
18.381895
 20
118.614052
 30
0.0
  0
SPLINE
  5
1d9
100
AcDbEntity
  8
0
 62
7
100
AcDbSpline
 70
8
 71
3
 72
8
 73
4
 74
0
 40
0
 40
0
 40
0
 40
0
 40
1
 40
1
 40
1
 40
1
 10
18.381895
 20
118.614052
 30
0.0
 10
21.324229
 20
116.016842
 30
0.0
 10
22.219452
 20
115.380291
 30
0.0
 10
23.731781
 20
114.810000
 30
0.0
  0
SPLINE
  5
1da
100
AcDbEntity
  8
0
 62
7
100
AcDbSpline
 70
8
 71
3
 72
8
 73
4
 74
0
 40
0
 40
0
 40
0
 40
0
 40
1
 40
1
 40
1
 40
1
 10
23.731781
 20
114.810000
 30
0.0
 10
24.459385
 20
114.535627
 30
0.0
 10
26.245323
 20
113.833278
 30
0.0
 10
27.700531
 20
113.249223
 30
0.0
  0
SPLINE
  5
1db
100
AcDbEntity
  8
0
 62
7
100
AcDbSpline
 70
8
 71
3
 72
8
 73
4
 74
0
 40
0
 40
0
 40
0
 40
0
 40
1
 40
1
 40
1
 40
1
 10
27.700531
 20
113.249223
 30
0.0
 10
30.453153
 20
112.144453
 30
0.0
 10
34.999020
 20
110.801079
 30
0.0
 10
37.784005
 20
110.269404
 30
0.0
  0
SPLINE
  5
1dc
100
AcDbEntity
  8
0
 62
7
100
AcDbSpline
 70
8
 71
3
 72
8
 73
4
 74
0
 40
0
 40
0
 40
0
 40
0
 40
1
 40
1
 40
1
 40
1
 10
37.784005
 20
110.269404
 30
0.0
 10
39.952491
 20
109.855423
 30
0.0
 10
56.361507
 20
110.068662
 30
0.0
 10
57.829871
 20
110.529904
 30
0.0
  0
SPLINE
  5
1dd
100
AcDbEntity
  8
0
 62
7
100
AcDbSpline
 70
8
 71
3
 72
8
 73
4
 74
0
 40
0
 40
0
 40
0
 40
0
 40
1
 40
1
 40
1
 40
1
 10
57.829871
 20
110.529904
 30
0.0
 10
58.393716
 20
110.707019
 30
0.0
 10
59.094230
 20
110.897995
 30
0.0
 10
59.386568
 20
110.954293
 30
0.0
  0
SPLINE
  5
1de
100
AcDbEntity
  8
0
 62
7
100
AcDbSpline
 70
8
 71
3
 72
8
 73
4
 74
0
 40
0
 40
0
 40
0
 40
0
 40
1
 40
1
 40
1
 40
1
 10
59.386568
 20
110.954293
 30
0.0
 10
59.678909
 20
111.010594
 30
0.0
 10
60.408204
 20
111.229614
 30
0.0
 10
61.007228
 20
111.441005
 30
0.0
  0
SPLINE
  5
1df
100
AcDbEntity
  8
0
 62
7
100
AcDbSpline
 70
8
 71
3
 72
8
 73
4
 74
0
 40
0
 40
0
 40
0
 40
0
 40
1
 40
1
 40
1
 40
1
 10
61.007228
 20
111.441005
 30
0.0
 10
61.606253
 20
111.652399
 30
0.0
 10
62.989333
 20
112.088263
 30
0.0
 10
64.080739
 20
112.409592
 30
0.0
  0
SPLINE
  5
1e0
100
AcDbEntity
  8
0
 62
7
100
AcDbSpline
 70
8
 71
3
 72
8
 73
4
 74
0
 40
0
 40
0
 40
0
 40
0
 40
1
 40
1
 40
1
 40
1
 10
64.080739
 20
112.409592
 30
0.0
 10
65.172146
 20
112.730923
 30
0.0
 10
66.660427
 20
113.230231
 30
0.0
 10
67.388031
 20
113.519164
 30
0.0
  0
SPLINE
  5
1e1
100
AcDbEntity
  8
0
 62
7
100
AcDbSpline
 70
8
 71
3
 72
8
 73
4
 74
0
 40
0
 40
0
 40
0
 40
0
 40
1
 40
1
 40
1
 40
1
 10
67.388031
 20
113.519164
 30
0.0
 10
68.960820
 20
114.143724
 30
0.0
 10
72.169517
 20
116.217449
 30
0.0
 10
72.536532
 20
116.846554
 30
0.0
  0
SPLINE
  5
1e2
100
AcDbEntity
  8
0
 62
7
100
AcDbSpline
 70
8
 71
3
 72
8
 73
4
 74
0
 40
0
 40
0
 40
0
 40
0
 40
1
 40
1
 40
1
 40
1
 10
72.536532
 20
116.846554
 30
0.0
 10
72.679184
 20
117.091074
 30
0.0
 10
72.799519
 20
117.192250
 30
0.0
 10
72.803943
 20
117.071391
 30
0.0
  0
SPLINE
  5
1e3
100
AcDbEntity
  8
0
 62
7
100
AcDbSpline
 70
8
 71
3
 72
8
 73
4
 74
0
 40
0
 40
0
 40
0
 40
0
 40
1
 40
1
 40
1
 40
1
 10
72.803943
 20
117.071391
 30
0.0
 10
72.808362
 20
116.950530
 30
0.0
 10
72.383592
 20
116.206236
 30
0.0
 10
71.859992
 20
115.417402
 30
0.0
  0
SPLINE
  5
1e4
100
AcDbEntity
  8
0
 62
7
100
AcDbSpline
 70
8
 71
3
 72
8
 73
4
 74
0
 40
0
 40
0
 40
0
 40
0
 40
1
 40
1
 40
1
 40
1
 10
71.859992
 20
115.417402
 30
0.0
 10
70.190826
 20
112.902696
 30
0.0
 10
65.935151
 20
109.366563
 30
0.0
 10
62.757823
 20
107.854213
 30
0.0
  0
SPLINE
  5
1e5
100
AcDbEntity
  8
0
 62
7
100
AcDbSpline
 70
8
 71
3
 72
8
 73
4
 74
0
 40
0
 40
0
 40
0
 40
0
 40
1
 40
1
 40
1
 40
1
 10
62.757823
 20
107.854213
 30
0.0
 10
60.557339
 20
106.806820
 30
0.0
 10
59.200780
 20
106.185573
 30
0.0
 10
59.053656
 20
106.157855
 30
0.0
  0
SPLINE
  5
1e6
100
AcDbEntity
  8
0
 62
7
100
AcDbSpline
 70
8
 71
3
 72
8
 73
4
 74
0
 40
0
 40
0
 40
0
 40
0
 40
1
 40
1
 40
1
 40
1
 10
59.053656
 20
106.157855
 30
0.0
 10
58.980895
 20
106.144150
 30
0.0
 10
58.742770
 20
106.059232
 30
0.0
 10
58.524489
 20
105.969155
 30
0.0
  0
SPLINE
  5
1e7
100
AcDbEntity
  8
0
 62
7
100
AcDbSpline
 70
8
 71
3
 72
8
 73
4
 74
0
 40
0
 40
0
 40
0
 40
0
 40
1
 40
1
 40
1
 40
1
 10
58.524489
 20
105.969155
 30
0.0
 10
58.126781
 20
105.805031
 30
0.0
 10
56.221286
 20
105.280262
 30
0.0
 10
53.497406
 20
104.584704
 30
0.0
  0
SPLINE
  5
1e8
100
AcDbEntity
  8
0
 62
7
100
AcDbSpline
 70
8
 71
3
 72
8
 73
4
 74
0
 40
0
 40
0
 40
0
 40
0
 40
1
 40
1
 40
1
 40
1
 10
53.497406
 20
104.584704
 30
0.0
 10
52.697041
 20
104.380329
 30
0.0
 10
51.089698
 20
104.207045
 30
0.0
 10
49.925531
 20
104.199634
 30
0.0
  0
SPLINE
  5
1e9
100
AcDbEntity
  8
0
 62
7
100
AcDbSpline
 70
8
 71
3
 72
8
 73
4
 74
0
 40
0
 40
0
 40
0
 40
0
 40
1
 40
1
 40
1
 40
1
 10
49.925531
 20
104.199634
 30
0.0
 10
47.555542
 20
104.184553
 30
0.0
 10
46.728766
 20
103.907762
 30
0.0
 10
47.623434
 20
103.428951
 30
0.0
  0
SPLINE
  5
1ea
100
AcDbEntity
  8
0
 62
7
100
AcDbSpline
 70
8
 71
3
 72
8
 73
4
 74
0
 40
0
 40
0
 40
0
 40
0
 40
1
 40
1
 40
1
 40
1
 10
47.623434
 20
103.428951
 30
0.0
 10
48.427092
 20
102.998844
 30
0.0
 10
54.804453
 20
103.068292
 30
0.0
 10
57.598448
 20
103.537576
 30
0.0
  0
SPLINE
  5
1eb
100
AcDbEntity
  8
0
 62
7
100
AcDbSpline
 70
8
 71
3
 72
8
 73
4
 74
0
 40
0
 40
0
 40
0
 40
0
 40
1
 40
1
 40
1
 40
1
 10
57.598448
 20
103.537576
 30
0.0
 10
62.460166
 20
104.354154
 30
0.0
 10
70.148942
 20
106.504269
 30
0.0
 10
71.356781
 20
107.385001
 30
0.0
  0
SPLINE
  5
1ec
100
AcDbEntity
  8
0
 62
7
100
AcDbSpline
 70
8
 71
3
 72
8
 73
4
 74
0
 40
0
 40
0
 40
0
 40
0
 40
1
 40
1
 40
1
 40
1
 10
71.356781
 20
107.385001
 30
0.0
 10
71.502302
 20
107.491112
 30
0.0
 10
72.454802
 20
108.021760
 30
0.0
 10
73.473448
 20
108.564220
 30
0.0
  0
SPLINE
  5
1ed
100
AcDbEntity
  8
0
 62
7
100
AcDbSpline
 70
8
 71
3
 72
8
 73
4
 74
0
 40
0
 40
0
 40
0
 40
0
 40
1
 40
1
 40
1
 40
1
 10
73.473448
 20
108.564220
 30
0.0
 10
74.492093
 20
109.106679
 30
0.0
 10
75.533890
 20
109.733024
 30
0.0
 10
75.788552
 20
109.956100
 30
0.0
  0
SPLINE
  5
1ee
100
AcDbEntity
  8
0
 62
7
100
AcDbSpline
 70
8
 71
3
 72
8
 73
4
 74
0
 40
0
 40
0
 40
0
 40
0
 40
1
 40
1
 40
1
 40
1
 10
75.788552
 20
109.956100
 30
0.0
 10
76.506792
 20
110.585255
 30
0.0
 10
76.335332
 20
109.893224
 30
0.0
 10
75.529593
 20
108.910916
 30
0.0
  0
SPLINE
  5
1ef
100
AcDbEntity
  8
0
 62
7
100
AcDbSpline
 70
8
 71
3
 72
8
 73
4
 74
0
 40
0
 40
0
 40
0
 40
0
 40
1
 40
1
 40
1
 40
1
 10
75.529593
 20
108.910916
 30
0.0
 10
74.809435
 20
108.032939
 30
0.0
 10
72.123215
 20
105.124205
 30
0.0
 10
71.621364
 20
104.678943
 30
0.0
  0
SPLINE
  5
1f0
100
AcDbEntity
  8
0
 62
7
100
AcDbSpline
 70
8
 71
3
 72
8
 73
4
 74
0
 40
0
 40
0
 40
0
 40
0
 40
1
 40
1
 40
1
 40
1
 10
71.621364
 20
104.678943
 30
0.0
 10
69.823441
 20
103.083760
 30
0.0
 10
67.295466
 20
101.488708
 30
0.0
 10
64.874489
 20
100.421937
 30
0.0
  0
SPLINE
  5
1f1
100
AcDbEntity
  8
0
 62
7
100
AcDbSpline
 70
8
 71
3
 72
8
 73
4
 74
0
 40
0
 40
0
 40
0
 40
0
 40
1
 40
1
 40
1
 40
1
 10
64.874489
 20
100.421937
 30
0.0
 10
63.928604
 20
100.005145
 30
0.0
 10
62.916573
 20
99.550527
 30
0.0
 10
62.625531
 20
99.411674
 30
0.0
  0
SPLINE
  5
1f2
100
AcDbEntity
  8
0
 62
7
100
AcDbSpline
 70
8
 71
3
 72
8
 73
4
 74
0
 40
0
 40
0
 40
0
 40
0
 40
1
 40
1
 40
1
 40
1
 10
62.625531
 20
99.411674
 30
0.0
 10
61.555376
 20
98.901115
 30
0.0
 10
58.080897
 20
97.989258
 30
0.0
 10
55.696496
 20
97.593187
 30
0.0
  0
SPLINE
  5
1f3
100
AcDbEntity
  8
0
 62
7
100
AcDbSpline
 70
8
 71
3
 72
8
 73
4
 74
0
 40
0
 40
0
 40
0
 40
0
 40
1
 40
1
 40
1
 40
1
 10
55.696496
 20
97.593187
 30
0.0
 10
54.006263
 20
97.312424
 30
0.0
 10
47.235705
 20
97.313231
 30
0.0
 10
44.369281
 20
97.594510
 30
0.0
  0
LWPOLYLINE
  5
1f4
100
AcDbEntity
  8
0
 62
7
100
AcDbPolyline
 90
1
 70
1
 10
121.495323
 20
93.997634
 30
0.0
  0
SPLINE
  5
1f5
100
AcDbEntity
  8
0
 62
7
100
AcDbSpline
 70
8
 71
3
 72
8
 73
4
 74
0
 40
0
 40
0
 40
0
 40
0
 40
1
 40
1
 40
1
 40
1
 10
109.324489
 20
120.156896
 30
0.0
 10
107.555893
 20
120.983737
 30
0.0
 10
107.153295
 20
121.925249
 30
0.0
 10
107.766628
 20
123.800092
 30
0.0
  0
SPLINE
  5
1f6
100
AcDbEntity
  8
0
 62
7
100
AcDbSpline
 70
8
 71
3
 72
8
 73
4
 74
0
 40
0
 40
0
 40
0
 40
0
 40
1
 40
1
 40
1
 40
1
 10
107.766628
 20
123.800092
 30
0.0
 10
108.137232
 20
124.932959
 30
0.0
 10
109.013043
 20
125.689540
 30
0.0
 10
111.111133
 20
126.689289
 30
0.0
  0
SPLINE
  5
1f7
100
AcDbEntity
  8
0
 62
7
100
AcDbSpline
 70
8
 71
3
 72
8
 73
4
 74
0
 40
0
 40
0
 40
0
 40
0
 40
1
 40
1
 40
1
 40
1
 10
111.111133
 20
126.689289
 30
0.0
 10
112.637753
 20
127.416729
 30
0.0
 10
112.991411
 20
127.477594
 30
0.0
 10
115.691626
 20
127.477594
 30
0.0
  0
SPLINE
  5
1f8
100
AcDbEntity
  8
0
 62
7
100
AcDbSpline
 70
8
 71
3
 72
8
 73
4
 74
0
 40
0
 40
0
 40
0
 40
0
 40
1
 40
1
 40
1
 40
1
 10
115.691626
 20
127.477594
 30
0.0
 10
118.416552
 20
127.477594
 30
0.0
 10
119.908397
 20
127.221933
 30
0.0
 10
121.958343
 20
126.403653
 30
0.0
  0
SPLINE
  5
1f9
100
AcDbEntity
  8
0
 62
7
100
AcDbSpline
 70
8
 71
3
 72
8
 73
4
 74
0
 40
0
 40
0
 40
0
 40
0
 40
1
 40
1
 40
1
 40
1
 10
121.958343
 20
126.403653
 30
0.0
 10
123.071083
 20
125.959481
 30
0.0
 10
122.653481
 20
125.445597
 30
0.0
 10
121.032302
 20
125.264108
 30
0.0
  0
SPLINE
  5
1fa
100
AcDbEntity
  8
0
 62
7
100
AcDbSpline
 70
8
 71
3
 72
8
 73
4
 74
0
 40
0
 40
0
 40
0
 40
0
 40
1
 40
1
 40
1
 40
1
 10
121.032302
 20
125.264108
 30
0.0
 10
117.244408
 20
124.840061
 30
0.0
 10
114.465754
 20
123.685845
 30
0.0
 10
113.708781
 20
122.222025
 30
0.0
  0
SPLINE
  5
1fb
100
AcDbEntity
  8
0
 62
7
100
AcDbSpline
 70
8
 71
3
 72
8
 73
4
 74
0
 40
0
 40
0
 40
0
 40
0
 40
1
 40
1
 40
1
 40
1
 10
113.708781
 20
122.222025
 30
0.0
 10
113.499143
 20
121.816633
 30
0.0
 10
112.974461
 20
121.106888
 30
0.0
 10
112.542820
 20
120.644814
 30
0.0
  0
SPLINE
  5
1fc
100
AcDbEntity
  8
0
 62
7
100
AcDbSpline
 70
8
 71
3
 72
8
 73
4
 74
0
 40
0
 40
0
 40
0
 40
0
 40
1
 40
1
 40
1
 40
1
 10
112.542820
 20
120.644814
 30
0.0
 10
111.690298
 20
119.732184
 30
0.0
 10
110.589806
 20
119.565343
 30
0.0
 10
109.324489
 20
120.156896
 30
0.0
  0
LWPOLYLINE
  5
1fd
100
AcDbEntity
  8
0
 62
7
100
AcDbPolyline
 90
1
 70
1
 10
44.369281
 20
97.594510
 30
0.0
  0
SPLINE
  5
1fe
100
AcDbEntity
  8
0
 62
7
100
AcDbSpline
 70
8
 71
3
 72
8
 73
4
 74
0
 40
0
 40
0
 40
0
 40
0
 40
1
 40
1
 40
1
 40
1
 10
102.821084
 20
125.559365
 30
0.0
 10
103.273953
 20
127.514406
 30
0.0
 10
104.203627
 20
129.422149
 30
0.0
 10
105.633636
 20
131.330885
 30
0.0
  0
SPLINE
  5
1ff
100
AcDbEntity
  8
0
 62
7
100
AcDbSpline
 70
8
 71
3
 72
8
 73
4
 74
0
 40
0
 40
0
 40
0
 40
0
 40
1
 40
1
 40
1
 40
1
 10
105.633636
 20
131.330885
 30
0.0
 10
106.498885
 20
132.485794
 30
0.0
 10
107.236808
 20
133.492957
 30
0.0
 10
107.273466
 20
133.569025
 30
0.0
  0
SPLINE
  5
200
100
AcDbEntity
  8
0
 62
7
100
AcDbSpline
 70
8
 71
3
 72
8
 73
4
 74
0
 40
0
 40
0
 40
0
 40
0
 40
1
 40
1
 40
1
 40
1
 10
107.273466
 20
133.569025
 30
0.0
 10
107.414997
 20
133.862718
 30
0.0
 10
111.955255
 20
137.715905
 30
0.0
 10
113.315896
 20
138.697065
 30
0.0
  0
SPLINE
  5
201
100
AcDbEntity
  8
0
 62
7
100
AcDbSpline
 70
8
 71
3
 72
8
 73
4
 74
0
 40
0
 40
0
 40
0
 40
0
 40
1
 40
1
 40
1
 40
1
 10
113.315896
 20
138.697065
 30
0.0
 10
114.884745
 20
139.828360
 30
0.0
 10
117.988829
 20
141.497172
 30
0.0
 10
118.528068
 20
141.499220
 30
0.0
  0
SPLINE
  5
202
100
AcDbEntity
  8
0
 62
7
100
AcDbSpline
 70
8
 71
3
 72
8
 73
4
 74
0
 40
0
 40
0
 40
0
 40
0
 40
1
 40
1
 40
1
 40
1
 10
118.528068
 20
141.499220
 30
0.0
 10
118.715089
 20
141.500013
 30
0.0
 10
119.131808
 20
141.666497
 30
0.0
 10
119.454110
 20
141.869369
 30
0.0
  0
SPLINE
  5
203
100
AcDbEntity
  8
0
 62
7
100
AcDbSpline
 70
8
 71
3
 72
8
 73
4
 74
0
 40
0
 40
0
 40
0
 40
0
 40
1
 40
1
 40
1
 40
1
 10
119.454110
 20
141.869369
 30
0.0
 10
120.080889
 20
142.263892
 30
0.0
 10
122.700992
 20
142.677600
 30
0.0
 10
124.008864
 20
142.588549
 30
0.0
  0
SPLINE
  5
204
100
AcDbEntity
  8
0
 62
7
100
AcDbSpline
 70
8
 71
3
 72
8
 73
4
 74
0
 40
0
 40
0
 40
0
 40
0
 40
1
 40
1
 40
1
 40
1
 10
124.008864
 20
142.588549
 30
0.0
 10
125.781274
 20
142.467872
 30
0.0
 10
129.451672
 20
141.231059
 30
0.0
 10
131.539477
 20
140.050962
 30
0.0
  0
SPLINE
  5
205
100
AcDbEntity
  8
0
 62
7
100
AcDbSpline
 70
8
 71
3
 72
8
 73
4
 74
0
 40
0
 40
0
 40
0
 40
0
 40
1
 40
1
 40
1
 40
1
 10
131.539477
 20
140.050962
 30
0.0
 10
133.710656
 20
138.823740
 30
0.0
 10
136.278908
 20
135.999831
 30
0.0
 10
136.302612
 20
134.813683
 30
0.0
  0
SPLINE
  5
206
100
AcDbEntity
  8
0
 62
7
100
AcDbSpline
 70
8
 71
3
 72
8
 73
4
 74
0
 40
0
 40
0
 40
0
 40
0
 40
1
 40
1
 40
1
 40
1
 10
136.302612
 20
134.813683
 30
0.0
 10
136.311132
 20
134.387868
 30
0.0
 10
136.257035
 20
134.380560
 30
0.0
 10
135.716677
 20
134.734528
 30
0.0
  0
SPLINE
  5
207
100
AcDbEntity
  8
0
 62
7
100
AcDbSpline
 70
8
 71
3
 72
8
 73
4
 74
0
 40
0
 40
0
 40
0
 40
0
 40
1
 40
1
 40
1
 40
1
 10
135.716677
 20
134.734528
 30
0.0
 10
135.389255
 20
134.949007
 30
0.0
 10
133.633083
 20
135.380719
 30
0.0
 10
131.814073
 20
135.693888
 30
0.0
  0
SPLINE
  5
208
100
AcDbEntity
  8
0
 62
7
100
AcDbSpline
 70
8
 71
3
 72
8
 73
4
 74
0
 40
0
 40
0
 40
0
 40
0
 40
1
 40
1
 40
1
 40
1
 10
131.814073
 20
135.693888
 30
0.0
 10
129.995062
 20
136.007057
 30
0.0
 10
127.760140
 20
136.489160
 30
0.0
 10
126.847579
 20
136.765231
 30
0.0
  0
SPLINE
  5
209
100
AcDbEntity
  8
0
 62
7
100
AcDbSpline
 70
8
 71
3
 72
8
 73
4
 74
0
 40
0
 40
0
 40
0
 40
0
 40
1
 40
1
 40
1
 40
1
 10
126.847579
 20
136.765231
 30
0.0
 10
123.430742
 20
137.798903
 30
0.0
 10
120.655614
 20
137.270794
 30
0.0
 10
113.699676
 20
134.263172
 30
0.0
  0
SPLINE
  5
20a
100
AcDbEntity
  8
0
 62
7
100
AcDbSpline
 70
8
 71
3
 72
8
 73
4
 74
0
 40
0
 40
0
 40
0
 40
0
 40
1
 40
1
 40
1
 40
1
 10
113.699676
 20
134.263172
 30
0.0
 10
110.344463
 20
132.812441
 30
0.0
 10
105.699936
 20
128.937030
 30
0.0
 10
103.897475
 20
126.084179
 30
0.0
  0
SPLINE
  5
20b
100
AcDbEntity
  8
0
 62
7
100
AcDbSpline
 70
8
 71
3
 72
8
 73
4
 74
0
 40
0
 40
0
 40
0
 40
0
 40
1
 40
1
 40
1
 40
1
 10
103.897475
 20
126.084179
 30
0.0
 10
103.011639
 20
124.682120
 30
0.0
 10
102.567743
 20
124.465691
 30
0.0
 10
102.821084
 20
125.559365
 30
0.0
  0
LWPOLYLINE
  5
20c
100
AcDbEntity
  8
0
 62
7
100
AcDbPolyline
 90
1
 70
1
 10
109.324489
 20
120.156896
 30
0.0
  0
SPLINE
  5
20d
100
AcDbEntity
  8
0
 62
7
100
AcDbSpline
 70
8
 71
3
 72
8
 73
4
 74
0
 40
0
 40
0
 40
0
 40
0
 40
1
 40
1
 40
1
 40
1
 10
79.614440
 20
126.749990
 30
0.0
 10
78.165981
 20
128.493451
 30
0.0
 10
70.175522
 20
136.504974
 30
0.0
 10
68.843239
 20
137.549583
 30
0.0
  0
SPLINE
  5
20e
100
AcDbEntity
  8
0
 62
7
100
AcDbSpline
 70
8
 71
3
 72
8
 73
4
 74
0
 40
0
 40
0
 40
0
 40
0
 40
1
 40
1
 40
1
 40
1
 10
68.843239
 20
137.549583
 30
0.0
 10
65.897360
 20
139.859374
 30
0.0
 10
60.860898
 20
142.966689
 30
0.0
 10
56.540114
 20
145.140164
 30
0.0
  0
SPLINE
  5
20f
100
AcDbEntity
  8
0
 62
7
100
AcDbSpline
 70
8
 71
3
 72
8
 73
4
 74
0
 40
0
 40
0
 40
0
 40
0
 40
1
 40
1
 40
1
 40
1
 10
56.540114
 20
145.140164
 30
0.0
 10
53.635497
 20
146.601267
 30
0.0
 10
49.376528
 20
148.379677
 30
0.0
 10
48.782065
 20
148.379677
 30
0.0
  0
SPLINE
  5
210
100
AcDbEntity
  8
0
 62
7
100
AcDbSpline
 70
8
 71
3
 72
8
 73
4
 74
0
 40
0
 40
0
 40
0
 40
0
 40
1
 40
1
 40
1
 40
1
 10
48.782065
 20
148.379677
 30
0.0
 10
48.647757
 20
148.379677
 30
0.0
 10
47.612281
 20
148.681818
 30
0.0
 10
46.481008
 20
149.051105
 30
0.0
  0
SPLINE
  5
211
100
AcDbEntity
  8
0
 62
7
100
AcDbSpline
 70
8
 71
3
 72
8
 73
4
 74
0
 40
0
 40
0
 40
0
 40
0
 40
1
 40
1
 40
1
 40
1
 10
46.481008
 20
149.051105
 30
0.0
 10
43.133915
 20
150.143705
 30
0.0
 10
38.443935
 20
150.831981
 30
0.0
 10
35.373448
 20
150.681187
 30
0.0
  0
SPLINE
  5
212
100
AcDbEntity
  8
0
 62
7
100
AcDbSpline
 70
8
 71
3
 72
8
 73
4
 74
0
 40
0
 40
0
 40
0
 40
0
 40
1
 40
1
 40
1
 40
1
 10
35.373448
 20
150.681187
 30
0.0
 10
32.859139
 20
150.557709
 30
0.0
 10
28.776864
 20
149.743041
 30
0.0
 10
27.755914
 20
149.161013
 30
0.0
  0
SPLINE
  5
213
100
AcDbEntity
  8
0
 62
7
100
AcDbSpline
 70
8
 71
3
 72
8
 73
4
 74
0
 40
0
 40
0
 40
0
 40
0
 40
1
 40
1
 40
1
 40
1
 10
27.755914
 20
149.161013
 30
0.0
 10
27.210459
 20
148.850059
 30
0.0
 10
26.774489
 20
149.036077
 30
0.0
 10
26.774489
 20
149.579764
 30
0.0
  0
SPLINE
  5
214
100
AcDbEntity
  8
0
 62
7
100
AcDbSpline
 70
8
 71
3
 72
8
 73
4
 74
0
 40
0
 40
0
 40
0
 40
0
 40
1
 40
1
 40
1
 40
1
 10
26.774489
 20
149.579764
 30
0.0
 10
26.774489
 20
150.037038
 30
0.0
 10
29.059357
 20
151.882004
 30
0.0
 10
30.112526
 20
152.275135
 30
0.0
  0
SPLINE
  5
215
100
AcDbEntity
  8
0
 62
7
100
AcDbSpline
 70
8
 71
3
 72
8
 73
4
 74
0
 40
0
 40
0
 40
0
 40
0
 40
1
 40
1
 40
1
 40
1
 10
30.112526
 20
152.275135
 30
0.0
 10
30.532178
 20
152.431784
 30
0.0
 10
31.530375
 20
152.810898
 30
0.0
 10
32.330739
 20
153.117611
 30
0.0
  0
SPLINE
  5
216
100
AcDbEntity
  8
0
 62
7
100
AcDbSpline
 70
8
 71
3
 72
8
 73
4
 74
0
 40
0
 40
0
 40
0
 40
0
 40
1
 40
1
 40
1
 40
1
 10
32.330739
 20
153.117611
 30
0.0
 10
34.328637
 20
153.883236
 30
0.0
 10
40.844975
 20
155.179612
 30
0.0
 10
44.369281
 20
155.512590
 30
0.0
  0
SPLINE
  5
217
100
AcDbEntity
  8
0
 62
7
100
AcDbSpline
 70
8
 71
3
 72
8
 73
4
 74
0
 40
0
 40
0
 40
0
 40
0
 40
1
 40
1
 40
1
 40
1
 10
44.369281
 20
155.512590
 30
0.0
 10
54.045398
 20
156.426794
 30
0.0
 10
60.494566
 20
155.176609
 30
0.0
 10
66.197406
 20
151.281162
 30
0.0
  0
SPLINE
  5
218
100
AcDbEntity
  8
0
 62
7
100
AcDbSpline
 70
8
 71
3
 72
8
 73
4
 74
0
 40
0
 40
0
 40
0
 40
0
 40
1
 40
1
 40
1
 40
1
 10
66.197406
 20
151.281162
 30
0.0
 10
70.930209
 20
148.048316
 30
0.0
 10
76.182979
 20
140.648402
 30
0.0
 10
78.680585
 20
133.695302
 30
0.0
  0
SPLINE
  5
219
100
AcDbEntity
  8
0
 62
7
100
AcDbSpline
 70
8
 71
3
 72
8
 73
4
 74
0
 40
0
 40
0
 40
0
 40
0
 40
1
 40
1
 40
1
 40
1
 10
78.680585
 20
133.695302
 30
0.0
 10
80.970747
 20
127.319701
 30
0.0
 10
81.411789
 20
125.625511
 30
0.0
 10
80.781361
 20
125.625511
 30
0.0
  0
SPLINE
  5
21a
100
AcDbEntity
  8
0
 62
7
100
AcDbSpline
 70
8
 71
3
 72
8
 73
4
 74
0
 40
0
 40
0
 40
0
 40
0
 40
1
 40
1
 40
1
 40
1
 10
80.781361
 20
125.625511
 30
0.0
 10
80.653371
 20
125.625511
 30
0.0
 10
80.128256
 20
126.131526
 30
0.0
 10
79.614440
 20
126.749990
 30
0.0
  0
LWPOLYLINE
  5
21b
100
AcDbEntity
  8
0
 62
7
100
AcDbPolyline
 90
1
 70
1
 10
102.821084
 20
125.559365
 30
0.0
  0
SPLINE
  5
21c
100
AcDbEntity
  8
0
 62
7
100
AcDbSpline
 70
8
 71
3
 72
8
 73
4
 74
0
 40
0
 40
0
 40
0
 40
0
 40
1
 40
1
 40
1
 40
1
 10
28.858107
 20
126.764701
 30
0.0
 10
27.308556
 20
127.532646
 30
0.0
 10
26.531033
 20
128.434661
 30
0.0
 10
25.288256
 20
130.906144
 30
0.0
  0
SPLINE
  5
21d
100
AcDbEntity
  8
0
 62
7
100
AcDbSpline
 70
8
 71
3
 72
8
 73
4
 74
0
 40
0
 40
0
 40
0
 40
0
 40
1
 40
1
 40
1
 40
1
 10
25.288256
 20
130.906144
 30
0.0
 10
24.369284
 20
132.733677
 30
0.0
 10
24.287469
 20
133.085811
 30
0.0
 10
24.180906
 20
135.672166
 30
0.0
  0
LWPOLYLINE
  5
21e
100
AcDbEntity
  8
0
 62
7
100
AcDbPolyline
 90
1
 70
1
 10
79.614440
 20
126.749990
 30
0.0
  0
SPLINE
  5
21f
100
AcDbEntity
  8
0
 62
7
100
AcDbSpline
 70
8
 71
3
 72
8
 73
4
 74
0
 40
0
 40
0
 40
0
 40
0
 40
1
 40
1
 40
1
 40
1
 10
25.000924
 20
139.584073
 30
0.0
 10
25.515215
 20
140.199642
 30
0.0
 10
26.333021
 20
141.029579
 30
0.0
 10
26.818267
 20
141.428377
 30
0.0
  0
SPLINE
  5
220
100
AcDbEntity
  8
0
 62
7
100
AcDbSpline
 70
8
 71
3
 72
8
 73
4
 74
0
 40
0
 40
0
 40
0
 40
0
 40
1
 40
1
 40
1
 40
1
 10
26.818267
 20
141.428377
 30
0.0
 10
27.303513
 20
141.827176
 30
0.0
 10
27.764655
 20
142.240741
 30
0.0
 10
27.843030
 20
142.347410
 30
0.0
  0
SPLINE
  5
221
100
AcDbEntity
  8
0
 62
7
100
AcDbSpline
 70
8
 71
3
 72
8
 73
4
 74
0
 40
0
 40
0
 40
0
 40
0
 40
1
 40
1
 40
1
 40
1
 10
27.843030
 20
142.347410
 30
0.0
 10
27.921405
 20
142.454082
 30
0.0
 10
28.992968
 20
143.004207
 30
0.0
 10
30.224280
 20
143.569912
 30
0.0
  0
SPLINE
  5
222
100
AcDbEntity
  8
0
 62
7
100
AcDbSpline
 70
8
 71
3
 72
8
 73
4
 74
0
 40
0
 40
0
 40
0
 40
0
 40
1
 40
1
 40
1
 40
1
 10
30.224280
 20
143.569912
 30
0.0
 10
32.860192
 20
144.780939
 30
0.0
 10
35.146012
 20
145.110388
 30
0.0
 10
37.757370
 20
144.655641
 30
0.0
  0
SPLINE
  5
223
100
AcDbEntity
  8
0
 62
7
100
AcDbSpline
 70
8
 71
3
 72
8
 73
4
 74
0
 40
0
 40
0
 40
0
 40
0
 40
1
 40
1
 40
1
 40
1
 10
37.757370
 20
144.655641
 30
0.0
 10
38.703229
 20
144.490924
 30
0.0
 10
39.533711
 20
144.264584
 30
0.0
 10
39.602884
 20
144.152660
 30
0.0
  0
SPLINE
  5
224
100
AcDbEntity
  8
0
 62
7
100
AcDbSpline
 70
8
 71
3
 72
8
 73
4
 74
0
 40
0
 40
0
 40
0
 40
0
 40
1
 40
1
 40
1
 40
1
 10
39.602884
 20
144.152660
 30
0.0
 10
39.672059
 20
144.040733
 30
0.0
 10
38.791753
 20
143.894921
 30
0.0
 10
37.646652
 20
143.828632
 30
0.0
  0
SPLINE
  5
225
100
AcDbEntity
  8
0
 62
7
100
AcDbSpline
 70
8
 71
3
 72
8
 73
4
 74
0
 40
0
 40
0
 40
0
 40
0
 40
1
 40
1
 40
1
 40
1
 10
37.646652
 20
143.828632
 30
0.0
 10
35.084618
 20
143.680320
 30
0.0
 10
32.815721
 20
142.694194
 30
0.0
 10
32.171883
 20
141.449150
 30
0.0
  0
SPLINE
  5
226
100
AcDbEntity
  8
0
 62
7
100
AcDbSpline
 70
8
 71
3
 72
8
 73
4
 74
0
 40
0
 40
0
 40
0
 40
0
 40
1
 40
1
 40
1
 40
1
 10
32.171883
 20
141.449150
 30
0.0
 10
30.996649
 20
139.176501
 30
0.0
 10
31.575401
 20
135.529481
 30
0.0
 10
33.448903
 20
133.401985
 30
0.0
  0
SPLINE
  5
227
100
AcDbEntity
  8
0
 62
7
100
AcDbSpline
 70
8
 71
3
 72
8
 73
4
 74
0
 40
0
 40
0
 40
0
 40
0
 40
1
 40
1
 40
1
 40
1
 10
33.448903
 20
133.401985
 30
0.0
 10
33.931924
 20
132.853480
 30
0.0
 10
33.923293
 20
132.815703
 30
0.0
 10
32.937035
 20
131.161290
 30
0.0
  0
SPLINE
  5
228
100
AcDbEntity
  8
0
 62
7
100
AcDbSpline
 70
8
 71
3
 72
8
 73
4
 74
0
 40
0
 40
0
 40
0
 40
0
 40
1
 40
1
 40
1
 40
1
 10
32.937035
 20
131.161290
 30
0.0
 10
32.166190
 20
129.868226
 30
0.0
 10
31.903226
 20
129.108943
 30
0.0
 10
31.801573
 20
127.882743
 30
0.0
  0
SPLINE
  5
229
100
AcDbEntity
  8
0
 62
7
100
AcDbSpline
 70
8
 71
3
 72
8
 73
4
 74
0
 40
0
 40
0
 40
0
 40
0
 40
1
 40
1
 40
1
 40
1
 10
31.801573
 20
127.882743
 30
0.0
 10
31.673149
 20
126.333652
 30
0.0
 10
31.646066
 20
126.285098
 30
0.0
 10
30.875531
 20
126.222620
 30
0.0
  0
SPLINE
  5
22a
100
AcDbEntity
  8
0
 62
7
100
AcDbSpline
 70
8
 71
3
 72
8
 73
4
 74
0
 40
0
 40
0
 40
0
 40
0
 40
1
 40
1
 40
1
 40
1
 10
30.875531
 20
126.222620
 30
0.0
 10
30.438968
 20
126.187221
 30
0.0
 10
29.531127
 20
126.431156
 30
0.0
 10
28.858107
 20
126.764701
 30
0.0
  0
LWPOLYLINE
  5
22b
100
AcDbEntity
  8
0
 62
7
100
AcDbPolyline
 90
3
 70
0
 10
24.180906
 20
135.672166
 30
0.0
 10
24.065844
 20
138.464859
 30
0.0
 10
25.000924
 20
139.584073
 30
0.0
  0
SPLINE
  5
22c
100
AcDbEntity
  8
0
 62
7
100
AcDbSpline
 70
8
 71
3
 72
8
 73
4
 74
0
 40
0
 40
0
 40
0
 40
0
 40
1
 40
1
 40
1
 40
1
 10
88.182773
 20
129.131240
 30
0.0
 10
88.057215
 20
129.458662
 30
0.0
 10
87.457399
 20
131.333896
 30
0.0
 10
86.849852
 20
133.298427
 30
0.0
  0
SPLINE
  5
22d
100
AcDbEntity
  8
0
 62
7
100
AcDbSpline
 70
8
 71
3
 72
8
 73
4
 74
0
 40
0
 40
0
 40
0
 40
0
 40
1
 40
1
 40
1
 40
1
 10
86.849852
 20
133.298427
 30
0.0
 10
85.620188
 20
137.274602
 30
0.0
 10
84.928064
 20
138.908954
 30
0.0
 10
83.320377
 20
141.632802
 30
0.0
  0
SPLINE
  5
22e
100
AcDbEntity
  8
0
 62
7
100
AcDbSpline
 70
8
 71
3
 72
8
 73
4
 74
0
 40
0
 40
0
 40
0
 40
0
 40
1
 40
1
 40
1
 40
1
 10
83.320377
 20
141.632802
 30
0.0
 10
80.500797
 20
146.409921
 30
0.0
 10
78.223107
 20
148.770856
 30
0.0
 10
71.167998
 20
154.229345
 30
0.0
  0
SPLINE
  5
22f
100
AcDbEntity
  8
0
 62
7
100
AcDbSpline
 70
8
 71
3
 72
8
 73
4
 74
0
 40
0
 40
0
 40
0
 40
0
 40
1
 40
1
 40
1
 40
1
 10
71.167998
 20
154.229345
 30
0.0
 10
70.301115
 20
154.900045
 30
0.0
 10
68.598936
 20
155.938704
 30
0.0
 10
67.385382
 20
156.537475
 30
0.0
  0
SPLINE
  5
230
100
AcDbEntity
  8
0
 62
7
100
AcDbSpline
 70
8
 71
3
 72
8
 73
4
 74
0
 40
0
 40
0
 40
0
 40
0
 40
1
 40
1
 40
1
 40
1
 10
67.385382
 20
156.537475
 30
0.0
 10
66.171829
 20
157.136245
 30
0.0
 10
65.103396
 20
157.748348
 30
0.0
 10
65.011091
 20
157.897706
 30
0.0
  0
SPLINE
  5
231
100
AcDbEntity
  8
0
 62
7
100
AcDbSpline
 70
8
 71
3
 72
8
 73
4
 74
0
 40
0
 40
0
 40
0
 40
0
 40
1
 40
1
 40
1
 40
1
 10
65.011091
 20
157.897706
 30
0.0
 10
64.918783
 20
158.047060
 30
0.0
 10
64.641926
 20
158.169994
 30
0.0
 10
64.395853
 20
158.170891
 30
0.0
  0
SPLINE
  5
232
100
AcDbEntity
  8
0
 62
7
100
AcDbSpline
 70
8
 71
3
 72
8
 73
4
 74
0
 40
0
 40
0
 40
0
 40
0
 40
1
 40
1
 40
1
 40
1
 10
64.395853
 20
158.170891
 30
0.0
 10
64.149780
 20
158.171684
 30
0.0
 10
63.591260
 20
158.359748
 30
0.0
 10
63.154698
 20
158.588580
 30
0.0
  0
SPLINE
  5
233
100
AcDbEntity
  8
0
 62
7
100
AcDbSpline
 70
8
 71
3
 72
8
 73
4
 74
0
 40
0
 40
0
 40
0
 40
0
 40
1
 40
1
 40
1
 40
1
 10
63.154698
 20
158.588580
 30
0.0
 10
60.934436
 20
159.752377
 30
0.0
 10
54.091290
 20
161.744546
 30
0.0
 10
51.361557
 20
162.021787
 30
0.0
  0
SPLINE
  5
234
100
AcDbEntity
  8
0
 62
7
100
AcDbSpline
 70
8
 71
3
 72
8
 73
4
 74
0
 40
0
 40
0
 40
0
 40
0
 40
1
 40
1
 40
1
 40
1
 10
51.361557
 20
162.021787
 30
0.0
 10
49.553561
 20
162.205413
 30
0.0
 10
42.491938
 20
161.748026
 30
0.0
 10
40.582355
 20
161.323607
 30
0.0
  0
SPLINE
  5
235
100
AcDbEntity
  8
0
 62
7
100
AcDbSpline
 70
8
 71
3
 72
8
 73
4
 74
0
 40
0
 40
0
 40
0
 40
0
 40
1
 40
1
 40
1
 40
1
 10
40.582355
 20
161.323607
 30
0.0
 10
39.954756
 20
161.184116
 30
0.0
 10
38.823662
 20
161.004507
 30
0.0
 10
38.068814
 20
160.924473
 30
0.0
  0
SPLINE
  5
236
100
AcDbEntity
  8
0
 62
7
100
AcDbSpline
 70
8
 71
3
 72
8
 73
4
 74
0
 40
0
 40
0
 40
0
 40
0
 40
1
 40
1
 40
1
 40
1
 10
38.068814
 20
160.924473
 30
0.0
 10
36.210454
 20
160.727435
 30
0.0
 10
31.619635
 20
159.782063
 30
0.0
 10
30.478656
 20
159.361455
 30
0.0
  0
SPLINE
  5
237
100
AcDbEntity
  8
0
 62
7
100
AcDbSpline
 70
8
 71
3
 72
8
 73
4
 74
0
 40
0
 40
0
 40
0
 40
0
 40
1
 40
1
 40
1
 40
1
 10
30.478656
 20
159.361455
 30
0.0
 10
29.969333
 20
159.173698
 30
0.0
 10
28.838239
 20
158.764925
 30
0.0
 10
27.965114
 20
158.453069
 30
0.0
  0
SPLINE
  5
238
100
AcDbEntity
  8
0
 62
7
100
AcDbSpline
 70
8
 71
3
 72
8
 73
4
 74
0
 40
0
 40
0
 40
0
 40
0
 40
1
 40
1
 40
1
 40
1
 10
27.965114
 20
158.453069
 30
0.0
 10
27.091989
 20
158.141212
 30
0.0
 10
26.139489
 20
157.779479
 30
0.0
 10
25.848448
 20
157.649217
 30
0.0
  0
SPLINE
  5
239
100
AcDbEntity
  8
0
 62
7
100
AcDbSpline
 70
8
 71
3
 72
8
 73
4
 74
0
 40
0
 40
0
 40
0
 40
0
 40
1
 40
1
 40
1
 40
1
 10
25.848448
 20
157.649217
 30
0.0
 10
25.557406
 20
157.518957
 30
0.0
 10
24.843031
 20
157.272225
 30
0.0
 10
24.260948
 20
157.100929
 30
0.0
  0
SPLINE
  5
23a
100
AcDbEntity
  8
0
 62
7
100
AcDbSpline
 70
8
 71
3
 72
8
 73
4
 74
0
 40
0
 40
0
 40
0
 40
0
 40
1
 40
1
 40
1
 40
1
 10
24.260948
 20
157.100929
 30
0.0
 10
23.678864
 20
156.929632
 30
0.0
 10
22.759392
 20
156.490689
 30
0.0
 10
22.217682
 20
156.125497
 30
0.0
  0
SPLINE
  5
23b
100
AcDbEntity
  8
0
 62
7
100
AcDbSpline
 70
8
 71
3
 72
8
 73
4
 74
0
 40
0
 40
0
 40
0
 40
0
 40
1
 40
1
 40
1
 40
1
 10
22.217682
 20
156.125497
 30
0.0
 10
21.675968
 20
155.760306
 30
0.0
 10
19.857826
 20
154.666307
 30
0.0
 10
18.177364
 20
153.694384
 30
0.0
  0
SPLINE
  5
23c
100
AcDbEntity
  8
0
 62
7
100
AcDbSpline
 70
8
 71
3
 72
8
 73
4
 74
0
 40
0
 40
0
 40
0
 40
0
 40
1
 40
1
 40
1
 40
1
 10
18.177364
 20
153.694384
 30
0.0
 10
15.736514
 20
152.282678
 30
0.0
 10
14.586228
 20
151.397533
 30
0.0
 10
12.458303
 20
149.293569
 30
0.0
  0
SPLINE
  5
23d
100
AcDbEntity
  8
0
 62
7
100
AcDbSpline
 70
8
 71
3
 72
8
 73
4
 74
0
 40
0
 40
0
 40
0
 40
0
 40
1
 40
1
 40
1
 40
1
 10
12.458303
 20
149.293569
 30
0.0
 10
10.003274
 20
146.866184
 30
0.0
 10
9.672098
 20
146.412482
 30
0.0
 10
8.230391
 20
143.501443
 30
0.0
  0
SPLINE
  5
23e
100
AcDbEntity
  8
0
 62
7
100
AcDbSpline
 70
8
 71
3
 72
8
 73
4
 74
0
 40
0
 40
0
 40
0
 40
0
 40
1
 40
1
 40
1
 40
1
 10
8.230391
 20
143.501443
 30
0.0
 10
7.370061
 20
141.764303
 30
0.0
 10
6.666156
 20
140.187976
 30
0.0
 10
6.666156
 20
139.998500
 30
0.0
  0
SPLINE
  5
23f
100
AcDbEntity
  8
0
 62
7
100
AcDbSpline
 70
8
 71
3
 72
8
 73
4
 74
0
 40
0
 40
0
 40
0
 40
0
 40
1
 40
1
 40
1
 40
1
 10
6.666156
 20
139.998500
 30
0.0
 10
6.666156
 20
139.225975
 30
0.0
 10
5.245306
 20
136.175051
 30
0.0
 10
4.766093
 20
135.918583
 30
0.0
  0
SPLINE
  5
240
100
AcDbEntity
  8
0
 62
7
100
AcDbSpline
 70
8
 71
3
 72
8
 73
4
 74
0
 40
0
 40
0
 40
0
 40
0
 40
1
 40
1
 40
1
 40
1
 10
4.766093
 20
135.918583
 30
0.0
 10
4.071586
 20
135.546894
 30
0.0
 10
3.491156
 20
136.047311
 30
0.0
 10
3.491156
 20
137.017768
 30
0.0
  0
SPLINE
  5
241
100
AcDbEntity
  8
0
 62
7
100
AcDbSpline
 70
8
 71
3
 72
8
 73
4
 74
0
 40
0
 40
0
 40
0
 40
0
 40
1
 40
1
 40
1
 40
1
 10
3.491156
 20
137.017768
 30
0.0
 10
3.491156
 20
137.427039
 30
0.0
 10
3.370530
 20
138.079160
 30
0.0
 10
3.223101
 20
138.466928
 30
0.0
  0
SPLINE
  5
242
100
AcDbEntity
  8
0
 62
7
100
AcDbSpline
 70
8
 71
3
 72
8
 73
4
 74
0
 40
0
 40
0
 40
0
 40
0
 40
1
 40
1
 40
1
 40
1
 10
3.223101
 20
138.466928
 30
0.0
 10
3.075673
 20
138.854696
 30
0.0
 10
2.718485
 20
140.255855
 30
0.0
 10
2.429351
 20
141.580619
 30
0.0
  0
SPLINE
  5
243
100
AcDbEntity
  8
0
 62
7
100
AcDbSpline
 70
8
 71
3
 72
8
 73
4
 74
0
 40
0
 40
0
 40
0
 40
0
 40
1
 40
1
 40
1
 40
1
 10
2.429351
 20
141.580619
 30
0.0
 10
1.275980
 20
146.865181
 30
0.0
 10
2.177087
 20
160.818020
 30
0.0
 10
3.987678
 20
165.709886
 30
0.0
  0
SPLINE
  5
244
100
AcDbEntity
  8
0
 62
7
100
AcDbSpline
 70
8
 71
3
 72
8
 73
4
 74
0
 40
0
 40
0
 40
0
 40
0
 40
1
 40
1
 40
1
 40
1
 10
3.987678
 20
165.709886
 30
0.0
 10
4.256982
 20
166.437490
 30
0.0
 10
4.626922
 20
167.687646
 30
0.0
 10
4.809768
 20
168.488011
 30
0.0
  0
SPLINE
  5
245
100
AcDbEntity
  8
0
 62
7
100
AcDbSpline
 70
8
 71
3
 72
8
 73
4
 74
0
 40
0
 40
0
 40
0
 40
0
 40
1
 40
1
 40
1
 40
1
 10
4.809768
 20
168.488011
 30
0.0
 10
4.992613
 20
169.288375
 30
0.0
 10
5.348473
 20
170.300407
 30
0.0
 10
5.600565
 20
170.736969
 30
0.0
  0
SPLINE
  5
246
100
AcDbEntity
  8
0
 62
7
100
AcDbSpline
 70
8
 71
3
 72
8
 73
4
 74
0
 40
0
 40
0
 40
0
 40
0
 40
1
 40
1
 40
1
 40
1
 10
5.600565
 20
170.736969
 30
0.0
 10
9.017235
 20
176.653801
 30
0.0
 10
10.349145
 20
178.650620
 30
0.0
 10
13.756958
 20
182.965151
 30
0.0
  0
SPLINE
  5
247
100
AcDbEntity
  8
0
 62
7
100
AcDbSpline
 70
8
 71
3
 72
8
 73
4
 74
0
 40
0
 40
0
 40
0
 40
0
 40
1
 40
1
 40
1
 40
1
 10
13.756958
 20
182.965151
 30
0.0
 10
15.310316
 20
184.931812
 30
0.0
 10
20.552997
 20
189.982169
 30
0.0
 10
23.611366
 20
192.458061
 30
0.0
  0
SPLINE
  5
248
100
AcDbEntity
  8
0
 62
7
100
AcDbSpline
 70
8
 71
3
 72
8
 73
4
 74
0
 40
0
 40
0
 40
0
 40
0
 40
1
 40
1
 40
1
 40
1
 10
23.611366
 20
192.458061
 30
0.0
 10
25.164894
 20
193.715710
 30
0.0
 10
33.366236
 20
198.366683
 30
0.0
 10
34.801268
 20
198.803841
 30
0.0
  0
SPLINE
  5
249
100
AcDbEntity
  8
0
 62
7
100
AcDbSpline
 70
8
 71
3
 72
8
 73
4
 74
0
 40
0
 40
0
 40
0
 40
0
 40
1
 40
1
 40
1
 40
1
 10
34.801268
 20
198.803841
 30
0.0
 10
35.115966
 20
198.899710
 30
0.0
 10
35.849698
 20
199.186608
 30
0.0
 10
36.431781
 20
199.441394
 30
0.0
  0
SPLINE
  5
24a
100
AcDbEntity
  8
0
 62
7
100
AcDbSpline
 70
8
 71
3
 72
8
 73
4
 74
0
 40
0
 40
0
 40
0
 40
0
 40
1
 40
1
 40
1
 40
1
 10
36.431781
 20
199.441394
 30
0.0
 10
37.013864
 20
199.696177
 30
0.0
 10
38.502146
 20
200.282880
 30
0.0
 10
39.739073
 20
200.745173
 30
0.0
  0
SPLINE
  5
24b
100
AcDbEntity
  8
0
 62
7
100
AcDbSpline
 70
8
 71
3
 72
8
 73
4
 74
0
 40
0
 40
0
 40
0
 40
0
 40
1
 40
1
 40
1
 40
1
 10
39.739073
 20
200.745173
 30
0.0
 10
40.976000
 20
201.207467
 30
0.0
 10
42.345218
 20
201.756390
 30
0.0
 10
42.781781
 20
201.965000
 30
0.0
  0
SPLINE
  5
24c
100
AcDbEntity
  8
0
 62
7
100
AcDbSpline
 70
8
 71
3
 72
8
 73
4
 74
0
 40
0
 40
0
 40
0
 40
0
 40
1
 40
1
 40
1
 40
1
 10
42.781781
 20
201.965000
 30
0.0
 10
43.577380
 20
202.345180
 30
0.0
 10
47.136092
 20
203.431570
 30
0.0
 10
50.851573
 20
204.428517
 30
0.0
  0
SPLINE
  5
24d
100
AcDbEntity
  8
0
 62
7
100
AcDbSpline
 70
8
 71
3
 72
8
 73
4
 74
0
 40
0
 40
0
 40
0
 40
0
 40
1
 40
1
 40
1
 40
1
 10
50.851573
 20
204.428517
 30
0.0
 10
52.830616
 20
204.959539
 30
0.0
 10
60.100586
 20
206.279243
 30
0.0
 10
67.123448
 20
207.382323
 30
0.0
  0
SPLINE
  5
24e
100
AcDbEntity
  8
0
 62
7
100
AcDbSpline
 70
8
 71
3
 72
8
 73
4
 74
0
 40
0
 40
0
 40
0
 40
0
 40
1
 40
1
 40
1
 40
1
 10
67.123448
 20
207.382323
 30
0.0
 10
70.381908
 20
207.894128
 30
0.0
 10
71.543929
 20
207.948922
 30
0.0
 10
76.780739
 20
207.837700
 30
0.0
  0
SPLINE
  5
24f
100
AcDbEntity
  8
0
 62
7
100
AcDbSpline
 70
8
 71
3
 72
8
 73
4
 74
0
 40
0
 40
0
 40
0
 40
0
 40
1
 40
1
 40
1
 40
1
 10
76.780739
 20
207.837700
 30
0.0
 10
82.826648
 20
207.709293
 30
0.0
 10
89.056940
 20
207.157094
 30
0.0
 10
92.404240
 20
206.452969
 30
0.0
  0
SPLINE
  5
250
100
AcDbEntity
  8
0
 62
7
100
AcDbSpline
 70
8
 71
3
 72
8
 73
4
 74
0
 40
0
 40
0
 40
0
 40
0
 40
1
 40
1
 40
1
 40
1
 10
92.404240
 20
206.452969
 30
0.0
 10
93.420306
 20
206.239233
 30
0.0
 10
95.410602
 20
205.642891
 30
0.0
 10
96.827123
 20
205.127766
 30
0.0
  0
SPLINE
  5
251
100
AcDbEntity
  8
0
 62
7
100
AcDbSpline
 70
8
 71
3
 72
8
 73
4
 74
0
 40
0
 40
0
 40
0
 40
0
 40
1
 40
1
 40
1
 40
1
 10
96.827123
 20
205.127766
 30
0.0
 10
98.243644
 20
204.612641
 30
0.0
 10
100.414646
 20
203.823267
 30
0.0
 10
101.651573
 20
203.373600
 30
0.0
  0
SPLINE
  5
252
100
AcDbEntity
  8
0
 62
7
100
AcDbSpline
 70
8
 71
3
 72
8
 73
4
 74
0
 40
0
 40
0
 40
0
 40
0
 40
1
 40
1
 40
1
 40
1
 10
101.651573
 20
203.373600
 30
0.0
 10
104.547260
 20
202.320915
 30
0.0
 10
111.184933
 20
199.071247
 30
0.0
 10
113.654856
 20
197.497037
 30
0.0
  0
SPLINE
  5
253
100
AcDbEntity
  8
0
 62
7
100
AcDbSpline
 70
8
 71
3
 72
8
 73
4
 74
0
 40
0
 40
0
 40
0
 40
0
 40
1
 40
1
 40
1
 40
1
 10
113.654856
 20
197.497037
 30
0.0
 10
114.401851
 20
197.020938
 30
0.0
 10
115.567132
 20
196.355940
 30
0.0
 10
116.244365
 20
196.019263
 30
0.0
  0
SPLINE
  5
254
100
AcDbEntity
  8
0
 62
7
100
AcDbSpline
 70
8
 71
3
 72
8
 73
4
 74
0
 40
0
 40
0
 40
0
 40
0
 40
1
 40
1
 40
1
 40
1
 10
116.244365
 20
196.019263
 30
0.0
 10
116.921598
 20
195.682586
 30
0.0
 10
118.052691
 20
194.947192
 30
0.0
 10
118.757906
 20
194.385053
 30
0.0
  0
SPLINE
  5
255
100
AcDbEntity
  8
0
 62
7
100
AcDbSpline
 70
8
 71
3
 72
8
 73
4
 74
0
 40
0
 40
0
 40
0
 40
0
 40
1
 40
1
 40
1
 40
1
 10
118.757906
 20
194.385053
 30
0.0
 10
119.463122
 20
193.822917
 30
0.0
 10
120.381567
 20
193.134550
 30
0.0
 10
120.798900
 20
192.855354
 30
0.0
  0
SPLINE
  5
256
100
AcDbEntity
  8
0
 62
7
100
AcDbSpline
 70
8
 71
3
 72
8
 73
4
 74
0
 40
0
 40
0
 40
0
 40
0
 40
1
 40
1
 40
1
 40
1
 10
120.798900
 20
192.855354
 30
0.0
 10
121.216232
 20
192.576158
 30
0.0
 10
123.381262
 20
190.665358
 30
0.0
 10
125.610078
 20
188.609130
 30
0.0
  0
SPLINE
  5
257
100
AcDbEntity
  8
0
 62
7
100
AcDbSpline
 70
8
 71
3
 72
8
 73
4
 74
0
 40
0
 40
0
 40
0
 40
0
 40
1
 40
1
 40
1
 40
1
 10
125.610078
 20
188.609130
 30
0.0
 10
128.790869
 20
185.674638
 30
0.0
 10
130.246562
 20
184.090387
 30
0.0
 10
132.378162
 20
181.243332
 30
0.0
  0
SPLINE
  5
258
100
AcDbEntity
  8
0
 62
7
100
AcDbSpline
 70
8
 71
3
 72
8
 73
4
 74
0
 40
0
 40
0
 40
0
 40
0
 40
1
 40
1
 40
1
 40
1
 10
132.378162
 20
181.243332
 30
0.0
 10
137.662237
 20
174.185696
 30
0.0
 10
137.289910
 20
174.784356
 30
0.0
 10
138.912420
 20
170.736969
 30
0.0
  0
SPLINE
  5
259
100
AcDbEntity
  8
0
 62
7
100
AcDbSpline
 70
8
 71
3
 72
8
 73
4
 74
0
 40
0
 40
0
 40
0
 40
0
 40
1
 40
1
 40
1
 40
1
 10
138.912420
 20
170.736969
 30
0.0
 10
140.599393
 20
166.528782
 30
0.0
 10
141.823763
 20
162.558119
 30
0.0
 10
142.257420
 20
159.889052
 30
0.0
  0
SPLINE
  5
25a
100
AcDbEntity
  8
0
 62
7
100
AcDbSpline
 70
8
 71
3
 72
8
 73
4
 74
0
 40
0
 40
0
 40
0
 40
0
 40
1
 40
1
 40
1
 40
1
 10
142.257420
 20
159.889052
 30
0.0
 10
142.351995
 20
159.306969
 30
0.0
 10
142.537646
 20
158.473532
 30
0.0
 10
142.669980
 20
158.036969
 30
0.0
  0
SPLINE
  5
25b
100
AcDbEntity
  8
0
 62
7
100
AcDbSpline
 70
8
 71
3
 72
8
 73
4
 74
0
 40
0
 40
0
 40
0
 40
0
 40
1
 40
1
 40
1
 40
1
 10
142.669980
 20
158.036969
 30
0.0
 10
144.482021
 20
152.059074
 30
0.0
 10
144.854792
 20
149.590490
 30
0.0
 10
144.727581
 20
144.410927
 30
0.0
  0
SPLINE
  5
25c
100
AcDbEntity
  8
0
 62
7
100
AcDbSpline
 70
8
 71
3
 72
8
 73
4
 74
0
 40
0
 40
0
 40
0
 40
0
 40
1
 40
1
 40
1
 40
1
 10
144.727581
 20
144.410927
 30
0.0
 10
144.649052
 20
141.213276
 30
0.0
 10
144.627224
 20
141.103636
 30
0.0
 10
144.069271
 20
141.103636
 30
0.0
  0
SPLINE
  5
25d
100
AcDbEntity
  8
0
 62
7
100
AcDbSpline
 70
8
 71
3
 72
8
 73
4
 74
0
 40
0
 40
0
 40
0
 40
0
 40
1
 40
1
 40
1
 40
1
 10
144.069271
 20
141.103636
 30
0.0
 10
143.704146
 20
141.103636
 30
0.0
 10
143.264541
 20
141.443787
 30
0.0
 10
142.872468
 20
142.029677
 30
0.0
  0
SPLINE
  5
25e
100
AcDbEntity
  8
0
 62
7
100
AcDbSpline
 70
8
 71
3
 72
8
 73
4
 74
0
 40
0
 40
0
 40
0
 40
0
 40
1
 40
1
 40
1
 40
1
 10
142.872468
 20
142.029677
 30
0.0
 10
142.509497
 20
142.572089
 30
0.0
 10
141.597687
 20
143.307506
 30
0.0
 10
140.671447
 20
143.804899
 30
0.0
  0
SPLINE
  5
25f
100
AcDbEntity
  8
0
 62
7
100
AcDbSpline
 70
8
 71
3
 72
8
 73
4
 74
0
 40
0
 40
0
 40
0
 40
0
 40
1
 40
1
 40
1
 40
1
 10
140.671447
 20
143.804899
 30
0.0
 10
138.481562
 20
144.980877
 30
0.0
 10
134.040364
 20
146.472603
 30
0.0
 10
132.607823
 20
146.513341
 30
0.0
  0
SPLINE
  5
260
100
AcDbEntity
  8
0
 62
7
100
AcDbSpline
 70
8
 71
3
 72
8
 73
4
 74
0
 40
0
 40
0
 40
0
 40
0
 40
1
 40
1
 40
1
 40
1
 10
132.607823
 20
146.513341
 30
0.0
 10
131.952979
 20
146.531968
 30
0.0
 10
130.702823
 20
146.660949
 30
0.0
 10
129.829698
 20
146.799980
 30
0.0
  0
SPLINE
  5
261
100
AcDbEntity
  8
0
 62
7
100
AcDbSpline
 70
8
 71
3
 72
8
 73
4
 74
0
 40
0
 40
0
 40
0
 40
0
 40
1
 40
1
 40
1
 40
1
 10
129.829698
 20
146.799980
 30
0.0
 10
127.835874
 20
147.117464
 30
0.0
 10
123.581245
 20
147.132320
 30
0.0
 10
122.769318
 20
146.824639
 30
0.0
  0
SPLINE
  5
262
100
AcDbEntity
  8
0
 62
7
100
AcDbSpline
 70
8
 71
3
 72
8
 73
4
 74
0
 40
0
 40
0
 40
0
 40
0
 40
1
 40
1
 40
1
 40
1
 10
122.769318
 20
146.824639
 30
0.0
 10
122.432421
 20
146.696970
 30
0.0
 10
121.442406
 20
146.526099
 30
0.0
 10
120.569281
 20
146.444925
 30
0.0
  0
SPLINE
  5
263
100
AcDbEntity
  8
0
 62
7
100
AcDbSpline
 70
8
 71
3
 72
8
 73
4
 74
0
 40
0
 40
0
 40
0
 40
0
 40
1
 40
1
 40
1
 40
1
 10
120.569281
 20
146.444925
 30
0.0
 10
117.634795
 20
146.172108
 30
0.0
 10
114.031305
 20
145.169078
 30
0.0
 10
111.573448
 20
143.940940
 30
0.0
  0
SPLINE
  5
264
100
AcDbEntity
  8
0
 62
7
100
AcDbSpline
 70
8
 71
3
 72
8
 73
4
 74
0
 40
0
 40
0
 40
0
 40
0
 40
1
 40
1
 40
1
 40
1
 10
111.573448
 20
143.940940
 30
0.0
 10
109.688664
 20
142.999153
 30
0.0
 10
105.864282
 20
139.616677
 30
0.0
 10
103.239435
 20
136.569918
 30
0.0
  0
SPLINE
  5
265
100
AcDbEntity
  8
0
 62
7
100
AcDbSpline
 70
8
 71
3
 72
8
 73
4
 74
0
 40
0
 40
0
 40
0
 40
0
 40
1
 40
1
 40
1
 40
1
 10
103.239435
 20
136.569918
 30
0.0
 10
100.684819
 20
133.604675
 30
0.0
 10
97.447010
 20
130.410813
 30
0.0
 10
96.321711
 20
129.746081
 30
0.0
  0
SPLINE
  5
266
100
AcDbEntity
  8
0
 62
7
100
AcDbSpline
 70
8
 71
3
 72
8
 73
4
 74
0
 40
0
 40
0
 40
0
 40
0
 40
1
 40
1
 40
1
 40
1
 10
96.321711
 20
129.746081
 30
0.0
 10
95.604642
 20
129.322497
 30
0.0
 10
95.552035
 20
129.323198
 30
0.0
 10
95.384977
 20
129.758543
 30
0.0
  0
SPLINE
  5
267
100
AcDbEntity
  8
0
 62
7
100
AcDbSpline
 70
8
 71
3
 72
8
 73
4
 74
0
 40
0
 40
0
 40
0
 40
0
 40
1
 40
1
 40
1
 40
1
 10
95.384977
 20
129.758543
 30
0.0
 10
95.185788
 20
130.277621
 30
0.0
 10
96.375289
 20
138.697391
 30
0.0
 10
96.978406
 20
141.037493
 30
0.0
  0
SPLINE
  5
268
100
AcDbEntity
  8
0
 62
7
100
AcDbSpline
 70
8
 71
3
 72
8
 73
4
 74
0
 40
0
 40
0
 40
0
 40
0
 40
1
 40
1
 40
1
 40
1
 10
96.978406
 20
141.037493
 30
0.0
 10
97.194063
 20
141.874237
 30
0.0
 10
97.273552
 20
142.558847
 30
0.0
 10
97.155048
 20
142.558847
 30
0.0
  0
SPLINE
  5
269
100
AcDbEntity
  8
0
 62
7
100
AcDbSpline
 70
8
 71
3
 72
8
 73
4
 74
0
 40
0
 40
0
 40
0
 40
0
 40
1
 40
1
 40
1
 40
1
 10
97.155048
 20
142.558847
 30
0.0
 10
96.902373
 20
142.558847
 30
0.0
 10
95.469784
 20
140.079420
 30
0.0
 10
95.167685
 20
139.119263
 30
0.0
  0
SPLINE
  5
26a
100
AcDbEntity
  8
0
 62
7
100
AcDbSpline
 70
8
 71
3
 72
8
 73
4
 74
0
 40
0
 40
0
 40
0
 40
0
 40
1
 40
1
 40
1
 40
1
 10
95.167685
 20
139.119263
 30
0.0
 10
94.598942
 20
137.311627
 30
0.0
 10
92.876852
 20
134.188962
 30
0.0
 10
90.972701
 20
131.512493
 30
0.0
  0
SPLINE
  5
26b
100
AcDbEntity
  8
0
 62
7
100
AcDbSpline
 70
8
 71
3
 72
8
 73
4
 74
0
 40
0
 40
0
 40
0
 40
0
 40
1
 40
1
 40
1
 40
1
 10
90.972701
 20
131.512493
 30
0.0
 10
89.807992
 20
129.875383
 30
0.0
 10
88.755154
 20
128.535930
 30
0.0
 10
88.633057
 20
128.535930
 30
0.0
  0
SPLINE
  5
26c
100
AcDbEntity
  8
0
 62
7
100
AcDbSpline
 70
8
 71
3
 72
8
 73
4
 74
0
 40
0
 40
0
 40
0
 40
0
 40
1
 40
1
 40
1
 40
1
 10
88.633057
 20
128.535930
 30
0.0
 10
88.510959
 20
128.535930
 30
0.0
 10
88.308331
 20
128.803821
 30
0.0
 10
88.182773
 20
129.131243
 30
0.0
  0
LWPOLYLINE
  5
26d
100
AcDbEntity
  8
0
 62
7
100
AcDbPolyline
 90
1
 70
1
 10
28.858107
 20
126.764701
 30
0.0
  0
LWPOLYLINE
  5
26e
100
AcDbEntity
  8
0
 62
7
100
AcDbPolyline
 90
1
 70
1
 10
88.182773
 20
129.131243
 30
0.0
  0
ENDSEC
  0
SECTION
  2
OBJECTS
  0
DICTIONARY
  5
C
330
0
100
AcDbDictionary
  3
ACAD_GROUP
350
D
  3
ACAD_MLINESTYLE
350
17
  0
DICTIONARY
  5
D
330
C
100
AcDbDictionary
  0
DICTIONARY
  5
1A
330
C
100
AcDbDictionary
  0
DICTIONARY
  5
17
330
C
100
AcDbDictionary
  3
STANDARD
350
18
  0
DICTIONARY
  5
19
330
C
100
AcDbDictionary
  0
ENDSEC
  0
EOF
