  0
SECTION
  2
HEADER
  9
$ACADVER
  1
AC1021
  9
$ACADMAINTVER
 70
    25
  9
$DWGCODEPAGE
  3
ANSI_1251
  9
$INSBASE
 10
0.0
 20
0.0
 30
0.0
  9
$EXTMIN
 10
1.000000000000000E+20
 20
1.000000000000000E+20
 30
1.000000000000000E+20
  9
$EXTMAX
 10
-1.000000000000000E+20
 20
-1.000000000000000E+20
 30
-1.000000000000000E+20
  9
$LIMMIN
 10
0.0
 20
0.0
  9
$LIMMAX
 10
420.0
 20
297.0
  9
$ORTHOMODE
 70
     0
  9
$REGENMODE
 70
     1
  9
$FILLMODE
 70
     1
  9
$QTEXTMODE
 70
     0
  9
$MIRRTEXT
 70
     1
  9
$LTSCALE
 40
1.0
  9
$ATTMODE
 70
     1
  9
$TEXTSIZE
 40
2.5
  9
$TRACEWID
 40
1.0
  9
$TEXTSTYLE
  7
Standard
  9
$CLAYER
  8
0
  9
$CELTYPE
  6
ByLayer
  9
$CECOLOR
 62
   256
  9
$CELTSCALE
 40
1.0
  9
$DISPSILH
 70
     0
  9
$DIMSCALE
 40
1.0
  9
$DIMASZ
 40
2.5
  9
$DIMEXO
 40
0.625
  9
$DIMDLI
 40
3.75
  9
$DIMRND
 40
0.0
  9
$DIMDLE
 40
0.0
  9
$DIMEXE
 40
1.25
  9
$DIMTP
 40
0.0
  9
$DIMTM
 40
0.0
  9
$DIMTXT
 40
2.5
  9
$DIMCEN
 40
2.5
  9
$DIMTSZ
 40
0.0
  9
$DIMTOL
 70
     0
  9
$DIMLIM
 70
     0
  9
$DIMTIH
 70
     0
  9
$DIMTOH
 70
     0
  9
$DIMSE1
 70
     0
  9
$DIMSE2
 70
     0
  9
$DIMTAD
 70
     1
  9
$DIMZIN
 70
     8
  9
$DIMBLK
  1

  9
$DIMASO
 70
     1
  9
$DIMSHO
 70
     1
  9
$DIMPOST
  1

  9
$DIMAPOST
  1

  9
$DIMALT
 70
     0
  9
$DIMALTD
 70
     3
  9
$DIMALTF
 40
0.03937007874016
  9
$DIMLFAC
 40
1.0
  9
$DIMTOFL
 70
     1
  9
$DIMTVP
 40
0.0
  9
$DIMTIX
 70
     0
  9
$DIMSOXD
 70
     0
  9
$DIMSAH
 70
     0
  9
$DIMBLK1
  1

  9
$DIMBLK2
  1

  9
$DIMSTYLE
  2
ISO-25
  9
$DIMCLRD
 70
     0
  9
$DIMCLRE
 70
     0
  9
$DIMCLRT
 70
     0
  9
$DIMTFAC
 40
1.0
  9
$DIMGAP
 40
0.625
  9
$DIMJUST
 70
     0
  9
$DIMSD1
 70
     0
  9
$DIMSD2
 70
     0
  9
$DIMTOLJ
 70
     0
  9
$DIMTZIN
 70
     8
  9
$DIMALTZ
 70
     0
  9
$DIMALTTZ
 70
     0
  9
$DIMUPT
 70
     0
  9
$DIMDEC
 70
     2
  9
$DIMTDEC
 70
     2
  9
$DIMALTU
 70
     2
  9
$DIMALTTD
 70
     3
  9
$DIMTXSTY
  7
Standard
  9
$DIMAUNIT
 70
     0
  9
$DIMADEC
 70
     0
  9
$DIMALTRND
 40
0.0
  9
$DIMAZIN
 70
     0
  9
$DIMDSEP
 70
    44
  9
$DIMATFIT
 70
     3
  9
$DIMFRAC
 70
     0
  9
$DIMLDRBLK
  1

  9
$DIMLUNIT
 70
     2
  9
$DIMLWD
 70
    -2
  9
$DIMLWE
 70
    -2
  9
$DIMTMOVE
 70
     0
  9
$DIMFXL
 40
1.0
  9
$DIMFXLON
 70
     0
  9
$DIMJOGANG
 40
0.7853981633974483
  9
$DIMTFILL
 70
     0
  9
$DIMTFILLCLR
 70
     0
  9
$DIMARCSYM
 70
     0
  9
$DIMLTYPE
  6

  9
$DIMLTEX1
  6

  9
$DIMLTEX2
  6

  9
$LUNITS
 70
     2
  9
$LUPREC
 70
     4
  9
$SKETCHINC
 40
1.0
  9
$FILLETRAD
 40
10.0
  9
$AUNITS
 70
     0
  9
$AUPREC
 70
     0
  9
$MENU
  1
.
  9
$ELEVATION
 40
0.0
  9
$PELEVATION
 40
0.0
  9
$THICKNESS
 40
0.0
  9
$LIMCHECK
 70
     0
  9
$CHAMFERA
 40
10.0
  9
$CHAMFERB
 40
10.0
  9
$CHAMFERC
 40
20.0
  9
$CHAMFERD
 40
0.0
  9
$SKPOLY
 70
     0
  9
$TDCREATE
 40
2457659.608263924
  9
$TDUCREATE
 40
2457659.441597257
  9
$TDUPDATE
 40
2457659.608268495
  9
$TDUUPDATE
 40
2457659.441601829
  9
$TDINDWG
 40
0.0000000116
  9
$TDUSRTIMER
 40
0.0000000116
  9
$USRTIMER
 70
     1
  9
$ANGBASE
 50
0.0
  9
$ANGDIR
 70
     0
  9
$PDMODE
 70
     0
  9
$PDSIZE
 40
0.0
  9
$PLINEWID
 40
0.0
  9
$SPLFRAME
 70
     0
  9
$SPLINETYPE
 70
     6
  9
$SPLINESEGS
 70
     8
  9
$HANDSEED
  5
159
  9
$SURFTAB1
 70
     6
  9
$SURFTAB2
 70
     6
  9
$SURFTYPE
 70
     6
  9
$SURFU
 70
     6
  9
$SURFV
 70
     6
  9
$UCSBASE
  2

  9
$UCSNAME
  2

  9
$UCSORG
 10
0.0
 20
0.0
 30
0.0
  9
$UCSXDIR
 10
1.0
 20
0.0
 30
0.0
  9
$UCSYDIR
 10
0.0
 20
1.0
 30
0.0
  9
$UCSORTHOREF
  2

  9
$UCSORTHOVIEW
 70
     0
  9
$UCSORGTOP
 10
0.0
 20
0.0
 30
0.0
  9
$UCSORGBOTTOM
 10
0.0
 20
0.0
 30
0.0
  9
$UCSORGLEFT
 10
0.0
 20
0.0
 30
0.0
  9
$UCSORGRIGHT
 10
0.0
 20
0.0
 30
0.0
  9
$UCSORGFRONT
 10
0.0
 20
0.0
 30
0.0
  9
$UCSORGBACK
 10
0.0
 20
0.0
 30
0.0
  9
$PUCSBASE
  2

  9
$PUCSNAME
  2

  9
$PUCSORG
 10
0.0
 20
0.0
 30
0.0
  9
$PUCSXDIR
 10
1.0
 20
0.0
 30
0.0
  9
$PUCSYDIR
 10
0.0
 20
1.0
 30
0.0
  9
$PUCSORTHOREF
  2

  9
$PUCSORTHOVIEW
 70
     0
  9
$PUCSORGTOP
 10
0.0
 20
0.0
 30
0.0
  9
$PUCSORGBOTTOM
 10
0.0
 20
0.0
 30
0.0
  9
$PUCSORGLEFT
 10
0.0
 20
0.0
 30
0.0
  9
$PUCSORGRIGHT
 10
0.0
 20
0.0
 30
0.0
  9
$PUCSORGFRONT
 10
0.0
 20
0.0
 30
0.0
  9
$PUCSORGBACK
 10
0.0
 20
0.0
 30
0.0
  9
$USERI1
 70
     0
  9
$USERI2
 70
     0
  9
$USERI3
 70
     0
  9
$USERI4
 70
     0
  9
$USERI5
 70
     0
  9
$USERR1
 40
0.0
  9
$USERR2
 40
0.0
  9
$USERR3
 40
0.0
  9
$USERR4
 40
0.0
  9
$USERR5
 40
0.0
  9
$WORLDVIEW
 70
     1
  9
$SHADEDGE
 70
     3
  9
$SHADEDIF
 70
    70
  9
$TILEMODE
 70
     1
  9
$MAXACTVP
 70
    64
  9
$PINSBASE
 10
0.0
 20
0.0
 30
0.0
  9
$PLIMCHECK
 70
     0
  9
$PEXTMIN
 10
1.000000000000000E+20
 20
1.000000000000000E+20
 30
1.000000000000000E+20
  9
$PEXTMAX
 10
-1.000000000000000E+20
 20
-1.000000000000000E+20
 30
-1.000000000000000E+20
  9
$PLIMMIN
 10
0.0
 20
0.0
  9
$PLIMMAX
 10
420.0
 20
297.0
  9
$UNITMODE
 70
     0
  9
$VISRETAIN
 70
     1
  9
$PLINEGEN
 70
     0
  9
$PSLTSCALE
 70
     1
  9
$TREEDEPTH
 70
  3020
  9
$CMLSTYLE
  2
Standard
  9
$CMLJUST
 70
     0
  9
$CMLSCALE
 40
20.0
  9
$PROXYGRAPHICS
 70
     1
  9
$MEASUREMENT
 70
     1
  9
$CELWEIGHT
370
    -1
  9
$ENDCAPS
280
     0
  9
$JOINSTYLE
280
     0
  9
$LWDISPLAY
290
     0
  9
$INSUNITS
 70
     4
  9
$HYPERLINKBASE
  1

  9
$STYLESHEET
  1

  9
$XEDIT
290
     1
  9
$CEPSNTYPE
380
     0
  9
$PSTYLEMODE
290
     1
  9
$FINGERPRINTGUID
  2
{AC20B330-F6F9-474C-A4DD-E46481DBDDC7}
  9
$VERSIONGUID
  2
{FAEB1C32-E019-11D5-929B-00C0DF256EC4}
  9
$EXTNAMES
290
     1
  9
$PSVPSCALE
 40
0.0
  9
$OLESTARTUP
290
     0
  9
$SORTENTS
280
   127
  9
$INDEXCTL
280
     0
  9
$HIDETEXT
280
     1
  9
$XCLIPFRAME
290
     0
  9
$HALOGAP
280
     0
  9
$OBSCOLOR
 70
   257
  9
$OBSLTYPE
280
     0
  9
$INTERSECTIONDISPLAY
280
     0
  9
$INTERSECTIONCOLOR
 70
   257
  9
$DIMASSOC
280
     2
  9
$PROJECTNAME
  1

  9
$CAMERADISPLAY
290
     0
  9
$LENSLENGTH
 40
50.0
  9
$CAMERAHEIGHT
 40
0.0
  9
$STEPSPERSEC
 40
2.0
  9
$STEPSIZE
 40
6.0
  9
$3DDWFPREC
 40
2.0
  9
$PSOLWIDTH
 40
5.0
  9
$PSOLHEIGHT
 40
80.0
  9
$LOFTANG1
 40
1.570796326794897
  9
$LOFTANG2
 40
1.570796326794897
  9
$LOFTMAG1
 40
0.0
  9
$LOFTMAG2
 40
0.0
  9
$LOFTPARAM
 70
     7
  9
$LOFTNORMALS
280
     1
  9
$LATITUDE
 40
37.795
  9
$LONGITUDE
 40
-122.394
  9
$NORTHDIRECTION
 40
0.0
  9
$TIMEZONE
 70
 -8000
  9
$LIGHTGLYPHDISPLAY
280
     1
  9
$TILEMODELIGHTSYNCH
280
     1
  9
$SOLIDHIST
280
     1
  9
$SHOWHIST
280
     1
  9
$DWFFRAME
280
     2
  9
$DGNFRAME
280
     2
  9
$REALWORLDSCALE
290
     1
  9
$INTERFERECOLOR
 62
   256
  9
$CSHADOW
280
     0
  9
$SHADOWPLANELOCATION
 40
0.0
  0
ENDSEC
  0
SECTION
  2
CLASSES
  0
CLASS
  1
ACDBDICTIONARYWDFLT
  2
AcDbDictionaryWithDefault
  3
ObjectDBX Classes
 90
        0
 91
        4
280
     0
281
     0
  0
CLASS
  1
VISUALSTYLE
  2
AcDbVisualStyle
  3
ObjectDBX Classes
 90
     4095
 91
        4
280
     0
281
     0
  0
CLASS
  1
MATERIAL
  2
AcDbMaterial
  3
ObjectDBX Classes
 90
     1153
 91
        4
280
     0
281
     0
  0
CLASS
  1
SCALE
  2
AcDbScale
  3
ObjectDBX Classes
 90
     1153
 91
        4
280
     0
281
     0
  0
CLASS
  1
DICTIONARYVAR
  2
AcDbDictionaryVar
  3
ObjectDBX Classes
 90
        0
 91
        4
280
     0
281
     0
  0
ENDSEC
  0
SECTION
  2
TABLES
  0
TABLE
  2
VPORT
  5
8
330
0
100
AcDbSymbolTable
 70
     1
  0
VPORT
  5
29
330
8
100
AcDbSymbolTableRecord
100
AcDbViewportTableRecord
  2
*Active
 70
     0
 10
0.0
 20
0.0
 11
1.0
 21
1.0
 12
193.0705021505269
 22
35.90025474531316
 13
0.0
 23
0.0
 14
10.0
 24
10.0
 15
10.0
 25
10.0
 16
0.0
 26
0.0
 36
1.0
 17
0.0
 27
0.0
 37
0.0
 40
420.3510893379838
 41
0.9373669796991394
 42
50.0
 43
0.0
 44
0.0
 50
0.0
 51
0.0
 71
     0
 72
   100
 73
     1
 74
     3
 75
     0
 76
     0
 77
     0
 78
     0
281
     0
 65
     1
110
0.0
120
0.0
130
0.0
111
1.0
121
0.0
131
0.0
112
0.0
122
1.0
132
0.0
 79
     0
146
0.0
 60
     3
 61
     5
292
     1
282
     1
141
0.0
142
0.0
 63
   250
  0
ENDTAB
  0
TABLE
  2
LTYPE
  5
5
330
0
100
AcDbSymbolTable
 70
     3
  0
LTYPE
  5
14
330
5
100
AcDbSymbolTableRecord
100
AcDbLinetypeTableRecord
  2
ByBlock
 70
     0
  3

 72
    65
 73
     0
 40
0.0
  0
LTYPE
  5
15
330
5
100
AcDbSymbolTableRecord
100
AcDbLinetypeTableRecord
  2
ByLayer
 70
     0
  3

 72
    65
 73
     0
 40
0.0
  0
LTYPE
  5
16
330
5
100
AcDbSymbolTableRecord
100
AcDbLinetypeTableRecord
  2
Continuous
 70
     0
  3
Solid line
 72
    65
 73
     0
 40
0.0
  0
LTYPE
  5
42
330
5
100
AcDbSymbolTableRecord
100
AcDbLinetypeTableRecord
  2
K5LT_THIN
 70
     0
  3

 72
    65
 73
     0
 40
0.0
  0
LTYPE
  5
A4
330
5
100
AcDbSymbolTableRecord
100
AcDbLinetypeTableRecord
  2
K5LT32769
 70
     0
  3

 72
    65
 73
     0
 40
0.0
  0
ENDTAB
  0
TABLE
  2
LAYER
  5
2
330
0
100
AcDbSymbolTable
 70
     2
  0
LAYER
  5
10
330
2
100
AcDbSymbolTableRecord
100
AcDbLayerTableRecord
  2
0
 70
     0
 62
     1
420
 16711680
  6
Continuous
370
    -3
390
F
347
3E
  0
LAYER
  5
40
330
2
100
AcDbSymbolTableRecord
100
AcDbLayerTableRecord
  2
0 (1)
 70
     0
 62
     1
420
 16711680
  6
Continuous
370
    -3
390
F
347
3E
  0
ENDTAB
  0
TABLE
  2
STYLE
  5
3
330
0
100
AcDbSymbolTable
 70
     1
  0
STYLE
  5
11
330
3
100
AcDbSymbolTableRecord
100
AcDbTextStyleTableRecord
  2
Standard
 70
     0
 40
0.0
 41
1.0
 50
0.0
 71
     0
 42
2.5
  3
txt
  4

  0
ENDTAB
  0
TABLE
  2
VIEW
  5
6
330
0
100
AcDbSymbolTable
 70
     0
  0
ENDTAB
  0
TABLE
  2
UCS
  5
7
330
0
100
AcDbSymbolTable
 70
     0
  0
ENDTAB
  0
TABLE
  2
APPID
  5
9
330
0
100
AcDbSymbolTable
 70
     2
  0
APPID
  5
12
330
9
100
AcDbSymbolTableRecord
100
AcDbRegAppTableRecord
  2
ACAD
 70
     0
  0
APPID
  5
3F
330
9
100
AcDbSymbolTableRecord
100
AcDbRegAppTableRecord
  2
KOMPAS
 70
     0
  0
ENDTAB
  0
TABLE
  2
DIMSTYLE
  5
A
330
0
100
AcDbSymbolTable
 70
     1
100
AcDbDimStyleTable
  0
DIMSTYLE
105
27
330
A
100
AcDbSymbolTableRecord
100
AcDbDimStyleTableRecord
  2
ISO-25
 70
     0
 41
2.5
 42
0.625
 43
3.75
 44
1.25
 73
     0
 74
     0
 77
     1
 78
     8
140
2.5
141
2.5
143
0.03937007874016
147
0.625
171
     3
172
     1
178
     0
271
     2
272
     2
274
     3
278
    44
283
     0
284
     8
340
11
  0
ENDTAB
  0
TABLE
  2
BLOCK_RECORD
  5
1
330
0
100
AcDbSymbolTable
 70
    15
  0
BLOCK_RECORD
  5
1F
330
1
100
AcDbSymbolTableRecord
100
AcDbBlockTableRecord
  2
*Model_Space
340
22
 70
     0
280
     1
281
     0
  0
BLOCK_RECORD
  5
1B
330
1
100
AcDbSymbolTableRecord
100
AcDbBlockTableRecord
  2
*Paper_Space
340
1E
 70
     0
280
     1
281
     0
  0
BLOCK_RECORD
  5
23
330
1
100
AcDbSymbolTableRecord
100
AcDbBlockTableRecord
  2
*Paper_Space0
340
26
 70
     0
280
     1
281
     0
  0
BLOCK_RECORD
  5
41
330
1
100
AcDbSymbolTableRecord
100
AcDbBlockTableRecord
  2
KDIMARROW_00
340
0
 70
     0
280
     1
281
     0
  0
BLOCK_RECORD
  5
46
330
1
100
AcDbSymbolTableRecord
100
AcDbBlockTableRecord
  2
KDIMARROW_01
340
0
 70
     0
280
     1
281
     0
  0
BLOCK_RECORD
  5
4F
330
1
100
AcDbSymbolTableRecord
100
AcDbBlockTableRecord
  2
KDIMARROW_02
340
0
 70
     0
280
     1
281
     0
  0
BLOCK_RECORD
  5
59
330
1
100
AcDbSymbolTableRecord
100
AcDbBlockTableRecord
  2
KDIMARROW_03
340
0
 70
     0
280
     1
281
     0
  0
BLOCK_RECORD
  5
5F
330
1
100
AcDbSymbolTableRecord
100
AcDbBlockTableRecord
  2
KDIMARROW_04
340
0
 70
     0
280
     1
281
     0
  0
BLOCK_RECORD
  5
65
330
1
100
AcDbSymbolTableRecord
100
AcDbBlockTableRecord
  2
KDIMARROW_05
340
0
 70
     0
280
     1
281
     0
  0
BLOCK_RECORD
  5
6E
330
1
100
AcDbSymbolTableRecord
100
AcDbBlockTableRecord
  2
KDIMARROW_06
340
0
 70
     0
280
     1
281
     0
  0
BLOCK_RECORD
  5
78
330
1
100
AcDbSymbolTableRecord
100
AcDbBlockTableRecord
  2
KDIMARROW_07
340
0
 70
     0
280
     1
281
     0
  0
BLOCK_RECORD
  5
7E
330
1
100
AcDbSymbolTableRecord
100
AcDbBlockTableRecord
  2
KDIMARROW_08
340
0
 70
     0
280
     1
281
     0
  0
BLOCK_RECORD
  5
85
330
1
100
AcDbSymbolTableRecord
100
AcDbBlockTableRecord
  2
KDIMARROW_09
340
0
 70
     0
280
     1
281
     0
  0
BLOCK_RECORD
  5
8B
330
1
100
AcDbSymbolTableRecord
100
AcDbBlockTableRecord
  2
KDIMARROW_10
340
0
 70
     0
280
     1
281
     0
  0
BLOCK_RECORD
  5
92
330
1
100
AcDbSymbolTableRecord
100
AcDbBlockTableRecord
  2
KDIMARROW_11
340
0
 70
     0
280
     1
281
     0
  0
BLOCK_RECORD
  5
98
330
1
100
AcDbSymbolTableRecord
100
AcDbBlockTableRecord
  2
KDIMARROW_12
340
0
 70
     0
280
     1
281
     0
  0
BLOCK_RECORD
  5
9E
330
1
100
AcDbSymbolTableRecord
100
AcDbBlockTableRecord
  2
KDIMARROW_13
340
0
 70
     0
280
     1
281
     0
  0
ENDTAB
  0
ENDSEC
  0
SECTION
  2
BLOCKS
  0
BLOCK
  5
20
330
1F
100
AcDbEntity
  8
0
100
AcDbBlockBegin
  2
*Model_Space
 70
     0
 10
0.0
 20
0.0
 30
0.0
  3
*Model_Space
  1

  0
ENDBLK
  5
21
330
1F
100
AcDbEntity
  8
0
100
AcDbBlockEnd
  0
BLOCK
  5
1C
330
1B
100
AcDbEntity
 67
     1
  8
0
100
AcDbBlockBegin
  2
*Paper_Space
 70
     0
 10
0.0
 20
0.0
 30
0.0
  3
*Paper_Space
  1

  0
ENDBLK
  5
1D
330
1B
100
AcDbEntity
 67
     1
  8
0
100
AcDbBlockEnd
  0
BLOCK
  5
24
330
23
100
AcDbEntity
  8
0
100
AcDbBlockBegin
  2
*Paper_Space0
 70
     0
 10
0.0
 20
0.0
 30
0.0
  3
*Paper_Space0
  1

  0
ENDBLK
  5
25
330
23
100
AcDbEntity
  8
0
100
AcDbBlockEnd
  0
BLOCK
  5
44
330
41
100
AcDbEntity
  8
0
100
AcDbBlockBegin
  2
KDIMARROW_00
 70
     0
 10
0.0
 20
0.0
 30
0.0
  3
KDIMARROW_00
  1

  0
LINE
  5
43
330
41
100
AcDbEntity
  8
0
  6
K5LT_THIN
 62
     0
370
    18
100
AcDbLine
 10
0.0
 20
0.0
 30
0.0
 11
-1.0
 21
0.0
 31
0.0
  0
ENDBLK
  5
45
330
41
100
AcDbEntity
  8
0
100
AcDbBlockEnd
  0
BLOCK
  5
4D
330
46
100
AcDbEntity
  8
0
100
AcDbBlockBegin
  2
KDIMARROW_01
 70
     0
 10
0.0
 20
0.0
 30
0.0
  3
KDIMARROW_01
  1

  0
LINE
  5
47
330
46
100
AcDbEntity
  8
0
  6
K5LT_THIN
 62
     0
370
    18
100
AcDbLine
 10
0.0
 20
0.0
 30
0.0
 11
-5.0
 21
-0.6582624912261956
 31
0.0
  0
LINE
  5
48
330
46
100
AcDbEntity
  8
0
  6
K5LT_THIN
 62
     0
370
    18
100
AcDbLine
 10
-5.0
 20
-0.6582624912261956
 30
0.0
 11
-4.5
 21
0.0000000000000006
 31
0.0
  0
LINE
  5
49
330
46
100
AcDbEntity
  8
0
  6
K5LT_THIN
 62
     0
370
    18
100
AcDbLine
 10
-4.5
 20
0.0000000000000006
 30
0.0
 11
-5.0
 21
0.658262491226197
 31
0.0
  0
LINE
  5
4A
330
46
100
AcDbEntity
  8
0
  6
K5LT_THIN
 62
     0
370
    18
100
AcDbLine
 10
-5.0
 20
0.658262491226197
 30
0.0
 11
0.0
 21
0.0
 31
0.0
  0
HATCH
  5
4B
330
46
100
AcDbEntity
  8
0
 62
     0
100
AcDbHatch
 10
0.0
 20
0.0
 30
0.0
210
0.0
220
0.0
230
1.0
  2
SOLID
 70
     1
 71
     0
 91
        1
 92
        1
 93
        4
 72
     1
 10
0.0
 20
0.0
 11
-5.0
 21
0.658262491226197
 72
     1
 10
-5.0
 20
0.658262491226197
 11
-4.5
 21
0.0000000000000006
 72
     1
 10
-4.5
 20
0.0000000000000006
 11
-5.0
 21
-0.6582624912261956
 72
     1
 10
-5.0
 20
-0.6582624912261956
 11
0.0
 21
0.0
 97
        0
 75
     0
 76
     1
 98
        0
  0
LINE
  5
4C
330
46
100
AcDbEntity
  8
0
  6
K5LT_THIN
 62
     0
370
    18
100
AcDbLine
 10
0.0
 20
0.0
 30
0.0
 11
-1.0
 21
0.0
 31
0.0
  0
ENDBLK
  5
4E
330
46
100
AcDbEntity
  8
0
100
AcDbBlockEnd
  0
BLOCK
  5
57
330
4F
100
AcDbEntity
  8
0
100
AcDbBlockBegin
  2
KDIMARROW_02
 70
     0
 10
0.0
 20
0.0
 30
0.0
  3
KDIMARROW_02
  1

  0
LINE
  5
50
330
4F
100
AcDbEntity
  8
0
  6
K5LT_THIN
 62
     0
370
    18
100
AcDbLine
 10
0.0
 20
0.0
 30
0.0
 11
5.0
 21
-0.658262491226197
 31
0.0
  0
LINE
  5
51
330
4F
100
AcDbEntity
  8
0
  6
K5LT_THIN
 62
     0
370
    18
100
AcDbLine
 10
5.0
 20
-0.658262491226197
 30
0.0
 11
4.5
 21
-0.0000000000000006
 31
0.0
  0
LINE
  5
52
330
4F
100
AcDbEntity
  8
0
  6
K5LT_THIN
 62
     0
370
    18
100
AcDbLine
 10
4.5
 20
-0.0000000000000006
 30
0.0
 11
5.0
 21
0.6582624912261956
 31
0.0
  0
LINE
  5
53
330
4F
100
AcDbEntity
  8
0
  6
K5LT_THIN
 62
     0
370
    18
100
AcDbLine
 10
5.0
 20
0.6582624912261956
 30
0.0
 11
0.0
 21
0.0
 31
0.0
  0
LINE
  5
54
330
4F
100
AcDbEntity
  8
0
  6
K5LT_THIN
 62
     0
370
    18
100
AcDbLine
 10
0.0
 20
0.0
 30
0.0
 11
7.0
 21
-0.0000000000000009
 31
0.0
  0
HATCH
  5
55
330
4F
100
AcDbEntity
  8
0
 62
     0
100
AcDbHatch
 10
0.0
 20
0.0
 30
0.0
210
0.0
220
0.0
230
1.0
  2
SOLID
 70
     1
 71
     0
 91
        1
 92
        1
 93
        4
 72
     1
 10
4.5
 20
-0.0000000000000006
 11
5.0
 21
0.6582624912261956
 72
     1
 10
5.0
 20
0.6582624912261956
 11
0.0
 21
0.0
 72
     1
 10
0.0
 20
0.0
 11
5.0
 21
-0.658262491226197
 72
     1
 10
5.0
 20
-0.658262491226197
 11
4.5
 21
-0.0000000000000006
 97
        0
 75
     0
 76
     1
 98
        0
  0
LINE
  5
56
330
4F
100
AcDbEntity
  8
0
  6
K5LT_THIN
 62
     0
370
    18
100
AcDbLine
 10
0.0
 20
0.0
 30
0.0
 11
-1.0
 21
0.0
 31
0.0
  0
ENDBLK
  5
58
330
4F
100
AcDbEntity
  8
0
100
AcDbBlockEnd
  0
BLOCK
  5
5D
330
59
100
AcDbEntity
  8
0
100
AcDbBlockBegin
  2
KDIMARROW_03
 70
     0
 10
0.0
 20
0.0
 30
0.0
  3
KDIMARROW_03
  1

  0
LINE
  5
5A
330
59
100
AcDbEntity
  8
0
  6
K5LT_THIN
 62
     0
370
    18
100
AcDbLine
 10
-1.060500025749207
 20
-1.060500025749206
 30
0.0
 11
1.060500025749207
 21
1.060500025749206
 31
0.0
  0
LINE
  5
5B
330
59
100
AcDbEntity
  8
0
  6
K5LT_THIN
 62
     0
370
    18
100
AcDbLine
 10
0.0
 20
0.0
 30
0.0
 11
2.0
 21
-0.0000000000000002
 31
0.0
  0
LINE
  5
5C
330
59
100
AcDbEntity
  8
0
  6
K5LT_THIN
 62
     0
370
    18
100
AcDbLine
 10
0.0
 20
0.0
 30
0.0
 11
-1.0
 21
0.0
 31
0.0
  0
ENDBLK
  5
5E
330
59
100
AcDbEntity
  8
0
100
AcDbBlockEnd
  0
BLOCK
  5
63
330
5F
100
AcDbEntity
  8
0
100
AcDbBlockBegin
  2
KDIMARROW_04
 70
     0
 10
0.0
 20
0.0
 30
0.0
  3
KDIMARROW_04
  1

  0
LWPOLYLINE
  5
60
330
5F
100
AcDbEntity
  8
0
  6
K5LT_THIN
 62
     7
100
AcDbPolyline
 90
       15
 70
     0
 43
0.18
 10
-0.25
 20
0.0
 10
0.0
 20
-0.25
 10
0.25
 20
0.0
 10
0.0
 20
0.25
 10
-0.25
 20
0.0
 10
-0.5
 20
0.0000000000000001
 10
-0.0000000000000001
 20
-0.5
 10
0.5
 20
-0.0000000000000001
 10
0.0000000000000001
 20
0.5
 10
-0.5
 20
0.0000000000000001
 10
-0.75
 20
0.0000000000000001
 10
-0.0000000000000001
 20
-0.75
 10
0.75
 20
-0.0000000000000001
 10
0.0000000000000001
 20
0.75
 10
-0.75
 20
0.0000000000000001
  0
LWPOLYLINE
  5
61
330
5F
100
AcDbEntity
  8
0
  6
K5LT_THIN
 62
     7
100
AcDbPolyline
 90
       15
 70
     0
 43
0.18
 10
-0.25
 20
0.0
 10
0.0
 20
-0.25
 10
0.25
 20
0.0
 10
0.0
 20
0.25
 10
-0.25
 20
0.0
 10
-0.5
 20
0.0000000000000001
 10
-0.0000000000000001
 20
-0.5
 10
0.5
 20
-0.0000000000000001
 10
0.0000000000000001
 20
0.5
 10
-0.5
 20
0.0000000000000001
 10
-0.75
 20
0.0000000000000001
 10
-0.0000000000000001
 20
-0.75
 10
0.75
 20
-0.0000000000000001
 10
0.0000000000000001
 20
0.75
 10
-0.75
 20
0.0000000000000001
  0
LINE
  5
62
330
5F
100
AcDbEntity
  8
0
  6
K5LT_THIN
 62
     0
370
    18
100
AcDbLine
 10
0.0
 20
0.0
 30
0.0
 11
-1.0
 21
0.0
 31
0.0
  0
ENDBLK
  5
64
330
5F
100
AcDbEntity
  8
0
100
AcDbBlockEnd
  0
BLOCK
  5
6C
330
65
100
AcDbEntity
  8
0
100
AcDbBlockBegin
  2
KDIMARROW_05
 70
     0
 10
0.0
 20
0.0
 30
0.0
  3
KDIMARROW_05
  1

  0
LINE
  5
66
330
65
100
AcDbEntity
  8
0
  6
K5LT_THIN
 62
     0
370
    18
100
AcDbLine
 10
0.0
 20
0.0
 30
0.0
 11
-5.0
 21
-0.6582624912261956
 31
0.0
  0
LINE
  5
67
330
65
100
AcDbEntity
  8
0
  6
K5LT_THIN
 62
     0
370
    18
100
AcDbLine
 10
-5.0
 20
-0.6582624912261956
 30
0.0
 11
-5.0
 21
0.0000000000000006
 31
0.0
  0
LINE
  5
68
330
65
100
AcDbEntity
  8
0
  6
K5LT_THIN
 62
     0
370
    18
100
AcDbLine
 10
-5.0
 20
0.0000000000000006
 30
0.0
 11
-5.0
 21
0.658262491226197
 31
0.0
  0
LINE
  5
69
330
65
100
AcDbEntity
  8
0
  6
K5LT_THIN
 62
     0
370
    18
100
AcDbLine
 10
-5.0
 20
0.658262491226197
 30
0.0
 11
0.0
 21
0.0
 31
0.0
  0
HATCH
  5
6A
330
65
100
AcDbEntity
  8
0
 62
     0
100
AcDbHatch
 10
0.0
 20
0.0
 30
0.0
210
0.0
220
0.0
230
1.0
  2
SOLID
 70
     1
 71
     0
 91
        1
 92
        1
 93
        4
 72
     1
 10
0.0
 20
0.0
 11
-5.0
 21
0.658262491226197
 72
     1
 10
-5.0
 20
0.658262491226197
 11
-5.0
 21
0.0000000000000007
 72
     1
 10
-5.0
 20
0.0000000000000006
 11
-5.0
 21
-0.6582624912261956
 72
     1
 10
-5.0
 20
-0.6582624912261956
 11
0.0
 21
0.0
 97
        0
 75
     0
 76
     1
 98
        0
  0
LINE
  5
6B
330
65
100
AcDbEntity
  8
0
  6
K5LT_THIN
 62
     0
370
    18
100
AcDbLine
 10
0.0
 20
0.0
 30
0.0
 11
-1.0
 21
0.0
 31
0.0
  0
ENDBLK
  5
6D
330
65
100
AcDbEntity
  8
0
100
AcDbBlockEnd
  0
BLOCK
  5
76
330
6E
100
AcDbEntity
  8
0
100
AcDbBlockBegin
  2
KDIMARROW_06
 70
     0
 10
0.0
 20
0.0
 30
0.0
  3
KDIMARROW_06
  1

  0
LINE
  5
6F
330
6E
100
AcDbEntity
  8
0
  6
K5LT_THIN
 62
     0
370
    18
100
AcDbLine
 10
0.0
 20
0.0
 30
0.0
 11
5.0
 21
-0.658262491226197
 31
0.0
  0
LINE
  5
70
330
6E
100
AcDbEntity
  8
0
  6
K5LT_THIN
 62
     0
370
    18
100
AcDbLine
 10
5.0
 20
-0.658262491226197
 30
0.0
 11
5.0
 21
-0.0000000000000006
 31
0.0
  0
LINE
  5
71
330
6E
100
AcDbEntity
  8
0
  6
K5LT_THIN
 62
     0
370
    18
100
AcDbLine
 10
5.0
 20
-0.0000000000000006
 30
0.0
 11
5.0
 21
0.6582624912261956
 31
0.0
  0
LINE
  5
72
330
6E
100
AcDbEntity
  8
0
  6
K5LT_THIN
 62
     0
370
    18
100
AcDbLine
 10
5.0
 20
0.6582624912261956
 30
0.0
 11
0.0
 21
0.0
 31
0.0
  0
LINE
  5
73
330
6E
100
AcDbEntity
  8
0
  6
K5LT_THIN
 62
     0
370
    18
100
AcDbLine
 10
0.0
 20
0.0
 30
0.0
 11
7.0
 21
-0.0000000000000009
 31
0.0
  0
HATCH
  5
74
330
6E
100
AcDbEntity
  8
0
 62
     0
100
AcDbHatch
 10
0.0
 20
0.0
 30
0.0
210
0.0
220
0.0
230
1.0
  2
SOLID
 70
     1
 71
     0
 91
        1
 92
        1
 93
        4
 72
     1
 10
5.0
 20
-0.0000000000000006
 11
5.0
 21
0.6582624912261956
 72
     1
 10
5.0
 20
0.6582624912261956
 11
0.0
 21
0.0
 72
     1
 10
0.0
 20
0.0
 11
5.0
 21
-0.658262491226197
 72
     1
 10
5.0
 20
-0.658262491226197
 11
5.0
 21
-0.0000000000000007
 97
        0
 75
     0
 76
     1
 98
        0
  0
LINE
  5
75
330
6E
100
AcDbEntity
  8
0
  6
K5LT_THIN
 62
     0
370
    18
100
AcDbLine
 10
0.0
 20
0.0
 30
0.0
 11
-1.0
 21
0.0
 31
0.0
  0
ENDBLK
  5
77
330
6E
100
AcDbEntity
  8
0
100
AcDbBlockEnd
  0
BLOCK
  5
7C
330
78
100
AcDbEntity
  8
0
100
AcDbBlockBegin
  2
KDIMARROW_07
 70
     0
 10
0.0
 20
0.0
 30
0.0
  3
KDIMARROW_07
  1

  0
LINE
  5
79
330
78
100
AcDbEntity
  8
0
  6
K5LT_THIN
 62
     0
370
    18
100
AcDbLine
 10
0.0
 20
0.0
 30
0.0
 11
-5.0
 21
-0.6582624912261956
 31
0.0
  0
LINE
  5
7A
330
78
100
AcDbEntity
  8
0
  6
K5LT_THIN
 62
     0
370
    18
100
AcDbLine
 10
0.0
 20
0.0
 30
0.0
 11
-5.0
 21
0.658262491226197
 31
0.0
  0
LINE
  5
7B
330
78
100
AcDbEntity
  8
0
  6
K5LT_THIN
 62
     0
370
    18
100
AcDbLine
 10
0.0
 20
0.0
 30
0.0
 11
-1.0
 21
0.0
 31
0.0
  0
ENDBLK
  5
7D
330
78
100
AcDbEntity
  8
0
100
AcDbBlockEnd
  0
BLOCK
  5
83
330
7E
100
AcDbEntity
  8
0
100
AcDbBlockBegin
  2
KDIMARROW_08
 70
     0
 10
0.0
 20
0.0
 30
0.0
  3
KDIMARROW_08
  1

  0
LINE
  5
7F
330
7E
100
AcDbEntity
  8
0
  6
K5LT_THIN
 62
     0
370
    18
100
AcDbLine
 10
0.0
 20
0.0
 30
0.0
 11
5.0
 21
-0.658262491226197
 31
0.0
  0
LINE
  5
80
330
7E
100
AcDbEntity
  8
0
  6
K5LT_THIN
 62
     0
370
    18
100
AcDbLine
 10
0.0
 20
0.0
 30
0.0
 11
5.0
 21
0.6582624912261956
 31
0.0
  0
LINE
  5
81
330
7E
100
AcDbEntity
  8
0
  6
K5LT_THIN
 62
     0
370
    18
100
AcDbLine
 10
0.0
 20
0.0
 30
0.0
 11
7.0
 21
-0.0000000000000009
 31
0.0
  0
LINE
  5
82
330
7E
100
AcDbEntity
  8
0
  6
K5LT_THIN
 62
     0
370
    18
100
AcDbLine
 10
0.0
 20
0.0
 30
0.0
 11
-1.0
 21
0.0
 31
0.0
  0
ENDBLK
  5
84
330
7E
100
AcDbEntity
  8
0
100
AcDbBlockEnd
  0
BLOCK
  5
89
330
85
100
AcDbEntity
  8
0
100
AcDbBlockBegin
  2
KDIMARROW_09
 70
     0
 10
0.0
 20
0.0
 30
0.0
  3
KDIMARROW_09
  1

  0
LINE
  5
86
330
85
100
AcDbEntity
  8
0
  6
K5LT_THIN
 62
     0
370
    18
100
AcDbLine
 10
0.0
 20
0.0
 30
0.0
 11
-2.0
 21
-2.0
 31
0.0
  0
LINE
  5
87
330
85
100
AcDbEntity
  8
0
  6
K5LT_THIN
 62
     0
370
    18
100
AcDbLine
 10
0.0
 20
0.0
 30
0.0
 11
-2.0
 21
2.0
 31
0.0
  0
LINE
  5
88
330
85
100
AcDbEntity
  8
0
  6
K5LT_THIN
 62
     0
370
    18
100
AcDbLine
 10
0.0
 20
0.0
 30
0.0
 11
-1.0
 21
0.0
 31
0.0
  0
ENDBLK
  5
8A
330
85
100
AcDbEntity
  8
0
100
AcDbBlockEnd
  0
BLOCK
  5
90
330
8B
100
AcDbEntity
  8
0
100
AcDbBlockBegin
  2
KDIMARROW_10
 70
     0
 10
0.0
 20
0.0
 30
0.0
  3
KDIMARROW_10
  1

  0
LINE
  5
8C
330
8B
100
AcDbEntity
  8
0
  6
K5LT_THIN
 62
     0
370
    18
100
AcDbLine
 10
0.0
 20
0.0
 30
0.0
 11
2.0
 21
-2.0
 31
0.0
  0
LINE
  5
8D
330
8B
100
AcDbEntity
  8
0
  6
K5LT_THIN
 62
     0
370
    18
100
AcDbLine
 10
0.0
 20
0.0
 30
0.0
 11
2.0
 21
2.0
 31
0.0
  0
LINE
  5
8E
330
8B
100
AcDbEntity
  8
0
  6
K5LT_THIN
 62
     0
370
    18
100
AcDbLine
 10
0.0
 20
0.0
 30
0.0
 11
4.0
 21
-0.0000000000000005
 31
0.0
  0
LINE
  5
8F
330
8B
100
AcDbEntity
  8
0
  6
K5LT_THIN
 62
     0
370
    18
100
AcDbLine
 10
0.0
 20
0.0
 30
0.0
 11
-1.0
 21
0.0
 31
0.0
  0
ENDBLK
  5
91
330
8B
100
AcDbEntity
  8
0
100
AcDbBlockEnd
  0
BLOCK
  5
96
330
92
100
AcDbEntity
  8
0
100
AcDbBlockBegin
  2
KDIMARROW_11
 70
     0
 10
0.0
 20
0.0
 30
0.0
  3
KDIMARROW_11
  1

  0
CIRCLE
  5
93
330
92
100
AcDbEntity
  8
0
  6
K5LT_THIN
 62
     0
370
    18
100
AcDbCircle
 10
0.0
 20
0.0
 30
0.0
 40
2.5
  0
CIRCLE
  5
94
330
92
100
AcDbEntity
  8
0
  6
K5LT_THIN
 62
     0
370
    18
100
AcDbCircle
 10
0.0
 20
0.0
 30
0.0
 40
2.5
  0
LINE
  5
95
330
92
100
AcDbEntity
  8
0
  6
K5LT_THIN
 62
     0
370
    18
100
AcDbLine
 10
0.0
 20
0.0
 30
0.0
 11
-1.0
 21
0.0
 31
0.0
  0
ENDBLK
  5
97
330
92
100
AcDbEntity
  8
0
100
AcDbBlockEnd
  0
BLOCK
  5
9C
330
98
100
AcDbEntity
  8
0
100
AcDbBlockBegin
  2
KDIMARROW_12
 70
     0
 10
0.0
 20
0.0
 30
0.0
  3
KDIMARROW_12
  1

  0
CIRCLE
  5
99
330
98
100
AcDbEntity
  8
0
  6
K5LT_THIN
 62
     0
370
    18
100
AcDbCircle
 10
0.0
 20
0.0
 30
0.0
 40
1.5
  0
CIRCLE
  5
9A
330
98
100
AcDbEntity
  8
0
  6
K5LT_THIN
 62
     0
370
    18
100
AcDbCircle
 10
0.0
 20
0.0
 30
0.0
 40
1.5
  0
LINE
  5
9B
330
98
100
AcDbEntity
  8
0
  6
K5LT_THIN
 62
     0
370
    18
100
AcDbLine
 10
0.0
 20
0.0
 30
0.0
 11
-1.0
 21
0.0
 31
0.0
  0
ENDBLK
  5
9D
330
98
100
AcDbEntity
  8
0
100
AcDbBlockEnd
  0
BLOCK
  5
A2
330
9E
100
AcDbEntity
  8
0
100
AcDbBlockBegin
  2
KDIMARROW_13
 70
     0
 10
0.0
 20
0.0
 30
0.0
  3
KDIMARROW_13
  1

  0
LINE
  5
9F
330
9E
100
AcDbEntity
  8
0
  6
K5LT_THIN
 62
     0
370
    18
100
AcDbLine
 10
-1.060500025749206
 20
1.060500025749207
 30
0.0
 11
1.060500025749206
 21
-1.060500025749207
 31
0.0
  0
LINE
  5
A0
330
9E
100
AcDbEntity
  8
0
  6
K5LT_THIN
 62
     0
370
    18
100
AcDbLine
 10
0.0
 20
0.0
 30
0.0
 11
2.0
 21
-0.0000000000000002
 31
0.0
  0
LINE
  5
A1
330
9E
100
AcDbEntity
  8
0
  6
K5LT_THIN
 62
     0
370
    18
100
AcDbLine
 10
0.0
 20
0.0
 30
0.0
 11
-1.0
 21
0.0
 31
0.0
  0
ENDBLK
  5
A3
330
9E
100
AcDbEntity
  8
0
100
AcDbBlockEnd
  0
ENDSEC
  0
SECTION
  2
ENTITIES
  0
LWPOLYLINE
  5
A5
330
1F
100
AcDbEntity
  8
0
  6
K5LT32769
 62
    30
420
 16744448
100
AcDbPolyline
 90
      168
 70
     1
 43
0.18
 10
17.73274736999999
 20
59.92663178000001
 42
0.0970531500000002
 10
20.38102995000001
 20
61.82804517
 42
-0.2580553300000004
 10
10.11893147
 20
70.61264803
 42
-0.2014445899999998
 10
12.62928024
 20
70.25441268
 42
-0.2290299399999999
 10
8.960724929999998
 20
81.27585024
 42
0.2079870999999999
 10
12.57452554999999
 20
79.09886773
 42
-0.3971597000000004
 10
15.60902279
 20
87.6689989
 42
0.10345986
 10
16.66820924
 20
85.24498118
 42
-0.13776318
 10
20.82985465
 20
88.67524238
 10
4.663463220000001
 20
88.67524238
 42
0.11066131
 10
0.0
 20
103.81791138
 10
4.118829439999998
 20
103.81791138
 42
-0.3817942599999996
 10
1.721591969999995
 20
111.80552479
 42
-0.2428441
 10
11.42746911999999
 20
118.17182162
 42
-0.1202202700000003
 10
7.626973880000001
 20
123.13636468
 42
-0.1776137799999999
 10
12.18757561
 20
121.90982758
 42
-0.2576970399999999
 10
12.37068693
 20
141.41073615
 42
-0.2302214199999998
 10
22.44180944
 20
147.14613539
 42
-0.2597523099999995
 10
27.70889845999999
 20
145.4694167500001
 42
-0.0352922099999998
 10
25.21480019
 20
154.29397687
 42
0.1948506700000001
 10
22.05646036000001
 20
159.20166852
 42
-0.2661809199999997
 10
20.93799333999999
 20
162.08935102
 42
-0.2661809199999999
 10
22.86359651
 20
164.51457908
 42
-0.3463151500000001
 10
24.82878098
 20
167.84479812
 42
-0.0799443800000001
 10
30.01898260999999
 20
184.4875279
 42
0.1284750200000003
 10
29.2026881
 20
192.99840703
 42
-0.3047733100000002
 10
32.89546094000001
 20
192.76415063
 42
-0.2305991500000002
 10
34.49126142
 20
195.76762058
 42
-0.2305991500000007
 10
37.83989466999999
 20
196.36265526
 42
-0.3334575199999993
 10
42.18399058999999
 20
199.02077016
 42
0.2502386199999998
 10
45.64826984
 20
200.05726635
 42
0.1355361599999998
 10
49.38032869
 20
202.20608648
 42
0.2298150199999995
 10
49.73177137999999
 20
204.96450482
 42
-0.3210609
 10
49.56441727
 20
212.05449054
 42
-0.2637628400000002
 10
56.59723586999999
 20
214.88885911
 42
0.3074833500000002
 10
72.77300904
 20
221.45321524
 42
-0.2015681700000006
 10
75.06379601
 20
212.59793654
 42
-0.20156817
 10
70.34174418
 20
204.76429802
 42
0.2063412899999999
 10
78.93054362
 20
211.45153486
 42
0.25383913
 10
79.45820705
 20
214.93563948
 42
0.2538391300000002
 10
76.82470762
 20
217.27702675
 42
-0.3178467899999999
 10
80.37786815
 20
220.5017762
 42
-0.3178467899999996
 10
84.60249908
 20
218.22659438
 42
-0.0892494699999998
 10
84.81341123
 20
222.12742197
 42
0.3346062200000015
 10
82.87190446
 20
225.43683156
 42
-0.2754414000000004
 10
85.43854334
 20
228.3050192
 42
-0.2754414000000011
 10
89.18231103
 20
227.41152101
 10
89.18231103
 20
228.96149264
 10
91.28076637
 20
228.30219588
 42
0.15262753
 10
89.56964256
 20
232.7463311
 42
0.1740437199999995
 10
86.95407506
 20
233.50329798
 42
-0.3110537400000009
 10
91.20743434999999
 20
235.13932856
 42
-0.2597375900000002
 10
91.20514765
 20
239.54429163
 42
-0.25973759
 10
94.94933099
 20
241.86480793
 42
-0.3519937000000001
 10
102.6870297
 20
236.26007916
 42
-0.3519937
 10
110.42472842
 20
241.86480793
 42
-0.2597375899999998
 10
114.16891176
 20
239.54429163
 42
-0.2597375899999999
 10
114.16662506
 20
235.13932856
 42
-0.3110537399999998
 10
118.41998435
 20
233.50329798
 42
0.1740437200000002
 10
115.80441684
 20
232.7463311
 42
0.1526275299999999
 10
114.09329304
 20
228.30219588
 10
116.19174838
 20
228.96149264
 10
116.19174838
 20
227.41152101
 42
-0.2754413999999999
 10
119.93551606
 20
228.3050192
 42
-0.2754413999999997
 10
122.50215495
 20
225.43683156
 42
0.3346062199999978
 10
120.56064818
 20
222.12742197
 42
-0.08924947
 10
120.77156033
 20
218.22659438
 42
-0.3178467899999994
 10
124.99619125
 20
220.5017762
 42
-0.31784679
 10
128.54935179
 20
217.27702675
 42
0.2538391299999987
 10
125.91585235
 20
214.93563948
 42
0.2538391299999997
 10
126.44351578
 20
211.45153486
 42
0.2063412900000003
 10
135.03231523
 20
204.76429802
 42
-0.2015681700000001
 10
130.3102634
 20
212.59793654
 42
-0.20156817
 10
132.60105037
 20
221.45321524
 42
0.3074833500000004
 10
148.77682353
 20
214.88885911
 42
-0.2637628399999998
 10
155.80964213
 20
212.05449054
 42
-0.3210608999999996
 10
155.64228803
 20
204.96450482
 42
0.2298150200000005
 10
155.99373072
 20
202.20608648
 42
0.1355361600000003
 10
159.72578957
 20
200.05726635
 42
0.2502386199999998
 10
163.19006882
 20
199.02077016
 42
-0.3334575200000003
 10
167.53416473
 20
196.36265526
 42
-0.2305991499999993
 10
170.88279798
 20
195.76762058
 42
-0.2305991499999996
 10
172.47859847
 20
192.76415063
 42
-0.3047733100000006
 10
176.17137131
 20
192.99840703
 42
0.1284750199999999
 10
175.3550768
 20
184.4875279
 42
-0.07994438
 10
180.54527843
 20
167.84479812
 42
-0.3463151499999996
 10
182.5104629
 20
164.51457908
 42
-0.2661809200000013
 10
184.43606607
 20
162.08935102
 42
-0.2661809199999992
 10
183.31759905
 20
159.20166852
 42
0.1948506699999999
 10
180.15925922
 20
154.29397687
 42
-0.0352922099999997
 10
177.66516095
 20
145.46941675
 42
-0.25975231
 10
182.93224996
 20
147.14613539
 42
-0.23022142
 10
193.00337248
 20
141.41073615
 42
-0.25769704
 10
193.1864838
 20
121.90982758
 42
-0.17761378
 10
197.74708553
 20
123.13636468
 42
-0.1202202700000001
 10
193.94659029
 20
118.17182162
 42
-0.2428441
 10
203.65246743
 20
111.80552479
 42
-0.3817942600000006
 10
201.25522997
 20
103.81791138
 10
205.37405941
 20
103.81791138
 42
0.11066131
 10
200.71059619
 20
88.67524238
 10
184.54420476
 20
88.67524238
 42
-0.1377631800000003
 10
188.70585017
 20
85.24498117999998
 42
0.10345986
 10
189.76503662
 20
87.6689989
 42
-0.3971596999999991
 10
192.79953386
 20
79.09886773
 42
0.2079871000000005
 10
196.41333448
 20
81.27585024000001
 42
-0.2290299399999999
 10
192.74477917
 20
70.25441268
 42
-0.2014445900000003
 10
195.25512794
 20
70.61264803
 42
-0.2580553299999994
 10
184.99302945
 20
61.82804517000002
 42
0.0970531500000002
 10
187.64131203
 20
59.92663178000002
 42
-0.3174300600000003
 10
172.59774089
 20
60.01625084
 42
0.0849444499999999
 10
172.98212202
 20
57.75178452
 42
0.0181051100000001
 10
167.41377514
 20
58.78523095
 42
-0.10249255
 10
171.33900647
 20
54.64256132000001
 42
-0.2737225299999995
 10
160.47576974
 20
60.12857372
 42
0.0694124
 10
159.93050307
 20
55.84889320000001
 42
-0.2251278700000002
 10
153.97145542
 20
63.43559901
 42
-0.1622215100000001
 10
149.07002129
 20
53.40618086
 42
0.1473997399999995
 10
148.57984438
 20
51.81483937
 42
-0.0889048100000001
 10
148.27103832
 20
48.81038199
 42
-0.3297508900000005
 10
146.43247
 20
47.95835382999999
 42
-0.2292581699999996
 10
143.74095514
 20
49.85175291000001
 42
-0.09074253
 10
138.29517575
 20
48.84047547
 42
0.3482275100000001
 10
133.82195071
 20
44.18271366
 42
0.2480269300000001
 10
136.72195784
 20
35.34299861
 42
0.3375896500000001
 10
140.12926618
 20
35.09630631
 42
0.3375896500000003
 10
141.27099994
 20
38.31609687
 42
-0.2106636600000001
 10
144.29711434
 20
35.27172692
 42
-0.2106636600000003
 10
144.09063875
 20
30.98419561999999
 42
-0.3029456300000002
 10
133.96144815
 20
25.17690027
 10
136.87282876
 20
24.25515615
 42
0.1162349000000001
 10
133.65817991
 20
17.7721598
 42
-0.21914424
 10
117.9488315
 20
28.79931312000004
 42
0.0567785700000001
 10
124.25682748
 20
19.77159034
 42
0.0646074399999999
 10
123.02189177
 20
9.938618830000031
 42
-0.1060982899999997
 10
110.42472842
 20
34.81005692000009
 42
0.0615518600000001
 10
119.02942469
 20
7.6730012
 10
113.14588696
 20
8.33243269
 10
112.62282744
 20
3.060022379999983
 42
-0.1422962999999996
 10
102.6870297
 20
0.0000000000000036
 42
-0.1422963
 10
92.75123197
 20
3.06002238
 10
92.22817245
 20
8.33243269
 10
86.34463471999997
 20
7.673001199999959
 42
0.0615518599999999
 10
94.94933098999999
 20
34.81005691999997
 42
-0.1060982899999999
 10
82.35216764
 20
9.938618829999976
 42
0.06460744
 10
81.11723192000002
 20
19.77159034000002
 42
0.0567785699999997
 10
87.42522791
 20
28.79931311999999
 42
-0.21914424
 10
71.71587949
 20
17.7721598
 42
0.1162349
 10
68.50123065
 20
24.25515615
 10
71.41261126
 20
25.17690027
 42
-0.3029456300000003
 10
61.28342066
 20
30.98419562
 42
-0.2106636599999997
 10
61.07694507
 20
35.27172692
 42
-0.2106636600000001
 10
64.10305947
 20
38.31609687
 42
0.3375896499999999
 10
65.24479322
 20
35.09630631
 42
0.3375896499999999
 10
68.65210157
 20
35.34299861
 42
0.2480269299999998
 10
71.55210869
 20
44.18271366
 42
0.3482275100000005
 10
67.07888365000001
 20
48.84047547
 42
-0.0907425300000002
 10
61.63310426999999
 20
49.85175291
 42
-0.2292581699999997
 10
58.9415894
 20
47.95835383
 42
-0.3297508900000003
 10
57.10302108999999
 20
48.81038199
 42
-0.08890481
 10
56.79421503
 20
51.81483937
 42
0.1473997399999999
 10
56.30403810999999
 20
53.40618086000001
 42
-0.16222151
 10
51.40260399
 20
63.43559901
 42
-0.22512787
 10
45.44355634
 20
55.84889319999999
 42
0.0694124000000001
 10
44.89828966
 20
60.12857372000001
 42
-0.27372253
 10
34.03505294
 20
54.64256132
 42
-0.10249255
 10
37.96028427
 20
58.78523095
 42
0.01810511
 10
32.39193739
 20
57.75178452
 42
0.0849444500000002
 10
32.77631851999999
 20
60.01625083999999
 42
-0.3174300599999998
  0
LWPOLYLINE
  5
A6
330
1F
100
AcDbEntity
  8
0
  6
K5LT32769
 62
    30
420
 16744448
100
AcDbPolyline
 90
        6
 70
     1
 43
0.18
 10
33.12150672
 20
82.76242182
 42
0.296929
 10
27.13825085
 20
88.67524238
 10
45.91737107
 20
88.67524238
 42
0.13605772
 10
41.13440924
 20
82.7810552
 42
-0.0582867199999999
 10
38.09228934
 20
78.90010621
 42
-0.25332902
 10
35.92981857
 20
78.35091543
 42
-0.3119363000000001
  0
LWPOLYLINE
  5
A7
330
1F
100
AcDbEntity
  8
0
  6
K5LT32769
 62
    30
420
 16744448
100
AcDbPolyline
 90
        8
 70
     1
 43
0.18
 10
21.44287829
 20
75.23425765
 42
0.3884532699999998
 10
48.26517759999998
 20
71.73836725999999
 42
-0.3837175199999996
 10
32.19060243
 20
77.63535108000002
 42
-0.2227136200000006
 10
28.99110039
 20
76.57319666
 42
-0.2227136200000004
 10
26.12773212999999
 20
78.35255259
 42
0.3475462900000004
 10
28.39451734
 20
80.28455323
 42
0.3475462900000001
 10
27.03771367
 20
82.93597275
 42
0.3818615200000001
 10
20.69644418
 20
78.9947633
 42
0.1582922
  0
LWPOLYLINE
  5
A8
330
1F
100
AcDbEntity
  8
0
  6
K5LT32769
 62
    30
420
 16744448
100
AcDbPolyline
 90
       12
 70
     1
 43
0.18
 10
62.31937615999999
 20
54.07252842
 42
0.29466505
 10
63.00793763
 20
57.54437995
 42
-0.1337794299999999
 10
59.20446405999999
 20
58.13394034
 42
-0.12596558
 10
56.38465771999999
 20
62.98143277000002
 42
-0.0888571599999999
 10
56.33448221
 20
71.31848742
 42
0.2004981099999998
 10
59.77618201
 20
62.58703298
 42
0.23597085
 10
65.34148541
 20
60.56165697
 42
-0.3582578999999999
 10
66.87374202
 20
69.26056423
 42
0.1740351400000002
 10
70.02094103999998
 20
73.38919351
 42
-0.3124415800000007
 10
70.6636735
 20
66.97371255
 42
0.3727717400000002
 10
72.20080711
 20
58.46346624
 42
0.2889840199999993
 10
71.05446733999999
 20
54.9569527
 42
-0.2892013799999996
  0
LWPOLYLINE
  5
A9
330
1F
100
AcDbEntity
  8
0
  6
K5LT32769
 62
    30
420
 16744448
100
AcDbPolyline
 90
        5
 70
     1
 43
0.18
 10
52.13544947
 20
84.79144775
 42
0.34142364
 10
50.69117454
 20
88.67524238
 10
70.37462678
 20
88.67524237999999
 42
0.08904819
 10
56.13816387
 20
81.57622575
 42
-0.2441538400000001
 10
54.1161771
 20
81.20524017
 42
-0.3304115500000002
  0
LWPOLYLINE
  5
AA
330
1F
100
AcDbEntity
  8
0
  6
K5LT32769
 62
    30
420
 16744448
100
AcDbPolyline
 90
        6
 70
     1
 43
0.18
 10
94.94933098999999
 20
74.22618921
 42
0.06847158
 10
90.77034613
 20
81.90683765
 42
-0.2258043099999996
 10
91.10487749
 20
85.44769066
 42
0.1920205500000002
 10
87.51013817
 20
84.71319081000001
 42
0.08414164
 10
79.25857851
 20
88.67524238
 10
94.94933099
 20
88.67524238
  0
LWPOLYLINE
  5
AB
330
1F
100
AcDbEntity
  8
0
  6
K5LT32769
 62
    30
420
 16744448
100
AcDbPolyline
 90
       18
 70
     1
 43
0.18
 10
62.49237977
 20
77.11573937
 42
-0.2518292699999998
 10
61.65925525999999
 20
78.17544573
 42
-0.2518292699999991
 10
62.08397657
 20
79.45477596
 42
-0.12163377
 10
69.40813148
 20
82.82734471
 42
0.2036347699999997
 10
71.35275034
 20
81.75227261
 42
0.2036347700000005
 10
73.47648077
 20
82.40579505
 42
0.20992698
 10
75.33732456
 20
80.68281407
 42
0.20992698
 10
77.86508407
 20
80.88734993
 42
0.29670704
 10
79.13998522
 20
76.52795087
 42
-0.2826136399999998
 10
86.059041
 20
77.8066647
 42
-0.19294344
 10
89.30244933
 20
72.98976384
 42
0.2096433199999999
 10
83.05596511999998
 20
72.4448803
 42
-0.0989040599999999
 10
84.16349356
 20
76.76950711
 42
0.16222153
 10
79.57820893
 20
73.93872315
 42
0.2632579999999996
 10
76.92150327
 20
76.4353147
 42
-0.0318618800000001
 10
76.43260145
 20
74.73292412999999
 42
0.3205621600000002
 10
69.46732574
 20
76.37240458
 42
0.3563832699999998
 10
66.38589192
 20
77.79569044
 42
-0.1286515700000004
  0
LWPOLYLINE
  5
AC
330
1F
100
AcDbEntity
  8
0
  6
K5LT32769
 62
    30
420
 16744448
100
AcDbPolyline
 90
       19
 70
     1
 43
0.18
 10
74.85491604
 20
26.68059464
 42
0.2518686800000001
 10
77.59621552
 20
34.07416079
 42
-0.1767700800000001
 10
80.39234416
 20
31.77393831
 42
0.3025817099999994
 10
80.47566287999999
 20
38.44025954
 42
0.15802368
 10
83.43015479
 20
37.76499539
 42
0.21950273
 10
79.58166193
 20
44.15493098
 42
-0.0455571900000001
 10
81.95595696
 20
44.05518686
 42
0.31487022
 10
77.40817134999998
 20
48.57276962000001
 42
-0.0210952199999999
 10
72.09316848
 20
49.99721903999999
 42
0.2002187400000002
 10
75.70440959999999
 20
53.04960308
 42
0.2531140600000009
 10
78.49929013
 20
53.72845053
 42
0.2531140599999995
 10
79.46086282
 20
56.43909048
 42
0.3975661199999999
 10
87.32571453000001
 20
62.7075049
 42
-0.0592163400000002
 10
88.24607367
 20
67.95959567
 42
-0.1357475999999999
 10
90.25411815000001
 20
70.21622731000002
 42
-0.0801927800000002
 10
90.29595434
 20
58.06887864
 42
0.3259360800000002
 10
88.16240128
 20
52.05119835
 42
0.3503345399999999
 10
84.10137681
 20
50.94863204000001
 42
-0.1762525899999999
 10
87.30041735
 20
46.50630136000002
 42
-0.2963973700000001
  0
LWPOLYLINE
  5
AD
330
1F
100
AcDbEntity
  8
0
  6
K5LT32769
 62
    30
420
 16744448
100
AcDbPolyline
 90
        3
 70
     1
 43
0.18
 10
26.10142978
 20
135.50363136
 42
0.2798070700000003
 10
29.33112847999996
 20
141.4637008500001
 42
0.0397300000000001
 10
34.30721626
 20
131.59312371
 42
-0.20635175
  0
LWPOLYLINE
  5
AE
330
1F
100
AcDbEntity
  8
0
  6
K5LT32769
 62
    30
420
 16744448
100
AcDbPolyline
 90
        4
 70
     1
 43
0.18
 10
94.35126414999999
 20
228.78791721
 42
0.3344030599999985
 10
92.97697061
 20
234.27920036
 42
0.2327653400000005
 10
95.54168801
 20
234.50117923
 42
0.2327653400000003
 10
96.93018891
 20
236.6689235
 42
-0.2387730500000002
  0
LWPOLYLINE
  5
AF
330
1F
100
AcDbEntity
  8
0
  6
K5LT32769
 62
    30
420
 16744448
100
AcDbPolyline
 90
        8
 70
     1
 43
0.18
 10
102.6870297
 20
225.12068871
 42
0.14648895
 10
98.8883464
 20
226.33649242
 42
0.1760842300000008
 10
100.02004582
 20
227.78692815
 42
0.2080970799999995
 10
97.45770662
 20
227.80826018
 42
0.1777444399999998
 10
102.6870297
 20
235.2737347
 42
0.1777444399999999
 10
107.91635279
 20
227.80826018
 42
0.2080970799999998
 10
105.35401358
 20
227.78692815
 42
0.1760842300000003
 10
106.48571301
 20
226.33649242
 42
0.1464889500000002
  0
LWPOLYLINE
  5
B0
330
1F
100
AcDbEntity
  8
0
  6
K5LT32769
 62
    30
420
 16744448
100
AcDbPolyline
 90
        7
 70
     0
 43
0.18
 10
85.14617421
 20
214.9572237
 42
-0.32663247
 10
72.13241726
 20
203.32183987
 10
75.01593189
 20
201.6542297
 42
0.2035413500000003
 10
78.08914739
 20
201.35102489
 42
0.1948525299999997
 10
86.39822601
 20
206.84656627
 42
-0.2294723700000002
 10
85.42075133999998
 20
209.9762647
 42
-0.2294723699999995
 10
87.27086675999999
 20
212.68320798
  0
LWPOLYLINE
  5
B1
330
1F
100
AcDbEntity
  8
0
  6
K5LT32769
 62
    30
420
 16744448
100
AcDbPolyline
 90
       40
 70
     1
 43
0.18
 10
80.78296115999999
 20
198.62220602
 42
-0.08200983
 10
92.62054852999998
 20
188.93278995
 42
0.3180526100000006
 10
96.37671322
 20
195.45163637
 42
0.2303529100000002
 10
95.71968436
 20
197.04080903
 42
0.2303529099999987
 10
94.06379654
 20
197.50469714
 42
0.2303529099999996
 10
92.6767893
 20
196.48815026
 42
0.2303529099999999
 10
92.62054853
 20
194.76943165
 42
-0.23406301
 10
89.60717775999998
 20
198.35530056
 42
-0.2340630099999998
 10
90.63314758999998
 20
202.92544773
 42
-0.4109668899999985
 10
94.06005814000001
 20
203.12301302
 42
-0.3587281900000013
 10
95.342332
 20
204.928273
 42
-0.3587281899999981
 10
97.36009191999999
 20
204.01622324
 42
-0.2843176099999986
 10
97.95157739
 20
205.21129182
 42
-0.2843176099999994
 10
99.28500382
 20
205.21552473
 42
-0.18225101
 10
102.6870297
 20
199.93775386
 42
-0.1822510099999998
 10
106.08905559
 20
205.21552473
 42
-0.2843176099999994
 10
107.42248202
 20
205.21129182
 42
-0.2843176100000011
 10
108.01396748
 20
204.01622324
 42
-0.3587281900000024
 10
110.0317274
 20
204.928273
 42
-0.3587281899999986
 10
111.31400127
 20
203.12301302
 42
-0.4109668900000022
 10
114.74091181
 20
202.92544773
 42
-0.2340630100000013
 10
115.76688165
 20
198.35530056
 42
-0.2340630100000002
 10
112.75351088
 20
194.76943165
 42
0.23035291
 10
112.69727011
 20
196.48815026
 42
0.2303529099999995
 10
111.31026287
 20
197.50469714
 42
0.2303529100000004
 10
109.65437504
 20
197.04080903
 42
0.2303529099999998
 10
108.99734619
 20
195.45163637
 42
0.31805261
 10
112.75351088
 20
188.93278995
 42
-0.0820098299999998
 10
124.59109825
 20
198.62220602
 42
-0.2655449100000001
 10
119.31729869
 20
200.02451912
 42
-0.1597180399999999
 10
115.18173226
 20
206.16002166
 42
-0.2318083300000003
 10
111.99574191
 20
208.05342173
 42
-0.2318083300000001
 10
111.53939553
 20
211.73136222
 42
-0.3392306700000009
 10
105.05148993
 20
219.08401168
 42
0.11403899
 10
102.6870297
 20
223.51834437
 42
0.11403899
 10
100.32256947
 20
219.08401168
 42
-0.3392306700000001
 10
93.83466387000001
 20
211.73136222
 42
-0.2318083299999996
 10
93.37831749
 20
208.05342173
 42
-0.2318083299999999
 10
90.19232714999998
 20
206.16002166
 42
-0.1597180399999994
 10
86.05676072
 20
200.02451912
 42
-0.2655449100000003
  0
LWPOLYLINE
  5
B2
330
1F
100
AcDbEntity
  8
0
  6
K5LT32769
 62
    30
420
 16744448
100
AcDbPolyline
 90
        3
 70
     1
 43
0.18
 10
76.49846902999997
 20
144.79883136
 42
-0.2061846899999998
 10
71.23383713000001
 20
158.3268753
 42
0.26271149
 10
79.61568933
 20
150.88818321
 42
0.2721079899999999
  0
LWPOLYLINE
  5
B3
330
1F
100
AcDbEntity
  8
0
  6
K5LT32769
 62
    30
420
 16744448
100
AcDbPolyline
 90
       11
 70
     1
 43
0.18
 10
63.904405
 20
143.0888919
 10
66.01025032
 20
141.81566519
 10
66.32686517999998
 20
145.81266048
 42
0.0760077900000001
 10
71.14234663000002
 20
142.14875936
 42
0.3284802799999987
 10
79.75371621
 20
142.14781218
 42
-0.2752432200000002
 10
79.88926375
 20
144.71567559
 42
-0.27524322
 10
82.21171966
 20
145.81952983
 42
-0.2752432200000004
 10
84.28848299000002
 20
144.30316914
 42
-0.2752432199999994
 10
83.94429759999998
 20
141.75486931
 42
-0.1246937500000002
 10
77.15194207999998
 20
136.90474006
 42
-0.2100025299999996
 10
69.16957019
 20
137.08644948
 42
-0.2100025299999997
  0
LWPOLYLINE
  5
B4
330
1F
100
AcDbEntity
  8
0
  6
K5LT32769
 62
    30
420
 16744448
100
AcDbPolyline
 90
       15
 70
     1
 43
0.18
 10
83.33171174
 20
151.07678293
 42
-0.3183653300000003
 10
89.374953
 20
146.80461864
 42
-0.25981299
 10
91.46468129
 20
149.60938687
 42
-0.2598129900000005
 10
94.94933099
 20
149.30788131
 42
-0.2414540400000002
 10
95.3266934
 20
148.24151578
 42
-0.24145404
 10
94.68095573
 20
147.31277433
 42
0.2031921899999998
 10
97.27659945
 20
148.00530155
 42
0.2031921899999998
 10
98.58386822
 20
150.35221626
 42
-0.1867144999999997
 10
100.11332333
 20
154.9774513
 42
-0.2483537900000007
 10
98.99084701999999
 20
157.26653685
 42
-0.2483537899999994
 10
100.25278353
 20
159.48179799
 42
-0.2057032599999997
 10
96.67568548
 20
159.09441568
 42
-0.2057032600000002
 10
93.93217973
 20
161.42226271
 42
-0.2809518700000001
 10
91.93170784
 20
152.09838548
 42
-0.2682489600000003
 10
89.32846315999998
 20
155.02388778
 42
-0.2066232399999996
  0
LWPOLYLINE
  5
B5
330
1F
100
AcDbEntity
  8
0
  6
K5LT32769
 62
    30
420
 16744448
100
AcDbPolyline
 90
        7
 70
     1
 43
0.18
 10
89.84428162
 20
138.32896085
 42
0.2001039200000002
 10
90.20605538
 20
144.03091472
 42
0.3475663100000008
 10
94.94933099
 20
142.58534964
 42
0.1555700000000002
 10
100.89866184
 20
147.04251272
 42
-0.2632137099999998
 10
95.47196237
 20
139.01159017
 42
0.3425176799999996
 10
100.41629373
 20
135.91968572
 42
0.2240101600000001
 10
100.81826561
 20
129.41463878
 42
0.17436622
  0
LWPOLYLINE
  5
B6
330
1F
100
AcDbEntity
  8
0
  6
K5LT32769
 62
    30
420
 16744448
100
AcDbPolyline
 90
       13
 70
     1
 43
0.18
 10
82.27455428
 20
111.30825762
 42
0.2886365500000002
 10
91.52607231
 20
118.73904333
 42
0.2886365500000004
 10
88.82213812
 20
130.293086
 42
0.2102885
 10
87.9442946
 20
136.14638099
 42
-0.2148093500000001
 10
77.05546360000001
 20
129.56989231
 42
-0.21480935
 10
64.9143932
 20
133.36610802
 42
0.29396434
 10
64.42784852
 20
127.8448092
 42
0.29396434
 10
69.25148073999993
 20
125.11460068
 42
0.0022559600000001
 10
71.51491995
 20
125.12481319
 42
-0.10138962
 10
78.22947317
 20
125.00189533
 42
-0.3049031300000004
 10
82.04983013
 20
120.17544915
 42
-0.0684339200000003
 10
79.85873949
 20
114.78778868
 42
0.2227386800000001
 10
80.25116249
 20
112.48183787
 42
0.2227386800000002
  0
LWPOLYLINE
  5
B7
330
1F
100
AcDbEntity
  8
0
  6
K5LT32769
 62
    30
420
 16744448
100
AcDbPolyline
 90
       12
 70
     1
 43
0.18
 10
46.94190653999998
 20
124.8767324
 42
0.0468538200000001
 10
58.00553819
 20
114.75049334
 10
57.46053212
 20
119.3236333
 10
61.11207374
 20
116.92817806
 42
-0.3259820499999999
 10
63.12859714
 20
136.03736508
 42
-0.0665089
 10
61.08663696
 20
142.30495071
 10
60.22098597
 20
140.14313131
 10
58.81718836999999
 20
142.4842419
 42
-0.1624299000000002
 10
56.33389584999999
 20
126.87555054
 42
-0.1495564999999998
 10
55.28049851999998
 20
128.90544608
 42
-0.1431373999999997
 10
49.28543172
 20
123.787888
 42
-0.1284208099999999
 10
48.95842993999999
 20
126.12890061
 42
-0.01907282
  0
LWPOLYLINE
  5
B8
330
1F
100
AcDbEntity
  8
0
  6
K5LT32769
 62
    30
420
 16744448
100
AcDbPolyline
 90
        5
 70
     1
 43
0.18
 10
97.15050141000003
 20
163.4979084100001
 42
0.0147163099999997
 10
98.60309705
 20
166.82320782
 42
0.1283082600000001
 10
87.28493936000001
 20
186.83545658
 42
-0.04835242
 10
92.49007916000001
 20
174.9248425
 42
-0.0709918100000005
 10
89.64541309
 20
175.16668046
 42
-0.09461747
  0
LWPOLYLINE
  5
B9
330
1F
100
AcDbEntity
  8
0
  6
K5LT32769
 62
    30
420
 16744448
100
AcDbPolyline
 90
       10
 70
     1
 43
0.18
 10
77.29832689
 20
161.38181102
 42
0.2575968400000002
 10
79.89322681
 20
158.21478822
 42
0.2575968399999994
 10
83.95607164
 20
158.72157313
 42
0.1236635000000001
 10
88.25333335
 20
162.71192996
 10
89.65025286999999
 20
161.12857012
 42
0.01983439
 10
89.31645678
 20
167.42227678
 10
91.34011886
 20
166.56783576
 42
0.10974415
 10
88.61648457999999
 20
170.69264363
 42
-0.32860403
 10
84.01659684
 20
159.93077106
 42
-0.2056446300000002
 10
80.34588688
 20
159.21370853
 42
-0.2056446300000003
  0
LWPOLYLINE
  5
BA
330
1F
100
AcDbEntity
  8
0
  6
K5LT32769
 62
    30
420
 16744448
100
AcDbPolyline
 90
       11
 70
     1
 43
0.18
 10
80.07437974
 20
167.25555618
 42
0.3837245299999997
 10
71.29166323
 20
162.53174058
 42
0.23034201
 10
68.32657964
 20
169.56735309
 42
0.3420878799999999
 10
81.41152794
 20
176.05340737
 42
0.1558633399999997
 10
81.91222208
 20
172.78568201
 42
0.3372517600000046
 10
82.49500256
 20
172.13151512
 42
0.337251760000003
 10
83.28080095
 20
172.51892742
 42
0.2093782200000002
 10
85.25022024
 20
177.08707426
 42
-0.1591831199999997
 10
85.28999953000002
 20
167.3597586
 42
-0.3170690599999993
 10
81.7016543
 20
164.25458542
 42
-0.2821224799999987
 10
79.96816156
 20
165.25627974
 42
-0.2821224800000008
  0
LWPOLYLINE
  5
BB
330
1F
100
AcDbEntity
  8
0
  6
K5LT32769
 62
    30
420
 16744448
100
AcDbPolyline
 90
       22
 70
     1
 43
0.18
 10
58.32518723
 20
173.74369263
 42
-0.03119894
 10
63.63078044
 20
172.47079254
 42
-0.2103006999999999
 10
62.05527429999999
 20
178.40760995
 42
-0.2103006999999997
 10
65.36842067
 20
183.57975474
 42
-0.2882740300000001
 10
67.59766734
 20
183.63350409
 42
-0.2882740299999994
 10
68.61201514
 20
181.6476722
 42
0.2431941699999999
 10
67.43306529
 20
181.28267835
 42
0.2431941699999996
 10
67.04916553
 20
180.10974858
 42
0.2221096299999999
 10
69.61411012
 20
177.4432279
 42
0.2221096299999997
 10
73.30509661000002
 20
177.69992229
 42
0.2449925399999999
 10
76.6899569
 20
186.29845262
 42
0.13472728
 10
73.18990979
 20
196.06942037
 42
-0.4143837700000009
 10
70.34408031
 20
194.72971936
 42
0.2978576300000003
 10
68.18517422
 20
198.72733929
 42
0.1825206500000001
 10
60.86003274
 20
199.18335499
 42
-0.2241121899999999
 10
68.89794750000001
 20
194.60280205
 42
-0.2241121899999999
 10
70.47179473
 20
185.48619392
 42
0.2491694900000005
 10
67.50097546
 20
187.6187511
 42
0.2491694899999997
 10
64.0709866
 20
186.35038848
 42
-0.2450137899999998
 10
53.19751187
 20
181.72619044
 42
0.2047681299999995
 10
55.26693782
 20
180.01563041
 10
54.84990677
 20
178.92787608
 42
-0.41201622
  0
LWPOLYLINE
  5
BC
330
1F
100
AcDbEntity
  8
0
  6
K5LT32769
 62
    30
420
 16744448
100
AcDbPolyline
 90
       11
 70
     1
 43
0.18
 10
33.69611922999999
 20
179.80535162
 42
-0.2199780500000001
 10
47.51931123
 20
195.24205981
 42
-0.3587821899999994
 10
50.08191398000002
 20
194.45577351
 42
-0.3587821899999997
 10
49.80144563
 20
191.78996848
 42
0.2183436999999998
 10
47.36559608
 20
187.94068058
 42
0.2183437
 10
48.69298647000001
 20
183.58311071
 42
0.1626973799999999
 10
43.28106695
 20
183.38770923
 42
0.2050347400000001
 10
43.28913265
 20
184.86605766
 42
0.2050347400000006
 10
42.22504497
 20
185.89236001
 42
0.1672004599999996
 10
39.80453932000002
 20
186.05355265
 42
-0.2537287999999999
 10
37.72576887
 20
182.60016712
 42
-0.0193893100000001
  0
LWPOLYLINE
  5
BD
330
1F
100
AcDbEntity
  8
0
  6
K5LT32769
 62
    30
420
 16744448
100
AcDbPolyline
 90
       13
 70
     1
 43
0.18
 10
30.37477179
 20
166.04839143
 42
-0.1977943200000002
 10
35.7401177
 20
175.13537441
 42
-0.2222603600000008
 10
37.87649062
 20
175.59449177
 42
-0.2222603600000003
 10
39.59853211
 20
174.24933339
 42
0.3828074
 10
42.08211316
 20
178.14791143
 42
-0.3143858300000003
 10
48.00331743
 20
177.87533493
 10
47.18907983
 20
176.59473081
 10
49.27233639
 20
176.189912
 42
0.4097278999999999
 10
49.22207710000001
 20
170.6673024
 42
0.1988820499999997
 10
43.794056
 20
161.12824759
 42
0.24595682
 10
40.26225258
 20
165.6961458
 42
0.2459568199999999
 10
34.49605155
 20
165.39572087
 10
34.49605155
 20
168.15702568
  0
LWPOLYLINE
  5
BE
330
1F
100
AcDbEntity
  8
0
  6
K5LT32769
 62
    30
420
 16744448
100
AcDbPolyline
 90
       19
 70
     1
 43
0.18
 10
42.01693431999998
 20
130.9173778
 42
0.1037243200000001
 10
50.27727073999999
 20
134.61334842
 42
0.2506914000000008
 10
54.23156869000001
 20
145.07355944
 42
-0.2027300399999998
 10
48.46721061000001
 20
142.28680725
 42
-0.0989613800000003
 10
50.64487085
 20
146.37876583
 42
-0.11316182
 10
45.03797324
 20
144.96637258
 42
-0.3131685899999998
 10
39.13853868
 20
149.10615167
 42
0.2269984400000001
 10
43.60875991
 20
151.93497922
 42
0.2269984400000002
 10
44.20912322
 20
157.19090036
 42
-0.2495877999999997
 10
41.3819269
 20
154.3161826
 42
-0.3906774899999994
 10
39.11582893
 20
155.26376604
 42
0.318282079999999
 10
39.36224976
 20
156.74809315
 42
0.318282080000001
 10
38.04377983
 20
157.47306709
 42
0.2921963900000005
 10
34.39902321
 20
155.11722617
 42
0.20689359
 10
33.14363162
 20
149.10476281
 42
0.20689359
 10
36.66336209999999
 20
144.07115368
 42
-0.2980879500000013
 10
35.46920156
 20
142.10641782
 42
-0.1427084399999997
 10
38.84093858
 20
141.61523793
 42
0.2604807
 10
38.05885761
 20
136.59026294
  0
LWPOLYLINE
  5
BF
330
1F
100
AcDbEntity
  8
0
  6
K5LT32769
 62
    30
420
 16744448
100
AcDbPolyline
 90
       15
 70
     1
 43
0.18
 10
18.42344952
 20
119.97138014
 42
-0.1002797399999998
 10
19.21934249
 20
124.0525645
 42
-0.10049765
 10
21.02089577
 20
121.79038449
 42
-0.20602851
 10
24.53241875
 20
126.39430383
 42
0.3638061400000004
 10
29.78427176
 20
121.87194025
 42
-0.02427859
 10
35.46658621
 20
121.72564941
 10
37.60057672
 20
123.91132395
 42
-0.2691497400000002
 10
27.15939697
 20
125.48455873
 42
-0.0261065299999999
 10
30.09650288999998
 20
126.91469534
 42
-0.2035185399999997
 10
24.25997621
 20
134.28202614
 42
-0.335631500000001
 10
20.22746923
 20
135.23606839
 42
0.2533296400000011
 10
21.2971972
 20
136.01631516
 42
0.2533296399999999
 10
21.2286131
 20
137.33858562
 42
0.2533296400000021
 10
20.08390235
 20
138.00397291
 42
0.2533296399999989
 10
18.90097784999999
 20
137.40916826
 42
0.3371894400000001
  0
LWPOLYLINE
  5
C0
330
1F
100
AcDbEntity
  8
0
  6
K5LT32769
 62
    30
420
 16744448
100
AcDbPolyline
 90
        8
 70
     1
 43
0.18
 10
41.44746873
 20
113.77053011
 42
-0.2450156999999993
 10
43.51644976
 20
113.44325204
 42
-0.2450156999999998
 10
44.43282356
 20
111.55962456
 42
0.1006342899999999
 10
51.89621529
 20
108.62888826
 10
50.55795021
 20
111.76528991
 10
53.02859414999998
 20
112.02237261
 42
-0.05984431
 10
42.73425527
 20
120.91741624
 10
37.7929767
 20
120.55749882
 42
-0.2260901799999997
  0
LWPOLYLINE
  5
C1
330
1F
100
AcDbEntity
  8
0
  6
K5LT32769
 62
    30
420
 16744448
100
AcDbPolyline
 90
        6
 70
     1
 43
0.18
 10
16.9469528
 20
103.81791138
 10
58.12428970999994
 20
103.81791138
 42
-0.02928761
 10
43.50633092
 20
107.60055744
 42
-0.3868053600000004
 10
37.12384882
 20
107.49772681
 42
-0.3391409500000001
 10
23.73564159
 20
105.79952915
 42
0.2280442899999997
 10
19.8646109
 20
106.44176725
 42
0.2280442899999999
  0
LWPOLYLINE
  5
C2
330
1F
100
AcDbEntity
  8
0
  6
K5LT32769
 62
    30
420
 16744448
100
AcDbPolyline
 90
        7
 70
     1
 43
0.18
 10
7.973539549999996
 20
103.81791138
 42
0.4016263900000005
 10
10.18871351
 20
107.8583706
 42
0.4016263900000003
 10
6.24760787000001
 20
110.24583636
 42
-0.3369621999999999
 10
19.10125179
 20
114.14770096
 10
16.01274443
 20
112.78658626
 10
19.55544678
 20
111.06250845
 42
0.2630605900000001
 10
14.05412159
 20
103.81791138
  0
LWPOLYLINE
  5
C3
330
1F
100
AcDbEntity
  8
0
  6
K5LT32769
 62
    30
420
 16744448
100
AcDbPolyline
 90
        6
 70
     1
 43
0.18
 10
167.28177006
 20
78.90010621
 42
0.2533290199999996
 10
169.44424084
 20
78.35091543
 42
0.3119362999999999
 10
172.25255269
 20
82.76242182
 42
-0.2969290000000001
 10
178.23580856
 20
88.67524238
 10
159.45668834
 20
88.67524238
 42
-0.13605772
 10
164.23965017
 20
82.78105520000001
 42
0.0582867200000002
  0
LWPOLYLINE
  5
C4
330
1F
100
AcDbEntity
  8
0
  6
K5LT32769
 62
    30
420
 16744448
100
AcDbPolyline
 90
        8
 70
     1
 43
0.18
 10
157.10888181
 20
71.73836726
 42
0.38371752
 10
173.18345698
 20
77.63535108000002
 42
0.2227136200000004
 10
176.38295902
 20
76.57319666
 42
0.2227136200000006
 10
179.24632727
 20
78.35255259
 42
-0.3475462900000002
 10
176.97954207
 20
80.28455323
 42
-0.3475462900000012
 10
178.33634574
 20
82.93597275
 42
-0.3818615200000002
 10
184.67761523
 20
78.9947633
 42
-0.1582921999999999
 10
183.93118112
 20
75.23425765
 42
-0.3884532700000002
  0
LWPOLYLINE
  5
C5
330
1F
100
AcDbEntity
  8
0
  6
K5LT32769
 62
    30
420
 16744448
100
AcDbPolyline
 90
       12
 70
     1
 43
0.18
 10
134.31959207
 20
54.95695270000001
 42
0.2892013799999999
 10
143.05468325
 20
54.07252842
 42
-0.2946650500000003
 10
142.36612178
 20
57.54437995
 42
0.13377943
 10
146.16959534
 20
58.13394034
 42
0.1259655799999997
 10
148.98940168
 20
62.98143277000002
 42
0.0888571599999999
 10
149.0395772
 20
71.31848742
 42
-0.2004981099999998
 10
145.59787739
 20
62.58703298
 42
-0.2359708499999999
 10
140.03257399
 20
60.56165697000001
 42
0.3582578999999997
 10
138.50031739
 20
69.26056423
 42
-0.1740351399999999
 10
135.35311836
 20
73.38919351
 42
0.3124415800000001
 10
134.71038591
 20
66.97371255
 42
-0.3727717400000007
 10
133.1732523
 20
58.46346624
 42
-0.2889840200000008
  0
LWPOLYLINE
  5
C6
330
1F
100
AcDbEntity
  8
0
  6
K5LT32769
 62
    30
420
 16744448
100
AcDbPolyline
 90
        5
 70
     1
 43
0.18
 10
134.99943263
 20
88.67524238
 42
-0.08904819
 10
149.23589554
 20
81.57622575
 42
0.24415384
 10
151.25788231
 20
81.20524017
 42
0.3304115499999999
 10
153.23860993
 20
84.79144775
 42
-0.3414236399999986
 10
154.68288487
 20
88.67524238
  0
LWPOLYLINE
  5
C7
330
1F
100
AcDbEntity
  8
0
  6
K5LT32769
 62
    30
420
 16744448
100
AcDbPolyline
 90
        6
 70
     1
 43
0.18
 10
110.42472842
 20
74.22618921
 10
110.42472842
 20
88.67524238
 10
126.11548089
 20
88.67524238
 42
0.08414164
 10
117.86392124
 20
84.71319081
 42
0.1920205499999999
 10
114.26918191
 20
85.44769066
 42
-0.2258043099999997
 10
114.60371328
 20
81.90683765
 42
0.0684715799999998
  0
LWPOLYLINE
  5
C8
330
1F
100
AcDbEntity
  8
0
  6
K5LT32769
 62
    30
420
 16744448
100
AcDbPolyline
 90
       18
 70
     1
 43
0.18
 10
116.07161008
 20
72.98976384
 42
-0.1929434399999999
 10
119.3150184
 20
77.8066647
 42
-0.2826136400000001
 10
126.23407419
 20
76.52795087
 42
0.2967070400000004
 10
127.50897534
 20
80.88734993
 42
0.2099269799999988
 10
130.03673485
 20
80.68281407
 42
0.2099269800000002
 10
131.89757864
 20
82.40579505
 42
0.2036347700000005
 10
134.02130907
 20
81.75227261
 42
0.2036347699999997
 10
135.96592793
 20
82.82734471
 42
-0.1216337700000001
 10
143.29008284
 20
79.45477596
 42
-0.2518292699999987
 10
143.71480414
 20
78.17544573
 42
-0.2518292699999988
 10
142.88167963
 20
77.11573937
 42
-0.1286515700000001
 10
138.98816749
 20
77.79569044
 42
0.3563832699999997
 10
135.90673367
 20
76.37240458
 42
0.32056216
 10
128.94145796
 20
74.73292413000001
 42
-0.03186188
 10
128.45255614
 20
76.4353147
 42
0.263258000000001
 10
125.79585047
 20
73.93872315
 42
0.16222153
 10
121.21056585
 20
76.76950711
 42
-0.09890406
 10
122.31809429
 20
72.4448803
 42
0.20964332
  0
LWPOLYLINE
  5
C9
330
1F
100
AcDbEntity
  8
0
  6
K5LT32769
 62
    30
420
 16744448
100
AcDbPolyline
 90
       19
 70
     1
 43
0.18
 10
130.51914336
 20
26.68059464
 42
-0.2963973700000001
 10
118.07364205
 20
46.50630136
 42
-0.17625259
 10
121.2726826
 20
50.94863204
 42
0.3503345399999999
 10
117.21165813
 20
52.05119835
 42
0.3259360800000002
 10
115.07810506
 20
58.06887864000005
 42
-0.0801927799999999
 10
115.11994126
 20
70.21622731
 42
-0.1357476000000006
 10
117.12798573
 20
67.95959567
 42
-0.05921634
 10
118.04834488
 20
62.7075049
 42
0.3975661200000001
 10
125.91319659
 20
56.43909048
 42
0.2531140600000001
 10
126.87476928
 20
53.72845053
 42
0.2531140599999986
 10
129.66964981
 20
53.04960308
 42
0.20021874
 10
133.28089093
 20
49.99721904
 42
-0.0210952199999997
 10
127.96588806
 20
48.57276962
 42
0.3148702200000001
 10
123.41810244
 20
44.05518686
 42
-0.04555719
 10
125.79239747
 20
44.15493098
 42
0.21950273
 10
121.94390462
 20
37.76499539
 42
0.15802368
 10
124.89839653
 20
38.44025954
 42
0.30258171
 10
124.98171525
 20
31.77393831
 42
-0.1767700800000002
 10
127.77784389
 20
34.07416078999999
 42
0.2518686800000001
  0
LWPOLYLINE
  5
CA
330
1F
100
AcDbEntity
  8
0
  6
K5LT32769
 62
    30
420
 16744448
100
AcDbPolyline
 90
        3
 70
     1
 43
0.18
 10
171.06684315
 20
131.59312371
 42
0.03973
 10
176.04293092
 20
141.46370085
 42
0.2798070700000002
 10
179.27262963
 20
135.50363136
 42
-0.2063517499999999
  0
LWPOLYLINE
  5
CB
330
1F
100
AcDbEntity
  8
0
  6
K5LT32769
 62
    30
420
 16744448
100
AcDbPolyline
 90
        4
 70
     1
 43
0.18
 10
111.02279526
 20
228.78791721
 42
-0.2387730499999998
 10
108.44387049
 20
236.6689235
 42
0.2327653399999999
 10
109.83237139
 20
234.50117923
 42
0.2327653400000001
 10
112.3970888
 20
234.27920036
 42
0.3344030599999996
  0
LWPOLYLINE
  5
CC
330
1F
100
AcDbEntity
  8
0
  6
K5LT32769
 62
    30
420
 16744448
100
AcDbPolyline
 90
        7
 70
     0
 43
0.18
 10
118.10319265
 20
212.68320798
 42
-0.2294723700000005
 10
119.95330806
 20
209.9762647
 42
-0.2294723700000005
 10
118.9758334
 20
206.84656627
 42
0.1948525300000002
 10
127.28491201
 20
201.35102489
 42
0.20354135
 10
130.35812752
 20
201.6542297
 10
133.24164215
 20
203.32183987
 42
-0.3266324700000002
 10
120.22788519
 20
214.9572237
  0
LWPOLYLINE
  5
CD
330
1F
100
AcDbEntity
  8
0
  6
K5LT32769
 62
    30
420
 16744448
100
AcDbPolyline
 90
       20
 70
     1
 43
0.18
 10
102.6870297
 20
170.72842838
 42
-0.1582840199999999
 10
105.9876063
 20
179.31771551
 42
-0.2289685899999999
 10
106.79551495
 20
183.00707218
 42
-0.2920022599999993
 10
105.86747531
 20
184.52429709
 42
-0.2920022600000012
 10
106.85322936
 20
186.00467473
 42
-0.2927426800000007
 10
105.98499137
 20
187.62688219
 42
-0.2927426799999988
 10
107.09515335
 20
189.09417039
 42
-0.2908856399999996
 10
105.26503233
 20
190.56916828
 42
-0.2908856399999994
 10
105.82344459
 20
192.8523979
 42
-0.3622315700000001
 10
104.68434588
 20
195.74757808
 42
-0.2800337700000004
 10
102.6870297
 20
199.00192856
 42
-0.2800337700000007
 10
100.68971353
 20
195.74757808
 42
-0.3622315700000001
 10
99.55061481999999
 20
192.8523979
 42
-0.2908856399999997
 10
100.10902708
 20
190.56916828
 42
-0.2908856399999998
 10
98.27890606
 20
189.09417039
 42
-0.2927426800000005
 10
99.38906803
 20
187.62688219
 42
-0.2927426799999999
 10
98.52083005
 20
186.00467473
 42
-0.2920022600000009
 10
99.50658409
 20
184.52429709
 42
-0.2920022600000011
 10
98.57854445999999
 20
183.00707218
 42
-0.2289685900000002
 10
99.38645311
 20
179.31771551
 42
-0.15828402
  0
LWPOLYLINE
  5
CE
330
1F
100
AcDbEntity
  8
0
  6
K5LT32769
 62
    30
420
 16744448
100
AcDbPolyline
 90
        3
 70
     1
 43
0.18
 10
128.87559038
 20
144.79883136
 42
0.2721079900000001
 10
125.75837008
 20
150.88818321
 42
0.26271149
 10
134.14022227
 20
158.3268753
 42
-0.2061846900000001
  0
LWPOLYLINE
  5
CF
330
1F
100
AcDbEntity
  8
0
  6
K5LT32769
 62
    30
420
 16744448
100
AcDbPolyline
 90
       11
 70
     1
 43
0.18
 10
121.4297618
 20
141.75486931
 42
-0.2752432199999995
 10
121.08557642
 20
144.30316914
 42
-0.2752432200000008
 10
123.16233974
 20
145.81952983
 42
-0.2752432199999995
 10
125.48479566
 20
144.71567559
 42
-0.2752432199999995
 10
125.6203432
 20
142.14781218
 42
0.3284802799999996
 10
134.23171278
 20
142.14875936
 42
0.0760077900000003
 10
139.04719423
 20
145.81266048
 10
139.36380909
 20
141.81566519
 10
141.4696544
 20
143.0888919
 42
-0.2100025299999999
 10
136.20448922
 20
137.08644948
 42
-0.2100025299999999
 10
128.22211733
 20
136.90474006
 42
-0.1246937499999999
  0
LWPOLYLINE
  5
D0
330
1F
100
AcDbEntity
  8
0
  6
K5LT32769
 62
    30
420
 16744448
100
AcDbPolyline
 90
       15
 70
     1
 43
0.18
 10
106.79019119
 20
150.35221626
 42
0.1867144999999997
 10
105.26073608
 20
154.9774513
 42
0.2483537899999998
 10
106.38321238
 20
157.26653685
 42
0.2483537899999996
 10
105.12127588
 20
159.48179799
 42
0.2057032600000003
 10
108.69837393
 20
159.09441568
 42
0.2057032600000003
 10
111.44187968
 20
161.42226271
 42
0.2809518699999997
 10
113.44235157
 20
152.09838548
 42
0.2682489600000005
 10
116.04559625
 20
155.02388778
 42
0.2066232400000002
 10
122.04234766
 20
151.07678293
 42
0.3183653299999997
 10
115.99910641
 20
146.80461864
 42
0.2598129899999999
 10
113.90937812
 20
149.60938687
 42
0.2598129900000005
 10
110.42472842
 20
149.30788131
 42
0.2414540400000001
 10
110.04736601
 20
148.24151578
 42
0.2414540399999995
 10
110.69310368
 20
147.31277433
 42
-0.2031921900000002
 10
108.09745996
 20
148.00530155
 42
-0.2031921900000001
  0
LWPOLYLINE
  5
D1
330
1F
100
AcDbEntity
  8
0
  6
K5LT32769
 62
    30
420
 16744448
100
AcDbPolyline
 90
        7
 70
     1
 43
0.18
 10
109.90209703
 20
139.01159017
 42
-0.2632137100000009
 10
104.47539756
 20
147.04251272
 42
0.15557
 10
110.42472842
 20
142.58534964
 42
0.3475663100000012
 10
115.16800403
 20
144.03091472
 42
0.2001039199999998
 10
115.52977779
 20
138.32896085
 42
0.1743662200000001
 10
104.5557938
 20
129.41463878
 42
0.2240101600000001
 10
104.95776568
 20
135.91968572
 42
0.3425176799999998
  0
LWPOLYLINE
  5
D2
330
1F
100
AcDbEntity
  8
0
  6
K5LT32769
 62
    30
420
 16744448
100
AcDbPolyline
 90
        4
 70
     1
 43
0.18
 10
102.6870297
 20
103.81791138
 10
126.77707919
 20
103.81791138
 42
-0.3104915700000002
 10
102.6870297
 20
122.29315921
 42
-0.3104915700000002
 10
78.59698021
 20
103.81791138
  0
LWPOLYLINE
  5
D3
330
1F
100
AcDbEntity
  8
0
  6
K5LT32769
 62
    30
420
 16744448
100
AcDbPolyline
 90
       13
 70
     1
 43
0.18
 10
125.51531991
 20
114.78778868
 42
-0.2227386799999996
 10
125.12289692
 20
112.48183787
 42
-0.2227386800000001
 10
123.09950513
 20
111.30825762
 42
-0.2886365500000002
 10
113.8479871
 20
118.73904333
 42
-0.2886365499999998
 10
116.55192129
 20
130.293086
 42
-0.2102884999999999
 10
117.4297648
 20
136.14638099
 42
0.2148093499999997
 10
128.31859581
 20
129.56989231
 42
0.2148093500000004
 10
140.4596662
 20
133.36610802
 42
-0.2939643399999998
 10
140.94621089
 20
127.8448092
 42
-0.2939643400000001
 10
136.12257867
 20
125.11460068
 42
-0.0022559600000001
 10
133.85913946
 20
125.12481319
 42
0.10138962
 10
127.14458624
 20
125.00189533
 42
0.30490313
 10
123.32422927
 20
120.17544915
 42
0.0684339199999998
  0
LWPOLYLINE
  5
D4
330
1F
100
AcDbEntity
  8
0
  6
K5LT32769
 62
    30
420
 16744448
100
AcDbPolyline
 90
       12
 70
     1
 43
0.18
 10
144.26198567
 20
116.92817806
 42
0.3259820500000005
 10
142.24546227
 20
136.03736508
 42
0.0665088999999999
 10
144.28742245
 20
142.30495071
 10
145.15307344
 20
140.14313131
 10
146.55687104
 20
142.4842419
 42
0.1624298999999998
 10
149.04016356
 20
126.87555054
 42
0.1495565000000004
 10
150.09356089
 20
128.90544608
 42
0.1431374000000002
 10
156.08862769
 20
123.787888
 42
0.1284208099999998
 10
156.41562947
 20
126.12890061
 42
0.0190728199999999
 10
158.43215287
 20
124.8767324
 42
-0.0468538200000001
 10
147.36852122
 20
114.75049334
 10
147.91352729
 20
119.3236333
  0
LWPOLYLINE
  5
D5
330
1F
100
AcDbEntity
  8
0
  6
K5LT32769
 62
    30
420
 16744448
100
AcDbPolyline
 90
        5
 70
     1
 43
0.18
 10
108.223558
 20
163.49790841
 42
-0.0946174699999999
 10
115.72864632
 20
175.16668046
 42
-0.0709918100000003
 10
112.88398025
 20
174.9248425
 42
-0.0483524200000002
 10
118.08912005
 20
186.83545658
 42
0.12830826
 10
106.77096236
 20
166.82320782
 42
0.01471631
  0
LWPOLYLINE
  5
D6
330
1F
100
AcDbEntity
  8
0
  6
K5LT32769
 62
    30
420
 16744448
100
AcDbPolyline
 90
       10
 70
     1
 43
0.18
 10
115.72380654
 20
161.12857012
 42
-0.0198343899999999
 10
116.05760263
 20
167.42227678
 10
114.03394055
 20
166.56783576
 42
-0.1097441500000005
 10
116.75757482
 20
170.69264363
 42
0.3286040299999996
 10
121.35746256
 20
159.93077106
 42
0.2056446299999996
 10
125.02817252
 20
159.21370853
 42
0.2056446300000002
 10
128.07573251
 20
161.38181102
 42
-0.2575968399999984
 10
125.48083259
 20
158.21478822
 42
-0.2575968400000007
 10
121.41798777
 20
158.72157313
 42
-0.1236634999999997
 10
117.12072606
 20
162.71192996
  0
LWPOLYLINE
  5
D7
330
1F
100
AcDbEntity
  8
0
  6
K5LT32769
 62
    30
420
 16744448
100
AcDbPolyline
 90
       11
 70
     1
 43
0.18
 10
120.08405988
 20
167.3597586
 42
0.3170690599999998
 10
123.6724051
 20
164.25458542
 42
0.2821224800000022
 10
125.40589784
 20
165.25627974
 42
0.2821224800000009
 10
125.29967967
 20
167.25555618
 42
-0.3837245299999997
 10
134.08239618
 20
162.53174058
 42
-0.2303420099999992
 10
137.04747976
 20
169.56735309
 42
-0.3420878800000001
 10
123.96253147
 20
176.05340737
 42
-0.1558633399999999
 10
123.46183733
 20
172.78568201
 42
-0.3372517600000043
 10
122.87905685
 20
172.13151512
 42
-0.337251760000003
 10
122.09325846
 20
172.51892742
 42
-0.2093782199999999
 10
120.12383917
 20
177.08707426
 42
0.15918312
  0
LWPOLYLINE
  5
D8
330
1F
100
AcDbEntity
  8
0
  6
K5LT32769
 62
    30
420
 16744448
100
AcDbPolyline
 90
       22
 70
     1
 43
0.18
 10
132.06896279
 20
177.69992229
 42
0.2221096300000002
 10
135.75994929
 20
177.4432279
 42
0.2221096299999985
 10
138.32489388
 20
180.10974858
 42
0.2431941700000019
 10
137.94099412
 20
181.28267835
 42
0.2431941699999979
 10
136.76204427
 20
181.6476722
 42
-0.2882740300000008
 10
137.77639206
 20
183.63350409
 42
-0.2882740299999983
 10
140.00563874
 20
183.57975474
 42
-0.2103007000000001
 10
143.31878511
 20
178.40760995
 42
-0.2103006999999999
 10
141.74327897
 20
172.47079254
 42
-0.0311989399999999
 10
147.04887218
 20
173.74369263
 42
-0.412016219999999
 10
150.52415263
 20
178.92787608
 10
150.10712158
 20
180.01563041
 42
0.2047681299999999
 10
152.17654753
 20
181.72619044
 42
-0.2450137900000004
 10
141.30307281
 20
186.35038848
 42
0.2491694899999996
 10
137.87308395
 20
187.6187511
 42
0.2491694900000001
 10
134.90226468
 20
185.48619392
 42
-0.2241121899999999
 10
136.47611191
 20
194.60280205
 42
-0.2241121899999997
 10
144.51402666
 20
199.18335499
 42
0.1825206500000002
 10
137.18888519
 20
198.72733929
 42
0.2978576300000001
 10
135.0299791
 20
194.72971936
 42
-0.4143837700000003
 10
132.18414962
 20
196.06942037
 42
0.1347272799999999
 10
128.68410251
 20
186.29845262
 42
0.2449925399999996
  0
LWPOLYLINE
  5
D9
330
1F
100
AcDbEntity
  8
0
  6
K5LT32769
 62
    30
420
 16744448
100
AcDbPolyline
 90
       11
 70
     1
 43
0.18
 10
156.68107294
 20
183.58311071
 42
0.2183437000000006
 10
158.00846333
 20
187.94068058
 42
0.2183436999999994
 10
155.57261377
 20
191.78996848
 42
-0.3587821899999992
 10
155.29214543
 20
194.45577351
 42
-0.3587821900000014
 10
157.85474817
 20
195.24205981
 42
-0.2199780500000001
 10
171.67794018
 20
179.80535162
 42
-0.0193893100000001
 10
167.64829053
 20
182.60016712
 42
-0.253728799999999
 10
165.56952008
 20
186.05355265
 42
0.1672004599999995
 10
163.14901443
 20
185.89236001
 42
0.2050347400000018
 10
162.08492675
 20
184.86605766
 42
0.2050347399999997
 10
162.09299245
 20
183.38770923
 42
0.1626973799999999
  0
LWPOLYLINE
  5
DA
330
1F
100
AcDbEntity
  8
0
  6
K5LT32769
 62
    30
420
 16744448
100
AcDbPolyline
 90
       13
 70
     1
 43
0.18
 10
161.58000341
 20
161.12824759
 42
-0.24595682
 10
165.11180683
 20
165.6961458
 42
-0.2459568200000004
 10
170.87800786
 20
165.39572087
 10
170.87800786
 20
168.15702568
 10
174.99928762
 20
166.04839143
 42
0.1977943200000001
 10
169.6339417
 20
175.13537441
 42
0.222260359999999
 10
167.49756879
 20
175.59449177
 42
0.222260360000001
 10
165.7755273
 20
174.24933339
 42
-0.3828074000000007
 10
163.29194625
 20
178.14791143
 42
0.3143858300000003
 10
157.37074198
 20
177.87533493
 10
158.18497958
 20
176.59473081
 10
156.10172302
 20
176.189912
 42
-0.4097279000000005
 10
156.1519823
 20
170.6673024
 42
-0.1988820499999998
  0
LWPOLYLINE
  5
DB
330
1F
100
AcDbEntity
  8
0
  6
K5LT32769
 62
    30
420
 16744448
100
AcDbPolyline
 90
       19
 70
     1
 43
0.18
 10
163.35712509
 20
130.9173778
 10
167.31520179
 20
136.59026294
 42
0.2604806999999998
 10
166.53312083
 20
141.61523793
 42
-0.1427084399999998
 10
169.90485785
 20
142.10641782
 42
-0.2980879499999983
 10
168.7106973
 20
144.07115368
 42
0.20689359
 10
172.23042779
 20
149.10476281
 42
0.2068935900000003
 10
170.97503619
 20
155.11722617
 42
0.2921963899999994
 10
167.33027958
 20
157.47306709
 42
0.3182820799999987
 10
166.01180965
 20
156.74809315
 42
0.318282079999999
 10
166.25823047
 20
155.26376604
 42
-0.3906774900000025
 10
163.99213251
 20
154.3161826
 42
-0.2495878000000008
 10
161.16493619
 20
157.19090036
 42
0.2269984399999998
 10
161.7652995
 20
151.93497922
 42
0.2269984400000001
 10
166.23552072
 20
149.10615167
 42
-0.3131685900000001
 10
160.33608617
 20
144.96637258
 42
-0.11316182
 10
154.72918856
 20
146.37876583
 42
-0.09896138
 10
156.9068488
 20
142.28680725
 42
-0.2027300400000002
 10
151.14249072
 20
145.07355944
 42
0.2506914000000001
 10
155.09678867
 20
134.61334842
 42
0.1037243199999998
  0
LWPOLYLINE
  5
DC
330
1F
100
AcDbEntity
  8
0
  6
K5LT32769
 62
    30
420
 16744448
100
AcDbPolyline
 90
       15
 70
     1
 43
0.18
 10
167.77348268
 20
123.91132395
 10
169.90747319
 20
121.72564941
 42
-0.02427859
 10
175.58978765
 20
121.87194025
 42
0.3638061400000008
 10
180.84164066
 20
126.39430383
 42
-0.2060285100000001
 10
184.35316364
 20
121.79038449
 42
-0.10049765
 10
186.15471692
 20
124.0525645
 42
-0.1002797399999999
 10
186.95060989
 20
119.97138014
 42
0.3371894400000002
 10
186.47308155
 20
137.40916826
 42
0.2533296399999996
 10
185.29015706
 20
138.00397291
 42
0.2533296400000018
 10
184.14544631
 20
137.33858562
 42
0.2533296400000014
 10
184.07686221
 20
136.01631516
 42
0.2533296400000026
 10
185.14659018
 20
135.23606839
 42
-0.3356315000000004
 10
181.1140832
 20
134.28202614
 42
-0.2035185399999994
 10
175.27755651
 20
126.91469534
 42
-0.02610653
 10
178.21466243
 20
125.48455873
 42
-0.26914974
  0
LWPOLYLINE
  5
DD
330
1F
100
AcDbEntity
  8
0
  6
K5LT32769
 62
    30
420
 16744448
100
AcDbPolyline
 90
        8
 70
     1
 43
0.18
 10
153.47784412
 20
108.62888826
 10
154.8161092
 20
111.76528991
 10
152.34546526
 20
112.02237261
 42
0.0598443100000002
 10
162.63980414
 20
120.91741624
 10
167.5810827
 20
120.55749882
 42
0.2260901799999999
 10
163.92659068
 20
113.77053011
 42
0.2450156999999993
 10
161.85760965
 20
113.44325204
 42
0.2450156999999996
 10
160.94123585
 20
111.55962456
 42
-0.10063429
  0
LWPOLYLINE
  5
DE
330
1F
100
AcDbEntity
  8
0
  6
K5LT32769
 62
    30
420
 16744448
100
AcDbPolyline
 90
        6
 70
     1
 43
0.18
 10
181.63841781
 20
105.79952915
 42
-0.3391409500000001
 10
168.25021059
 20
107.49772681
 42
-0.3868053600000003
 10
161.86772849
 20
107.60055744
 42
-0.0292876099999999
 10
147.2497697
 20
103.81791138
 10
188.4271066
 20
103.81791138
 42
0.2280442899999998
 10
185.50944851
 20
106.44176725
 42
0.22804429
  0
LWPOLYLINE
  5
DF
330
1F
100
AcDbEntity
  8
0
  6
K5LT32769
 62
    30
420
 16744448
100
AcDbPolyline
 90
        7
 70
     1
 43
0.18
 10
197.40051986
 20
103.81791138
 42
-0.4016263899999994
 10
195.18534589
 20
107.8583706
 42
-0.4016263900000005
 10
199.12645153
 20
110.24583636
 42
0.3369622
 10
186.27280762
 20
114.14770096
 10
189.36131497
 20
112.78658626
 10
185.81861262
 20
111.06250845
 42
-0.2630605899999998
 10
191.31993782
 20
103.81791138
  0
LWPOLYLINE
  5
E0
330
1F
100
AcDbEntity
  8
0
  6
K5LT32769
 62
    30
420
 16744448
100
AcDbPolyline
 90
        2
 70
     0
 43
0.18
 10
100.6870297
 20
59.58961364973268
 10
100.6870297
 20
43.37974171026732
  0
SPLINE
  5
E1
330
1F
100
AcDbEntity
  8
0
  6
K5LT32769
 62
    30
420
 16744448
370
    18
100
AcDbSpline
210
0.0
220
0.0
230
1.0
 70
     8
 71
     3
 72
    11
 73
     7
 74
     0
 42
0.0
 43
0.0
 12
1.0
 22
0.0
 32
0.0
 13
1.0
 23
0.0
 33
0.0
 40
0.0
 40
0.0
 40
0.0
 40
0.0
 40
1.0
 40
1.0
 40
1.0
 40
2.0
 40
2.0
 40
2.0
 40
2.0
 10
85.14617421
 20
214.9572237
 30
0.0
 10
85.3664512825473
 20
214.4682250219795
 30
0.0
 10
85.64882249950398
 20
214.0368473799963
 30
0.0
 10
85.99328786087003
 20
213.6630907740503
 30
0.0
 10
86.35186244859462
 20
213.274025178732
 30
0.0
 10
86.77772208163793
 20
212.9473975807152
 30
0.0
 10
87.27086675999999
 20
212.68320798
 30
0.0
  0
SPLINE
  5
E2
330
1F
100
AcDbEntity
  8
0
  6
K5LT32769
 62
    30
420
 16744448
370
    18
100
AcDbSpline
210
0.0
220
0.0
230
1.0
 70
     8
 71
     3
 72
    11
 73
     7
 74
     0
 42
0.0
 43
0.0
 12
1.0
 22
0.0
 32
0.0
 13
1.0
 23
0.0
 33
0.0
 40
0.0
 40
0.0
 40
0.0
 40
0.0
 40
1.0
 40
1.0
 40
1.0
 40
2.0
 40
2.0
 40
2.0
 40
2.0
 10
120.22788519
 20
214.9572237
 30
0.0
 10
120.0642856080548
 20
214.3404598766647
 30
0.0
 10
119.7846890657675
 20
213.8364390194375
 30
0.0
 10
119.389095563138
 20
213.4451611283185
 30
0.0
 10
119.0471366969325
 20
213.1069327622584
 30
0.0
 10
118.6185023925531
 20
212.8529483794856
 30
0.0
 10
118.10319265
 20
212.68320798
 30
0.0
  0
LWPOLYLINE
  5
E3
330
1F
100
AcDbEntity
  8
0
  6
K5LT32769
 62
    30
420
 16744448
100
AcDbPolyline
 90
       19
 70
     0
 43
0.18
 10
176.6292349402673
 20
-75.29452040260935
 10
198.08417091
 20
-75.29452040260936
 10
197.24330766
 20
-102.3183106526094
 42
-0.1443633800000002
 10
193.902871
 20
-112.5234966426094
 42
-0.2484142400000001
 10
149.96941744
 20
-125.5220855026094
 42
-0.1588705899999998
 10
128.67369396
 20
-137.4247587526094
 10
132.22297655
 20
-141.0968619926094
 10
127.40608971
 20
-141.0968619926093
 42
-0.2335659300000001
 10
122.20383648
 20
-161.6867340626094
 42
-0.2335659300000002
 10
102.68917091
 20
-170.0643291026093
 42
-0.23356593
 10
83.17450534
 20
-161.6867340626094
 42
-0.2335659299999999
 10
77.97225211
 20
-141.0968619926094
 10
73.15536527
 20
-141.0968619926094
 10
76.70464785999997
 20
-137.4247587526094
 42
-0.1588705900000001
 10
55.40892437999997
 20
-125.5220855026094
 42
-0.24841424
 10
11.47547081999998
 20
-112.5234966426094
 42
-0.14436338
 10
8.135034159999991
 20
-102.3183106526094
 10
7.294170909999991
 20
-75.29452040260936
 10
28.7491068797327
 20
-75.29452040260935
  0
LWPOLYLINE
  5
E4
330
1F
100
AcDbEntity
  8
0
  6
K5LT32769
 62
    30
420
 16744448
100
AcDbPolyline
 90
        7
 70
     1
 43
0.18
 10
367.8583533779593
 20
14.29411297999997
 10
349.0792331579593
 20
14.29411298000002
 42
0.1360577199999998
 10
353.8621949879594
 20
20.18830015999999
 42
-0.0582867199999998
 10
356.9043148879593
 20
24.06924915000004
 42
-0.2533290199999996
 10
359.0667856579594
 20
24.61843993000002
 42
-0.1063132299999991
 10
362.3181240179593
 20
22.88191953999997
 42
0.2146779699999999
 10
363.1555549579593
 20
17.34118901999998
 42
0.2146779700000001
  0
LWPOLYLINE
  5
E5
330
1F
100
AcDbEntity
  8
0
  6
K5LT32769
 62
    30
420
 16744448
100
AcDbPolyline
 90
        8
 70
     1
 43
0.18
 10
373.5537259479593
 20
27.73509770999999
 42
-0.1582922
 10
374.3001600479593
 20
23.97459206
 42
-0.3818615199999997
 10
367.9588905579593
 20
20.03338260999998
 42
-0.3475462899999993
 10
366.6020868879593
 20
22.68480212999998
 42
-0.3475462899999997
 10
368.8688720979594
 20
24.61680277999995
 42
0.2227136200000006
 10
366.0055038379593
 20
26.39615870999998
 42
0.2227136199999999
 10
362.8060017979593
 20
25.33400428000004
 42
0.38371752
 10
346.7314266279593
 20
31.23098810000007
 42
-0.3884532699999999
  0
LWPOLYLINE
  5
E6
330
1F
100
AcDbEntity
  8
0
  6
K5LT32769
 62
    30
420
 16744448
100
AcDbPolyline
 90
       12
 70
     1
 43
0.18
 10
338.6119465079593
 20
39.98792259000003
 42
-0.08885716
 10
338.6621220179593
 20
31.65086794000004
 42
0.2004981100000001
 10
335.2204222179594
 20
40.38232239000003
 42
0.2359708500000003
 10
329.6551188179593
 20
42.40769840000002
 42
-0.3582578999999998
 10
328.1228622179594
 20
33.70879113000002
 42
0.1740351399999998
 10
324.9756631879593
 20
29.58016186000001
 42
-0.3124415799999988
 10
324.3329307279593
 20
35.99564281000004
 42
0.3727717399999995
 10
322.7957971179593
 20
44.50588913000003
 42
0.2889840199999989
 10
323.9421368879593
 20
48.01240267000005
 42
-0.28920138
 10
332.6772280679593
 20
48.89682694000004
 42
0.2946650499999993
 10
331.9886665979593
 20
45.42497541000003
 42
-0.13377943
 10
335.7921401679593
 20
44.83541503000001
 42
-0.12596558
  0
LWPOLYLINE
  5
E7
330
1F
100
AcDbEntity
  8
0
  6
K5LT32769
 62
    30
420
 16744448
100
AcDbPolyline
 90
        5
 70
     1
 43
0.18
 10
344.3054296879592
 20
14.29411298000005
 42
-0.3414236400000004
 10
342.8611547579593
 20
18.17790761000005
 42
0.3304115500000001
 10
340.8804271279593
 20
21.76411520000005
 42
0.2441538399999991
 10
338.8584403579594
 20
21.39312961000005
 42
-0.08904819
 10
324.6219774479593
 20
14.29411298000002
  0
LWPOLYLINE
  5
E8
330
1F
100
AcDbEntity
  8
0
  6
K5LT32769
 62
    30
420
 16744448
100
AcDbPolyline
 90
        6
 70
     1
 43
0.18
 10
315.7380257179593
 20
14.29411298000004
 42
-0.0841416399999999
 10
307.4864660579593
 20
18.25616455000005
 42
-0.1920205499999998
 10
303.8917267379593
 20
17.52166470000003
 42
0.2258043100000005
 10
304.2262581079593
 20
21.06251772000003
 42
-0.06847158
 10
300.0472732379593
 20
28.74316616000004
 10
300.0472732379593
 20
14.29411298000002
  0
LWPOLYLINE
  5
E9
330
1F
100
AcDbEntity
  8
0
  6
K5LT32769
 62
    30
420
 16744448
100
AcDbPolyline
 90
       18
 70
     1
 43
0.18
 10
332.5042244579593
 20
25.85361600000005
 42
0.1286515699999999
 10
328.6107123179593
 20
25.17366492000007
 42
-0.3563832700000013
 10
325.5292784879593
 20
26.59695078000003
 42
-0.3205621599999998
 10
318.5640027779593
 20
28.23643124000005
 42
0.0318618800000004
 10
318.0751009579593
 20
26.53404066000003
 42
-0.2632580000000004
 10
315.4183952979593
 20
29.03063222000003
 42
-0.16222153
 10
310.8331106679593
 20
26.19984825000002
 42
0.0989040599999999
 10
311.9406391079593
 20
30.52447507000004
 42
-0.2096433199999997
 10
305.6941548979594
 20
29.97959152000004
 42
0.19294344
 10
308.9375632279594
 20
25.16269066000002
 42
0.28261364
 10
315.8566190079593
 20
26.44140450000003
 42
-0.2967070400000003
 10
317.1315201579593
 20
22.08200544000004
 42
-0.20992698
 10
319.6592796679593
 20
22.28654129000005
 42
-0.2099269799999989
 10
321.5201234579593
 20
20.56356032000003
 42
-0.20363477
 10
323.6438538979593
 20
21.21708276000004
 42
-0.2036347699999995
 10
325.5884727579593
 20
20.14201066000005
 42
0.1216337700000006
 10
332.9126276579593
 20
23.51457941000004
 42
0.2518292700000004
 10
333.3373489679593
 20
24.79390964000002
 42
0.2518292700000017
  0
LWPOLYLINE
  5
EA
330
1F
100
AcDbEntity
  8
0
  6
K5LT32769
 62
    30
420
 16744448
100
AcDbPolyline
 90
       19
 70
     1
 43
0.18
 10
320.1416881879593
 20
76.28876072000006
 42
0.29639737
 10
307.6961868779593
 20
56.46305400000004
 42
0.1762525900000003
 10
310.8952274179593
 20
52.02072332000002
 42
-0.35033454
 10
306.8342029579593
 20
50.91815701000004
 42
-0.325936080000001
 10
304.7006498879593
 20
44.90047671999999
 42
0.0801927799999998
 10
304.7424860879594
 20
32.75312805000004
 42
0.1357475999999999
 10
306.7505305579594
 20
35.00975969000003
 42
0.05921634
 10
307.6708896979594
 20
40.26185047000005
 42
-0.3975661200000001
 10
315.5357414079593
 20
46.53026488000004
 42
-0.2531140600000011
 10
316.4973140979593
 20
49.24090484000003
 42
-0.2531140599999999
 10
319.2921946279593
 20
49.91975228000003
 42
-0.20021874
 10
322.9034357479592
 20
52.97213632000005
 42
0.0210952199999999
 10
317.5884328779593
 20
54.39658575000003
 42
-0.3148702199999999
 10
313.0406472679594
 20
58.91416851000002
 42
0.0455571900000002
 10
315.4149422979593
 20
58.81442438000002
 42
-0.2195027299999997
 10
311.5664494379594
 20
65.20435997000001
 42
-0.1580236800000002
 10
314.5209413479593
 20
64.52909582000004
 42
-0.3025817099999999
 10
314.6042600779593
 20
71.19541706000003
 42
0.1767700800000002
 10
317.4003887079593
 20
68.89519457000002
 42
-0.2518686799999993
  0
LWPOLYLINE
  5
EB
330
1F
100
AcDbEntity
  8
0
  6
K5LT32769
 62
    30
420
 16744448
100
AcDbPolyline
 90
        2
 70
     0
 43
0.18
 10
288.4156928379593
 20
61.83467768000003
 10
290.1706288076921
 20
61.83467768000003
  0
LWPOLYLINE
  5
EC
330
1F
100
AcDbEntity
  8
0
  6
K5LT32769
 62
    30
420
 16744448
100
AcDbPolyline
 90
        2
 70
     0
 43
0.18
 10
288.4156928379593
 20
41.13467768000004
 10
290.1706288076921
 20
41.13467768000004
  0
LWPOLYLINE
  5
ED
330
1F
100
AcDbEntity
  8
0
  6
K5LT32769
 62
    30
420
 16744448
100
AcDbPolyline
 90
       43
 70
     0
 43
0.18
 10
292.4156928379593
 20
64.07974171026736
 10
292.4156928379593
 20
101.51221768
 42
-0.0847988099999999
 10
302.2453722579594
 20
99.90933298000004
 10
302.7684317779593
 20
94.63692268000003
 10
308.6519695079593
 20
95.29635417000001
 42
0.0615518600000001
 10
300.0472732379593
 20
68.15929843999997
 42
-0.1060982899999999
 10
312.6444365879594
 20
93.03073653000004
 42
0.0646074399999999
 10
313.8793723079593
 20
83.19776502000002
 42
0.0567785699999997
 10
307.5713763179593
 20
74.17004224000003
 42
-0.2191442400000005
 10
323.2807247379593
 20
85.19719556000004
 42
0.1162348999999999
 10
326.4953735779593
 20
78.71419921000003
 10
323.5839929679593
 20
77.79245509000003
 42
-0.3029456300000001
 10
333.7131835679593
 20
71.98515974000003
 42
-0.2106636600000008
 10
333.9196591679593
 20
67.69762844000005
 42
-0.2106636600000003
 10
330.8935447579593
 20
64.65325849000004
 42
0.3375896499999996
 10
329.7518110079593
 20
67.87304906000003
 42
0.33758965
 10
326.3445026579594
 20
67.62635675000004
 42
0.24802693
 10
323.4444955379593
 20
58.78664170000004
 42
0.3482275099999999
 10
327.9177205779593
 20
54.12887989000005
 42
-0.09074253
 10
333.3634999579593
 20
53.11760245000005
 42
-0.2292581699999998
 10
336.0550148279593
 20
55.01100153000001
 42
-0.3297508900000015
 10
337.8935831379593
 20
54.15897337000006
 42
-0.0889048100000001
 10
338.2023891979593
 20
51.15451600000003
 42
0.1473997399999996
 10
338.6925661179594
 20
49.56317450000002
 42
-0.16222151
 10
343.5940002379593
 20
39.53375635000003
 42
-0.2251278700000003
 10
349.5530478879593
 20
47.12046215999998
 42
0.0694124
 10
350.0983145679593
 20
42.84078165000001
 42
-0.2737225300000001
 10
360.9615512879593
 20
48.32679405000003
 42
-0.1024925500000005
 10
357.0363199579593
 20
44.18412442000005
 42
0.01810511
 10
362.6046668379594
 20
45.21757084
 42
0.08494445
 10
362.2202857079593
 20
42.95310452999998
 42
-0.3174300599999996
 10
377.2638568579593
 20
43.04272357999999
 42
0.0970531499999994
 10
374.6155742779594
 20
41.14131018999996
 42
-0.2580553300000001
 10
384.8776727579593
 20
32.35670732999999
 42
-0.2014445900000005
 10
382.3673239879593
 20
32.71494267999996
 42
-0.2290299399999999
 10
386.0358792979594
 20
21.69350512999999
 42
0.207987099999999
 10
382.4220786779593
 20
23.87048762999996
 42
-0.3971596999999994
 10
379.3875814379593
 20
15.30035646999998
 42
0.1034598600000003
 10
378.3283949879593
 20
17.72437417999996
 42
-0.1377631799999998
 10
374.1667495779593
 20
14.29411297999997
 10
379.2976173279593
 20
14.29411297999998
 42
0.1921099400000004
 10
381.6156928379593
 20
8.35467767999998
 10
353.8607568682265
 20
8.354677680000032
  0
ARC
  5
EE
330
1F
100
AcDbEntity
  8
0
  6
K5LT32769
 62
    30
420
 16744448
370
    18
100
AcDbCircle
 10
173.2573564848663
 20
97.49012911486636
 30
0.0
 40
1.587500000000009
100
AcDbArc
 50
326.4451007451987
 51
135.0000000000004
  0
ARC
  5
EF
330
1F
100
AcDbEntity
  8
0
  6
K5LT32769
 62
    30
420
 16744448
370
    18
100
AcDbCircle
 10
155.5024205151336
 20
97.49012911486635
 30
0.0
 40
1.587500000000009
100
AcDbArc
 50
45.00000000000036
 51
213.5548992548027
  0
ARC
  5
F0
330
1F
100
AcDbEntity
  8
0
  6
K5LT32769
 62
    30
420
 16744448
370
    18
100
AcDbCircle
 10
155.5024205151337
 20
95.73519314513365
 30
0.0
 40
1.587500000000009
100
AcDbArc
 50
146.4451007451991
 51
315.0000000000003
  0
ARC
  5
F1
330
1F
100
AcDbEntity
  8
0
  6
K5LT32769
 62
    30
420
 16744448
370
    18
100
AcDbCircle
 10
173.2573564848664
 20
95.73519314513365
 30
0.0
 40
1.587500000000009
100
AcDbArc
 50
225.0000000000004
 51
33.5548992548031
  0
ARC
  5
F2
330
1F
100
AcDbEntity
  8
0
  6
K5LT32769
 62
    30
420
 16744448
370
    18
100
AcDbCircle
 10
49.87163889486638
 20
95.73519314513365
 30
0.0
 40
1.587500000000009
100
AcDbArc
 50
225.0000000000004
 51
33.5548992548031
  0
ARC
  5
F3
330
1F
100
AcDbEntity
  8
0
  6
K5LT32769
 62
    30
420
 16744448
370
    18
100
AcDbCircle
 10
32.11670292513364
 20
97.49012911486635
 30
0.0
 40
1.587500000000009
100
AcDbArc
 50
45.00000000000036
 51
213.5548992548026
  0
ARC
  5
F4
330
1F
100
AcDbEntity
  8
0
  6
K5LT32769
 62
    30
420
 16744448
370
    18
100
AcDbCircle
 10
32.11670292513367
 20
95.73519314513365
 30
0.0
 40
1.587500000000009
100
AcDbArc
 50
146.4451007451993
 51
315.0000000000003
  0
ARC
  5
F5
330
1F
100
AcDbEntity
  8
0
  6
K5LT32769
 62
    30
420
 16744448
370
    18
100
AcDbCircle
 10
49.87163889486635
 20
97.49012911486636
 30
0.0
 40
1.587500000000009
100
AcDbArc
 50
326.4451007451987
 51
135.0000000000004
  0
ARC
  5
F6
330
1F
100
AcDbEntity
  8
0
  6
K5LT32769
 62
    30
420
 16744448
370
    18
100
AcDbCircle
 10
103.5644976848663
 20
60.71214566486636
 30
0.0
 40
1.587500000000009
100
AcDbArc
 50
315.0000000000003
 51
123.5548992548026
  0
ARC
  5
F7
330
1F
100
AcDbEntity
  8
0
  6
K5LT32769
 62
    30
420
 16744448
370
    18
100
AcDbCircle
 10
101.8095617151336
 20
60.71214566486634
 30
0.0
 40
1.587500000000009
100
AcDbArc
 50
56.44510074519863
 51
225.0000000000004
  0
ARC
  5
F8
330
1F
100
AcDbEntity
  8
0
  6
K5LT32769
 62
    30
420
 16744448
370
    18
100
AcDbCircle
 10
103.5644976848664
 20
42.25720969513365
 30
0.0
 40
1.587500000000009
100
AcDbArc
 50
236.445100745198
 51
45.00000000000036
  0
ARC
  5
F9
330
1F
100
AcDbEntity
  8
0
  6
K5LT32769
 62
    30
420
 16744448
370
    18
100
AcDbCircle
 10
101.8095617151337
 20
42.25720969513365
 30
0.0
 40
1.587500000000009
100
AcDbArc
 50
135.0000000000004
 51
303.554899254802
  0
ARC
  5
FA
330
1F
100
AcDbEntity
  8
0
  6
K5LT32769
 62
    30
420
 16744448
370
    18
100
AcDbCircle
 10
52.11670292513365
 20
-74.17198838747572
 30
0.0
 40
1.587500000000009
100
AcDbArc
 50
135.0000000000004
 51
315.0000000000003
  0
ARC
  5
FB
330
1F
100
AcDbEntity
  8
0
  6
K5LT32769
 62
    30
420
 16744448
370
    18
100
AcDbCircle
 10
175.5067029251337
 20
-74.17198838747572
 30
0.0
 40
1.587500000000009
100
AcDbArc
 50
135.0000000000004
 51
315.0000000000003
  0
ARC
  5
FC
330
1F
100
AcDbEntity
  8
0
  6
K5LT32769
 62
    30
420
 16744448
370
    18
100
AcDbCircle
 10
291.2931608228257
 20
40.0121456648664
 30
0.0
 40
1.587500000000009
100
AcDbArc
 50
315.0000000000003
 51
135.0000000000004
  0
ARC
  5
FD
330
1F
100
AcDbEntity
  8
0
  6
K5LT32769
 62
    30
420
 16744448
370
    18
100
AcDbCircle
 10
337.4931608228256
 20
7.232145664866394
 30
0.0
 40
1.587500000000009
100
AcDbArc
 50
315.0000000000003
 51
135.0000000000004
  0
ARC
  5
FE
330
1F
100
AcDbEntity
  8
0
  6
K5LT32769
 62
    30
420
 16744448
370
    18
100
AcDbCircle
 10
352.738224853093
 20
7.23214566486638
 30
0.0
 40
1.587500000000009
100
AcDbArc
 50
45.00000000000036
 51
225.0000000000004
  0
ARC
  5
FF
330
1F
100
AcDbEntity
  8
0
  6
K5LT32769
 62
    30
420
 16744448
370
    18
100
AcDbCircle
 10
291.2931608228257
 20
62.95720969513367
 30
0.0
 40
1.587500000000009
100
AcDbArc
 50
225.0000000000004
 51
45.00000000000036
  0
ARC
  5
100
330
1F
100
AcDbEntity
  8
0
  6
K5LT32769
 62
    30
420
 16744448
370
    18
100
AcDbCircle
 10
153.2616388948664
 20
-74.17198838747572
 30
0.0
 40
1.587500000000009
100
AcDbArc
 50
225.0000000000004
 51
45.00000000000036
  0
ARC
  5
101
330
1F
100
AcDbEntity
  8
0
  6
K5LT32769
 62
    30
420
 16744448
370
    18
100
AcDbCircle
 10
29.87163889486635
 20
-74.17198838747572
 30
0.0
 40
1.587500000000009
100
AcDbArc
 50
225.0000000000004
 51
45.00000000000036
  0
ARC
  5
102
330
1F
100
AcDbEntity
  8
0
  6
K5LT32769
 62
    30
420
 16744448
370
    18
100
AcDbCircle
 10
103.5666388948664
 20
-133.3719883874757
 30
0.0
 40
1.587500000000009
100
AcDbArc
 50
236.4451007451977
 51
45.00000000000036
  0
ARC
  5
103
330
1F
100
AcDbEntity
  8
0
  6
K5LT32769
 62
    30
420
 16744448
370
    18
100
AcDbCircle
 10
101.8117029251336
 20
-122.617052417743
 30
0.0
 40
1.587500000000009
100
AcDbArc
 50
56.44510074519848
 51
225.0000000000004
  0
ARC
  5
104
330
1F
100
AcDbEntity
  8
0
  6
K5LT32769
 62
    30
420
 16744448
370
    18
100
AcDbCircle
 10
101.8117029251337
 20
-133.3719883874757
 30
0.0
 40
1.587500000000009
100
AcDbArc
 50
135.0000000000004
 51
303.5548992548022
  0
ARC
  5
105
330
1F
100
AcDbEntity
  8
0
  6
K5LT32769
 62
    30
420
 16744448
370
    18
100
AcDbCircle
 10
103.5666388948663
 20
-122.617052417743
 30
0.0
 40
1.587500000000009
100
AcDbArc
 50
315.0000000000003
 51
123.5548992548027
  0
LINE
  5
106
330
1F
100
AcDbEntity
  8
0
  6
K5LT32769
 62
    30
420
 16744448
370
    18
100
AcDbLine
 10
172.1348244697327
 20
98.61266113000002
 30
0.0
 11
156.6249525302672
 21
98.61266113
 31
0.0
  0
LINE
  5
107
330
1F
100
AcDbEntity
  8
0
  6
K5LT32769
 62
    30
420
 16744448
370
    18
100
AcDbLine
 10
156.6249525302673
 20
94.61266113
 30
0.0
 11
172.1348244697327
 21
94.61266113
 31
0.0
  0
LWPOLYLINE
  5
108
330
1F
100
AcDbEntity
  8
0
  6
K5LT32769
 62
    30
420
 16744448
100
AcDbPolyline
 90
        2
 70
     0
 43
0.18
 10
48.74910687973273
 20
94.61266113
 10
33.23923494026731
 20
94.61266113
  0
LWPOLYLINE
  5
109
330
1F
100
AcDbEntity
  8
0
  6
K5LT32769
 62
    30
420
 16744448
100
AcDbPolyline
 90
        2
 70
     0
 43
0.18
 10
33.23923494026728
 20
98.61266113
 10
48.74910687973274
 20
98.61266113
  0
LWPOLYLINE
  5
10A
330
1F
100
AcDbEntity
  8
0
  6
K5LT32769
 62
    30
420
 16744448
100
AcDbPolyline
 90
        2
 70
     0
 43
0.18
 10
104.6870297
 20
59.58961364973271
 10
104.6870297
 20
43.37974171026729
  0
LWPOLYLINE
  5
10B
330
1F
100
AcDbEntity
  8
0
  6
K5LT32769
 62
    30
420
 16744448
100
AcDbPolyline
 90
        3
 70
     0
 43
0.18
 10
336.370628807692
 20
8.354677680000037
 10
292.4156928379593
 20
8.354677680000037
 10
292.4156928379593
 20
38.88961364973265
  0
LWPOLYLINE
  5
10C
330
1F
100
AcDbEntity
  8
0
  6
K5LT32769
 62
    30
420
 16744448
100
AcDbPolyline
 90
        4
 70
     0
 43
0.18
 10
351.6156928379593
 20
6.109613649732722
 10
351.6156928379593
 20
4.354677680000037
 10
338.6156928379593
 20
4.354677680000037
 10
338.6156928379593
 20
6.109613649732779
  0
LINE
  5
10D
330
1F
100
AcDbEntity
  8
0
  6
K5LT32769
 62
    30
420
 16744448
370
    18
100
AcDbLine
 10
288.4156928379593
 20
61.83467768000003
 30
0.0
 11
288.4156928379593
 21
41.13467768000004
 31
0.0
  0
LWPOLYLINE
  5
10E
330
1F
100
AcDbEntity
  8
0
  6
K5LT32769
 62
    30
420
 16744448
100
AcDbPolyline
 90
        4
 70
     0
 43
0.18
 10
154.38417091
 20
-73.04945637234206
 10
154.38417091
 20
-71.29452040260936
 10
174.38417091
 20
-71.29452040260936
 10
174.38417091
 20
-73.04945637234206
  0
LWPOLYLINE
  5
10F
330
1F
100
AcDbEntity
  8
0
  6
K5LT32769
 62
    30
420
 16744448
100
AcDbPolyline
 90
        2
 70
     0
 43
0.18
 10
53.23923494026731
 20
-75.29452040260936
 10
152.1391068797319
 20
-75.29452040260936
  0
LWPOLYLINE
  5
110
330
1F
100
AcDbEntity
  8
0
  6
K5LT32769
 62
    30
420
 16744448
100
AcDbPolyline
 90
        4
 70
     0
 43
0.18
 10
30.99417090999999
 20
-73.04945637234206
 10
30.99417090999999
 20
-71.29452040260936
 10
50.99417090999999
 20
-71.29452040260936
 10
50.99417090999999
 20
-73.04945637234208
  0
LWPOLYLINE
  5
111
330
1F
100
AcDbEntity
  8
0
  6
K5LT32769
 62
    30
420
 16744448
100
AcDbPolyline
 90
        2
 70
     0
 43
0.18
 10
100.68917091
 20
-123.7395844328767
 10
100.68917091
 20
-132.2494563723421
  0
LWPOLYLINE
  5
112
330
1F
100
AcDbEntity
  8
0
  6
K5LT32769
 62
    30
420
 16744448
100
AcDbPolyline
 90
        2
 70
     0
 43
0.18
 10
104.68917091
 20
-132.2494563723421
 10
104.68917091
 20
-123.7395844328767
  0
ENDSEC
  0
SECTION
  2
OBJECTS
  0
DICTIONARY
  5
C
330
0
100
AcDbDictionary
281
     1
  3
ACAD_GROUP
350
D
  3
ACAD_LAYOUT
350
1A
  3
ACAD_MATERIAL
350
3B
  3
ACAD_MLEADERSTYLE
350
158
  3
ACAD_MLINESTYLE
350
17
  3
ACAD_PLOTSETTINGS
350
19
  3
ACAD_PLOTSTYLENAME
350
E
  3
ACAD_SCALELIST
350
113
  3
ACAD_TABLESTYLE
350
157
  3
ACAD_VISUALSTYLE
350
2A
  3
AcDbVariableDictionary
350
135
  0
DICTIONARY
  5
D
102
{ACAD_REACTORS
330
C
102
}
330
C
100
AcDbDictionary
281
     1
  0
DICTIONARY
  5
1A
102
{ACAD_REACTORS
330
C
102
}
330
C
100
AcDbDictionary
281
     1
  3
Layout1
350
1E
  3
Layout2
350
26
  3
Model
350
22
  0
DICTIONARY
  5
3B
102
{ACAD_REACTORS
330
C
102
}
330
C
100
AcDbDictionary
281
     1
  3
ByBlock
350
3D
  3
ByLayer
350
3C
  3
Global
350
3E
  0
DICTIONARY
  5
158
102
{ACAD_REACTORS
330
C
102
}
330
C
100
AcDbDictionary
281
     1
  0
DICTIONARY
  5
17
102
{ACAD_REACTORS
330
C
102
}
330
C
100
AcDbDictionary
281
     1
  3
Standard
350
18
  0
DICTIONARY
  5
19
102
{ACAD_REACTORS
330
C
102
}
330
C
100
AcDbDictionary
281
     1
  0
ACDBDICTIONARYWDFLT
  5
E
102
{ACAD_REACTORS
330
C
102
}
330
C
100
AcDbDictionary
281
     1
  3
Normal
350
F
100
AcDbDictionaryWithDefault
340
F
  0
DICTIONARY
  5
113
102
{ACAD_REACTORS
330
C
102
}
330
C
100
AcDbDictionary
281
     1
  3
A0
350
114
  3
A1
350
115
  3
A2
350
116
  3
A3
350
117
  3
A4
350
118
  3
A5
350
119
  3
A6
350
11A
  3
A7
350
11B
  3
A8
350
11C
  3
A9
350
11D
  3
B0
350
11E
  3
B1
350
11F
  3
B2
350
120
  3
B3
350
121
  3
B4
350
122
  3
B5
350
123
  3
B6
350
124
  3
B7
350
125
  3
B8
350
126
  3
B9
350
127
  3
C0
350
128
  3
C1
350
129
  3
C2
350
12A
  3
C3
350
12B
  3
C4
350
12C
  3
C5
350
12D
  3
C6
350
12E
  3
C7
350
12F
  3
C8
350
130
  3
C9
350
131
  3
D0
350
132
  3
D1
350
133
  3
D2
350
134
  0
DICTIONARY
  5
157
102
{ACAD_REACTORS
330
C
102
}
330
C
100
AcDbDictionary
281
     1
  0
DICTIONARY
  5
2A
102
{ACAD_REACTORS
330
C
102
}
330
C
100
AcDbDictionary
281
     1
  3
2dWireframe
350
2F
  3
3D Hidden
350
31
  3
3dWireframe
350
30
  3
Basic
350
32
  3
Brighten
350
36
  3
ColorChange
350
3A
  3
Conceptual
350
34
  3
Dim
350
35
  3
Facepattern
350
39
  3
Flat
350
2B
  3
FlatWithEdges
350
2C
  3
Gouraud
350
2D
  3
GouraudWithEdges
350
2E
  3
Linepattern
350
38
  3
Realistic
350
33
  3
Thicken
350
37
  0
DICTIONARY
  5
135
102
{ACAD_REACTORS
330
C
102
}
330
C
100
AcDbDictionary
281
     1
  3
CANNOSCALE
350
136
  0
LAYOUT
  5
1E
102
{ACAD_REACTORS
330
1A
102
}
330
1A
100
AcDbPlotSettings
  1

  2
none_device
  4

  6

 40
0.0
 41
0.0
 42
0.0
 43
0.0
 44
0.0
 45
0.0
 46
0.0
 47
0.0
 48
0.0
 49
0.0
140
0.0
141
0.0
142
1.0
143
1.0
 70
   688
 72
     0
 73
     0
 74
     5
  7

 75
    16
 76
     0
 77
     2
 78
   300
147
1.0
148
0.0
149
0.0
100
AcDbLayout
  1
Layout1
 70
     1
 71
     1
 10
0.0
 20
0.0
 11
420.0
 21
297.0
 12
0.0
 22
0.0
 32
0.0
 14
1.000000000000000E+20
 24
1.000000000000000E+20
 34
1.000000000000000E+20
 15
-1.000000000000000E+20
 25
-1.000000000000000E+20
 35
-1.000000000000000E+20
146
0.0
 13
0.0
 23
0.0
 33
0.0
 16
1.0
 26
0.0
 36
0.0
 17
0.0
 27
1.0
 37
0.0
 76
     0
330
1B
  0
LAYOUT
  5
26
102
{ACAD_REACTORS
330
1A
102
}
330
1A
100
AcDbPlotSettings
  1

  2
none_device
  4

  6

 40
0.0
 41
0.0
 42
0.0
 43
0.0
 44
0.0
 45
0.0
 46
0.0
 47
0.0
 48
0.0
 49
0.0
140
0.0
141
0.0
142
1.0
143
1.0
 70
   688
 72
     0
 73
     0
 74
     5
  7

 75
    16
 76
     0
 77
     2
 78
   300
147
1.0
148
0.0
149
0.0
100
AcDbLayout
  1
Layout2
 70
     1
 71
     2
 10
0.0
 20
0.0
 11
0.0
 21
0.0
 12
0.0
 22
0.0
 32
0.0
 14
0.0
 24
0.0
 34
0.0
 15
0.0
 25
0.0
 35
0.0
146
0.0
 13
0.0
 23
0.0
 33
0.0
 16
1.0
 26
0.0
 36
0.0
 17
0.0
 27
1.0
 37
0.0
 76
     0
330
23
  0
LAYOUT
  5
22
102
{ACAD_REACTORS
330
1A
102
}
330
1A
100
AcDbPlotSettings
  1

  2
none_device
  4

  6

 40
0.0
 41
0.0
 42
0.0
 43
0.0
 44
0.0
 45
0.0
 46
0.0
 47
0.0
 48
0.0
 49
0.0
140
0.0
141
0.0
142
1.0
143
1.0
 70
  1712
 72
     0
 73
     0
 74
     0
  7

 75
     0
 76
     0
 77
     2
 78
   300
147
1.0
148
0.0
149
0.0
100
AcDbLayout
  1
Model
 70
     1
 71
     0
 10
0.0
 20
0.0
 11
420.0
 21
297.0
 12
0.0
 22
0.0
 32
0.0
 14
1.000000000000000E+20
 24
1.000000000000000E+20
 34
1.000000000000000E+20
 15
-1.000000000000000E+20
 25
-1.000000000000000E+20
 35
-1.000000000000000E+20
146
0.0
 13
0.0
 23
0.0
 33
0.0
 16
1.0
 26
0.0
 36
0.0
 17
0.0
 27
1.0
 37
0.0
 76
     0
330
1F
331
29
  0
MATERIAL
  5
3D
102
{ACAD_REACTORS
330
3B
102
}
330
3B
100
AcDbMaterial
  1
ByBlock
 72
     1
 94
      127
  0
MATERIAL
  5
3C
102
{ACAD_REACTORS
330
3B
102
}
330
3B
100
AcDbMaterial
  1
ByLayer
 72
     1
 94
      127
  0
MATERIAL
  5
3E
102
{ACAD_REACTORS
330
3B
102
}
330
3B
100
AcDbMaterial
  1
Global
 72
     1
 94
      127
  0
MLINESTYLE
  5
18
102
{ACAD_REACTORS
330
17
102
}
330
17
100
AcDbMlineStyle
  2
Standard
 70
     0
  3

 62
   256
 51
90.0
 52
90.0
 71
     2
 49
0.5
 62
   256
  6
BYLAYER
 49
-0.5
 62
   256
  6
BYLAYER
  0
ACDBPLACEHOLDER
  5
F
102
{ACAD_REACTORS
330
E
102
}
330
E
  0
SCALE
  5
114
102
{ACAD_REACTORS
330
113
102
}
330
113
100
AcDbScale
 70
     0
300
1:1
140
1.0
141
1.0
290
     1
  0
SCALE
  5
115
102
{ACAD_REACTORS
330
113
102
}
330
113
100
AcDbScale
 70
     0
300
1:2
140
1.0
141
2.0
290
     0
  0
SCALE
  5
116
102
{ACAD_REACTORS
330
113
102
}
330
113
100
AcDbScale
 70
     0
300
1:4
140
1.0
141
4.0
290
     0
  0
SCALE
  5
117
102
{ACAD_REACTORS
330
113
102
}
330
113
100
AcDbScale
 70
     0
300
1:5
140
1.0
141
5.0
290
     0
  0
SCALE
  5
118
102
{ACAD_REACTORS
330
113
102
}
330
113
100
AcDbScale
 70
     0
300
1:8
140
1.0
141
8.0
290
     0
  0
SCALE
  5
119
102
{ACAD_REACTORS
330
113
102
}
330
113
100
AcDbScale
 70
     0
300
1:10
140
1.0
141
10.0
290
     0
  0
SCALE
  5
11A
102
{ACAD_REACTORS
330
113
102
}
330
113
100
AcDbScale
 70
     0
300
1:16
140
1.0
141
16.0
290
     0
  0
SCALE
  5
11B
102
{ACAD_REACTORS
330
113
102
}
330
113
100
AcDbScale
 70
     0
300
1:20
140
1.0
141
20.0
290
     0
  0
SCALE
  5
11C
102
{ACAD_REACTORS
330
113
102
}
330
113
100
AcDbScale
 70
     0
300
1:30
140
1.0
141
30.0
290
     0
  0
SCALE
  5
11D
102
{ACAD_REACTORS
330
113
102
}
330
113
100
AcDbScale
 70
     0
300
1:40
140
1.0
141
40.0
290
     0
  0
SCALE
  5
11E
102
{ACAD_REACTORS
330
113
102
}
330
113
100
AcDbScale
 70
     0
300
1:50
140
1.0
141
50.0
290
     0
  0
SCALE
  5
11F
102
{ACAD_REACTORS
330
113
102
}
330
113
100
AcDbScale
 70
     0
300
1:100
140
1.0
141
100.0
290
     0
  0
SCALE
  5
120
102
{ACAD_REACTORS
330
113
102
}
330
113
100
AcDbScale
 70
     0
300
2:1
140
2.0
141
1.0
290
     0
  0
SCALE
  5
121
102
{ACAD_REACTORS
330
113
102
}
330
113
100
AcDbScale
 70
     0
300
4:1
140
4.0
141
1.0
290
     0
  0
SCALE
  5
122
102
{ACAD_REACTORS
330
113
102
}
330
113
100
AcDbScale
 70
     0
300
8:1
140
8.0
141
1.0
290
     0
  0
SCALE
  5
123
102
{ACAD_REACTORS
330
113
102
}
330
113
100
AcDbScale
 70
     0
300
10:1
140
10.0
141
1.0
290
     0
  0
SCALE
  5
124
102
{ACAD_REACTORS
330
113
102
}
330
113
100
AcDbScale
 70
     0
300
100:1
140
100.0
141
1.0
290
     0
  0
SCALE
  5
125
102
{ACAD_REACTORS
330
113
102
}
330
113
100
AcDbScale
 70
     0
300
1/128" = 1'-0"
140
0.0078125
141
12.0
290
     0
  0
SCALE
  5
126
102
{ACAD_REACTORS
330
113
102
}
330
113
100
AcDbScale
 70
     0
300
1/64" = 1'-0"
140
0.015625
141
12.0
290
     0
  0
SCALE
  5
127
102
{ACAD_REACTORS
330
113
102
}
330
113
100
AcDbScale
 70
     0
300
1/32" = 1'-0"
140
0.03125
141
12.0
290
     0
  0
SCALE
  5
128
102
{ACAD_REACTORS
330
113
102
}
330
113
100
AcDbScale
 70
     0
300
1/16" = 1'-0"
140
0.0625
141
12.0
290
     0
  0
SCALE
  5
129
102
{ACAD_REACTORS
330
113
102
}
330
113
100
AcDbScale
 70
     0
300
3/32" = 1'-0"
140
0.09375
141
12.0
290
     0
  0
SCALE
  5
12A
102
{ACAD_REACTORS
330
113
102
}
330
113
100
AcDbScale
 70
     0
300
1/8" = 1'-0"
140
0.125
141
12.0
290
     0
  0
SCALE
  5
12B
102
{ACAD_REACTORS
330
113
102
}
330
113
100
AcDbScale
 70
     0
300
3/16" = 1'-0"
140
0.1875
141
12.0
290
     0
  0
SCALE
  5
12C
102
{ACAD_REACTORS
330
113
102
}
330
113
100
AcDbScale
 70
     0
300
1/4" = 1'-0"
140
0.25
141
12.0
290
     0
  0
SCALE
  5
12D
102
{ACAD_REACTORS
330
113
102
}
330
113
100
AcDbScale
 70
     0
300
3/8" = 1'-0"
140
0.375
141
12.0
290
     0
  0
SCALE
  5
12E
102
{ACAD_REACTORS
330
113
102
}
330
113
100
AcDbScale
 70
     0
300
1/2" = 1'-0"
140
0.5
141
12.0
290
     0
  0
SCALE
  5
12F
102
{ACAD_REACTORS
330
113
102
}
330
113
100
AcDbScale
 70
     0
300
3/4" = 1'-0"
140
0.75
141
12.0
290
     0
  0
SCALE
  5
130
102
{ACAD_REACTORS
330
113
102
}
330
113
100
AcDbScale
 70
     0
300
1" = 1'-0"
140
1.0
141
12.0
290
     0
  0
SCALE
  5
131
102
{ACAD_REACTORS
330
113
102
}
330
113
100
AcDbScale
 70
     0
300
1-1/2" = 1'-0"
140
1.5
141
12.0
290
     0
  0
SCALE
  5
132
102
{ACAD_REACTORS
330
113
102
}
330
113
100
AcDbScale
 70
     0
300
3" = 1'-0"
140
3.0
141
12.0
290
     0
  0
SCALE
  5
133
102
{ACAD_REACTORS
330
113
102
}
330
113
100
AcDbScale
 70
     0
300
6" = 1'-0"
140
6.0
141
12.0
290
     0
  0
SCALE
  5
134
102
{ACAD_REACTORS
330
113
102
}
330
113
100
AcDbScale
 70
     0
300
1'-0" = 1'-0"
140
12.0
141
12.0
290
     0
  0
VISUALSTYLE
  5
2F
102
{ACAD_REACTORS
330
2A
102
}
102
{ACAD_XDICTIONARY
360
13F
102
}
330
2A
100
AcDbVisualStyle
  2
2dWireframe
 70
     4
 71
     0
 72
     2
 73
     0
 90
        0
 40
-0.6
 41
-30.0
 62
     5
 63
     7
421
 16777215
 74
     1
 91
        4
 64
     7
 65
   257
 75
     1
175
     1
 42
1.0
 92
        0
 66
   257
 43
1.0
 76
     1
 77
     6
 78
     2
 67
     7
 79
     5
170
     0
171
     0
290
     0
174
     0
 93
        1
 44
0.0
173
     0
291
     0
 45
0.0
  0
VISUALSTYLE
  5
31
102
{ACAD_REACTORS
330
2A
102
}
102
{ACAD_XDICTIONARY
360
143
102
}
330
2A
100
AcDbVisualStyle
  2
3D Hidden
 70
     6
 71
     1
 72
     2
 73
     2
 90
        0
 40
-0.6
 41
-30.0
 62
     5
 63
     7
421
 16777215
 74
     2
 91
        2
 64
     7
 65
   257
 75
     2
175
     1
 42
40.0
 92
        0
 66
   257
 43
1.0
 76
     1
 77
     6
 78
     2
 67
     7
 79
     3
170
     0
171
     0
290
     0
174
     0
 93
        1
 44
0.0
173
     0
291
     0
 45
0.0
  0
VISUALSTYLE
  5
30
102
{ACAD_REACTORS
330
2A
102
}
102
{ACAD_XDICTIONARY
360
141
102
}
330
2A
100
AcDbVisualStyle
  2
3dWireframe
 70
     5
 71
     0
 72
     2
 73
     0
 90
        0
 40
-0.6
 41
-30.0
 62
     5
 63
     7
421
 16777215
 74
     1
 91
        4
 64
     7
 65
   257
 75
     1
175
     1
 42
1.0
 92
        0
 66
   257
 43
1.0
 76
     1
 77
     6
 78
     2
 67
     7
 79
     5
170
     0
171
     0
290
     0
174
     0
 93
        1
 44
0.0
173
     0
291
     0
 45
0.0
  0
VISUALSTYLE
  5
32
102
{ACAD_REACTORS
330
2A
102
}
102
{ACAD_XDICTIONARY
360
145
102
}
330
2A
100
AcDbVisualStyle
  2
Basic
 70
     7
 71
     1
 72
     0
 73
     1
 90
        0
 40
-0.6
 41
-30.0
 62
     5
 63
     7
421
 16777215
 74
     0
 91
        4
 64
     7
 65
   257
 75
     1
175
     1
 42
1.0
 92
        8
 66
     7
 43
1.0
 76
     1
 77
     6
 78
     2
 67
     7
 79
     5
170
     0
171
     0
290
     0
174
     0
 93
        1
 44
0.0
173
     0
291
     1
 45
0.0
  0
VISUALSTYLE
  5
36
102
{ACAD_REACTORS
330
2A
102
}
102
{ACAD_XDICTIONARY
360
14D
102
}
330
2A
100
AcDbVisualStyle
  2
Brighten
 70
    12
 71
     2
 72
     2
 73
     0
 90
        0
 40
-0.6
 41
-30.0
 62
     5
 63
     7
421
 16777215
 74
     1
 91
        4
 64
     7
 65
   257
 75
     1
175
     1
 42
1.0
 92
        8
 66
     7
 43
1.0
 76
     1
 77
     6
 78
     2
 67
     7
 79
     5
170
     0
171
     0
290
     0
174
     0
 93
        1
 44
50.0
173
     0
291
     1
 45
0.0
  0
VISUALSTYLE
  5
3A
102
{ACAD_REACTORS
330
2A
102
}
102
{ACAD_XDICTIONARY
360
155
102
}
330
2A
100
AcDbVisualStyle
  2
ColorChange
 70
    16
 71
     2
 72
     2
 73
     3
 90
        0
 40
-0.6
 41
-30.0
 62
     5
 63
     8
421
  8421504
 74
     1
 91
        4
 64
     7
 65
   257
 75
     1
175
     1
 42
1.0
 92
        8
 66
     8
424
  8421504
 43
1.0
 76
     1
 77
     6
 78
     2
 67
     7
 79
     5
170
     0
171
     0
290
     0
174
     0
 93
        1
 44
0.0
173
     0
291
     1
 45
0.0
  0
VISUALSTYLE
  5
34
102
{ACAD_REACTORS
330
2A
102
}
102
{ACAD_XDICTIONARY
360
149
102
}
330
2A
100
AcDbVisualStyle
  2
Conceptual
 70
     9
 71
     3
 72
     2
 73
     0
 90
        0
 40
-0.6
 41
-30.0
 62
     5
 63
     7
421
 16777215
 74
     2
 91
        2
 64
     7
 65
   257
 75
     1
175
     1
 42
40.0
 92
        8
 66
     7
 43
1.0
 76
     1
 77
     6
 78
     2
 67
     7
 79
     3
170
     0
171
     0
290
     0
174
     0
 93
        1
 44
0.0
173
     0
291
     0
 45
0.0
  0
VISUALSTYLE
  5
35
102
{ACAD_REACTORS
330
2A
102
}
102
{ACAD_XDICTIONARY
360
14B
102
}
330
2A
100
AcDbVisualStyle
  2
Dim
 70
    11
 71
     2
 72
     2
 73
     0
 90
        0
 40
-0.6
 41
-30.0
 62
     5
 63
     7
421
 16777215
 74
     1
 91
        4
 64
     7
 65
   257
 75
     1
175
     1
 42
1.0
 92
        8
 66
     7
 43
1.0
 76
     1
 77
     6
 78
     2
 67
     7
 79
     5
170
     0
171
     0
290
     0
174
     0
 93
        1
 44
-50.0
173
     0
291
     1
 45
0.0
  0
VISUALSTYLE
  5
39
102
{ACAD_REACTORS
330
2A
102
}
102
{ACAD_XDICTIONARY
360
153
102
}
330
2A
100
AcDbVisualStyle
  2
Facepattern
 70
    15
 71
     2
 72
     2
 73
     0
 90
        0
 40
-0.6
 41
-30.0
 62
     5
 63
     7
421
 16777215
 74
     1
 91
        4
 64
     7
 65
   257
 75
     1
175
     1
 42
1.0
 92
        8
 66
     7
 43
1.0
 76
     1
 77
     6
 78
     2
 67
     7
 79
     5
170
     0
171
     0
290
     0
174
     0
 93
        1
 44
0.0
173
     0
291
     1
 45
0.0
  0
VISUALSTYLE
  5
2B
102
{ACAD_REACTORS
330
2A
102
}
102
{ACAD_XDICTIONARY
360
137
102
}
330
2A
100
AcDbVisualStyle
  2
Flat
 70
     0
 71
     2
 72
     1
 73
     1
 90
        2
 40
-0.6
 41
30.0
 62
     5
 63
     7
421
 16777215
 74
     0
 91
        4
 64
     7
 65
   257
 75
     1
175
     1
 42
1.0
 92
        8
 66
     7
 43
1.0
 76
     1
 77
     6
 78
     2
 67
     7
 79
     5
170
     0
171
     0
290
     0
174
     0
 93
       13
 44
0.0
173
     0
291
     1
 45
0.0
  0
VISUALSTYLE
  5
2C
102
{ACAD_REACTORS
330
2A
102
}
102
{ACAD_XDICTIONARY
360
139
102
}
330
2A
100
AcDbVisualStyle
  2
FlatWithEdges
 70
     1
 71
     2
 72
     1
 73
     1
 90
        2
 40
-0.6
 41
30.0
 62
     5
 63
     7
421
 16777215
 74
     1
 91
        4
 64
     7
 65
   257
 75
     1
175
     1
 42
1.0
 92
        0
 66
   257
 43
1.0
 76
     1
 77
     6
 78
     2
 67
     7
 79
     5
170
     0
171
     0
290
     0
174
     0
 93
       13
 44
0.0
173
     0
291
     1
 45
0.0
  0
VISUALSTYLE
  5
2D
102
{ACAD_REACTORS
330
2A
102
}
102
{ACAD_XDICTIONARY
360
13B
102
}
330
2A
100
AcDbVisualStyle
  2
Gouraud
 70
     2
 71
     2
 72
     2
 73
     1
 90
        2
 40
-0.6
 41
30.0
 62
     5
 63
     7
421
 16777215
 74
     0
 91
        4
 64
     7
 65
   257
 75
     1
175
     1
 42
1.0
 92
        0
 66
     7
 43
1.0
 76
     1
 77
     6
 78
     2
 67
     7
 79
     5
170
     0
171
     0
290
     0
174
     0
 93
       13
 44
0.0
173
     0
291
     1
 45
0.0
  0
VISUALSTYLE
  5
2E
102
{ACAD_REACTORS
330
2A
102
}
102
{ACAD_XDICTIONARY
360
13D
102
}
330
2A
100
AcDbVisualStyle
  2
GouraudWithEdges
 70
     3
 71
     2
 72
     2
 73
     1
 90
        2
 40
-0.6
 41
30.0
 62
     5
 63
     7
421
 16777215
 74
     1
 91
        4
 64
     7
 65
   257
 75
     1
175
     1
 42
1.0
 92
        0
 66
   257
 43
1.0
 76
     1
 77
     6
 78
     2
 67
     7
 79
     5
170
     0
171
     0
290
     0
174
     0
 93
       13
 44
0.0
173
     0
291
     1
 45
0.0
  0
VISUALSTYLE
  5
38
102
{ACAD_REACTORS
330
2A
102
}
102
{ACAD_XDICTIONARY
360
151
102
}
330
2A
100
AcDbVisualStyle
  2
Linepattern
 70
    14
 71
     2
 72
     2
 73
     0
 90
        0
 40
-0.6
 41
-30.0
 62
     5
 63
     7
421
 16777215
 74
     1
 91
        4
 64
     7
 65
   257
 75
     7
175
     7
 42
1.0
 92
        8
 66
     7
 43
1.0
 76
     1
 77
     6
 78
     2
 67
     7
 79
     5
170
     0
171
     0
290
     0
174
     0
 93
        1
 44
0.0
173
     0
291
     1
 45
0.0
  0
VISUALSTYLE
  5
33
102
{ACAD_REACTORS
330
2A
102
}
102
{ACAD_XDICTIONARY
360
147
102
}
330
2A
100
AcDbVisualStyle
  2
Realistic
 70
     8
 71
     2
 72
     2
 73
     0
 90
        0
 40
-0.6
 41
-30.0
 62
     5
 63
     7
421
 16777215
 74
     1
 91
        0
 64
     7
 65
   257
 75
     1
175
     1
 42
1.0
 92
        8
 66
     8
424
  7895160
 43
1.0
 76
     1
 77
     6
 78
     2
 67
     7
 79
     5
170
     0
171
     0
290
     0
174
     0
 93
       13
 44
0.0
173
     0
291
     0
 45
0.0
  0
VISUALSTYLE
  5
37
102
{ACAD_REACTORS
330
2A
102
}
102
{ACAD_XDICTIONARY
360
14F
102
}
330
2A
100
AcDbVisualStyle
  2
Thicken
 70
    13
 71
     2
 72
     2
 73
     0
 90
        0
 40
-0.6
 41
-30.0
 62
     5
 63
     7
421
 16777215
 74
     1
 91
        4
 64
     7
 65
   257
 75
     1
175
     1
 42
1.0
 92
       12
 66
     7
 43
1.0
 76
     1
 77
     6
 78
     2
 67
     7
 79
     5
170
     0
171
     0
290
     0
174
     0
 93
        1
 44
0.0
173
     0
291
     1
 45
0.0
  0
DICTIONARYVAR
  5
136
102
{ACAD_REACTORS
330
135
102
}
330
135
100
DictionaryVariables
280
     0
  1
1:1
  0
DICTIONARY
  5
13F
330
2F
100
AcDbDictionary
280
     1
281
     1
  3
ACAD_XREC_ROUNDTRIP
360
140
  0
DICTIONARY
  5
143
330
31
100
AcDbDictionary
280
     1
281
     1
  3
ACAD_XREC_ROUNDTRIP
360
144
  0
DICTIONARY
  5
141
330
30
100
AcDbDictionary
280
     1
281
     1
  3
ACAD_XREC_ROUNDTRIP
360
142
  0
DICTIONARY
  5
145
330
32
100
AcDbDictionary
280
     1
281
     1
  3
ACAD_XREC_ROUNDTRIP
360
146
  0
DICTIONARY
  5
14D
330
36
100
AcDbDictionary
280
     1
281
     1
  3
ACAD_XREC_ROUNDTRIP
360
14E
  0
DICTIONARY
  5
155
330
3A
100
AcDbDictionary
280
     1
281
     1
  3
ACAD_XREC_ROUNDTRIP
360
156
  0
DICTIONARY
  5
149
330
34
100
AcDbDictionary
280
     1
281
     1
  3
ACAD_XREC_ROUNDTRIP
360
14A
  0
DICTIONARY
  5
14B
330
35
100
AcDbDictionary
280
     1
281
     1
  3
ACAD_XREC_ROUNDTRIP
360
14C
  0
DICTIONARY
  5
153
330
39
100
AcDbDictionary
280
     1
281
     1
  3
ACAD_XREC_ROUNDTRIP
360
154
  0
DICTIONARY
  5
137
330
2B
100
AcDbDictionary
280
     1
281
     1
  3
ACAD_XREC_ROUNDTRIP
360
138
  0
DICTIONARY
  5
139
330
2C
100
AcDbDictionary
280
     1
281
     1
  3
ACAD_XREC_ROUNDTRIP
360
13A
  0
DICTIONARY
  5
13B
330
2D
100
AcDbDictionary
280
     1
281
     1
  3
ACAD_XREC_ROUNDTRIP
360
13C
  0
DICTIONARY
  5
13D
330
2E
100
AcDbDictionary
280
     1
281
     1
  3
ACAD_XREC_ROUNDTRIP
360
13E
  0
DICTIONARY
  5
151
330
38
100
AcDbDictionary
280
     1
281
     1
  3
ACAD_XREC_ROUNDTRIP
360
152
  0
DICTIONARY
  5
147
330
33
100
AcDbDictionary
280
     1
281
     1
  3
ACAD_XREC_ROUNDTRIP
360
148
  0
DICTIONARY
  5
14F
330
37
100
AcDbDictionary
280
     1
281
     1
  3
ACAD_XREC_ROUNDTRIP
360
150
  0
XRECORD
  5
140
102
{ACAD_REACTORS
330
13F
102
}
330
13F
100
AcDbXrecord
280
     1
102
RTVSPropertyOp0
 70
     1
102
RTVSPropertyOp1
 70
     1
102
RTVSPropertyOp2
 70
     1
102
RTVSPropertyOp3
 70
     1
102
RTVSPropertyOp4
 70
     1
102
RTVSPropertyOp5
 70
     1
102
RTVSPropertyOp6
 70
     1
102
RTVSPropertyOp7
 70
     1
102
RTVSPropertyOp8
 70
     1
102
RTVSPropertyOp9
 70
     1
102
RTVSPropertyOp10
 70
     1
102
RTVSPropertyOp11
 70
     1
102
RTVSPropertyOp12
 70
     1
102
RTVSPropertyOp13
 70
     1
102
RTVSPropertyOp14
 70
     1
102
RTVSPropertyOp15
 70
     1
102
RTVSPropertyOp16
 70
     1
102
RTVSPropertyOp17
 70
     1
102
RTVSPropertyOp18
 70
     1
102
RTVSPropertyOp19
 70
     1
102
RTVSPropertyOp20
 70
     1
102
RTVSPropertyOp21
 70
     1
102
RTVSPropertyOp22
 70
     1
102
RTVSPropertyOp23
 70
     1
102
RTVSPropertyOp24
 70
     1
102
RTVSPropertyOp25
 70
     1
102
RTVSPropertyOp26
 70
     1
102
RTVSPropertyOp27
 70
     1
102
RTVSPropertyOp28
 70
     1
102
RTVSPropertyOp29
 70
     1
102
RTVSPropertyOp30
 70
     1
102
RTVSPropertyOp31
 70
     1
102
RTVSPropertyOp32
 70
     1
  0
XRECORD
  5
144
102
{ACAD_REACTORS
330
143
102
}
330
143
100
AcDbXrecord
280
     1
102
RTVSPropertyOp0
 70
     1
102
RTVSPropertyOp1
 70
     1
102
RTVSPropertyOp2
 70
     1
102
RTVSPropertyOp3
 70
     1
102
RTVSPropertyOp4
 70
     1
102
RTVSPropertyOp5
 70
     1
102
RTVSPropertyOp6
 70
     1
102
RTVSPropertyOp7
 70
     1
102
RTVSPropertyOp8
 70
     1
102
RTVSPropertyOp9
 70
     1
102
RTVSPropertyOp10
 70
     1
102
RTVSPropertyOp11
 70
     1
102
RTVSPropertyOp12
 70
     1
102
RTVSPropertyOp13
 70
     1
102
RTVSPropertyOp14
 70
     1
102
RTVSPropertyOp15
 70
     1
102
RTVSPropertyOp16
 70
     1
102
RTVSPropertyOp17
 70
     1
102
RTVSPropertyOp18
 70
     1
102
RTVSPropertyOp19
 70
     1
102
RTVSPropertyOp20
 70
     1
102
RTVSPropertyOp21
 70
     1
102
RTVSPropertyOp22
 70
     1
102
RTVSPropertyOp23
 70
     1
102
RTVSPropertyOp24
 70
     1
102
RTVSPropertyOp25
 70
     1
102
RTVSPropertyOp26
 70
     1
102
RTVSPropertyOp27
 70
     1
102
RTVSPropertyOp28
 70
     1
102
RTVSPropertyOp29
 70
     1
102
RTVSPropertyOp30
 70
     1
102
RTVSPropertyOp31
 70
     1
102
RTVSPropertyOp32
 70
     1
  0
XRECORD
  5
142
102
{ACAD_REACTORS
330
141
102
}
330
141
100
AcDbXrecord
280
     1
102
RTVSPropertyOp0
 70
     1
102
RTVSPropertyOp1
 70
     1
102
RTVSPropertyOp2
 70
     1
102
RTVSPropertyOp3
 70
     1
102
RTVSPropertyOp4
 70
     1
102
RTVSPropertyOp5
 70
     1
102
RTVSPropertyOp6
 70
     1
102
RTVSPropertyOp7
 70
     1
102
RTVSPropertyOp8
 70
     1
102
RTVSPropertyOp9
 70
     1
102
RTVSPropertyOp10
 70
     1
102
RTVSPropertyOp11
 70
     1
102
RTVSPropertyOp12
 70
     1
102
RTVSPropertyOp13
 70
     1
102
RTVSPropertyOp14
 70
     1
102
RTVSPropertyOp15
 70
     1
102
RTVSPropertyOp16
 70
     1
102
RTVSPropertyOp17
 70
     1
102
RTVSPropertyOp18
 70
     1
102
RTVSPropertyOp19
 70
     1
102
RTVSPropertyOp20
 70
     1
102
RTVSPropertyOp21
 70
     1
102
RTVSPropertyOp22
 70
     1
102
RTVSPropertyOp23
 70
     1
102
RTVSPropertyOp24
 70
     1
102
RTVSPropertyOp25
 70
     1
102
RTVSPropertyOp26
 70
     1
102
RTVSPropertyOp27
 70
     1
102
RTVSPropertyOp28
 70
     1
102
RTVSPropertyOp29
 70
     1
102
RTVSPropertyOp30
 70
     1
102
RTVSPropertyOp31
 70
     1
102
RTVSPropertyOp32
 70
     1
  0
XRECORD
  5
146
102
{ACAD_REACTORS
330
145
102
}
330
145
100
AcDbXrecord
280
     1
102
RTVSPropertyOp0
 70
     1
102
RTVSPropertyOp1
 70
     1
102
RTVSPropertyOp2
 70
     1
102
RTVSPropertyOp3
 70
     1
102
RTVSPropertyOp4
 70
     1
102
RTVSPropertyOp5
 70
     1
102
RTVSPropertyOp6
 70
     1
102
RTVSPropertyOp7
 70
     1
102
RTVSPropertyOp8
 70
     1
102
RTVSPropertyOp9
 70
     1
102
RTVSPropertyOp10
 70
     1
102
RTVSPropertyOp11
 70
     1
102
RTVSPropertyOp12
 70
     1
102
RTVSPropertyOp13
 70
     1
102
RTVSPropertyOp14
 70
     1
102
RTVSPropertyOp15
 70
     1
102
RTVSPropertyOp16
 70
     1
102
RTVSPropertyOp17
 70
     1
102
RTVSPropertyOp18
 70
     1
102
RTVSPropertyOp19
 70
     1
102
RTVSPropertyOp20
 70
     1
102
RTVSPropertyOp21
 70
     1
102
RTVSPropertyOp22
 70
     1
102
RTVSPropertyOp23
 70
     1
102
RTVSPropertyOp24
 70
     1
102
RTVSPropertyOp25
 70
     1
102
RTVSPropertyOp26
 70
     1
102
RTVSPropertyOp27
 70
     1
102
RTVSPropertyOp28
 70
     1
102
RTVSPropertyOp29
 70
     1
102
RTVSPropertyOp30
 70
     1
102
RTVSPropertyOp31
 70
     1
102
RTVSPropertyOp32
 70
     1
  0
XRECORD
  5
14E
102
{ACAD_REACTORS
330
14D
102
}
330
14D
100
AcDbXrecord
280
     1
102
RTVSPropertyOp0
 70
     1
102
RTVSPropertyOp1
 70
     1
102
RTVSPropertyOp2
 70
     1
102
RTVSPropertyOp3
 70
     1
102
RTVSPropertyOp4
 70
     1
102
RTVSPropertyOp5
 70
     1
102
RTVSPropertyOp6
 70
     1
102
RTVSPropertyOp7
 70
     1
102
RTVSPropertyOp8
 70
     1
102
RTVSPropertyOp9
 70
     1
102
RTVSPropertyOp10
 70
     1
102
RTVSPropertyOp11
 70
     1
102
RTVSPropertyOp12
 70
     1
102
RTVSPropertyOp13
 70
     1
102
RTVSPropertyOp14
 70
     1
102
RTVSPropertyOp15
 70
     1
102
RTVSPropertyOp16
 70
     1
102
RTVSPropertyOp17
 70
     1
102
RTVSPropertyOp18
 70
     1
102
RTVSPropertyOp19
 70
     1
102
RTVSPropertyOp20
 70
     1
102
RTVSPropertyOp21
 70
     1
102
RTVSPropertyOp22
 70
     1
102
RTVSPropertyOp23
 70
     1
102
RTVSPropertyOp24
 70
     1
102
RTVSPropertyOp25
 70
     1
102
RTVSPropertyOp26
 70
     1
102
RTVSPropertyOp27
 70
     1
102
RTVSPropertyOp28
 70
     1
102
RTVSPropertyOp29
 70
     1
102
RTVSPropertyOp30
 70
     1
102
RTVSPropertyOp31
 70
     1
102
RTVSPropertyOp32
 70
     1
  0
XRECORD
  5
156
102
{ACAD_REACTORS
330
155
102
}
330
155
100
AcDbXrecord
280
     1
102
RTVSPropertyOp0
 70
     1
102
RTVSPropertyOp1
 70
     1
102
RTVSPropertyOp2
 70
     1
102
RTVSPropertyOp3
 70
     1
102
RTVSPropertyOp4
 70
     1
102
RTVSPropertyOp5
 70
     1
102
RTVSPropertyOp6
 70
     1
102
RTVSPropertyOp7
 70
     1
102
RTVSPropertyOp8
 70
     1
102
RTVSPropertyOp9
 70
     1
102
RTVSPropertyOp10
 70
     1
102
RTVSPropertyOp11
 70
     1
102
RTVSPropertyOp12
 70
     1
102
RTVSPropertyOp13
 70
     1
102
RTVSPropertyOp14
 70
     1
102
RTVSPropertyOp15
 70
     1
102
RTVSPropertyOp16
 70
     1
102
RTVSPropertyOp17
 70
     1
102
RTVSPropertyOp18
 70
     1
102
RTVSPropertyOp19
 70
     1
102
RTVSPropertyOp20
 70
     1
102
RTVSPropertyOp21
 70
     1
102
RTVSPropertyOp22
 70
     1
102
RTVSPropertyOp23
 70
     1
102
RTVSPropertyOp24
 70
     1
102
RTVSPropertyOp25
 70
     1
102
RTVSPropertyOp26
 70
     1
102
RTVSPropertyOp27
 70
     1
102
RTVSPropertyOp28
 70
     1
102
RTVSPropertyOp29
 70
     1
102
RTVSPropertyOp30
 70
     1
102
RTVSPropertyOp31
 70
     1
102
RTVSPropertyOp32
 70
     1
  0
XRECORD
  5
14A
102
{ACAD_REACTORS
330
149
102
}
330
149
100
AcDbXrecord
280
     1
102
RTVSPropertyOp0
 70
     1
102
RTVSPropertyOp1
 70
     1
102
RTVSPropertyOp2
 70
     1
102
RTVSPropertyOp3
 70
     1
102
RTVSPropertyOp4
 70
     1
102
RTVSPropertyOp5
 70
     1
102
RTVSPropertyOp6
 70
     1
102
RTVSPropertyOp7
 70
     1
102
RTVSPropertyOp8
 70
     1
102
RTVSPropertyOp9
 70
     1
102
RTVSPropertyOp10
 70
     1
102
RTVSPropertyOp11
 70
     1
102
RTVSPropertyOp12
 70
     1
102
RTVSPropertyOp13
 70
     1
102
RTVSPropertyOp14
 70
     1
102
RTVSPropertyOp15
 70
     1
102
RTVSPropertyOp16
 70
     1
102
RTVSPropertyOp17
 70
     1
102
RTVSPropertyOp18
 70
     1
102
RTVSPropertyOp19
 70
     1
102
RTVSPropertyOp20
 70
     1
102
RTVSPropertyOp21
 70
     1
102
RTVSPropertyOp22
 70
     1
102
RTVSPropertyOp23
 70
     1
102
RTVSPropertyOp24
 70
     1
102
RTVSPropertyOp25
 70
     1
102
RTVSPropertyOp26
 70
     1
102
RTVSPropertyOp27
 70
     1
102
RTVSPropertyOp28
 70
     1
102
RTVSPropertyOp29
 70
     1
102
RTVSPropertyOp30
 70
     1
102
RTVSPropertyOp31
 70
     1
102
RTVSPropertyOp32
 70
     1
  0
XRECORD
  5
14C
102
{ACAD_REACTORS
330
14B
102
}
330
14B
100
AcDbXrecord
280
     1
102
RTVSPropertyOp0
 70
     1
102
RTVSPropertyOp1
 70
     1
102
RTVSPropertyOp2
 70
     1
102
RTVSPropertyOp3
 70
     1
102
RTVSPropertyOp4
 70
     1
102
RTVSPropertyOp5
 70
     1
102
RTVSPropertyOp6
 70
     1
102
RTVSPropertyOp7
 70
     1
102
RTVSPropertyOp8
 70
     1
102
RTVSPropertyOp9
 70
     1
102
RTVSPropertyOp10
 70
     1
102
RTVSPropertyOp11
 70
     1
102
RTVSPropertyOp12
 70
     1
102
RTVSPropertyOp13
 70
     1
102
RTVSPropertyOp14
 70
     1
102
RTVSPropertyOp15
 70
     1
102
RTVSPropertyOp16
 70
     1
102
RTVSPropertyOp17
 70
     1
102
RTVSPropertyOp18
 70
     1
102
RTVSPropertyOp19
 70
     1
102
RTVSPropertyOp20
 70
     1
102
RTVSPropertyOp21
 70
     1
102
RTVSPropertyOp22
 70
     1
102
RTVSPropertyOp23
 70
     1
102
RTVSPropertyOp24
 70
     1
102
RTVSPropertyOp25
 70
     1
102
RTVSPropertyOp26
 70
     1
102
RTVSPropertyOp27
 70
     1
102
RTVSPropertyOp28
 70
     1
102
RTVSPropertyOp29
 70
     1
102
RTVSPropertyOp30
 70
     1
102
RTVSPropertyOp31
 70
     1
102
RTVSPropertyOp32
 70
     1
  0
XRECORD
  5
154
102
{ACAD_REACTORS
330
153
102
}
330
153
100
AcDbXrecord
280
     1
102
RTVSPropertyOp0
 70
     1
102
RTVSPropertyOp1
 70
     1
102
RTVSPropertyOp2
 70
     1
102
RTVSPropertyOp3
 70
     1
102
RTVSPropertyOp4
 70
     1
102
RTVSPropertyOp5
 70
     1
102
RTVSPropertyOp6
 70
     1
102
RTVSPropertyOp7
 70
     1
102
RTVSPropertyOp8
 70
     1
102
RTVSPropertyOp9
 70
     1
102
RTVSPropertyOp10
 70
     1
102
RTVSPropertyOp11
 70
     1
102
RTVSPropertyOp12
 70
     1
102
RTVSPropertyOp13
 70
     1
102
RTVSPropertyOp14
 70
     1
102
RTVSPropertyOp15
 70
     1
102
RTVSPropertyOp16
 70
     1
102
RTVSPropertyOp17
 70
     1
102
RTVSPropertyOp18
 70
     1
102
RTVSPropertyOp19
 70
     1
102
RTVSPropertyOp20
 70
     1
102
RTVSPropertyOp21
 70
     1
102
RTVSPropertyOp22
 70
     1
102
RTVSPropertyOp23
 70
     1
102
RTVSPropertyOp24
 70
     1
102
RTVSPropertyOp25
 70
     1
102
RTVSPropertyOp26
 70
     1
102
RTVSPropertyOp27
 70
     1
102
RTVSPropertyOp28
 70
     1
102
RTVSPropertyOp29
 70
     1
102
RTVSPropertyOp30
 70
     1
102
RTVSPropertyOp31
 70
     1
102
RTVSPropertyOp32
 70
     1
  0
XRECORD
  5
138
102
{ACAD_REACTORS
330
137
102
}
330
137
100
AcDbXrecord
280
     1
102
RTVSPropertyOp0
 70
     1
102
RTVSPropertyOp1
 70
     1
102
RTVSPropertyOp2
 70
     1
102
RTVSPropertyOp3
 70
     1
102
RTVSPropertyOp4
 70
     1
102
RTVSPropertyOp5
 70
     1
102
RTVSPropertyOp6
 70
     1
102
RTVSPropertyOp7
 70
     1
102
RTVSPropertyOp8
 70
     1
102
RTVSPropertyOp9
 70
     1
102
RTVSPropertyOp10
 70
     1
102
RTVSPropertyOp11
 70
     1
102
RTVSPropertyOp12
 70
     1
102
RTVSPropertyOp13
 70
     1
102
RTVSPropertyOp14
 70
     1
102
RTVSPropertyOp15
 70
     1
102
RTVSPropertyOp16
 70
     1
102
RTVSPropertyOp17
 70
     1
102
RTVSPropertyOp18
 70
     1
102
RTVSPropertyOp19
 70
     1
102
RTVSPropertyOp20
 70
     1
102
RTVSPropertyOp21
 70
     1
102
RTVSPropertyOp22
 70
     1
102
RTVSPropertyOp23
 70
     1
102
RTVSPropertyOp24
 70
     1
102
RTVSPropertyOp25
 70
     1
102
RTVSPropertyOp26
 70
     1
102
RTVSPropertyOp27
 70
     1
102
RTVSPropertyOp28
 70
     1
102
RTVSPropertyOp29
 70
     1
102
RTVSPropertyOp30
 70
     1
102
RTVSPropertyOp31
 70
     1
102
RTVSPropertyOp32
 70
     1
  0
XRECORD
  5
13A
102
{ACAD_REACTORS
330
139
102
}
330
139
100
AcDbXrecord
280
     1
102
RTVSPropertyOp0
 70
     1
102
RTVSPropertyOp1
 70
     1
102
RTVSPropertyOp2
 70
     1
102
RTVSPropertyOp3
 70
     1
102
RTVSPropertyOp4
 70
     1
102
RTVSPropertyOp5
 70
     1
102
RTVSPropertyOp6
 70
     1
102
RTVSPropertyOp7
 70
     1
102
RTVSPropertyOp8
 70
     1
102
RTVSPropertyOp9
 70
     1
102
RTVSPropertyOp10
 70
     1
102
RTVSPropertyOp11
 70
     1
102
RTVSPropertyOp12
 70
     1
102
RTVSPropertyOp13
 70
     1
102
RTVSPropertyOp14
 70
     1
102
RTVSPropertyOp15
 70
     1
102
RTVSPropertyOp16
 70
     1
102
RTVSPropertyOp17
 70
     1
102
RTVSPropertyOp18
 70
     1
102
RTVSPropertyOp19
 70
     1
102
RTVSPropertyOp20
 70
     1
102
RTVSPropertyOp21
 70
     1
102
RTVSPropertyOp22
 70
     1
102
RTVSPropertyOp23
 70
     1
102
RTVSPropertyOp24
 70
     1
102
RTVSPropertyOp25
 70
     1
102
RTVSPropertyOp26
 70
     1
102
RTVSPropertyOp27
 70
     1
102
RTVSPropertyOp28
 70
     1
102
RTVSPropertyOp29
 70
     1
102
RTVSPropertyOp30
 70
     1
102
RTVSPropertyOp31
 70
     1
102
RTVSPropertyOp32
 70
     1
  0
XRECORD
  5
13C
102
{ACAD_REACTORS
330
13B
102
}
330
13B
100
AcDbXrecord
280
     1
102
RTVSPropertyOp0
 70
     1
102
RTVSPropertyOp1
 70
     1
102
RTVSPropertyOp2
 70
     1
102
RTVSPropertyOp3
 70
     1
102
RTVSPropertyOp4
 70
     1
102
RTVSPropertyOp5
 70
     1
102
RTVSPropertyOp6
 70
     1
102
RTVSPropertyOp7
 70
     1
102
RTVSPropertyOp8
 70
     1
102
RTVSPropertyOp9
 70
     1
102
RTVSPropertyOp10
 70
     1
102
RTVSPropertyOp11
 70
     1
102
RTVSPropertyOp12
 70
     1
102
RTVSPropertyOp13
 70
     1
102
RTVSPropertyOp14
 70
     1
102
RTVSPropertyOp15
 70
     1
102
RTVSPropertyOp16
 70
     1
102
RTVSPropertyOp17
 70
     1
102
RTVSPropertyOp18
 70
     1
102
RTVSPropertyOp19
 70
     1
102
RTVSPropertyOp20
 70
     1
102
RTVSPropertyOp21
 70
     1
102
RTVSPropertyOp22
 70
     1
102
RTVSPropertyOp23
 70
     1
102
RTVSPropertyOp24
 70
     1
102
RTVSPropertyOp25
 70
     1
102
RTVSPropertyOp26
 70
     1
102
RTVSPropertyOp27
 70
     1
102
RTVSPropertyOp28
 70
     1
102
RTVSPropertyOp29
 70
     1
102
RTVSPropertyOp30
 70
     1
102
RTVSPropertyOp31
 70
     1
102
RTVSPropertyOp32
 70
     1
  0
XRECORD
  5
13E
102
{ACAD_REACTORS
330
13D
102
}
330
13D
100
AcDbXrecord
280
     1
102
RTVSPropertyOp0
 70
     1
102
RTVSPropertyOp1
 70
     1
102
RTVSPropertyOp2
 70
     1
102
RTVSPropertyOp3
 70
     1
102
RTVSPropertyOp4
 70
     1
102
RTVSPropertyOp5
 70
     1
102
RTVSPropertyOp6
 70
     1
102
RTVSPropertyOp7
 70
     1
102
RTVSPropertyOp8
 70
     1
102
RTVSPropertyOp9
 70
     1
102
RTVSPropertyOp10
 70
     1
102
RTVSPropertyOp11
 70
     1
102
RTVSPropertyOp12
 70
     1
102
RTVSPropertyOp13
 70
     1
102
RTVSPropertyOp14
 70
     1
102
RTVSPropertyOp15
 70
     1
102
RTVSPropertyOp16
 70
     1
102
RTVSPropertyOp17
 70
     1
102
RTVSPropertyOp18
 70
     1
102
RTVSPropertyOp19
 70
     1
102
RTVSPropertyOp20
 70
     1
102
RTVSPropertyOp21
 70
     1
102
RTVSPropertyOp22
 70
     1
102
RTVSPropertyOp23
 70
     1
102
RTVSPropertyOp24
 70
     1
102
RTVSPropertyOp25
 70
     1
102
RTVSPropertyOp26
 70
     1
102
RTVSPropertyOp27
 70
     1
102
RTVSPropertyOp28
 70
     1
102
RTVSPropertyOp29
 70
     1
102
RTVSPropertyOp30
 70
     1
102
RTVSPropertyOp31
 70
     1
102
RTVSPropertyOp32
 70
     1
  0
XRECORD
  5
152
102
{ACAD_REACTORS
330
151
102
}
330
151
100
AcDbXrecord
280
     1
102
RTVSPropertyOp0
 70
     1
102
RTVSPropertyOp1
 70
     1
102
RTVSPropertyOp2
 70
     1
102
RTVSPropertyOp3
 70
     1
102
RTVSPropertyOp4
 70
     1
102
RTVSPropertyOp5
 70
     1
102
RTVSPropertyOp6
 70
     1
102
RTVSPropertyOp7
 70
     1
102
RTVSPropertyOp8
 70
     1
102
RTVSPropertyOp9
 70
     1
102
RTVSPropertyOp10
 70
     1
102
RTVSPropertyOp11
 70
     1
102
RTVSPropertyOp12
 70
     1
102
RTVSPropertyOp13
 70
     1
102
RTVSPropertyOp14
 70
     1
102
RTVSPropertyOp15
 70
     1
102
RTVSPropertyOp16
 70
     1
102
RTVSPropertyOp17
 70
     1
102
RTVSPropertyOp18
 70
     1
102
RTVSPropertyOp19
 70
     1
102
RTVSPropertyOp20
 70
     1
102
RTVSPropertyOp21
 70
     1
102
RTVSPropertyOp22
 70
     1
102
RTVSPropertyOp23
 70
     1
102
RTVSPropertyOp24
 70
     1
102
RTVSPropertyOp25
 70
     1
102
RTVSPropertyOp26
 70
     1
102
RTVSPropertyOp27
 70
     1
102
RTVSPropertyOp28
 70
     1
102
RTVSPropertyOp29
 70
     1
102
RTVSPropertyOp30
 70
     1
102
RTVSPropertyOp31
 70
     1
102
RTVSPropertyOp32
 70
     1
  0
XRECORD
  5
148
102
{ACAD_REACTORS
330
147
102
}
330
147
100
AcDbXrecord
280
     1
102
RTVSPropertyOp0
 70
     1
102
RTVSPropertyOp1
 70
     1
102
RTVSPropertyOp2
 70
     1
102
RTVSPropertyOp3
 70
     1
102
RTVSPropertyOp4
 70
     1
102
RTVSPropertyOp5
 70
     1
102
RTVSPropertyOp6
 70
     1
102
RTVSPropertyOp7
 70
     1
102
RTVSPropertyOp8
 70
     1
102
RTVSPropertyOp9
 70
     1
102
RTVSPropertyOp10
 70
     1
102
RTVSPropertyOp11
 70
     1
102
RTVSPropertyOp12
 70
     1
102
RTVSPropertyOp13
 70
     1
102
RTVSPropertyOp14
 70
     1
102
RTVSPropertyOp15
 70
     1
102
RTVSPropertyOp16
 70
     1
102
RTVSPropertyOp17
 70
     1
102
RTVSPropertyOp18
 70
     1
102
RTVSPropertyOp19
 70
     1
102
RTVSPropertyOp20
 70
     1
102
RTVSPropertyOp21
 70
     1
102
RTVSPropertyOp22
 70
     1
102
RTVSPropertyOp23
 70
     1
102
RTVSPropertyOp24
 70
     1
102
RTVSPropertyOp25
 70
     1
102
RTVSPropertyOp26
 70
     1
102
RTVSPropertyOp27
 70
     1
102
RTVSPropertyOp28
 70
     1
102
RTVSPropertyOp29
 70
     1
102
RTVSPropertyOp30
 70
     1
102
RTVSPropertyOp31
 70
     1
102
RTVSPropertyOp32
 70
     1
  0
XRECORD
  5
150
102
{ACAD_REACTORS
330
14F
102
}
330
14F
100
AcDbXrecord
280
     1
102
RTVSPropertyOp0
 70
     1
102
RTVSPropertyOp1
 70
     1
102
RTVSPropertyOp2
 70
     1
102
RTVSPropertyOp3
 70
     1
102
RTVSPropertyOp4
 70
     1
102
RTVSPropertyOp5
 70
     1
102
RTVSPropertyOp6
 70
     1
102
RTVSPropertyOp7
 70
     1
102
RTVSPropertyOp8
 70
     1
102
RTVSPropertyOp9
 70
     1
102
RTVSPropertyOp10
 70
     1
102
RTVSPropertyOp11
 70
     1
102
RTVSPropertyOp12
 70
     1
102
RTVSPropertyOp13
 70
     1
102
RTVSPropertyOp14
 70
     1
102
RTVSPropertyOp15
 70
     1
102
RTVSPropertyOp16
 70
     1
102
RTVSPropertyOp17
 70
     1
102
RTVSPropertyOp18
 70
     1
102
RTVSPropertyOp19
 70
     1
102
RTVSPropertyOp20
 70
     1
102
RTVSPropertyOp21
 70
     1
102
RTVSPropertyOp22
 70
     1
102
RTVSPropertyOp23
 70
     1
102
RTVSPropertyOp24
 70
     1
102
RTVSPropertyOp25
 70
     1
102
RTVSPropertyOp26
 70
     1
102
RTVSPropertyOp27
 70
     1
102
RTVSPropertyOp28
 70
     1
102
RTVSPropertyOp29
 70
     1
102
RTVSPropertyOp30
 70
     1
102
RTVSPropertyOp31
 70
     1
102
RTVSPropertyOp32
 70
     1
  0
ENDSEC
  0
SECTION
  2
THUMBNAILIMAGE
 90
    16364
310
28000000B40000005500000001000800000000000000000000000000000000000000000000000000FFFFFF00FF000000FFFF000000FF000000FFFF000000FF00FF00FF000000000080808000C0C0C000FF000000FF7F7F00A5000000A55252007F0000007F3F3F004C0000004C2626002600000026131300FF3F0000FF9F7F
310
00A5290000A56752007F1F00007F4F3F004C1300004C2F26002609000026171300FF7F0000FFBF7F00A5520000A57C52007F3F00007F5F3F004C2600004C39260026130000261C1300FFBF0000FFDF7F00A57C0000A59152007F5F00007F6F3F004C3900004C422600261C000026211300FFFF0000FFFF7F00A5A50000A5A5
310
52007F7F00007F7F3F004C4C00004C4C26002626000026261300BFFF0000DFFF7F007CA5000091A552005F7F00006F7F3F00394C0000424C26001C260000212613007FFF0000BFFF7F0052A500007CA552003F7F00005F7F3F00264C0000394C2600132600001C2613003FFF00009FFF7F0029A5000067A552001F7F00004F
310
7F3F00134C00002F4C2600092600001726130000FF00007FFF7F0000A5000052A55200007F00003F7F3F00004C0000264C2600002600001326130000FF3F007FFF9F0000A5290052A56700007F1F003F7F4F00004C1300264C2F00002609001326170000FF7F007FFFBF0000A5520052A57C00007F3F003F7F5F00004C2600
310
264C39000026130013261C0000FFBF007FFFDF0000A57C0052A59100007F5F003F7F6F00004C3900264C420000261C001326210000FFFF007FFFFF0000A5A50052A5A500007F7F003F7F7F00004C4C00264C4C00002626001326260000BFFF007FDFFF00007CA5005291A500005F7F003F6F7F0000394C0026424C00001C26
310
0013212600007FFF007FBFFF000052A500527CA500003F7F003F5F7F0000264C0026394C0000132600131C2600003FFF007F9FFF000029A5005267A500001F7F003F4F7F0000134C00262F4C0000092600131726000000FF007F7FFF000000A5005252A50000007F003F3F7F0000004C0026264C0000002600131326003F00
310
FF009F7FFF002900A5006752A5001F007F004F3F7F0013004C002F264C0009002600171326007F00FF00BF7FFF005200A5007C52A5003F007F005F3F7F0026004C0039264C00130026001C132600BF00FF00DF7FFF007C00A5009152A5005F007F006F3F7F0039004C0042264C001C00260021132600FF00FF00FF7FFF00A5
310
00A500A552A5007F007F007F3F7F004C004C004C264C002600260026132600FF00BF00FF7FDF00A5007C00A55291007F005F007F3F6F004C0039004C26420026001C0026132100FF007F00FF7FBF00A5005200A5527C007F003F007F3F5F004C0026004C2639002600130026131C00FF003F00FF7F9F00A5002900A5526700
310
7F001F007F3F4F004C0013004C262F002600090026131700000000002D2D2D005B5B5B0089898900B7B7B700B3B3B30000000000000000000000000000000000000000000000000000000000000000000000000000000000000000000000000000000000000000000000000000000000000000000000969696969600000000
310
00000000000000000000000000000000000000000000000000000000000000000000000000000000000000000000000000000000000000000000000000000000000000000000000000000000000000000000000000000000000000000000000000000000000000000000000000000000000000000000000000000000000000
310
00000000000000000000000000000000000000000000000000000000000000000000000000000000000000960000000000960000000000000000000000000000000000000000000000000000000000000000000000000000000000000000000000000000000000000000000000000000000000000000000000000000000000
310
00000000000000000000000000000000000000000000000000000000000000000000000000000000000000000000000000000000000000000000000000000000000000000000000000000000000000000000000000000000000000000000009600000000000000960000000000000000000000000000000000000000000000
310
00000000000000000000000000000000000000000000000000000000000000000000000000000000000000000000000000000000000000000000000000000000000000000000000000000000000000000000000000000000000000000000000000000000000000000000000000000000000000000000000000000000000000
310
00000000000000000000000000000000000000009600000000000000009600000000000000000000000000000000000000000000000000000000000000000000000000000000000000000000000000000000000000000000000000000000000000000000000000000000000000000000000000000000000000000000000000
310
00000000000000000000000000000000000000000000000000000000000000000000000000000000000000000000000000000000000000000000000000000000000000000000000000960000000000000000009600000000000000000000000000000000000000000000000000000000000000000000000000000000000000
310
00000000000000000000000000000000000000000000000000000000000000000000000000000000000000000000000000000000000000000000000000000000000000000000000000000000000000000000000000000000000000000000000000000000000000000000000000000000000000000000000000000000000096
310
00000000000000000096000000000000000000000000000000000000000000000000000000000000000000000000000000000000000000000000000000000000000000000000000000000000000000000000000000000000000000000000000000000000000000000000000000000000000000000000000000000000000000
310
00000000000000000000000000000000000000000000000000000000000000000000000000000000000000000000000000000096960000000000000000009696000000000000000000000000000000000000000000000000000000000000000000000000000000000000000000000000000000000000000000000000000000
310
00000000000000000000000000000000000000000000000000000000000000000000000000000000000000000000000000000000000000000000000000000000000000000000000000000000000000000000000000000000000000000000000000000000000096000000000000969600000000009600000000000000000000
310
00000000000000000000000000000000000000000000000000000000000000000000000000000000000000000000000000000000000000000000000000000000000000000000000000000000000000000000000000000000000000000000000000000000000000000000000000000000000000000000000000000000000000
310
00000000000000000000000000000000000000000000000000000096000000000000009696000000000000960000000000000000000000000000000000000000000000000000000000000000000000000000000000000000000000000000000000000000000000000000000000000000000000000000000000000000000000
310
00000000000000000000000000000000000000000000000000000000000000000000000000000000000000000000000000000000000000000000000000000000000000000000000000009696969696960000000000000000969600000000000000969696969696960000000000000000000000000000000000000000000000
310
00000000000000000000000000000000000000000000000000000000000000000000000000000000000000000000000000000000000000000000000000000000000000000000000000000000000000000000000000000000000000000000000000000000000000000000000000000000000000000000000000000000009696
310
00000000000000000000000000009696000000000000000000000000000096960000000000000000000000000000000000000000000000000000000000000000000000000000000000000000000000000000000000000000000000000000000000000000000000000000000000000000000000000000000000000000000000
310
00000000000000000000000000000000000000000000000000000000000000000000000000000000000000000000000000969600000000000000000000000000000000009600000000000000000000000000000000969600000000000000000000000000000000000000000000000000000000000000000000000000000000
310
00000000000000000000000000000000000000000000000000000000000000000000000000000000000000000000000000000000000000000000000000000000000000000000000000000000000000000000000000000000000000000000000000000000000096000000000000000000000000000000000000000000000000
310
00000000000000000000000096000000000000000000000000000000000000000000000000000000000000000000000000000000000000000000000000000000000000000000000000000000000000000000000000000000000000000000000000000000000000000000000000000000000000000000000000000000000000
310
00000000000000000000000000000000000000000000000000000000960000000000000000000000000000000000000000000000000000000000000000000000009600000000000000000000000000000000000000000000000000000000000000000000000000000000000000000000000000000000000000000000000000
310
00000000000000000000000000000000000000000000000000000000000000000000000000000000000000000000000000000000000000000000000000000000000000000000000000000000000000000096000000000000000000000000000000000000000000000000000000000000000000000000009600000000000000
310
00000000000000000000000000000000000000000000000000000000000000000000000000000000000000000000000000000000000000000000000000000000000000000000000000000000000000000000000000000000000000000000000000000000000000000000000000000000000000000000000000000000000000
310
00000000000096000000000000000000000000000000000000000000000000000000000000000000000000000096000000000000000000000000000000000000000000000000000000000000000000000000000000000000000000000000000000000000000000000000000000000000000000000000000000000000000000
310
00000000000000000000000000000000000000000000000000000000000000000000000000000000000000000000000000000000000000000000009600000000000000000000000000000000000000000000000000000000000000000000000000009600000000000000000000000000000000000000000000000000000000
310
00000000000000000000000000000000000000000000000000000000000000000000000000000000000000000000000000000000000000000000000000000000000000000000000000000000000000000000000000000000000000000000000000000000000000000000000000000000960000000000000000000000000000
310
00000000000000000000000000000000000000000000000096000000000000000000000000000000000000000000000000000000000000000000000000000000000000000000000000000000000000000000000000000000000000000000000000000000000000000000000000000000000000000000000000000000000000
310
00000000000000000000000000000000000000000000000000000000000000000000000000009600000000000000000000000000000000000000000000000000000000000000000000000000009600000000000000000000000000000000000000000000000000000000000000000000000000000000000000000000000000
310
00000000000000000000000000000000000000000000000000000000000000000000000000000000000000000000000000000000000000000000000000000000000000000000000000000000000000000000000000000000000000969696969696000000969696969696969696969696969696969696969696960000009696
310
96969696000000000000000000000000000000000000000000000000000000000000000000000000000000000000000000000000000000000000000000000000000000000000000000000000000000000000000000000000000000000000000000000000000000000000000000000000000000000000000000000000000000
310
00000000000000000000000000000000000000000000969696969696000000000000000000000000000000000000009696969696960000000000000000000000000000000000000000000000000000000000000000000000000000000000000000000000000000000000000000000000000000000000000000000000000000
310
00000000000000000000000000000000000000000000000000000000000000000000000000000000000000000000000000000000000000000000000000000000000000000000000000000000000000000000000000000000000000000000000000000000000000000000000000000000000000000000000000000000000000
310
00000000000000000000000000000000000000000000000000000000000000000000000000000000000000000000000000000000000000000000000000000000000000000000000000000000000000000000000000000000000000000000000000000000000000000000000000000000000000000000000000000000000000
310
00000000000000000000000000000000000000000000000000000000000000000000000000000000000000000000000000000000000000000000000000000000000000000000000000000000000000000000000000000000000000000000000000000000000000000000000000000000000000000000000000000000000000
310
00000000000000000000000000000000000000000000000000000000000000000000000000000000000000000000000000000000000000000000000000000000000000000000000000000000000000000000000000000000000000000000000000000000000000000000000000000000000000000000000000000000000000
310
00000000000000000000000000000000000000000000000000000000000000000000000000000000000000000000000000000000000000000000000000000000000000000000000000000000000000000000000000000000000000000000000000000000000000000000000000000000000000000000000000000000000000
310
00000000000000000000000000000000000000000000000000000000000000000000000000000000000000000000000000000000000000000000000000000000000000000000000000000000000000000000000000000000000000000000000000000000000000000000000000000000000000000000000000000000000000
310
00000000000000000000000000000000000000000000000000000000000000000000000000000000000000000000000000000000000000000000000000000000000000000000000000000000000000000000000000000000000000000000000000000000000000000000000000000000000000000000000000000000000000
310
00000000000000000000000000000000000000000000000000000000000000000000000000000000000000000000000000000000000000000000000000000000000000000000000000000000000000000000000000000000000000000000000000000000000000000000000000000000000000000000000000000000000000
310
00000000000000000000000000000000000000000000000000000000000000000000000000000000000000000000000000000000000000000000000000000000000000000000000000000000000000000000000000000000000000000000000000000000000000000000000000000000000000000000000000000000000000
310
00000000000000000000000000000000000000000000000000000000000000000000000000000000000000000000000000000000000000000000000000000000000000000000000000000000000000000000000000000000000000000000000000000000000000000000000000000000000000000000000000000000000000
310
00000000000000000000000000000000000000000000000000000000000000000000000000000000000000000000000000000000000000000000000000000000000000000000000000000000000000000000000000000000000000000000000000000000000000000000000000000000000000000000000000000000000000
310
00000000000000000000000000000000000000000000000000000000000000000000000000000000000000000000000000000000000000000000000000000000000000000000000000000000000000000000000000000000000000000000000000000000000000000000000000000000000000000000000000000000000000
310
00000000000000000000000000000000000000000000000000000000000000000000000000000000000000000000000000000000000000000000000000000000000000000000000000000000000000000000000000000000000000000000000000000000000000000000000000000000000000000000000000000000000000
310
00000000000000000000000000000000000000000000000000000000000000000000000000000000000000000000000000000000000000000000000000000000000000000000000000000000000000000000000000000000000000000000000000000000000000000000000000000000000000000000000000000000000000
310
00000000000000000000000000000000000000000000000000000000000000000000000000000000000000000000000000000000000000000000000000000000000000000000000000000000000000000000000000000000000000000000000000000000000000000000000000000000000000000000000000000000000000
310
00000000000000000000000000000000000000000000000000000000000000000000000000000000000000000000000000000000000000000000000000000000000000000000000000000000000000000000000000000000000000000000000000000000000000000000000000000000000000000000000000000000000000
310
00000000000000000000000000000000000000000000000000000000000000000000000000000000000000000000000000000000000000000000000000000000000000000000000000000000000000000000000000000000000000000000000000000000000000000000000000000000000000000000000000000000000000
310
00000000000000000000000000000000000000000000000000000000000000000000000000000000000000000000000000000000000000000000000000000000000000000000000000000000000000000000000000000000000000000000000000000000000000000000000000000000000000000000000000000000000000
310
00000000000000000000000000000000000000000000000000000000000000000000000000000000000000000000000000000000000000000000000000000000000000000000000000000000000000000000000000000000000000000000000000000000000000000000000000000000000000000000000000000000000000
310
00000000000000000000000000000000009600000000000000000000000000000000000000000000000000000000000000000000000000000000000000000000000000000000000000000000000000000000000000000000000000000000000000000000000000000000000000000000000000000000000000000000000000
310
00000000000000000000000000000000000000000000000000000000000000000000000000000000000000000000000000000000000000000000000000000000000000009696009696000000000000000000000000000000000000000000000000000000000000000000000000000000000000000096969696000000000000
310
00000000000000000000000000000000000000000000000000000000000000000000000000000000000000000000000000000000000000000000000000000000000000000000000000000000000000000000000000000000000000000000000000000000000000000000000000000000000000000000009696960000009696
310
96000000000000000000000000000000000000000000000000000000000000000000969696969696969696960000969696969696960000000000000000000000000000000000000000000000000000000000000000000000000000000000000000000000000000000000000000000000000000000000000000000000000000
310
00000000000000000000000000000000000000000000000000000000000000000000000000000000000000009696000000000096969600000000000000000000000000000000000000000000000000000000000000000096009696969600969696969696969696009696000000000000000000000000000000000000000000
310
00000000000000000000000000000000000000000000000000000000000000000000000000000000000000000000000000000000000000000000000000000000000000000000000000000000000000000000000000000000000000000000009600969600000000009600960096000000000000000000000000000000000000
310
00000000000000000000000000960096969600969696009600969696969696960000000000000000000000000000000000000000000000000000000000000000000000000000000000000000000000000000000000000000000000000000000000000000000000000000000000000000000000000000000000000000000000
310
00000000000000000000000000000000000000000096969696960000009696969696969600000000000000000000000000000000000000000000000000000000000096009696969696969696960000969696969696960000000000000000000000000000000000000000000000000000000000000000000000000000000000
310
00000000000000000000000000000000000000000000000000000000000000000000000000000000000000000000000000000000000000000000000000000000000000000000000096960096969696000000960096009600969600000000000000000000000000000000000000000000000000000000009600969696969696
310
00000000009600969696009600000000000000000000000000000000000000000000000000000000000000000000000000000000000000000000000000000000000000000000000000000000000000000000000000000000000000000000000000000000000000000000000000000000000000000000000000000000009696
310
96009696009600009600969696009696000000000000000000000000000000000000000000000000000000000096000096000096960096009696969696000096960000000000000000000000000000000000000000000000000000000000000000000000000000000000000000000000000000000000000000000000000000
310
00000000000000000000000000000000000000000000000000000000000000000000000000000000000000000000000000000000969600969600000000000096960096009600000000000000000000000000000000000000000000000000000000009600009600000096969696000000000000009600000000000000000000
310
00000000000000000000000000000000000000000000000000000000000000000000000000000000000000000000000000000000000000000000000000000000000000000000000000000000000000000000000000000000000000000000000000000000000000000000960096960000969600009696009600000000000000
310
00000000000000000000000000000000000000000000009696000096960096009696009696969696969600000000000000000000000000000000000000000000000000000000000000000000000000000000000000000000000000000000000000000000000000000000000000000000000000000000000000000000000000
310
00000000000000000000000000000000000000000000000000000000009696969696960096009696000096969696969696000000000000000000000000000000000000000000000000000000969600009600969696969600009696960000000000000000000000000000000000000000000000000000000000000000000000
310
00000000000000000000000000000000000000000000000000000000000000000000000000000000000000000000000000000000000000000000000000000000000000000000000000000000000096000000960096969696969600969600009696969696969600000000960000000000000000000000000000000000000000
310
00009600000096969696969696000000000000000000000000000000000000000000000000000000000000000000000000000000000000000000000000000000000000000000000000000000000000000000000000000000000000000000000000000000000000000000000000000000000000000000000000000000000000
310
00969696969696960096969696969696009696009696960096969696009696969696969600000000000000000000000000000000000000960000009696969696000000000000000000000000000000000000000000000000000000000000000000000000000000000000000000000000000000000000000000000000000000
310
00000000000000000000000000000000000000000000000000000000000000000000000000000000000000000000000000000000009696000000000096969696960000009600969600969600009696969696000000000096969600000000000000000000000000000000000096960000969696960096000000000000000000
310
00000000000000000000000000000000000000000000000000000000000000000000000000000000000000000000000000000000000000000000000000000000000000000000000000000000000000000000000000000000000000000000000000000000000000000096960000009600000096969696000000960000960096
310
96000096960096000000009600000096000000000000000000000000000000000000969600960096960096969600000000000000000000000000000000000000000000000000000000000000000000000000000000000000000000000000000000000000000000000000000000000000000000000000000000000000000000
310
00000000000000000000000000000000000000000000000000000000000000960096969600969696960000969696969696000096969696969600009600969696009696009696000000000000000000000000000000000000960096960096000096000000000000000000000000000000000000000000000000000000000000
310
00000000000000000000000000000000000000000000000000000000000000000000000000000000000000000000000000000000000000000000000000000000000000000000000000000000000000000000000096969696969696000000969696969696969600009600969696969696000000009696969600969600000000
310
00000000000000000000000000009600969696009696960000000000000000000000000000000000000000000000000000000000000000000000000000000000000000000000000000000000000000000000000000000000000000000000000000000000000000000000000000000000000000000000000000000000000000
310
00000000000000000000969600969696960096960000969696009696000096969600969696009696009600969696969696000000000000000000000000000000000000960096969696960000000000000000000000000000000000000000000000000000000000000000000000000000000000000000000000000000000000
310
00000000000000000000000000000000000000000000000000000000000000000000000000000000000000000000000000000000000000000000000000009696969696969696969696969696009696969600009696969600969696969696969696969696969696000000000000000000000000000000000096009696960000
310
00000000000000000000000000000000000000000000000000000000000000000000000000000000000000000000000000000000000000000000000000000000000000000000000000000000000000000000000000000000000000000000000000000000000000000000000000000000000096000000000000969696960000
310
00000000000000000000000000000000000000000000000000000000960000000000000000000000000000000000960096969600000000000000000000000000000000000000000000000000000000000000000000000000000000000000000000000000000000000000000000000000000000000000000000000000000000
310
00000000000000000000000000000000000000000000000000000000000000000000000000000000960000000000009696969600000000000000000000000000000000000000000096969696000000000096000000000000000000000000000000000096009696000000000000000000000000000000000000000000000000
310
00000000000000000000000000000000000000000000000000000000000000000000000000000000000000000000000000000000000000000000000000000000000000000000000000000000000000000000000000000000000000000096969696969696969696969696000000969696969696969696969600000096969696
310
96969696969696969600000000000000000000000000000000969600000000000000000000000000000000000000000000000000000000000000000000000000000000000000000000000000000000000000000000000000000000000000000000000000000000000000000000000000000000000000000000000000000000
310
00000000000000000000000000000000000000960096969696009696969696000000000096969600000096969600000000009696969600969696969696000000000000000000000000000000000000000000000000000000000000000000000000000000000000000000000000000000000000000000000000000000000000
310
00000000000000000000000000000000000000000000000000000000000000000000000000000000000000000000000000000000000000000000000000000000000000000000000096969696960000009696969696000000969696960000960096960000000096969696000000009696969600000000000000000000000000
310
00000000000000000000000000000000000000000000000000000000000000000000000000000000000000000000000000000000000000000000000000000000000000000000000000000000000000000000000000000000000000000000000000000000000000000000000000000000000000000000000000000000000096
310
96000000000096009600960000009600960096960096009600000096969696960000000000969600000000000000000000000000000000000000000000000000000000000000000000000000000000000000000000000000000000000000000000000000000000000000000000000000000000000000000000000000000000
310
00000000000000000000000000000000000000000000000000000000000000000000000000000000000000000000000000000000969696969696969696960096000000969696960096009600960000009600969696969696969696960000000000000000000000000000000000000000000000000000000000000000000000
310
00000000000000000000000000000000000000000000000000000000000000000000000000000000000000000000000000000000000000000000000000000000000000000000000000000000000000000000000000000000000000000000000000000000000000000000969600969600009696969696969696009696969600
310
96000096969600969696000096969696960000000000000000000000000000000000000000000000000000000000000000000000000000000000000000000000000000000000000000000000000000000000000000000000000000000000000000000000000000000000000000000000000000000000000000000000000000
310
00000000000000000000000000000000000000000000000000000000000000009696969696969696969696969696009696969696969696960096969696969696009696969696960000000000000000000000000000000000000000000000000000000000000000000000000000000000000000000000000000000000000000
310
00000000000000000000000000000000000000000000000000000000000000000000000000000000000000000000000000000000000000000000000000000000000000000000000000000000000000000000000000960096969600960000960096969696009696969696969600969696969696000096969696969600000000
310
00000000000000000000000000000000000000000000000000000000000000000000000000000000000000000000000000000000000000000000000000000000000000000000000000000000000000000000000000000000000000000000000000000000000000000000000000000000000000000000000000000000000000
310
00000000000000000000009600000096969600969696969696969696969696969696969696969696969600960096000096000000000000000000000000000000000000000000000000000000000000000000000000000000000000000000000000000000000000000000000000000000000000000000000000000000000000
310
00000000000000000000000000000000000000000000000000000000000000000000000000000000000000000000000000000000000000000000000000000000009696969696969696960096009696969696969696960096960096000096969696969696960000000000000000000000000000000000000000000000000000
310
00000000000000000000000000000000000000000000000000000000000000000000000000000000000000000000000000000000000000000000000000000000000000000000000000000000000000000000000000000000000000000000000000000000000000000000000000000000000000000000000096009696960000
310
00000096969696969600969696969696000000009696009696000000000000000000000000000000000000000000000000000000000000000000000000000000000000000000000000000000000000000000000000000000000000000000000000000000000000000000000000000000000000000000000000000000000000
310
00000000000000000000000000000000000000000000000000000000000000000000000000000000000000000096000096969600000000960096969696969696960096969600000000009696960096000000000000000000000000000000000000000000000000000000000000000000000000000000000000000000000000
310
00000000000000000000000000000000000000000000000000000000000000000000000000000000000000000000000000000000000000000000000000000000000000000000000000000000000000000000000000000000000000000000000000009696000000960000000096009696969696969696969696960000000000
310
96000000960000000000000000000000000000000000000000000000000000000000000000000000000000000000000000000000000000000000000000000000000000000000000000000000000000000000000000000000000000000000000000000000000000000000000000000000000000000000000000000000000000
310
00000000000000000000000000000000000000000000000000969696969600000000969696969696960096969696969600000000969696969696000000000000000000000000000000000000000000000000000000000000000000000000000000000000000000000000000000000000000000000000000000000000000000
310
00000000000000000000000000000000000000000000000000000000000000000000000000000000000000000000000000000000000000000000000000000000000000000000000000000000000096960096009600969696960096969600969600969696969696960096969696000000000000000000000000000000000000
310
00000000000000000000000000000000000000000000000000000000000000000000000000000000000000000000000000000000000000000000000000000000000000000000000000000000000000000000000000000000000000000000000000000000000000000000000000000000000000000000000000000000000000
310
00000000960096969696969696969696969696969600969696009696969600969696960000000000000000000000000000000000000000000000000000000000000000000000000000000000000000000000000000000000000000000000000000000000000000000000000000000000000000000000000000000000000000
310
00000000000000000000000000000000000000000000000000000000000000000000000000000000000000000000000000000000000000000096009696969696969696960000960096969696000096009696969696969696000000000000000000000000000000000000000000000000000000000000000000000000000000
310
00000000000000000000000000000000000000000000000000000000000000000000000000000000000000000000000000000000000000000000000000000000000000000000000000000000000000000000000000000000000000000000000000000000000000000000000000000096009696960000969696000096969696
310
96969600969696960000969696960000000000000000000000000000000000000000000000000000000000000000000000000000000000000000000000000000000000000000000000000000000000000000000000000000000000000000000000000000000000000000000000000000000000000000000000000000000000
310
00000000000000000000000000000000000000000000000000000000000000000000000000969600969600000096960096009696969600960096960000009696960096960000000000000000000000000000000000000000000000000000000000000000000000000000000000000000000000000000000000000000000000
310
00000000000000000000000000000000000000000000000000000000000000000000000000000000000000000000000000000000000000000000000000000000000000000000000000000000000000000000000000000000000000969696960096969696969696969696969600960096969600969696969600000000000000
310
00000000000000000000000000000000000000000000000000000000000000000000000000000000000000000000000000000000000000000000000000000000000000000000000000000000000000000000000000000000000000000000000000000000000000000000000000000000000000000000000000000000000000
310
00000000000000000000000000000000000096969600969600969696969696969696960096960096009696960000000000000000000000000000000000000000000000000000000000000000000000000000000000000000000000000000000000000000000000000000000000000000000000000000000000000000000000
310
00000000000000000000000000000000000000000000000000000000000000000000000000000000000000000000000000000000000000000000000000000000000000000000000000960000009696969696969696969696969696000000969600000000000000000000000000000000000000000000000000000000000000
310
00000000000000000000000000000000000000000000000000000000000000000000000000000000000000000000000000000000000000000000000000000000000000000000000000000000000000000000000000000000000000000000000000000000000000000000000000000000000000000000000000000000000096
310
00000000969696969600009696969696000000009600000000000000000000000000000000000000000000000000000000000000000000000000000000000000000000000000000000000000000000000000000000000000000000000000000000000000000000000000000000000000000000000000000000000000000000
310
00000000000000000000000000000000000000000000000000000000000000000000000000000000000000000000000000000000009696960096969696009600960096969600969696960000000000000000000000000000000000000000000000000000000000000000000000000000000000000000000000000000000000
310
00000000000000000000000000000000000000000000000000000000000000000000000000000000000000000000000000000000000000000000000000000000000000000000000000000000000000000000000000000000000000000000000000000000000000000000000000969696960000969600009696969600000000
310
00000000000000000000000000000000000000000000000000000000000000000000000000000000000000000000000000000000000000000000000000000000000000000000000000000000000000000000000000000000000000000000000000000000000000000000000000000000000000000000000000000000000000
310
00000000000000000000000000000000000000000000000000000000000000000000000000009696009696969696960000000000000000000000000000000000000000000000000000000000000000000000000000000000000000000000000000000000000000000000000000000000000000000000000000000000000000
310
00000000000000000000000000000000000000000000000000000000000000000000000000000000000000000000000000000000000000000000000000000000000000000000000000000000000000000000000000000000000000009696969696969600000000000000000000000000000000000000000000000000000000
310
00000000000000000000000000000000000000000000000000000000000000000000000000000000000000000000000000000000000000000000000000000000000000000000000000000000000000000000000000000000000000000000000000000000000000000000000000000000000000000000000000000000000000
310
00000000000000000000000000000000000096969696969696000000000000000000000000000000000000000000000000000000000000000000000000000000000000000000000000000000000000000000000000000000000000000000000000000000000000000000000000000000000000000000000000000000000000
310
00000000000000000000000000000000000000000000000000000000000000000000000000000000000000000000000000000000000000000000000000000000000000000000009696969696960000000000000000000000000000000000000000000000000000000000000000000000000000000000000000000000000000
310
00000000000000000000000000000000000000000000000000000000000000000000000000000000000000000000000000000000000000000000000000000000000000000000000000000000000000000000000000000000000000000000000000000000000000000000000000000000000000000000000000000000000000
310
000000000000000000000000000000000000000000000000000000000000000000000000000000000000000000000000000000000000000000000000000000000000000000000000000000000000000000000000000000000000000000000000000000000000000000000000
  0
ENDSEC
  0
EOF
