  0
SECTION
  2
HEADER
999
BEZARC 1.0.1
  9
$FASTZOOM
 70
0
  9
$FILLMODE
 70
1
  9
$SPLINETYPE
 70
5
  0
ENDSEC
  0
SECTION
  2
ENTITIES
  0
POLYLINE
  8
0
 66
1
 70
1
  0
VERTEX
  8
0
 10
7.429719
 20
3.104968
 42
0.102084
  0
VERTEX
  8
0
 10
7.300459
 20
3.129426
 42
0.087419
  0
VERTEX
  8
0
 10
7.152637
 20
3.103
 42
0.239215
  0
VERTEX
  8
0
 10
6.929719
 20
2.874412
 42
-0.004263
  0
VERTEX
  8
0
 10
6.921289
 20
2.875615
 42
0.248391
  0
VERTEX
  8
0
 10
6.774164
 20
2.834135
 42
-0.149547
  0
VERTEX
  8
0
 10
6.762575
 20
2.862607
 42
-0.021501
  0
VERTEX
  8
0
 10
6.753331
 20
2.917121
 42
-0.011133
  0
VERTEX
  8
0
 10
6.744997
 20
2.993857
 42
0.094161
  0
VERTEX
  8
0
 10
6.877734
 20
3.137494
 42
0.123869
  0
VERTEX
  8
0
 10
6.920981
 20
3.271866
 42
0.144818
  0
VERTEX
  8
0
 10
6.896027
 20
3.379733
 42
0.164153
  0
VERTEX
  8
0
 10
6.824164
 20
3.443857
 42
0.071504
  0
VERTEX
  8
0
 10
6.872533
 20
3.527265
 42
0.11388
  0
VERTEX
  8
0
 10
6.883429
 20
3.594773
 42
0.248029
  0
VERTEX
  8
0
 10
6.82156
 20
3.685176
 42
0.112905
  0
VERTEX
  8
0
 10
6.696061
 20
3.721238
 42
0.088932
  0
VERTEX
  8
0
 10
6.564442
 20
3.709135
 42
0.152763
  0
VERTEX
  8
0
 10
6.540657
 20
3.735459
 42
0.106342
  0
VERTEX
  8
0
 10
6.484581
 20
3.758267
 42
0.121427
  0
VERTEX
  8
0
 10
6.403504
 20
3.752689
 42
0.108128
  0
VERTEX
  8
0
 10
6.304719
 20
3.693857
  0
VERTEX
  8
0
 10
6.154719
 20
4.01469
 42
0.113566
  0
VERTEX
  8
0
 10
6.178092
 20
4.088265
 42
0.033009
  0
VERTEX
  8
0
 10
6.179815
 20
4.170994
 42
-0.103294
  0
VERTEX
  8
0
 10
6.194997
 20
4.309135
 42
0.227245
  0
VERTEX
  8
0
 10
6.362126
 20
4.703347
 42
0.247132
  0
VERTEX
  8
0
 10
6.154719
 20
5.059135
 42
0.13378
  0
VERTEX
  8
0
 10
5.917914
 20
5.113996
 42
0.156563
  0
VERTEX
  8
0
 10
5.689442
 20
5.03969
 42
0.06826
  0
VERTEX
  8
0
 10
5.682362
 20
5.046863
 42
-0.350941
  0
VERTEX
  8
0
 10
5.674164
 20
5.06469
 42
0.188595
  0
VERTEX
  8
0
 10
5.748021
 20
5.129148
 42
0.074106
  0
VERTEX
  8
0
 10
5.772721
 20
5.21593
 42
-0.064229
  0
VERTEX
  8
0
 10
5.795213
 20
5.298788
 42
-0.170779
  0
VERTEX
  8
0
 10
5.858886
 20
5.36469
 42
0.124308
  0
VERTEX
  8
0
 10
6.107324
 20
5.550628
 42
0.091927
  0
VERTEX
  8
0
 10
6.258886
 20
5.818857
 42
0.056179
  0
VERTEX
  8
0
 10
6.379806
 20
5.770419
 42
0.09987
  0
VERTEX
  8
0
 10
6.496386
 20
5.762607
 42
0.106897
  0
VERTEX
  8
0
 10
6.614355
 20
5.807919
 42
0.070982
  0
VERTEX
  8
0
 10
6.739442
 20
5.918857
 42
0.252157
  0
VERTEX
  8
0
 10
6.698738
 20
5.952088
 42
-0.193685
  0
VERTEX
  8
0
 10
6.654719
 20
5.984135
 42
0.100603
  0
VERTEX
  8
0
 10
6.85906
 20
6.140558
 42
0.084688
  0
VERTEX
  8
0
 10
6.931477
 20
6.253861
 42
0.174803
  0
VERTEX
  8
0
 10
6.939442
 20
6.368857
 42
-0.13759
  0
VERTEX
  8
0
 10
6.833641
 20
6.317757
 42
-0.14276
  0
VERTEX
  8
0
 10
6.735674
 20
6.329655
 42
-0.283791
  0
VERTEX
  8
0
 10
6.630612
 20
6.476554
 42
-0.057226
  0
VERTEX
  8
0
 10
6.64783
 20
6.63276
 42
0.058549
  0
VERTEX
  8
0
 10
6.664442
 20
6.784135
 42
-0.000643
  0
VERTEX
  8
0
 10
6.662417
 20
6.806134
 42
0.048581
  0
VERTEX
  8
0
 10
6.633202
 20
6.993294
 42
0.155801
  0
VERTEX
  8
0
 10
6.533886
 20
7.149412
 42
0.15677
  0
VERTEX
  8
0
 10
6.394997
 20
7.193857
 42
0.169904
  0
VERTEX
  8
0
 10
6.407266
 20
7.426032
 42
0.099676
  0
VERTEX
  8
0
 10
6.360888
 20
7.513791
 42
0.136555
  0
VERTEX
  8
0
 10
6.289442
 20
7.56469
 42
-0.006612
  0
VERTEX
  8
0
 10
6.305926
 20
7.592952
 42
0.046023
  0
VERTEX
  8
0
 10
6.344997
 20
7.668857
 42
0.178531
  0
VERTEX
  8
0
 10
6.3385
 20
7.784281
 42
0.272365
  0
VERTEX
  8
0
 10
6.260899
 20
7.843865
 42
0.057746
  0
VERTEX
  8
0
 10
6.208874
 20
7.840603
 42
-0.097419
  0
VERTEX
  8
0
 10
6.144997
 20
7.83969
 42
-0.292834
  0
VERTEX
  8
0
 10
6.094688
 20
7.916546
 42
-0.0903
  0
VERTEX
  8
0
 10
6.119553
 20
8.008668
 42
0.093729
  0
VERTEX
  8
0
 10
6.144997
 20
8.104968
 42
0.158181
  0
VERTEX
  8
0
 10
6.250078
 20
8.293426
 42
0.147787
  0
VERTEX
  8
0
 10
6.225842
 20
8.468915
 42
0.175709
  0
VERTEX
  8
0
 10
6.004719
 20
8.693857
 42
0.208324
  0
VERTEX
  8
0
 10
5.808886
 20
9.054968
 42
0.157687
  0
VERTEX
  8
0
 10
5.603851
 20
9.13101
 42
0.142579
  0
VERTEX
  8
0
 10
5.389442
 20
9.084135
 42
-0.253154
  0
VERTEX
  8
0
 10
5.304962
 20
9.093441
 42
-0.075629
  0
VERTEX
  8
0
 10
5.242708
 20
9.157494
 42
0.070575
  0
VERTEX
  8
0
 10
5.183886
 20
9.218857
 42
0.227661
  0
VERTEX
  8
0
 10
5.027722
 20
9.264975
 42
0.115075
  0
VERTEX
  8
0
 10
4.948774
 20
9.229361
 42
0.09012
  0
VERTEX
  8
0
 10
4.877758
 20
9.150756
 42
0.001991
  0
VERTEX
  8
0
 10
4.869777
 20
9.138183
 42
-0.062774
  0
VERTEX
  8
0
 10
4.82217
 20
9.07485
 42
-0.187691
  0
VERTEX
  8
0
 10
4.749164
 20
9.043857
 42
0.003884
  0
VERTEX
  8
0
 10
4.742821
 20
9.050069
 42
-0.224944
  0
VERTEX
  8
0
 10
4.714442
 20
9.099412
 42
0.027518
  0
VERTEX
  8
0
 10
4.740765
 20
9.145511
 42
0.102229
  0
VERTEX
  8
0
 10
4.789617
 20
9.314621
 42
0.16988
  0
VERTEX
  8
0
 10
4.739246
 20
9.492035
 42
0.137287
  0
VERTEX
  8
0
 10
4.598314
 20
9.605278
 42
0.28546
  0
VERTEX
  8
0
 10
4.238267
 20
9.560453
 42
0.175143
  0
VERTEX
  8
0
 10
4.134856
 20
9.371151
 42
0.143567
  0
VERTEX
  8
0
 10
4.154719
 20
9.168857
 42
0.156797
  0
VERTEX
  8
0
 10
4.316525
 20
9.011218
 42
0.145739
  0
VERTEX
  8
0
 10
4.544997
 20
8.974412
 42
-0.218082
  0
VERTEX
  8
0
 10
4.529954
 20
8.83358
 42
-0.073318
  0
VERTEX
  8
0
 10
4.435531
 20
8.728041
 42
0.029615
  0
VERTEX
  8
0
 10
4.367384
 20
8.659815
 42
0.096611
  0
VERTEX
  8
0
 10
4.319997
 20
8.579968
 42
0.13635
  0
VERTEX
  8
0
 10
4.313658
 20
8.50487
 42
0.051344
  0
VERTEX
  8
0
 10
4.335361
 20
8.43755
 42
-0.077468
  0
VERTEX
  8
0
 10
4.358886
 20
8.354968
 42
0.144112
  0
VERTEX
  8
0
 10
4.26806
 20
8.349528
 42
0.178572
  0
VERTEX
  8
0
 10
4.212828
 20
8.305899
 42
-0.128659
  0
VERTEX
  8
0
 10
4.168855
 20
8.335318
 42
0.040887
  0
VERTEX
  8
0
 10
4.140232
 20
8.358869
 42
0.159264
  0
VERTEX
  8
0
 10
4.108886
 20
8.368857
 42
0.152332
  0
VERTEX
  8
0
 10
3.892393
 20
9.039343
 42
0.150915
  0
VERTEX
  8
0
 10
3.339442
 20
9.474412
 42
0.103848
  0
VERTEX
  8
0
 10
2.956976
 20
9.52285
 42
0.073969
  0
VERTEX
  8
0
 10
2.767762
 20
9.478514
 42
0.101329
  0
VERTEX
  8
0
 10
2.608886
 20
9.374413
 42
0.102453
  0
VERTEX
  8
0
 10
2.485969
 20
9.496808
 42
0.055169
  0
VERTEX
  8
0
 10
2.333886
 20
9.574412
 42
0.181228
  0
VERTEX
  8
0
 10
1.906629
 20
9.547156
 42
0.129326
  0
VERTEX
  8
0
 10
1.569997
 20
9.268857
 42
0.108026
  0
VERTEX
  8
0
 10
1.46161
 20
9.055269
 42
0.034736
  0
VERTEX
  8
0
 10
1.417276
 20
8.815258
 42
-0.008451
  0
VERTEX
  8
0
 10
1.399164
 20
8.693857
  0
VERTEX
  8
0
 10
1.399164
 20
8.693857
 42
0.035297
  0
VERTEX
  8
0
 10
1.311644
 20
8.603464
 42
0.039213
  0
VERTEX
  8
0
 10
1.089264
 20
8.297012
 42
0.088216
  0
VERTEX
  8
0
 10
0.879413
 20
7.767193
 42
0.079503
  0
VERTEX
  8
0
 10
0.853376
 20
7.184698
 42
0.16911
  0
VERTEX
  8
0
 10
1.359461
 20
6.112954
 42
0.041034
  0
VERTEX
  8
0
 10
1.704719
 20
5.829968
 42
0.07466
  0
VERTEX
  8
0
 10
1.590136
 20
5.609308
 42
0.101722
  0
VERTEX
  8
0
 10
1.558886
 20
5.36469
 42
0.155203
  0
VERTEX
  8
0
 10
1.608192
 20
5.183945
 42
0.051038
  0
VERTEX
  8
0
 10
1.728492
 20
5.038216
 42
-0.028249
  0
VERTEX
  8
0
 10
1.823628
 20
4.929636
 42
-0.089162
  0
VERTEX
  8
0
 10
1.889442
 20
4.804968
 42
0.055131
  0
VERTEX
  8
0
 10
1.871733
 20
4.498718
 42
0.075141
  0
VERTEX
  8
0
 10
1.905067
 20
4.352624
 42
0.111529
  0
VERTEX
  8
0
 10
1.989442
 20
4.229968
 42
0.118824
  0
VERTEX
  8
0
 10
2.067635
 20
4.159059
 42
0.041945
  0
VERTEX
  8
0
 10
2.161555
 20
4.118791
 42
-0.025117
  0
VERTEX
  8
0
 10
2.233886
 20
4.08969
 42
-0.000001
  0
VERTEX
  8
0
 10
2.233763
 20
4.086483
 42
0.02501
  0
VERTEX
  8
0
 10
2.23102
 20
3.691989
 42
0.084069
  0
VERTEX
  8
0
 10
2.304719
 20
3.349412
 42
-0.189814
  0
VERTEX
  8
0
 10
2.262278
 20
3.32004
 42
-0.047784
  0
VERTEX
  8
0
 10
2.202941
 20
3.311175
 42
0.066469
  0
VERTEX
  8
0
 10
2.130066
 20
3.298418
 42
0.226441
  0
VERTEX
  8
0
 10
2.079719
 20
3.249412
 42
0.156265
  0
VERTEX
  8
0
 10
2.073183
 20
3.157035
 42
0.049405
  0
VERTEX
  8
0
 10
2.104225
 20
3.06994
 42
-0.000871
  0
VERTEX
  8
0
 10
2.108886
 20
3.059135
 42
-0.185737
  0
VERTEX
  8
0
 10
2.117263
 20
2.985632
 42
-0.097842
  0
VERTEX
  8
0
 10
2.084233
 20
2.926322
 42
0.151352
  0
VERTEX
  8
0
 10
2.014398
 20
2.744124
 42
0.241535
  0
VERTEX
  8
0
 10
2.099164
 20
2.554968
 42
0.060163
  0
VERTEX
  8
0
 10
1.937417
 20
2.061159
 42
0.082871
  0
VERTEX
  8
0
 10
1.929719
 20
1.579968
  0
VERTEX
  8
0
 10
1.929719
 20
1.579968
 42
0.084424
  0
VERTEX
  8
0
 10
2.014963
 20
1.605315
 42
0.215724
  0
VERTEX
  8
0
 10
2.05218
 20
1.647546
 42
0.145759
  0
VERTEX
  8
0
 10
2.049215
 20
1.679127
 42
0.089129
  0
VERTEX
  8
0
 10
2.024164
 20
1.718857
 42
-0.015916
  0
VERTEX
  8
0
 10
2.102115
 20
1.726843
 42
-0.055424
  0
VERTEX
  8
0
 10
2.239442
 20
1.724412
 42
-0.00232
  0
VERTEX
  8
0
 10
2.281699
 20
1.717287
 42
0.05771
  0
VERTEX
  8
0
 10
2.504517
 20
1.696333
 42
0.204469
  0
VERTEX
  8
0
 10
2.699164
 20
1.784135
 42
-0.112056
  0
VERTEX
  8
0
 10
2.834176
 20
1.864459
 42
-0.099035
  0
VERTEX
  8
0
 10
3.004719
 20
1.868857
 42
-0.133637
  0
VERTEX
  8
0
 10
3.142393
 20
1.79594
 42
-0.097895
  0
VERTEX
  8
0
 10
3.239442
 20
1.668857
  0
VERTEX
  8
0
 10
3.239442
 20
1.668857
 42
-0.101344
  0
VERTEX
  8
0
 10
3.367637
 20
1.717727
 42
-0.268771
  0
VERTEX
  8
0
 10
3.629719
 20
1.618857
 42
-0.089644
  0
VERTEX
  8
0
 10
3.644036
 20
1.595781
 42
0.111021
  0
VERTEX
  8
0
 10
3.66116
 20
1.569813
 42
0.293978
  0
VERTEX
  8
0
 10
3.694997
 20
1.568857
 42
0.302131
  0
VERTEX
  8
0
 10
3.633828
 20
1.760871
 42
0.105572
  0
VERTEX
  8
0
 10
3.449164
 20
1.859135
 42
0.280877
  0
VERTEX
  8
0
 10
3.269997
 20
2.03969
 42
-0.096392
  0
VERTEX
  8
0
 10
3.350818
 20
2.170251
 42
0.02399
  0
VERTEX
  8
0
 10
3.399164
 20
2.234135
 42
0.10272
  0
VERTEX
  8
0
 10
3.608826
 20
2.252936
 42
0.129975
  0
VERTEX
  8
0
 10
3.741354
 20
2.33611
 42
0.241
  0
VERTEX
  8
0
 10
3.80705
 20
2.579328
 42
0.005178
  0
VERTEX
  8
0
 10
3.797045
 20
2.62261
 42
-0.030855
  0
VERTEX
  8
0
 10
3.776829
 20
2.725726
 42
-0.104104
  0
VERTEX
  8
0
 10
3.783886
 20
2.824412
 42
-0.166031
  0
VERTEX
  8
0
 10
3.914442
 20
2.918857
 42
0.18072
  0
VERTEX
  8
0
 10
3.873643
 20
2.985697
 42
0.099167
  0
VERTEX
  8
0
 10
3.804719
 20
3.024412
 42
0.002741
  0
VERTEX
  8
0
 10
3.883308
 20
3.180787
 42
-0.016107
  0
VERTEX
  8
0
 10
4.079719
 20
3.554968
 42
0.07142
  0
VERTEX
  8
0
 10
4.414442
 20
3.509135
  0
VERTEX
  8
0
 10
5.154719
 20
2.904968
 42
-0.267945
  0
VERTEX
  8
0
 10
5.11611
 20
2.884607
 42
0.06913
  0
VERTEX
  8
0
 10
5.094997
 20
2.879968
 42
0.224556
  0
VERTEX
  8
0
 10
5.033192
 20
2.787433
 42
0.158119
  0
VERTEX
  8
0
 10
5.04564
 20
2.736106
 42
0.123363
  0
VERTEX
  8
0
 10
5.094997
 20
2.68969
 42
-0.107953
  0
VERTEX
  8
0
 10
5.094467
 20
2.602349
 42
0.026783
  0
VERTEX
  8
0
 10
5.089442
 20
2.554968
 42
0.222533
  0
VERTEX
  8
0
 10
5.127861
 20
2.484551
 42
0.07942
  0
VERTEX
  8
0
 10
5.198559
 20
2.45353
 42
-0.13279
  0
VERTEX
  8
0
 10
5.283886
 20
2.409135
 42
0.1456
  0
VERTEX
  8
0
 10
5.28988
 20
2.257818
 42
0.164629
  0
VERTEX
  8
0
 10
5.371283
 20
2.156318
 42
0.139824
  0
VERTEX
  8
0
 10
5.506556
 20
2.117684
 42
0.110705
  0
VERTEX
  8
0
 10
5.674164
 20
2.154968
 42
0.063776
  0
VERTEX
  8
0
 10
6.029719
 20
1.868857
 42
-0.096489
  0
VERTEX
  8
0
 10
6.198002
 20
1.936755
 42
-0.12623
  0
VERTEX
  8
0
 10
6.331478
 20
1.928102
 42
-0.250298
  0
VERTEX
  8
0
 10
6.47576
 20
1.773368
 42
0.132367
  0
VERTEX
  8
0
 10
6.49346
 20
1.73827
 42
0.1998
  0
VERTEX
  8
0
 10
6.518622
 20
1.727943
 42
0.105575
  0
VERTEX
  8
0
 10
6.584058
 20
1.74985
 42
-0.034717
  0
VERTEX
  8
0
 10
6.632216
 20
1.770253
 42
-0.130399
  0
VERTEX
  8
0
 10
6.679719
 20
1.774412
 42
-0.127682
  0
VERTEX
  8
0
 10
6.841004
 20
1.730836
 42
-0.169818
  0
VERTEX
  8
0
 10
6.949164
 20
1.609135
  0
VERTEX
  8
0
 10
7.319997
 20
1.943857
 42
0.067787
  0
VERTEX
  8
0
 10
7.245665
 20
1.997999
 42
-0.063581
  0
VERTEX
  8
0
 10
7.174164
 20
2.049412
 42
-0.131393
  0
VERTEX
  8
0
 10
7.494319
 20
2.258101
 42
-0.002252
  0
VERTEX
  8
0
 10
7.522198
 20
2.268089
 42
0.03745
  0
VERTEX
  8
0
 10
7.623876
 20
2.309786
 42
0.137061
  0
VERTEX
  8
0
 10
7.697042
 20
2.375046
 42
-0.013176
  0
VERTEX
  8
0
 10
7.840787
 20
2.597315
 42
0.002526
  0
VERTEX
  8
0
 10
7.908886
 20
2.699412
 42
0.082694
  0
VERTEX
  8
0
 10
7.948249
 20
2.944084
 42
0.156496
  0
VERTEX
  8
0
 10
7.892507
 20
3.133786
 42
0.250074
  0
VERTEX
  8
0
 10
7.725164
 20
3.20769
 42
0.076976
  0
VERTEX
  8
0
 10
7.594485
 20
3.182209
 42
0.048918
  0
SEQEND
  8
0
  0
POLYLINE
  8
0
 66
1
 70
1
  0
VERTEX
  8
0
 10
5.824164
 20
5.43969
 42
0.175812
  0
VERTEX
  8
0
 10
5.790191
 20
5.430235
 42
0.04483
  0
VERTEX
  8
0
 10
5.759332
 20
5.404619
 42
-0.044294
  0
VERTEX
  8
0
 10
5.729719
 20
5.379968
 42
0.117712
  0
VERTEX
  8
0
 10
5.698884
 20
5.32642
 42
0.036848
  0
VERTEX
  8
0
 10
5.685415
 20
5.264494
 42
-0.077248
  0
VERTEX
  8
0
 10
5.663242
 20
5.182588
 42
-0.222104
  0
VERTEX
  8
0
 10
5.594997
 20
5.129968
 42
0.015131
  0
VERTEX
  8
0
 10
5.562677
 20
5.124802
 42
-0.066837
  0
VERTEX
  8
0
 10
5.494997
 20
5.118857
  0
VERTEX
  8
0
 10
5.489442
 20
5.168857
 42
-0.032799
  0
VERTEX
  8
0
 10
5.360127
 20
5.071765
 42
-0.061254
  0
VERTEX
  8
0
 10
5.274488
 20
5.02875
 42
-0.194015
  0
VERTEX
  8
0
 10
5.185498
 20
5.02947
 42
0.246306
  0
VERTEX
  8
0
 10
5.139442
 20
5.029968
 42
-0.178414
  0
VERTEX
  8
0
 10
4.31178
 20
4.928811
 42
-0.128197
  0
VERTEX
  8
0
 10
3.935877
 20
5.129044
 42
-0.147042
  0
VERTEX
  8
0
 10
3.704719
 20
5.53969
 42
-0.069628
  0
VERTEX
  8
0
 10
3.699251
 20
5.643249
 42
-0.123676
  0
VERTEX
  8
0
 10
3.729719
 20
5.724412
 42
-0.422764
  0
VERTEX
  8
0
 10
3.757502
 20
5.71547
 42
-0.078389
  0
VERTEX
  8
0
 10
3.768212
 20
5.679248
 42
0.041171
  0
VERTEX
  8
0
 10
3.774164
 20
5.654968
 42
0.240077
  0
VERTEX
  8
0
 10
4.0428
 20
5.142874
 42
0.100361
  0
VERTEX
  8
0
 10
4.351675
 20
5.007728
 42
0.078015
  0
VERTEX
  8
0
 10
4.764442
 20
4.984135
 42
0.031607
  0
VERTEX
  8
0
 10
4.966122
 20
5.049397
 42
0.046842
  0
VERTEX
  8
0
 10
5.118277
 20
5.126198
 42
0.154127
  0
VERTEX
  8
0
 10
5.289266
 20
5.315154
 42
0.147794
  0
VERTEX
  8
0
 10
5.307913
 20
5.552489
 42
0.068475
  0
VERTEX
  8
0
 10
5.204719
 20
5.83969
 42
-0.260212
  0
VERTEX
  8
0
 10
5.206063
 20
5.874473
 42
-0.108838
  0
VERTEX
  8
0
 10
5.230867
 20
5.893371
 42
0.243575
  0
VERTEX
  8
0
 10
5.264442
 20
5.929968
 42
-0.272671
  0
VERTEX
  8
0
 10
5.367313
 20
6.135662
 42
-0.217486
  0
VERTEX
  8
0
 10
5.460241
 20
6.151552
 42
-0.237271
  0
VERTEX
  8
0
 10
5.533886
 20
6.068857
 42
0.169067
  0
VERTEX
  8
0
 10
5.586277
 20
5.990131
 42
0.056835
  0
VERTEX
  8
0
 10
5.667573
 20
5.944059
 42
-0.065913
  0
VERTEX
  8
0
 10
5.750138
 20
5.896147
 42
-0.127121
  0
VERTEX
  8
0
 10
5.875351
 20
5.708699
 42
-0.277815
  0
SEQEND
  8
0
  0
POLYLINE
  8
0
 66
1
 70
1
  0
VERTEX
  8
0
 10
6.144997
 20
7.73969
 42
0.000062
  0
VERTEX
  8
0
 10
6.149802
 20
7.739036
 42
-0.018234
  0
VERTEX
  8
0
 10
6.209902
 20
7.729526
 42
-0.100779
  0
VERTEX
  8
0
 10
6.248116
 20
7.715021
 42
-0.228749
  0
VERTEX
  8
0
 10
6.263402
 20
7.687687
 42
-0.10328
  0
VERTEX
  8
0
 10
6.254719
 20
7.63969
 42
-0.092581
  0
VERTEX
  8
0
 10
6.208566
 20
7.545246
 42
-0.059278
  0
VERTEX
  8
0
 10
6.123767
 20
7.454089
 42
-0.087026
  0
VERTEX
  8
0
 10
5.875825
 20
7.309685
 42
-0.105959
  0
VERTEX
  8
0
 10
5.58608
 20
7.262574
 42
-0.175477
  0
VERTEX
  8
0
 10
5.329719
 20
7.368857
 42
0.123216
  0
VERTEX
  8
0
 10
5.307696
 20
7.352443
 42
-0.003289
  0
VERTEX
  8
0
 10
5.304719
 20
7.349412
 42
0.112555
  0
VERTEX
  8
0
 10
5.331984
 20
7.297182
 42
0.036795
  0
VERTEX
  8
0
 10
5.374609
 20
7.254489
 42
-0.034725
  0
VERTEX
  8
0
 10
5.419997
 20
7.209135
 42
-0.228801
  0
VERTEX
  8
0
 10
5.326367
 20
7.121772
 42
-0.138043
  0
VERTEX
  8
0
 10
5.182151
 20
7.121577
 42
-0.1758
  0
VERTEX
  8
0
 10
4.896386
 20
7.320246
 42
-0.129421
  0
VERTEX
  8
0
 10
4.869694
 20
7.581885
 42
-0.142308
  0
VERTEX
  8
0
 10
4.977694
 20
7.80271
 42
-0.117245
  0
VERTEX
  8
0
 10
5.210666
 20
7.958345
 42
-0.085368
  0
VERTEX
  8
0
 10
5.558886
 20
8.024413
 42
0.268822
  0
VERTEX
  8
0
 10
5.583051
 20
8.061237
 42
-0.13778
  0
VERTEX
  8
0
 10
5.594997
 20
8.08969
 42
-0.183563
  0
VERTEX
  8
0
 10
5.764615
 20
8.191774
 42
-0.095145
  0
VERTEX
  8
0
 10
5.964442
 20
8.18969
 42
-0.07011
  0
VERTEX
  8
0
 10
6.022211
 20
8.161283
 42
-0.117535
  0
VERTEX
  8
0
 10
6.046386
 20
8.13535
 42
-0.225743
  0
VERTEX
  8
0
 10
6.049164
 20
8.109135
 42
0.116135
  0
VERTEX
  8
0
 10
5.850032
 20
8.145767
 42
0.165278
  0
VERTEX
  8
0
 10
5.664442
 20
8.068857
 42
0.028539
  0
VERTEX
  8
0
 10
5.639664
 20
8.041197
 42
-0.050732
  0
VERTEX
  8
0
 10
5.607084
 20
8.00683
 42
-0.159997
  0
VERTEX
  8
0
 10
5.564442
 20
7.98969
 42
0.362188
  0
VERTEX
  8
0
 10
5.564963
 20
7.956704
 42
0.21065
  0
VERTEX
  8
0
 10
5.589442
 20
7.934135
 42
0.118004
  0
VERTEX
  8
0
 10
5.547545
 20
7.85447
 42
-0.049089
  0
VERTEX
  8
0
 10
5.525703
 20
7.801598
 42
-0.135318
  0
VERTEX
  8
0
 10
5.483886
 20
7.759135
 42
0.309112
  0
VERTEX
  8
0
 10
5.492093
 20
7.742443
 42
-0.009729
  0
VERTEX
  8
0
 10
5.494997
 20
7.73969
 42
-0.007082
  0
VERTEX
  8
0
 10
5.658808
 20
7.807316
 42
0.022271
  0
VERTEX
  8
0
 10
5.949164
 20
7.934135
 42
0.092222
  0
VERTEX
  8
0
 10
5.875726
 20
7.974065
 42
0.040972
  0
VERTEX
  8
0
 10
5.799164
 20
7.999413
 42
-0.185927
  0
VERTEX
  8
0
 10
5.874609
 20
8.024212
 42
-0.059544
  0
VERTEX
  8
0
 10
5.954055
 20
8.009003
 42
0.060998
  0
VERTEX
  8
0
 10
6.033886
 20
7.993857
 42
-0.001951
  0
VERTEX
  8
0
 10
6.031242
 20
7.979755
 42
0.031609
  0
VERTEX
  8
0
 10
6.019652
 20
7.899144
 42
0.107058
  0
VERTEX
  8
0
 10
6.029719
 20
7.81469
 42
0.135984
  0
VERTEX
  8
0
 10
6.080588
 20
7.76469
 42
0.061572
  0
SEQEND
  8
0
  0
POLYLINE
  8
0
 66
1
 70
1
  0
VERTEX
  8
0
 10
4.514442
 20
9.184135
 42
0.048079
  0
VERTEX
  8
0
 10
4.509116
 20
9.087964
 42
-0.008967
  0
VERTEX
  8
0
 10
4.508886
 20
9.043857
 42
-0.01842
  0
VERTEX
  8
0
 10
4.492194
 20
9.084756
 42
0.081901
  0
VERTEX
  8
0
 10
4.449164
 20
9.168857
  0
VERTEX
  8
0
 10
4.394997
 20
9.049412
 42
-0.011808
  0
VERTEX
  8
0
 10
4.394761
 20
9.084299
 42
0.04623
  0
VERTEX
  8
0
 10
4.389442
 20
9.184135
  0
VERTEX
  8
0
 10
4.294997
 20
9.093857
  0
VERTEX
  8
0
 10
4.344997
 20
9.21469
 42
0.106946
  0
VERTEX
  8
0
 10
4.268026
 20
9.193544
 42
-0.046454
  0
VERTEX
  8
0
 10
4.214442
 20
9.174412
  0
VERTEX
  8
0
 10
4.314442
 20
9.268857
  0
VERTEX
  8
0
 10
4.179719
 20
9.284135
 42
-0.022304
  0
VERTEX
  8
0
 10
4.223178
 20
9.297666
 42
0.079028
  0
VERTEX
  8
0
 10
4.304719
 20
9.329968
  0
VERTEX
  8
0
 10
4.194997
 20
9.393857
  0
VERTEX
  8
0
 10
4.324164
 20
9.384135
  0
VERTEX
  8
0
 10
4.244997
 20
9.493857
 42
-0.001219
  0
VERTEX
  8
0
 10
4.265097
 20
9.481857
 42
0.026078
  0
VERTEX
  8
0
 10
4.358886
 20
9.429968
 42
0.084051
  0
VERTEX
  8
0
 10
4.333886
 20
9.559135
 42
-0.037936
  0
VERTEX
  8
0
 10
4.388305
 20
9.491509
 42
0.012538
  0
VERTEX
  8
0
 10
4.419997
 20
9.449412
  0
VERTEX
  8
0
 10
4.449164
 20
9.584135
 42
0.003819
  0
VERTEX
  8
0
 10
4.464442
 20
9.519551
 42
-0.003819
  0
VERTEX
  8
0
 10
4.479719
 20
9.454968
  0
VERTEX
  8
0
 10
4.558886
 20
9.559135
 42
-0.021362
  0
VERTEX
  8
0
 10
4.549832
 20
9.511211
 42
0.068645
  0
VERTEX
  8
0
 10
4.539442
 20
9.429968
  0
VERTEX
  8
0
 10
4.654719
 20
9.493857
  0
VERTEX
  8
0
 10
4.574164
 20
9.38969
 42
0.111279
  0
VERTEX
  8
0
 10
4.694391
 20
9.396433
 42
-0.00197
  0
VERTEX
  8
0
 10
4.708886
 20
9.399412
 42
-0.070901
  0
VERTEX
  8
0
 10
4.645907
 20
9.359475
 42
0.039043
  0
VERTEX
  8
0
 10
4.594997
 20
9.329968
  0
VERTEX
  8
0
 10
4.724164
 20
9.284135
 42
-0.049464
  0
VERTEX
  8
0
 10
4.66501
 20
9.278816
 42
0.081923
  0
VERTEX
  8
0
 10
4.589442
 20
9.268857
  0
VERTEX
  8
0
 10
4.689442
 20
9.179968
  0
VERTEX
  8
0
 10
4.564442
 20
9.218857
 42
0.105252
  0
VERTEX
  8
0
 10
4.59438
 20
9.135832
 42
-0.023623
  0
VERTEX
  8
0
 10
4.614442
 20
9.093857
  0
SEQEND
  8
0
  0
POLYLINE
  8
0
 66
1
 70
1
  0
VERTEX
  8
0
 10
1.305025
 20
6.419869
 42
-0.086009
  0
VERTEX
  8
0
 10
1.042288
 20
6.910799
 42
-0.085385
  0
VERTEX
  8
0
 10
0.970904
 20
7.402323
 42
-0.139937
  0
VERTEX
  8
0
 10
1.257001
 20
8.280606
 42
-0.163485
  0
VERTEX
  8
0
 10
1.74686
 20
8.671108
 42
-0.072199
  0
VERTEX
  8
0
 10
2.099644
 20
8.742776
 42
-0.055839
  0
VERTEX
  8
0
 10
2.529719
 20
8.718857
 42
0.255639
  0
VERTEX
  8
0
 10
2.569997
 20
8.749413
 42
0.07946
  0
VERTEX
  8
0
 10
2.494071
 20
8.790819
 42
0.041142
  0
VERTEX
  8
0
 10
2.387147
 20
8.820507
 42
0.043491
  0
VERTEX
  8
0
 10
2.113167
 20
8.846982
 42
0.031822
  0
VERTEX
  8
0
 10
1.813783
 20
8.833353
 42
0.044166
  0
VERTEX
  8
0
 10
1.554719
 20
8.784135
 42
-0.101063
  0
VERTEX
  8
0
 10
1.602983
 20
9.060871
 42
-0.128344
  0
VERTEX
  8
0
 10
1.769997
 20
9.28969
 42
-0.111277
  0
VERTEX
  8
0
 10
2.021491
 20
9.427512
 42
-0.125056
  0
VERTEX
  8
0
 10
2.254546
 20
9.432687
 42
-0.242176
  0
VERTEX
  8
0
 10
2.564442
 20
9.168857
 42
-0.005412
  0
VERTEX
  8
0
 10
2.569344
 20
9.163806
 42
0.080861
  0
VERTEX
  8
0
 10
2.590261
 20
9.14604
 42
0.336199
  0
VERTEX
  8
0
 10
2.614442
 20
9.149412
 42
-0.177835
  0
VERTEX
  8
0
 10
2.81827
 20
9.353265
 42
-0.140547
  0
VERTEX
  8
0
 10
3.13788
 20
9.40323
 42
-0.125208
  0
VERTEX
  8
0
 10
3.49716
 20
9.263786
 42
-0.111794
  0
VERTEX
  8
0
 10
3.819997
 20
8.899412
 42
-0.070393
  0
VERTEX
  8
0
 10
3.918087
 20
8.625628
 42
-0.041252
  0
VERTEX
  8
0
 10
3.954719
 20
8.329968
 42
0.209098
  0
VERTEX
  8
0
 10
3.988057
 20
8.291028
 42
0.068722
  0
VERTEX
  8
0
 10
4.037892
 20
8.276908
 42
-0.088079
  0
VERTEX
  8
0
 10
4.094997
 20
8.259135
 42
-0.125679
  0
VERTEX
  8
0
 10
4.269824
 20
8.100975
 42
-0.085925
  0
VERTEX
  8
0
 10
4.364442
 20
7.88969
 42
0.341909
  0
VERTEX
  8
0
 10
4.381312
 20
7.880625
 42
0.09892
  0
VERTEX
  8
0
 10
4.39915
 20
7.890379
 42
-0.070515
  0
VERTEX
  8
0
 10
4.414442
 20
7.899412
 42
-0.146914
  0
VERTEX
  8
0
 10
4.746386
 20
8.234656
 42
-0.109465
  0
VERTEX
  8
0
 10
5.199164
 20
8.36469
 42
-0.034883
  0
VERTEX
  8
0
 10
5.275282
 20
8.373113
 42
0.058029
  0
VERTEX
  8
0
 10
5.372744
 20
8.38686
 42
0.186873
  0
VERTEX
  8
0
 10
5.449164
 20
8.443857
 42
0.239438
  0
VERTEX
  8
0
 10
5.436143
 20
8.491774
 42
0.145454
  0
VERTEX
  8
0
 10
5.394997
 20
8.518857
  0
VERTEX
  8
0
 10
5.283886
 20
8.524413
 42
-0.099161
  0
VERTEX
  8
0
 10
5.447952
 20
8.63628
 42
-0.083101
  0
VERTEX
  8
0
 10
5.670692
 20
8.693972
 42
-0.110394
  0
VERTEX
  8
0
 10
5.902807
 20
8.665495
 42
-0.15095
  0
VERTEX
  8
0
 10
6.094997
 20
8.518857
 42
0.007892
  0
VERTEX
  8
0
 10
6.104862
 20
8.503647
 42
-0.175752
  0
VERTEX
  8
0
 10
6.133886
 20
8.424412
 42
0.177129
  0
VERTEX
  8
0
 10
5.980371
 20
8.543892
 42
0.106939
  0
VERTEX
  8
0
 10
5.788979
 20
8.563127
 42
0.09514
  0
VERTEX
  8
0
 10
5.629069
 20
8.517866
 42
0.09423
  0
VERTEX
  8
0
 10
5.582593
 20
8.482221
 42
0.226813
  0
VERTEX
  8
0
 10
5.569997
 20
8.443857
 42
-0.095564
  0
VERTEX
  8
0
 10
5.866062
 20
8.482688
 42
-0.082126
  0
VERTEX
  8
0
 10
6.019191
 20
8.447342
 42
-0.120407
  0
VERTEX
  8
0
 10
6.144997
 20
8.354968
 42
0.001449
  0
VERTEX
  8
0
 10
6.143967
 20
8.342376
 42
-0.04217
  0
VERTEX
  8
0
 10
6.134895
 20
8.275457
 42
-0.170598
  0
VERTEX
  8
0
 10
6.104719
 20
8.224412
 42
0.108869
  0
VERTEX
  8
0
 10
5.792682
 20
8.270419
 42
0.229675
  0
VERTEX
  8
0
 10
5.508886
 20
8.109135
 42
-0.00003
  0
VERTEX
  8
0
 10
5.490598
 20
8.107104
 42
0.012964
  0
VERTEX
  8
0
 10
5.204367
 20
8.070779
 42
0.054224
  0
VERTEX
  8
0
 10
4.989236
 20
8.015006
 42
0.09046
  0
VERTEX
  8
0
 10
4.819636
 20
7.90961
 42
0.068842
  0
VERTEX
  8
0
 10
4.669997
 20
7.724412
 42
0.288053
  0
VERTEX
  8
0
 10
4.684322
 20
7.716984
 42
0.038441
  0
VERTEX
  8
0
 10
4.718075
 20
7.714858
 42
0.015813
  0
VERTEX
  8
0
 10
4.80028
 20
7.71831
 42
-0.000352
  0
VERTEX
  8
0
 10
4.808886
 20
7.718857
 42
0.075664
  0
VERTEX
  8
0
 10
4.688763
 20
7.543637
 42
0.098302
  0
VERTEX
  8
0
 10
4.655467
 20
7.415151
 42
0.158104
  0
VERTEX
  8
0
 10
4.679719
 20
7.309135
 42
-0.117026
  0
VERTEX
  8
0
 10
4.756976
 20
7.421808
 42
-0.10927
  0
VERTEX
  8
0
 10
4.794997
 20
7.443857
  0
VERTEX
  8
0
 10
4.794997
 20
7.443857
 42
0.105239
  0
VERTEX
  8
0
 10
4.806456
 20
7.274933
 42
0.134662
  0
VERTEX
  8
0
 10
4.894997
 20
7.129968
 42
0.158488
  0
VERTEX
  8
0
 10
5.021037
 20
7.068243
 42
0.049158
  0
VERTEX
  8
0
 10
5.166748
 20
7.063107
 42
-0.029066
  0
VERTEX
  8
0
 10
5.282112
 20
7.06201
 42
-0.094706
  0
VERTEX
  8
0
 10
5.389442
 20
7.034135
 42
0.111472
  0
VERTEX
  8
0
 10
5.724321
 20
6.965355
 42
0.164804
  0
VERTEX
  8
0
 10
6.043436
 20
7.071974
 42
0.070697
  0
VERTEX
  8
0
 10
6.076881
 20
7.104847
 42
0.457621
  0
VERTEX
  8
0
 10
6.07735
 20
7.121594
 42
0.143839
  0
VERTEX
  8
0
 10
6.0513
 20
7.125477
 42
0.031677
  0
VERTEX
  8
0
 10
6.005186
 20
7.119762
 42
-0.107648
  0
VERTEX
  8
0
 10
5.766367
 20
7.126582
 42
-0.057294
  0
VERTEX
  8
0
 10
5.599164
 20
7.193857
 42
0.161257
  0
VERTEX
  8
0
 10
6.250553
 20
7.457746
 42
0.000048
  0
VERTEX
  8
0
 10
6.251434
 20
7.455633
 42
-0.045633
  0
VERTEX
  8
0
 10
6.282979
 20
7.363432
 42
-0.191014
  0
VERTEX
  8
0
 10
6.274164
 20
7.268857
 42
-0.002652
  0
VERTEX
  8
0
 10
6.260253
 20
7.253968
 42
0.01783
  0
VERTEX
  8
0
 10
6.224361
 20
7.213964
 42
0.452953
  0
VERTEX
  8
0
 10
6.264442
 20
7.024412
 42
0.190455
  0
VERTEX
  8
0
 10
6.314343
 20
7.022739
 42
0.069592
  0
VERTEX
  8
0
 10
6.355159
 20
7.046284
 42
-0.087557
  0
VERTEX
  8
0
 10
6.398056
 20
7.06988
 42
-0.228464
  0
VERTEX
  8
0
 10
6.449164
 20
7.059135
 42
-0.203657
  0
VERTEX
  8
0
 10
6.551004
 20
6.868167
 42
-0.057552
  0
VERTEX
  8
0
 10
6.543774
 20
6.635713
 42
0.022789
  0
VERTEX
  8
0
 10
6.532758
 20
6.491279
 42
0.084624
  0
VERTEX
  8
0
 10
6.54934
 20
6.36299
 42
0.155046
  0
VERTEX
  8
0
 10
6.620737
 20
6.263376
 42
0.120826
  0
VERTEX
  8
0
 10
6.774164
 20
6.204968
 42
-0.170176
  0
VERTEX
  8
0
 10
6.713226
 20
6.127885
 42
-0.079199
  0
VERTEX
  8
0
 10
6.619997
 20
6.084135
 42
-0.073137
  0
VERTEX
  8
0
 10
6.564066
 20
6.085351
 42
-0.0126
  0
VERTEX
  8
0
 10
6.491921
 20
6.096861
 42
0.075671
  0
VERTEX
  8
0
 10
6.419997
 20
6.104968
 42
0.120593
  0
VERTEX
  8
0
 10
6.392393
 20
6.063996
 42
0.265821
  0
VERTEX
  8
0
 10
6.399164
 20
6.018857
 42
0.1326
  0
VERTEX
  8
0
 10
6.544997
 20
5.918857
 42
-0.067945
  0
VERTEX
  8
0
 10
6.415483
 20
5.885871
 42
-0.170843
  0
VERTEX
  8
0
 10
6.279719
 20
5.909135
 42
-0.204924
  0
VERTEX
  8
0
 10
6.253002
 20
5.966917
 42
-0.048347
  0
VERTEX
  8
0
 10
6.255761
 20
6.040004
 42
0.018147
  0
VERTEX
  8
0
 10
6.258886
 20
6.079968
 42
0.102883
  0
VERTEX
  8
0
 10
6.269476
 20
6.25601
 42
0.173807
  0
VERTEX
  8
0
 10
6.189442
 20
6.409135
 42
0.109011
  0
VERTEX
  8
0
 10
6.102974
 20
6.465322
 42
0.118
  0
VERTEX
  8
0
 10
6.019417
 20
6.473657
 42
0.06889
  0
VERTEX
  8
0
 10
5.937212
 20
6.449783
 42
0.020203
  0
VERTEX
  8
0
 10
5.854799
 20
6.40934
 42
-0.012742
  0
VERTEX
  8
0
 10
5.786824
 20
6.375178
 42
-0.503223
  0
VERTEX
  8
0
 10
5.766159
 20
6.381476
 42
-0.067823
  0
VERTEX
  8
0
 10
5.758385
 20
6.41777
 42
0.095263
  0
VERTEX
  8
0
 10
5.739135
 20
6.488996
 42
0.289895
  0
VERTEX
  8
0
 10
5.667219
 20
6.526264
 42
0.146365
  0
VERTEX
  8
0
 10
5.583857
 20
6.50017
 42
0.222485
  0
VERTEX
  8
0
 10
5.557998
 20
6.448311
 42
0.093415
  0
VERTEX
  8
0
 10
5.569528
 20
6.38142
 42
0.023094
  0
VERTEX
  8
0
 10
5.598336
 20
6.31023
 42
-0.045189
  0
VERTEX
  8
0
 10
5.62793
 20
6.231881
 42
-0.111501
  0
VERTEX
  8
0
 10
5.62899
 20
6.202892
 42
-0.224476
  0
VERTEX
  8
0
 10
5.614442
 20
6.184135
 42
-0.062227
  0
VERTEX
  8
0
 10
5.451525
 20
6.2966
 42
-0.035567
  0
VERTEX
  8
0
 10
5.300683
 20
6.449883
 42
-0.036451
  0
VERTEX
  8
0
 10
5.064575
 20
6.773294
 42
0.147777
  0
VERTEX
  8
0
 10
4.716861
 20
7.081837
 42
0.215447
  0
VERTEX
  8
0
 10
4.258886
 20
7.084135
 42
0.104923
  0
VERTEX
  8
0
 10
4.058407
 20
6.905711
 42
0.05025
  0
VERTEX
  8
0
 10
3.954683
 20
6.720099
 42
-0.030376
  0
VERTEX
  8
0
 10
3.898204
 20
6.61084
 42
0.006855
  0
VERTEX
  8
0
 10
3.856798
 20
6.54147
 42
-0.017165
  0
VERTEX
  8
0
 10
3.69944
 20
6.288141
 42
-0.026047
  0
VERTEX
  8
0
 10
3.605768
 20
6.163816
 42
-0.062876
  0
VERTEX
  8
0
 10
3.514018
 20
6.076235
 42
-0.09258
  0
VERTEX
  8
0
 10
2.916567
 20
5.826526
 42
-0.080476
  0
VERTEX
  8
0
 10
2.434028
 20
5.798705
 42
-0.066537
  0
VERTEX
  8
0
 10
1.956025
 20
5.920667
 42
-0.079288
  0
VERTEX
  8
0
 10
1.569799
 20
6.144224
 42
-0.058483
  0
SEQEND
  8
0
  0
POLYLINE
  8
0
 66
1
 70
1
  0
VERTEX
  8
0
 10
2.606456
 20
4.980663
 42
-0.238239
  0
VERTEX
  8
0
 10
2.517567
 20
5.066774
 42
-0.165576
  0
VERTEX
  8
0
 10
2.535447
 20
5.17486
 42
0.055495
  0
VERTEX
  8
0
 10
2.584107
 20
5.326018
 42
0.06541
  0
VERTEX
  8
0
 10
2.589757
 20
5.413355
 42
0.119086
  0
VERTEX
  8
0
 10
2.565879
 20
5.491497
 42
0.12414
  0
VERTEX
  8
0
 10
2.494392
 20
5.55808
 42
0.038001
  0
VERTEX
  8
0
 10
2.401267
 20
5.600413
 42
-0.083102
  0
VERTEX
  8
0
 10
2.267567
 20
5.67094
 42
0.033568
  0
VERTEX
  8
0
 10
2.37384
 20
5.644787
 42
-0.047402
  0
VERTEX
  8
0
 10
2.519373
 20
5.605818
 42
-0.193271
  0
VERTEX
  8
0
 10
2.619947
 20
5.518687
 42
-0.133228
  0
VERTEX
  8
0
 10
2.638895
 20
5.36497
 42
-0.041175
  0
VERTEX
  8
0
 10
2.610269
 20
5.229116
 42
0.020033
  0
VERTEX
  8
0
 10
2.599643
 20
5.186821
 42
0.039239
  0
VERTEX
  8
0
 10
2.586957
 20
5.081649
 42
0.118755
  0
SEQEND
  8
0
  0
POLYLINE
  8
0
 66
1
 70
1
  0
VERTEX
  8
0
 10
3.244997
 20
2.379968
 42
-0.180343
  0
VERTEX
  8
0
 10
3.354179
 20
2.405812
 42
-0.063377
  0
VERTEX
  8
0
 10
3.459072
 20
2.375271
 42
0.111937
  0
VERTEX
  8
0
 10
3.599164
 20
2.343857
 42
-0.234526
  0
VERTEX
  8
0
 10
3.451812
 20
2.307945
 42
-0.058379
  0
VERTEX
  8
0
 10
3.294074
 20
2.360006
 42
0.007742
  0
SEQEND
  8
0
  0
POLYLINE
  8
0
 66
1
 70
1
  0
VERTEX
  8
0
 10
3.719997
 20
2.53969
 42
-0.231851
  0
VERTEX
  8
0
 10
3.700593
 20
2.474181
 42
-0.061398
  0
VERTEX
  8
0
 10
3.646259
 20
2.42704
 42
0.006995
  0
VERTEX
  8
0
 10
3.629719
 20
2.41469
 42
-0.132329
  0
VERTEX
  8
0
 10
3.547048
 20
2.41223
 42
-0.045879
  0
VERTEX
  8
0
 10
3.470333
 20
2.439256
 42
0.046175
  0
VERTEX
  8
0
 10
3.391593
 20
2.466916
 42
0.128813
  0
VERTEX
  8
0
 10
3.304719
 20
2.46469
 42
0.008975
  0
VERTEX
  8
0
 10
3.165021
 20
2.402378
 42
-0.016524
  0
VERTEX
  8
0
 10
2.985629
 20
2.324402
 42
-0.062443
  0
VERTEX
  8
0
 10
2.818445
 20
2.279785
 42
-0.137828
  0
VERTEX
  8
0
 10
2.670586
 20
2.299543
 42
-0.152039
  0
VERTEX
  8
0
 10
2.549164
 20
2.41469
 42
-0.096857
  0
VERTEX
  8
0
 10
2.499164
 20
2.593857
 42
0.255516
  0
VERTEX
  8
0
 10
2.46125
 20
2.597448
 42
0.074314
  0
VERTEX
  8
0
 10
2.42805
 20
2.575353
 42
-0.014125
  0
VERTEX
  8
0
 10
2.414442
 20
2.56469
 42
-0.091267
  0
VERTEX
  8
0
 10
2.283365
 20
2.550454
 42
-0.216657
  0
VERTEX
  8
0
 10
2.169997
 20
2.609135
 42
-0.156902
  0
VERTEX
  8
0
 10
2.124685
 20
2.681183
 42
-0.086482
  0
VERTEX
  8
0
 10
2.119997
 20
2.768857
 42
-0.143756
  0
VERTEX
  8
0
 10
2.219997
 20
2.968857
 42
0.090938
  0
VERTEX
  8
0
 10
2.204707
 20
3.062924
 42
-0.081262
  0
VERTEX
  8
0
 10
2.189649
 20
3.148085
 42
-0.259358
  0
VERTEX
  8
0
 10
2.233886
 20
3.218857
 42
-0.232776
  0
VERTEX
  8
0
 10
2.387343
 20
3.208138
 42
-0.073646
  0
VERTEX
  8
0
 10
2.50678
 20
3.103533
 42
0.039151
  0
VERTEX
  8
0
 10
2.596938
 20
3.017554
 42
0.131721
  0
VERTEX
  8
0
 10
2.704719
 20
2.968857
 42
0.074604
  0
VERTEX
  8
0
 10
2.950084
 20
2.912432
 42
0.094654
  0
VERTEX
  8
0
 10
3.202926
 20
2.93855
 42
-0.024148
  0
VERTEX
  8
0
 10
3.344997
 20
2.954968
  0
VERTEX
  8
0
 10
3.344997
 20
2.954968
 42
-0.043745
  0
VERTEX
  8
0
 10
3.315454
 20
2.934777
 42
0.173665
  0
VERTEX
  8
0
 10
3.258886
 20
2.879968
 42
0.199328
  0
VERTEX
  8
0
 10
3.273122
 20
2.827537
 42
0.085363
  0
VERTEX
  8
0
 10
3.314442
 20
2.78969
 42
0.133402
  0
VERTEX
  8
0
 10
3.43772
 20
2.811559
 42
0.045425
  0
VERTEX
  8
0
 10
3.543662
 20
2.875509
 42
-0.04973
  0
VERTEX
  8
0
 10
3.654199
 20
2.941401
 42
-0.144177
  0
VERTEX
  8
0
 10
3.783886
 20
2.959135
 42
0.194905
  0
VERTEX
  8
0
 10
3.701921
 20
2.791536
 42
0.058415
  0
VERTEX
  8
0
 10
3.712525
 20
2.59962
 42
-0.0061
  0
SEQEND
  8
0
  0
POLYLINE
  8
0
 66
1
 70
1
  0
VERTEX
  8
0
 10
5.149164
 20
3.834135
 42
-0.011384
  0
VERTEX
  8
0
 10
4.932606
 20
3.729491
 42
-0.033801
  0
VERTEX
  8
0
 10
4.70524
 20
3.643857
 42
-0.136164
  0
VERTEX
  8
0
 10
4.214442
 20
3.624412
 42
-0.104175
  0
VERTEX
  8
0
 10
3.898367
 20
3.735481
 42
-0.033291
  0
VERTEX
  8
0
 10
3.618126
 20
3.932845
 42
0.000353
  0
VERTEX
  8
0
 10
3.589442
 20
3.954968
 42
0.094051
  0
VERTEX
  8
0
 10
3.506803
 20
3.979447
 42
0.191473
  0
VERTEX
  8
0
 10
3.424164
 20
3.959135
 42
-0.101376
  0
VERTEX
  8
0
 10
3.475762
 20
3.928888
 42
0.06597
  0
VERTEX
  8
0
 10
3.504719
 20
3.909135
 42
-0.164901
  0
VERTEX
  8
0
 10
3.407431
 20
3.891356
 42
-0.106297
  0
VERTEX
  8
0
 10
3.299335
 20
3.93337
 42
-0.060552
  0
VERTEX
  8
0
 10
3.186292
 20
4.027155
 42
-0.03964
  0
VERTEX
  8
0
 10
3.074164
 20
4.16469
 42
0.046223
  0
VERTEX
  8
0
 10
2.991525
 20
4.256183
 42
0.168989
  0
VERTEX
  8
0
 10
2.883886
 20
4.304968
 42
-0.047687
  0
VERTEX
  8
0
 10
2.880764
 20
4.265657
 42
0.171454
  0
VERTEX
  8
0
 10
2.884686
 20
4.201575
 42
0.046004
  0
VERTEX
  8
0
 10
2.917062
 20
4.174861
 42
-0.042245
  0
VERTEX
  8
0
 10
2.955006
 20
4.143525
 42
0.069393
  0
VERTEX
  8
0
 10
3.156692
 20
3.949607
 42
0.093562
  0
VERTEX
  8
0
 10
3.399164
 20
3.834135
 42
-0.112737
  0
VERTEX
  8
0
 10
3.263617
 20
3.790971
 42
-0.080329
  0
VERTEX
  8
0
 10
3.116872
 20
3.802364
 42
-0.109219
  0
VERTEX
  8
0
 10
2.849164
 20
3.934135
 42
0.104003
  0
VERTEX
  8
0
 10
2.675984
 20
4.068478
 42
0.035464
  0
VERTEX
  8
0
 10
2.475507
 20
4.147648
 42
-0.015354
  0
VERTEX
  8
0
 10
2.344851
 20
4.195224
 42
-0.048254
  0
VERTEX
  8
0
 10
2.224478
 20
4.257195
 42
-0.171208
  0
VERTEX
  8
0
 10
2.049164
 20
4.484135
 42
-0.069794
  0
VERTEX
  8
0
 10
2.033433
 20
4.589086
 42
-0.02148
  0
VERTEX
  8
0
 10
2.036841
 20
4.699302
 42
0.041259
  0
VERTEX
  8
0
 10
2.037647
 20
4.847744
 42
0.137083
  0
VERTEX
  8
0
 10
1.989442
 20
4.979968
 42
0.006378
  0
VERTEX
  8
0
 10
1.932353
 20
5.036397
 42
-0.053884
  0
VERTEX
  8
0
 10
1.790786
 20
5.194532
 42
-0.164104
  0
VERTEX
  8
0
 10
1.733886
 20
5.393857
 42
-0.087329
  0
VERTEX
  8
0
 10
1.759928
 20
5.569378
 42
-0.127858
  0
VERTEX
  8
0
 10
1.858886
 20
5.718857
 42
-0.007862
  0
VERTEX
  8
0
 10
1.911648
 20
5.695674
 42
0.038271
  0
VERTEX
  8
0
 10
2.029719
 20
5.649412
 42
0.252132
  0
VERTEX
  8
0
 10
1.911333
 20
5.322731
 42
0.038321
  0
VERTEX
  8
0
 10
1.952691
 20
5.216748
 42
0.050334
  0
VERTEX
  8
0
 10
2.017757
 20
5.095564
 42
0.254636
  0
VERTEX
  8
0
 10
2.058713
 20
5.075609
 42
0.154443
  0
VERTEX
  8
0
 10
2.124164
 20
5.109135
 42
0.084311
  0
VERTEX
  8
0
 10
2.064867
 20
5.226211
 42
-0.03037
  0
VERTEX
  8
0
 10
2.0236
 20
5.295244
 42
-0.097248
  0
VERTEX
  8
0
 10
2.001737
 20
5.369872
 42
-0.243147
  0
VERTEX
  8
0
 10
2.094997
 20
5.568857
 42
-0.105153
  0
VERTEX
  8
0
 10
2.264397
 20
5.550185
 42
-0.123123
  0
VERTEX
  8
0
 10
2.391267
 20
5.470062
 42
-0.142125
  0
VERTEX
  8
0
 10
2.456739
 20
5.342324
 42
-0.134294
  0
VERTEX
  8
0
 10
2.441942
 20
5.180807
 42
-0.001821
  0
VERTEX
  8
0
 10
2.433218
 20
5.156422
 42
0.080633
  0
VERTEX
  8
0
 10
2.394444
 20
4.999392
 42
0.224669
  0
VERTEX
  8
0
 10
2.410584
 20
4.953155
 42
0.200294
  0
VERTEX
  8
0
 10
2.459065
 20
4.940942
 42
-0.084885
  0
VERTEX
  8
0
 10
2.632467
 20
4.906947
 42
-0.043547
  0
VERTEX
  8
0
 10
2.878645
 20
4.799032
 42
-0.053146
  0
VERTEX
  8
0
 10
3.126448
 20
4.630508
 42
-0.095582
  0
VERTEX
  8
0
 10
3.304719
 20
4.41469
 42
0.074157
  0
VERTEX
  8
0
 10
3.172167
 20
4.441869
 42
0.02186
  0
VERTEX
  8
0
 10
3.030554
 20
4.444187
 42
-0.006204
  0
VERTEX
  8
0
 10
2.958886
 20
4.443857
 42
-0.254399
  0
VERTEX
  8
0
 10
2.921811
 20
4.483632
 42
0.27529
  0
VERTEX
  8
0
 10
2.894532
 20
4.513829
 42
0.076295
  0
VERTEX
  8
0
 10
2.840462
 20
4.497774
 42
0.13526
  0
VERTEX
  8
0
 10
2.812712
 20
4.475952
 42
0.314608
  0
VERTEX
  8
0
 10
2.814442
 20
4.443857
 42
0.201577
  0
VERTEX
  8
0
 10
2.939221
 20
4.350466
 42
0.068268
  0
VERTEX
  8
0
 10
3.093836
 20
4.339591
 42
-0.012516
  0
VERTEX
  8
0
 10
3.164442
 20
4.33969
 42
0.020198
  0
VERTEX
  8
0
 10
3.273609
 20
4.312358
 42
-0.063081
  0
VERTEX
  8
0
 10
3.354496
 20
4.288113
 42
-0.05747
  0
VERTEX
  8
0
 10
3.454719
 20
4.218857
 42
0.134005
  0
VERTEX
  8
0
 10
3.520196
 20
4.2039
 42
0.044774
  0
VERTEX
  8
0
 10
3.587687
 20
4.213666
 42
-0.046405
  0
VERTEX
  8
0
 10
3.664442
 20
4.224412
 42
-0.120567
  0
VERTEX
  8
0
 10
3.957324
 20
4.261044
 42
-0.180618
  0
VERTEX
  8
0
 10
4.219997
 20
4.134135
 42
0.100162
  0
VERTEX
  8
0
 10
4.471039
 20
3.941947
 42
0.168712
  0
VERTEX
  8
0
 10
4.774164
 20
3.909135
 42
0.12575
  0
VERTEX
  8
0
 10
4.92894
 20
3.959588
 42
0.040736
  0
VERTEX
  8
0
 10
5.060398
 20
4.059983
 42
-0.028195
  0
VERTEX
  8
0
 10
5.170294
 20
4.14677
 42
-0.087839
  0
VERTEX
  8
0
 10
5.294997
 20
4.204968
 42
0.020701
  0
VERTEX
  8
0
 10
5.33485
 20
4.213888
 42
-0.071266
  0
VERTEX
  8
0
 10
5.412453
 20
4.226024
 42
-0.270618
  0
VERTEX
  8
0
 10
5.474164
 20
4.18969
 42
-0.236326
  0
VERTEX
  8
0
 10
5.47025
 20
4.149725
 42
0.400136
  0
VERTEX
  8
0
 10
5.474164
 20
4.109135
 42
0.157134
  0
VERTEX
  8
0
 10
5.578225
 20
4.154661
 42
0.047744
  0
VERTEX
  8
0
 10
5.658762
 20
4.241521
 42
-0.067629
  0
VERTEX
  8
0
 10
5.752476
 20
4.337791
 42
-0.214775
  0
VERTEX
  8
0
 10
5.879719
 20
4.36469
 42
0.278096
  0
VERTEX
  8
0
 10
5.882847
 20
4.409815
 42
-0.153254
  0
VERTEX
  8
0
 10
5.879719
 20
4.454968
 42
-0.100968
  0
VERTEX
  8
0
 10
5.914248
 20
4.593298
 42
-0.033613
  0
VERTEX
  8
0
 10
5.984809
 20
4.717375
 42
0.018475
  0
VERTEX
  8
0
 10
6.039442
 20
4.809135
 42
0.158212
  0
VERTEX
  8
0
 10
6.035101
 20
4.923371
 42
0.115407
  0
VERTEX
  8
0
 10
5.979719
 20
5.01469
 42
-0.186894
  0
VERTEX
  8
0
 10
6.108863
 20
4.935893
 42
-0.126876
  0
VERTEX
  8
0
 10
6.177868
 20
4.771634
 42
-0.095187
  0
VERTEX
  8
0
 10
6.170368
 20
4.552514
 42
-0.085639
  0
VERTEX
  8
0
 10
6.069997
 20
4.309135
 42
0.108851
  0
VERTEX
  8
0
 10
6.064734
 20
4.164024
 42
-0.026211
  0
VERTEX
  8
0
 10
6.069997
 20
4.08969
 42
0.003428
  0
VERTEX
  8
0
 10
6.060681
 20
4.065767
 42
-0.089062
  0
VERTEX
  8
0
 10
5.999164
 20
3.949413
 42
-0.129825
  0
VERTEX
  8
0
 10
5.850154
 20
3.861967
 42
-0.040212
  0
VERTEX
  8
0
 10
5.675429
 20
3.828102
 42
0.000873
  0
VERTEX
  8
0
 10
5.649164
 20
3.824413
 42
-0.022973
  0
VERTEX
  8
0
 10
5.662008
 20
3.846431
 42
0.07398
  0
VERTEX
  8
0
 10
5.683004
 20
3.888614
 42
0.238832
  0
VERTEX
  8
0
 10
5.674164
 20
3.934135
 42
0.285416
  0
VERTEX
  8
0
 10
5.626871
 20
3.9666
 42
0.076105
  0
VERTEX
  8
0
 10
5.56643
 20
3.958795
 42
-0.00744
  0
VERTEX
  8
0
 10
5.549164
 20
3.954968
 42
0.049678
  0
VERTEX
  8
0
 10
5.400792
 20
3.849178
 42
-0.061948
  0
VERTEX
  8
0
 10
5.233886
 20
3.734135
 42
0.142247
  0
VERTEX
  8
0
 10
5.245669
 20
3.824824
 42
0.336774
  0
VERTEX
  8
0
 10
5.213766
 20
3.850859
 42
0.121597
  0
SEQEND
  8
0
  0
POLYLINE
  8
0
 66
1
 70
1
  0
VERTEX
  8
0
 10
6.494997
 20
2.843857
 42
-0.024393
  0
VERTEX
  8
0
 10
6.457497
 20
2.907746
 42
-0.044643
  0
VERTEX
  8
0
 10
6.442653
 20
2.942294
 42
-0.417054
  0
VERTEX
  8
0
 10
6.444997
 20
2.959135
 42
0.051913
  0
VERTEX
  8
0
 10
6.529719
 20
3.06469
 42
0.144731
  0
VERTEX
  8
0
 10
6.504364
 20
3.119611
 42
0.238783
  0
VERTEX
  8
0
 10
6.459007
 20
3.134679
 42
0.139399
  0
VERTEX
  8
0
 10
6.379719
 20
3.093857
 42
0.087948
  0
VERTEX
  8
0
 10
6.348755
 20
3.002625
 42
0.026924
  0
VERTEX
  8
0
 10
6.338666
 20
2.902533
 42
-0.023085
  0
VERTEX
  8
0
 10
6.329719
 20
2.809135
 42
-0.130579
  0
VERTEX
  8
0
 10
6.280588
 20
2.677364
 42
-0.102652
  0
VERTEX
  8
0
 10
6.174164
 20
2.579968
 42
0.023096
  0
VERTEX
  8
0
 10
6.075736
 20
2.544926
 42
-0.024147
  0
VERTEX
  8
0
 10
5.975198
 20
2.509288
 42
-0.072881
  0
VERTEX
  8
0
 10
5.869997
 20
2.493857
 42
-0.052676
  0
VERTEX
  8
0
 10
5.845952
 20
2.406009
 42
-0.097053
  0
VERTEX
  8
0
 10
5.799164
 20
2.332745
 42
-0.109114
  0
VERTEX
  8
0
 10
5.717653
 20
2.280315
 42
-0.076822
  0
VERTEX
  8
0
 10
5.589442
 20
2.254968
 42
-0.292057
  0
VERTEX
  8
0
 10
5.408886
 20
2.343857
 42
0.160161
  0
VERTEX
  8
0
 10
5.347949
 20
2.468857
 42
0.133101
  0
VERTEX
  8
0
 10
5.229719
 20
2.543857
 42
-0.142548
  0
VERTEX
  8
0
 10
5.203241
 20
2.598361
 42
-0.043172
  0
VERTEX
  8
0
 10
5.198063
 20
2.661706
 42
0.059672
  0
VERTEX
  8
0
 10
5.190527
 20
2.734902
 42
0.186994
  0
VERTEX
  8
0
 10
5.149164
 20
2.793857
 42
-0.083763
  0
VERTEX
  8
0
 10
5.308192
 20
2.83535
 42
-0.053975
  0
VERTEX
  8
0
 10
5.479719
 20
2.834135
 42
0.31115
  0
VERTEX
  8
0
 10
5.489442
 20
2.88969
 42
0.145933
  0
VERTEX
  8
0
 10
5.369997
 20
2.943857
 42
-0.05475
  0
VERTEX
  8
0
 10
5.546243
 20
3.015721
 42
-0.017611
  0
VERTEX
  8
0
 10
5.734548
 20
3.062436
 42
0.033329
  0
VERTEX
  8
0
 10
5.993092
 20
3.132333
 42
0.099943
  0
VERTEX
  8
0
 10
6.224164
 20
3.268857
 42
0.181876
  0
VERTEX
  8
0
 10
6.190483
 20
3.30219
 42
0.028457
  0
VERTEX
  8
0
 10
6.158886
 20
3.318857
 42
0.159354
  0
VERTEX
  8
0
 10
6.20847
 20
3.387393
 42
0.043284
  0
VERTEX
  8
0
 10
6.230062
 20
3.478263
 42
-0.037924
  0
VERTEX
  8
0
 10
6.249373
 20
3.562214
 42
-0.144129
  0
VERTEX
  8
0
 10
6.290852
 20
3.626238
 42
-0.175078
  0
VERTEX
  8
0
 10
6.376851
 20
3.651423
 42
-0.080805
  0
VERTEX
  8
0
 10
6.529719
 20
3.618857
 42
-0.085429
  0
VERTEX
  8
0
 10
6.672462
 20
3.654035
 42
-0.184135
  0
VERTEX
  8
0
 10
6.762797
 20
3.631415
 42
-0.308074
  0
VERTEX
  8
0
 10
6.780342
 20
3.558766
 42
-0.121701
  0
VERTEX
  8
0
 10
6.704719
 20
3.443857
 42
0.174648
  0
VERTEX
  8
0
 10
6.740358
 20
3.407509
 42
-0.001537
  0
VERTEX
  8
0
 10
6.744824
 20
3.404621
 42
-0.294622
  0
VERTEX
  8
0
 10
6.789994
 20
3.296213
 42
-0.089762
  0
VERTEX
  8
0
 10
6.762587
 20
3.209993
 42
-0.058793
  0
VERTEX
  8
0
 10
6.690915
 20
3.104724
 42
-0.011253
  0
VERTEX
  8
0
 10
6.634157
 20
3.041567
 42
0.024543
  0
VERTEX
  8
0
 10
6.552582
 20
2.947543
 42
0.081273
  0
SEQEND
  8
0
  0
POLYLINE
  8
0
 66
1
 70
1
  0
VERTEX
  8
0
 10
7.794997
 20
2.984135
 42
0.188301
  0
VERTEX
  8
0
 10
7.524164
 20
2.943857
 42
-0.235078
  0
VERTEX
  8
0
 10
7.449164
 20
2.954968
 42
0.145252
  0
VERTEX
  8
0
 10
7.239268
 20
2.927711
 42
0.109927
  0
VERTEX
  8
0
 10
7.069997
 20
2.799412
 42
-0.130475
  0
VERTEX
  8
0
 10
7.025194
 20
2.819146
 42
0.028148
  0
VERTEX
  8
0
 10
6.999164
 20
2.834135
 42
-0.296989
  0
VERTEX
  8
0
 10
7.519997
 20
3.024412
 42
-0.124196
  0
VERTEX
  8
0
 10
7.662011
 20
3.068857
 42
-0.083354
  0
VERTEX
  8
0
 10
7.814442
 20
3.054968
  0
SEQEND
  8
0
  0
POLYLINE
  8
0
 66
1
 70
1
  0
VERTEX
  8
0
 10
4.514442
 20
7.554968
 42
-0.078623
  0
VERTEX
  8
0
 10
4.749685
 20
7.974933
 42
-0.056098
  0
VERTEX
  8
0
 10
4.922449
 20
8.148523
 42
-0.075478
  0
VERTEX
  8
0
 10
5.129719
 20
8.268857
 42
0.123877
  0
VERTEX
  8
0
 10
4.849164
 20
8.173197
 42
0.081176
  0
VERTEX
  8
0
 10
4.619997
 20
7.96469
 42
0.089508
  0
VERTEX
  8
0
 10
4.574806
 20
7.900566
 42
-0.062108
  0
VERTEX
  8
0
 10
4.541536
 20
7.849354
 42
-0.203434
  0
VERTEX
  8
0
 10
4.489442
 20
7.824413
 42
-0.000515
  0
VERTEX
  8
0
 10
4.487948
 20
7.803362
 42
0.019522
  0
VERTEX
  8
0
 10
4.478634
 20
7.595973
 42
0.096101
  0
VERTEX
  8
0
 10
4.487205
 20
7.532089
 42
0.566573
  0
VERTEX
  8
0
 10
4.498029
 20
7.529861
 42
0.100989
  0
SEQEND
  8
0
  0
POLYLINE
  8
0
 66
1
 70
1
  0
VERTEX
  8
0
 10
1.274164
 20
7.03969
 42
0.115378
  0
VERTEX
  8
0
 10
1.314442
 20
6.68969
 42
0.100895
  0
VERTEX
  8
0
 10
1.459711
 20
6.48012
 42
0.074281
  0
VERTEX
  8
0
 10
1.662011
 20
6.339169
 42
0.043852
  0
VERTEX
  8
0
 10
1.892957
 20
6.248479
 42
0.019486
  0
VERTEX
  8
0
 10
2.124164
 20
6.18969
 42
-0.05668
  0
VERTEX
  8
0
 10
1.638747
 20
6.556878
 42
-0.087306
  0
SEQEND
  8
0
  0
POLYLINE
  8
0
 66
1
 70
1
  0
VERTEX
  8
0
 10
6.489442
 20
6.174412
 42
0.151548
  0
VERTEX
  8
0
 10
6.444997
 20
6.693857
 42
0.280268
  0
VERTEX
  8
0
 10
6.099164
 20
7.024412
  0
VERTEX
  8
0
 10
6.099164
 20
6.993857
 42
-0.020869
  0
VERTEX
  8
0
 10
6.253309
 20
6.812303
 42
-0.040359
  0
VERTEX
  8
0
 10
6.38024
 20
6.619551
 42
-0.137082
  0
SEQEND
  8
0
  0
POLYLINE
  8
0
 66
1
 70
1
  0
VERTEX
  8
0
 10
6.264442
 20
6.418857
 42
0.120155
  0
VERTEX
  8
0
 10
6.29004
 20
6.468154
 42
0.038315
  0
VERTEX
  8
0
 10
6.299082
 20
6.523672
 42
-0.000007
  0
VERTEX
  8
0
 10
6.299164
 20
6.524412
 42
0.192665
  0
VERTEX
  8
0
 10
6.210449
 20
6.759482
 42
0.055354
  0
VERTEX
  8
0
 10
6.014442
 20
6.934135
 42
0.060672
  0
VERTEX
  8
0
 10
5.949511
 20
6.898892
 42
0.050519
  0
VERTEX
  8
0
 10
5.924207
 20
6.87808
 42
0.445299
  0
VERTEX
  8
0
 10
5.919997
 20
6.86469
 42
-0.076253
  0
VERTEX
  8
0
 10
6.162011
 20
6.690732
 42
-0.092213
  0
VERTEX
  8
0
 10
6.244607
 20
6.567815
 42
-0.13246
  0
SEQEND
  8
0
  0
POLYLINE
  8
0
 66
1
 70
1
  0
VERTEX
  8
0
 10
2.067853
 20
8.33764
  0
VERTEX
  8
0
 10
2.097342
 20
8.263344
  0
VERTEX
  8
0
 10
2.138374
 20
8.331943
  0
VERTEX
  8
0
 10
2.218146
 20
8.337028
  0
VERTEX
  8
0
 10
2.165585
 20
8.397257
  0
VERTEX
  8
0
 10
2.185393
 20
8.474697
  0
VERTEX
  8
0
 10
2.111878
 20
8.443314
  0
VERTEX
  8
0
 10
2.04435
 20
8.486085
  0
VERTEX
  8
0
 10
2.051478
 20
8.406469
  0
VERTEX
  8
0
 10
1.989932
 20
8.355465
  0
SEQEND
  8
0
  0
POLYLINE
  8
0
 66
1
 70
1
  0
VERTEX
  8
0
 10
2.482726
 20
8.111394
  0
VERTEX
  8
0
 10
2.512217
 20
8.0371
  0
VERTEX
  8
0
 10
2.553249
 20
8.105696
  0
VERTEX
  8
0
 10
2.633021
 20
8.110782
  0
VERTEX
  8
0
 10
2.580458
 20
8.171011
  0
VERTEX
  8
0
 10
2.600267
 20
8.248451
  0
VERTEX
  8
0
 10
2.526751
 20
8.217068
  0
VERTEX
  8
0
 10
2.459224
 20
8.259839
  0
VERTEX
  8
0
 10
2.466351
 20
8.180225
  0
VERTEX
  8
0
 10
2.404807
 20
8.129219
  0
SEQEND
  8
0
  0
POLYLINE
  8
0
 66
1
 70
1
  0
VERTEX
  8
0
 10
1.451665
 20
8.216681
  0
VERTEX
  8
0
 10
1.514826
 20
8.266529
  0
VERTEX
  8
0
 10
1.591699
 20
8.242757
  0
VERTEX
  8
0
 10
1.563808
 20
8.318239
  0
VERTEX
  8
0
 10
1.610168
 20
8.384004
  0
VERTEX
  8
0
 10
1.529768
 20
8.380797
  0
VERTEX
  8
0
 10
1.481547
 20
8.44521
  0
VERTEX
  8
0
 10
1.459753
 20
8.367756
  0
VERTEX
  8
0
 10
1.38359
 20
8.3418
  0
VERTEX
  8
0
 10
1.450518
 20
8.297136
  0
SEQEND
  8
0
  0
POLYLINE
  8
0
 66
1
 70
1
  0
VERTEX
  8
0
 10
1.913425
 20
9.08109
  0
VERTEX
  8
0
 10
1.886935
 20
9.144897
  0
VERTEX
  8
0
 10
1.852403
 20
9.085058
  0
VERTEX
  8
0
 10
1.783533
 20
9.079583
  0
VERTEX
  8
0
 10
1.829771
 20
9.02825
  0
VERTEX
  8
0
 10
1.813693
 20
8.961058
  0
VERTEX
  8
0
 10
1.876804
 20
8.989169
  0
VERTEX
  8
0
 10
1.935737
 20
8.953115
  0
VERTEX
  8
0
 10
1.928508
 20
9.021829
  0
VERTEX
  8
0
 10
1.981006
 20
9.06674
  0
SEQEND
  8
0
  0
POLYLINE
  8
0
 66
1
 70
1
  0
VERTEX
  8
0
 10
2.274757
 20
9.03025
  0
VERTEX
  8
0
 10
2.224164
 20
9.084135
  0
VERTEX
  8
0
 10
2.212165
 20
9.011197
  0
VERTEX
  8
0
 10
2.145286
 20
8.979728
  0
VERTEX
  8
0
 10
2.210946
 20
8.945786
  0
VERTEX
  8
0
 10
2.220207
 20
8.872457
  0
VERTEX
  8
0
 10
2.272778
 20
8.924414
  0
VERTEX
  8
0
 10
2.345381
 20
8.91056
  0
VERTEX
  8
0
 10
2.312214
 20
8.976612
  0
VERTEX
  8
0
 10
2.347826
 20
9.041381
  0
SEQEND
  8
0
  0
POLYLINE
  8
0
 66
1
 70
1
  0
VERTEX
  8
0
 10
2.761343
 20
8.921672
  0
VERTEX
  8
0
 10
2.787396
 20
8.969811
  0
VERTEX
  8
0
 10
2.841821
 20
8.975639
  0
VERTEX
  8
0
 10
2.80409
 20
9.015293
  0
VERTEX
  8
0
 10
2.815368
 20
9.068857
  0
VERTEX
  8
0
 10
2.765989
 20
9.045226
  0
VERTEX
  8
0
 10
2.718531
 20
9.0725
  0
VERTEX
  8
0
 10
2.725751
 20
9.018242
  0
VERTEX
  8
0
 10
2.685146
 20
8.981535
  0
VERTEX
  8
0
 10
2.738979
 20
8.971632
  0
SEQEND
  8
0
  0
POLYLINE
  8
0
 66
1
 70
1
  0
VERTEX
  8
0
 10
3.046158
 20
8.817696
  0
VERTEX
  8
0
 10
3.115404
 20
8.866661
  0
VERTEX
  8
0
 10
3.194997
 20
8.837375
  0
VERTEX
  8
0
 10
3.169829
 20
8.918371
  0
VERTEX
  8
0
 10
3.222274
 20
8.985021
  0
VERTEX
  8
0
 10
3.137469
 20
8.986104
  0
VERTEX
  8
0
 10
3.090287
 20
9.056579
  0
VERTEX
  8
0
 10
3.063051
 20
8.976262
  0
VERTEX
  8
0
 10
2.981446
 20
8.953168
  0
VERTEX
  8
0
 10
3.049414
 20
8.902443
  0
SEQEND
  8
0
  0
POLYLINE
  8
0
 66
1
 70
1
  0
VERTEX
  8
0
 10
3.157585
 20
9.13124
  0
VERTEX
  8
0
 10
3.196797
 20
9.175399
  0
VERTEX
  8
0
 10
3.255406
 20
9.168128
  0
VERTEX
  8
0
 10
3.225526
 20
9.219068
  0
VERTEX
  8
0
 10
3.250553
 20
9.27256
  0
VERTEX
  8
0
 10
3.192868
 20
9.259887
  0
VERTEX
  8
0
 10
3.149725
 20
9.300215
  0
VERTEX
  8
0
 10
3.14396
 20
9.24144
  0
VERTEX
  8
0
 10
3.092272
 20
9.212872
  0
VERTEX
  8
0
 10
3.146387
 20
9.189225
  0
SEQEND
  8
0
  0
POLYLINE
  8
0
 66
1
 70
1
  0
VERTEX
  8
0
 10
3.532149
 20
8.906143
  0
VERTEX
  8
0
 10
3.582204
 20
8.929937
  0
VERTEX
  8
0
 10
3.630182
 20
8.90219
  0
VERTEX
  8
0
 10
3.623024
 20
8.957154
  0
VERTEX
  8
0
 10
3.664236
 20
8.994211
  0
VERTEX
  8
0
 10
3.609754
 20
9.004381
  0
VERTEX
  8
0
 10
3.587246
 20
9.055029
  0
VERTEX
  8
0
 10
3.560736
 20
9.006356
  0
VERTEX
  8
0
 10
3.505612
 20
9.0006
  0
VERTEX
  8
0
 10
3.543711
 20
8.960347
  0
SEQEND
  8
0
  0
POLYLINE
  8
0
 66
1
 70
1
  0
VERTEX
  8
0
 10
3.712296
 20
8.490606
  0
VERTEX
  8
0
 10
3.78149
 20
8.517831
  0
VERTEX
  8
0
 10
3.843146
 20
8.476264
  0
VERTEX
  8
0
 10
3.838637
 20
8.55049
  0
VERTEX
  8
0
 10
3.897219
 20
8.596287
  0
VERTEX
  8
0
 10
3.825235
 20
8.614929
  0
VERTEX
  8
0
 10
3.799783
 20
8.684796
  0
VERTEX
  8
0
 10
3.75981
 20
8.622096
  0
VERTEX
  8
0
 10
3.685497
 20
8.619482
  0
VERTEX
  8
0
 10
3.732775
 20
8.562089
  0
SEQEND
  8
0
  0
POLYLINE
  8
0
 66
1
 70
1
  0
VERTEX
  8
0
 10
3.283962
 20
8.431799
  0
VERTEX
  8
0
 10
3.270143
 20
8.371101
  0
VERTEX
  8
0
 10
3.326726
 20
8.397053
  0
VERTEX
  8
0
 10
3.380182
 20
8.365153
  0
VERTEX
  8
0
 10
3.372989
 20
8.426992
  0
VERTEX
  8
0
 10
3.419844
 20
8.467976
  0
VERTEX
  8
0
 10
3.358811
 20
8.480236
  0
VERTEX
  8
0
 10
3.334312
 20
8.537463
  0
VERTEX
  8
0
 10
3.303792
 20
8.483207
  0
VERTEX
  8
0
 10
3.241794
 20
8.477592
  0
SEQEND
  8
0
  0
POLYLINE
  8
0
 66
1
 70
1
  0
VERTEX
  8
0
 10
2.918671
 20
8.334506
  0
VERTEX
  8
0
 10
2.935007
 20
8.251682
  0
VERTEX
  8
0
 10
2.99081
 20
8.315028
  0
VERTEX
  8
0
 10
3.074626
 20
8.304968
  0
VERTEX
  8
0
 10
3.031628
 20
8.377621
  0
VERTEX
  8
0
 10
3.067089
 20
8.454229
  0
VERTEX
  8
0
 10
2.984711
 20
8.435778
  0
VERTEX
  8
0
 10
2.922811
 20
8.493179
  0
VERTEX
  8
0
 10
2.914903
 20
8.409132
  0
VERTEX
  8
0
 10
2.841182
 20
8.368001
  0
SEQEND
  8
0
  0
POLYLINE
  8
0
 66
1
 70
1
  0
VERTEX
  8
0
 10
2.530793
 20
8.421054
  0
VERTEX
  8
0
 10
2.574375
 20
8.464429
  0
VERTEX
  8
0
 10
2.634812
 20
8.453115
  0
VERTEX
  8
0
 10
2.607029
 20
8.507974
  0
VERTEX
  8
0
 10
2.63646
 20
8.561958
  0
VERTEX
  8
0
 10
2.575708
 20
8.552481
  0
VERTEX
  8
0
 10
2.53346
 20
8.597154
  0
VERTEX
  8
0
 10
2.5237
 20
8.536447
  0
VERTEX
  8
0
 10
2.468157
 20
8.510074
  0
VERTEX
  8
0
 10
2.522875
 20
8.482029
  0
SEQEND
  8
0
  0
POLYLINE
  8
0
 66
1
 70
1
  0
VERTEX
  8
0
 10
2.810561
 20
8.761096
  0
VERTEX
  8
0
 10
2.769783
 20
8.79616
  0
VERTEX
  8
0
 10
2.766756
 20
8.742465
  0
VERTEX
  8
0
 10
2.720807
 20
8.714522
  0
VERTEX
  8
0
 10
2.770936
 20
8.695049
  0
VERTEX
  8
0
 10
2.783313
 20
8.642713
  0
VERTEX
  8
0
 10
2.817325
 20
8.684371
  0
VERTEX
  8
0
 10
2.870924
 20
8.679968
  0
VERTEX
  8
0
 10
2.841815
 20
8.725193
  0
VERTEX
  8
0
 10
2.862561
 20
8.774808
  0
SEQEND
  8
0
  0
POLYLINE
  8
0
 66
1
 70
1
  0
VERTEX
  8
0
 10
2.129814
 20
7.98221
  0
VERTEX
  8
0
 10
2.096224
 20
8.040996
  0
VERTEX
  8
0
 10
2.069996
 20
7.978578
  0
VERTEX
  8
0
 10
2.003707
 20
7.964799
  0
VERTEX
  8
0
 10
2.054965
 20
7.920565
  0
VERTEX
  8
0
 10
2.047583
 20
7.853262
  0
VERTEX
  8
0
 10
2.105493
 20
7.888342
  0
VERTEX
  8
0
 10
2.167219
 20
7.860524
  0
VERTEX
  8
0
 10
2.151754
 20
7.926443
  0
VERTEX
  8
0
 10
2.197282
 20
7.976556
  0
SEQEND
  8
0
  0
POLYLINE
  8
0
 66
1
 70
1
  0
VERTEX
  8
0
 10
2.581124
 20
7.719874
  0
VERTEX
  8
0
 10
2.65796
 20
7.689226
  0
VERTEX
  8
0
 10
2.635549
 20
7.768861
  0
VERTEX
  8
0
 10
2.688435
 20
7.832469
  0
VERTEX
  8
0
 10
2.605778
 20
7.835756
  0
VERTEX
  8
0
 10
2.561626
 20
7.90571
  0
VERTEX
  8
0
 10
2.532958
 20
7.828114
  0
VERTEX
  8
0
 10
2.452783
 20
7.807742
  0
VERTEX
  8
0
 10
2.517721
 20
7.756497
  0
VERTEX
  8
0
 10
2.512319
 20
7.67395
  0
SEQEND
  8
0
  0
POLYLINE
  8
0
 66
1
 70
1
  0
VERTEX
  8
0
 10
2.960567
 20
8.138147
  0
VERTEX
  8
0
 10
2.921443
 20
8.075289
  0
VERTEX
  8
0
 10
2.847481
 20
8.071885
  0
VERTEX
  8
0
 10
2.895172
 20
8.01525
  0
VERTEX
  8
0
 10
2.875553
 20
7.943857
  0
VERTEX
  8
0
 10
2.94416
 20
7.971711
  0
VERTEX
  8
0
 10
3.005999
 20
7.930994
  0
VERTEX
  8
0
 10
3.000701
 20
8.004844
  0
VERTEX
  8
0
 10
3.058535
 20
8.051075
  0
VERTEX
  8
0
 10
2.986662
 20
8.068858
  0
SEQEND
  8
0
  0
POLYLINE
  8
0
 66
1
 70
1
  0
VERTEX
  8
0
 10
3.315281
 20
8.117729
  0
VERTEX
  8
0
 10
3.272081
 20
8.175043
  0
VERTEX
  8
0
 10
3.252867
 20
8.105892
  0
VERTEX
  8
0
 10
3.185007
 20
8.082518
  0
VERTEX
  8
0
 10
3.244836
 20
8.042874
  0
VERTEX
  8
0
 10
3.246094
 20
7.971114
  0
VERTEX
  8
0
 10
3.302286
 20
8.015762
  0
VERTEX
  8
0
 10
3.370924
 20
7.994782
  0
VERTEX
  8
0
 10
3.345826
 20
8.062028
  0
VERTEX
  8
0
 10
3.386985
 20
8.120825
  0
SEQEND
  8
0
  0
POLYLINE
  8
0
 66
1
 70
1
  0
VERTEX
  8
0
 10
3.630829
 20
8.097607
  0
VERTEX
  8
0
 10
3.575942
 20
8.141329
  0
VERTEX
  8
0
 10
3.574625
 20
8.071169
  0
VERTEX
  8
0
 10
3.516082
 20
8.032479
  0
VERTEX
  8
0
 10
3.582401
 20
8.009546
  0
VERTEX
  8
0
 10
3.601104
 20
7.94191
  0
VERTEX
  8
0
 10
3.643411
 20
7.997896
  0
VERTEX
  8
0
 10
3.713515
 20
7.994782
  0
VERTEX
  8
0
 10
3.673344
 20
8.052325
  0
VERTEX
  8
0
 10
3.697964
 20
8.118037
  0
SEQEND
  8
0
  0
POLYLINE
  8
0
 66
1
 70
1
  0
VERTEX
  8
0
 10
1.548963
 20
7.988815
  0
VERTEX
  8
0
 10
1.506283
 20
8.049158
  0
VERTEX
  8
0
 10
1.484347
 20
7.978576
  0
VERTEX
  8
0
 10
1.413768
 20
7.956635
  0
VERTEX
  8
0
 10
1.474115
 20
7.91396
  0
VERTEX
  8
0
 10
1.473172
 20
7.840053
  0
VERTEX
  8
0
 10
1.532407
 20
7.88426
  0
VERTEX
  8
0
 10
1.602404
 20
7.860524
  0
VERTEX
  8
0
 10
1.578668
 20
7.930526
  0
VERTEX
  8
0
 10
1.622869
 20
7.989765
  0
SEQEND
  8
0
  0
POLYLINE
  8
0
 66
1
 70
1
  0
VERTEX
  8
0
 10
1.130982
 20
7.629925
  0
VERTEX
  8
0
 10
1.098344
 20
7.676071
  0
VERTEX
  8
0
 10
1.081569
 20
7.622096
  0
VERTEX
  8
0
 10
1.027597
 20
7.605317
  0
VERTEX
  8
0
 10
1.073746
 20
7.572683
  0
VERTEX
  8
0
 10
1.073025
 20
7.516167
  0
VERTEX
  8
0
 10
1.118322
 20
7.549971
  0
VERTEX
  8
0
 10
1.171849
 20
7.531819
  0
VERTEX
  8
0
 10
1.153697
 20
7.585351
  0
VERTEX
  8
0
 10
1.187499
 20
7.630651
  0
SEQEND
  8
0
  0
POLYLINE
  8
0
 66
1
 70
1
  0
VERTEX
  8
0
 10
1.664439
 20
7.409501
  0
VERTEX
  8
0
 10
1.663329
 20
7.322553
  0
VERTEX
  8
0
 10
1.733018
 20
7.37456
  0
VERTEX
  8
0
 10
1.815368
 20
7.346635
  0
VERTEX
  8
0
 10
1.787443
 20
7.42899
  0
VERTEX
  8
0
 10
1.839444
 20
7.498683
  0
VERTEX
  8
0
 10
1.752494
 20
7.497565
  0
VERTEX
  8
0
 10
1.702283
 20
7.56856
  0
VERTEX
  8
0
 10
1.676476
 20
7.485521
  0
VERTEX
  8
0
 10
1.593442
 20
7.459706
  0
SEQEND
  8
0
  0
POLYLINE
  8
0
 66
1
 70
1
  0
VERTEX
  8
0
 10
2.097376
 20
7.485417
  0
VERTEX
  8
0
 10
2.140074
 20
7.522706
  0
VERTEX
  8
0
 10
2.194997
 20
7.508671
  0
VERTEX
  8
0
 10
2.172729
 20
7.560807
  0
VERTEX
  8
0
 10
2.203044
 20
7.608707
  0
VERTEX
  8
0
 10
2.146583
 20
7.603633
  0
VERTEX
  8
0
 10
2.110396
 20
7.647269
  0
VERTEX
  8
0
 10
2.097774
 20
7.592003
  0
VERTEX
  8
0
 10
2.045092
 20
7.571071
  0
VERTEX
  8
0
 10
2.09375
 20
7.541987
  0
SEQEND
  8
0
  0
POLYLINE
  8
0
 66
1
 70
1
  0
VERTEX
  8
0
 10
2.351331
 20
7.31085
  0
VERTEX
  8
0
 10
2.396681
 20
7.366393
  0
VERTEX
  8
0
 10
2.468146
 20
7.360524
  0
VERTEX
  8
0
 10
2.429333
 20
7.420824
  0
VERTEX
  8
0
 10
2.456996
 20
7.486979
  0
VERTEX
  8
0
 10
2.387661
 20
7.468693
  0
VERTEX
  8
0
 10
2.333293
 20
7.515446
  0
VERTEX
  8
0
 10
2.329256
 20
7.443854
  0
VERTEX
  8
0
 10
2.26799
 20
7.406596
  0
VERTEX
  8
0
 10
2.334829
 20
7.380631
  0
SEQEND
  8
0
  0
POLYLINE
  8
0
 66
1
 70
1
  0
VERTEX
  8
0
 10
2.800069
 20
7.582382
  0
VERTEX
  8
0
 10
2.787589
 20
7.520243
  0
VERTEX
  8
0
 10
2.729324
 20
7.4953
  0
VERTEX
  8
0
 10
2.784562
 20
7.464226
  0
VERTEX
  8
0
 10
2.790279
 20
7.401104
  0
VERTEX
  8
0
 10
2.836903
 20
7.444037
  0
VERTEX
  8
0
 10
2.898701
 20
7.429968
  0
VERTEX
  8
0
 10
2.872279
 20
7.487582
  0
VERTEX
  8
0
 10
2.904753
 20
7.54201
  0
VERTEX
  8
0
 10
2.841799
 20
7.534678
  0
SEQEND
  8
0
  0
POLYLINE
  8
0
 66
1
 70
1
  0
VERTEX
  8
0
 10
3.112446
 20
7.726928
  0
VERTEX
  8
0
 10
3.102403
 20
7.679967
  0
VERTEX
  8
0
 10
3.058025
 20
7.661617
  0
VERTEX
  8
0
 10
3.099583
 20
7.637553
  0
VERTEX
  8
0
 10
3.103321
 20
7.589676
  0
VERTEX
  8
0
 10
3.139049
 20
7.621764
  0
VERTEX
  8
0
 10
3.185737
 20
7.610524
  0
VERTEX
  8
0
 10
3.166261
 20
7.654422
  0
VERTEX
  8
0
 10
3.191378
 20
7.695354
  0
VERTEX
  8
0
 10
3.143611
 20
7.690392
  0
SEQEND
  8
0
  0
POLYLINE
  8
0
 66
1
 70
1
  0
VERTEX
  8
0
 10
3.452171
 20
7.597487
  0
VERTEX
  8
0
 10
3.451339
 20
7.532276
  0
VERTEX
  8
0
 10
3.503606
 20
7.571282
  0
VERTEX
  8
0
 10
3.565368
 20
7.550337
  0
VERTEX
  8
0
 10
3.544424
 20
7.612106
  0
VERTEX
  8
0
 10
3.583425
 20
7.664375
  0
VERTEX
  8
0
 10
3.518212
 20
7.663536
  0
VERTEX
  8
0
 10
3.480554
 20
7.716782
  0
VERTEX
  8
0
 10
3.4612
 20
7.654503
  0
VERTEX
  8
0
 10
3.398924
 20
7.635142
  0
SEQEND
  8
0
  0
POLYLINE
  8
0
 66
1
 70
1
  0
VERTEX
  8
0
 10
3.766501
 20
7.722236
  0
VERTEX
  8
0
 10
3.732392
 20
7.777992
  0
VERTEX
  8
0
 10
3.708885
 20
7.717003
  0
VERTEX
  8
0
 10
3.645317
 20
7.701793
  0
VERTEX
  8
0
 10
3.696056
 20
7.66059
  0
VERTEX
  8
0
 10
3.690875
 20
7.595433
  0
VERTEX
  8
0
 10
3.745742
 20
7.630956
  0
VERTEX
  8
0
 10
3.806108
 20
7.605893
  0
VERTEX
  8
0
 10
3.789283
 20
7.669057
  0
VERTEX
  8
0
 10
3.831768
 20
7.718728
  0
SEQEND
  8
0
  0
POLYLINE
  8
0
 66
1
 70
1
  0
VERTEX
  8
0
 10
3.920706
 20
8.077972
  0
VERTEX
  8
0
 10
3.913324
 20
8.010671
  0
VERTEX
  8
0
 10
3.971233
 20
8.04575
  0
VERTEX
  8
0
 10
4.03296
 20
8.017931
  0
VERTEX
  8
0
 10
4.017494
 20
8.08385
  0
VERTEX
  8
0
 10
4.063024
 20
8.133962
  0
VERTEX
  8
0
 10
3.995554
 20
8.139617
  0
VERTEX
  8
0
 10
3.961964
 20
8.198404
  0
VERTEX
  8
0
 10
3.935736
 20
8.135985
  0
VERTEX
  8
0
 10
3.869447
 20
8.122206
  0
SEQEND
  8
0
  0
POLYLINE
  8
0
 66
1
 70
1
  0
VERTEX
  8
0
 10
4.261071
 20
7.609211
  0
VERTEX
  8
0
 10
4.307251
 20
7.649101
  0
VERTEX
  8
0
 10
4.366293
 20
7.633671
  0
VERTEX
  8
0
 10
4.342629
 20
7.689925
  0
VERTEX
  8
0
 10
4.375544
 20
7.74131
  0
VERTEX
  8
0
 10
4.314736
 20
7.736181
  0
VERTEX
  8
0
 10
4.276039
 20
7.783364
  0
VERTEX
  8
0
 10
4.262125
 20
7.723947
  0
VERTEX
  8
0
 10
4.205292
 20
7.701725
  0
VERTEX
  8
0
 10
4.2575
 20
7.670132
  0
SEQEND
  8
0
  0
POLYLINE
  8
0
 66
1
 70
1
  0
VERTEX
  8
0
 10
4.016756
 20
7.612836
  0
VERTEX
  8
0
 10
3.957339
 20
7.598918
  0
VERTEX
  8
0
 10
4.004528
 20
7.560225
  0
VERTEX
  8
0
 10
3.999403
 20
7.499415
  0
VERTEX
  8
0
 10
4.050786
 20
7.532337
  0
VERTEX
  8
0
 10
4.107035
 20
7.508671
  0
VERTEX
  8
0
 10
4.091604
 20
7.567717
  0
VERTEX
  8
0
 10
4.13149
 20
7.613901
  0
VERTEX
  8
0
 10
4.070571
 20
7.617467
  0
VERTEX
  8
0
 10
4.038971
 20
7.669672
  0
SEQEND
  8
0
  0
POLYLINE
  8
0
 66
1
 70
1
  0
VERTEX
  8
0
 10
4.141044
 20
7.260522
  0
VERTEX
  8
0
 10
4.146761
 20
7.197401
  0
VERTEX
  8
0
 10
4.193383
 20
7.240333
  0
VERTEX
  8
0
 10
4.255182
 20
7.226264
  0
VERTEX
  8
0
 10
4.22876
 20
7.283878
  0
VERTEX
  8
0
 10
4.261233
 20
7.338306
  0
VERTEX
  8
0
 10
4.198281
 20
7.330974
  0
VERTEX
  8
0
 10
4.156551
 20
7.378678
  0
VERTEX
  8
0
 10
4.144069
 20
7.31654
  0
VERTEX
  8
0
 10
4.085806
 20
7.291597
  0
SEQEND
  8
0
  0
POLYLINE
  8
0
 66
1
 70
1
  0
VERTEX
  8
0
 10
3.695081
 20
7.294164
  0
VERTEX
  8
0
 10
3.659414
 20
7.340828
  0
VERTEX
  8
0
 10
3.644069
 20
7.284132
  0
VERTEX
  8
0
 10
3.588667
 20
7.264632
  0
VERTEX
  8
0
 10
3.637846
 20
7.232519
  0
VERTEX
  8
0
 10
3.639269
 20
7.1738
  0
VERTEX
  8
0
 10
3.68501
 20
7.210647
  0
VERTEX
  8
0
 10
3.741293
 20
7.193857
  0
VERTEX
  8
0
 10
3.720385
 20
7.248749
  0
VERTEX
  8
0
 10
3.753743
 20
7.297092
  0
SEQEND
  8
0
  0
POLYLINE
  8
0
 66
1
 70
1
  0
VERTEX
  8
0
 10
3.949711
 20
7.034904
  0
VERTEX
  8
0
 10
3.914043
 20
7.081569
  0
VERTEX
  8
0
 10
3.8987
 20
7.024874
  0
VERTEX
  8
0
 10
3.843296
 20
7.005374
  0
VERTEX
  8
0
 10
3.892475
 20
6.97326
  0
VERTEX
  8
0
 10
3.893899
 20
6.91454
  0
VERTEX
  8
0
 10
3.939639
 20
6.951389
  0
VERTEX
  8
0
 10
3.995924
 20
6.934597
  0
VERTEX
  8
0
 10
3.975015
 20
6.989489
  0
VERTEX
  8
0
 10
4.008374
 20
7.037833
  0
SEQEND
  8
0
  0
POLYLINE
  8
0
 66
1
 70
1
  0
VERTEX
  8
0
 10
3.307943
 20
7.088742
  0
VERTEX
  8
0
 10
3.315687
 20
7.162761
  0
VERTEX
  8
0
 10
3.381053
 20
7.198342
  0
VERTEX
  8
0
 10
3.313051
 20
7.228581
  0
VERTEX
  8
0
 10
3.299412
 20
7.301742
  0
VERTEX
  8
0
 10
3.249637
 20
7.246414
  0
VERTEX
  8
0
 10
3.175842
 20
7.256053
  0
VERTEX
  8
0
 10
3.213079
 20
7.191617
  0
VERTEX
  8
0
 10
3.181108
 20
7.124413
  0
VERTEX
  8
0
 10
3.253904
 20
7.139913
  0
SEQEND
  8
0
  0
POLYLINE
  8
0
 66
1
 70
1
  0
VERTEX
  8
0
 10
2.856892
 20
7.133557
  0
VERTEX
  8
0
 10
2.822262
 20
7.186283
  0
VERTEX
  8
0
 10
2.801478
 20
7.126725
  0
VERTEX
  8
0
 10
2.740631
 20
7.110086
  0
VERTEX
  8
0
 10
2.79085
 20
7.071911
  0
VERTEX
  8
0
 10
2.787871
 20
7.008901
  0
VERTEX
  8
0
 10
2.839696
 20
7.044865
  0
VERTEX
  8
0
 10
2.898701
 20
7.02256
  0
VERTEX
  8
0
 10
2.880514
 20
7.082967
  0
VERTEX
  8
0
 10
2.919957
 20
7.132194
  0
SEQEND
  8
0
  0
POLYLINE
  8
0
 66
1
 70
1
  0
VERTEX
  8
0
 10
2.183421
 20
6.950799
  0
VERTEX
  8
0
 10
2.101676
 20
6.920832
  0
VERTEX
  8
0
 10
2.175185
 20
6.874178
  0
VERTEX
  8
0
 10
2.178422
 20
6.787172
  0
VERTEX
  8
0
 10
2.245511
 20
6.842664
  0
VERTEX
  8
0
 10
2.329257
 20
6.818857
  0
VERTEX
  8
0
 10
2.297214
 20
6.899817
  0
VERTEX
  8
0
 10
2.345731
 20
6.97211
  0
VERTEX
  8
0
 10
2.258837
 20
6.966644
  0
VERTEX
  8
0
 10
2.205075
 20
7.035126
  0
SEQEND
  8
0
  0
POLYLINE
  8
0
 66
1
 70
1
  0
VERTEX
  8
0
 10
1.75636
 20
6.905708
  0
VERTEX
  8
0
 10
1.816708
 20
6.863033
  0
VERTEX
  8
0
 10
1.815764
 20
6.789128
  0
VERTEX
  8
0
 10
1.875
 20
6.833333
  0
VERTEX
  8
0
 10
1.944997
 20
6.809597
  0
VERTEX
  8
0
 10
1.921261
 20
6.8796
  0
VERTEX
  8
0
 10
1.965462
 20
6.93884
  0
VERTEX
  8
0
 10
1.891556
 20
6.937889
  0
VERTEX
  8
0
 10
1.848875
 20
6.998233
  0
VERTEX
  8
0
 10
1.82694
 20
6.927651
  0
SEQEND
  8
0
  0
POLYLINE
  8
0
 66
1
 70
1
  0
VERTEX
  8
0
 10
1.609347
 20
7.034136
  0
VERTEX
  8
0
 10
1.589986
 20
7.096412
  0
VERTEX
  8
0
 10
1.552332
 20
7.043164
  0
VERTEX
  8
0
 10
1.487121
 20
7.043996
  0
VERTEX
  8
0
 10
1.526126
 20
6.991731
  0
VERTEX
  8
0
 10
1.505182
 20
6.929968
  0
VERTEX
  8
0
 10
1.56695
 20
6.950911
  0
VERTEX
  8
0
 10
1.619219
 20
6.91191
  0
VERTEX
  8
0
 10
1.618381
 20
6.977122
  0
VERTEX
  8
0
 10
1.671626
 20
7.014781
  0
SEQEND
  8
0
  0
POLYLINE
  8
0
 66
1
 70
1
  0
VERTEX
  8
0
 10
2.869076
 20
6.687285
  0
VERTEX
  8
0
 10
2.940071
 20
6.737496
  0
VERTEX
  8
0
 10
2.857032
 20
6.763303
  0
VERTEX
  8
0
 10
2.831218
 20
6.846339
  0
VERTEX
  8
0
 10
2.781011
 20
6.77534
  0
VERTEX
  8
0
 10
2.694062
 20
6.77645
  0
VERTEX
  8
0
 10
2.746071
 20
6.706762
  0
VERTEX
  8
0
 10
2.718146
 20
6.624412
  0
VERTEX
  8
0
 10
2.800501
 20
6.652337
  0
VERTEX
  8
0
 10
2.870196
 20
6.600336
  0
SEQEND
  8
0
  0
POLYLINE
  8
0
 66
1
 70
1
  0
VERTEX
  8
0
 10
3.184164
 20
6.795368
  0
VERTEX
  8
0
 10
3.143475
 20
6.849132
  0
VERTEX
  8
0
 10
3.125551
 20
6.784132
  0
VERTEX
  8
0
 10
3.061844
 20
6.76205
  0
VERTEX
  8
0
 10
3.118122
 20
6.724917
  0
VERTEX
  8
0
 10
3.119436
 20
6.657503
  0
VERTEX
  8
0
 10
3.172144
 20
6.699551
  0
VERTEX
  8
0
 10
3.236664
 20
6.679968
  0
VERTEX
  8
0
 10
3.212964
 20
6.743096
  0
VERTEX
  8
0
 10
3.251522
 20
6.798408
  0
SEQEND
  8
0
  0
POLYLINE
  8
0
 66
1
 70
1
  0
VERTEX
  8
0
 10
3.54504
 20
6.728625
  0
VERTEX
  8
0
 10
3.578344
 20
6.798706
  0
VERTEX
  8
0
 10
3.50246
 20
6.782511
  0
VERTEX
  8
0
 10
3.4461
 20
6.835843
  0
VERTEX
  8
0
 10
3.438051
 20
6.758669
  0
VERTEX
  8
0
 10
3.369912
 20
6.72155
  0
VERTEX
  8
0
 10
3.440822
 20
6.690044
  0
VERTEX
  8
0
 10
3.455067
 20
6.613771
  0
VERTEX
  8
0
 10
3.506943
 20
6.671472
  0
VERTEX
  8
0
 10
3.583886
 20
6.661449
  0
SEQEND
  8
0
  0
POLYLINE
  8
0
 66
1
 70
1
  0
VERTEX
  8
0
 10
1.301236
 20
7.280729
  0
VERTEX
  8
0
 10
1.364788
 20
7.311883
  0
VERTEX
  8
0
 10
1.426479
 20
7.27719
  0
VERTEX
  8
0
 10
1.416492
 20
7.347264
  0
VERTEX
  8
0
 10
1.468547
 20
7.395218
  0
VERTEX
  8
0
 10
1.398821
 20
7.407365
  0
VERTEX
  8
0
 10
1.369299
 20
7.471693
  0
VERTEX
  8
0
 10
1.336199
 20
7.409132
  0
VERTEX
  8
0
 10
1.265899
 20
7.400936
  0
VERTEX
  8
0
 10
1.315167
 20
7.350122
  0
SEQEND
  8
0
  0
POLYLINE
  8
0
 66
1
 70
1
  0
VERTEX
  8
0
 10
2.373236
 20
6.492469
  0
VERTEX
  8
0
 10
2.356457
 20
6.546442
  0
VERTEX
  8
0
 10
2.323824
 20
6.500293
  0
VERTEX
  8
0
 10
2.267307
 20
6.501015
  0
VERTEX
  8
0
 10
2.301112
 20
6.455718
  0
VERTEX
  8
0
 10
2.28296
 20
6.40219
  0
VERTEX
  8
0
 10
2.336492
 20
6.42034
  0
VERTEX
  8
0
 10
2.381793
 20
6.38654
  0
VERTEX
  8
0
 10
2.381065
 20
6.443057
  0
VERTEX
  8
0
 10
2.427211
 20
6.475694
  0
SEQEND
  8
0
  0
POLYLINE
  8
0
 66
1
 70
1
  0
VERTEX
  8
0
 10
2.64421
 20
6.357039
  0
VERTEX
  8
0
 10
2.599971
 20
6.408293
  0
VERTEX
  8
0
 10
2.5862
 20
6.342003
  0
VERTEX
  8
0
 10
2.523783
 20
6.315768
  0
VERTEX
  8
0
 10
2.582572
 20
6.282185
  0
VERTEX
  8
0
 10
2.588233
 20
6.214717
  0
VERTEX
  8
0
 10
2.638342
 20
6.260249
  0
VERTEX
  8
0
 10
2.704257
 20
6.244782
  0
VERTEX
  8
0
 10
2.676439
 20
6.306514
  0
VERTEX
  8
0
 10
2.711512
 20
6.364426
  0
SEQEND
  8
0
  0
POLYLINE
  8
0
 66
1
 70
1
  0
VERTEX
  8
0
 10
3.031115
 20
6.286425
  0
VERTEX
  8
0
 10
3.070062
 20
6.360433
  0
VERTEX
  8
0
 10
2.987629
 20
6.346329
  0
VERTEX
  8
0
 10
2.929278
 20
6.40624
  0
VERTEX
  8
0
 10
2.917218
 20
6.323485
  0
VERTEX
  8
0
 10
2.842207
 20
6.286504
  0
VERTEX
  8
0
 10
2.917186
 20
6.24946
  0
VERTEX
  8
0
 10
2.929174
 20
6.166692
  0
VERTEX
  8
0
 10
2.987576
 20
6.226551
  0
VERTEX
  8
0
 10
3.069997
 20
6.212375
  0
SEQEND
  8
0
  0
POLYLINE
  8
0
 66
1
 70
1
  0
VERTEX
  8
0
 10
3.344599
 20
6.456669
  0
VERTEX
  8
0
 10
3.290318
 20
6.522122
  0
VERTEX
  8
0
 10
3.271385
 20
6.439225
  0
VERTEX
  8
0
 10
3.192361
 20
6.407828
  0
VERTEX
  8
0
 10
3.26535
 20
6.364203
  0
VERTEX
  8
0
 10
3.270789
 20
6.279343
  0
VERTEX
  8
0
 10
3.334833
 20
6.335278
  0
VERTEX
  8
0
 10
3.417219
 20
6.314226
  0
VERTEX
  8
0
 10
3.383817
 20
6.392431
  0
VERTEX
  8
0
 10
3.42929
 20
6.464281
  0
SEQEND
  8
0
  0
POLYLINE
  8
0
 66
1
 70
1
  0
VERTEX
  8
0
 10
2.313794
 20
6.193515
  0
VERTEX
  8
0
 10
2.273106
 20
6.247281
  0
VERTEX
  8
0
 10
2.255181
 20
6.182281
  0
VERTEX
  8
0
 10
2.191474
 20
6.160199
  0
VERTEX
  8
0
 10
2.247751
 20
6.123064
  0
VERTEX
  8
0
 10
2.249065
 20
6.055651
  0
VERTEX
  8
0
 10
2.301774
 20
6.0977
  0
VERTEX
  8
0
 10
2.366293
 20
6.078115
  0
VERTEX
  8
0
 10
2.342593
 20
6.141244
  0
VERTEX
  8
0
 10
2.381151
 20
6.196557
  0
SEQEND
  8
0
  0
POLYLINE
  8
0
 66
1
 70
1
  0
VERTEX
  8
0
 10
3.177833
 20
6.167793
  0
VERTEX
  8
0
 10
3.117696
 20
6.110493
  0
VERTEX
  8
0
 10
3.036401
 20
6.127551
  0
VERTEX
  8
0
 10
3.072312
 20
6.05265
  0
VERTEX
  8
0
 10
3.030967
 20
5.980607
  0
VERTEX
  8
0
 10
3.113299
 20
5.991611
  0
VERTEX
  8
0
 10
3.169039
 20
5.930026
  0
VERTEX
  8
0
 10
3.184015
 20
6.011728
  0
VERTEX
  8
0
 10
3.259812
 20
6.045708
  0
VERTEX
  8
0
 10
3.186733
 20
6.085207
  0
SEQEND
  8
0
  0
POLYLINE
  8
0
 66
1
 70
1
  0
VERTEX
  8
0
 10
3.685093
 20
6.474861
  0
VERTEX
  8
0
 10
3.631001
 20
6.454597
  0
VERTEX
  8
0
 10
3.583646
 20
6.487671
  0
VERTEX
  8
0
 10
3.5862
 20
6.429965
  0
VERTEX
  8
0
 10
3.540111
 20
6.395149
  0
VERTEX
  8
0
 10
3.595781
 20
6.379744
  0
VERTEX
  8
0
 10
3.614651
 20
6.325153
  0
VERTEX
  8
0
 10
3.646504
 20
6.373337
  0
VERTEX
  8
0
 10
3.704257
 20
6.374412
  0
VERTEX
  8
0
 10
3.668274
 20
6.419601
  0
SEQEND
  8
0
  0
POLYLINE
  8
0
 66
1
 70
1
  0
VERTEX
  8
0
 10
2.390242
 20
9.264185
  0
VERTEX
  8
0
 10
2.357603
 20
9.310331
  0
VERTEX
  8
0
 10
2.340829
 20
9.256354
  0
VERTEX
  8
0
 10
2.286857
 20
9.239575
  0
VERTEX
  8
0
 10
2.333006
 20
9.206943
  0
VERTEX
  8
0
 10
2.332283
 20
9.150425
  0
VERTEX
  8
0
 10
2.377582
 20
9.184231
  0
VERTEX
  8
0
 10
2.431108
 20
9.166079
  0
VERTEX
  8
0
 10
2.412957
 20
9.219611
  0
VERTEX
  8
0
 10
2.446758
 20
9.264911
  0
SEQEND
  8
0
  0
POLYLINE
  8
0
 66
1
 70
1
  0
VERTEX
  8
0
 10
2.071531
 20
9.292539
  0
VERTEX
  8
0
 10
2.038892
 20
9.338685
  0
VERTEX
  8
0
 10
2.022118
 20
9.284711
  0
VERTEX
  8
0
 10
1.968146
 20
9.267931
  0
VERTEX
  8
0
 10
2.014294
 20
9.235297
  0
VERTEX
  8
0
 10
2.013572
 20
9.178781
  0
VERTEX
  8
0
 10
2.058869
 20
9.212586
  0
VERTEX
  8
0
 10
2.112397
 20
9.194433
  0
VERTEX
  8
0
 10
2.094246
 20
9.247965
  0
VERTEX
  8
0
 10
2.128047
 20
9.293265
  0
SEQEND
  8
0
  0
POLYLINE
  8
0
 66
1
 70
1
  0
VERTEX
  8
0
 10
2.675646
 20
6.000315
  0
VERTEX
  8
0
 10
2.649831
 20
6.083351
  0
VERTEX
  8
0
 10
2.599625
 20
6.012353
  0
VERTEX
  8
0
 10
2.512676
 20
6.013462
  0
VERTEX
  8
0
 10
2.564685
 20
5.943774
  0
VERTEX
  8
0
 10
2.536758
 20
5.861424
  0
VERTEX
  8
0
 10
2.619115
 20
5.88935
  0
VERTEX
  8
0
 10
2.688808
 20
5.837349
  0
VERTEX
  8
0
 10
2.68769
 20
5.924297
  0
VERTEX
  8
0
 10
2.758683
 20
5.97451
  0
SEQEND
  8
0
  0
ENDSEC
  0
EOF
