  0
SECTION
  2
HEADER
  9
$ACADVER
  1
AC1012
  9
$DWGCODEPAGE
  3
ansi_1252
  9
$INSBASE
 10
0.0
 20
0.0
 30
0.0
  9
$EXTMIN
 10
309.2651776474921
 20
57.65844670676574
 30
0.0
  9
$EXTMAX
 10
908.1636956581483
 20
418.9042092702506
 30
0.0
  9
$LIMMIN
 10
0.0
 20
0.0
  9
$LIMMAX
 10
420.0
 20
297.0
  9
$ORTHOMODE
 70
     0
  9
$REGENMODE
 70
     1
  9
$FILLMODE
 70
     1
  9
$QTEXTMODE
 70
     0
  9
$MIRRTEXT
 70
     0
  9
$DRAGMODE
 70
     2
  9
$LTSCALE
 40
1.0
  9
$OSMODE
 70
   511
  9
$ATTMODE
 70
     1
  9
$TEXTSIZE
 40
2.5
  9
$TRACEWID
 40
1.0
  9
$TEXTSTYLE
  7
STANDARD
  9
$CLAYER
  8
0
  9
$CELTYPE
  6
BYLAYER
  9
$CECOLOR
 62
   256
  9
$CELTSCALE
 40
1.0
  9
$DELOBJ
 70
     1
  9
$DISPSILH
 70
     0
  9
$DIMSCALE
 40
1.0
  9
$DIMASZ
 40
2.5
  9
$DIMEXO
 40
0.625
  9
$DIMDLI
 40
3.75
  9
$DIMRND
 40
0.0
  9
$DIMDLE
 40
0.0
  9
$DIMEXE
 40
1.25
  9
$DIMTP
 40
0.0
  9
$DIMTM
 40
0.0
  9
$DIMTXT
 40
2.5
  9
$DIMCEN
 40
2.5
  9
$DIMTSZ
 40
0.0
  9
$DIMTOL
 70
     0
  9
$DIMLIM
 70
     0
  9
$DIMTIH
 70
     0
  9
$DIMTOH
 70
     0
  9
$DIMSE1
 70
     0
  9
$DIMSE2
 70
     0
  9
$DIMTAD
 70
     1
  9
$DIMZIN
 70
     8
  9
$DIMBLK
  1

  9
$DIMASO
 70
     1
  9
$DIMSHO
 70
     1
  9
$DIMPOST
  1

  9
$DIMAPOST
  1

  9
$DIMALT
 70
     0
  9
$DIMALTD
 70
     3
  9
$DIMALTF
 40
0.03937007874016
  9
$DIMLFAC
 40
1.0
  9
$DIMTOFL
 70
     1
  9
$DIMTVP
 40
0.0
  9
$DIMTIX
 70
     0
  9
$DIMSOXD
 70
     0
  9
$DIMSAH
 70
     0
  9
$DIMBLK1
  1

  9
$DIMBLK2
  1

  9
$DIMSTYLE
  2
ISO-25
  9
$DIMCLRD
 70
     0
  9
$DIMCLRE
 70
     0
  9
$DIMCLRT
 70
     0
  9
$DIMTFAC
 40
1.0
  9
$DIMGAP
 40
0.625
  9
$DIMJUST
 70
     0
  9
$DIMSD1
 70
     0
  9
$DIMSD2
 70
     0
  9
$DIMTOLJ
 70
     0
  9
$DIMTZIN
 70
     8
  9
$DIMALTZ
 70
     0
  9
$DIMALTTZ
 70
     0
  9
$DIMFIT
 70
     5
  9
$DIMUPT
 70
     0
  9
$DIMUNIT
 70
     2
  9
$DIMDEC
 70
     2
  9
$DIMTDEC
 70
     2
  9
$DIMALTU
 70
     2
  9
$DIMALTTD
 70
     3
  9
$DIMTXSTY
  7
STANDARD
  9
$DIMAUNIT
 70
     0
  9
$LUNITS
 70
     2
  9
$LUPREC
 70
     3
  9
$SKETCHINC
 40
1.0
  9
$FILLETRAD
 40
10.0
  9
$AUNITS
 70
     0
  9
$AUPREC
 70
     0
  9
$MENU
  1
.
  9
$ELEVATION
 40
0.0
  9
$PELEVATION
 40
0.0
  9
$THICKNESS
 40
0.0
  9
$LIMCHECK
 70
     0
  9
$CHAMFERA
 40
10.0
  9
$CHAMFERB
 40
10.0
  9
$CHAMFERC
 40
20.0
  9
$CHAMFERD
 40
0.0
  9
$SKPOLY
 70
     0
  9
$TDCREATE
 40
2455023.179026169
  9
$TDUPDATE
 40
2458058.78705684
  9
$TDINDWG
 40
0.0231635764
  9
$TDUSRTIMER
 40
2458058.244812072
  9
$USRTIMER
 70
     1
  9
$ANGBASE
 50
0.0
  9
$ANGDIR
 70
     0
  9
$PDMODE
 70
     0
  9
$PDSIZE
 40
0.0
  9
$PLINEWID
 40
0.0
  9
$COORDS
 70
     1
  9
$SPLFRAME
 70
     0
  9
$SPLINETYPE
 70
     6
  9
$SPLINESEGS
 70
     8
  9
$ATTDIA
 70
     0
  9
$ATTREQ
 70
     1
  9
$HANDLING
 70
     1
  9
$HANDSEED
  5
2BE
  9
$SURFTAB1
 70
     6
  9
$SURFTAB2
 70
     6
  9
$SURFTYPE
 70
     6
  9
$SURFU
 70
     6
  9
$SURFV
 70
     6
  9
$UCSNAME
  2

  9
$UCSORG
 10
0.0
 20
0.0
 30
0.0
  9
$UCSXDIR
 10
1.0
 20
0.0
 30
0.0
  9
$UCSYDIR
 10
0.0
 20
1.0
 30
0.0
  9
$PUCSNAME
  2

  9
$PUCSORG
 10
0.0
 20
0.0
 30
0.0
  9
$PUCSXDIR
 10
1.0
 20
0.0
 30
0.0
  9
$PUCSYDIR
 10
0.0
 20
1.0
 30
0.0
  9
$USERI1
 70
     0
  9
$USERI2
 70
     0
  9
$USERI3
 70
     0
  9
$USERI4
 70
     0
  9
$USERI5
 70
     0
  9
$USERR1
 40
0.0
  9
$USERR2
 40
0.0
  9
$USERR3
 40
0.0
  9
$USERR4
 40
0.0
  9
$USERR5
 40
0.0
  9
$WORLDVIEW
 70
     1
  9
$SHADEDGE
 70
     3
  9
$SHADEDIF
 70
    70
  9
$TILEMODE
 70
     1
  9
$MAXACTVP
 70
    64
  9
$PINSBASE
 10
0.0
 20
0.0
 30
0.0
  9
$PLIMCHECK
 70
     0
  9
$PEXTMIN
 10
1.000000000000000E+20
 20
1.000000000000000E+20
 30
1.000000000000000E+20
  9
$PEXTMAX
 10
-1.000000000000000E+20
 20
-1.000000000000000E+20
 30
-1.000000000000000E+20
  9
$PLIMMIN
 10
0.0
 20
0.0
  9
$PLIMMAX
 10
0.0
 20
0.0
  9
$UNITMODE
 70
     0
  9
$VISRETAIN
 70
     1
  9
$PLINEGEN
 70
     0
  9
$PSLTSCALE
 70
     1
  9
$TREEDEPTH
 70
  3020
  9
$PICKSTYLE
 70
     1
  9
$CMLSTYLE
  2
STANDARD
  9
$CMLJUST
 70
     0
  9
$CMLSCALE
 40
20.0
  9
$SAVEIMAGES
 70
     1
  0
ENDSEC
  0
SECTION
  2
CLASSES
  0
CLASS
  1
ACDBDICTIONARYWDFLT
  2
AcDbDictionaryWithDefault
  3
ObjectDBX Classes
 90
    32768
280
     0
281
     0
  0
CLASS
  1
VISUALSTYLE
  2
AcDbVisualStyle
  3
ObjectDBX Classes
 90
     4095
280
     0
281
     0
  0
CLASS
  1
TABLESTYLE
  2
AcDbTableStyle
  3
ObjectDBX Classes
 90
     4095
280
     0
281
     0
  0
CLASS
  1
DICTIONARYVAR
  2
AcDbDictionaryVar
  3
ObjectDBX Classes
 90
        0
280
     0
281
     0
  0
CLASS
  1
SCALE
  2
AcDbScale
  3
ObjectDBX Classes
 90
     1153
280
     0
281
     0
  0
CLASS
  1
CELLSTYLEMAP
  2
AcDbCellStyleMap
  3
ObjectDBX Classes
 90
     1152
280
     0
281
     0
  0
CLASS
  1
RASTERVARIABLES
  2
AcDbRasterVariables
  3
ISM
 90
    32768
280
     0
281
     0
  0
CLASS
  1
MATERIAL
  2
AcDbMaterial
  3
ObjectDBX Classes
 90
     1153
280
     0
281
     0
  0
CLASS
  1
MLEADERSTYLE
  2
AcDbMLeaderStyle
  3
ACDB_MLEADERSTYLE_CLASS
 90
     4095
280
     0
281
     0
  0
CLASS
  1
SUN
  2
AcDbSun
  3
SCENEOE
 90
     1153
280
     0
281
     0
  0
CLASS
  1
XRECORD
  2
AcDbXrecord
  3
ObjectDBX Classes
 90
    32768
280
     0
281
     0
  0
ENDSEC
  0
SECTION
  2
TABLES
  0
TABLE
  2
VPORT
  5
8
330
0
100
AcDbSymbolTable
 70
     1
  0
VPORT
  5
29
330
8
100
AcDbSymbolTableRecord
100
AcDbViewportTableRecord
  2
*ACTIVE
 70
     0
 10
0.0
 20
0.0
 11
1.0
 21
1.0
 12
686.387964648719
 22
186.1156823676137
 13
0.0
 23
0.0
 14
10.0
 24
10.0
 15
10.0
 25
10.0
 16
0.0
 26
0.0
 36
1.0
 17
-134.1869158878507
 27
0.0
 37
0.0
 40
601.8750000000003
 41
2.187032418952618
 42
50.0
 43
0.0
 44
0.0
 50
0.0
 51
0.0
 71
    16
 72
  1000
 73
     1
 74
     3
 75
     0
 76
     0
 77
     0
 78
     1
  0
ENDTAB
  0
TABLE
  2
LTYPE
  5
5
330
0
100
AcDbSymbolTable
 70
     1
  0
LTYPE
  5
14
330
5
100
AcDbSymbolTableRecord
100
AcDbLinetypeTableRecord
  2
BYBLOCK
 70
     0
  3

 72
    65
 73
     0
 40
0.0
  0
LTYPE
  5
15
330
5
100
AcDbSymbolTableRecord
100
AcDbLinetypeTableRecord
  2
BYLAYER
 70
     0
  3

 72
    65
 73
     0
 40
0.0
  0
LTYPE
  5
16
330
5
100
AcDbSymbolTableRecord
100
AcDbLinetypeTableRecord
  2
CONTINUOUS
 70
     0
  3
Solid line
 72
    65
 73
     0
 40
0.0
  0
ENDTAB
  0
TABLE
  2
LAYER
  5
2
102
{ACAD_XDICTIONARY
360
86
102
}
330
0
100
AcDbSymbolTable
 70
     2
  0
LAYER
  5
10
330
2
100
AcDbSymbolTableRecord
100
AcDbLayerTableRecord
  2
0
 70
     0
 62
     7
  6
CONTINUOUS
  0
LAYER
  5
89
330
2
100
AcDbSymbolTableRecord
100
AcDbLayerTableRecord
  2
CONSTRUCTION
 70
     0
 62
     2
  6
CONTINUOUS
1001
ACAECLAYERSTANDARD
1000

1000

  0
ENDTAB
  0
TABLE
  2
STYLE
  5
3
330
0
100
AcDbSymbolTable
 70
     1
  0
STYLE
  5
11
330
3
100
AcDbSymbolTableRecord
100
AcDbTextStyleTableRecord
  2
STANDARD
 70
     0
 40
0.0
 41
1.0
 50
0.0
 71
     0
 42
2.5
  3
arial.ttf
  4

1001
ACAD
1000
Arial
1071
        0
  0
ENDTAB
  0
TABLE
  2
VIEW
  5
6
330
0
100
AcDbSymbolTable
 70
     0
  0
ENDTAB
  0
TABLE
  2
UCS
  5
7
330
0
100
AcDbSymbolTable
 70
     0
  0
ENDTAB
  0
TABLE
  2
APPID
  5
9
330
0
100
AcDbSymbolTable
 70
     2
  0
APPID
  5
12
330
9
100
AcDbSymbolTableRecord
100
AcDbRegAppTableRecord
  2
ACAD
 70
     0
  0
APPID
  5
8A
330
9
100
AcDbSymbolTableRecord
100
AcDbRegAppTableRecord
  2
ACAECLAYERSTANDARD
 70
     0
  0
ENDTAB
  0
TABLE
  2
DIMSTYLE
  5
A
330
0
100
AcDbSymbolTable
 70
     1
  0
DIMSTYLE
105
27
330
A
100
AcDbSymbolTableRecord
100
AcDbDimStyleTableRecord
  2
ISO-25
 70
     0
  3

  4

  5

  6

  7

 40
1.0
 41
2.5
 42
0.625
 43
3.75
 44
1.25
 45
0.0
 46
0.0
 47
0.0
 48
0.0
140
2.5
141
2.5
142
0.0
143
0.03937007874016
144
1.0
145
0.0
146
1.0
147
0.625
 71
     0
 72
     0
 73
     0
 74
     0
 75
     0
 76
     0
 77
     1
 78
     8
170
     0
171
     3
172
     1
173
     0
174
     0
175
     0
176
     0
177
     0
178
     0
270
     2
271
     2
272
     2
273
     2
274
     3
340
11
275
     0
280
     0
281
     0
282
     0
283
     0
284
     8
285
     0
286
     0
287
     3
288
     0
  0
ENDTAB
  0
TABLE
  2
BLOCK_RECORD
  5
1
330
0
100
AcDbSymbolTable
 70
     4
  0
BLOCK_RECORD
  5
1F
330
1
100
AcDbSymbolTableRecord
100
AcDbBlockTableRecord
  2
*MODEL_SPACE
  0
BLOCK_RECORD
  5
1B
330
1
100
AcDbSymbolTableRecord
100
AcDbBlockTableRecord
  2
*PAPER_SPACE
  0
BLOCK_RECORD
  5
23
330
1
100
AcDbSymbolTableRecord
100
AcDbBlockTableRecord
  2
*PAPER_SPACE0
  0
ENDTAB
  0
ENDSEC
  0
SECTION
  2
BLOCKS
  0
BLOCK
  5
20
330
1F
100
AcDbEntity
  8
0
100
AcDbBlockBegin
  2
*MODEL_SPACE
 70
     0
 10
0.0
 20
0.0
 30
0.0
  3
*MODEL_SPACE
  1

  0
ENDBLK
  5
21
330
1F
100
AcDbEntity
  8
0
100
AcDbBlockEnd
  0
BLOCK
  5
1C
330
1B
100
AcDbEntity
 67
     1
  8
0
100
AcDbBlockBegin
  2
*PAPER_SPACE
 70
     0
 10
0.0
 20
0.0
 30
0.0
  3
*PAPER_SPACE
  1

  0
ENDBLK
  5
1D
330
1B
100
AcDbEntity
 67
     1
  8
0
100
AcDbBlockEnd
  0
BLOCK
  5
24
330
23
100
AcDbEntity
  8
0
100
AcDbBlockBegin
  2
*PAPER_SPACE0
 70
     0
 10
0.0
 20
0.0
 30
0.0
  3
*PAPER_SPACE0
  1

  0
ENDBLK
  5
25
330
23
100
AcDbEntity
  8
0
100
AcDbBlockEnd
  0
ENDSEC
  0
SECTION
  2
ENTITIES
  0
ARC
  5
8D
330
1F
100
AcDbEntity
  8
0
100
AcDbCircle
 10
355.0236627140171
 20
123.6181781550127
 30
0.0
 40
46.06161044526439
100
AcDbArc
 50
187.7977446892554
 51
233.4693143624289
  0
ARC
  5
8E
330
1F
100
AcDbEntity
  8
0
100
AcDbCircle
 10
571.0387232083075
 20
111.870744640262
 30
0.0
 40
261.9069166827761
100
AcDbArc
 50
132.3829843186388
 51
133.675279391477
  0
ARC
  5
8F
330
1F
100
AcDbEntity
  8
0
100
AcDbCircle
 10
452.5241993092522
 20
238.6207676436707
 30
0.0
 40
88.41864950863811
100
AcDbArc
 50
31.19692469247514
 51
79.4891229611926
  0
ARC
  5
91
330
1F
100
AcDbEntity
  8
0
100
AcDbCircle
 10
464.5528829799305
 20
227.5795749335921
 30
0.0
 40
78.341110195849
100
AcDbArc
 50
41.70388257347209
 51
121.2134745983537
  0
ARC
  5
92
330
1F
100
AcDbEntity
  8
0
100
AcDbCircle
 10
510.6718971589715
 20
163.7141224771673
 30
0.0
 40
156.9900422079994
100
AcDbArc
 50
123.5301923317432
 51
170.3534196914275
  0
ARC
  5
93
330
1F
100
AcDbEntity
  8
0
100
AcDbCircle
 10
404.5436137469376
 20
177.4230801954343
 30
0.0
 40
50.24684720324244
100
AcDbArc
 50
165.4798553759657
 51
241.2378570046143
  0
LINE
  5
94
330
1F
100
AcDbEntity
  8
0
100
AcDbLine
 10
368.5555499662177
 20
79.58909703576813
 30
0.0
 11
388.5344426339517
 21
129.7948102904595
 31
0.0
  0
ARC
  5
96
330
1F
100
AcDbEntity
  8
0
100
AcDbCircle
 10
525.5993129199372
 20
282.0591898815666
 30
0.0
 40
3.480519144348363
100
AcDbArc
 50
220.7839156600925
 51
42.70938995736162
  0
LINE
  5
A3
330
1F
100
AcDbEntity
  8
0
100
AcDbLine
 10
343.2959041674189
 20
106.2712221997845
 30
0.0
 11
345.2500950637854
 21
104.712011521089
 31
0.0
  0
LINE
  5
A4
330
1F
100
AcDbEntity
  8
0
100
AcDbLine
 10
345.2500950637854
 20
104.712011521089
 30
0.0
 11
329.6579882768302
 21
85.17010255742358
 31
0.0
  0
LINE
  5
A5
330
1F
100
AcDbEntity
  8
0
100
AcDbLine
 10
369.739615797823
 20
110.6086377337901
 30
0.0
 11
367.5906889753746
 21
111.8861797142203
 31
0.0
  0
LINE
  5
A6
330
1F
100
AcDbEntity
  8
0
100
AcDbLine
 10
327.6053408079244
 20
86.60591558346536
 30
0.0
 11
343.2959041674189
 21
106.2712221997845
 31
0.0
  0
LINE
  5
A8
330
1F
100
AcDbEntity
  8
0
100
AcDbLine
 10
367.5906889753746
 20
111.8861797142203
 30
0.0
 11
380.3661087796764
 21
133.3754479387051
 31
0.0
  0
LINE
  5
AA
330
1F
100
AcDbEntity
  8
0
100
AcDbLine
 10
382.5908786000164
 20
132.2254798892773
 30
0.0
 11
369.739615797823
 21
110.6086377337901
 31
0.0
  0
ARC
  5
AB
330
1F
100
AcDbEntity
  8
0
100
AcDbCircle
 10
404.5436137469376
 20
177.4230801954343
 30
0.0
 40
50.24684720324244
100
AcDbArc
 50
244.0938868955122
 51
251.4210877902511
  0
LINE
  5
AD
330
1F
100
AcDbEntity
  8
0
100
AcDbLine
 10
329.8630165733467
 20
132.8937069649402
 30
0.0
 11
331.1725180833719
 21
130.7641047027229
 31
0.0
  0
LINE
  5
AE
330
1F
100
AcDbEntity
  8
0
100
AcDbLine
 10
331.1725180833719
 20
130.7641047027229
 30
0.0
 11
309.3879756055516
 21
117.3686966605586
 31
0.0
  0
LINE
  5
AF
330
1F
100
AcDbEntity
  8
0
100
AcDbLine
 10
309.2651776474922
 20
120.228007996072
 30
0.0
 11
329.8630165733467
 21
132.8937069649402
 31
0.0
  0
LINE
  5
CC
330
1F
100
AcDbEntity
  8
0
100
AcDbLine
 10
337.4602274941571
 20
167.7264952593565
 30
0.0
 11
338.1003920611477
 21
165.3098468928848
 31
0.0
  0
LINE
  5
CD
330
1F
100
AcDbEntity
  8
0
100
AcDbLine
 10
313.8727644955708
 20
161.4782308256921
 30
0.0
 11
337.4602274941571
 21
167.7264952593565
 31
0.0
  0
LINE
  5
CF
330
1F
100
AcDbEntity
  8
0
100
AcDbLine
 10
338.1003920611477
 20
165.3098468928848
 30
0.0
 11
313.3627214148717
 21
158.7568951116743
 31
0.0
  0
LINE
  5
D0
330
1F
100
AcDbEntity
  8
0
100
AcDbLine
 10
345.2653333063789
 20
191.4656978477887
 30
0.0
 11
345.479472520163
 21
188.9748858522499
 31
0.0
  0
LINE
  5
D1
330
1F
100
AcDbEntity
  8
0
100
AcDbLine
 10
320.8598202431236
 20
189.3675156530966
 30
0.0
 11
345.2653333063789
 21
191.4656978477887
 31
0.0
  0
LINE
  5
D3
330
1F
100
AcDbEntity
  8
0
100
AcDbLine
 10
345.479472520163
 20
188.9748858522499
 30
0.0
 11
320.0761763186629
 21
186.7909225961475
 31
0.0
  0
LINE
  5
D4
330
1F
100
AcDbEntity
  8
0
100
AcDbLine
 10
342.6397455466275
 20
215.7804886348533
 30
0.0
 11
342.6207715247855
 21
213.2805606385912
 31
0.0
  0
LINE
  5
D5
330
1F
100
AcDbEntity
  8
0
100
AcDbLine
 10
330.6658809288637
 20
215.8713681998364
 30
0.0
 11
342.6397455466275
 21
215.7804886348533
 31
0.0
  0
LINE
  5
D7
330
1F
100
AcDbEntity
  8
0
100
AcDbLine
 10
342.6207715247855
 20
213.2805606385912
 30
0.0
 11
329.6029485816764
 21
213.3793636670089
 31
0.0
  0
LINE
  5
D8
330
1F
100
AcDbEntity
  8
0
100
AcDbLine
 10
359.2588076377004
 20
243.9396618373132
 30
0.0
 11
358.1573405626181
 21
241.6953868357794
 31
0.0
  0
LINE
  5
D9
330
1F
100
AcDbEntity
  8
0
100
AcDbLine
 10
348.1434172716599
 20
249.3949810412939
 30
0.0
 11
359.2588076377004
 21
243.9396618373132
 31
0.0
  0
LINE
  5
DB
330
1F
100
AcDbEntity
  8
0
100
AcDbLine
 10
358.1573405626181
 20
241.6953868357794
 30
0.0
 11
346.8354047426554
 21
247.2520764230009
 31
0.0
  0
LINE
  5
DC
330
1F
100
AcDbEntity
  8
0
100
AcDbLine
 10
378.5895648169461
 20
270.7507024979865
 30
0.0
 11
377.1772188283913
 21
268.6878697833406
 31
0.0
  0
LINE
  5
DD
330
1F
100
AcDbEntity
  8
0
100
AcDbLine
 10
368.3613528772267
 20
277.7535845061041
 30
0.0
 11
378.5895648169461
 21
270.7507024979865
 31
0.0
  0
LINE
  5
DF
330
1F
100
AcDbEntity
  8
0
100
AcDbLine
 10
377.1772188283913
 20
268.6878697833407
 30
0.0
 11
366.7820747124069
 21
275.8050441370445
 31
0.0
  0
LINE
  5
E0
330
1F
100
AcDbEntity
  8
0
100
AcDbLine
 10
398.7192141567955
 20
292.153813379813
 30
0.0
 11
396.8925977034876
 21
290.4469237136352
 31
0.0
  0
LINE
  5
E1
330
1F
100
AcDbEntity
  8
0
100
AcDbLine
 10
390.1735542095689
 20
301.2988936818877
 30
0.0
 11
398.7192141567954
 21
292.153813379813
 31
0.0
  0
LINE
  5
E3
330
1F
100
AcDbEntity
  8
0
100
AcDbLine
 10
396.8925977034876
 20
290.4469237136352
 30
0.0
 11
388.3734357106071
 21
299.5636474087501
 31
0.0
  0
LINE
  5
EA
330
1F
100
AcDbEntity
  8
0
100
AcDbLine
 10
420.938316082077
 20
307.6272633857793
 30
0.0
 11
423.1918617946027
 21
308.7096365753757
 31
0.0
  0
LINE
  5
EB
330
1F
100
AcDbEntity
  8
0
100
AcDbLine
 10
417.8000813828377
 20
319.935546221515
 30
0.0
 11
423.1918617946027
 21
308.7096365753757
 31
0.0
  0
LINE
  5
EC
330
1F
100
AcDbEntity
  8
0
100
AcDbLine
 10
420.938316082077
 20
307.6272633857793
 30
0.0
 11
415.514026247402
 21
318.9208589939506
 31
0.0
  0
LINE
  5
EE
330
1F
100
AcDbEntity
  8
0
100
AcDbLine
 10
444.1168333700691
 20
314.01728993041
 30
0.0
 11
446.5403056097206
 21
314.6311158859042
 31
0.0
  0
LINE
  5
EF
330
1F
100
AcDbEntity
  8
0
100
AcDbLine
 10
443.5140664125303
 20
326.57913896849
 30
0.0
 11
446.5403056097206
 21
314.6311158859042
 31
0.0
  0
LINE
  5
F0
330
1F
100
AcDbEntity
  8
0
100
AcDbLine
 10
444.1168333700691
 20
314.01728993041
 30
0.0
 11
441.0092669017592
 21
326.2864046548866
 31
0.0
  0
LINE
  5
F2
330
1F
100
AcDbEntity
  8
0
100
AcDbLine
 10
464.4865255634271
 20
313.5607512732943
 30
0.0
 11
466.9633752841036
 21
313.2213172426121
 31
0.0
  0
LINE
  5
F3
330
1F
100
AcDbEntity
  8
0
100
AcDbLine
 10
468.6537224108992
 20
325.5557782288477
 30
0.0
 11
466.9633752841036
 21
313.2213172426121
 31
0.0
  0
LINE
  5
F4
330
1F
100
AcDbEntity
  8
0
100
AcDbLine
 10
464.4865255634271
 20
313.5607512732943
 30
0.0
 11
466.1881153354947
 21
325.9772498287907
 31
0.0
  0
ARC
  5
F5
330
1F
100
AcDbEntity
  8
0
100
AcDbCircle
 10
452.5241993092522
 20
238.6207676436707
 30
0.0
 40
88.41864950863811
100
AcDbArc
 50
81.11007937808746
 51
95.84876896561977
  0
ARC
  5
F6
330
1F
100
AcDbEntity
  8
0
100
AcDbCircle
 10
452.5241993092522
 20
238.6207676436707
 30
0.0
 40
88.41864950863811
100
AcDbArc
 50
97.48299554035471
 51
113.1240956868133
  0
ARC
  5
F8
330
1F
100
AcDbEntity
  8
0
100
AcDbCircle
 10
452.5241993092522
 20
238.6207676436707
 30
0.0
 40
88.41864950863811
100
AcDbArc
 50
114.7448942727192
 51
131.0211565996958
  0
ARC
  5
F9
330
1F
100
AcDbEntity
  8
0
100
AcDbCircle
 10
571.0387232083075
 20
111.870744640262
 30
0.0
 40
261.9069166827761
100
AcDbArc
 50
134.2222571260933
 51
140.7011284039799
  0
ARC
  5
FA
330
1F
100
AcDbEntity
  8
0
100
AcDbCircle
 10
571.0387232083075
 20
111.870744640262
 30
0.0
 40
261.9069166827761
100
AcDbArc
 50
141.249828099479
 51
148.3258177033714
  0
ARC
  5
FB
330
1F
100
AcDbEntity
  8
0
100
AcDbCircle
 10
571.0387232083075
 20
111.870744640262
 30
0.0
 40
261.9069166827761
100
AcDbArc
 50
148.8750408218331
 51
156.6036126520908
  0
ARC
  5
FC
330
1F
100
AcDbEntity
  8
0
100
AcDbCircle
 10
571.0387232083075
 20
111.870744640262
 30
0.0
 40
261.9069166827761
100
AcDbArc
 50
157.1962964027037
 51
162.7888270874982
  0
ARC
  5
FD
330
1F
100
AcDbEntity
  8
0
100
AcDbCircle
 10
571.0387232083075
 20
111.870744640262
 30
0.0
 40
261.9069166827761
100
AcDbArc
 50
163.3779885185722
 51
169.081713002119
  0
ARC
  5
FE
330
1F
100
AcDbEntity
  8
0
100
AcDbCircle
 10
571.0387232083075
 20
111.870744640262
 30
0.0
 40
261.9069166827761
100
AcDbArc
 50
169.6874118803196
 51
178.1714220435346
  0
ARC
  5
FF
330
1F
100
AcDbEntity
  8
0
100
AcDbCircle
 10
355.0236627140171
 20
123.6181781550127
 30
0.0
 40
46.06161044526439
100
AcDbArc
 50
236.5856280509656
 51
287.0842746627409
  0
ARC
  5
14B
330
1F
100
AcDbEntity
  8
0
100
AcDbCircle
 10
530.3325938339656
 20
106.9132554714372
 30
0.0
 40
46.06161044526439
100
AcDbArc
 50
187.7977446892554
 51
233.4693143624288
  0
ARC
  5
14C
330
1F
100
AcDbEntity
  8
0
100
AcDbCircle
 10
746.3476543282559
 20
95.16582195668654
 30
0.0
 40
261.9069166827761
100
AcDbArc
 50
132.3829843186388
 51
133.675279391477
  0
ARC
  5
14D
330
1F
100
AcDbEntity
  8
0
100
AcDbCircle
 10
627.8331304292005
 20
221.9158449600952
 30
0.0
 40
88.41864950863811
100
AcDbArc
 50
31.19692469247515
 51
79.4891229611926
  0
ARC
  5
14E
330
1F
100
AcDbEntity
  8
0
100
AcDbCircle
 10
639.8618140998789
 20
210.8746522500167
 30
0.0
 40
78.341110195849
100
AcDbArc
 50
41.70388257347204
 51
121.2134745983537
  0
ARC
  5
14F
330
1F
100
AcDbEntity
  8
0
100
AcDbCircle
 10
685.98082827892
 20
147.0091997935918
 30
0.0
 40
156.9900422079994
100
AcDbArc
 50
123.5301923317432
 51
170.3534196914275
  0
ARC
  5
150
330
1F
100
AcDbEntity
  8
0
100
AcDbCircle
 10
579.852544866886
 20
160.7181575118588
 30
0.0
 40
50.24684720324244
100
AcDbArc
 50
165.4798553759657
 51
241.2378570046143
  0
LINE
  5
151
330
1F
100
AcDbEntity
  8
0
100
AcDbLine
 10
543.864481086166
 20
62.88417435219267
 30
0.0
 11
563.8433737539001
 21
113.089887606884
 31
0.0
  0
ARC
  5
152
330
1F
100
AcDbEntity
  8
0
100
AcDbCircle
 10
700.9082440398856
 20
265.3542671979911
 30
0.0
 40
3.480519144348363
100
AcDbArc
 50
220.7839156600925
 51
42.70938995736232
  0
LINE
  5
153
330
1F
100
AcDbEntity
  8
0
100
AcDbLine
 10
518.6048352873672
 20
89.56629951620904
 30
0.0
 11
520.5590261837337
 21
88.00708883751354
 31
0.0
  0
LINE
  5
154
330
1F
100
AcDbEntity
  8
0
100
AcDbLine
 10
520.5590261837337
 20
88.00708883751354
 30
0.0
 11
504.9669193967786
 21
68.46517987384811
 31
0.0
  0
LINE
  5
155
330
1F
100
AcDbEntity
  8
0
100
AcDbLine
 10
545.0485469177713
 20
93.90371505021464
 30
0.0
 11
542.8996200953229
 21
95.18125703064484
 31
0.0
  0
LINE
  5
156
330
1F
100
AcDbEntity
  8
0
100
AcDbLine
 10
502.9142719278728
 20
69.9009928998899
 30
0.0
 11
518.6048352873672
 21
89.56629951620904
 31
0.0
  0
LINE
  5
157
330
1F
100
AcDbEntity
  8
0
100
AcDbLine
 10
542.8996200953229
 20
95.18125703064484
 30
0.0
 11
555.6750398996248
 21
116.6705252551296
 31
0.0
  0
LINE
  5
158
330
1F
100
AcDbEntity
  8
0
100
AcDbLine
 10
557.8998097199649
 20
115.5205572057018
 30
0.0
 11
545.0485469177713
 21
93.90371505021464
 31
0.0
  0
ARC
  5
159
330
1F
100
AcDbEntity
  8
0
100
AcDbCircle
 10
579.852544866886
 20
160.7181575118588
 30
0.0
 40
50.24684720324244
100
AcDbArc
 50
244.0938868955122
 51
251.4210877902511
  0
LINE
  5
15A
330
1F
100
AcDbEntity
  8
0
100
AcDbLine
 10
505.1719476932951
 20
116.1887842813647
 30
0.0
 11
506.4814492033203
 21
114.0591820191474
 31
0.0
  0
LINE
  5
15B
330
1F
100
AcDbEntity
  8
0
100
AcDbLine
 10
506.4814492033203
 20
114.0591820191474
 30
0.0
 11
484.6969067255
 21
100.6637739769831
 31
0.0
  0
LINE
  5
15C
330
1F
100
AcDbEntity
  8
0
100
AcDbLine
 10
484.5741087674406
 20
103.5230853124965
 30
0.0
 11
505.1719476932951
 21
116.1887842813647
 31
0.0
  0
LINE
  5
15D
330
1F
100
AcDbEntity
  8
0
100
AcDbLine
 10
512.7691586141054
 20
151.0215725757811
 30
0.0
 11
513.4093231810962
 21
148.6049242093093
 31
0.0
  0
LINE
  5
15E
330
1F
100
AcDbEntity
  8
0
100
AcDbLine
 10
489.1816956155192
 20
144.7733081421166
 30
0.0
 11
512.7691586141054
 21
151.0215725757811
 31
0.0
  0
LINE
  5
15F
330
1F
100
AcDbEntity
  8
0
100
AcDbLine
 10
513.4093231810962
 20
148.6049242093093
 30
0.0
 11
488.6716525348201
 21
142.0519724280988
 31
0.0
  0
LINE
  5
160
330
1F
100
AcDbEntity
  8
0
100
AcDbLine
 10
520.5742644263273
 20
174.7607751642132
 30
0.0
 11
520.7884036401114
 21
172.2699631686745
 31
0.0
  0
LINE
  5
161
330
1F
100
AcDbEntity
  8
0
100
AcDbLine
 10
496.168751363072
 20
172.6625929695211
 30
0.0
 11
520.5742644263273
 21
174.7607751642132
 31
0.0
  0
LINE
  5
162
330
1F
100
AcDbEntity
  8
0
100
AcDbLine
 10
520.7884036401114
 20
172.2699631686745
 30
0.0
 11
495.3851074386113
 21
170.085999912572
 31
0.0
  0
LINE
  5
163
330
1F
100
AcDbEntity
  8
0
100
AcDbLine
 10
517.9486766665759
 20
199.0755659512778
 30
0.0
 11
517.9297026447339
 21
196.5756379550157
 31
0.0
  0
LINE
  5
164
330
1F
100
AcDbEntity
  8
0
100
AcDbLine
 10
505.9748120488121
 20
199.1664455162609
 30
0.0
 11
517.9486766665759
 21
199.0755659512778
 31
0.0
  0
LINE
  5
165
330
1F
100
AcDbEntity
  8
0
100
AcDbLine
 10
517.9297026447339
 20
196.5756379550157
 30
0.0
 11
504.9118797016248
 21
196.6744409834334
 31
0.0
  0
LINE
  5
166
330
1F
100
AcDbEntity
  8
0
100
AcDbLine
 10
534.5677387576488
 20
227.2347391537377
 30
0.0
 11
533.4662716825665
 21
224.9904641522039
 31
0.0
  0
LINE
  5
167
330
1F
100
AcDbEntity
  8
0
100
AcDbLine
 10
523.4523483916083
 20
232.6900583577184
 30
0.0
 11
534.5677387576488
 21
227.2347391537377
 31
0.0
  0
LINE
  5
168
330
1F
100
AcDbEntity
  8
0
100
AcDbLine
 10
533.4662716825665
 20
224.9904641522039
 30
0.0
 11
522.1443358626038
 21
230.5471537394254
 31
0.0
  0
LINE
  5
169
330
1F
100
AcDbEntity
  8
0
100
AcDbLine
 10
553.8984959368945
 20
254.045779814411
 30
0.0
 11
552.4861499483397
 21
251.9829470997651
 31
0.0
  0
LINE
  5
16A
330
1F
100
AcDbEntity
  8
0
100
AcDbLine
 10
543.6702839971751
 20
261.0486618225286
 30
0.0
 11
553.8984959368945
 21
254.045779814411
 31
0.0
  0
LINE
  5
16B
330
1F
100
AcDbEntity
  8
0
100
AcDbLine
 10
552.4861499483397
 20
251.9829470997653
 30
0.0
 11
542.0910058323552
 21
259.100121453469
 31
0.0
  0
LINE
  5
16C
330
1F
100
AcDbEntity
  8
0
100
AcDbLine
 10
574.0281452767439
 20
275.4488906962375
 30
0.0
 11
572.201528823436
 21
273.7420010300598
 31
0.0
  0
LINE
  5
16D
330
1F
100
AcDbEntity
  8
0
100
AcDbLine
 10
565.4824853295173
 20
284.5939709983122
 30
0.0
 11
574.0281452767438
 21
275.4488906962375
 31
0.0
  0
LINE
  5
16E
330
1F
100
AcDbEntity
  8
0
100
AcDbLine
 10
572.201528823436
 20
273.7420010300598
 30
0.0
 11
563.6823668305556
 21
282.8587247251746
 31
0.0
  0
LINE
  5
16F
330
1F
100
AcDbEntity
  8
0
100
AcDbLine
 10
596.2472472020254
 20
290.9223407022039
 30
0.0
 11
598.5007929145511
 21
292.0047138918003
 31
0.0
  0
LINE
  5
170
330
1F
100
AcDbEntity
  8
0
100
AcDbLine
 10
593.1090125027861
 20
303.2306235379396
 30
0.0
 11
598.5007929145511
 21
292.0047138918003
 31
0.0
  0
LINE
  5
171
330
1F
100
AcDbEntity
  8
0
100
AcDbLine
 10
596.2472472020254
 20
290.9223407022039
 30
0.0
 11
590.8229573673505
 21
302.2159363103751
 31
0.0
  0
LINE
  5
172
330
1F
100
AcDbEntity
  8
0
100
AcDbLine
 10
619.4257644900175
 20
297.3123672468346
 30
0.0
 11
621.849236729669
 21
297.9261932023287
 31
0.0
  0
LINE
  5
173
330
1F
100
AcDbEntity
  8
0
100
AcDbLine
 10
618.8229975324787
 20
309.8742162849145
 30
0.0
 11
621.849236729669
 21
297.9261932023287
 31
0.0
  0
LINE
  5
174
330
1F
100
AcDbEntity
  8
0
100
AcDbLine
 10
619.4257644900175
 20
297.3123672468346
 30
0.0
 11
616.3181980217075
 21
309.5814819713112
 31
0.0
  0
LINE
  5
175
330
1F
100
AcDbEntity
  8
0
100
AcDbLine
 10
639.7954566833755
 20
296.8558285897188
 30
0.0
 11
642.272306404052
 21
296.5163945590366
 31
0.0
  0
LINE
  5
176
330
1F
100
AcDbEntity
  8
0
100
AcDbLine
 10
643.9626535308475
 20
308.8508555452722
 30
0.0
 11
642.272306404052
 21
296.5163945590366
 31
0.0
  0
LINE
  5
177
330
1F
100
AcDbEntity
  8
0
100
AcDbLine
 10
639.7954566833755
 20
296.8558285897188
 30
0.0
 11
641.4970464554431
 21
309.2723271452153
 31
0.0
  0
ARC
  5
178
330
1F
100
AcDbEntity
  8
0
100
AcDbCircle
 10
627.8331304292005
 20
221.9158449600952
 30
0.0
 40
88.41864950863811
100
AcDbArc
 50
81.11007937808746
 51
95.84876896561977
  0
ARC
  5
179
330
1F
100
AcDbEntity
  8
0
100
AcDbCircle
 10
627.8331304292005
 20
221.9158449600952
 30
0.0
 40
88.41864950863811
100
AcDbArc
 50
97.4829955403547
 51
113.1240956868133
  0
ARC
  5
17A
330
1F
100
AcDbEntity
  8
0
100
AcDbCircle
 10
627.8331304292005
 20
221.9158449600952
 30
0.0
 40
88.41864950863811
100
AcDbArc
 50
114.7448942727191
 51
131.0211565996957
  0
ARC
  5
17B
330
1F
100
AcDbEntity
  8
0
100
AcDbCircle
 10
746.3476543282559
 20
95.16582195668654
 30
0.0
 40
261.9069166827761
100
AcDbArc
 50
134.2222571260933
 51
140.7011284039799
  0
ARC
  5
17C
330
1F
100
AcDbEntity
  8
0
100
AcDbCircle
 10
746.3476543282559
 20
95.16582195668654
 30
0.0
 40
261.9069166827761
100
AcDbArc
 50
141.249828099479
 51
148.3258177033714
  0
ARC
  5
17D
330
1F
100
AcDbEntity
  8
0
100
AcDbCircle
 10
746.3476543282559
 20
95.16582195668654
 30
0.0
 40
261.9069166827761
100
AcDbArc
 50
148.8750408218331
 51
156.6036126520908
  0
ARC
  5
17E
330
1F
100
AcDbEntity
  8
0
100
AcDbCircle
 10
746.3476543282559
 20
95.16582195668654
 30
0.0
 40
261.9069166827761
100
AcDbArc
 50
157.1962964027037
 51
162.7888270874982
  0
ARC
  5
17F
330
1F
100
AcDbEntity
  8
0
100
AcDbCircle
 10
746.3476543282559
 20
95.16582195668654
 30
0.0
 40
261.9069166827761
100
AcDbArc
 50
163.3779885185722
 51
169.081713002119
  0
ARC
  5
180
330
1F
100
AcDbEntity
  8
0
100
AcDbCircle
 10
746.3476543282559
 20
95.16582195668654
 30
0.0
 40
261.9069166827761
100
AcDbArc
 50
169.6874118803196
 51
178.1714220435346
  0
ARC
  5
181
330
1F
100
AcDbEntity
  8
0
100
AcDbCircle
 10
530.3325938339656
 20
106.9132554714372
 30
0.0
 40
46.06161044526439
100
AcDbArc
 50
236.5856280509655
 51
287.0842746627407
  0
LINE
  5
1B5
330
1F
100
AcDbEntity
  8
0
100
AcDbLine
 10
587.4232486658625
 20
95.71695497114173
 30
0.0
 11
584.9543342942277
 21
95.32393865400607
 31
0.0
  0
LINE
  5
1B6
330
1F
100
AcDbEntity
  8
0
100
AcDbLine
 10
587.4232486658625
 20
95.71695497114173
 30
0.0
 11
593.4190302110414
 21
58.0516709087421
 31
0.0
  0
LINE
  5
1B7
330
1F
100
AcDbEntity
  8
0
100
AcDbLine
 10
590.9501489317388
 20
57.65844670676575
 30
0.0
 11
584.9543342942277
 21
95.32393865400607
 31
0.0
  0
LINE
  5
1B8
330
1F
100
AcDbEntity
  8
0
100
AcDbLine
 10
674.4148117562204
 20
95.71695497114173
 30
0.0
 11
676.8837261278552
 21
95.32393865400607
 31
0.0
  0
LINE
  5
1B9
330
1F
100
AcDbEntity
  8
0
100
AcDbLine
 10
674.4148117562204
 20
95.71695497114173
 30
0.0
 11
668.4190302110414
 21
58.0516709087421
 31
0.0
  0
LINE
  5
1BA
330
1F
100
AcDbEntity
  8
0
100
AcDbLine
 10
670.8879114903441
 20
57.65844670676575
 30
0.0
 11
676.8837261278552
 21
95.32393865400607
 31
0.0
  0
ARC
  5
1BB
330
1F
100
AcDbEntity
  8
0
100
AcDbCircle
 10
601.1052208087158
 20
87.26306138766431
 30
0.0
 40
31.29790240944338
100
AcDbArc
 50
150.9230315012233
 51
251.0668385912657
  0
ARC
  5
1BC
330
1F
100
AcDbEntity
  8
0
100
AcDbCircle
 10
581.3401754007892
 20
98.97138926418204
 30
0.0
 40
8.357399111847572
100
AcDbArc
 50
45.3912896467235
 51
155.2269825966779
  0
ARC
  5
1BD
330
1F
100
AcDbEntity
  8
0
100
AcDbCircle
 10
630.9190302110414
 20
154.3678762317658
 30
0.0
 40
65.99636412010223
100
AcDbArc
 50
228.5240332688784
 51
270.0
  0
LINE
  5
1BE
330
1F
100
AcDbEntity
  8
0
100
AcDbLine
 10
593.4190302110414
 20
58.0516709087421
 30
0.0
 11
630.9190302110414
 21
58.0516709087421
 31
0.0
  0
ARC
  5
1BF
330
1F
100
AcDbEntity
  8
0
100
AcDbCircle
 10
630.9190302110414
 20
154.3678762317658
 30
0.0
 40
65.99636412010223
100
AcDbArc
 50
270.0
 51
311.4759667311216
  0
ARC
  5
1C0
330
1F
100
AcDbEntity
  8
0
100
AcDbCircle
 10
680.4978850212937
 20
98.97138926418204
 30
0.0
 40
8.357399111847572
100
AcDbArc
 50
24.77301740332205
 51
134.6087103532764
  0
ARC
  5
1C1
330
1F
100
AcDbEntity
  8
0
100
AcDbCircle
 10
660.7328396133671
 20
87.26306138766431
 30
0.0
 40
31.29790240944338
100
AcDbArc
 50
288.9331614087343
 51
29.07696849877671
  0
LINE
  5
1C2
330
1F
100
AcDbEntity
  8
0
100
AcDbLine
 10
668.4190302110414
 20
58.0516709087421
 30
0.0
 11
630.9190302110414
 21
58.0516709087421
 31
0.0
  0
LINE
  5
214
330
1F
100
AcDbEntity
  8
0
100
AcDbLine
 10
670.5665093357147
 20
369.9196709432466
 30
0.0
 11
672.520700232081
 21
368.3604602645511
 31
0.0
  0
LINE
  5
215
330
1F
100
AcDbEntity
  8
0
100
AcDbLine
 10
699.6866676422433
 20
402.4081274138958
 30
0.0
 11
672.520700232081
 21
368.3604602645511
 31
0.0
  0
LINE
  5
216
330
1F
100
AcDbEntity
  8
0
100
AcDbLine
 10
670.5665093357147
 20
369.9196709432466
 30
0.0
 11
697.7321691985296
 21
403.9669526371591
 31
0.0
  0
LINE
  5
217
330
1F
100
AcDbEntity
  8
0
100
AcDbLine
 10
871.6488233641902
 20
353.4757389579423
 30
0.0
 11
872.9583248742156
 21
351.346136695725
 31
0.0
  0
LINE
  5
218
330
1F
100
AcDbEntity
  8
0
100
AcDbLine
 10
904.205262109138
 20
370.5600116144129
 30
0.0
 11
872.9583248742156
 21
351.346136695725
 31
0.0
  0
LINE
  5
219
330
1F
100
AcDbEntity
  8
0
100
AcDbLine
 10
871.6488233641902
 20
353.4757389579423
 30
0.0
 11
902.8988436109522
 21
372.6915096337538
 31
0.0
  0
LINE
  5
21A
330
1F
100
AcDbEntity
  8
0
100
AcDbLine
 10
819.3611021917741
 20
366.8957027627778
 30
0.0
 11
820.0012667587646
 21
364.4790543963061
 31
0.0
  0
LINE
  5
21B
330
1F
100
AcDbEntity
  8
0
100
AcDbLine
 10
819.3611021917741
 20
366.8957027627778
 30
0.0
 11
836.1123858763672
 21
371.3330790957449
 31
0.0
  0
LINE
  5
21C
330
1F
100
AcDbEntity
  8
0
100
AcDbLine
 10
836.7518116921024
 20
368.9162350357728
 30
0.0
 11
820.0012667587646
 21
364.4790543963061
 31
0.0
  0
LINE
  5
21D
330
1F
100
AcDbEntity
  8
0
100
AcDbLine
 10
778.9705584970334
 20
365.705828420332
 30
0.0
 11
779.1846977108175
 21
363.2150164247932
 31
0.0
  0
LINE
  5
21E
330
1F
100
AcDbEntity
  8
0
100
AcDbLine
 10
778.9705584970334
 20
365.705828420332
 30
0.0
 11
789.3088078969945
 21
366.5946247656112
 31
0.0
  0
LINE
  5
21F
330
1F
100
AcDbEntity
  8
0
100
AcDbLine
 10
789.5231401266922
 20
364.1038293639687
 30
0.0
 11
779.1846977108175
 21
363.2150164247932
 31
0.0
  0
LINE
  5
220
330
1F
100
AcDbEntity
  8
0
100
AcDbLine
 10
730.2535493052749
 20
364.3051518032424
 30
0.0
 11
730.2345752834327
 21
361.8052238069803
 31
0.0
  0
LINE
  5
221
330
1F
100
AcDbEntity
  8
0
100
AcDbLine
 10
730.2535493052749
 20
364.3051518032424
 30
0.0
 11
749.2203546528578
 21
364.1611970255551
 31
0.0
  0
LINE
  5
222
330
1F
100
AcDbEntity
  8
0
100
AcDbLine
 10
749.2073450296148
 20
361.6612237605375
 30
0.0
 11
730.2345752834327
 21
361.8052238069804
 31
0.0
  0
LINE
  5
223
330
1F
100
AcDbEntity
  8
0
100
AcDbLine
 10
734.9059199785913
 20
399.0188762920205
 30
0.0
 11
733.8044529035092
 21
396.7746012904867
 31
0.0
  0
LINE
  5
224
330
1F
100
AcDbEntity
  8
0
100
AcDbLine
 10
734.9059199785913
 20
399.0188762920205
 30
0.0
 11
747.6938957514536
 21
392.7426693828263
 31
0.0
  0
LINE
  5
225
330
1F
100
AcDbEntity
  8
0
100
AcDbLine
 10
746.5965437484804
 20
390.4963747462493
 30
0.0
 11
733.8044529035092
 21
396.7746012904867
 31
0.0
  0
LINE
  5
226
330
1F
100
AcDbEntity
  8
0
100
AcDbLine
 10
764.9565150908109
 20
399.48611140424
 30
0.0
 11
763.5441691022561
 21
397.4232786895941
 31
0.0
  0
LINE
  5
227
330
1F
100
AcDbEntity
  8
0
100
AcDbLine
 10
764.9565150908109
 20
399.48611140424
 30
0.0
 11
775.5266553649864
 21
392.2491235919465
 31
0.0
  0
LINE
  5
228
330
1F
100
AcDbEntity
  8
0
100
AcDbLine
 10
774.109539361708
 20
390.1895567316338
 30
0.0
 11
763.5441691022561
 21
397.4232786895941
 31
0.0
  0
LINE
  5
229
330
1F
100
AcDbEntity
  8
0
100
AcDbLine
 10
795.4217064256943
 20
401.7097846822167
 30
0.0
 11
793.5950899723864
 21
400.0028950160388
 31
0.0
  0
LINE
  5
22A
330
1F
100
AcDbEntity
  8
0
100
AcDbLine
 10
795.4217064256942
 20
401.7097846822167
 30
0.0
 11
804.4813450810007
 21
392.0146735354822
 31
0.0
  0
LINE
  5
22B
330
1F
100
AcDbEntity
  8
0
100
AcDbLine
 10
802.6520231572846
 20
390.3106791101975
 30
0.0
 11
793.5950899723864
 21
400.0028950160388
 31
0.0
  0
LINE
  5
22C
330
1F
100
AcDbEntity
  8
0
100
AcDbLine
 10
823.5498653379893
 20
401.0351871535812
 30
0.0
 11
825.803411050515
 21
402.1175603431776
 31
0.0
  0
LINE
  5
22D
330
1F
100
AcDbEntity
  8
0
100
AcDbLine
 10
825.803411050515
 20
402.1175603431776
 30
0.0
 11
831.3348025017219
 21
390.6009747431441
 31
0.0
  0
LINE
  5
22E
330
1F
100
AcDbEntity
  8
0
100
AcDbLine
 10
829.0850961889735
 20
389.5106077645386
 30
0.0
 11
823.5498653379893
 21
401.0351871535812
 31
0.0
  0
LINE
  5
22F
330
1F
100
AcDbEntity
  8
0
100
AcDbLine
 10
850.2655133929038
 20
401.0852558683243
 30
0.0
 11
852.6889856325553
 21
401.6990818238185
 31
0.0
  0
LINE
  5
230
330
1F
100
AcDbEntity
  8
0
100
AcDbLine
 10
852.6889856325553
 20
401.6990818238185
 30
0.0
 11
855.2445894042546
 21
391.6091943877695
 31
0.0
  0
LINE
  5
231
330
1F
100
AcDbEntity
  8
0
100
AcDbLine
 10
852.8229057952094
 20
390.9883066640621
 30
0.0
 11
850.2655133929038
 21
401.0852558683243
 31
0.0
  0
LINE
  5
232
330
1F
100
AcDbEntity
  8
0
100
AcDbLine
 10
873.1786476963184
 20
400.6287172112086
 30
0.0
 11
875.6554974169949
 21
400.2892831805264
 31
0.0
  0
LINE
  5
233
330
1F
100
AcDbEntity
  8
0
100
AcDbLine
 10
875.6554974169949
 20
400.2892831805264
 30
0.0
 11
874.6645530572603
 21
393.0583633588398
 31
0.0
  0
LINE
  5
234
330
1F
100
AcDbEntity
  8
0
100
AcDbLine
 10
872.1889649354807
 20
393.4070032751822
 30
0.0
 11
873.1786476963184
 21
400.6287172112086
 31
0.0
  0
ARC
  5
235
330
1F
100
AcDbEntity
  8
0
100
AcDbCircle
 10
874.7979224983719
 20
402.9689066220857
 30
0.0
 40
9.91144062084273
100
AcDbArc
 50
269.2289983861252
 51
254.7383798663089
  0
ARC
  5
236
330
1F
100
AcDbEntity
  8
0
100
AcDbCircle
 10
851.1775450983963
 20
402.4389591618612
 30
0.0
 40
11.56826064920605
100
AcDbArc
 50
290.583325336425
 51
278.1769423009073
  0
ARC
  5
237
330
1F
100
AcDbEntity
  8
0
100
AcDbCircle
 10
824.704148811039
 20
401.4156677557947
 30
0.0
 40
12.68554899575262
100
AcDbArc
 50
301.5130985341078
 51
290.2031289924712
  0
ARC
  5
238
330
1F
100
AcDbEntity
  8
0
100
AcDbCircle
 10
794.8135514036703
 20
400.5595953150687
 30
0.0
 40
12.90278740453706
100
AcDbArc
 50
318.528001647038
 51
307.4091141779894
  0
ARC
  5
239
330
1F
100
AcDbEntity
  8
0
100
AcDbCircle
 10
764.3785756214469
 20
398.4024103558669
 30
0.0
 40
12.73352347024782
100
AcDbArc
 50
331.1030879004962
 51
319.8359085003025
  0
ARC
  5
23A
330
1F
100
AcDbEntity
  8
0
100
AcDbCircle
 10
735.1045208854698
 20
397.5016021803891
 30
0.0
 40
13.4588187032883
100
AcDbArc
 50
339.292814135614
 51
328.6346407650472
  0
ARC
  5
23B
330
1F
100
AcDbEntity
  8
0
100
AcDbCircle
 10
733.2441776730486
 20
362.9943150490571
 30
0.0
 40
16.01873417087826
100
AcDbArc
 50
4.177401392736498
 51
355.2262804091211
  0
ARC
  5
23C
330
1F
100
AcDbEntity
  8
0
100
AcDbCircle
 10
771.5669697541525
 20
363.8133253693272
 30
0.0
 40
17.95852017897277
100
AcDbArc
 50
8.909461427711156
 51
0.9268792005503618
  0
ARC
  5
23D
330
1F
100
AcDbEntity
  8
0
100
AcDbCircle
 10
815.7037236893145
 20
364.6405390072324
 30
0.0
 40
21.47797907396275
100
AcDbArc
 50
18.15568548078045
 51
11.48278387707717
  0
ARC
  5
23E
330
1F
100
AcDbEntity
  8
0
100
AcDbCircle
 10
877.0226365556159
 20
355.3655905973282
 30
0.0
 40
31.14105910253235
100
AcDbArc
 50
33.805058019565
 51
29.20411970998579
  0
ARC
  5
23F
330
1F
100
AcDbEntity
  8
0
100
AcDbCircle
 10
677.3428488589652
 20
376.3975405232912
 30
0.0
 40
34.28989454946831
100
AcDbArc
 50
53.51473671444395
 51
49.33650294451748
  0
LINE
  5
291
330
1F
100
AcDbEntity
  8
0
100
AcDbLine
 10
355.9704993606522
 20
374.7226634619499
 30
0.0
 11
357.9246902570186
 21
373.1634527832543
 31
0.0
  0
LINE
  5
292
330
1F
100
AcDbEntity
  8
0
100
AcDbLine
 10
385.0906576671807
 20
407.2111199325991
 30
0.0
 11
357.9246902570186
 21
373.1634527832543
 31
0.0
  0
LINE
  5
293
330
1F
100
AcDbEntity
  8
0
100
AcDbLine
 10
355.9704993606522
 20
374.7226634619499
 30
0.0
 11
383.1361592234672
 21
408.7699451558624
 31
0.0
  0
LINE
  5
294
330
1F
100
AcDbEntity
  8
0
100
AcDbLine
 10
557.0528133891278
 20
358.2787314766456
 30
0.0
 11
558.362314899153
 21
356.1491292144283
 31
0.0
  0
LINE
  5
295
330
1F
100
AcDbEntity
  8
0
100
AcDbLine
 10
589.6092521340754
 20
375.3630041331162
 30
0.0
 11
558.362314899153
 21
356.1491292144283
 31
0.0
  0
LINE
  5
296
330
1F
100
AcDbEntity
  8
0
100
AcDbLine
 10
557.0528133891278
 20
358.2787314766456
 30
0.0
 11
588.3028336358898
 21
377.494502152457
 31
0.0
  0
LINE
  5
297
330
1F
100
AcDbEntity
  8
0
100
AcDbLine
 10
504.7650922167115
 20
371.698695281481
 30
0.0
 11
505.4052567837021
 21
369.2820469150093
 31
0.0
  0
LINE
  5
298
330
1F
100
AcDbEntity
  8
0
100
AcDbLine
 10
504.7650922167115
 20
371.698695281481
 30
0.0
 11
521.5163759013046
 21
376.1360716144482
 31
0.0
  0
LINE
  5
299
330
1F
100
AcDbEntity
  8
0
100
AcDbLine
 10
522.1558017170399
 20
373.7192275544761
 30
0.0
 11
505.4052567837021
 21
369.2820469150093
 31
0.0
  0
LINE
  5
29A
330
1F
100
AcDbEntity
  8
0
100
AcDbLine
 10
464.3745485219709
 20
370.5088209390352
 30
0.0
 11
464.588687735755
 21
368.0180089434965
 31
0.0
  0
LINE
  5
29B
330
1F
100
AcDbEntity
  8
0
100
AcDbLine
 10
464.3745485219709
 20
370.5088209390352
 30
0.0
 11
474.712797921932
 21
371.3976172843145
 31
0.0
  0
LINE
  5
29C
330
1F
100
AcDbEntity
  8
0
100
AcDbLine
 10
474.9271301516296
 20
368.9068218826719
 30
0.0
 11
464.588687735755
 21
368.0180089434965
 31
0.0
  0
LINE
  5
29D
330
1F
100
AcDbEntity
  8
0
100
AcDbLine
 10
415.6575393302123
 20
369.1081443219457
 30
0.0
 11
415.6385653083702
 21
366.6082163256835
 31
0.0
  0
LINE
  5
29E
330
1F
100
AcDbEntity
  8
0
100
AcDbLine
 10
415.6575393302123
 20
369.1081443219457
 30
0.0
 11
434.6243446777954
 21
368.9641895442584
 31
0.0
  0
LINE
  5
29F
330
1F
100
AcDbEntity
  8
0
100
AcDbLine
 10
434.6113350545522
 20
366.4642162792408
 30
0.0
 11
415.6385653083702
 21
366.6082163256837
 31
0.0
  0
LINE
  5
2A0
330
1F
100
AcDbEntity
  8
0
100
AcDbLine
 10
420.3099100035289
 20
403.8218688107238
 30
0.0
 11
419.2084429284466
 21
401.5775938091899
 31
0.0
  0
LINE
  5
2A1
330
1F
100
AcDbEntity
  8
0
100
AcDbLine
 10
420.3099100035289
 20
403.8218688107238
 30
0.0
 11
433.0978857763911
 21
397.5456619015296
 31
0.0
  0
LINE
  5
2A2
330
1F
100
AcDbEntity
  8
0
100
AcDbLine
 10
432.0005337734179
 20
395.2993672649526
 30
0.0
 11
419.2084429284466
 21
401.5775938091899
 31
0.0
  0
LINE
  5
2A3
330
1F
100
AcDbEntity
  8
0
100
AcDbLine
 10
450.3605051157484
 20
404.2891039229432
 30
0.0
 11
448.9481591271936
 21
402.2262712082974
 31
0.0
  0
LINE
  5
2A4
330
1F
100
AcDbEntity
  8
0
100
AcDbLine
 10
450.3605051157484
 20
404.2891039229432
 30
0.0
 11
460.9306453899239
 21
397.0521161106498
 31
0.0
  0
LINE
  5
2A5
330
1F
100
AcDbEntity
  8
0
100
AcDbLine
 10
459.5135293866455
 20
394.9925492503371
 30
0.0
 11
448.9481591271936
 21
402.2262712082974
 31
0.0
  0
LINE
  5
2A6
330
1F
100
AcDbEntity
  8
0
100
AcDbLine
 10
480.8256964506318
 20
406.5127772009199
 30
0.0
 11
478.9990799973239
 21
404.8058875347421
 31
0.0
  0
LINE
  5
2A7
330
1F
100
AcDbEntity
  8
0
100
AcDbLine
 10
480.8256964506317
 20
406.5127772009199
 30
0.0
 11
489.8853351059382
 21
396.8176660541855
 31
0.0
  0
LINE
  5
2A8
330
1F
100
AcDbEntity
  8
0
100
AcDbLine
 10
488.0560131822221
 20
395.1136716289008
 30
0.0
 11
478.9990799973239
 21
404.8058875347421
 31
0.0
  0
LINE
  5
2A9
330
1F
100
AcDbEntity
  8
0
100
AcDbLine
 10
508.9538553629268
 20
405.8381796722845
 30
0.0
 11
511.2074010754525
 21
406.9205528618809
 31
0.0
  0
LINE
  5
2AA
330
1F
100
AcDbEntity
  8
0
100
AcDbLine
 10
511.2074010754525
 20
406.9205528618809
 30
0.0
 11
516.7387925266594
 21
395.4039672618474
 31
0.0
  0
LINE
  5
2AB
330
1F
100
AcDbEntity
  8
0
100
AcDbLine
 10
514.489086213911
 20
394.3136002832418
 30
0.0
 11
508.9538553629268
 21
405.8381796722845
 31
0.0
  0
LINE
  5
2AC
330
1F
100
AcDbEntity
  8
0
100
AcDbLine
 10
535.6695034178413
 20
405.8882483870276
 30
0.0
 11
538.0929756574928
 21
406.5020743425217
 31
0.0
  0
LINE
  5
2AD
330
1F
100
AcDbEntity
  8
0
100
AcDbLine
 10
538.0929756574928
 20
406.5020743425217
 30
0.0
 11
540.6485794291922
 21
396.4121869064728
 31
0.0
  0
LINE
  5
2AE
330
1F
100
AcDbEntity
  8
0
100
AcDbLine
 10
538.2268958201469
 20
395.7912991827653
 30
0.0
 11
535.6695034178413
 21
405.8882483870276
 31
0.0
  0
LINE
  5
2AF
330
1F
100
AcDbEntity
  8
0
100
AcDbLine
 10
558.5826377212559
 20
405.4317097299119
 30
0.0
 11
561.0594874419323
 21
405.0922756992296
 31
0.0
  0
LINE
  5
2B0
330
1F
100
AcDbEntity
  8
0
100
AcDbLine
 10
561.0594874419323
 20
405.0922756992296
 30
0.0
 11
560.0685430821977
 21
397.861355877543
 31
0.0
  0
LINE
  5
2B1
330
1F
100
AcDbEntity
  8
0
100
AcDbLine
 10
557.5929549604182
 20
398.2099957938855
 30
0.0
 11
558.5826377212559
 21
405.4317097299119
 31
0.0
  0
ARC
  5
2B2
330
1F
100
AcDbEntity
  8
0
100
AcDbCircle
 10
560.2019125233094
 20
407.7718991407889
 30
0.0
 40
9.91144062084273
100
AcDbArc
 50
269.2289983861252
 51
254.7383798663089
  0
ARC
  5
2B3
330
1F
100
AcDbEntity
  8
0
100
AcDbCircle
 10
536.5815351233339
 20
407.2419516805645
 30
0.0
 40
11.56826064920605
100
AcDbArc
 50
290.5833253364245
 51
278.1769423009068
  0
ARC
  5
2B4
330
1F
100
AcDbEntity
  8
0
100
AcDbCircle
 10
510.1081388359765
 20
406.218660274498
 30
0.0
 40
12.68554899575262
100
AcDbArc
 50
301.5130985341077
 51
290.2031289924714
  0
ARC
  5
2B5
330
1F
100
AcDbEntity
  8
0
100
AcDbCircle
 10
480.2175414286079
 20
405.362587833772
 30
0.0
 40
12.90278740453706
100
AcDbArc
 50
318.5280016470379
 51
307.409114177989
  0
ARC
  5
2B6
330
1F
100
AcDbEntity
  8
0
100
AcDbCircle
 10
449.7825656463844
 20
403.2054028745702
 30
0.0
 40
12.73352347024782
100
AcDbArc
 50
331.1030879004962
 51
319.8359085003027
  0
ARC
  5
2B7
330
1F
100
AcDbEntity
  8
0
100
AcDbCircle
 10
420.5085109104073
 20
402.3045946990924
 30
0.0
 40
13.4588187032883
100
AcDbArc
 50
339.2928141356139
 51
328.6346407650472
  0
ARC
  5
2B8
330
1F
100
AcDbEntity
  8
0
100
AcDbCircle
 10
418.6481676979861
 20
367.7973075677604
 30
0.0
 40
16.01873417087826
100
AcDbArc
 50
4.177401392736498
 51
355.2262804091211
  0
ARC
  5
2B9
330
1F
100
AcDbEntity
  8
0
100
AcDbCircle
 10
456.97095977909
 20
368.6163178880305
 30
0.0
 40
17.95852017897277
100
AcDbArc
 50
8.909461427711156
 51
0.9268792005503645
  0
ARC
  5
2BA
330
1F
100
AcDbEntity
  8
0
100
AcDbCircle
 10
501.107713714252
 20
369.4435315259357
 30
0.0
 40
21.47797907396275
100
AcDbArc
 50
18.15568548078036
 51
11.48278387707711
  0
ARC
  5
2BB
330
1F
100
AcDbEntity
  8
0
100
AcDbCircle
 10
562.4266265805534
 20
360.1685831160314
 30
0.0
 40
31.14105910253235
100
AcDbArc
 50
33.80505801956487
 51
29.20411970998579
  0
ARC
  5
2BC
330
1F
100
AcDbEntity
  8
0
100
AcDbCircle
 10
362.7468388839027
 20
381.2005330419945
 30
0.0
 40
34.28989454946831
100
AcDbArc
 50
53.51473671444387
 51
49.33650294451741
  0
ENDSEC
  0
SECTION
  2
OBJECTS
  0
DICTIONARY
  5
C
330
0
100
AcDbDictionary
  3
ACAD_DETAILVIEWSTYLE
350
83
  3
ACAD_GROUP
350
D
  3
ACAD_IMAGE_VARS
350
6A
  3
ACAD_MLINESTYLE
350
17
  3
ACAD_SCALELIST
350
104
  3
ACAD_SECTIONVIEWSTYLE
350
84
  3
ACDBVARIABLEDICTIONARY
350
3D
  3
APPDATA
350
71
  3
DWGPROPS
350
2BD
1001
ACAD
1000
TREAT_AS_HARD
1070
     0
  0
DICTIONARY
  5
86
330
2
100
AcDbDictionary
  3
ACAD_LAYERSTATES
360
87
  3
ACLYDICTIONARY
360
8B
1001
ACAD
1000
TREAT_AS_HARD
1070
     1
  0
DICTIONARY
  5
83
102
{ACAD_REACTORS
330
C
102
}
330
C
100
AcDbDictionary
1001
ACAD
1000
TREAT_AS_HARD
1070
     0
  0
DICTIONARY
  5
D
102
{ACAD_REACTORS
330
C
102
}
330
C
100
AcDbDictionary
1001
ACAD
1000
TREAT_AS_HARD
1070
     0
  0
RASTERVARIABLES
  5
6A
102
{ACAD_REACTORS
330
C
102
}
330
C
100
AcDbRasterVariables
 90
        0
 70
     1
 71
     1
 72
     1
  0
DICTIONARY
  5
17
102
{ACAD_REACTORS
330
C
102
}
330
C
100
AcDbDictionary
  3
STANDARD
350
18
1001
ACAD
1000
TREAT_AS_HARD
1070
     0
  0
DICTIONARY
  5
104
102
{ACAD_REACTORS
330
C
102
}
330
C
100
AcDbDictionary
1001
ACAD
1000
TREAT_AS_HARD
1070
     0
  0
DICTIONARY
  5
84
102
{ACAD_REACTORS
330
C
102
}
330
C
100
AcDbDictionary
1001
ACAD
1000
TREAT_AS_HARD
1070
     0
  0
DICTIONARY
  5
3D
102
{ACAD_REACTORS
330
C
102
}
330
C
100
AcDbDictionary
1001
ACAD
1000
TREAT_AS_HARD
1070
     0
  0
DICTIONARY
  5
71
102
{ACAD_REACTORS
330
C
102
}
330
C
100
AcDbDictionary
1001
ACAD
1000
TREAT_AS_HARD
1070
     0
  0
XRECORD
  5
2BD
102
{ACAD_REACTORS
330
C
102
}
330
C
100
AcDbXrecord
  1
DWGPROPS COOKIE
  2

  3

  4

  6

  7

  8
Chris
  9

300
=
301
=
302
=
303
=
304
=
305
=
306
=
307
=
308
=
309
=
 40
0.0
 41
2455022.637359502
 42
2458058.245390174
  1

 90
        0
  0
DICTIONARY
  5
87
102
{ACAD_REACTORS
330
86
102
}
330
86
100
AcDbDictionary
1001
ACAD
1000
TREAT_AS_HARD
1070
     0
  0
DICTIONARY
  5
8B
102
{ACAD_REACTORS
330
86
102
}
330
86
100
AcDbDictionary
1001
ACAD
1000
<All
1000
TREAT_AS_HARD
1070
     0
  0
MLINESTYLE
  5
18
102
{ACAD_REACTORS
330
17
102
}
330
17
100
AcDbMlineStyle
  2
Standard
 70
     0
  3

 62
   256
 51
90.0
 52
90.0
 71
     2
 49
0.5
 62
   256
  6
BYLAYER
 49
-0.5
 62
   256
  6
BYLAYER
  0
ENDSEC
  0
EOF
