  0
SECTION
  2
HEADER
  9
$ACADVER
  1
AC1015
  9
$ACADMAINTVER
 70
     6
  9
$DWGCODEPAGE
  3
DOS850
  9
$INSBASE
 10
0.0
 20
0.0
 30
0.0
  9
$EXTMIN
 10
0.331681
 20
-0.150791
 30
1.000000E 20
  9
$EXTMAX
 10
1.696563
 20
3.77748
 30
-1.000000E 20
  9
$LIMMIN
 10
0.0
 20
0.0
  9
$LIMMAX
 10
0.0
 20
0.0
  9
$ORTHOMODE
 70
     0
  9
$REGENMODE
 70
     1
  9
$FILLMODE
 70
     1
  9
$QTEXTMODE
 70
     0
  9
$MIRRTEXT
 70
     1
  9
$LTSCALE
 40
1.0
  9
$ATTMODE
 70
     1
  9
$TEXTSIZE
 40
0.2
  9
$TRACEWID
 40
0.05
  9
$TEXTSTYLE
  7
Standard
  9
$CLAYER
  8
0
  9
$CELTYPE
  6
Continuous
  9
$CECOLOR
 62
   256
  9
$CELTSCALE
 40
1.0
  9
$DISPSILH
 70
     0
  9
$DIMSCALE
 40
1.0
  9
$DIMASZ
 40
0.18
  9
$DIMEXO
 40
0.0625
  9
$DIMDLI
 40
0.38
  9
$DIMRND
 40
0.0
  9
$DIMDLE
 40
0.0
  9
$DIMEXE
 40
0.18
  9
$DIMTP
 40
0.0
  9
$DIMTM
 40
0.0
  9
$DIMTXT
 40
0.18
  9
$DIMCEN
 40
0.09
  9
$DIMTSZ
 40
0.0
  9
$DIMTOL
 70
     0
  9
$DIMLIM
 70
     0
  9
$DIMTIH
 70
     1
  9
$DIMTOH
 70
     1
  9
$DIMSE1
 70
     0
  9
$DIMSE2
 70
     0
  9
$DIMTAD
 70
     0
  9
$DIMZIN
 70
     0
  9
$DIMBLK
  1

  9
$DIMASO
 70
     1
  9
$DIMSHO
 70
     1
  9
$DIMPOST
  1

  9
$DIMAPOST
  1

  9
$DIMALT
 70
     0
  9
$DIMALTD
 70
     2
  9
$DIMALTF
 40
25.4
  9
$DIMLFAC
 40
1.0
  9
$DIMTOFL
 70
     0
  9
$DIMTVP
 40
0.0
  9
$DIMTIX
 70
     0
  9
$DIMSOXD
 70
     0
  9
$DIMSAH
 70
     0
  9
$DIMBLK1
  1

  9
$DIMBLK2
  1

  9
$DIMSTYLE
  2
Standard
  9
$DIMCLRD
 70
     0
  9
$DIMCLRE
 70
     0
  9
$DIMCLRT
 70
     0
  9
$DIMTFAC
 40
1.0
  9
$DIMGAP
 40
0.09
  9
$DIMJUST
 70
     0
  9
$DIMSD1
 70
     0
  9
$DIMSD2
 70
     0
  9
$DIMTOLJ
 70
     1
  9
$DIMTZIN
 70
     0
  9
$DIMALTZ
 70
     0
  9
$DIMALTTZ
 70
     0
  9
$DIMUPT
 70
     0
  9
$DIMDEC
 70
     4
  9
$DIMTDEC
 70
     4
  9
$DIMALTU
 70
     2
  9
$DIMALTTD
 70
     2
  9
$DIMTXSTY
  7
Standard
  9
$DIMAUNIT
 70
     0
  9
$DIMADEC
 70
     0
  9
$DIMALTRND
 40
0.0
  9
$DIMAZIN
 70
     0
  9
$DIMDSEP
 70
     0
  9
$DIMATFIT
 70
     3
  9
$DIMFRAC
 70
     0
  9
$DIMLDRBLK
  1

  9
$DIMLUNIT
 70
     2
  9
$DIMLWD
 70
     0
  9
$DIMLWE
 70
     0
  9
$DIMTMOVE
 70
     0
  9
$LUNITS
 70
     2
  9
$LUPREC
 70
     4
  9
$SKETCHINC
 40
0.1
  9
$FILLETRAD
 40
0.0
  9
$AUNITS
 70
     0
  9
$AUPREC
 70
     0
  9
$MENU
  1
acad
  9
$ELEVATION
 40
0.0
  9
$PELEVATION
 40
0.0
  9
$THICKNESS
 40
0.0
  9
$LIMCHECK
 70
     0
  9
$CHAMFERA
 40
0.0
  9
$CHAMFERB
 40
0.0
  9
$CHAMFERC
 40
0.0
  9
$CHAMFERD
 40
0.0
  9
$SKPOLY
 70
     0
  9
$TDCREATE
 40
0.000000000
  9
$TDUCREATE
 40
0.000000000
  9
$TDUPDATE
 40
0.000000000
  9
$TDUUPDATE
 40
0.000000000
  9
$TDINDWG
 40
0.0000000000
  9
$TDUSRTIMER
 40
0.0000000000
  9
$USRTIMER
 70
     1
  9
$ANGBASE
 50
0.0
  9
$ANGDIR
 70
     0
  9
$PDMODE
 70
     0
  9
$PDSIZE
 40
0.0
  9
$PLINEWID
 40
0.0
  9
$SPLFRAME
 70
     0
  9
$SPLINETYPE
 70
     6
  9
$SPLINESEGS
 70
     8
  9
$HANDSEED
  5
AE
  9
$SURFTAB1
 70
     6
  9
$SURFTAB2
 70
     6
  9
$SURFTYPE
 70
     6
  9
$SURFU
 70
     6
  9
$SURFV
 70
     6
  9
$UCSBASE
  2

  9
$UCSNAME
  2

  9
$UCSORG
 10
0.0
 20
0.0
 30
0.0
  9
$UCSXDIR
 10
1.0
 20
0.0
 30
0.0
  9
$UCSYDIR
 10
0.0
 20
1.0
 30
0.0
  9
$UCSORTHOREF
  2

  9
$UCSORTHOVIEW
 70
     0
  9
$UCSORGTOP
 10
0.0
 20
0.0
 30
0.0
  9
$UCSORGBOTTOM
 10
0.0
 20
0.0
 30
0.0
  9
$UCSORGLEFT
 10
0.0
 20
0.0
 30
0.0
  9
$UCSORGRIGHT
 10
0.0
 20
0.0
 30
0.0
  9
$UCSORGFRONT
 10
0.0
 20
0.0
 30
0.0
  9
$UCSORGBACK
 10
0.0
 20
0.0
 30
0.0
  9
$PUCSBASE
  2

  9
$PUCSNAME
  2

  9
$PUCSORG
 10
0.0
 20
0.0
 30
0.0
  9
$PUCSXDIR
 10
1.0
 20
0.0
 30
0.0
  9
$PUCSYDIR
 10
0.0
 20
1.0
 30
0.0
  9
$PUCSORTHOREF
  2

  9
$PUCSORTHOVIEW
 70
     0
  9
$PUCSORGTOP
 10
0.0
 20
0.0
 30
0.0
  9
$PUCSORGBOTTOM
 10
0.0
 20
0.0
 30
0.0
  9
$PUCSORGLEFT
 10
0.0
 20
0.0
 30
0.0
  9
$PUCSORGRIGHT
 10
0.0
 20
0.0
 30
0.0
  9
$PUCSORGFRONT
 10
0.0
 20
0.0
 30
0.0
  9
$PUCSORGBACK
 10
0.0
 20
0.0
 30
0.0
  9
$USERI1
 70
     0
  9
$USERI2
 70
     0
  9
$USERI3
 70
     0
  9
$USERI4
 70
     0
  9
$USERI5
 70
     0
  9
$USERR1
 40
0.0
  9
$USERR2
 40
0.0
  9
$USERR3
 40
0.0
  9
$USERR4
 40
0.0
  9
$USERR5
 40
0.0
  9
$WORLDVIEW
 70
     1
  9
$SHADEDGE
 70
     3
  9
$SHADEDIF
 70
    70
  9
$TILEMODE
 70
     1
  9
$MAXACTVP
 70
    16
  9
$PINSBASE
 10
0.0
 20
0.0
 30
0.0
  9
$PLIMCHECK
 70
     0
  9
$PEXTMIN
 10
1.000000E 20
 20
1.000000E 20
 30
1.000000E 20
  9
$PEXTMAX
 10
-1.000000E 20
 20
-1.000000E 20
 30
-1.000000E 20
  9
$PLIMMIN
 10
0.0
 20
0.0
  9
$PLIMMAX
 10
12.0
 20
9.0
  9
$UNITMODE
 70
     0
  9
$VISRETAIN
 70
     0
  9
$PLINEGEN
 70
     1
  9
$PSLTSCALE
 70
     0
  9
$TREEDEPTH
 70
  3020
  9
$CMLSTYLE
  2
Standard
  9
$CMLJUST
 70
     0
  9
$CMLSCALE
 40
1.0
  9
$PROXYGRAPHICS
 70
     0
  9
$MEASUREMENT
 70
     0
  9
$CELWEIGHT
370
     0
  9
$ENDCAPS
280
     0
  9
$JOINSTYLE
280
     0
  9
$LWDISPLAY
290
     0
  9
$INSUNITS
 70
     1
  9
$HYPERLINKBASE
  1

  9
$XEDIT
290
     1
  9
$CEPSNTYPE
380
     0
  9
$PSTYLEMODE
290
     1
  9
$FINGERPRINTGUID
  2

  9
$VERSIONGUID
  2

  9
$EXTNAMES
290
     1
  9
$PSVPSCALE
 40
0.0
  0
ENDSEC
  0
SECTION
  2
CLASSES
  0
CLASS
  1
LWPOLYLINE
  2
AcDbPolyline
  3
AutoCAD 2000
 90
    32768
280
     0
281
     1
  0
CLASS
  1
IMAGE
  2
AcDbRasterImage
  3
ISM
 90
    32895
280
     0
281
     1
  0
CLASS
  1
OLE2FRAME
  2
AcDbOle2Frame
  3
AutoCAD 2000
 90
    32768
280
     0
281
     1
  0
CLASS
  1
HATCH
  2
AcDbHatch
  3
AutoCAD 2000
 90
    32768
280
     0
281
     1
  0
CLASS
  1
DICTIONARYVAR
  2
AcDbDictionaryVar
  3
AutoCAD 2000
 90
    32768
280
     0
281
     0
  0
CLASS
  1
RASTERVARIABLES
  2
AcDbRasterVariables
  3
ISM
 90
    32768
280
     0
281
     0
  0
CLASS
  1
IMAGEDEF
  2
AcDbRasterImageDef
  3
ISM
 90
    32768
280
     0
281
     0
  0
CLASS
  1
IMAGEDEF_REACTOR
  2
AcDbRasterImageDefReactor
  3
ISM
 90
    32769
280
     0
281
     0
  0
CLASS
  1
IDBUFFER
  2
AcDbIdBuffer
  3
AutoCAD 2000
 90
    32768
280
     0
281
     0
  0
CLASS
  1
SPATIAL_FILTER
  2
AcDbSpatialFilter
  3
AutoCAD 2000
 90
    32768
280
     0
281
     0
  0
CLASS
  1
XRECORD
  2
AcDbXrecord
  3
AutoCAD 2000
 90
    32768
280
     0
281
     0
  0
CLASS
  1
SORTENTSTABLE
  2
AcDbSortentsTable
  3
AutoCAD 2000
 90
    32768
280
     0
281
     0
  0
CLASS
  1
LAYER_INDEX
  2
AcDbLayerIndex
  3
AutoCAD 2000
 90
    32768
280
     0
281
     0
  0
CLASS
  1
SPATIAL_INDEX
  2
AcDbSpatialIndex
  3
AutoCAD 2000
 90
    32768
280
     0
281
     0
  0
CLASS
  1
OBJECT_PTR
  2
CAseDLPNTableRecord
  3
\"ASE-LPNTableRecord\"
 90
    32769
280
     0
281
     0
  0
CLASS
  1
LAYOUT
  2
AcDbLayout
  3
AutoCAD 2000
 90
        0
280
     0
281
     0
  0
CLASS
  1
PLOTSETTINGS
  2
AcDbPlotSettings
  3
AutoCAD 2000
 90
    32768
280
     0
281
     0
  0
CLASS
  1
ACDBDICTIONARYWDFLT
  2
AcDbDictionaryWithDefault
  3
AutoCAD 2000
 90
        0
280
     0
281
     0
  0
CLASS
  1
ACDBPLACEHOLDER
  2
AcDbPlaceHolder
  3
AutoCAD 2000
 90
        0
280
     0
281
     0
  0
CLASS
  1
VBA_PROJECT
  2
AcDbVbaProject
  3
acadvba
 90
    32768
280
     0
281
     0
  0
CLASS
  1
WIPEOUT
  2
AcDbWipeout
  3
WipeOut|AutoCAD Express Tool|expresstools@autodesk.com
 90
    32895
280
     0
281
     1
  0
CLASS
  1
WIPEOUTVARIABLES
  2
AcDbWipeoutVariables
  3
WipeOut|AutoCAD Express Tool|expresstools@autodesk.com
 90
        0
280
     0
281
     0
  0
CLASS
  1
RTEXT
  2
RText
  3
RText|AutoCAD Express Tool|expresstools@autodesk.com
 90
    32768
280
     0
281
     1
  0
CLASS
  1
ARCALIGNEDTEXT
  2
AcDbArcAlignedText
  3
ATEXT|AutoCAD Express Tool|expresstools@autodesk.com
 90
    32768
280
     0
281
     1
  0
ENDSEC
  0
SECTION
  2
TABLES
  0
TABLE
  2
VPORT
  5
7
100
AcDbSymbolTable
 70
     1
  0
VPORT
  5
15
100
AcDbSymbolTableRecord
100
AcDbViewportTableRecord
  2
*ACTIVE
 70
     0
 10
0.0
 20
0.0
 11
1.0
 21
1.0
 12
6.591288
 22
4.579184
 13
0.0
 23
0.0
 14
1.0
 24
1.0
 15
0.0
 25
0.0
 16
0.0
 26
0.0
 36
1.0
 17
0.0
 27
0.0
 37
0.0
 40
9.158369
 41
0.688564
 42
50.0
 43
0.0
 44
0.0
 50
0.0
 51
0.0
 71
     0
 72
   100
 73
     1
 74
     1
 75
     0
 76
     0
 77
     0
 78
     0
281
     0
 65
     0
110
0.0
120
0.0
130
0.0
111
1.0
121
0.0
131
0.0
112
0.0
122
1.0
132
0.0
345
0
346
0
 79
     0
146
0.0
  0
ENDTAB
  0
TABLE
  2
LTYPE
  5
4
100
AcDbSymbolTable
 70
     3
  0
LTYPE
  5
11
100
AcDbSymbolTableRecord
100
AcDbLinetypeTableRecord
  2
ByBlock
 70
    64
  3

 72
    65
 73
     0
 40
0.0
  0
LTYPE
  5
12
100
AcDbSymbolTableRecord
100
AcDbLinetypeTableRecord
  2
ByLayer
 70
    64
  3

 72
    65
 73
     0
 40
0.0
  0
LTYPE
  5
13
100
AcDbSymbolTableRecord
100
AcDbLinetypeTableRecord
  2
Continuous
 70
    64
  3
Solid line
 72
    65
 73
     0
 40
0.0
  0
ENDTAB
  0
TABLE
  2
LAYER
  5
2
100
AcDbSymbolTable
 70
     2
  0
LAYER
  5
14
100
AcDbSymbolTableRecord
100
AcDbLayerTableRecord
  2
0
 70
     0
 62
     7
  6
Continuous
290
     1
370
    -3
390
1D
  0
LAYER
  5
24
100
AcDbSymbolTableRecord
100
AcDbLayerTableRecord
  2
Layer 1
 70
     0
 62
     7
  6
Continuous
290
     1
370
    -3
390
1F
  0
ENDTAB
  0
TABLE
  2
STYLE
  5
3
100
AcDbSymbolTable
 70
     1
  0
STYLE
  5
17
100
AcDbSymbolTableRecord
100
AcDbTextStyleTableRecord
  2
Standard
 70
     0
 40
0.0
 41
1.0
 50
0.0
 71
     0
 42
0.0
  3
txt
  4

  0
ENDTAB
  0
TABLE
  2
VIEW
  5
5
100
AcDbSymbolTable
 70
     0
  0
ENDTAB
  0
TABLE
  2
UCS
  5
6
100
AcDbSymbolTable
 70
     0
  0
ENDTAB
  0
TABLE
  2
APPID
  5
8
100
AcDbSymbolTable
 70
     1
  0
APPID
  5
16
100
AcDbSymbolTableRecord
100
AcDbRegAppTableRecord
  2
ACAD
 70
     0
  0
ENDTAB
  0
TABLE
  2
DIMSTYLE
  5
9
100
AcDbSymbolTable
 70
     1
100
AcDbDimStyleTable
 71
     0
  0
DIMSTYLE
105
18
100
AcDbSymbolTableRecord
100
AcDbDimStyleTableRecord
  2
Standard
 70
     0
  3

  4

 40
1.0
 41
0.18
 42
0.0625
 43
0.38
 44
0.18
 45
0.0
 46
0.0
 47
0.0
 48
0.0
 71
     0
 72
     0
 73
     1
 74
     1
 75
     0
 76
     0
 77
     0
 78
     0
 79
     0
140
0.18
141
0.09
142
0.0
143
25.4
144
1.0
145
0.0
146
1.0
147
0.09
148
0.0
170
     0
171
     2
172
     0
173
     0
174
     0
175
     0
176
     0
177
     0
178
     0
179
     0
271
     4
272
     4
273
     2
274
     2
275
     0
276
     0
277
     2
278
    46
279
     0
280
     0
281
     0
282
     0
283
     1
284
     0
285
     0
286
     0
288
     0
340
17
341
0
342
0
343
0
344
0
371
    -2
372
    -2
  0
ENDTAB
  0
TABLE
  2
BLOCK_RECORD
  5
1
100
AcDbSymbolTable
 70
     0
  0
BLOCK_RECORD
  5
A
100
AcDbSymbolTableRecord
100
AcDbBlockTableRecord
  2
*MODEL_SPACE
340
20
  0
BLOCK_RECORD
  5
B
100
AcDbSymbolTableRecord
100
AcDbBlockTableRecord
  2
*PAPER_SPACE
340
21
  0
ENDTAB
  0
ENDSEC
  0
SECTION
  2
BLOCKS
  0
BLOCK
  5
D
100
AcDbEntity
  8
0
100
AcDbBlockBegin
  2
*MODEL_SPACE
 70
     0
 10
0.0
 20
0.0
 30
0.0
  3
*MODEL_SPACE
  1

  0
ENDBLK
  5
E
100
AcDbEntity
  8
0
100
AcDbBlockEnd
  0
BLOCK
  5
F
100
AcDbEntity
 67
     1
  8
0
100
AcDbBlockBegin
  2
*PAPER_SPACE
 70
     0
 10
0.0
 20
0.0
 30
0.0
  3
*PAPER_SPACE
  1

  0
ENDBLK
  5
10
100
AcDbEntity
 67
     1
  8
0
100
AcDbBlockEnd
  0
ENDSEC
  0
SECTION
  2
ENTITIES
  0
SPLINE
  5
25
100
AcDbEntity
  8
Layer 1
370
    18
100
AcDbSpline
210
0.0
220
0.0
230
1.0
 70
     1
 71
     3
 72
    20
 73
    16
 74
     0
 42
0.0000000001
 43
0.0000000001
 40
0.0
 40
0.0
 40
0.0
 40
0.0
 40
0.25
 40
0.25
 40
0.25
 40
0.25
 40
0.5
 40
0.5
 40
0.5
 40
0.5
 40
0.75
 40
0.75
 40
0.75
 40
0.75
 40
1.0
 40
1.0
 40
1.0
 40
1.0
 10
0.3356181102362205
 20
3.2456732283464569
 30
0.0
 10
0.3356181102362205
 20
3.2456732283464569
 30
0.0
 10
0.4808385826771654
 20
3.2456732283464569
 30
0.0
 10
0.4808385826771654
 20
3.2456732283464569
 30
0.0
 10
0.4808385826771654
 20
3.2456732283464569
 30
0.0
 10
0.4379370078740157
 20
3.2038149606299213
 30
0.0
 10
0.5292913385826772
 20
3.0684724409448818
 30
0.0
 10
0.5962952755905512
 20
2.9791102362204724
 30
0.0
 10
0.5962952755905512
 20
2.9791102362204724
 30
0.0
 10
0.5320944881889764
 20
3.0333267716535435
 30
0.0
 10
0.3694133858267717
 20
3.1980748031496065
 30
0.0
 10
0.3356181102362205
 20
3.1341220472440945
 30
0.0
 10
0.3356181102362205
 20
3.1341220472440945
 30
0.0
 10
0.3356181102362205
 20
3.1341220472440945
 30
0.0
 10
0.3356181102362205
 20
3.2456732283464569
 30
0.0
 10
0.3356181102362205
 20
3.2456732283464569
 30
0.0
  0
SPLINE
  5
26
100
AcDbEntity
  8
Layer 1
370
    18
100
AcDbSpline
210
0.0
220
0.0
230
1.0
 70
     1
 71
     3
 72
    16
 73
    12
 74
     0
 42
0.0000000001
 43
0.0000000001
 40
0.0
 40
0.0
 40
0.0
 40
0.0
 40
0.3333333333333333
 40
0.3333333333333333
 40
0.3333333333333333
 40
0.3333333333333333
 40
0.6666666666666666
 40
0.6666666666666666
 40
0.6666666666666666
 40
0.6666666666666666
 40
1.0
 40
1.0
 40
1.0
 40
1.0
 10
0.5350984251968505
 20
3.2456732283464569
 30
0.0
 10
0.5350984251968505
 20
3.2456732283464569
 30
0.0
 10
0.6703543307086615
 20
3.2456732283464569
 30
0.0
 10
0.6703543307086615
 20
3.2456732283464569
 30
0.0
 10
0.6703543307086615
 20
3.2456732283464569
 30
0.0
 10
0.639976377952756
 20
3.2261574803149609
 30
0.0
 10
0.6130078740157481
 20
3.1905236220472442
 30
0.0
 10
0.6061574803149606
 20
3.1842716535433073
 30
0.0
 10
0.6061574803149606
 20
3.1842716535433073
 30
0.0
 10
0.584476377952756
 20
3.2046338582677167
 30
0.0
 10
0.5586968503937008
 20
3.2311771653543309
 30
0.0
 10
0.5350984251968505
 20
3.2456732283464569
 30
0.0
  0
SPLINE
  5
27
100
AcDbEntity
  8
Layer 1
370
    18
100
AcDbSpline
210
0.0
220
0.0
230
1.0
 70
     1
 71
     3
 72
    72
 73
    68
 74
     0
 42
0.0000000001
 43
0.0000000001
 40
0.0
 40
0.0
 40
0.0
 40
0.0
 40
0.0588235294117647
 40
0.0588235294117647
 40
0.0588235294117647
 40
0.0588235294117647
 40
0.1176470588235294
 40
0.1176470588235294
 40
0.1176470588235294
 40
0.1176470588235294
 40
0.1764705882352941
 40
0.1764705882352941
 40
0.1764705882352941
 40
0.1764705882352941
 40
0.2352941176470588
 40
0.2352941176470588
 40
0.2352941176470588
 40
0.2352941176470588
 40
0.2941176470588235
 40
0.2941176470588235
 40
0.2941176470588235
 40
0.2941176470588235
 40
0.3529411764705883
 40
0.3529411764705883
 40
0.3529411764705883
 40
0.3529411764705883
 40
0.411764705882353
 40
0.411764705882353
 40
0.411764705882353
 40
0.411764705882353
 40
0.4705882352941177
 40
0.4705882352941177
 40
0.4705882352941177
 40
0.4705882352941177
 40
0.5294117647058824
 40
0.5294117647058824
 40
0.5294117647058824
 40
0.5294117647058824
 40
0.5882352941176471
 40
0.5882352941176471
 40
0.5882352941176471
 40
0.5882352941176471
 40
0.6470588235294118
 40
0.6470588235294118
 40
0.6470588235294118
 40
0.6470588235294118
 40
0.7058823529411765
 40
0.7058823529411765
 40
0.7058823529411765
 40
0.7058823529411765
 40
0.7647058823529412
 40
0.7647058823529412
 40
0.7647058823529412
 40
0.7647058823529412
 40
0.823529411764706
 40
0.823529411764706
 40
0.823529411764706
 40
0.823529411764706
 40
0.8823529411764707
 40
0.8823529411764707
 40
0.8823529411764707
 40
0.8823529411764707
 40
0.9411764705882354
 40
0.9411764705882354
 40
0.9411764705882354
 40
0.9411764705882354
 40
1.0
 40
1.0
 40
1.0
 40
1.0
 10
0.7334803149606299
 20
3.2456732283464569
 30
0.0
 10
0.7334803149606299
 20
3.2456732283464569
 30
0.0
 10
1.0726535433070867
 20
3.2456732283464569
 30
0.0
 10
1.0726535433070867
 20
3.2456732283464569
 30
0.0
 10
1.0726535433070867
 20
3.2456732283464569
 30
0.0
 10
1.0512440944881891
 20
3.2277834645669294
 30
0.0
 10
1.0931771653543307
 20
3.1655944881889764
 30
0.0
 10
1.1238149606299213
 20
3.1247362204724412
 30
0.0
 10
1.1238149606299213
 20
3.1247362204724412
 30
0.0
 10
1.094236220472441
 20
3.149712598425197
 30
0.0
 10
1.018267716535433
 20
3.226763779527559
 30
0.0
 10
1.0053858267716536
 20
3.1925472440944884
 30
0.0
 10
1.0053858267716536
 20
3.1925472440944884
 30
0.0
 10
0.9981299212598426
 20
3.1732716535433072
 30
0.0
 10
1.0288031496062993
 20
3.1447677165354331
 30
0.0
 10
1.0324566929133858
 20
3.1397047244094489
 30
0.0
 10
1.0324566929133858
 20
3.1397047244094489
 30
0.0
 10
1.0161692913385827
 20
3.1259212598425199
 30
0.0
 10
0.9923307086614174
 20
3.1082913385826774
 30
0.0
 10
0.9951771653543308
 20
3.0943740157480315
 30
0.0
 10
0.9951771653543308
 20
3.0943740157480315
 30
0.0
 10
1.0024448818897638
 20
3.0588543307086615
 30
0.0
 10
1.0762283464566929
 20
3.09692125984252
 30
0.0
 10
1.1238149606299213
 20
3.1247362204724412
 30
0.0
 10
1.1238149606299213
 20
3.1247362204724412
 30
0.0
 10
1.0967834645669292
 20
3.0886850393700787
 30
0.0
 10
1.0609566929133858
 20
3.036027559055118
 30
0.0
 10
1.0676062992125985
 20
3.0118464566929135
 30
0.0
 10
1.0676062992125985
 20
3.0118464566929135
 30
0.0
 10
1.047492125984252
 20
3.004507874015748
 30
0.0
 10
1.0274645669291338
 20
2.977681102362205
 30
0.0
 10
1.0230275590551181
 20
2.9736338582677169
 30
0.0
 10
1.0230275590551181
 20
2.9736338582677169
 30
0.0
 10
1.0043858267716537
 20
2.9911456692913387
 30
0.0
 10
0.9801338582677166
 20
3.0171181102362206
 30
0.0
 10
0.9639527559055119
 20
3.0118228346456695
 30
0.0
 10
0.9639527559055119
 20
3.0118228346456695
 30
0.0
 10
0.9226535433070866
 20
2.9983110236220472
 30
0.0
 10
0.9780708661417323
 20
2.9156653543307089
 30
0.0
 10
1.0177007874015749
 20
2.8628110236220472
 30
0.0
 10
1.0177007874015749
 20
2.8628110236220472
 30
0.0
 10
0.982251968503937
 20
2.8927480314960632
 30
0.0
 10
0.8912047244094489
 20
2.9850944881889765
 30
0.0
 10
0.8757637795275591
 20
2.9440866141732283
 30
0.0
 10
0.8757637795275591
 20
2.9440866141732283
 30
0.0
 10
0.8751062992125984
 20
2.9423385826771655
 30
0.0
 10
0.8747125984251969
 20
2.940531496062992
 30
0.0
 10
0.8745433070866142
 20
2.9386771653543309
 30
0.0
 10
0.8745433070866142
 20
2.9386771653543309
 30
0.0
 10
0.8745669291338583
 20
2.9389370078740158
 30
0.0
 10
0.8745944881889765
 20
2.9391968503937007
 30
0.0
 10
0.8746299212598425
 20
2.9394527559055121
 30
0.0
 10
0.8746299212598425
 20
2.9394527559055121
 30
0.0
 10
0.8595275590551181
 20
2.9640039370078743
 30
0.0
 10
0.8249409448818899
 20
2.9903661417322835
 30
0.0
 10
0.798988188976378
 20
3.0123267716535436
 30
0.0
 10
0.798988188976378
 20
3.0123267716535436
 30
0.0
 10
0.8070944881889764
 20
3.0235551181102363
 30
0.0
 10
0.8751535433070866
 20
3.0867952755905512
 30
0.0
 10
0.8590511811023622
 20
3.1295669291338584
 30
0.0
 10
0.8590511811023622
 20
3.1295669291338584
 30
0.0
 10
0.8304685039370079
 20
3.2054803149606301
 30
0.0
 10
0.6619173228346457
 20
3.0345314960629923
 30
0.0
 10
0.5962952755905512
 20
2.9791102362204724
 30
0.0
 10
0.5962952755905512
 20
2.9791102362204724
 30
0.0
 10
0.6387992125984252
 20
3.0430196850393703
 30
0.0
 10
0.7635551181102362
 20
3.1991023622047243
 30
0.0
 10
0.7334803149606299
 20
3.2456732283464569
 30
0.0
  0
SPLINE
  5
28
100
AcDbEntity
  8
Layer 1
370
    18
100
AcDbSpline
210
0.0
220
0.0
230
1.0
 70
     1
 71
     3
 72
    16
 73
    12
 74
     0
 42
0.0000000001
 43
0.0000000001
 40
0.0
 40
0.0
 40
0.0
 40
0.0
 40
0.3333333333333333
 40
0.3333333333333333
 40
0.3333333333333333
 40
0.3333333333333333
 40
0.6666666666666666
 40
0.6666666666666666
 40
0.6666666666666666
 40
0.6666666666666666
 40
1.0
 40
1.0
 40
1.0
 40
1.0
 10
1.0948976377952757
 20
3.2456732283464569
 30
0.0
 10
1.0948976377952757
 20
3.2456732283464569
 30
0.0
 10
1.158468503937008
 20
3.2456732283464569
 30
0.0
 10
1.158468503937008
 20
3.2456732283464569
 30
0.0
 10
1.158468503937008
 20
3.2456732283464569
 30
0.0
 10
1.1442637795275592
 20
3.2370905511811023
 30
0.0
 10
1.1314409448818898
 20
3.2201102362204725
 30
0.0
 10
1.128259842519685
 20
3.217204724409449
 30
0.0
 10
1.128259842519685
 20
3.217204724409449
 30
0.0
 10
1.1180787401574803
 20
3.2267677165354334
 30
0.0
 10
1.1058897637795275
 20
3.2393543307086614
 30
0.0
 10
1.0948976377952757
 20
3.2456732283464569
 30
0.0
  0
SPLINE
  5
29
100
AcDbEntity
  8
Layer 1
370
    18
100
AcDbSpline
210
0.0
220
0.0
230
1.0
 70
     1
 71
     3
 72
    92
 73
    88
 74
     0
 42
0.0000000001
 43
0.0000000001
 40
0.0
 40
0.0
 40
0.0
 40
0.0
 40
0.0454545454545455
 40
0.0454545454545455
 40
0.0454545454545455
 40
0.0454545454545455
 40
0.0909090909090909
 40
0.0909090909090909
 40
0.0909090909090909
 40
0.0909090909090909
 40
0.1363636363636364
 40
0.1363636363636364
 40
0.1363636363636364
 40
0.1363636363636364
 40
0.1818181818181818
 40
0.1818181818181818
 40
0.1818181818181818
 40
0.1818181818181818
 40
0.2272727272727273
 40
0.2272727272727273
 40
0.2272727272727273
 40
0.2272727272727273
 40
0.2727272727272728
 40
0.2727272727272728
 40
0.2727272727272728
 40
0.2727272727272728
 40
0.3181818181818182
 40
0.3181818181818182
 40
0.3181818181818182
 40
0.3181818181818182
 40
0.3636363636363637
 40
0.3636363636363637
 40
0.3636363636363637
 40
0.3636363636363637
 40
0.4090909090909092
 40
0.4090909090909092
 40
0.4090909090909092
 40
0.4090909090909092
 40
0.4545454545454546
 40
0.4545454545454546
 40
0.4545454545454546
 40
0.4545454545454546
 40
0.5000000000000001
 40
0.5000000000000001
 40
0.5000000000000001
 40
0.5000000000000001
 40
0.5454545454545455
 40
0.5454545454545455
 40
0.5454545454545455
 40
0.5454545454545455
 40
0.5909090909090909
 40
0.5909090909090909
 40
0.5909090909090909
 40
0.5909090909090909
 40
0.6363636363636364
 40
0.6363636363636364
 40
0.6363636363636364
 40
0.6363636363636364
 40
0.6818181818181818
 40
0.6818181818181818
 40
0.6818181818181818
 40
0.6818181818181818
 40
0.7272727272727272
 40
0.7272727272727272
 40
0.7272727272727272
 40
0.7272727272727272
 40
0.7727272727272726
 40
0.7727272727272726
 40
0.7727272727272726
 40
0.7727272727272726
 40
0.818181818181818
 40
0.818181818181818
 40
0.818181818181818
 40
0.818181818181818
 40
0.8636363636363634
 40
0.8636363636363634
 40
0.8636363636363634
 40
0.8636363636363634
 40
0.9090909090909088
 40
0.9090909090909088
 40
0.9090909090909088
 40
0.9090909090909088
 40
0.9545454545454543
 40
0.9545454545454543
 40
0.9545454545454543
 40
0.9545454545454543
 40
1.0
 40
1.0
 40
1.0
 40
1.0
 10
1.1850866141732284
 20
3.2456732283464569
 30
0.0
 10
1.1850866141732284
 20
3.2456732283464569
 30
0.0
 10
1.6926299212598426
 20
3.2456732283464569
 30
0.0
 10
1.6926299212598426
 20
3.2456732283464569
 30
0.0
 10
1.6926299212598426
 20
3.2456732283464569
 30
0.0
 10
1.6926299212598426
 20
3.2456732283464569
 30
0.0
 10
1.6926299212598426
 20
3.0841417322834648
 30
0.0
 10
1.6926299212598426
 20
3.0841417322834648
 30
0.0
 10
1.6926299212598426
 20
3.0841417322834648
 30
0.0
 10
1.6823346456692914
 20
3.1007007874015748
 30
0.0
 10
1.6369133858267717
 20
3.0547362204724409
 30
0.0
 10
1.6188740157480315
 20
3.0395000000000003
 30
0.0
 10
1.6188740157480315
 20
3.0395000000000003
 30
0.0
 10
1.6323897637795277
 20
3.0598267716535434
 30
0.0
 10
1.6751889763779528
 20
3.1129606299212598
 30
0.0
 10
1.6528307086614173
 20
3.1185669291338582
 30
0.0
 10
1.6528307086614173
 20
3.1185669291338582
 30
0.0
 10
1.6402322834645671
 20
3.1217283464566932
 30
0.0
 10
1.6245826771653544
 20
3.10046062992126
 30
0.0
 10
1.6216771653543307
 20
3.0978070866141731
 30
0.0
 10
1.6216771653543307
 20
3.0978070866141731
 30
0.0
 10
1.6118661417322835
 20
3.1070196850393703
 30
0.0
 10
1.5991062992125984
 20
3.1206850393700787
 30
0.0
 10
1.5905944881889764
 20
3.1178976377952758
 30
0.0
 10
1.5905944881889764
 20
3.1178976377952758
 30
0.0
 10
1.5688661417322836
 20
3.1107874015748034
 30
0.0
 10
1.5980236220472441
 20
3.0673070866141732
 30
0.0
 10
1.6188740157480315
 20
3.0395000000000003
 30
0.0
 10
1.6188740157480315
 20
3.0395000000000003
 30
0.0
 10
1.600220472440945
 20
3.0552480314960633
 30
0.0
 10
1.5523188976377953
 20
3.1038346456692913
 30
0.0
 10
1.5441968503937009
 20
3.0822598425196852
 30
0.0
 10
1.5441968503937009
 20
3.0822598425196852
 30
0.0
 10
1.5396181102362205
 20
3.0701062992125987
 30
0.0
 10
1.5589645669291339
 20
3.0521299212598425
 30
0.0
 10
1.5612677165354332
 20
3.04894094488189
 30
0.0
 10
1.5612677165354332
 20
3.04894094488189
 30
0.0
 10
1.5514291338582678
 20
3.0406181102362204
 30
0.0
 10
1.5372322834645671
 20
3.0300708661417324
 30
0.0
 10
1.5376220472440945
 20
3.0214842519685039
 30
0.0
 10
1.5376220472440945
 20
3.0214842519685039
 30
0.0
 10
1.4932401574803149
 20
3.0167519685039372
 30
0.0
 10
1.4055748031496063
 20
2.9335157480314962
 30
0.0
 10
1.3666850393700789
 20
2.9023031496062992
 30
0.0
 10
1.3666850393700789
 20
2.9023031496062992
 30
0.0
 10
1.4019291338582678
 20
2.9526653543307089
 30
0.0
 10
1.5135118110236221
 20
3.0843110236220475
 30
0.0
 10
1.4552125984251969
 20
3.0982047244094488
 30
0.0
 10
1.4552125984251969
 20
3.0982047244094488
 30
0.0
 10
1.4223700787401576
 20
3.1060354330708662
 30
0.0
 10
1.3815708661417323
 20
3.0533385826771653
 30
0.0
 10
1.373992125984252
 20
3.0467637795275593
 30
0.0
 10
1.373992125984252
 20
3.0467637795275593
 30
0.0
 10
1.3484212598425198
 20
3.0695944881889763
 30
0.0
 10
1.3151535433070867
 20
3.1034488188976379
 30
0.0
 10
1.2929606299212599
 20
3.0965472440944883
 30
0.0
 10
1.2929606299212599
 20
3.0965472440944883
 30
0.0
 10
1.2363149606299213
 20
3.0789291338582681
 30
0.0
 10
1.3123267716535434
 20
2.9712007874015751
 30
0.0
 10
1.3666850393700789
 20
2.9023031496062992
 30
0.0
 10
1.3666850393700789
 20
2.9023031496062992
 30
0.0
 10
1.3248937007874015
 20
2.9358464566929134
 30
0.0
 10
1.226763779527559
 20
3.0294842519685039
 30
0.0
 10
1.1865669291338583
 20
3.0211889763779527
 30
0.0
 10
1.1865669291338583
 20
3.0211889763779527
 30
0.0
 10
1.1792480314960629
 20
3.0507125984251968
 30
0.0
 10
1.1393464566929135
 20
3.1013779527559056
 30
0.0
 10
1.1238149606299213
 20
3.1247362204724412
 30
0.0
 10
1.1238149606299213
 20
3.1247362204724412
 30
0.0
 10
1.1714015748031497
 20
3.09692125984252
 30
0.0
 10
1.2451811023622048
 20
3.0588543307086615
 30
0.0
 10
1.2524488188976379
 20
3.0943740157480315
 30
0.0
 10
1.2524488188976379
 20
3.0943740157480315
 30
0.0
 10
1.2552992125984253
 20
3.1082913385826774
 30
0.0
 10
1.2314606299212598
 20
3.1259212598425199
 30
0.0
 10
1.2151692913385828
 20
3.1397047244094489
 30
0.0
 10
1.2151692913385828
 20
3.1397047244094489
 30
0.0
 10
1.2188228346456693
 20
3.1447677165354331
 30
0.0
 10
1.2495000000000001
 20
3.1732716535433072
 30
0.0
 10
1.242240157480315
 20
3.1925472440944884
 30
0.0
 10
1.242240157480315
 20
3.1925472440944884
 30
0.0
 10
1.2293582677165356
 20
3.226763779527559
 30
0.0
 10
1.1533897637795276
 20
3.149712598425197
 30
0.0
 10
1.1238149606299213
 20
3.1247362204724412
 30
0.0
 10
1.1238149606299213
 20
3.1247362204724412
 30
0.0
 10
1.1432204724409449
 20
3.1539133858267716
 30
0.0
 10
1.2006692913385828
 20
3.225720472440945
 30
0.0
 10
1.1850866141732284
 20
3.2456732283464569
 30
0.0
  0
SPLINE
  5
2A
100
AcDbEntity
  8
Layer 1
370
    18
100
AcDbSpline
210
0.0
220
0.0
230
1.0
 70
     1
 71
     3
 72
    16
 73
    12
 74
     0
 42
0.0000000001
 43
0.0000000001
 40
0.0
 40
0.0
 40
0.0
 40
0.0
 40
0.3333333333333333
 40
0.3333333333333333
 40
0.3333333333333333
 40
0.3333333333333333
 40
0.6666666666666666
 40
0.6666666666666666
 40
0.6666666666666666
 40
0.6666666666666666
 40
1.0
 40
1.0
 40
1.0
 40
1.0
 10
1.6926299212598426
 20
3.0710433070866143
 30
0.0
 10
1.6926299212598426
 20
3.0710433070866143
 30
0.0
 10
1.6926299212598426
 20
3.0348110236220474
 30
0.0
 10
1.6926299212598426
 20
3.0348110236220474
 30
0.0
 10
1.6926299212598426
 20
3.0348110236220474
 30
0.0
 10
1.6878267716535433
 20
3.0397283464566929
 30
0.0
 10
1.6815669291338584
 20
3.0446338582677166
 30
0.0
 10
1.6764763779527561
 20
3.04894094488189
 30
0.0
 10
1.6764763779527561
 20
3.04894094488189
 30
0.0
 10
1.6781299212598426
 20
3.0512283464566932
 30
0.0
 10
1.6885629921259844
 20
3.0611377952755907
 30
0.0
 10
1.6926299212598426
 20
3.0710433070866143
 30
0.0
  0
SPLINE
  5
2B
100
AcDbEntity
  8
Layer 1
370
    18
100
AcDbSpline
210
0.0
220
0.0
230
1.0
 70
     1
 71
     3
 72
    80
 73
    76
 74
     0
 42
0.0000000001
 43
0.0000000001
 40
0.0
 40
0.0
 40
0.0
 40
0.0
 40
0.0526315789473684
 40
0.0526315789473684
 40
0.0526315789473684
 40
0.0526315789473684
 40
0.1052631578947368
 40
0.1052631578947368
 40
0.1052631578947368
 40
0.1052631578947368
 40
0.1578947368421053
 40
0.1578947368421053
 40
0.1578947368421053
 40
0.1578947368421053
 40
0.2105263157894737
 40
0.2105263157894737
 40
0.2105263157894737
 40
0.2105263157894737
 40
0.2631578947368421
 40
0.2631578947368421
 40
0.2631578947368421
 40
0.2631578947368421
 40
0.3157894736842105
 40
0.3157894736842105
 40
0.3157894736842105
 40
0.3157894736842105
 40
0.3684210526315789
 40
0.3684210526315789
 40
0.3684210526315789
 40
0.3684210526315789
 40
0.4210526315789474
 40
0.4210526315789474
 40
0.4210526315789474
 40
0.4210526315789474
 40
0.4736842105263158
 40
0.4736842105263158
 40
0.4736842105263158
 40
0.4736842105263158
 40
0.5263157894736842
 40
0.5263157894736842
 40
0.5263157894736842
 40
0.5263157894736842
 40
0.5789473684210527
 40
0.5789473684210527
 40
0.5789473684210527
 40
0.5789473684210527
 40
0.631578947368421
 40
0.631578947368421
 40
0.631578947368421
 40
0.631578947368421
 40
0.6842105263157894
 40
0.6842105263157894
 40
0.6842105263157894
 40
0.6842105263157894
 40
0.7368421052631577
 40
0.7368421052631577
 40
0.7368421052631577
 40
0.7368421052631577
 40
0.7894736842105261
 40
0.7894736842105261
 40
0.7894736842105261
 40
0.7894736842105261
 40
0.8421052631578945
 40
0.8421052631578945
 40
0.8421052631578945
 40
0.8421052631578945
 40
0.8947368421052628
 40
0.8947368421052628
 40
0.8947368421052628
 40
0.8947368421052628
 40
0.9473684210526312
 40
0.9473684210526312
 40
0.9473684210526312
 40
0.9473684210526312
 40
1.0
 40
1.0
 40
1.0
 40
1.0
 10
1.6926299212598426
 20
3.0120511811023625
 30
0.0
 10
1.6926299212598426
 20
3.0120511811023625
 30
0.0
 10
1.6926299212598426
 20
2.4806771653543307
 30
0.0
 10
1.6926299212598426
 20
2.4806771653543307
 30
0.0
 10
1.6926299212598426
 20
2.4806771653543307
 30
0.0
 10
1.6465433070866142
 20
2.5066850393700788
 30
0.0
 10
1.5307677165354332
 20
2.5141732283464568
 30
0.0
 10
1.4812283464566929
 20
2.521425196850394
 30
0.0
 10
1.4812283464566929
 20
2.521425196850394
 30
0.0
 10
1.5736850393700788
 20
2.5510000000000002
 30
0.0
 10
1.7104055118110237
 20
2.6028110236220474
 30
0.0
 10
1.6724448818897639
 20
2.6541496062992125
 30
0.0
 10
1.6724448818897639
 20
2.6541496062992125
 30
0.0
 10
1.6575748031496063
 20
2.6742637795275592
 30
0.0
 10
1.6064173228346457
 20
2.6638031496062995
 30
0.0
 10
1.5691811023622049
 20
2.6586968503937007
 30
0.0
 10
1.5691811023622049
 20
2.6586968503937007
 30
0.0
 10
1.5668543307086615
 20
2.6694409448818899
 30
0.0
 10
1.5656417322834646
 20
2.7431732283464569
 30
0.0
 10
1.5318503937007875
 20
2.7563661417322836
 30
0.0
 10
1.5318503937007875
 20
2.7563661417322836
 30
0.0
 10
1.4718700787401575
 20
2.7797755905511812
 30
0.0
 10
1.4833385826771655
 20
2.5895708661417323
 30
0.0
 10
1.4812283464566929
 20
2.521425196850394
 30
0.0
 10
1.4812283464566929
 20
2.521425196850394
 30
0.0
 10
1.4701023622047245
 20
2.5647086614173231
 30
0.0
 10
1.4531850393700787
 20
2.6604488188976378
 30
0.0
 10
1.4278070866141732
 20
2.7111377952755906
 30
0.0
 10
1.4278070866141732
 20
2.7111377952755906
 30
0.0
 10
1.4369842519685041
 20
2.7065708661417323
 30
0.0
 10
1.4463858267716536
 20
2.7042992125984253
 30
0.0
 10
1.4552125984251969
 20
2.7064015748031496
 30
0.0
 10
1.4552125984251969
 20
2.7064015748031496
 30
0.0
 10
1.5135118110236221
 20
2.7202952755905514
 30
0.0
 10
1.4019291338582678
 20
2.8519448818897639
 30
0.0
 10
1.3666850393700789
 20
2.9023031496062992
 30
0.0
 10
1.3666850393700789
 20
2.9023031496062992
 30
0.0
 10
1.4449133858267718
 20
2.8588464566929135
 30
0.0
 10
1.5662047244094488
 20
2.7993779527559055
 30
0.0
 10
1.5781574803149607
 20
2.8548661417322836
 30
0.0
 10
1.5781574803149607
 20
2.8548661417322836
 30
0.0
 10
1.5828385826771654
 20
2.8766102362204724
 30
0.0
 10
1.5436496062992127
 20
2.9041574803149608
 30
0.0
 10
1.5168661417322835
 20
2.9256929133858267
 30
0.0
 10
1.5168661417322835
 20
2.9256929133858267
 30
0.0
 10
1.5228740157480316
 20
2.9335984251968505
 30
0.0
 10
1.5733031496062992
 20
2.9781299212598427
 30
0.0
 10
1.5613700787401574
 20
3.0082480314960631
 30
0.0
 10
1.5613700787401574
 20
3.0082480314960631
 30
0.0
 10
1.5607795275590552
 20
3.0097401574803149
 30
0.0
 10
1.5600944881889764
 20
3.0110787401574806
 30
0.0
 10
1.5593464566929134
 20
3.0123031496062995
 30
0.0
 10
1.5593464566929134
 20
3.0123031496062995
 30
0.0
 10
1.5766377952755906
 20
3.015976377952756
 30
0.0
 10
1.6007598425196852
 20
3.0289133858267716
 30
0.0
 10
1.6188740157480315
 20
3.0395000000000003
 30
0.0
 10
1.6188740157480315
 20
3.0395000000000003
 30
0.0
 10
1.5980236220472441
 20
3.011692913385827
 30
0.0
 10
1.5688661417322836
 20
2.9682125984251968
 30
0.0
 10
1.5905944881889764
 20
2.9611023622047243
 30
0.0
 10
1.5905944881889764
 20
2.9611023622047243
 30
0.0
 10
1.5991062992125984
 20
2.9583149606299215
 30
0.0
 10
1.6118661417322835
 20
2.9719803149606299
 30
0.0
 10
1.6216771653543307
 20
2.981192913385827
 30
0.0
 10
1.6216771653543307
 20
2.981192913385827
 30
0.0
 10
1.6245826771653544
 20
2.9785393700787401
 30
0.0
 10
1.6402322834645671
 20
2.957271653543307
 30
0.0
 10
1.6528307086614173
 20
2.9604330708661419
 30
0.0
 10
1.6528307086614173
 20
2.9604330708661419
 30
0.0
 10
1.6751889763779528
 20
2.9660393700787404
 30
0.0
 10
1.6323897637795277
 20
3.0191732283464567
 30
0.0
 10
1.6188740157480315
 20
3.0395000000000003
 30
0.0
 10
1.6188740157480315
 20
3.0395000000000003
 30
0.0
 10
1.6428582677165355
 20
3.02548031496063
 30
0.0
 10
1.6773897637795276
 20
3.0073346456692915
 30
0.0
 10
1.6926299212598426
 20
3.0120511811023625
 30
0.0
  0
SPLINE
  5
2C
100
AcDbEntity
  8
Layer 1
370
    18
100
AcDbSpline
210
0.0
220
0.0
230
1.0
 70
     1
 71
     3
 72
   164
 73
   160
 74
     0
 42
0.0000000001
 43
0.0000000001
 40
0.0
 40
0.0
 40
0.0
 40
0.0
 40
0.025
 40
0.025
 40
0.025
 40
0.025
 40
0.05
 40
0.05
 40
0.05
 40
0.05
 40
0.075
 40
0.075
 40
0.075
 40
0.075
 40
0.1
 40
0.1
 40
0.1
 40
0.1
 40
0.125
 40
0.125
 40
0.125
 40
0.125
 40
0.15
 40
0.15
 40
0.15
 40
0.15
 40
0.175
 40
0.175
 40
0.175
 40
0.175
 40
0.2
 40
0.2
 40
0.2
 40
0.2
 40
0.225
 40
0.225
 40
0.225
 40
0.225
 40
0.25
 40
0.25
 40
0.25
 40
0.25
 40
0.275
 40
0.275
 40
0.275
 40
0.275
 40
0.3
 40
0.3
 40
0.3
 40
0.3
 40
0.325
 40
0.325
 40
0.325
 40
0.325
 40
0.35
 40
0.35
 40
0.35
 40
0.35
 40
0.3750000000000001
 40
0.3750000000000001
 40
0.3750000000000001
 40
0.3750000000000001
 40
0.4000000000000001
 40
0.4000000000000001
 40
0.4000000000000001
 40
0.4000000000000001
 40
0.4250000000000001
 40
0.4250000000000001
 40
0.4250000000000001
 40
0.4250000000000001
 40
0.4500000000000001
 40
0.4500000000000001
 40
0.4500000000000001
 40
0.4500000000000001
 40
0.4750000000000001
 40
0.4750000000000001
 40
0.4750000000000001
 40
0.4750000000000001
 40
0.5000000000000001
 40
0.5000000000000001
 40
0.5000000000000001
 40
0.5000000000000001
 40
0.5250000000000001
 40
0.5250000000000001
 40
0.5250000000000001
 40
0.5250000000000001
 40
0.5500000000000002
 40
0.5500000000000002
 40
0.5500000000000002
 40
0.5500000000000002
 40
0.5750000000000002
 40
0.5750000000000002
 40
0.5750000000000002
 40
0.5750000000000002
 40
0.6000000000000002
 40
0.6000000000000002
 40
0.6000000000000002
 40
0.6000000000000002
 40
0.6250000000000002
 40
0.6250000000000002
 40
0.6250000000000002
 40
0.6250000000000002
 40
0.6500000000000002
 40
0.6500000000000002
 40
0.6500000000000002
 40
0.6500000000000002
 40
0.6750000000000003
 40
0.6750000000000003
 40
0.6750000000000003
 40
0.6750000000000003
 40
0.7000000000000003
 40
0.7000000000000003
 40
0.7000000000000003
 40
0.7000000000000003
 40
0.7250000000000003
 40
0.7250000000000003
 40
0.7250000000000003
 40
0.7250000000000003
 40
0.7500000000000003
 40
0.7500000000000003
 40
0.7500000000000003
 40
0.7500000000000003
 40
0.7750000000000004
 40
0.7750000000000004
 40
0.7750000000000004
 40
0.7750000000000004
 40
0.8000000000000004
 40
0.8000000000000004
 40
0.8000000000000004
 40
0.8000000000000004
 40
0.8250000000000004
 40
0.8250000000000004
 40
0.8250000000000004
 40
0.8250000000000004
 40
0.8500000000000004
 40
0.8500000000000004
 40
0.8500000000000004
 40
0.8500000000000004
 40
0.8750000000000004
 40
0.8750000000000004
 40
0.8750000000000004
 40
0.8750000000000004
 40
0.9000000000000005
 40
0.9000000000000005
 40
0.9000000000000005
 40
0.9000000000000005
 40
0.9250000000000005
 40
0.9250000000000005
 40
0.9250000000000005
 40
0.9250000000000005
 40
0.9500000000000005
 40
0.9500000000000005
 40
0.9500000000000005
 40
0.9500000000000005
 40
0.9750000000000005
 40
0.9750000000000005
 40
0.9750000000000005
 40
0.9750000000000005
 40
1.0
 40
1.0
 40
1.0
 40
1.0
 10
1.6926299212598426
 20
2.4292952755905515
 30
0.0
 10
1.6926299212598426
 20
2.4292952755905515
 30
0.0
 10
1.6926299212598426
 20
1.9458661417322836
 30
0.0
 10
1.6926299212598426
 20
1.9458661417322836
 30
0.0
 10
1.6926299212598426
 20
1.9458661417322836
 30
0.0
 10
1.6689724409448821
 20
1.9778070866141733
 30
0.0
 10
1.6269055118110236
 20
2.0291811023622048
 30
0.0
 10
1.5890196850393701
 20
2.0207952755905514
 30
0.0
 10
1.5890196850393701
 20
2.0207952755905514
 30
0.0
 10
1.5072440944881891
 20
2.0026929133858267
 30
0.0
 10
1.6310551181102362
 20
1.8025905511811025
 30
0.0
 10
1.6926299212598426
 20
1.696240157480315
 30
0.0
 10
1.6926299212598426
 20
1.696240157480315
 30
0.0
 10
1.6926299212598426
 20
1.696240157480315
 30
0.0
 10
1.6926299212598426
 20
1.683972440944882
 30
0.0
 10
1.6926299212598426
 20
1.683972440944882
 30
0.0
 10
1.6926299212598426
 20
1.683972440944882
 30
0.0
 10
1.6126299212598425
 20
1.7697716535433072
 30
0.0
 10
1.4533149606299214
 20
1.9560196850393701
 30
0.0
 10
1.4194094488188977
 20
1.8695393700787402
 30
0.0
 10
1.4194094488188977
 20
1.8695393700787402
 30
0.0
 10
1.3988228346456693
 20
1.8170196850393701
 30
0.0
 10
1.472736220472441
 20
1.7339291338582679
 30
0.0
 10
1.4813425196850394
 20
1.7194133858267717
 30
0.0
 10
1.4813425196850394
 20
1.7194133858267717
 30
0.0
 10
1.4460551181102363
 20
1.6895787401574804
 30
0.0
 10
1.3974685039370078
 20
1.6531338582677166
 30
0.0
 10
1.3847795275590551
 20
1.6193818897637795
 30
0.0
 10
1.3847795275590551
 20
1.6193818897637795
 30
0.0
 10
1.3509527559055119
 20
1.6665118110236221
 30
0.0
 10
1.2449881889763781
 20
1.5171692913385828
 30
0.0
 10
1.2019055118110236
 20
1.4668110236220473
 30
0.0
 10
1.2019055118110236
 20
1.4668110236220473
 30
0.0
 10
1.2297244094488189
 20
1.528267716535433
 30
0.0
 10
1.3227913385826773
 20
1.692236220472441
 30
0.0
 10
1.2593110236220473
 20
1.6975708661417324
 30
0.0
 10
1.2593110236220473
 20
1.6975708661417324
 30
0.0
 10
1.2235433070866142
 20
1.7005787401574803
 30
0.0
 10
1.1903385826771653
 20
1.6356102362204725
 30
0.0
 10
1.1835905511811025
 20
1.6270787401574804
 30
0.0
 10
1.1835905511811025
 20
1.6270787401574804
 30
0.0
 10
1.1527401574803151
 20
1.6478385826771653
 30
0.0
 10
1.1118543307086615
 20
1.6794212598425198
 30
0.0
 10
1.0898740157480316
 20
1.6680354330708662
 30
0.0
 10
1.0898740157480316
 20
1.6680354330708662
 30
0.0
 10
1.0337834645669293
 20
1.6389685039370079
 30
0.0
 10
1.1326614173228347
 20
1.5333700787401576
 30
0.0
 10
1.2019055118110236
 20
1.4668110236220473
 30
0.0
 10
1.2019055118110236
 20
1.4668110236220473
 30
0.0
 10
1.1440314960629923
 20
1.501464566929134
 30
0.0
 10
0.991755905511811
 20
1.6126377952755906
 30
0.0
 10
0.9792086614173229
 20
1.5501811023622047
 30
0.0
 10
0.9792086614173229
 20
1.5501811023622047
 30
0.0
 10
0.9721377952755906
 20
1.514992125984252
 30
0.0
 10
1.0328937007874015
 20
1.4745866141732284
 30
0.0
 10
1.0405984251968505
 20
1.4669094488188976
 30
0.0
 10
1.0405984251968505
 20
1.4669094488188976
 30
0.0
 10
1.0174015748031497
 20
1.439740157480315
 30
0.0
 10
0.983228346456693
 20
1.4045118110236221
 30
0.0
 10
0.9883858267716535
 20
1.3812716535433072
 30
0.0
 10
0.9883858267716535
 20
1.3812716535433072
 30
0.0
 10
0.9785433070866142
 20
1.3880748031496064
 30
0.0
 10
0.966996062992126
 20
1.39448031496063
 30
0.0
 10
0.9573228346456694
 20
1.4002834645669291
 30
0.0
 10
0.9573228346456694
 20
1.4002834645669291
 30
0.0
 10
0.9606771653543308
 20
1.4069921259842519
 30
0.0
 10
0.9915314960629922
 20
1.4467283464566929
 30
0.0
 10
0.9791968503937009
 20
1.4681811023622047
 30
0.0
 10
0.9791968503937009
 20
1.4681811023622047
 30
0.0
 10
0.9572952755905512
 20
1.5062598425196851
 30
0.0
 10
0.8821299212598426
 20
1.4001889763779527
 30
0.0
 10
0.8518937007874016
 20
1.3648464566929135
 30
0.0
 10
0.8518937007874016
 20
1.3648464566929135
 30
0.0
 10
0.8710787401574803
 20
1.4072204724409449
 30
0.0
 10
0.9352480314960631
 20
1.5202795275590553
 30
0.0
 10
0.8914763779527559
 20
1.5239606299212598
 30
0.0
 10
0.8914763779527559
 20
1.5239606299212598
 30
0.0
 10
0.8912755905511811
 20
1.523976377952756
 30
0.0
 10
0.8910787401574803
 20
1.5239803149606299
 30
0.0
 10
0.8908779527559055
 20
1.5239921259842519
 30
0.0
 10
0.8908779527559055
 20
1.5239921259842519
 30
0.0
 10
0.8950511811023623
 20
1.5292283464566929
 30
0.0
 10
0.8990826771653544
 20
1.534763779527559
 30
0.0
 10
0.9027952755905512
 20
1.5395984251968504
 30
0.0
 10
0.9027952755905512
 20
1.5395984251968504
 30
0.0
 10
0.9074724409448819
 20
1.5365472440944883
 30
0.0
 10
0.934255905511811
 20
1.5103346456692914
 30
0.0
 10
0.9511771653543307
 20
1.5176417322834646
 30
0.0
 10
0.9511771653543307
 20
1.5176417322834646
 30
0.0
 10
0.9812165354330709
 20
1.5306102362204725
 30
0.0
 10
0.9091181102362205
 20
1.5952480314960631
 30
0.0
 10
0.8855354330708661
 20
1.6206259842519686
 30
0.0
 10
0.8855354330708661
 20
1.6206259842519686
 30
0.0
 10
0.9315748031496064
 20
1.6029212598425198
 30
0.0
 10
1.002228346456693
 20
1.5799370078740158
 30
0.0
 10
1.0035275590551183
 20
1.6123582677165356
 30
0.0
 10
1.0035275590551183
 20
1.6123582677165356
 30
0.0
 10
1.0040354330708663
 20
1.6250590551181103
 30
0.0
 10
0.9804370078740158
 20
1.6371968503937009
 30
0.0
 10
0.9640629921259843
 20
1.6470196850393701
 30
0.0
 10
0.9640629921259843
 20
1.6470196850393701
 30
0.0
 10
0.9665590551181102
 20
1.6520157480314961
 30
0.0
 10
0.9895433070866142
 20
1.6816181102362204
 30
0.0
 10
0.9803543307086614
 20
1.6975944881889764
 30
0.0
 10
0.9803543307086614
 20
1.6975944881889764
 30
0.0
 10
0.9640433070866142
 20
1.7259566929133858
 30
0.0
 10
0.9080551181102362
 20
1.6469527559055119
 30
0.0
 10
0.8855354330708661
 20
1.6206259842519686
 30
0.0
 10
0.8855354330708661
 20
1.6206259842519686
 30
0.0
 10
0.8961614173228347
 20
1.6441023622047244
 30
0.0
 10
0.9253149606299213
 20
1.6966929133858268
 30
0.0
 10
0.9261496062992126
 20
1.723232283464567
 30
0.0
 10
0.9261496062992126
 20
1.723232283464567
 30
0.0
 10
0.9263464566929134
 20
1.7231692913385828
 30
0.0
 10
0.9265236220472441
 20
1.7230905511811023
 30
0.0
 10
0.9267204724409449
 20
1.7230236220472441
 30
0.0
 10
0.9267204724409449
 20
1.7230236220472441
 30
0.0
 10
0.9684448818897639
 20
1.7093700787401576
 30
0.0
 10
1.03098031496063
 20
1.7763385826771654
 30
0.0
 10
1.0790511811023622
 20
1.821492125984252
 30
0.0
 10
1.0790511811023622
 20
1.821492125984252
 30
0.0
 10
1.0932952755905512
 20
1.808488188976378
 30
0.0
 10
1.1699881889763779
 20
1.7042559055118112
 30
0.0
 10
1.231728346456693
 20
1.7197401574803151
 30
0.0
 10
1.231728346456693
 20
1.7197401574803151
 30
0.0
 10
1.3413188976377952
 20
1.747220472440945
 30
0.0
 10
1.1315669291338584
 20
2.0076299212598427
 30
0.0
 10
1.0653110236220473
 20
2.1072440944881889
 30
0.0
 10
1.0653110236220473
 20
2.1072440944881889
 30
0.0
 10
1.2123700787401575
 20
2.0212834645669293
 30
0.0
 10
1.4403740157480316
 20
1.9036496062992128
 30
0.0
 10
1.4628385826771655
 20
2.0134133858267718
 30
0.0
 10
1.4628385826771655
 20
2.0134133858267718
 30
0.0
 10
1.4716417322834647
 20
2.0564212598425198
 30
0.0
 10
1.3979724409448819
 20
2.1109055118110236
 30
0.0
 10
1.3476299212598426
 20
2.1535078740157481
 30
0.0
 10
1.3476299212598426
 20
2.1535078740157481
 30
0.0
 10
1.3589212598425198
 20
2.1691456692913387
 30
0.0
 10
1.453716535433071
 20
2.2572322834645671
 30
0.0
 10
1.4312874015748032
 20
2.3168031496062995
 30
0.0
 10
1.4312874015748032
 20
2.3168031496062995
 30
0.0
 10
1.4282598425196851
 20
2.3248425196850393
 30
0.0
 10
1.4240944881889763
 20
2.3308740157480314
 30
0.0
 10
1.4189566929133859
 20
2.3351574803149608
 30
0.0
 10
1.4189566929133859
 20
2.3351574803149608
 30
0.0
 10
1.4475196850393701
 20
2.3747322834645672
 30
0.0
 10
1.468216535433071
 20
2.4582952755905514
 30
0.0
 10
1.4812283464566929
 20
2.521425196850394
 30
0.0
 10
1.4812283464566929
 20
2.521425196850394
 30
0.0
 10
1.5000551181102362
 20
2.4262007874015747
 30
0.0
 10
1.5359212598425198
 20
2.2844566929133858
 30
0.0
 10
1.5912598425196851
 20
2.3163110236220472
 30
0.0
 10
1.5912598425196851
 20
2.3163110236220472
 30
0.0
 10
1.6129409448818899
 20
2.3287913385826773
 30
0.0
 10
1.6083858267716535
 20
2.3808070866141735
 30
0.0
 10
1.6075629921259844
 20
2.4183818897637797
 30
0.0
 10
1.6075629921259844
 20
2.4183818897637797
 30
0.0
 10
1.6162913385826772
 20
2.4192440944881892
 30
0.0
 10
1.6647677165354331
 20
2.4148307086614174
 30
0.0
 10
1.6926299212598426
 20
2.4292952755905515
 30
0.0
  0
SPLINE
  5
2D
100
AcDbEntity
  8
Layer 1
370
    18
100
AcDbSpline
210
0.0
220
0.0
230
1.0
 70
     1
 71
     3
 72
    16
 73
    12
 74
     0
 42
0.0000000001
 43
0.0000000001
 40
0.0
 40
0.0
 40
0.0
 40
0.0
 40
0.3333333333333333
 40
0.3333333333333333
 40
0.3333333333333333
 40
0.3333333333333333
 40
0.6666666666666666
 40
0.6666666666666666
 40
0.6666666666666666
 40
0.6666666666666666
 40
1.0
 40
1.0
 40
1.0
 40
1.0
 10
1.6926299212598426
 20
1.913228346456693
 30
0.0
 10
1.6926299212598426
 20
1.913228346456693
 30
0.0
 10
1.6926299212598426
 20
1.7312834645669293
 30
0.0
 10
1.6926299212598426
 20
1.7312834645669293
 30
0.0
 10
1.6926299212598426
 20
1.7312834645669293
 30
0.0
 10
1.6427362204724409
 20
1.815503937007874
 30
0.0
 10
1.5500472440944884
 20
1.9608779527559055
 30
0.0
 10
1.6065944881889764
 20
1.980712598425197
 30
0.0
 10
1.6065944881889764
 20
1.980712598425197
 30
0.0
 10
1.636007874015748
 20
1.9910314960629922
 30
0.0
 10
1.6723031496062992
 20
1.9427165354330709
 30
0.0
 10
1.6926299212598426
 20
1.913228346456693
 30
0.0
  0
SPLINE
  5
2E
100
AcDbEntity
  8
Layer 1
370
    18
100
AcDbSpline
210
0.0
220
0.0
230
1.0
 70
     1
 71
     3
 72
   108
 73
   104
 74
     0
 42
0.0000000001
 43
0.0000000001
 40
0.0
 40
0.0
 40
0.0
 40
0.0
 40
0.0384615384615385
 40
0.0384615384615385
 40
0.0384615384615385
 40
0.0384615384615385
 40
0.0769230769230769
 40
0.0769230769230769
 40
0.0769230769230769
 40
0.0769230769230769
 40
0.1153846153846154
 40
0.1153846153846154
 40
0.1153846153846154
 40
0.1153846153846154
 40
0.1538461538461539
 40
0.1538461538461539
 40
0.1538461538461539
 40
0.1538461538461539
 40
0.1923076923076923
 40
0.1923076923076923
 40
0.1923076923076923
 40
0.1923076923076923
 40
0.2307692307692308
 40
0.2307692307692308
 40
0.2307692307692308
 40
0.2307692307692308
 40
0.2692307692307693
 40
0.2692307692307693
 40
0.2692307692307693
 40
0.2692307692307693
 40
0.3076923076923077
 40
0.3076923076923077
 40
0.3076923076923077
 40
0.3076923076923077
 40
0.3461538461538462
 40
0.3461538461538462
 40
0.3461538461538462
 40
0.3461538461538462
 40
0.3846153846153846
 40
0.3846153846153846
 40
0.3846153846153846
 40
0.3846153846153846
 40
0.423076923076923
 40
0.423076923076923
 40
0.423076923076923
 40
0.423076923076923
 40
0.4615384615384615
 40
0.4615384615384615
 40
0.4615384615384615
 40
0.4615384615384615
 40
0.4999999999999999
 40
0.4999999999999999
 40
0.4999999999999999
 40
0.4999999999999999
 40
0.5384615384615383
 40
0.5384615384615383
 40
0.5384615384615383
 40
0.5384615384615383
 40
0.5769230769230768
 40
0.5769230769230768
 40
0.5769230769230768
 40
0.5769230769230768
 40
0.6153846153846152
 40
0.6153846153846152
 40
0.6153846153846152
 40
0.6153846153846152
 40
0.6538461538461536
 40
0.6538461538461536
 40
0.6538461538461536
 40
0.6538461538461536
 40
0.6923076923076921
 40
0.6923076923076921
 40
0.6923076923076921
 40
0.6923076923076921
 40
0.7307692307692305
 40
0.7307692307692305
 40
0.7307692307692305
 40
0.7307692307692305
 40
0.7692307692307689
 40
0.7692307692307689
 40
0.7692307692307689
 40
0.7692307692307689
 40
0.8076923076923074
 40
0.8076923076923074
 40
0.8076923076923074
 40
0.8076923076923074
 40
0.8461538461538458
 40
0.8461538461538458
 40
0.8461538461538458
 40
0.8461538461538458
 40
0.8846153846153843
 40
0.8846153846153843
 40
0.8846153846153843
 40
0.8846153846153843
 40
0.9230769230769227
 40
0.9230769230769227
 40
0.9230769230769227
 40
0.9230769230769227
 40
0.9615384615384611
 40
0.9615384615384611
 40
0.9615384615384611
 40
0.9615384615384611
 40
1.0
 40
1.0
 40
1.0
 40
1.0
 10
1.6926299212598426
 20
1.6561220472440945
 30
0.0
 10
1.6926299212598426
 20
1.6561220472440945
 30
0.0
 10
1.6926299212598426
 20
1.6410590551181103
 30
0.0
 10
1.6926299212598426
 20
1.6410590551181103
 30
0.0
 10
1.6926299212598426
 20
1.6410590551181103
 30
0.0
 10
1.6231220472440946
 20
1.5425393700787402
 30
0.0
 10
1.4783188976377952
 20
1.3519724409448819
 30
0.0
 10
1.5591417322834646
 20
1.3251417322834647
 30
0.0
 10
1.5591417322834646
 20
1.3251417322834647
 30
0.0
 10
1.6088976377952757
 20
1.3086259842519685
 30
0.0
 10
1.67546062992126
 20
1.3989291338582677
 30
0.0
 10
1.6875787401574804
 20
1.409996062992126
 30
0.0
 10
1.6875787401574804
 20
1.409996062992126
 30
0.0
 10
1.6892401574803151
 20
1.4081062992125986
 30
0.0
 10
1.6909251968503938
 20
1.4061811023622048
 30
0.0
 10
1.6926299212598426
 20
1.4042204724409448
 30
0.0
 10
1.6926299212598426
 20
1.4042204724409448
 30
0.0
 10
1.6926299212598426
 20
1.4042204724409448
 30
0.0
 10
1.6926299212598426
 20
1.0543622047244094
 30
0.0
 10
1.6926299212598426
 20
1.0543622047244094
 30
0.0
 10
1.6926299212598426
 20
1.0543622047244094
 30
0.0
 10
1.6869803149606299
 20
1.0603070866141733
 30
0.0
 10
1.6765748031496064
 20
1.0658740157480315
 30
0.0
 10
1.6685787401574803
 20
1.0706692913385827
 30
0.0
 10
1.6685787401574803
 20
1.0706692913385827
 30
0.0
 10
1.6703582677165354
 20
1.074232283464567
 30
0.0
 10
1.686736220472441
 20
1.0953228346456694
 30
0.0
 10
1.6801889763779527
 20
1.1067086614173229
 30
0.0
 10
1.6801889763779527
 20
1.1067086614173229
 30
0.0
 10
1.6685669291338583
 20
1.1269212598425198
 30
0.0
 10
1.6286692913385827
 20
1.0706220472440946
 30
0.0
 10
1.6126220472440946
 20
1.0518622047244095
 30
0.0
 10
1.6126220472440946
 20
1.0518622047244095
 30
0.0
 10
1.6228031496062993
 20
1.0743503937007874
 30
0.0
 10
1.6568622047244095
 20
1.1343622047244095
 30
0.0
 10
1.6336299212598426
 20
1.1363149606299212
 30
0.0
 10
1.6336299212598426
 20
1.1363149606299212
 30
0.0
 10
1.6205393700787403
 20
1.1374133858267717
 30
0.0
 10
1.6083858267716535
 20
1.1136377952755907
 30
0.0
 10
1.6059173228346457
 20
1.110515748031496
 30
0.0
 10
1.6059173228346457
 20
1.110515748031496
 30
0.0
 10
1.5946259842519686
 20
1.1181141732283466
 30
0.0
 10
1.5796614173228347
 20
1.1296732283464568
 30
0.0
 10
1.5716181102362206
 20
1.1255039370078741
 30
0.0
 10
1.5716181102362206
 20
1.1255039370078741
 30
0.0
 10
1.5510905511811024
 20
1.1148661417322836
 30
0.0
 10
1.5872795275590552
 20
1.076220472440945
 30
0.0
 10
1.6126220472440946
 20
1.0518622047244095
 30
0.0
 10
1.6126220472440946
 20
1.0518622047244095
 30
0.0
 10
1.596984251968504
 20
1.061224409448819
 30
0.0
 10
1.562523622047244
 20
1.0858425196850394
 30
0.0
 10
1.5437047244094488
 20
1.0888976377952757
 30
0.0
 10
1.5437047244094488
 20
1.0888976377952757
 30
0.0
 10
1.5460354330708661
 20
1.0924488188976378
 30
0.0
 10
1.5474015748031498
 20
1.0968031496062993
 30
0.0
 10
1.5476102362204724
 20
1.1020748031496064
 30
0.0
 10
1.5476102362204724
 20
1.1020748031496064
 30
0.0
 10
1.5484330708661418
 20
1.1225629921259843
 30
0.0
 10
1.5103700787401575
 20
1.1421377952755907
 30
0.0
 10
1.4839527559055119
 20
1.1579881889763779
 30
0.0
 10
1.4839527559055119
 20
1.1579881889763779
 30
0.0
 10
1.4879803149606299
 20
1.1660472440944882
 30
0.0
 10
1.5250551181102363
 20
1.2137952755905512
 30
0.0
 10
1.510228346456693
 20
1.2395708661417324
 30
0.0
 10
1.510228346456693
 20
1.2395708661417324
 30
0.0
 10
1.4839173228346458
 20
1.2853228346456693
 30
0.0
 10
1.3936062992125984
 20
1.1578779527559055
 30
0.0
 10
1.3572795275590552
 20
1.1154133858267716
 30
0.0
 10
1.3572795275590552
 20
1.1154133858267716
 30
0.0
 10
1.3803228346456693
 20
1.1663228346456693
 30
0.0
 10
1.4574251968503937
 20
1.3021653543307088
 30
0.0
 10
1.4048346456692913
 20
1.3065866141732283
 30
0.0
 10
1.4048346456692913
 20
1.3065866141732283
 30
0.0
 10
1.375204724409449
 20
1.3090787401574804
 30
0.0
 10
1.3476929133858269
 20
1.2552519685039372
 30
0.0
 10
1.3421023622047246
 20
1.2481850393700789
 30
0.0
 10
1.3421023622047246
 20
1.2481850393700789
 30
0.0
 10
1.3349015748031496
 20
1.2530314960629922
 30
0.0
 10
1.3270393700787402
 20
1.2585905511811024
 30
0.0
 10
1.3190511811023622
 20
1.2638661417322836
 30
0.0
 10
1.3190511811023622
 20
1.2638661417322836
 30
0.0
 10
1.3227637795275591
 20
1.2640708661417324
 30
0.0
 10
1.3263425196850394
 20
1.2648346456692914
 30
0.0
 10
1.3297204724409448
 20
1.2662913385826773
 30
0.0
 10
1.3297204724409448
 20
1.2662913385826773
 30
0.0
 10
1.3882086614173228
 20
1.2915393700787403
 30
0.0
 10
1.2478267716535434
 20
1.4173976377952757
 30
0.0
 10
1.2019055118110236
 20
1.4668110236220473
 30
0.0
 10
1.2019055118110236
 20
1.4668110236220473
 30
0.0
 10
1.2915511811023623
 20
1.4323385826771655
 30
0.0
 10
1.4291220472440946
 20
1.3875905511811024
 30
0.0
 10
1.4316496062992126
 20
1.450712598425197
 30
0.0
 10
1.4316496062992126
 20
1.450712598425197
 30
0.0
 10
1.4326417322834646
 20
1.4754448818897639
 30
0.0
 10
1.3866968503937009
 20
1.4990748031496064
 30
0.0
 10
1.3548070866141733
 20
1.5182086614173229
 30
0.0
 10
1.3548070866141733
 20
1.5182086614173229
 30
0.0
 10
1.3580826771653545
 20
1.5247559055118112
 30
0.0
 10
1.3794409448818898
 20
1.5530236220472442
 30
0.0
 10
1.3875826771653543
 20
1.5802913385826771
 30
0.0
 10
1.3875826771653543
 20
1.5802913385826771
 30
0.0
 10
1.4210551181102362
 20
1.5158818897637796
 30
0.0
 10
1.5787677165354332
 20
1.5918464566929134
 30
0.0
 10
1.6926299212598426
 20
1.6561220472440945
 30
0.0
  0
SPLINE
  5
2F
100
AcDbEntity
  8
Layer 1
370
    18
100
AcDbSpline
210
0.0
220
0.0
230
1.0
 70
     1
 71
     3
 72
    20
 73
    16
 74
     0
 42
0.0000000001
 43
0.0000000001
 40
0.0
 40
0.0
 40
0.0
 40
0.0
 40
0.25
 40
0.25
 40
0.25
 40
0.25
 40
0.5
 40
0.5
 40
0.5
 40
0.5
 40
0.75
 40
0.75
 40
0.75
 40
0.75
 40
1.0
 40
1.0
 40
1.0
 40
1.0
 10
1.6926299212598426
 20
1.6102834645669293
 30
0.0
 10
1.6926299212598426
 20
1.6102834645669293
 30
0.0
 10
1.6926299212598426
 20
1.4347913385826772
 30
0.0
 10
1.6926299212598426
 20
1.4347913385826772
 30
0.0
 10
1.6926299212598426
 20
1.4347913385826772
 30
0.0
 10
1.6909094488188976
 20
1.4367677165354331
 30
0.0
 10
1.6892401574803151
 20
1.4386811023622048
 30
0.0
 10
1.6876220472440946
 20
1.4405196850393702
 30
0.0
 10
1.6876220472440946
 20
1.4405196850393702
 30
0.0
 10
1.6779645669291339
 20
1.431704724409449
 30
0.0
 10
1.618271653543307
 20
1.3452992125984253
 30
0.0
 10
1.5800748031496064
 20
1.3632204724409449
 30
0.0
 10
1.5800748031496064
 20
1.3632204724409449
 30
0.0
 10
1.5236574803149607
 20
1.3896929133858269
 30
0.0
 10
1.6373779527559056
 20
1.5330748031496064
 30
0.0
 10
1.6926299212598426
 20
1.6102834645669293
 30
0.0
  0
SPLINE
  5
30
100
AcDbEntity
  8
Layer 1
370
    18
100
AcDbSpline
210
0.0
220
0.0
230
1.0
 70
     1
 71
     3
 72
   108
 73
   104
 74
     0
 42
0.0000000001
 43
0.0000000001
 40
0.0
 40
0.0
 40
0.0
 40
0.0
 40
0.0384615384615385
 40
0.0384615384615385
 40
0.0384615384615385
 40
0.0384615384615385
 40
0.0769230769230769
 40
0.0769230769230769
 40
0.0769230769230769
 40
0.0769230769230769
 40
0.1153846153846154
 40
0.1153846153846154
 40
0.1153846153846154
 40
0.1153846153846154
 40
0.1538461538461539
 40
0.1538461538461539
 40
0.1538461538461539
 40
0.1538461538461539
 40
0.1923076923076923
 40
0.1923076923076923
 40
0.1923076923076923
 40
0.1923076923076923
 40
0.2307692307692308
 40
0.2307692307692308
 40
0.2307692307692308
 40
0.2307692307692308
 40
0.2692307692307693
 40
0.2692307692307693
 40
0.2692307692307693
 40
0.2692307692307693
 40
0.3076923076923077
 40
0.3076923076923077
 40
0.3076923076923077
 40
0.3076923076923077
 40
0.3461538461538462
 40
0.3461538461538462
 40
0.3461538461538462
 40
0.3461538461538462
 40
0.3846153846153846
 40
0.3846153846153846
 40
0.3846153846153846
 40
0.3846153846153846
 40
0.423076923076923
 40
0.423076923076923
 40
0.423076923076923
 40
0.423076923076923
 40
0.4615384615384615
 40
0.4615384615384615
 40
0.4615384615384615
 40
0.4615384615384615
 40
0.4999999999999999
 40
0.4999999999999999
 40
0.4999999999999999
 40
0.4999999999999999
 40
0.5384615384615383
 40
0.5384615384615383
 40
0.5384615384615383
 40
0.5384615384615383
 40
0.5769230769230768
 40
0.5769230769230768
 40
0.5769230769230768
 40
0.5769230769230768
 40
0.6153846153846152
 40
0.6153846153846152
 40
0.6153846153846152
 40
0.6153846153846152
 40
0.6538461538461536
 40
0.6538461538461536
 40
0.6538461538461536
 40
0.6538461538461536
 40
0.6923076923076921
 40
0.6923076923076921
 40
0.6923076923076921
 40
0.6923076923076921
 40
0.7307692307692305
 40
0.7307692307692305
 40
0.7307692307692305
 40
0.7307692307692305
 40
0.7692307692307689
 40
0.7692307692307689
 40
0.7692307692307689
 40
0.7692307692307689
 40
0.8076923076923074
 40
0.8076923076923074
 40
0.8076923076923074
 40
0.8076923076923074
 40
0.8461538461538458
 40
0.8461538461538458
 40
0.8461538461538458
 40
0.8461538461538458
 40
0.8846153846153843
 40
0.8846153846153843
 40
0.8846153846153843
 40
0.8846153846153843
 40
0.9230769230769227
 40
0.9230769230769227
 40
0.9230769230769227
 40
0.9230769230769227
 40
0.9615384615384611
 40
0.9615384615384611
 40
0.9615384615384611
 40
0.9615384615384611
 40
1.0
 40
1.0
 40
1.0
 40
1.0
 10
1.6926299212598426
 20
1.0376653543307086
 30
0.0
 10
1.6926299212598426
 20
1.0376653543307086
 30
0.0
 10
1.6926299212598426
 20
0.6802283464566929
 30
0.0
 10
1.6926299212598426
 20
0.6802283464566929
 30
0.0
 10
1.6926299212598426
 20
0.6802283464566929
 30
0.0
 10
1.6753110236220472
 20
0.6951732283464567
 30
0.0
 10
1.6494685039370078
 20
0.7091732283464567
 30
0.0
 10
1.629
 20
0.7214566929133859
 30
0.0
 10
1.629
 20
0.7214566929133859
 30
0.0
 10
1.6342401574803149
 20
0.7319330708661418
 30
0.0
 10
1.6824370078740158
 20
0.7940039370078741
 30
0.0
 10
1.6631653543307088
 20
0.8275157480314961
 30
0.0
 10
1.6631653543307088
 20
0.8275157480314961
 30
0.0
 10
1.6289566929133859
 20
0.886992125984252
 30
0.0
 10
1.5115472440944882
 20
0.7213070866141733
 30
0.0
 10
1.4643149606299213
 20
0.6661023622047244
 30
0.0
 10
1.4643149606299213
 20
0.6661023622047244
 30
0.0
 10
1.4942795275590552
 20
0.7322874015748032
 30
0.0
 10
1.5945157480314962
 20
0.9088937007874016
 30
0.0
 10
1.5261417322834647
 20
0.9146417322834646
 30
0.0
 10
1.5261417322834647
 20
0.9146417322834646
 30
0.0
 10
1.4876220472440946
 20
0.9178818897637796
 30
0.0
 10
1.4518543307086615
 20
0.8479015748031497
 30
0.0
 10
1.4445905511811024
 20
0.8387165354330709
 30
0.0
 10
1.4445905511811024
 20
0.8387165354330709
 30
0.0
 10
1.4113622047244094
 20
0.8610748031496064
 30
0.0
 10
1.3673228346456694
 20
0.8950944881889764
 30
0.0
 10
1.3436535433070866
 20
0.8828267716535433
 30
0.0
 10
1.3436535433070866
 20
0.8828267716535433
 30
0.0
 10
1.2832401574803149
 20
0.8515236220472441
 30
0.0
 10
1.3897362204724411
 20
0.7377834645669291
 30
0.0
 10
1.4643149606299213
 20
0.6661023622047244
 30
0.0
 10
1.4643149606299213
 20
0.6661023622047244
 30
0.0
 10
1.4030866141732283
 20
0.702759842519685
 30
0.0
 10
1.2437755905511811
 20
0.8189212598425197
 30
0.0
 10
1.2253307086614174
 20
0.7592834645669292
 30
0.0
 10
1.2253307086614174
 20
0.7592834645669292
 30
0.0
 10
1.1599370078740159
 20
0.8107519685039371
 30
0.0
 10
0.979740157480315
 20
0.8565905511811024
 30
0.0
 10
0.9037559055118111
 20
0.8820866141732284
 30
0.0
 10
0.9037559055118111
 20
0.8820866141732284
 30
0.0
 10
1.0606653543307087
 20
0.8967913385826772
 30
0.0
 10
1.2954015748031495
 20
0.930251968503937
 30
0.0
 10
1.2521968503937009
 20
1.0162874015748031
 30
0.0
 10
1.2521968503937009
 20
1.0162874015748031
 30
0.0
 10
1.2488267716535433
 20
1.0230039370078741
 30
0.0
 10
1.242751968503937
 20
1.0283937007874016
 30
0.0
 10
1.2347165354330709
 20
1.032755905511811
 30
0.0
 10
1.2347165354330709
 20
1.032755905511811
 30
0.0
 10
1.2721889763779528
 20
1.047952755905512
 30
0.0
 10
1.3208858267716537
 20
1.0853267716535433
 30
0.0
 10
1.3572755905511811
 20
1.1154133858267716
 30
0.0
 10
1.3572755905511811
 20
1.1154133858267716
 30
0.0
 10
1.3204251968503937
 20
1.0448897637795276
 30
0.0
 10
1.2705866141732285
 20
0.9358937007874016
 30
0.0
 10
1.3223031496062994
 20
0.9278464566929134
 30
0.0
 10
1.3223031496062994
 20
0.9278464566929134
 30
0.0
 10
1.3425629921259843
 20
0.9246889763779528
 30
0.0
 10
1.3663582677165356
 20
0.9602716535433071
 30
0.0
 10
1.3851181102362204
 20
0.9847047244094489
 30
0.0
 10
1.3851181102362204
 20
0.9847047244094489
 30
0.0
 10
1.3926653543307088
 20
0.9797834645669292
 30
0.0
 10
1.4358661417322836
 20
0.937503937007874
 30
0.0
 10
1.4631653543307088
 20
0.9492874015748032
 30
0.0
 10
1.4631653543307088
 20
0.9492874015748032
 30
0.0
 10
1.5116220472440944
 20
0.9702047244094488
 30
0.0
 10
1.3953188976377953
 20
1.074472440944882
 30
0.0
 10
1.3572795275590552
 20
1.1154133858267716
 30
0.0
 10
1.3572795275590552
 20
1.1154133858267716
 30
0.0
 10
1.4148543307086614
 20
1.0932716535433071
 30
0.0
 10
1.4962755905511811
 20
1.0660236220472441
 30
0.0
 10
1.5309527559055118
 20
1.0792559055118112
 30
0.0
 10
1.5309527559055118
 20
1.0792559055118112
 30
0.0
 10
1.5319606299212598
 20
1.0672086614173228
 30
0.0
 10
1.5509921259842521
 20
1.0544803149606299
 30
0.0
 10
1.5535866141732284
 20
1.0518976377952756
 30
0.0
 10
1.5535866141732284
 20
1.0518976377952756
 30
0.0
 10
1.5447480314960631
 20
1.0415472440944882
 30
0.0
 10
1.5315551181102363
 20
1.028
 30
0.0
 10
1.5347795275590552
 20
1.0195354330708661
 30
0.0
 10
1.5347795275590552
 20
1.0195354330708661
 30
0.0
 10
1.5430039370078741
 20
0.9979251968503937
 30
0.0
 10
1.5855275590551181
 20
1.0294645669291338
 30
0.0
 10
1.6126220472440946
 20
1.0518622047244095
 30
0.0
 10
1.6126220472440946
 20
1.0518622047244095
 30
0.0
 10
1.5963425196850394
 20
1.0207086614173229
 30
0.0
 10
1.5743228346456692
 20
0.9725590551181103
 30
0.0
 10
1.5971692913385827
 20
0.969003937007874
 30
0.0
 10
1.5971692913385827
 20
0.969003937007874
 30
0.0
 10
1.6061220472440945
 20
0.9676102362204725
 30
0.0
 10
1.6166299212598425
 20
0.9833267716535433
 30
0.0
 10
1.6249212598425198
 20
0.9941220472440945
 30
0.0
 10
1.6249212598425198
 20
0.9941220472440945
 30
0.0
 10
1.6282519685039372
 20
0.9919448818897638
 30
0.0
 10
1.6473385826771654
 20
0.9732677165354331
 30
0.0
 10
1.6593976377952757
 20
0.978476377952756
 30
0.0
 10
1.6593976377952757
 20
0.978476377952756
 30
0.0
 10
1.6808031496062992
 20
0.9877165354330709
 30
0.0
 10
1.6294251968503937
 20
1.0337755905511812
 30
0.0
 10
1.6126220472440946
 20
1.0518622047244095
 30
0.0
 10
1.6126220472440946
 20
1.0518622047244095
 30
0.0
 10
1.6401062992125985
 20
1.0412913385826772
 30
0.0
 10
1.6798937007874017
 20
1.0280866141732283
 30
0.0
 10
1.6926299212598426
 20
1.0376653543307086
 30
0.0
  0
SPLINE
  5
31
100
AcDbEntity
  8
Layer 1
370
    18
100
AcDbSpline
210
0.0
220
0.0
230
1.0
 70
     1
 71
     3
 72
   144
 73
   140
 74
     0
 42
0.0000000001
 43
0.0000000001
 40
0.0
 40
0.0
 40
0.0
 40
0.0
 40
0.0285714285714286
 40
0.0285714285714286
 40
0.0285714285714286
 40
0.0285714285714286
 40
0.0571428571428571
 40
0.0571428571428571
 40
0.0571428571428571
 40
0.0571428571428571
 40
0.0857142857142857
 40
0.0857142857142857
 40
0.0857142857142857
 40
0.0857142857142857
 40
0.1142857142857143
 40
0.1142857142857143
 40
0.1142857142857143
 40
0.1142857142857143
 40
0.1428571428571429
 40
0.1428571428571429
 40
0.1428571428571429
 40
0.1428571428571429
 40
0.1714285714285714
 40
0.1714285714285714
 40
0.1714285714285714
 40
0.1714285714285714
 40
0.2
 40
0.2
 40
0.2
 40
0.2
 40
0.2285714285714286
 40
0.2285714285714286
 40
0.2285714285714286
 40
0.2285714285714286
 40
0.2571428571428572
 40
0.2571428571428572
 40
0.2571428571428572
 40
0.2571428571428572
 40
0.2857142857142858
 40
0.2857142857142858
 40
0.2857142857142858
 40
0.2857142857142858
 40
0.3142857142857143
 40
0.3142857142857143
 40
0.3142857142857143
 40
0.3142857142857143
 40
0.3428571428571429
 40
0.3428571428571429
 40
0.3428571428571429
 40
0.3428571428571429
 40
0.3714285714285715
 40
0.3714285714285715
 40
0.3714285714285715
 40
0.3714285714285715
 40
0.4000000000000001
 40
0.4000000000000001
 40
0.4000000000000001
 40
0.4000000000000001
 40
0.4285714285714287
 40
0.4285714285714287
 40
0.4285714285714287
 40
0.4285714285714287
 40
0.4571428571428572
 40
0.4571428571428572
 40
0.4571428571428572
 40
0.4571428571428572
 40
0.4857142857142858
 40
0.4857142857142858
 40
0.4857142857142858
 40
0.4857142857142858
 40
0.5142857142857144
 40
0.5142857142857144
 40
0.5142857142857144
 40
0.5142857142857144
 40
0.5428571428571429
 40
0.5428571428571429
 40
0.5428571428571429
 40
0.5428571428571429
 40
0.5714285714285715
 40
0.5714285714285715
 40
0.5714285714285715
 40
0.5714285714285715
 40
0.6000000000000001
 40
0.6000000000000001
 40
0.6000000000000001
 40
0.6000000000000001
 40
0.6285714285714287
 40
0.6285714285714287
 40
0.6285714285714287
 40
0.6285714285714287
 40
0.6571428571428573
 40
0.6571428571428573
 40
0.6571428571428573
 40
0.6571428571428573
 40
0.6857142857142858
 40
0.6857142857142858
 40
0.6857142857142858
 40
0.6857142857142858
 40
0.7142857142857144
 40
0.7142857142857144
 40
0.7142857142857144
 40
0.7142857142857144
 40
0.742857142857143
 40
0.742857142857143
 40
0.742857142857143
 40
0.742857142857143
 40
0.7714285714285716
 40
0.7714285714285716
 40
0.7714285714285716
 40
0.7714285714285716
 40
0.8000000000000002
 40
0.8000000000000002
 40
0.8000000000000002
 40
0.8000000000000002
 40
0.8285714285714287
 40
0.8285714285714287
 40
0.8285714285714287
 40
0.8285714285714287
 40
0.8571428571428573
 40
0.8571428571428573
 40
0.8571428571428573
 40
0.8571428571428573
 40
0.8857142857142859
 40
0.8857142857142859
 40
0.8857142857142859
 40
0.8857142857142859
 40
0.9142857142857145
 40
0.9142857142857145
 40
0.9142857142857145
 40
0.9142857142857145
 40
0.9428571428571431
 40
0.9428571428571431
 40
0.9428571428571431
 40
0.9428571428571431
 40
0.9714285714285716
 40
0.9714285714285716
 40
0.9714285714285716
 40
0.9714285714285716
 40
1.0
 40
1.0
 40
1.0
 40
1.0
 10
1.6926299212598426
 20
0.6201456692913386
 30
0.0
 10
1.6926299212598426
 20
0.6201456692913386
 30
0.0
 10
1.6926299212598426
 20
0.2810314960629922
 30
0.0
 10
1.6926299212598426
 20
0.2810314960629922
 30
0.0
 10
1.6926299212598426
 20
0.2810314960629922
 30
0.0
 10
1.6659291338582678
 20
0.2970905511811024
 30
0.0
 10
1.6126299212598425
 20
0.2979094488188976
 30
0.0
 10
1.5721023622047245
 20
0.3007874015748032
 30
0.0
 10
1.5721023622047245
 20
0.3007874015748032
 30
0.0
 10
1.572015748031496
 20
0.3155866141732284
 30
0.0
 10
1.5908385826771654
 20
0.4130787401574803
 30
0.0
 10
1.549964566929134
 20
0.4398149606299213
 30
0.0
 10
1.549964566929134
 20
0.4398149606299213
 30
0.0
 10
1.4774212598425198
 20
0.4872755905511811
 30
0.0
 10
1.4398464566929134
 20
0.2334763779527559
 30
0.0
 10
1.4181929133858269
 20
0.1442716535433071
 30
0.0
 10
1.4181929133858269
 20
0.1442716535433071
 30
0.0
 10
1.4141141732283464
 20
0.2359763779527559
 30
0.0
 10
1.4260984251968505
 20
0.4922637795275591
 30
0.0
 10
1.3457755905511812
 20
0.4596535433070866
 30
0.0
 10
1.3457755905511812
 20
0.4596535433070866
 30
0.0
 10
1.3310196850393701
 20
0.4536653543307087
 30
0.0
 10
1.3210472440944883
 20
0.4390669291338583
 30
0.0
 10
1.3142007874015749
 20
0.4216181102362205
 30
0.0
 10
1.3142007874015749
 20
0.4216181102362205
 30
0.0
 10
1.3100669291338582
 20
0.4274251968503937
 30
0.0
 10
1.299748031496063
 20
0.4328818897637796
 30
0.0
 10
1.2920511811023623
 20
0.4375
 30
0.0
 10
1.2920511811023623
 20
0.4375
 30
0.0
 10
1.2935669291338583
 20
0.4405314960629921
 30
0.0
 10
1.3075275590551181
 20
0.458511811023622
 30
0.0
 10
1.3019448818897639
 20
0.4682165354330709
 30
0.0
 10
1.3019448818897639
 20
0.4682165354330709
 30
0.0
 10
1.2920393700787403
 20
0.4854448818897638
 30
0.0
 10
1.2580314960629921
 20
0.4374566929133859
 30
0.0
 10
1.2443543307086615
 20
0.4214685039370079
 30
0.0
 10
1.2443543307086615
 20
0.4214685039370079
 30
0.0
 10
1.2530314960629922
 20
0.4406377952755906
 30
0.0
 10
1.2820629921259843
 20
0.4917874015748032
 30
0.0
 10
1.2622598425196851
 20
0.4934488188976378
 30
0.0
 10
1.2622598425196851
 20
0.4934488188976378
 30
0.0
 10
1.2511023622047244
 20
0.4943897637795276
 30
0.0
 10
1.2407440944881891
 20
0.4741220472440945
 30
0.0
 10
1.2386417322834646
 20
0.4714606299212599
 30
0.0
 10
1.2386417322834646
 20
0.4714606299212599
 30
0.0
 10
1.229015748031496
 20
0.4779370078740158
 30
0.0
 10
1.2162598425196851
 20
0.4877874015748032
 30
0.0
 10
1.2094055118110236
 20
0.484236220472441
 30
0.0
 10
1.2094055118110236
 20
0.484236220472441
 30
0.0
 10
1.1919094488188977
 20
0.4751692913385827
 30
0.0
 10
1.222751968503937
 20
0.442228346456693
 30
0.0
 10
1.2443543307086615
 20
0.4214685039370079
 30
0.0
 10
1.2443543307086615
 20
0.4214685039370079
 30
0.0
 10
1.2316062992125985
 20
0.4290984251968504
 30
0.0
 10
1.2041850393700788
 20
0.4486259842519685
 30
0.0
 10
1.1877834645669292
 20
0.4525905511811024
 30
0.0
 10
1.1877834645669292
 20
0.4525905511811024
 30
0.0
 10
1.2062362204724411
 20
0.4666141732283465
 30
0.0
 10
1.147996062992126
 20
0.5189724409448819
 30
0.0
 10
1.1284212598425196
 20
0.5400354330708662
 30
0.0
 10
1.1284212598425196
 20
0.5400354330708662
 30
0.0
 10
1.168200787401575
 20
0.524740157480315
 30
0.0
 10
1.2292440944881891
 20
0.5048818897637796
 30
0.0
 10
1.2303661417322835
 20
0.5328937007874016
 30
0.0
 10
1.2303661417322835
 20
0.5328937007874016
 30
0.0
 10
1.2308070866141734
 20
0.5438661417322835
 30
0.0
 10
1.2104173228346458
 20
0.5543503937007874
 30
0.0
 10
1.1962677165354332
 20
0.5628425196850394
 30
0.0
 10
1.1962677165354332
 20
0.5628425196850394
 30
0.0
 10
1.1984291338582678
 20
0.5671574803149606
 30
0.0
 10
1.2182834645669292
 20
0.592732283464567
 30
0.0
 10
1.2103464566929134
 20
0.6065393700787402
 30
0.0
 10
1.2103464566929134
 20
0.6065393700787402
 30
0.0
 10
1.196251968503937
 20
0.6310433070866142
 30
0.0
 10
1.1478779527559055
 20
0.5627834645669292
 30
0.0
 10
1.1284212598425196
 20
0.5400354330708662
 30
0.0
 10
1.1284212598425196
 20
0.5400354330708662
 30
0.0
 10
1.1407637795275591
 20
0.5673070866141733
 30
0.0
 10
1.1820629921259842
 20
0.6400629921259843
 30
0.0
 10
1.1538937007874017
 20
0.6424330708661418
 30
0.0
 10
1.1538937007874017
 20
0.6424330708661418
 30
0.0
 10
1.1380236220472442
 20
0.6437677165354331
 30
0.0
 10
1.1232874015748031
 20
0.6149370078740157
 30
0.0
 10
1.1202952755905513
 20
0.6111535433070866
 30
0.0
 10
1.1202952755905513
 20
0.6111535433070866
 30
0.0
 10
1.1066023622047245
 20
0.6203622047244095
 30
0.0
 10
1.0884606299212598
 20
0.6343779527559056
 30
0.0
 10
1.0787086614173229
 20
0.6293267716535433
 30
0.0
 10
1.0787086614173229
 20
0.6293267716535433
 30
0.0
 10
1.0538188976377953
 20
0.6164291338582677
 30
0.0
 10
1.0976968503937008
 20
0.5695708661417324
 30
0.0
 10
1.1284212598425196
 20
0.5400354330708662
 30
0.0
 10
1.1284212598425196
 20
0.5400354330708662
 30
0.0
 10
1.1087637795275591
 20
0.5518070866141732
 30
0.0
 10
1.0645629921259843
 20
0.5834685039370079
 30
0.0
 10
1.0424133858267717
 20
0.585248031496063
 30
0.0
 10
1.0424133858267717
 20
0.585248031496063
 30
0.0
 10
1.0563267716535434
 20
0.6154448818897638
 30
0.0
 10
1.0630433070866143
 20
0.659255905511811
 30
0.0
 10
1.070208661417323
 20
0.6941181102362205
 30
0.0
 10
1.070208661417323
 20
0.6941181102362205
 30
0.0
 10
1.0879645669291338
 20
0.6923543307086615
 30
0.0
 10
1.202263779527559
 20
0.6595196850393701
 30
0.0
 10
1.2399566929133858
 20
0.7008582677165355
 30
0.0
 10
1.2399566929133858
 20
0.7008582677165355
 30
0.0
 10
1.2418740157480315
 20
0.7029606299212599
 30
0.0
 10
1.243452755905512
 20
0.7050629921259843
 30
0.0
 10
1.2447834645669291
 20
0.7071653543307087
 30
0.0
 10
1.2447834645669291
 20
0.7071653543307087
 30
0.0
 10
1.2625354330708662
 20
0.6871023622047244
 30
0.0
 10
1.2858464566929135
 20
0.6709173228346457
 30
0.0
 10
1.2905787401574804
 20
0.6662047244094489
 30
0.0
 10
1.2905787401574804
 20
0.6662047244094489
 30
0.0
 10
1.2645708661417323
 20
0.635744094488189
 30
0.0
 10
1.2257480314960629
 20
0.5958779527559055
 30
0.0
 10
1.235232283464567
 20
0.5709645669291339
 30
0.0
 10
1.235232283464567
 20
0.5709645669291339
 30
0.0
 10
1.2594370078740158
 20
0.5073700787401575
 30
0.0
 10
1.3845866141732284
 20
0.6001889763779528
 30
0.0
 10
1.4643149606299213
 20
0.6660984251968505
 30
0.0
 10
1.4643149606299213
 20
0.6660984251968505
 30
0.0
 10
1.4164055118110237
 20
0.5744173228346456
 30
0.0
 10
1.3516141732283464
 20
0.4327165354330709
 30
0.0
 10
1.4188464566929135
 20
0.422251968503937
 30
0.0
 10
1.4188464566929135
 20
0.422251968503937
 30
0.0
 10
1.4451889763779528
 20
0.4181496062992126
 30
0.0
 10
1.4761181102362206
 20
0.4644094488188977
 30
0.0
 10
1.5005118110236222
 20
0.4961732283464567
 30
0.0
 10
1.5005118110236222
 20
0.4961732283464567
 30
0.0
 10
1.5103228346456694
 20
0.4897755905511811
 30
0.0
 10
1.566488188976378
 20
0.4348070866141732
 30
0.0
 10
1.60198031496063
 20
0.4501299212598425
 30
0.0
 10
1.60198031496063
 20
0.4501299212598425
 30
0.0
 10
1.6649724409448821
 20
0.4773228346456693
 30
0.0
 10
1.5137755905511812
 20
0.6128779527559055
 30
0.0
 10
1.4643188976377954
 20
0.6661023622047244
 30
0.0
 10
1.4643188976377954
 20
0.6661023622047244
 30
0.0
 10
1.5406023622047245
 20
0.636763779527559
 30
0.0
 10
1.6490944881889764
 20
0.6005314960629922
 30
0.0
 10
1.6926299212598426
 20
0.6201456692913386
 30
0.0
  0
SPLINE
  5
32
100
AcDbEntity
  8
Layer 1
370
    18
100
AcDbSpline
210
0.0
220
0.0
230
1.0
 70
     1
 71
     3
 72
    16
 73
    12
 74
     0
 42
0.0000000001
 43
0.0000000001
 40
0.0
 40
0.0
 40
0.0
 40
0.0
 40
0.3333333333333333
 40
0.3333333333333333
 40
0.3333333333333333
 40
0.3333333333333333
 40
0.6666666666666666
 40
0.6666666666666666
 40
0.6666666666666666
 40
0.6666666666666666
 40
1.0
 40
1.0
 40
1.0
 40
1.0
 10
1.6926299212598426
 20
0.2138070866141733
 30
0.0
 10
1.6926299212598426
 20
0.2138070866141733
 30
0.0
 10
1.6926299212598426
 20
0.0250157480314961
 30
0.0
 10
1.6926299212598426
 20
0.0250157480314961
 30
0.0
 10
1.6926299212598426
 20
0.0250157480314961
 30
0.0
 10
1.6469921259842519
 20
0.0748661417322835
 30
0.0
 10
1.4845905511811024
 20
0.1198464566929134
 30
0.0
 10
1.4181968503937008
 20
0.1442716535433071
 30
0.0
 10
1.4181968503937008
 20
0.1442716535433071
 30
0.0
 10
1.5139566929133859
 20
0.1541141732283465
 30
0.0
 10
1.6446889763779529
 20
0.1732007874015748
 30
0.0
 10
1.6926299212598426
 20
0.2138070866141733
 30
0.0
  0
SPLINE
  5
33
100
AcDbEntity
  8
Layer 1
370
    18
100
AcDbSpline
210
0.0
220
0.0
230
1.0
 70
     1
 71
     3
 72
    20
 73
    16
 74
     0
 42
0.0000000001
 43
0.0000000001
 40
0.0
 40
0.0
 40
0.0
 40
0.0
 40
0.25
 40
0.25
 40
0.25
 40
0.25
 40
0.5
 40
0.5
 40
0.5
 40
0.5
 40
0.75
 40
0.75
 40
0.75
 40
0.75
 40
1.0
 40
1.0
 40
1.0
 40
1.0
 10
1.6926299212598426
 20
-0.0246220472440945
 30
0.0
 10
1.6926299212598426
 20
-0.0246220472440945
 30
0.0
 10
1.6926299212598426
 20
-0.1468543307086614
 30
0.0
 10
1.6926299212598426
 20
-0.1468543307086614
 30
0.0
 10
1.6926299212598426
 20
-0.1468543307086614
 30
0.0
 10
1.6926299212598426
 20
-0.1468543307086614
 30
0.0
 10
1.5203464566929135
 20
-0.1468543307086614
 30
0.0
 10
1.5203464566929135
 20
-0.1468543307086614
 30
0.0
 10
1.5203464566929135
 20
-0.1468543307086614
 30
0.0
 10
1.5411732283464568
 20
-0.1236181102362205
 30
0.0
 10
1.5483267716535434
 20
-0.0680551181102362
 30
0.0
 10
1.5561181102362205
 20
-0.026496062992126
 30
0.0
 10
1.5561181102362205
 20
-0.026496062992126
 30
0.0
 10
1.5702283464566931
 20
-0.0280314960629921
 30
0.0
 10
1.6579370078740159
 20
-0.0555275590551181
 30
0.0
 10
1.6926299212598426
 20
-0.0246220472440945
 30
0.0
  0
SPLINE
  5
34
100
AcDbEntity
  8
Layer 1
370
    18
100
AcDbSpline
210
0.0
220
0.0
230
1.0
 70
     1
 71
     3
 72
    76
 73
    72
 74
     0
 42
0.0000000001
 43
0.0000000001
 40
0.0
 40
0.0
 40
0.0
 40
0.0
 40
0.0555555555555556
 40
0.0555555555555556
 40
0.0555555555555556
 40
0.0555555555555556
 40
0.1111111111111111
 40
0.1111111111111111
 40
0.1111111111111111
 40
0.1111111111111111
 40
0.1666666666666667
 40
0.1666666666666667
 40
0.1666666666666667
 40
0.1666666666666667
 40
0.2222222222222222
 40
0.2222222222222222
 40
0.2222222222222222
 40
0.2222222222222222
 40
0.2777777777777778
 40
0.2777777777777778
 40
0.2777777777777778
 40
0.2777777777777778
 40
0.3333333333333334
 40
0.3333333333333334
 40
0.3333333333333334
 40
0.3333333333333334
 40
0.388888888888889
 40
0.388888888888889
 40
0.388888888888889
 40
0.388888888888889
 40
0.4444444444444445
 40
0.4444444444444445
 40
0.4444444444444445
 40
0.4444444444444445
 40
0.5000000000000001
 40
0.5000000000000001
 40
0.5000000000000001
 40
0.5000000000000001
 40
0.5555555555555557
 40
0.5555555555555557
 40
0.5555555555555557
 40
0.5555555555555557
 40
0.6111111111111113
 40
0.6111111111111113
 40
0.6111111111111113
 40
0.6111111111111113
 40
0.6666666666666669
 40
0.6666666666666669
 40
0.6666666666666669
 40
0.6666666666666669
 40
0.7222222222222224
 40
0.7222222222222224
 40
0.7222222222222224
 40
0.7222222222222224
 40
0.777777777777778
 40
0.777777777777778
 40
0.777777777777778
 40
0.777777777777778
 40
0.8333333333333336
 40
0.8333333333333336
 40
0.8333333333333336
 40
0.8333333333333336
 40
0.8888888888888892
 40
0.8888888888888892
 40
0.8888888888888892
 40
0.8888888888888892
 40
0.9444444444444448
 40
0.9444444444444448
 40
0.9444444444444448
 40
0.9444444444444448
 40
1.0
 40
1.0
 40
1.0
 40
1.0
 10
1.4645275590551181
 20
-0.1468543307086614
 30
0.0
 10
1.4645275590551181
 20
-0.1468543307086614
 30
0.0
 10
0.8124133858267717
 20
-0.1468543307086614
 30
0.0
 10
0.8124133858267717
 20
-0.1468543307086614
 30
0.0
 10
0.8124133858267717
 20
-0.1468543307086614
 30
0.0
 10
0.8264645669291338
 20
-0.1328858267716536
 30
0.0
 10
0.8311102362204724
 20
-0.0964488188976378
 30
0.0
 10
0.8361850393700788
 20
-0.0693779527559055
 30
0.0
 10
0.8361850393700788
 20
-0.0693779527559055
 30
0.0
 10
0.8455157480314961
 20
-0.0703937007874016
 30
0.0
 10
0.9055669291338583
 20
-0.0893070866141732
 30
0.0
 10
0.9253661417322835
 20
-0.065496062992126
 30
0.0
 10
0.9253661417322835
 20
-0.065496062992126
 30
0.0
 10
0.9605157480314961
 20
-0.0232322834645669
 30
0.0
 10
0.8033582677165355
 20
0.0188031496062992
 30
0.0
 10
0.748732283464567
 20
0.0389015748031496
 30
0.0
 10
0.748732283464567
 20
0.0389015748031496
 30
0.0
 10
0.8146771653543308
 20
0.0456732283464567
 30
0.0
 10
0.9067716535433071
 20
0.0593661417322835
 30
0.0
 10
0.9293700787401575
 20
0.0899409448818898
 30
0.0
 10
0.9293700787401575
 20
0.0899409448818898
 30
0.0
 10
0.9391062992125985
 20
0.0823976377952756
 30
0.0
 10
0.9589251968503938
 20
0.0801377952755905
 30
0.0
 10
0.9623346456692914
 20
0.0791299212598425
 30
0.0
 10
0.9623346456692914
 20
0.0791299212598425
 30
0.0
 10
0.958748031496063
 20
0.0656023622047244
 30
0.0
 10
0.9524291338582678
 20
0.0471496062992126
 30
0.0
 10
0.9599488188976378
 20
0.0409173228346457
 30
0.0
 10
0.9599488188976378
 20
0.0409173228346457
 30
0.0
 10
0.9791299212598426
 20
0.0250196850393701
 30
0.0
 10
1.0056496062992126
 20
0.0734527559055118
 30
0.0
 10
1.0213740157480315
 20
0.1064094488188977
 30
0.0
 10
1.0213740157480315
 20
0.1064094488188977
 30
0.0
 10
1.0209015748031496
 20
0.0704724409448819
 30
0.0
 10
1.0233149606299212
 20
0.0163779527559055
 30
0.0
 10
1.0479566929133859
 20
0.0237047244094488
 30
0.0
 10
1.0479566929133859
 20
0.0237047244094488
 30
0.0
 10
1.0576141732283464
 20
0.0265787401574803
 30
0.0
 10
1.0601496062992126
 20
0.0457716535433071
 30
0.0
 10
1.0629606299212599
 20
0.0594488188976378
 30
0.0
 10
1.0629606299212599
 20
0.0594488188976378
 30
0.0
 10
1.0673937007874017
 20
0.059007874015748
 30
0.0
 10
1.0959488188976378
 20
0.0508070866141732
 30
0.0
 10
1.1053661417322835
 20
0.0611338582677165
 30
0.0
 10
1.1053661417322835
 20
0.0611338582677165
 30
0.0
 10
1.1220787401574803
 20
0.0794645669291339
 30
0.0
 10
1.0473503937007875
 20
0.0976929133858268
 30
0.0
 10
1.0213740157480315
 20
0.1064094488188977
 30
0.0
 10
1.0213740157480315
 20
0.1064094488188977
 30
0.0
 10
1.0455472440944882
 20
0.1086732283464567
 30
0.0
 10
1.0771023622047244
 20
0.1127244094488189
 30
0.0
 10
1.095224409448819
 20
0.1205314960629921
 30
0.0
 10
1.095224409448819
 20
0.1205314960629921
 30
0.0
 10
1.0949685039370078
 20
0.1167913385826772
 30
0.0
 10
1.0953818897637795
 20
0.112740157480315
 30
0.0
 10
1.0966102362204724
 20
0.1083228346456693
 30
0.0
 10
1.0966102362204724
 20
0.1083228346456693
 30
0.0
 10
1.1096968503937008
 20
0.0612677165354331
 30
0.0
 10
1.2083031496062993
 20
0.0496417322834646
 30
0.0
 10
1.2223818897637795
 20
0.0450708661417323
 30
0.0
 10
1.2223818897637795
 20
0.0450708661417323
 30
0.0
 10
1.210492125984252
 20
-0.0041141732283465
 30
0.0
 10
1.1895393700787402
 20
-0.0712283464566929
 30
0.0
 10
1.214468503937008
 20
-0.0938779527559055
 30
0.0
 10
1.214468503937008
 20
-0.0938779527559055
 30
0.0
 10
1.2780944881889764
 20
-0.1516929133858268
 30
0.0
 10
1.3660393700787401
 20
0.0244330708661417
 30
0.0
 10
1.4181929133858269
 20
0.1442716535433071
 30
0.0
 10
1.4181929133858269
 20
0.1442716535433071
 30
0.0
 10
1.4169488188976378
 20
0.0406338582677165
 30
0.0
 10
1.4217322834645669
 20
-0.104496062992126
 30
0.0
 10
1.4645275590551181
 20
-0.1468543307086614
 30
0.0
  0
SPLINE
  5
35
100
AcDbEntity
  8
Layer 1
370
    18
100
AcDbSpline
210
0.0
220
0.0
230
1.0
 70
     1
 71
     3
 72
   216
 73
   212
 74
     0
 42
0.0000000001
 43
0.0000000001
 40
0.0
 40
0.0
 40
0.0
 40
0.0
 40
0.0188679245283019
 40
0.0188679245283019
 40
0.0188679245283019
 40
0.0188679245283019
 40
0.0377358490566038
 40
0.0377358490566038
 40
0.0377358490566038
 40
0.0377358490566038
 40
0.0566037735849057
 40
0.0566037735849057
 40
0.0566037735849057
 40
0.0566037735849057
 40
0.0754716981132075
 40
0.0754716981132075
 40
0.0754716981132075
 40
0.0754716981132075
 40
0.0943396226415094
 40
0.0943396226415094
 40
0.0943396226415094
 40
0.0943396226415094
 40
0.1132075471698113
 40
0.1132075471698113
 40
0.1132075471698113
 40
0.1132075471698113
 40
0.1320754716981132
 40
0.1320754716981132
 40
0.1320754716981132
 40
0.1320754716981132
 40
0.1509433962264151
 40
0.1509433962264151
 40
0.1509433962264151
 40
0.1509433962264151
 40
0.169811320754717
 40
0.169811320754717
 40
0.169811320754717
 40
0.169811320754717
 40
0.1886792452830189
 40
0.1886792452830189
 40
0.1886792452830189
 40
0.1886792452830189
 40
0.2075471698113207
 40
0.2075471698113207
 40
0.2075471698113207
 40
0.2075471698113207
 40
0.2264150943396226
 40
0.2264150943396226
 40
0.2264150943396226
 40
0.2264150943396226
 40
0.2452830188679245
 40
0.2452830188679245
 40
0.2452830188679245
 40
0.2452830188679245
 40
0.2641509433962264
 40
0.2641509433962264
 40
0.2641509433962264
 40
0.2641509433962264
 40
0.2830188679245283
 40
0.2830188679245283
 40
0.2830188679245283
 40
0.2830188679245283
 40
0.3018867924528302
 40
0.3018867924528302
 40
0.3018867924528302
 40
0.3018867924528302
 40
0.3207547169811321
 40
0.3207547169811321
 40
0.3207547169811321
 40
0.3207547169811321
 40
0.3396226415094339
 40
0.3396226415094339
 40
0.3396226415094339
 40
0.3396226415094339
 40
0.3584905660377358
 40
0.3584905660377358
 40
0.3584905660377358
 40
0.3584905660377358
 40
0.3773584905660377
 40
0.3773584905660377
 40
0.3773584905660377
 40
0.3773584905660377
 40
0.3962264150943396
 40
0.3962264150943396
 40
0.3962264150943396
 40
0.3962264150943396
 40
0.4150943396226415
 40
0.4150943396226415
 40
0.4150943396226415
 40
0.4150943396226415
 40
0.4339622641509434
 40
0.4339622641509434
 40
0.4339622641509434
 40
0.4339622641509434
 40
0.4528301886792452
 40
0.4528301886792452
 40
0.4528301886792452
 40
0.4528301886792452
 40
0.4716981132075471
 40
0.4716981132075471
 40
0.4716981132075471
 40
0.4716981132075471
 40
0.490566037735849
 40
0.490566037735849
 40
0.490566037735849
 40
0.490566037735849
 40
0.5094339622641509
 40
0.5094339622641509
 40
0.5094339622641509
 40
0.5094339622641509
 40
0.5283018867924528
 40
0.5283018867924528
 40
0.5283018867924528
 40
0.5283018867924528
 40
0.5471698113207547
 40
0.5471698113207547
 40
0.5471698113207547
 40
0.5471698113207547
 40
0.5660377358490566
 40
0.5660377358490566
 40
0.5660377358490566
 40
0.5660377358490566
 40
0.5849056603773585
 40
0.5849056603773585
 40
0.5849056603773585
 40
0.5849056603773585
 40
0.6037735849056604
 40
0.6037735849056604
 40
0.6037735849056604
 40
0.6037735849056604
 40
0.6226415094339622
 40
0.6226415094339622
 40
0.6226415094339622
 40
0.6226415094339622
 40
0.6415094339622641
 40
0.6415094339622641
 40
0.6415094339622641
 40
0.6415094339622641
 40
0.660377358490566
 40
0.660377358490566
 40
0.660377358490566
 40
0.660377358490566
 40
0.6792452830188679
 40
0.6792452830188679
 40
0.6792452830188679
 40
0.6792452830188679
 40
0.6981132075471698
 40
0.6981132075471698
 40
0.6981132075471698
 40
0.6981132075471698
 40
0.7169811320754717
 40
0.7169811320754717
 40
0.7169811320754717
 40
0.7169811320754717
 40
0.7358490566037735
 40
0.7358490566037735
 40
0.7358490566037735
 40
0.7358490566037735
 40
0.7547169811320754
 40
0.7547169811320754
 40
0.7547169811320754
 40
0.7547169811320754
 40
0.7735849056603773
 40
0.7735849056603773
 40
0.7735849056603773
 40
0.7735849056603773
 40
0.7924528301886792
 40
0.7924528301886792
 40
0.7924528301886792
 40
0.7924528301886792
 40
0.8113207547169811
 40
0.8113207547169811
 40
0.8113207547169811
 40
0.8113207547169811
 40
0.830188679245283
 40
0.830188679245283
 40
0.830188679245283
 40
0.830188679245283
 40
0.8490566037735848
 40
0.8490566037735848
 40
0.8490566037735848
 40
0.8490566037735848
 40
0.8679245283018867
 40
0.8679245283018867
 40
0.8679245283018867
 40
0.8679245283018867
 40
0.8867924528301886
 40
0.8867924528301886
 40
0.8867924528301886
 40
0.8867924528301886
 40
0.9056603773584905
 40
0.9056603773584905
 40
0.9056603773584905
 40
0.9056603773584905
 40
0.9245283018867924
 40
0.9245283018867924
 40
0.9245283018867924
 40
0.9245283018867924
 40
0.9433962264150942
 40
0.9433962264150942
 40
0.9433962264150942
 40
0.9433962264150942
 40
0.9622641509433961
 40
0.9622641509433961
 40
0.9622641509433961
 40
0.9622641509433961
 40
0.981132075471698
 40
0.981132075471698
 40
0.981132075471698
 40
0.981132075471698
 40
1.0
 40
1.0
 40
1.0
 40
1.0
 10
0.7793503937007874
 20
-0.1468543307086614
 30
0.0
 10
0.7793503937007874
 20
-0.1468543307086614
 30
0.0
 10
0.3356181102362205
 20
-0.1468543307086614
 30
0.0
 10
0.3356181102362205
 20
-0.1468543307086614
 30
0.0
 10
0.3356181102362205
 20
-0.1468543307086614
 30
0.0
 10
0.3356181102362205
 20
-0.1468543307086614
 30
0.0
 10
0.3356181102362205
 20
0.0366377952755906
 30
0.0
 10
0.3356181102362205
 20
0.0366377952755906
 30
0.0
 10
0.3356181102362205
 20
0.0366377952755906
 30
0.0
 10
0.3449251968503937
 20
0.0317952755905512
 30
0.0
 10
0.357748031496063
 20
0.0301062992125984
 30
0.0
 10
0.3603070866141733
 20
0.0292716535433071
 30
0.0
 10
0.3603070866141733
 20
0.0292716535433071
 30
0.0
 10
0.3570669291338583
 20
0.0158700787401575
 30
0.0
 10
0.3513582677165354
 20
-0.0024173228346457
 30
0.0
 10
0.3581496062992126
 20
-0.0085905511811024
 30
0.0
 10
0.3581496062992126
 20
-0.0085905511811024
 30
0.0
 10
0.375488188976378
 20
-0.0243464566929134
 30
0.0
 10
0.3994566929133859
 20
0.0236496062992126
 30
0.0
 10
0.4136653543307087
 20
0.0563070866141732
 30
0.0
 10
0.4136653543307087
 20
0.0563070866141732
 30
0.0
 10
0.413240157480315
 20
0.0206929133858268
 30
0.0
 10
0.4154212598425197
 20
-0.0329094488188976
 30
0.0
 10
0.4376929133858268
 20
-0.0256456692913386
 30
0.0
 10
0.4376929133858268
 20
-0.0256456692913386
 30
0.0
 10
0.4464212598425197
 20
-0.0228031496062992
 30
0.0
 10
0.4487125984251968
 20
-0.0037834645669291
 30
0.0
 10
0.451251968503937
 20
0.0097716535433071
 30
0.0
 10
0.451251968503937
 20
0.0097716535433071
 30
0.0
 10
0.455259842519685
 20
0.0093346456692913
 30
0.0
 10
0.4810669291338583
 20
0.0012086614173228
 30
0.0
 10
0.4895787401574803
 20
0.0114409448818898
 30
0.0
 10
0.4895787401574803
 20
0.0114409448818898
 30
0.0
 10
0.5046850393700788
 20
0.0296023622047244
 30
0.0
 10
0.4371417322834646
 20
0.0476692913385827
 30
0.0
 10
0.4136653543307087
 20
0.0563070866141732
 30
0.0
 10
0.4136653543307087
 20
0.0563070866141732
 30
0.0
 10
0.4490944881889764
 20
0.0599448818897638
 30
0.0
 10
0.5020984251968504
 20
0.0682322834645669
 30
0.0
 10
0.4923425196850394
 20
0.0895314960629921
 30
0.0
 10
0.4923425196850394
 20
0.0895314960629921
 30
0.0
 10
0.4885196850393701
 20
0.0978740157480315
 30
0.0
 10
0.4693622047244095
 20
0.0979803149606299
 30
0.0
 10
0.4556062992125984
 20
0.0989566929133858
 30
0.0
 10
0.4556062992125984
 20
0.0989566929133858
 30
0.0
 10
0.4555826771653543
 20
0.102988188976378
 30
0.0
 10
0.4607125984251969
 20
0.1295551181102362
 30
0.0
 10
0.4495748031496063
 20
0.1368425196850394
 30
0.0
 10
0.4495748031496063
 20
0.1368425196850394
 30
0.0
 10
0.4298070866141732
 20
0.1497755905511811
 30
0.0
 10
0.4195669291338583
 20
0.0806141732283465
 30
0.0
 10
0.4136653543307087
 20
0.0563070866141732
 30
0.0
 10
0.4136653543307087
 20
0.0563070866141732
 30
0.0
 10
0.4125551181102363
 20
0.0812952755905512
 30
0.0
 10
0.4158188976377953
 20
0.1511338582677166
 30
0.0
 10
0.3939330708661418
 20
0.142248031496063
 30
0.0
 10
0.3939330708661418
 20
0.142248031496063
 30
0.0
 10
0.3815984251968504
 20
0.137244094488189
 30
0.0
 10
0.3815196850393701
 20
0.1101850393700787
 30
0.0
 10
0.3807204724409449
 20
0.1062322834645669
 30
0.0
 10
0.3807204724409449
 20
0.1062322834645669
 30
0.0
 10
0.3670354330708662
 20
0.1079212598425197
 30
0.0
 10
0.3482125984251969
 20
0.111507874015748
 30
0.0
 10
0.3428582677165354
 20
0.1040511811023622
 30
0.0
 10
0.3428582677165354
 20
0.1040511811023622
 30
0.0
 10
0.3291850393700788
 20
0.0850275590551181
 30
0.0
 10
0.3796023622047244
 20
0.0666968503937008
 30
0.0
 10
0.4136653543307087
 20
0.0563070866141732
 30
0.0
 10
0.4136653543307087
 20
0.0563070866141732
 30
0.0
 10
0.3956377952755906
 20
0.0575708661417323
 30
0.0
 10
0.3546102362204724
 20
0.0637716535433071
 30
0.0
 10
0.3356181102362205
 20
0.0585314960629921
 30
0.0
 10
0.3356181102362205
 20
0.0585314960629921
 30
0.0
 10
0.3356181102362205
 20
0.0585314960629921
 30
0.0
 10
0.3356181102362205
 20
1.1799055118110238
 30
0.0
 10
0.3356181102362205
 20
1.1799055118110238
 30
0.0
 10
0.3356181102362205
 20
1.1799055118110238
 30
0.0
 10
0.3433346456692913
 20
1.1874330708661418
 30
0.0
 10
0.3508385826771654
 20
1.1948307086614174
 30
0.0
 10
0.358003937007874
 20
1.2016968503937009
 30
0.0
 10
0.358003937007874
 20
1.2016968503937009
 30
0.0
 10
0.3723700787401575
 20
1.1906299212598426
 30
0.0
 10
0.451259842519685
 20
1.1003267716535434
 30
0.0
 10
0.510232283464567
 20
1.1168425196850393
 30
0.0
 10
0.510232283464567
 20
1.1168425196850393
 30
0.0
 10
0.612976377952756
 20
1.1456220472440946
 30
0.0
 10
0.4080669291338583
 20
1.3627795275590551
 30
0.0
 10
0.3356181102362205
 20
1.4526732283464567
 30
0.0
 10
0.3356181102362205
 20
1.4526732283464567
 30
0.0
 10
0.3356181102362205
 20
1.4526732283464567
 30
0.0
 10
0.3356181102362205
 20
1.4556968503937009
 30
0.0
 10
0.3356181102362205
 20
1.4556968503937009
 30
0.0
 10
0.3356181102362205
 20
1.4556968503937009
 30
0.0
 10
0.4783070866141733
 20
1.3866653543307088
 30
0.0
 10
0.6931417322834645
 20
1.2961062992125985
 30
0.0
 10
0.7186456692913387
 20
1.3835984251968505
 30
0.0
 10
0.7186456692913387
 20
1.3835984251968505
 30
0.0
 10
0.7283267716535433
 20
1.3743543307086614
 30
0.0
 10
0.738259842519685
 20
1.3673149606299213
 30
0.0
 10
0.7406692913385827
 20
1.3649133858267717
 30
0.0
 10
0.7406692913385827
 20
1.3649133858267717
 30
0.0
 10
0.7240236220472441
 20
1.3454133858267716
 30
0.0
 10
0.6991692913385827
 20
1.3198897637795277
 30
0.0
 10
0.705240157480315
 20
1.3039409448818897
 30
0.0
 10
0.705240157480315
 20
1.3039409448818897
 30
0.0
 10
0.720736220472441
 20
1.2632322834645671
 30
0.0
 10
0.8008543307086614
 20
1.3226496062992126
 30
0.0
 10
0.8518937007874016
 20
1.3648464566929135
 30
0.0
 10
0.8518937007874016
 20
1.3648464566929135
 30
0.0
 10
0.8278779527559056
 20
1.3188858267716537
 30
0.0
 10
0.797236220472441
 20
1.2532913385826772
 30
0.0
 10
0.805740157480315
 20
1.2237755905511811
 30
0.0
 10
0.805740157480315
 20
1.2237755905511811
 30
0.0
 10
0.7616771653543307
 20
1.1942598425196851
 30
0.0
 10
0.7611338582677165
 20
1.0986102362204724
 30
0.0
 10
0.7578346456692914
 20
1.083751968503937
 30
0.0
 10
0.7578346456692914
 20
1.083751968503937
 30
0.0
 10
0.6972244094488189
 20
1.0905748031496063
 30
0.0
 10
0.6138740157480315
 20
1.1050551181102362
 30
0.0
 10
0.5901456692913386
 20
1.0749488188976379
 30
0.0
 10
0.5901456692913386
 20
1.0749488188976379
 30
0.0
 10
0.5295944881889764
 20
0.9981062992125984
 30
0.0
 10
0.7528818897637796
 20
0.9240590551181103
 30
0.0
 10
0.903751968503937
 20
0.8820866141732284
 30
0.0
 10
0.903751968503937
 20
0.8820866141732284
 30
0.0
 10
0.793240157480315
 20
0.8891456692913387
 30
0.0
 10
0.4876062992125985
 20
0.9344488188976379
 30
0.0
 10
0.5156377952755906
 20
0.8425157480314961
 30
0.0
 10
0.5156377952755906
 20
0.8425157480314961
 30
0.0
 10
0.5314330708661418
 20
0.7907204724409449
 30
0.0
 10
0.6504409448818898
 20
0.7779212598425197
 30
0.0
 10
0.6674291338582677
 20
0.7728897637795276
 30
0.0
 10
0.6674291338582677
 20
0.7728897637795276
 30
0.0
 10
0.654976377952756
 20
0.7259015748031497
 30
0.0
 10
0.6342913385826772
 20
0.6640551181102362
 30
0.0
 10
0.6487125984251969
 20
0.632236220472441
 30
0.0
 10
0.6487125984251969
 20
0.632236220472441
 30
0.0
 10
0.6486614173228347
 20
0.632240157480315
 30
0.0
 10
0.6486181102362205
 20
0.632248031496063
 30
0.0
 10
0.6485669291338583
 20
0.6322559055118111
 30
0.0
 10
0.6485669291338583
 20
0.6322559055118111
 30
0.0
 10
0.615244094488189
 20
0.6350551181102363
 30
0.0
 10
0.5842992125984252
 20
0.5745157480314961
 30
0.0
 10
0.5780118110236221
 20
0.5665669291338583
 30
0.0
 10
0.5780118110236221
 20
0.5665669291338583
 30
0.0
 10
0.5492677165354331
 20
0.5859133858267717
 30
0.0
 10
0.5111692913385827
 20
0.6153425196850394
 30
0.0
 10
0.4906929133858268
 20
0.604732283464567
 30
0.0
 10
0.4906929133858268
 20
0.604732283464567
 30
0.0
 10
0.4384291338582677
 20
0.5776496062992126
 30
0.0
 10
0.5305590551181103
 20
0.479251968503937
 30
0.0
 10
0.5950787401574803
 20
0.417236220472441
 30
0.0
 10
0.5950787401574803
 20
0.417236220472441
 30
0.0
 10
0.5411535433070867
 20
0.4495236220472441
 30
0.0
 10
0.3992637795275591
 20
0.5531141732283464
 30
0.0
 10
0.3875748031496063
 20
0.4949173228346457
 30
0.0
 10
0.3875748031496063
 20
0.4949173228346457
 30
0.0
 10
0.3809842519685039
 20
0.4621299212598425
 30
0.0
 10
0.4375984251968504
 20
0.4244803149606299
 30
0.0
 10
0.4447755905511811
 20
0.4173267716535433
 30
0.0
 10
0.4447755905511811
 20
0.4173267716535433
 30
0.0
 10
0.4222755905511811
 20
0.3909763779527559
 30
0.0
 10
0.3886929133858268
 20
0.356488188976378
 30
0.0
 10
0.3968937007874016
 20
0.3349330708661418
 30
0.0
 10
0.3968937007874016
 20
0.3349330708661418
 30
0.0
 10
0.4178346456692914
 20
0.2799173228346457
 30
0.0
 10
0.5261062992125984
 20
0.3602165354330709
 30
0.0
 10
0.5950787401574803
 20
0.417236220472441
 30
0.0
 10
0.5950787401574803
 20
0.417236220472441
 30
0.0
 10
0.5536338582677166
 20
0.3379212598425197
 30
0.0
 10
0.4975787401574803
 20
0.2153307086614173
 30
0.0
 10
0.555744094488189
 20
0.2062755905511811
 30
0.0
 10
0.555744094488189
 20
0.2062755905511811
 30
0.0
 10
0.5785314960629922
 20
0.2027283464566929
 30
0.0
 10
0.6052913385826771
 20
0.242748031496063
 30
0.0
 10
0.6263937007874016
 20
0.2702283464566929
 30
0.0
 10
0.6263937007874016
 20
0.2702283464566929
 30
0.0
 10
0.6329409448818898
 20
0.2659606299212599
 30
0.0
 10
0.6633385826771654
 20
0.2367007874015748
 30
0.0
 10
0.690992125984252
 20
0.2296181102362205
 30
0.0
 10
0.690992125984252
 20
0.2296181102362205
 30
0.0
 10
0.6740196850393702
 20
0.208240157480315
 30
0.0
 10
0.6736299212598426
 20
0.1627755905511811
 30
0.0
 10
0.6720708661417323
 20
0.1550708661417323
 30
0.0
 10
0.6720708661417323
 20
0.1550708661417323
 30
0.0
 10
0.640224409448819
 20
0.159
 30
0.0
 10
0.5964330708661417
 20
0.1673385826771654
 30
0.0
 10
0.5839685039370079
 20
0.149996062992126
 30
0.0
 10
0.5839685039370079
 20
0.149996062992126
 30
0.0
 10
0.5521574803149607
 20
0.1057322834645669
 30
0.0
 10
0.6694685039370079
 20
0.0630787401574803
 30
0.0
 10
0.748732283464567
 20
0.0389015748031496
 30
0.0
 10
0.748732283464567
 20
0.0389015748031496
 30
0.0
 10
0.6906692913385827
 20
0.0429685039370079
 30
0.0
 10
0.5300944881889764
 20
0.0690629921259843
 30
0.0
 10
0.5448228346456693
 20
0.0161062992125984
 30
0.0
 10
0.5448228346456693
 20
0.0161062992125984
 30
0.0
 10
0.5531220472440945
 20
-0.0137322834645669
 30
0.0
 10
0.6156456692913386
 20
-0.0211023622047244
 30
0.0
 10
0.6245708661417323
 20
-0.024003937007874
 30
0.0
 10
0.6245708661417323
 20
-0.024003937007874
 30
0.0
 10
0.6170354330708662
 20
-0.0551889763779528
 30
0.0
 10
0.603748031496063
 20
-0.097744094488189
 30
0.0
 10
0.6195551181102362
 20
-0.1121062992125984
 30
0.0
 10
0.6195551181102362
 20
-0.1121062992125984
 30
0.0
 10
0.6598976377952757
 20
-0.1487637795275591
 30
0.0
 10
0.7156653543307087
 20
-0.0370905511811024
 30
0.0
 10
0.748732283464567
 20
0.0388976377952756
 30
0.0
 10
0.748732283464567
 20
0.0388976377952756
 30
0.0
 10
0.7479330708661418
 20
-0.0277992125984252
 30
0.0
 10
0.7510708661417324
 20
-0.1215984251968504
 30
0.0
 10
0.7793503937007874
 20
-0.1468543307086614
 30
0.0
  0
SPLINE
  5
36
100
AcDbEntity
  8
Layer 1
370
    18
100
AcDbSpline
210
0.0
220
0.0
230
1.0
 70
     1
 71
     3
 72
    20
 73
    16
 74
     0
 42
0.0000000001
 43
0.0000000001
 40
0.0
 40
0.0
 40
0.0
 40
0.0
 40
0.25
 40
0.25
 40
0.25
 40
0.25
 40
0.5
 40
0.5
 40
0.5
 40
0.5
 40
0.75
 40
0.75
 40
0.75
 40
0.75
 40
1.0
 40
1.0
 40
1.0
 40
1.0
 10
0.3356181102362205
 20
1.2105826771653543
 30
0.0
 10
0.3356181102362205
 20
1.2105826771653543
 30
0.0
 10
0.3356181102362205
 20
1.4218503937007874
 30
0.0
 10
0.3356181102362205
 20
1.4218503937007874
 30
0.0
 10
0.3356181102362205
 20
1.4218503937007874
 30
0.0
 10
0.3903976377952756
 20
1.3527519685039371
 30
0.0
 10
0.5585669291338583
 20
1.1838779527559056
 30
0.0
 10
0.4854212598425197
 20
1.1549212598425198
 30
0.0
 10
0.4854212598425197
 20
1.1549212598425198
 30
0.0
 10
0.4401496062992126
 20
1.137
 30
0.0
 10
0.3693976377952756
 20
1.2234055118110236
 30
0.0
 10
0.3579566929133858
 20
1.2322204724409449
 30
0.0
 10
0.3579566929133858
 20
1.2322204724409449
 30
0.0
 10
0.3511811023622047
 20
1.225728346456693
 30
0.0
 10
0.3436299212598425
 20
1.2182913385826772
 30
0.0
 10
0.3356181102362205
 20
1.2105826771653543
 30
0.0
  0
SPLINE
  5
37
100
AcDbEntity
  8
Layer 1
370
    18
100
AcDbSpline
210
0.0
220
0.0
230
1.0
 70
     1
 71
     3
 72
   120
 73
   116
 74
     0
 42
0.0000000001
 43
0.0000000001
 40
0.0
 40
0.0
 40
0.0
 40
0.0
 40
0.0344827586206897
 40
0.0344827586206897
 40
0.0344827586206897
 40
0.0344827586206897
 40
0.0689655172413793
 40
0.0689655172413793
 40
0.0689655172413793
 40
0.0689655172413793
 40
0.103448275862069
 40
0.103448275862069
 40
0.103448275862069
 40
0.103448275862069
 40
0.1379310344827586
 40
0.1379310344827586
 40
0.1379310344827586
 40
0.1379310344827586
 40
0.1724137931034483
 40
0.1724137931034483
 40
0.1724137931034483
 40
0.1724137931034483
 40
0.206896551724138
 40
0.206896551724138
 40
0.206896551724138
 40
0.206896551724138
 40
0.2413793103448276
 40
0.2413793103448276
 40
0.2413793103448276
 40
0.2413793103448276
 40
0.2758620689655173
 40
0.2758620689655173
 40
0.2758620689655173
 40
0.2758620689655173
 40
0.310344827586207
 40
0.310344827586207
 40
0.310344827586207
 40
0.310344827586207
 40
0.3448275862068966
 40
0.3448275862068966
 40
0.3448275862068966
 40
0.3448275862068966
 40
0.3793103448275863
 40
0.3793103448275863
 40
0.3793103448275863
 40
0.3793103448275863
 40
0.413793103448276
 40
0.413793103448276
 40
0.413793103448276
 40
0.413793103448276
 40
0.4482758620689656
 40
0.4482758620689656
 40
0.4482758620689656
 40
0.4482758620689656
 40
0.4827586206896553
 40
0.4827586206896553
 40
0.4827586206896553
 40
0.4827586206896553
 40
0.517241379310345
 40
0.517241379310345
 40
0.517241379310345
 40
0.517241379310345
 40
0.5517241379310346
 40
0.5517241379310346
 40
0.5517241379310346
 40
0.5517241379310346
 40
0.5862068965517242
 40
0.5862068965517242
 40
0.5862068965517242
 40
0.5862068965517242
 40
0.6206896551724138
 40
0.6206896551724138
 40
0.6206896551724138
 40
0.6206896551724138
 40
0.6551724137931034
 40
0.6551724137931034
 40
0.6551724137931034
 40
0.6551724137931034
 40
0.689655172413793
 40
0.689655172413793
 40
0.689655172413793
 40
0.689655172413793
 40
0.7241379310344827
 40
0.7241379310344827
 40
0.7241379310344827
 40
0.7241379310344827
 40
0.7586206896551723
 40
0.7586206896551723
 40
0.7586206896551723
 40
0.7586206896551723
 40
0.7931034482758619
 40
0.7931034482758619
 40
0.7931034482758619
 40
0.7931034482758619
 40
0.8275862068965515
 40
0.8275862068965515
 40
0.8275862068965515
 40
0.8275862068965515
 40
0.8620689655172411
 40
0.8620689655172411
 40
0.8620689655172411
 40
0.8620689655172411
 40
0.8965517241379307
 40
0.8965517241379307
 40
0.8965517241379307
 40
0.8965517241379307
 40
0.9310344827586203
 40
0.9310344827586203
 40
0.9310344827586203
 40
0.9310344827586203
 40
0.9655172413793099
 40
0.9655172413793099
 40
0.9655172413793099
 40
0.9655172413793099
 40
1.0
 40
1.0
 40
1.0
 40
1.0
 10
0.3356181102362205
 20
1.4610393700787403
 30
0.0
 10
0.3356181102362205
 20
1.4610393700787403
 30
0.0
 10
0.3356181102362205
 20
1.4636535433070867
 30
0.0
 10
0.3356181102362205
 20
1.4636535433070867
 30
0.0
 10
0.3356181102362205
 20
1.4636535433070867
 30
0.0
 10
0.3990787401574804
 20
1.559976377952756
 30
0.0
 10
0.579748031496063
 20
1.7929015748031496
 30
0.0
 10
0.4748228346456693
 20
1.8124960629921261
 30
0.0
 10
0.4748228346456693
 20
1.8124960629921261
 30
0.0
 10
0.4188031496062992
 20
1.82296062992126
 30
0.0
 10
0.3550629921259842
 20
1.7404133858267716
 30
0.0
 10
0.3356181102362205
 20
1.7186141732283464
 30
0.0
 10
0.3356181102362205
 20
1.7186141732283464
 30
0.0
 10
0.3356181102362205
 20
1.7186141732283464
 30
0.0
 10
0.3356181102362205
 20
2.2391181102362205
 30
0.0
 10
0.3356181102362205
 20
2.2391181102362205
 30
0.0
 10
0.3356181102362205
 20
2.2391181102362205
 30
0.0
 10
0.3740314960629921
 20
2.2282086614173231
 30
0.0
 10
0.4600669291338583
 20
2.2719330708661416
 30
0.0
 10
0.5198897637795276
 20
2.3057440944881891
 30
0.0
 10
0.5198897637795276
 20
2.3057440944881891
 30
0.0
 10
0.4676614173228347
 20
2.2383937007874017
 30
0.0
 10
0.3946259842519685
 20
2.1330866141732283
 30
0.0
 10
0.4490511811023622
 20
2.1158622047244093
 30
0.0
 10
0.4490511811023622
 20
2.1158622047244093
 30
0.0
 10
0.4703779527559056
 20
2.1091181102362206
 30
0.0
 10
0.5023425196850394
 20
2.1422125984251967
 30
0.0
 10
0.5269133858267717
 20
2.1645275590551183
 30
0.0
 10
0.5269133858267717
 20
2.1645275590551183
 30
0.0
 10
0.5341929133858268
 20
2.1581023622047244
 30
0.0
 10
0.5733937007874016
 20
2.1065905511811023
 30
0.0
 10
0.6049527559055118
 20
2.1142401574803151
 30
0.0
 10
0.6049527559055118
 20
2.1142401574803151
 30
0.0
 10
0.6609645669291339
 20
2.1278228346456696
 30
0.0
 10
0.5537559055118111
 20
2.2565157480314961
 30
0.0
 10
0.5198897637795276
 20
2.3057440944881891
 30
0.0
 10
0.5198897637795276
 20
2.3057440944881891
 30
0.0
 10
0.5848346456692913
 20
2.2690393700787403
 30
0.0
 10
0.6806535433070866
 20
2.2206653543307087
 30
0.0
 10
0.7129212598425198
 20
2.2431732283464569
 30
0.0
 10
0.7129212598425198
 20
2.2431732283464569
 30
0.0
 10
0.7362047244094488
 20
2.2014094488188976
 30
0.0
 10
0.7759330708661417
 20
2.1632874015748031
 30
0.0
 10
0.782996062992126
 20
2.1535078740157481
 30
0.0
 10
0.782996062992126
 20
2.1535078740157481
 30
0.0
 10
0.7326496062992126
 20
2.1109094488188975
 30
0.0
 10
0.658984251968504
 20
2.0564212598425198
 30
0.0
 10
0.6677834645669292
 20
2.0134133858267718
 30
0.0
 10
0.6677834645669292
 20
2.0134133858267718
 30
0.0
 10
0.6902480314960631
 20
1.9036496062992128
 30
0.0
 10
0.918255905511811
 20
2.0212834645669293
 30
0.0
 10
1.0653110236220473
 20
2.1072440944881889
 30
0.0
 10
1.0653110236220473
 20
2.1072440944881889
 30
0.0
 10
0.9721771653543307
 20
1.9830275590551183
 30
0.0
 10
0.8452598425196851
 20
1.7950314960629923
 30
0.0
 10
0.9041338582677165
 20
1.7363228346456694
 30
0.0
 10
0.9041338582677165
 20
1.7363228346456694
 30
0.0
 10
0.8903070866141732
 20
1.7283740157480316
 30
0.0
 10
0.8788937007874016
 20
1.7064291338582678
 30
0.0
 10
0.8761259842519685
 20
1.7029370078740158
 30
0.0
 10
0.8761259842519685
 20
1.7029370078740158
 30
0.0
 10
0.8602834645669292
 20
1.7135984251968504
 30
0.0
 10
0.8392834645669292
 20
1.7298188976377953
 30
0.0
 10
0.827996062992126
 20
1.723972440944882
 30
0.0
 10
0.827996062992126
 20
1.723972440944882
 30
0.0
 10
0.7991889763779528
 20
1.7090433070866142
 30
0.0
 10
0.8499724409448819
 20
1.6548070866141733
 30
0.0
 10
0.8855354330708661
 20
1.6206259842519686
 30
0.0
 10
0.8855354330708661
 20
1.6206259842519686
 30
0.0
 10
0.8558110236220473
 20
1.6384212598425199
 30
0.0
 10
0.7776023622047245
 20
1.6955196850393701
 30
0.0
 10
0.7711614173228347
 20
1.6634409448818899
 30
0.0
 10
0.7711614173228347
 20
1.6634409448818899
 30
0.0
 10
0.7675275590551182
 20
1.6453700787401575
 30
0.0
 10
0.7987322834645669
 20
1.6246181102362205
 30
0.0
 10
0.8026889763779528
 20
1.6206771653543308
 30
0.0
 10
0.8026889763779528
 20
1.6206771653543308
 30
0.0
 10
0.7902874015748032
 20
1.6061535433070866
 30
0.0
 10
0.7717755905511812
 20
1.5871417322834647
 30
0.0
 10
0.7762992125984253
 20
1.5752598425196851
 30
0.0
 10
0.7762992125984253
 20
1.5752598425196851
 30
0.0
 10
0.7878385826771653
 20
1.5449370078740159
 30
0.0
 10
0.8475157480314961
 20
1.5891968503937008
 30
0.0
 10
0.8855354330708661
 20
1.6206259842519686
 30
0.0
 10
0.8855354330708661
 20
1.6206259842519686
 30
0.0
 10
0.8636614173228346
 20
1.5787716535433072
 30
0.0
 10
0.8344212598425197
 20
1.5150669291338583
 30
0.0
 10
0.8600984251968504
 20
1.5053307086614174
 30
0.0
 10
0.8600984251968504
 20
1.5053307086614174
 30
0.0
 10
0.8495748031496063
 20
1.4929881889763781
 30
0.0
 10
0.8417716535433071
 20
1.47851968503937
 30
0.0
 10
0.8392677165354331
 20
1.4753503937007875
 30
0.0
 10
0.8392677165354331
 20
1.4753503937007875
 30
0.0
 10
0.817992125984252
 20
1.4896653543307088
 30
0.0
 10
0.7898031496062993
 20
1.5114448818897639
 30
0.0
 10
0.7746496062992127
 20
1.5035905511811025
 30
0.0
 10
0.7746496062992127
 20
1.5035905511811025
 30
0.0
 10
0.7359724409448819
 20
1.4835511811023623
 30
0.0
 10
0.8041496062992126
 20
1.410736220472441
 30
0.0
 10
0.8518937007874016
 20
1.3648464566929135
 30
0.0
 10
0.8518937007874016
 20
1.3648464566929135
 30
0.0
 10
0.8157834645669292
 20
1.3864685039370079
 30
0.0
 10
0.7263740157480315
 20
1.4512913385826771
 30
0.0
 10
0.7032874015748032
 20
1.4315078740157481
 30
0.0
 10
0.7032874015748032
 20
1.4315078740157481
 30
0.0
 10
0.6795196850393701
 20
1.4590984251968504
 30
0.0
 10
0.6359291338582678
 20
1.487224409448819
 30
0.0
 10
0.6024409448818898
 20
1.5111141732283466
 30
0.0
 10
0.6024409448818898
 20
1.5111141732283466
 30
0.0
 10
0.6126377952755906
 20
1.5256299212598425
 30
0.0
 10
0.700244094488189
 20
1.608720472440945
 30
0.0
 10
0.6758425196850394
 20
1.6612401574803151
 30
0.0
 10
0.6758425196850394
 20
1.6612401574803151
 30
0.0
 10
0.6331850393700788
 20
1.7530472440944882
 30
0.0
 10
0.423
 20
1.5374842519685039
 30
0.0
 10
0.3356181102362205
 20
1.4610393700787403
 30
0.0
  0
SPLINE
  5
38
100
AcDbEntity
  8
Layer 1
370
    18
100
AcDbSpline
210
0.0
220
0.0
230
1.0
 70
     1
 71
     3
 72
    16
 73
    12
 74
     0
 42
0.0000000001
 43
0.0000000001
 40
0.0
 40
0.0
 40
0.0
 40
0.0
 40
0.3333333333333333
 40
0.3333333333333333
 40
0.3333333333333333
 40
0.3333333333333333
 40
0.6666666666666666
 40
0.6666666666666666
 40
0.6666666666666666
 40
0.6666666666666666
 40
1.0
 40
1.0
 40
1.0
 40
1.0
 10
0.3356181102362205
 20
1.4991181102362205
 30
0.0
 10
0.3356181102362205
 20
1.4991181102362205
 30
0.0
 10
0.3356181102362205
 20
1.684964566929134
 30
0.0
 10
0.3356181102362205
 20
1.684964566929134
 30
0.0
 10
0.3356181102362205
 20
1.684964566929134
 30
0.0
 10
0.3478346456692913
 20
1.6976220472440946
 30
0.0
 10
0.4080078740157481
 20
1.7860236220472441
 30
0.0
 10
0.453988188976378
 20
1.7724173228346458
 30
0.0
 10
0.453988188976378
 20
1.7724173228346458
 30
0.0
 10
0.5279133858267717
 20
1.7505393700787402
 30
0.0
 10
0.3866574803149607
 20
1.5759409448818897
 30
0.0
 10
0.3356181102362205
 20
1.4991181102362205
 30
0.0
  0
SPLINE
  5
39
100
AcDbEntity
  8
Layer 1
370
    18
100
AcDbSpline
210
0.0
220
0.0
230
1.0
 70
     1
 71
     3
 72
    16
 73
    12
 74
     0
 42
0.0000000001
 43
0.0000000001
 40
0.0
 40
0.0
 40
0.0
 40
0.0
 40
0.3333333333333333
 40
0.3333333333333333
 40
0.3333333333333333
 40
0.3333333333333333
 40
0.6666666666666666
 40
0.6666666666666666
 40
0.6666666666666666
 40
0.6666666666666666
 40
1.0
 40
1.0
 40
1.0
 40
1.0
 10
0.3356181102362205
 20
2.2948661417322835
 30
0.0
 10
0.3356181102362205
 20
2.2948661417322835
 30
0.0
 10
0.3356181102362205
 20
2.3810314960629921
 30
0.0
 10
0.3356181102362205
 20
2.3810314960629921
 30
0.0
 10
0.3356181102362205
 20
2.3810314960629921
 30
0.0
 10
0.3461181102362205
 20
2.3574173228346456
 30
0.0
 10
0.3715118110236221
 20
2.3340708661417322
 30
0.0
 10
0.3755905511811024
 20
2.3286102362204724
 30
0.0
 10
0.3755905511811024
 20
2.3286102362204724
 30
0.0
 10
0.363007874015748
 20
2.3183149606299214
 30
0.0
 10
0.3475787401574803
 20
2.3066181102362204
 30
0.0
 10
0.3356181102362205
 20
2.2948661417322835
 30
0.0
  0
SPLINE
  5
3A
100
AcDbEntity
  8
Layer 1
370
    18
100
AcDbSpline
210
0.0
220
0.0
230
1.0
 70
     1
 71
     3
 72
   168
 73
   164
 74
     0
 42
0.0000000001
 43
0.0000000001
 40
0.0
 40
0.0
 40
0.0
 40
0.0
 40
0.024390243902439
 40
0.024390243902439
 40
0.024390243902439
 40
0.024390243902439
 40
0.0487804878048781
 40
0.0487804878048781
 40
0.0487804878048781
 40
0.0487804878048781
 40
0.0731707317073171
 40
0.0731707317073171
 40
0.0731707317073171
 40
0.0731707317073171
 40
0.0975609756097561
 40
0.0975609756097561
 40
0.0975609756097561
 40
0.0975609756097561
 40
0.1219512195121951
 40
0.1219512195121951
 40
0.1219512195121951
 40
0.1219512195121951
 40
0.1463414634146341
 40
0.1463414634146341
 40
0.1463414634146341
 40
0.1463414634146341
 40
0.1707317073170732
 40
0.1707317073170732
 40
0.1707317073170732
 40
0.1707317073170732
 40
0.1951219512195122
 40
0.1951219512195122
 40
0.1951219512195122
 40
0.1951219512195122
 40
0.2195121951219512
 40
0.2195121951219512
 40
0.2195121951219512
 40
0.2195121951219512
 40
0.2439024390243902
 40
0.2439024390243902
 40
0.2439024390243902
 40
0.2439024390243902
 40
0.2682926829268292
 40
0.2682926829268292
 40
0.2682926829268292
 40
0.2682926829268292
 40
0.2926829268292683
 40
0.2926829268292683
 40
0.2926829268292683
 40
0.2926829268292683
 40
0.3170731707317073
 40
0.3170731707317073
 40
0.3170731707317073
 40
0.3170731707317073
 40
0.3414634146341464
 40
0.3414634146341464
 40
0.3414634146341464
 40
0.3414634146341464
 40
0.3658536585365854
 40
0.3658536585365854
 40
0.3658536585365854
 40
0.3658536585365854
 40
0.3902439024390245
 40
0.3902439024390245
 40
0.3902439024390245
 40
0.3902439024390245
 40
0.4146341463414635
 40
0.4146341463414635
 40
0.4146341463414635
 40
0.4146341463414635
 40
0.4390243902439026
 40
0.4390243902439026
 40
0.4390243902439026
 40
0.4390243902439026
 40
0.4634146341463416
 40
0.4634146341463416
 40
0.4634146341463416
 40
0.4634146341463416
 40
0.4878048780487806
 40
0.4878048780487806
 40
0.4878048780487806
 40
0.4878048780487806
 40
0.5121951219512196
 40
0.5121951219512196
 40
0.5121951219512196
 40
0.5121951219512196
 40
0.5365853658536587
 40
0.5365853658536587
 40
0.5365853658536587
 40
0.5365853658536587
 40
0.5609756097560977
 40
0.5609756097560977
 40
0.5609756097560977
 40
0.5609756097560977
 40
0.5853658536585368
 40
0.5853658536585368
 40
0.5853658536585368
 40
0.5853658536585368
 40
0.6097560975609758
 40
0.6097560975609758
 40
0.6097560975609758
 40
0.6097560975609758
 40
0.6341463414634149
 40
0.6341463414634149
 40
0.6341463414634149
 40
0.6341463414634149
 40
0.6585365853658539
 40
0.6585365853658539
 40
0.6585365853658539
 40
0.6585365853658539
 40
0.682926829268293
 40
0.682926829268293
 40
0.682926829268293
 40
0.682926829268293
 40
0.707317073170732
 40
0.707317073170732
 40
0.707317073170732
 40
0.707317073170732
 40
0.7317073170731711
 40
0.7317073170731711
 40
0.7317073170731711
 40
0.7317073170731711
 40
0.7560975609756101
 40
0.7560975609756101
 40
0.7560975609756101
 40
0.7560975609756101
 40
0.7804878048780491
 40
0.7804878048780491
 40
0.7804878048780491
 40
0.7804878048780491
 40
0.8048780487804882
 40
0.8048780487804882
 40
0.8048780487804882
 40
0.8048780487804882
 40
0.8292682926829272
 40
0.8292682926829272
 40
0.8292682926829272
 40
0.8292682926829272
 40
0.8536585365853663
 40
0.8536585365853663
 40
0.8536585365853663
 40
0.8536585365853663
 40
0.8780487804878053
 40
0.8780487804878053
 40
0.8780487804878053
 40
0.8780487804878053
 40
0.9024390243902444
 40
0.9024390243902444
 40
0.9024390243902444
 40
0.9024390243902444
 40
0.9268292682926834
 40
0.9268292682926834
 40
0.9268292682926834
 40
0.9268292682926834
 40
0.9512195121951225
 40
0.9512195121951225
 40
0.9512195121951225
 40
0.9512195121951225
 40
0.9756097560975615
 40
0.9756097560975615
 40
0.9756097560975615
 40
0.9756097560975615
 40
1.0
 40
1.0
 40
1.0
 40
1.0
 10
0.3356181102362205
 20
2.4145590551181102
 30
0.0
 10
0.3356181102362205
 20
2.4145590551181102
 30
0.0
 10
0.3356181102362205
 20
2.88292125984252
 30
0.0
 10
0.3356181102362205
 20
2.88292125984252
 30
0.0
 10
0.3356181102362205
 20
2.88292125984252
 30
0.0
 10
0.3886181102362205
 20
2.8650078740157481
 30
0.0
 10
0.5112834645669292
 20
2.92942125984252
 30
0.0
 10
0.5962952755905512
 20
2.9791102362204724
 30
0.0
 10
0.5962952755905512
 20
2.9791102362204724
 30
0.0
 10
0.5229291338582678
 20
2.8812637795275591
 30
0.0
 10
0.4203385826771654
 20
2.7282755905511813
 30
0.0
 10
0.4967913385826772
 20
2.7032559055118113
 30
0.0
 10
0.4967913385826772
 20
2.7032559055118113
 30
0.0
 10
0.526748031496063
 20
2.6934527559055117
 30
0.0
 10
0.5716456692913386
 20
2.7415354330708661
 30
0.0
 10
0.6061574803149606
 20
2.7739527559055119
 30
0.0
 10
0.6061574803149606
 20
2.7739527559055119
 30
0.0
 10
0.6163858267716535
 20
2.7646181102362206
 30
0.0
 10
0.6714448818897638
 20
2.6897834645669292
 30
0.0
 10
0.7157755905511811
 20
2.7008976377952756
 30
0.0
 10
0.7157755905511811
 20
2.7008976377952756
 30
0.0
 10
0.7944566929133858
 20
2.7206299212598428
 30
0.0
 10
0.6438622047244095
 20
2.9075905511811024
 30
0.0
 10
0.5962952755905512
 20
2.9791102362204724
 30
0.0
 10
0.5962952755905512
 20
2.9791102362204724
 30
0.0
 10
0.7018740157480315
 20
2.9173937007874016
 30
0.0
 10
0.8655748031496063
 20
2.8329370078740159
 30
0.0
 10
0.8817047244094488
 20
2.9117440944881889
 30
0.0
 10
0.8817047244094488
 20
2.9117440944881889
 30
0.0
 10
0.8818425196850394
 20
2.912425196850394
 30
0.0
 10
0.8819448818897638
 20
2.9131141732283465
 30
0.0
 10
0.8820275590551181
 20
2.9138031496062995
 30
0.0
 10
0.8820275590551181
 20
2.9138031496062995
 30
0.0
 10
0.8820275590551181
 20
2.9138031496062995
 30
0.0
 10
0.8820236220472442
 20
2.9138110236220474
 30
0.0
 10
0.8820236220472442
 20
2.9138110236220474
 30
0.0
 10
0.8820236220472442
 20
2.9138110236220474
 30
0.0
 10
0.8911456692913387
 20
2.8982992125984253
 30
0.0
 10
0.9055708661417323
 20
2.8844133858267718
 30
0.0
 10
0.9082125984251969
 20
2.880755905511811
 30
0.0
 10
0.9082125984251969
 20
2.880755905511811
 30
0.0
 10
0.8886850393700788
 20
2.8642322834645668
 30
0.0
 10
0.8601141732283465
 20
2.8431023622047245
 30
0.0
 10
0.8635275590551181
 20
2.8264212598425198
 30
0.0
 10
0.8635275590551181
 20
2.8264212598425198
 30
0.0
 10
0.872240157480315
 20
2.7838503937007877
 30
0.0
 10
0.9606692913385827
 20
2.8294763779527559
 30
0.0
 10
1.0177007874015749
 20
2.8628110236220472
 30
0.0
 10
1.0177007874015749
 20
2.8628110236220472
 30
0.0
 10
0.9780708661417323
 20
2.8099566929133859
 30
0.0
 10
0.9226535433070866
 20
2.7273149606299212
 30
0.0
 10
0.9639527559055119
 20
2.7137992125984254
 30
0.0
 10
0.9639527559055119
 20
2.7137992125984254
 30
0.0
 10
0.9801338582677166
 20
2.7085039370078743
 30
0.0
 10
1.0043858267716537
 20
2.7344763779527561
 30
0.0
 10
1.0230275590551181
 20
2.751988188976378
 30
0.0
 10
1.0230275590551181
 20
2.751988188976378
 30
0.0
 10
1.0285551181102364
 20
2.7469448818897639
 30
0.0
 10
1.0582952755905513
 20
2.7065236220472442
 30
0.0
 10
1.082244094488189
 20
2.7125275590551183
 30
0.0
 10
1.082244094488189
 20
2.7125275590551183
 30
0.0
 10
1.124744094488189
 20
2.7231850393700787
 30
0.0
 10
1.0433976377952756
 20
2.8241771653543308
 30
0.0
 10
1.0177007874015749
 20
2.8628110236220472
 30
0.0
 10
1.0177007874015749
 20
2.8628110236220472
 30
0.0
 10
1.074732283464567
 20
2.8294763779527559
 30
0.0
 10
1.1631614173228346
 20
2.7838503937007877
 30
0.0
 10
1.1718740157480316
 20
2.8264212598425198
 30
0.0
 10
1.1718740157480316
 20
2.8264212598425198
 30
0.0
 10
1.172468503937008
 20
2.8293346456692916
 30
0.0
 10
1.1720905511811024
 20
2.8323818897637798
 30
0.0
 10
1.170952755905512
 20
2.8355157480314963
 30
0.0
 10
1.170952755905512
 20
2.8355157480314963
 30
0.0
 10
1.2086811023622048
 20
2.8198976377952758
 30
0.0
 10
1.3022755905511811
 20
2.8665236220472443
 30
0.0
 10
1.3666850393700789
 20
2.9023031496062992
 30
0.0
 10
1.3666850393700789
 20
2.9023031496062992
 30
0.0
 10
1.3123267716535434
 20
2.8334055118110237
 30
0.0
 10
1.2363149606299213
 20
2.7256771653543308
 30
0.0
 10
1.2929606299212599
 20
2.7080629921259844
 30
0.0
 10
1.2929606299212599
 20
2.7080629921259844
 30
0.0
 10
1.3151535433070867
 20
2.7011574803149609
 30
0.0
 10
1.3484212598425198
 20
2.7350157480314961
 30
0.0
 10
1.373992125984252
 20
2.7578425196850396
 30
0.0
 10
1.373992125984252
 20
2.7578425196850396
 30
0.0
 10
1.3761771653543307
 20
2.7559488188976378
 30
0.0
 10
1.3811220472440946
 20
2.7502204724409451
 30
0.0
 10
1.3878385826771653
 20
2.743220472440945
 30
0.0
 10
1.3878385826771653
 20
2.743220472440945
 30
0.0
 10
1.3854133858267716
 20
2.742484251968504
 30
0.0
 10
1.3829370078740157
 20
2.7412874015748034
 30
0.0
 10
1.3804094488188976
 20
2.7395866141732284
 30
0.0
 10
1.3804094488188976
 20
2.7395866141732284
 30
0.0
 10
1.3503228346456693
 20
2.7193188976377956
 30
0.0
 10
1.3652795275590552
 20
2.6471062992125987
 30
0.0
 10
1.3653622047244094
 20
2.6361141732283464
 30
0.0
 10
1.3653622047244094
 20
2.6361141732283464
 30
0.0
 10
1.3279133858267718
 20
2.6329448818897641
 30
0.0
 10
1.2757047244094488
 20
2.631956692913386
 30
0.0
 10
1.2655984251968504
 20
2.6090748031496065
 30
0.0
 10
1.2655984251968504
 20
2.6090748031496065
 30
0.0
 10
1.2397952755905512
 20
2.5506692913385827
 30
0.0
 10
1.3845433070866142
 20
2.5300433070866144
 30
0.0
 10
1.4812283464566929
 20
2.521425196850394
 30
0.0
 10
1.4812283464566929
 20
2.521425196850394
 30
0.0
 10
1.4270196850393702
 20
2.5139409448818899
 30
0.0
 10
1.2937125984251969
 20
2.5067992125984251
 30
0.0
 10
1.2585314960629921
 20
2.4747204724409451
 30
0.0
 10
1.2585314960629921
 20
2.4747204724409451
 30
0.0
 10
1.2538582677165355
 20
2.484433070866142
 30
0.0
 10
1.245224409448819
 20
2.4913622047244095
 30
0.0
 10
1.231728346456693
 20
2.4947480314960631
 30
0.0
 10
1.231728346456693
 20
2.4947480314960631
 30
0.0
 10
1.1699881889763779
 20
2.5102322834645672
 30
0.0
 10
1.0932952755905512
 20
2.4060000000000001
 30
0.0
 10
1.0790511811023622
 20
2.3929960629921259
 30
0.0
 10
1.0790511811023622
 20
2.3929960629921259
 30
0.0
 10
1.03098031496063
 20
2.4381496062992127
 30
0.0
 10
0.9684448818897639
 20
2.5051181102362206
 30
0.0
 10
0.9267204724409449
 20
2.491464566929134
 30
0.0
 10
0.9267204724409449
 20
2.491464566929134
 30
0.0
 10
0.8202362204724409
 20
2.4566181102362208
 30
0.0
 10
0.9631299212598425
 20
2.243527559055118
 30
0.0
 10
1.0653110236220473
 20
2.1072440944881889
 30
0.0
 10
1.0653110236220473
 20
2.1072440944881889
 30
0.0
 10
0.9739094488188976
 20
2.1844330708661417
 30
0.0
 10
0.7391456692913386
 20
2.4225393700787401
 30
0.0
 10
0.6993385826771654
 20
2.3168031496062995
 30
0.0
 10
0.6993385826771654
 20
2.3168031496062995
 30
0.0
 10
0.6975826771653544
 20
2.3121377952755906
 30
0.0
 10
0.6965433070866142
 20
2.3073031496062995
 30
0.0
 10
0.6961299212598425
 20
2.3023385826771654
 30
0.0
 10
0.6961299212598425
 20
2.3023385826771654
 30
0.0
 10
0.6857716535433072
 20
2.3115236220472442
 30
0.0
 10
0.6740984251968504
 20
2.3205039370078739
 30
0.0
 10
0.6641929133858268
 20
2.3286102362204724
 30
0.0
 10
0.6641929133858268
 20
2.3286102362204724
 30
0.0
 10
0.6699645669291339
 20
2.3363385826771657
 30
0.0
 10
0.7184173228346457
 20
2.3798700787401574
 30
0.0
 10
0.7069527559055119
 20
2.4093110236220472
 30
0.0
 10
0.7069527559055119
 20
2.4093110236220472
 30
0.0
 10
0.6866023622047245
 20
2.4615629921259843
 30
0.0
 10
0.5666102362204725
 20
2.3438937007874014
 30
0.0
 10
0.5198897637795276
 20
2.3057440944881891
 30
0.0
 10
0.5198897637795276
 20
2.3057440944881891
 30
0.0
 10
0.5537559055118111
 20
2.354972440944882
 30
0.0
 10
0.6609645669291339
 20
2.4836653543307086
 30
0.0
 10
0.6049527559055118
 20
2.497248031496063
 30
0.0
 10
0.6049527559055118
 20
2.497248031496063
 30
0.0
 10
0.5733937007874016
 20
2.5049015748031498
 30
0.0
 10
0.5341929133858268
 20
2.4533897637795277
 30
0.0
 10
0.5269133858267717
 20
2.4469645669291338
 30
0.0
 10
0.5269133858267717
 20
2.4469645669291338
 30
0.0
 10
0.5023425196850394
 20
2.4692795275590553
 30
0.0
 10
0.4703779527559056
 20
2.5023740157480314
 30
0.0
 10
0.4490511811023622
 20
2.4956259842519688
 30
0.0
 10
0.4490511811023622
 20
2.4956259842519688
 30
0.0
 10
0.3946259842519685
 20
2.4784055118110238
 30
0.0
 10
0.4676614173228347
 20
2.3730944881889764
 30
0.0
 10
0.5198897637795276
 20
2.3057440944881891
 30
0.0
 10
0.5198897637795276
 20
2.3057440944881891
 30
0.0
 10
0.4749645669291339
 20
2.3424291338582677
 30
0.0
 10
0.3622952755905512
 20
2.4526220472440947
 30
0.0
 10
0.3356181102362205
 20
2.4145590551181102
 30
0.0
  0
SPLINE
  5
3B
100
AcDbEntity
  8
Layer 1
370
    18
100
AcDbSpline
210
0.0
220
0.0
230
1.0
 70
     1
 71
     3
 72
    16
 73
    12
 74
     0
 42
0.0000000001
 43
0.0000000001
 40
0.0
 40
0.0
 40
0.0
 40
0.0
 40
0.3333333333333333
 40
0.3333333333333333
 40
0.3333333333333333
 40
0.3333333333333333
 40
0.6666666666666666
 40
0.6666666666666666
 40
0.6666666666666666
 40
0.6666666666666666
 40
1.0
 40
1.0
 40
1.0
 40
1.0
 10
0.3356181102362205
 20
2.9614173228346456
 30
0.0
 10
0.3356181102362205
 20
2.9614173228346456
 30
0.0
 10
0.3356181102362205
 20
3.0930629921259842
 30
0.0
 10
0.3356181102362205
 20
3.0930629921259842
 30
0.0
 10
0.3356181102362205
 20
3.0930629921259842
 30
0.0
 10
0.3489724409448819
 20
3.0572440944881891
 30
0.0
 10
0.3876181102362205
 20
3.0206141732283465
 30
0.0
 10
0.3936023622047244
 20
3.0123267716535436
 30
0.0
 10
0.3936023622047244
 20
3.0123267716535436
 30
0.0
 10
0.3752795275590551
 20
2.9968228346456693
 30
0.0
 10
0.3526535433070867
 20
2.9791220472440947
 30
0.0
 10
0.3356181102362205
 20
2.9614173228346456
 30
0.0
  0
SPLINE
  5
3C
100
AcDbEntity
  8
Layer 1
370
    18
100
AcDbSpline
210
0.0
220
0.0
230
1.0
 70
     1
 71
     3
 72
    20
 73
    16
 74
     0
 42
0.0000000001
 43
0.0000000001
 40
0.0
 40
0.0
 40
0.0
 40
0.0
 40
0.25
 40
0.25
 40
0.25
 40
0.25
 40
0.5
 40
0.5
 40
0.5
 40
0.5
 40
0.75
 40
0.75
 40
0.75
 40
0.75
 40
1.0
 40
1.0
 40
1.0
 40
1.0
 10
1.3572874015748031
 20
2.3349645669291341
 30
0.0
 10
1.3503661417322834
 20
2.3568425196850393
 30
0.0
 10
1.353240157480315
 20
2.391968503937008
 30
0.0
 10
1.3540629921259844
 20
2.4194055118110236
 30
0.0
 10
1.3540629921259844
 20
2.4194055118110236
 30
0.0
 10
1.3444409448818899
 20
2.4204409448818898
 30
0.0
 10
1.2863385826771654
 20
2.4154370078740159
 30
0.0
 10
1.2611968503937008
 20
2.4362204724409451
 30
0.0
 10
1.2611968503937008
 20
2.4362204724409451
 30
0.0
 10
1.2450236220472441
 20
2.3466299212598427
 30
0.0
 10
1.1149291338582679
 20
2.1818464566929134
 30
0.0
 10
1.0653110236220473
 20
2.1072440944881889
 30
0.0
 10
1.0653110236220473
 20
2.1072440944881889
 30
0.0
 10
1.1305944881889765
 20
2.1623779527559055
 30
0.0
 10
1.2690039370078741
 20
2.2995708661417322
 30
0.0
 10
1.3572874015748031
 20
2.3349645669291341
 30
0.0
  0
SPLINE
  5
3D
100
AcDbEntity
  8
Layer 1
370
    18
100
AcDbSpline
210
0.0
220
0.0
230
1.0
 70
     1
 71
     3
 72
    20
 73
    16
 74
     0
 42
0.0000000001
 43
0.0000000001
 40
0.0
 40
0.0
 40
0.0
 40
0.0
 40
0.25
 40
0.25
 40
0.25
 40
0.25
 40
0.5
 40
0.5
 40
0.5
 40
0.5
 40
0.75
 40
0.75
 40
0.75
 40
0.75
 40
1.0
 40
1.0
 40
1.0
 40
1.0
 10
1.5797755905511812
 20
2.343228346456693
 30
0.0
 10
1.5978976377952756
 20
2.3516811023622046
 30
0.0
 10
1.5944291338582677
 20
2.402031496062992
 30
0.0
 10
1.5937755905511812
 20
2.431968503937008
 30
0.0
 10
1.5937755905511812
 20
2.431968503937008
 30
0.0
 10
1.602488188976378
 20
2.4328307086614176
 30
0.0
 10
1.6707519685039371
 20
2.4239488188976379
 30
0.0
 10
1.6814094488188978
 20
2.4509015748031495
 30
0.0
 10
1.6814094488188978
 20
2.4509015748031495
 30
0.0
 10
1.6986417322834646
 20
2.4944842519685042
 30
0.0
 10
1.5526102362204726
 20
2.4992913385826774
 30
0.0
 10
1.4988661417322835
 20
2.5071574803149606
 30
0.0
 10
1.4988661417322835
 20
2.5071574803149606
 30
0.0
 10
1.5210629921259844
 20
2.4271574803149609
 30
0.0
 10
1.5450433070866143
 20
2.3199566929133861
 30
0.0
 10
1.5797755905511812
 20
2.343228346456693
 30
0.0
  0
SPLINE
  5
3E
100
AcDbEntity
  8
Layer 1
370
    18
100
AcDbSpline
210
0.0
220
0.0
230
1.0
 70
     1
 71
     3
 72
    20
 73
    16
 74
     0
 42
0.0000000001
 43
0.0000000001
 40
0.0
 40
0.0
 40
0.0
 40
0.0
 40
0.25
 40
0.25
 40
0.25
 40
0.25
 40
0.5
 40
0.5
 40
0.5
 40
0.5
 40
0.75
 40
0.75
 40
0.75
 40
0.75
 40
1.0
 40
1.0
 40
1.0
 40
1.0
 10
1.2935787401574803
 20
2.6005118110236221
 30
0.0
 10
1.3000629921259843
 20
2.6194251968503939
 30
0.0
 10
1.3504960629921261
 20
2.6213228346456692
 30
0.0
 10
1.3803346456692913
 20
2.6238464566929136
 30
0.0
 10
1.3803346456692913
 20
2.6238464566929136
 30
0.0
 10
1.3802677165354331
 20
2.6326023622047243
 30
0.0
 10
1.3641929133858268
 20
2.6995354330708663
 30
0.0
 10
1.3898622047244096
 20
2.7129921259842522
 30
0.0
 10
1.3898622047244096
 20
2.7129921259842522
 30
0.0
 10
1.4313700787401575
 20
2.7347519685039372
 30
0.0
 10
1.4516456692913386
 20
2.5900551181102363
 30
0.0
 10
1.4651692913385828
 20
2.5374488188976381
 30
0.0
 10
1.4651692913385828
 20
2.5374488188976381
 30
0.0
 10
1.3832677165354332
 20
2.5510314960629921
 30
0.0
 10
1.2741259842519685
 20
2.5635039370078743
 30
0.0
 10
1.2935787401574803
 20
2.6005118110236221
 30
0.0
  0
SPLINE
  5
3F
100
AcDbEntity
  8
Layer 1
370
    18
100
AcDbSpline
210
0.0
220
0.0
230
1.0
 70
     1
 71
     3
 72
    20
 73
    16
 74
     0
 42
0.0000000001
 43
0.0000000001
 40
0.0
 40
0.0
 40
0.0
 40
0.0
 40
0.25
 40
0.25
 40
0.25
 40
0.25
 40
0.5
 40
0.5
 40
0.5
 40
0.5
 40
0.75
 40
0.75
 40
0.75
 40
0.75
 40
1.0
 40
1.0
 40
1.0
 40
1.0
 10
1.6470157480314962
 20
2.6396692913385826
 30
0.0
 10
1.6365511811023623
 20
2.6567047244094488
 30
0.0
 10
1.5869212598425197
 20
2.6475157480314961
 30
0.0
 10
1.5572598425196851
 20
2.6434488188976379
 30
0.0
 10
1.5572598425196851
 20
2.6434488188976379
 30
0.0
 10
1.5554055118110237
 20
2.652007874015748
 30
0.0
 10
1.5564370078740157
 20
2.7208346456692913
 30
0.0
 10
1.5284448818897638
 20
2.7283464566929134
 30
0.0
 10
1.5284448818897638
 20
2.7283464566929134
 30
0.0
 10
1.4831811023622048
 20
2.7404921259842521
 30
0.0
 10
1.4950708661417322
 20
2.5948661417322834
 30
0.0
 10
1.4933937007874016
 20
2.5405748031496063
 30
0.0
 10
1.4933937007874016
 20
2.5405748031496063
 30
0.0
 10
1.5703346456692915
 20
2.5717598425196853
 30
0.0
 10
1.6740984251968505
 20
2.6078188976377952
 30
0.0
 10
1.6470157480314962
 20
2.6396692913385826
 30
0.0
  0
SPLINE
  5
40
100
AcDbEntity
  8
Layer 1
370
    18
100
AcDbSpline
210
0.0
220
0.0
230
1.0
 70
     1
 71
     3
 72
    28
 73
    24
 74
     0
 42
0.0000000001
 43
0.0000000001
 40
0.0
 40
0.0
 40
0.0
 40
0.0
 40
0.1666666666666667
 40
0.1666666666666667
 40
0.1666666666666667
 40
0.1666666666666667
 40
0.3333333333333333
 40
0.3333333333333333
 40
0.3333333333333333
 40
0.3333333333333333
 40
0.5
 40
0.5
 40
0.5
 40
0.5
 40
0.6666666666666666
 40
0.6666666666666666
 40
0.6666666666666666
 40
0.6666666666666666
 40
0.8333333333333333
 40
0.8333333333333333
 40
0.8333333333333333
 40
0.8333333333333333
 40
1.0
 40
1.0
 40
1.0
 40
1.0
 10
1.381244094488189
 20
2.3440314960629922
 30
0.0
 10
1.3631929133858269
 20
2.3526299212598425
 30
0.0
 10
1.3670669291338584
 20
2.4029527559055119
 30
0.0
 10
1.3679645669291338
 20
2.4328818897637796
 30
0.0
 10
1.3679645669291338
 20
2.4328818897637796
 30
0.0
 10
1.359255905511811
 20
2.4338149606299213
 30
0.0
 10
1.2909251968503936
 20
2.4254842519685038
 30
0.0
 10
1.280484251968504
 20
2.4525236220472442
 30
0.0
 10
1.280484251968504
 20
2.4525236220472442
 30
0.0
 10
1.2636062992125985
 20
2.4962440944881892
 30
0.0
 10
1.4096732283464568
 20
2.4998700787401575
 30
0.0
 10
1.463476377952756
 20
2.5072992125984253
 30
0.0
 10
1.463476377952756
 20
2.5072992125984253
 30
0.0
 10
1.4447637795275592
 20
2.4419173228346458
 30
0.0
 10
1.4247047244094488
 20
2.3583070866141731
 30
0.0
 10
1.3990748031496063
 20
2.3431456692913386
 30
0.0
 10
1.3990748031496063
 20
2.3431456692913386
 30
0.0
 10
1.3943110236220473
 20
2.3436377952755905
 30
0.0
 10
1.3891653543307088
 20
2.3434133858267718
 30
0.0
 10
1.3837007874015748
 20
2.3425866141732286
 30
0.0
 10
1.3837007874015748
 20
2.3425866141732286
 30
0.0
 10
1.3828858267716535
 20
2.343
 30
0.0
 10
1.3820669291338583
 20
2.3434685039370078
 30
0.0
 10
1.381244094488189
 20
2.3440314960629922
 30
0.0
  0
SPLINE
  5
41
100
AcDbEntity
  8
Layer 1
370
    18
100
AcDbSpline
210
0.0
220
0.0
230
1.0
 70
     1
 71
     3
 72
    20
 73
    16
 74
     0
 42
0.0000000001
 43
0.0000000001
 40
0.0
 40
0.0
 40
0.0
 40
0.0
 40
0.25
 40
0.25
 40
0.25
 40
0.25
 40
0.5
 40
0.5
 40
0.5
 40
0.5
 40
0.75
 40
0.75
 40
0.75
 40
0.75
 40
1.0
 40
1.0
 40
1.0
 40
1.0
 10
1.4272716535433072
 20
0.4522795275590552
 30
0.0
 10
1.4479645669291339
 20
0.4472086614173229
 30
0.0
 10
1.4786889763779527
 20
0.4913543307086614
 30
0.0
 10
1.4981220472440946
 20
0.5166653543307087
 30
0.0
 10
1.4981220472440946
 20
0.5166653543307087
 30
0.0
 10
1.5059370078740157
 20
0.5115669291338583
 30
0.0
 10
1.556728346456693
 20
0.4586299212598425
 30
0.0
 10
1.5835669291338583
 20
0.4739133858267717
 30
0.0
 10
1.5835669291338583
 20
0.4739133858267717
 30
0.0
 10
1.6269685039370079
 20
0.4986220472440945
 30
0.0
 10
1.5088503937007876
 20
0.6000708661417323
 30
0.0
 10
1.4694488188976378
 20
0.6424763779527559
 30
0.0
 10
1.4694488188976378
 20
0.6424763779527559
 30
0.0
 10
1.4345000000000001
 20
0.5611968503937008
 30
0.0
 10
1.3828818897637796
 20
0.4561220472440945
 30
0.0
 10
1.4272716535433072
 20
0.4522795275590552
 30
0.0
  0
SPLINE
  5
42
100
AcDbEntity
  8
Layer 1
370
    18
100
AcDbSpline
210
0.0
220
0.0
230
1.0
 70
     1
 71
     3
 72
    20
 73
    16
 74
     0
 42
0.0000000001
 43
0.0000000001
 40
0.0
 40
0.0
 40
0.0
 40
0.0
 40
0.25
 40
0.25
 40
0.25
 40
0.25
 40
0.5
 40
0.5
 40
0.5
 40
0.5
 40
0.75
 40
0.75
 40
0.75
 40
0.75
 40
1.0
 40
1.0
 40
1.0
 40
1.0
 10
1.3611889763779528
 20
0.8570393700787402
 30
0.0
 10
1.3791968503937009
 20
0.8684251968503938
 30
0.0
 10
1.4223661417322835
 20
0.8363425196850394
 30
0.0
 10
1.4488385826771655
 20
0.8185275590551181
 30
0.0
 10
1.4488385826771655
 20
0.8185275590551181
 30
0.0
 10
1.4546299212598426
 20
0.8258503937007874
 30
0.0
 10
1.4859448818897638
 20
0.8921889763779528
 30
0.0
 10
1.5162519685039371
 20
0.886236220472441
 30
0.0
 10
1.5162519685039371
 20
0.886236220472441
 30
0.0
 10
1.5652598425196851
 20
0.8766141732283465
 30
0.0
 10
1.4855393700787403
 20
0.7428622047244095
 30
0.0
 10
1.4616653543307088
 20
0.6901299212598425
 30
0.0
 10
1.4616653543307088
 20
0.6901299212598425
 30
0.0
 10
1.4026850393700787
 20
0.7560748031496063
 30
0.0
 10
1.3203307086614173
 20
0.8392755905511812
 30
0.0
 10
1.3611889763779528
 20
0.8570393700787402
 30
0.0
  0
SPLINE
  5
43
100
AcDbEntity
  8
Layer 1
370
    18
100
AcDbSpline
210
0.0
220
0.0
230
1.0
 70
     1
 71
     3
 72
    20
 73
    16
 74
     0
 42
0.0000000001
 43
0.0000000001
 40
0.0
 40
0.0
 40
0.0
 40
0.0
 40
0.25
 40
0.25
 40
0.25
 40
0.25
 40
0.5
 40
0.5
 40
0.5
 40
0.5
 40
0.75
 40
0.75
 40
0.75
 40
0.75
 40
1.0
 40
1.0
 40
1.0
 40
1.0
 10
1.6809685039370079
 20
0.6537007874015748
 30
0.0
 10
1.6836456692913386
 20
0.6748425196850394
 30
0.0
 10
1.6362795275590551
 20
0.7003228346456694
 30
0.0
 10
1.6089173228346458
 20
0.7167401574803149
 30
0.0
 10
1.6089173228346458
 20
0.7167401574803149
 30
0.0
 10
1.6130905511811024
 20
0.7250905511811024
 30
0.0
 10
1.6598818897637795
 20
0.7815866141732284
 30
0.0
 10
1.6416377952755905
 20
0.8065078740157481
 30
0.0
 10
1.6416377952755905
 20
0.8065078740157481
 30
0.0
 10
1.6121338582677165
 20
0.8468070866141733
 30
0.0
 10
1.5248307086614175
 20
0.7178779527559055
 30
0.0
 10
1.4872007874015749
 20
0.6738937007874016
 30
0.0
 10
1.4872007874015749
 20
0.6738937007874016
 30
0.0
 10
1.5719409448818897
 20
0.6484527559055119
 30
0.0
 10
1.6822165354330709
 20
0.6091653543307087
 30
0.0
 10
1.6809685039370079
 20
0.6537007874015748
 30
0.0
  0
SPLINE
  5
44
100
AcDbEntity
  8
Layer 1
370
    18
100
AcDbSpline
210
0.0
220
0.0
230
1.0
 70
     1
 71
     3
 72
    20
 73
    16
 74
     0
 42
0.0000000001
 43
0.0000000001
 40
0.0
 40
0.0
 40
0.0
 40
0.0
 40
0.25
 40
0.25
 40
0.25
 40
0.25
 40
0.5
 40
0.5
 40
0.5
 40
0.5
 40
0.75
 40
0.75
 40
0.75
 40
0.75
 40
1.0
 40
1.0
 40
1.0
 40
1.0
 10
1.2628543307086615
 20
0.5854409448818898
 30
0.0
 10
1.2535984251968504
 20
0.6046299212598425
 30
0.0
 10
1.2903976377952757
 20
0.6438543307086615
 30
0.0
 10
1.3111181102362206
 20
0.6681220472440945
 30
0.0
 10
1.3111181102362206
 20
0.6681220472440945
 30
0.0
 10
1.3045078740157481
 20
0.6747086614173229
 30
0.0
 10
1.2421771653543308
 20
0.7133937007874016
 30
0.0
 10
1.2515472440944881
 20
0.7428228346456693
 30
0.0
 10
1.2515472440944881
 20
0.7428228346456693
 30
0.0
 10
1.2667007874015748
 20
0.7904133858267717
 30
0.0
 10
1.390476377952756
 20
0.6959448818897638
 30
0.0
 10
1.4401417322834646
 20
0.6662125984251969
 30
0.0
 10
1.4401417322834646
 20
0.6662125984251969
 30
0.0
 10
1.3678937007874017
 20
0.6151417322834646
 30
0.0
 10
1.2758385826771654
 20
0.5428188976377953
 30
0.0
 10
1.2628543307086615
 20
0.5854409448818898
 30
0.0
  0
SPLINE
  5
45
100
AcDbEntity
  8
Layer 1
370
    18
100
AcDbSpline
210
0.0
220
0.0
230
1.0
 70
     1
 71
     3
 72
    20
 73
    16
 74
     0
 42
0.0000000001
 43
0.0000000001
 40
0.0
 40
0.0
 40
0.0
 40
0.0
 40
0.25
 40
0.25
 40
0.25
 40
0.25
 40
0.5
 40
0.5
 40
0.5
 40
0.5
 40
0.75
 40
0.75
 40
0.75
 40
0.75
 40
1.0
 40
1.0
 40
1.0
 40
1.0
 10
1.4223503937007875
 20
1.6110236220472443
 30
0.0
 10
1.4155275590551182
 20
1.6416456692913386
 30
0.0
 10
1.4748700787401576
 20
1.6871181102362205
 30
0.0
 10
1.5088897637795275
 20
1.7158818897637795
 30
0.0
 10
1.5088897637795275
 20
1.7158818897637795
 30
0.0
 10
1.5020354330708663
 20
1.7274488188976378
 30
0.0
 10
1.4308543307086614
 20
1.8025826771653544
 30
0.0
 10
1.4513937007874016
 20
1.8423031496062994
 30
0.0
 10
1.4513937007874016
 20
1.8423031496062994
 30
0.0
 10
1.4845984251968505
 20
1.9065314960629922
 30
0.0
 10
1.6210196850393701
 20
1.7317834645669292
 30
0.0
 10
1.6780354330708662
 20
1.6734921259842521
 30
0.0
 10
1.6780354330708662
 20
1.6734921259842521
 30
0.0
 10
1.5687755905511811
 20
1.6217559055118111
 30
0.0
 10
1.4275314960629921
 20
1.5453464566929134
 30
0.0
 10
1.4223503937007875
 20
1.6110236220472443
 30
0.0
  0
SPLINE
  5
46
100
AcDbEntity
  8
Layer 1
370
    18
100
AcDbSpline
210
0.0
220
0.0
230
1.0
 70
     1
 71
     3
 72
    76
 73
    72
 74
     0
 42
0.0000000001
 43
0.0000000001
 40
0.0
 40
0.0
 40
0.0
 40
0.0
 40
0.0555555555555556
 40
0.0555555555555556
 40
0.0555555555555556
 40
0.0555555555555556
 40
0.1111111111111111
 40
0.1111111111111111
 40
0.1111111111111111
 40
0.1111111111111111
 40
0.1666666666666667
 40
0.1666666666666667
 40
0.1666666666666667
 40
0.1666666666666667
 40
0.2222222222222222
 40
0.2222222222222222
 40
0.2222222222222222
 40
0.2222222222222222
 40
0.2777777777777778
 40
0.2777777777777778
 40
0.2777777777777778
 40
0.2777777777777778
 40
0.3333333333333334
 40
0.3333333333333334
 40
0.3333333333333334
 40
0.3333333333333334
 40
0.388888888888889
 40
0.388888888888889
 40
0.388888888888889
 40
0.388888888888889
 40
0.4444444444444445
 40
0.4444444444444445
 40
0.4444444444444445
 40
0.4444444444444445
 40
0.5000000000000001
 40
0.5000000000000001
 40
0.5000000000000001
 40
0.5000000000000001
 40
0.5555555555555557
 40
0.5555555555555557
 40
0.5555555555555557
 40
0.5555555555555557
 40
0.6111111111111113
 40
0.6111111111111113
 40
0.6111111111111113
 40
0.6111111111111113
 40
0.6666666666666669
 40
0.6666666666666669
 40
0.6666666666666669
 40
0.6666666666666669
 40
0.7222222222222224
 40
0.7222222222222224
 40
0.7222222222222224
 40
0.7222222222222224
 40
0.777777777777778
 40
0.777777777777778
 40
0.777777777777778
 40
0.777777777777778
 40
0.8333333333333336
 40
0.8333333333333336
 40
0.8333333333333336
 40
0.8333333333333336
 40
0.8888888888888892
 40
0.8888888888888892
 40
0.8888888888888892
 40
0.8888888888888892
 40
0.9444444444444448
 40
0.9444444444444448
 40
0.9444444444444448
 40
0.9444444444444448
 40
1.0
 40
1.0
 40
1.0
 40
1.0
 10
1.2684527559055119
 20
1.2835708661417324
 30
0.0
 10
1.2525157480314961
 20
1.2944803149606299
 30
0.0
 10
1.2396259842519686
 20
1.3063622047244094
 30
0.0
 10
1.2355118110236221
 20
1.3090433070866143
 30
0.0
 10
1.2355118110236221
 20
1.3090433070866143
 30
0.0
 10
1.2128661417322835
 20
1.2795511811023623
 30
0.0
 10
1.1841456692913386
 20
1.2366023622047244
 30
0.0
 10
1.1596889763779528
 20
1.2404094488188977
 30
0.0
 10
1.1596889763779528
 20
1.2404094488188977
 30
0.0
 10
1.0972677165354332
 20
1.2501259842519685
 30
0.0
 10
1.1574251968503937
 20
1.3816889763779527
 30
0.0
 10
1.2019055118110236
 20
1.4668110236220473
 30
0.0
 10
1.2019055118110236
 20
1.4668110236220473
 30
0.0
 10
1.140988188976378
 20
1.4164527559055118
 30
0.0
 10
1.0515236220472441
 20
1.3491929133858269
 30
0.0
 10
1.0092204724409448
 20
1.3598503937007875
 30
0.0
 10
1.0092204724409448
 20
1.3598503937007875
 30
0.0
 10
1.01
 20
1.3578307086614174
 30
0.0
 10
1.0103897637795276
 20
1.3557952755905511
 30
0.0
 10
1.0103070866141732
 20
1.3537440944881891
 30
0.0
 10
1.0103070866141732
 20
1.3537440944881891
 30
0.0
 10
1.0085629921259842
 20
1.310220472440945
 30
0.0
 10
0.9137047244094488
 20
1.3410748031496063
 30
0.0
 10
0.8518937007874016
 20
1.3648464566929135
 30
0.0
 10
0.8518937007874016
 20
1.3648464566929135
 30
0.0
 10
0.8835590551181103
 20
1.3307755905511811
 30
0.0
 10
0.9803543307086614
 20
1.2439921259842519
 30
0.0
 10
0.9400236220472441
 20
1.2265826771653543
 30
0.0
 10
0.9400236220472441
 20
1.2265826771653543
 30
0.0
 10
0.9173031496062992
 20
1.2167755905511812
 30
0.0
 10
0.8813464566929135
 20
1.2519645669291339
 30
0.0
 10
0.8750669291338583
 20
1.2560629921259843
 30
0.0
 10
0.8750669291338583
 20
1.2560629921259843
 30
0.0
 10
0.8679409448818898
 20
1.2467795275590552
 30
0.0
 10
0.8599409448818898
 20
1.2355708661417324
 30
0.0
 10
0.851748031496063
 20
1.2263700787401575
 30
0.0
 10
0.851748031496063
 20
1.2263700787401575
 30
0.0
 10
0.9095078740157481
 20
1.1874251968503937
 30
0.0
 10
0.8995433070866142
 20
0.9684566929133859
 30
0.0
 10
0.903751968503937
 20
0.8820866141732284
 30
0.0
 10
0.903751968503937
 20
0.8820866141732284
 30
0.0
 10
0.9298858267716536
 20
0.9802755905511812
 30
0.0
 10
0.9752322834645669
 20
1.2596417322834645
 30
0.0
 10
1.0627834645669292
 20
1.2074015748031497
 30
0.0
 10
1.0627834645669292
 20
1.2074015748031497
 30
0.0
 10
1.1121141732283466
 20
1.177968503937008
 30
0.0
 10
1.0893976377952757
 20
1.0706574803149607
 30
0.0
 10
1.0895039370078741
 20
1.0543661417322836
 30
0.0
 10
1.0895039370078741
 20
1.0543661417322836
 30
0.0
 10
1.1175787401574804
 20
1.0525472440944883
 30
0.0
 10
1.150732283464567
 20
1.0514724409448819
 30
0.0
 10
1.1799803149606301
 20
1.0475472440944882
 30
0.0
 10
1.1799803149606301
 20
1.0475472440944882
 30
0.0
 10
1.1789606299212598
 20
1.066740157480315
 30
0.0
 10
1.2053976377952755
 20
1.0941259842519686
 30
0.0
 10
1.2236417322834645
 20
1.1154921259842521
 30
0.0
 10
1.2236417322834645
 20
1.1154921259842521
 30
0.0
 10
1.2172559055118111
 20
1.1218503937007875
 30
0.0
 10
1.1669212598425198
 20
1.1553267716535434
 30
0.0
 10
1.1727795275590551
 20
1.18448031496063
 30
0.0
 10
1.1727795275590551
 20
1.18448031496063
 30
0.0
 10
1.1831771653543308
 20
1.2362204724409449
 30
0.0
 10
1.3093307086614174
 20
1.1441181102362206
 30
0.0
 10
1.3572755905511811
 20
1.1154133858267716
 30
0.0
 10
1.3572755905511811
 20
1.1154133858267716
 30
0.0
 10
1.2999094488188976
 20
1.1705511811023623
 30
0.0
 10
1.217996062992126
 20
1.2580354330708663
 30
0.0
 10
1.2644645669291339
 20
1.2821181102362205
 30
0.0
 10
1.2644645669291339
 20
1.2821181102362205
 30
0.0
 10
1.265720472440945
 20
1.2827677165354332
 30
0.0
 10
1.2670551181102363
 20
1.2832440944881891
 30
0.0
 10
1.2684527559055119
 20
1.2835708661417324
 30
0.0
  0
SPLINE
  5
47
100
AcDbEntity
  8
Layer 1
370
    18
100
AcDbSpline
210
0.0
220
0.0
230
1.0
 70
     1
 71
     3
 72
    20
 73
    16
 74
     0
 42
0.0000000001
 43
0.0000000001
 40
0.0
 40
0.0
 40
0.0
 40
0.0
 40
0.25
 40
0.25
 40
0.25
 40
0.25
 40
0.5
 40
0.5
 40
0.5
 40
0.5
 40
0.75
 40
0.75
 40
0.75
 40
0.75
 40
1.0
 40
1.0
 40
1.0
 40
1.0
 10
1.167511811023622
 20
1.2682874015748031
 30
0.0
 10
1.186724409448819
 20
1.2635787401574803
 30
0.0
 10
1.2152519685039371
 20
1.3045708661417323
 30
0.0
 10
1.2332913385826771
 20
1.3280669291338583
 30
0.0
 10
1.2332913385826771
 20
1.3280669291338583
 30
0.0
 10
1.2405511811023622
 20
1.3233346456692914
 30
0.0
 10
1.2877047244094488
 20
1.2741850393700789
 30
0.0
 10
1.3126259842519685
 20
1.2883740157480315
 30
0.0
 10
1.3126259842519685
 20
1.2883740157480315
 30
0.0
 10
1.3529212598425198
 20
1.3113149606299213
 30
0.0
 10
1.2432519685039372
 20
1.4055078740157481
 30
0.0
 10
1.2066692913385828
 20
1.4448779527559055
 30
0.0
 10
1.2066692913385828
 20
1.4448779527559055
 30
0.0
 10
1.174224409448819
 20
1.3694133858267716
 30
0.0
 10
1.1262992125984252
 20
1.2718582677165355
 30
0.0
 10
1.167511811023622
 20
1.2682874015748031
 30
0.0
  0
SPLINE
  5
48
100
AcDbEntity
  8
Layer 1
370
    18
100
AcDbSpline
210
0.0
220
0.0
230
1.0
 70
     1
 71
     3
 72
    20
 73
    16
 74
     0
 42
0.0000000001
 43
0.0000000001
 40
0.0
 40
0.0
 40
0.0
 40
0.0
 40
0.25
 40
0.25
 40
0.25
 40
0.25
 40
0.5
 40
0.5
 40
0.5
 40
0.5
 40
0.75
 40
0.75
 40
0.75
 40
0.75
 40
1.0
 40
1.0
 40
1.0
 40
1.0
 10
1.1061574803149608
 20
1.6440905511811024
 30
0.0
 10
1.1228779527559056
 20
1.6546653543307088
 30
0.0
 10
1.1629566929133859
 20
1.6248740157480315
 30
0.0
 10
1.1875354330708663
 20
1.6083346456692913
 30
0.0
 10
1.1875354330708663
 20
1.6083346456692913
 30
0.0
 10
1.1929133858267718
 20
1.6151338582677166
 30
0.0
 10
1.221988188976378
 20
1.676724409448819
 30
0.0
 10
1.2501259842519685
 20
1.6712007874015748
 30
0.0
 10
1.2501259842519685
 20
1.6712007874015748
 30
0.0
 10
1.2956259842519686
 20
1.6622637795275592
 30
0.0
 10
1.2216102362204724
 20
1.5380826771653544
 30
0.0
 10
1.1994448818897638
 20
1.4891220472440945
 30
0.0
 10
1.1994448818897638
 20
1.4891220472440945
 30
0.0
 10
1.1446850393700787
 20
1.5503503937007874
 30
0.0
 10
1.068220472440945
 20
1.6275984251968505
 30
0.0
 10
1.1061574803149608
 20
1.6440905511811024
 30
0.0
  0
SPLINE
  5
49
100
AcDbEntity
  8
Layer 1
370
    18
100
AcDbSpline
210
0.0
220
0.0
230
1.0
 70
     1
 71
     3
 72
    20
 73
    16
 74
     0
 42
0.0000000001
 43
0.0000000001
 40
0.0
 40
0.0
 40
0.0
 40
0.0
 40
0.25
 40
0.25
 40
0.25
 40
0.25
 40
0.5
 40
0.5
 40
0.5
 40
0.5
 40
0.75
 40
0.75
 40
0.75
 40
0.75
 40
1.0
 40
1.0
 40
1.0
 40
1.0
 10
1.4030590551181104
 20
1.4552992125984252
 30
0.0
 10
1.4055433070866141
 20
1.4749291338582677
 30
0.0
 10
1.3615669291338584
 20
1.4985866141732285
 30
0.0
 10
1.3361614173228347
 20
1.5138307086614173
 30
0.0
 10
1.3361614173228347
 20
1.5138307086614173
 30
0.0
 10
1.3400354330708661
 20
1.5215826771653544
 30
0.0
 10
1.3834803149606301
 20
1.5740393700787403
 30
0.0
 10
1.3665433070866142
 20
1.5971771653543307
 30
0.0
 10
1.3665433070866142
 20
1.5971771653543307
 30
0.0
 10
1.3391496062992128
 20
1.6345905511811025
 30
0.0
 10
1.2580905511811025
 20
1.5148858267716536
 30
0.0
 10
1.2231535433070866
 20
1.4740472440944883
 30
0.0
 10
1.2231535433070866
 20
1.4740472440944883
 30
0.0
 10
1.3018307086614174
 20
1.4504291338582678
 30
0.0
 10
1.4042165354330709
 20
1.4139488188976379
 30
0.0
 10
1.4030590551181104
 20
1.4552992125984252
 30
0.0
  0
SPLINE
  5
4A
100
AcDbEntity
  8
Layer 1
370
    18
100
AcDbSpline
210
0.0
220
0.0
230
1.0
 70
     1
 71
     3
 72
    20
 73
    16
 74
     0
 42
0.0000000001
 43
0.0000000001
 40
0.0
 40
0.0
 40
0.0
 40
0.0
 40
0.25
 40
0.25
 40
0.25
 40
0.25
 40
0.5
 40
0.5
 40
0.5
 40
0.5
 40
0.75
 40
0.75
 40
0.75
 40
0.75
 40
1.0
 40
1.0
 40
1.0
 40
1.0
 10
1.0148582677165354
 20
1.3919251968503938
 30
0.0
 10
1.0062637795275591
 20
1.409740157480315
 30
0.0
 10
1.0404291338582679
 20
1.4461614173228348
 30
0.0
 10
1.0596692913385828
 20
1.4686929133858269
 30
0.0
 10
1.0596692913385828
 20
1.4686929133858269
 30
0.0
 10
1.0535314960629922
 20
1.4748070866141734
 30
0.0
 10
0.9956574803149607
 20
1.5107204724409449
 30
0.0
 10
1.0043582677165355
 20
1.5380472440944883
 30
0.0
 10
1.0043582677165355
 20
1.5380472440944883
 30
0.0
 10
1.0184291338582678
 20
1.5822283464566931
 30
0.0
 10
1.1333503937007874
 20
1.4945236220472442
 30
0.0
 10
1.17946062992126
 20
1.4669173228346457
 30
0.0
 10
1.17946062992126
 20
1.4669173228346457
 30
0.0
 10
1.1123818897637796
 20
1.4195
 30
0.0
 10
1.0269133858267716
 20
1.3523543307086614
 30
0.0
 10
1.0148582677165354
 20
1.3919251968503938
 30
0.0
  0
SPLINE
  5
4B
100
AcDbEntity
  8
Layer 1
370
    18
100
AcDbSpline
210
0.0
220
0.0
230
1.0
 70
     1
 71
     3
 72
    24
 73
    20
 74
     0
 42
0.0000000001
 43
0.0000000001
 40
0.0
 40
0.0
 40
0.0
 40
0.0
 40
0.2
 40
0.2
 40
0.2
 40
0.2
 40
0.4
 40
0.4
 40
0.4
 40
0.4
 40
0.6000000000000001
 40
0.6000000000000001
 40
0.6000000000000001
 40
0.6000000000000001
 40
0.8
 40
0.8
 40
0.8
 40
0.8
 40
1.0
 40
1.0
 40
1.0
 40
1.0
 10
0.8401968503937008
 20
1.2314724409448818
 30
0.0
 10
0.8516377952755906
 20
1.239259842519685
 30
0.0
 10
0.864496062992126
 20
1.2574055118110237
 30
0.0
 10
0.8735354330708662
 20
1.2691811023622048
 30
0.0
 10
0.8735354330708662
 20
1.2691811023622048
 30
0.0
 10
0.8785433070866142
 20
1.2659133858267717
 30
0.0
 10
0.9110551181102362
 20
1.2320275590551182
 30
0.0
 10
0.928236220472441
 20
1.2418110236220472
 30
0.0
 10
0.928236220472441
 20
1.2418110236220472
 30
0.0
 10
0.9560236220472441
 20
1.2576299212598425
 30
0.0
 10
0.8804055118110237
 20
1.3225748031496063
 30
0.0
 10
0.8551811023622048
 20
1.3497204724409448
 30
0.0
 10
0.8551811023622048
 20
1.3497204724409448
 30
0.0
 10
0.8351496062992126
 20
1.3031299212598426
 30
0.0
 10
0.8065708661417324
 20
1.2443385826771654
 30
0.0
 10
0.8212047244094488
 20
1.2307795275590552
 30
0.0
 10
0.8212047244094488
 20
1.2307795275590552
 30
0.0
 10
0.8281181102362205
 20
1.2326456692913386
 30
0.0
 10
0.8344330708661417
 20
1.2328149606299212
 30
0.0
 10
0.8401968503937008
 20
1.2314724409448818
 30
0.0
  0
SPLINE
  5
4C
100
AcDbEntity
  8
Layer 1
370
    18
100
AcDbSpline
210
0.0
220
0.0
230
1.0
 70
     1
 71
     3
 72
    20
 73
    16
 74
     0
 42
0.0000000001
 43
0.0000000001
 40
0.0
 40
0.0
 40
0.0
 40
0.0
 40
0.25
 40
0.25
 40
0.25
 40
0.25
 40
0.5
 40
0.5
 40
0.5
 40
0.5
 40
0.75
 40
0.75
 40
0.75
 40
0.75
 40
1.0
 40
1.0
 40
1.0
 40
1.0
 10
0.7858740157480315
 20
1.4870826771653545
 30
0.0
 10
0.7974015748031497
 20
1.4943740157480316
 30
0.0
 10
0.8250393700787402
 20
1.4738346456692915
 30
0.0
 10
0.841988188976378
 20
1.4624291338582678
 30
0.0
 10
0.841988188976378
 20
1.4624291338582678
 30
0.0
 10
0.8456929133858268
 20
1.4671141732283466
 30
0.0
 10
0.865740157480315
 20
1.5095826771653544
 30
0.0
 10
0.8851456692913386
 20
1.5057755905511812
 30
0.0
 10
0.8851456692913386
 20
1.5057755905511812
 30
0.0
 10
0.9165157480314961
 20
1.4996141732283466
 30
0.0
 10
0.8654803149606299
 20
1.4139881889763779
 30
0.0
 10
0.8502007874015748
 20
1.3802283464566929
 30
0.0
 10
0.8502007874015748
 20
1.3802283464566929
 30
0.0
 10
0.8124409448818898
 20
1.4224488188976379
 30
0.0
 10
0.7597165354330709
 20
1.4757125984251969
 30
0.0
 10
0.7858740157480315
 20
1.4870826771653545
 30
0.0
  0
SPLINE
  5
4D
100
AcDbEntity
  8
Layer 1
370
    18
100
AcDbSpline
210
0.0
220
0.0
230
1.0
 70
     1
 71
     3
 72
    20
 73
    16
 74
     0
 42
0.0000000001
 43
0.0000000001
 40
0.0
 40
0.0
 40
0.0
 40
0.0
 40
0.25
 40
0.25
 40
0.25
 40
0.25
 40
0.5
 40
0.5
 40
0.5
 40
0.5
 40
0.75
 40
0.75
 40
0.75
 40
0.75
 40
1.0
 40
1.0
 40
1.0
 40
1.0
 10
0.9905944881889764
 20
1.3569094488188977
 30
0.0
 10
0.9923070866141732
 20
1.3704409448818897
 30
0.0
 10
0.961984251968504
 20
1.386755905511811
 30
0.0
 10
0.9444685039370079
 20
1.397267716535433
 30
0.0
 10
0.9444685039370079
 20
1.397267716535433
 30
0.0
 10
0.9471377952755906
 20
1.4026102362204724
 30
0.0
 10
0.9770944881889764
 20
1.4387795275590551
 30
0.0
 10
0.9654133858267717
 20
1.4547322834645671
 30
0.0
 10
0.9654133858267717
 20
1.4547322834645671
 30
0.0
 10
0.9465275590551181
 20
1.4805314960629923
 30
0.0
 10
0.8906338582677166
 20
1.397996062992126
 30
0.0
 10
0.8665472440944882
 20
1.3698346456692914
 30
0.0
 10
0.8665472440944882
 20
1.3698346456692914
 30
0.0
 10
0.9207952755905512
 20
1.3535472440944882
 30
0.0
 10
0.9913937007874016
 20
1.3283976377952755
 30
0.0
 10
0.9905944881889764
 20
1.3569094488188977
 30
0.0
  0
SPLINE
  5
4E
100
AcDbEntity
  8
Layer 1
370
    18
100
AcDbSpline
210
0.0
220
0.0
230
1.0
 70
     1
 71
     3
 72
    28
 73
    24
 74
     0
 42
0.0000000001
 43
0.0000000001
 40
0.0
 40
0.0
 40
0.0
 40
0.0
 40
0.1666666666666667
 40
0.1666666666666667
 40
0.1666666666666667
 40
0.1666666666666667
 40
0.3333333333333333
 40
0.3333333333333333
 40
0.3333333333333333
 40
0.3333333333333333
 40
0.5
 40
0.5
 40
0.5
 40
0.5
 40
0.6666666666666666
 40
0.6666666666666666
 40
0.6666666666666666
 40
0.6666666666666666
 40
0.8333333333333333
 40
0.8333333333333333
 40
0.8333333333333333
 40
0.8333333333333333
 40
1.0
 40
1.0
 40
1.0
 40
1.0
 10
0.7229212598425198
 20
1.3132086614173228
 30
0.0
 10
0.716996062992126
 20
1.325496062992126
 30
0.0
 10
0.7405551181102362
 20
1.3506062992125984
 30
0.0
 10
0.7538188976377953
 20
1.3661417322834646
 30
0.0
 10
0.7538188976377953
 20
1.3661417322834646
 30
0.0
 10
0.7508700787401575
 20
1.3690826771653544
 30
0.0
 10
0.7305748031496063
 20
1.3820118110236221
 30
0.0
 10
0.7205944881889764
 20
1.3959606299212599
 30
0.0
 10
0.7205944881889764
 20
1.3959606299212599
 30
0.0
 10
0.7204488188976378
 20
1.4017716535433071
 30
0.0
 10
0.7186771653543307
 20
1.4077125984251968
 30
0.0
 10
0.7156181102362205
 20
1.4137322834645669
 30
0.0
 10
0.7156181102362205
 20
1.4137322834645669
 30
0.0
 10
0.7156417322834646
 20
1.4138110236220474
 30
0.0
 10
0.7156574803149607
 20
1.4138858267716536
 30
0.0
 10
0.7156850393700788
 20
1.4139645669291339
 30
0.0
 10
0.7156850393700788
 20
1.4139645669291339
 30
0.0
 10
0.7253858267716535
 20
1.4444291338582678
 30
0.0
 10
0.8046259842519685
 20
1.3839527559055118
 30
0.0
 10
0.8364173228346457
 20
1.3649173228346456
 30
0.0
 10
0.8364173228346457
 20
1.3649173228346456
 30
0.0
 10
0.7901653543307087
 20
1.3322244094488189
 30
0.0
 10
0.7312322834645669
 20
1.2859251968503937
 30
0.0
 10
0.7229212598425198
 20
1.3132086614173228
 30
0.0
  0
SPLINE
  5
4F
100
AcDbEntity
  8
Layer 1
370
    18
100
AcDbSpline
210
0.0
220
0.0
230
1.0
 70
     1
 71
     3
 72
    20
 73
    16
 74
     0
 42
0.0000000001
 43
0.0000000001
 40
0.0
 40
0.0
 40
0.0
 40
0.0
 40
0.25
 40
0.25
 40
0.25
 40
0.25
 40
0.5
 40
0.5
 40
0.5
 40
0.5
 40
0.75
 40
0.75
 40
0.75
 40
0.75
 40
1.0
 40
1.0
 40
1.0
 40
1.0
 10
0.6723582677165355
 20
1.4027283464566929
 30
0.0
 10
0.6804448818897638
 20
1.4333464566929135
 30
0.0
 10
0.6101102362204725
 20
1.4788228346456693
 30
0.0
 10
0.5697913385826772
 20
1.5075866141732284
 30
0.0
 10
0.5697913385826772
 20
1.5075866141732284
 30
0.0
 10
0.5779173228346457
 20
1.5191496062992127
 30
0.0
 10
0.6622795275590552
 20
1.5942834645669293
 30
0.0
 10
0.6379370078740158
 20
1.6340039370078741
 30
0.0
 10
0.6379370078740158
 20
1.6340039370078741
 30
0.0
 10
0.5985787401574804
 20
1.6982322834645669
 30
0.0
 10
0.4368937007874016
 20
1.5234842519685039
 30
0.0
 10
0.3693149606299213
 20
1.4651929133858268
 30
0.0
 10
0.3693149606299213
 20
1.4651929133858268
 30
0.0
 10
0.4988149606299213
 20
1.41346062992126
 30
0.0
 10
0.6662165354330709
 20
1.3370472440944883
 30
0.0
 10
0.6723582677165355
 20
1.4027283464566929
 30
0.0
  0
SPLINE
  5
50
100
AcDbEntity
  8
Layer 1
370
    18
100
AcDbSpline
210
0.0
220
0.0
230
1.0
 70
     1
 71
     3
 72
   168
 73
   164
 74
     0
 42
0.0000000001
 43
0.0000000001
 40
0.0
 40
0.0
 40
0.0
 40
0.0
 40
0.024390243902439
 40
0.024390243902439
 40
0.024390243902439
 40
0.024390243902439
 40
0.0487804878048781
 40
0.0487804878048781
 40
0.0487804878048781
 40
0.0487804878048781
 40
0.0731707317073171
 40
0.0731707317073171
 40
0.0731707317073171
 40
0.0731707317073171
 40
0.0975609756097561
 40
0.0975609756097561
 40
0.0975609756097561
 40
0.0975609756097561
 40
0.1219512195121951
 40
0.1219512195121951
 40
0.1219512195121951
 40
0.1219512195121951
 40
0.1463414634146341
 40
0.1463414634146341
 40
0.1463414634146341
 40
0.1463414634146341
 40
0.1707317073170732
 40
0.1707317073170732
 40
0.1707317073170732
 40
0.1707317073170732
 40
0.1951219512195122
 40
0.1951219512195122
 40
0.1951219512195122
 40
0.1951219512195122
 40
0.2195121951219512
 40
0.2195121951219512
 40
0.2195121951219512
 40
0.2195121951219512
 40
0.2439024390243902
 40
0.2439024390243902
 40
0.2439024390243902
 40
0.2439024390243902
 40
0.2682926829268292
 40
0.2682926829268292
 40
0.2682926829268292
 40
0.2682926829268292
 40
0.2926829268292683
 40
0.2926829268292683
 40
0.2926829268292683
 40
0.2926829268292683
 40
0.3170731707317073
 40
0.3170731707317073
 40
0.3170731707317073
 40
0.3170731707317073
 40
0.3414634146341464
 40
0.3414634146341464
 40
0.3414634146341464
 40
0.3414634146341464
 40
0.3658536585365854
 40
0.3658536585365854
 40
0.3658536585365854
 40
0.3658536585365854
 40
0.3902439024390245
 40
0.3902439024390245
 40
0.3902439024390245
 40
0.3902439024390245
 40
0.4146341463414635
 40
0.4146341463414635
 40
0.4146341463414635
 40
0.4146341463414635
 40
0.4390243902439026
 40
0.4390243902439026
 40
0.4390243902439026
 40
0.4390243902439026
 40
0.4634146341463416
 40
0.4634146341463416
 40
0.4634146341463416
 40
0.4634146341463416
 40
0.4878048780487806
 40
0.4878048780487806
 40
0.4878048780487806
 40
0.4878048780487806
 40
0.5121951219512196
 40
0.5121951219512196
 40
0.5121951219512196
 40
0.5121951219512196
 40
0.5365853658536587
 40
0.5365853658536587
 40
0.5365853658536587
 40
0.5365853658536587
 40
0.5609756097560977
 40
0.5609756097560977
 40
0.5609756097560977
 40
0.5609756097560977
 40
0.5853658536585368
 40
0.5853658536585368
 40
0.5853658536585368
 40
0.5853658536585368
 40
0.6097560975609758
 40
0.6097560975609758
 40
0.6097560975609758
 40
0.6097560975609758
 40
0.6341463414634149
 40
0.6341463414634149
 40
0.6341463414634149
 40
0.6341463414634149
 40
0.6585365853658539
 40
0.6585365853658539
 40
0.6585365853658539
 40
0.6585365853658539
 40
0.682926829268293
 40
0.682926829268293
 40
0.682926829268293
 40
0.682926829268293
 40
0.707317073170732
 40
0.707317073170732
 40
0.707317073170732
 40
0.707317073170732
 40
0.7317073170731711
 40
0.7317073170731711
 40
0.7317073170731711
 40
0.7317073170731711
 40
0.7560975609756101
 40
0.7560975609756101
 40
0.7560975609756101
 40
0.7560975609756101
 40
0.7804878048780491
 40
0.7804878048780491
 40
0.7804878048780491
 40
0.7804878048780491
 40
0.8048780487804882
 40
0.8048780487804882
 40
0.8048780487804882
 40
0.8048780487804882
 40
0.8292682926829272
 40
0.8292682926829272
 40
0.8292682926829272
 40
0.8292682926829272
 40
0.8536585365853663
 40
0.8536585365853663
 40
0.8536585365853663
 40
0.8536585365853663
 40
0.8780487804878053
 40
0.8780487804878053
 40
0.8780487804878053
 40
0.8780487804878053
 40
0.9024390243902444
 40
0.9024390243902444
 40
0.9024390243902444
 40
0.9024390243902444
 40
0.9268292682926834
 40
0.9268292682926834
 40
0.9268292682926834
 40
0.9268292682926834
 40
0.9512195121951225
 40
0.9512195121951225
 40
0.9512195121951225
 40
0.9512195121951225
 40
0.9756097560975615
 40
0.9756097560975615
 40
0.9756097560975615
 40
0.9756097560975615
 40
1.0
 40
1.0
 40
1.0
 40
1.0
 10
0.6682874015748032
 20
0.61298031496063
 30
0.0
 10
0.6750118110236221
 20
0.5691771653543307
 30
0.0
 10
0.615740157480315
 20
0.4628700787401575
 30
0.0
 10
0.5950787401574803
 20
0.417236220472441
 30
0.0
 10
0.5950787401574803
 20
0.417236220472441
 30
0.0
 10
0.6359409448818898
 20
0.465
 30
0.0
 10
0.7375118110236221
 20
0.6083346456692914
 30
0.0
 10
0.7671062992125984
 20
0.5568779527559056
 30
0.0
 10
0.7671062992125984
 20
0.5568779527559056
 30
0.0
 10
0.7837795275590551
 20
0.5278897637795276
 30
0.0
 10
0.7420826771653544
 20
0.4741889763779528
 30
0.0
 10
0.7375511811023623
 20
0.4651259842519685
 30
0.0
 10
0.7375511811023623
 20
0.4651259842519685
 30
0.0
 10
0.7672637795275591
 20
0.4472952755905512
 30
0.0
 10
0.8100748031496063
 20
0.4252834645669292
 30
0.0
 10
0.8091496062992126
 20
0.402236220472441
 30
0.0
 10
0.8091496062992126
 20
0.402236220472441
 30
0.0
 10
0.8067952755905512
 20
0.3434173228346457
 30
0.0
 10
0.6786102362204725
 20
0.3851141732283465
 30
0.0
 10
0.5950787401574803
 20
0.417236220472441
 30
0.0
 10
0.5950787401574803
 20
0.417236220472441
 30
0.0
 10
0.6350314960629921
 20
0.374244094488189
 30
0.0
 10
0.7516929133858268
 20
0.2691692913385827
 30
0.0
 10
0.7226299212598426
 20
0.2362716535433071
 30
0.0
 10
0.7226299212598426
 20
0.2362716535433071
 30
0.0
 10
0.7516220472440945
 20
0.2114094488188976
 30
0.0
 10
0.7465511811023622
 20
0.0879803149606299
 30
0.0
 10
0.748732283464567
 20
0.0389015748031496
 30
0.0
 10
0.748732283464567
 20
0.0389015748031496
 30
0.0
 10
0.7624645669291339
 20
0.0954606299212599
 30
0.0
 10
0.7862874015748032
 20
0.2563897637795276
 30
0.0
 10
0.8322874015748032
 20
0.2262952755905512
 30
0.0
 10
0.8322874015748032
 20
0.2262952755905512
 30
0.0
 10
0.8582007874015748
 20
0.2093425196850394
 30
0.0
 10
0.8462677165354331
 20
0.1475236220472441
 30
0.0
 10
0.8463228346456694
 20
0.1381417322834646
 30
0.0
 10
0.8463228346456694
 20
0.1381417322834646
 30
0.0
 10
0.8783267716535433
 20
0.1358661417322835
 30
0.0
 10
0.9229055118110237
 20
0.1356220472440945
 30
0.0
 10
0.9317992125984252
 20
0.1162047244094488
 30
0.0
 10
0.9317992125984252
 20
0.1162047244094488
 30
0.0
 10
0.9330236220472441
 20
0.1135275590551181
 30
0.0
 10
0.9338031496062993
 20
0.1109448818897638
 30
0.0
 10
0.9342047244094489
 20
0.1084448818897638
 30
0.0
 10
0.9342047244094489
 20
0.1084448818897638
 30
0.0
 10
0.9548385826771654
 20
0.1141102362204725
 30
0.0
 10
1.0011614173228347
 20
0.1077007874015748
 30
0.0
 10
1.0213740157480315
 20
0.1064094488188977
 30
0.0
 10
1.0213740157480315
 20
0.1064094488188977
 30
0.0
 10
0.9836811023622047
 20
0.1168976377952756
 30
0.0
 10
0.9278976377952757
 20
0.1353937007874016
 30
0.0
 10
0.9430236220472441
 20
0.1545905511811024
 30
0.0
 10
0.9430236220472441
 20
0.1545905511811024
 30
0.0
 10
0.9489527559055119
 20
0.1621141732283465
 30
0.0
 10
0.9697755905511811
 20
0.158496062992126
 30
0.0
 10
0.9849173228346457
 20
0.1567913385826772
 30
0.0
 10
0.9849173228346457
 20
0.1567913385826772
 30
0.0
 10
0.9858031496062992
 20
0.1607795275590551
 30
0.0
 10
0.9858937007874016
 20
0.1880866141732284
 30
0.0
 10
0.9995393700787402
 20
0.1931377952755906
 30
0.0
 10
0.9995393700787402
 20
0.1931377952755906
 30
0.0
 10
1.0237559055118111
 20
0.2021062992125984
 30
0.0
 10
1.0201456692913387
 20
0.1316259842519685
 30
0.0
 10
1.0213740157480315
 20
0.1064094488188977
 30
0.0
 10
1.0213740157480315
 20
0.1064094488188977
 30
0.0
 10
1.0279015748031497
 20
0.1309409448818898
 30
0.0
 10
1.0392322834645669
 20
0.2007322834645669
 30
0.0
 10
1.0611023622047244
 20
0.1876811023622047
 30
0.0
 10
1.0611023622047244
 20
0.1876811023622047
 30
0.0
 10
1.0734291338582678
 20
0.1803307086614173
 30
0.0
 10
1.0677519685039369
 20
0.1535196850393701
 30
0.0
 10
1.0677795275590551
 20
0.1494488188976378
 30
0.0
 10
1.0677795275590551
 20
0.1494488188976378
 30
0.0
 10
1.082003937007874
 20
0.1485275590551181
 30
0.0
 10
1.1014488188976379
 20
0.1483740157480315
 30
0.0
 10
1.1073818897637795
 20
0.141484251968504
 30
0.0
 10
1.1073818897637795
 20
0.141484251968504
 30
0.0
 10
1.1568228346456693
 20
0.1785354330708661
 30
0.0
 10
1.3425944881889764
 20
0.1495708661417323
 30
0.0
 10
1.4181929133858269
 20
0.1442716535433071
 30
0.0
 10
1.4181929133858269
 20
0.1442716535433071
 30
0.0
 10
1.2931850393700788
 20
0.1824055118110236
 30
0.0
 10
1.1081732283464567
 20
0.2496771653543307
 30
0.0
 10
1.1583464566929134
 20
0.3194842519685039
 30
0.0
 10
1.1583464566929134
 20
0.3194842519685039
 30
0.0
 10
1.1780039370078741
 20
0.3468385826771654
 30
0.0
 10
1.2470669291338583
 20
0.3336811023622047
 30
0.0
 10
1.2972913385826772
 20
0.327484251968504
 30
0.0
 10
1.2972913385826772
 20
0.327484251968504
 30
0.0
 10
1.2990236220472442
 20
0.3360511811023622
 30
0.0
 10
1.2998385826771655
 20
0.3741929133858268
 30
0.0
 10
1.3095354330708662
 20
0.4077755905511811
 30
0.0
 10
1.3095354330708662
 20
0.4077755905511811
 30
0.0
 10
1.2963661417322836
 20
0.4029803149606299
 30
0.0
 10
1.2659173228346456
 20
0.4131732283464567
 30
0.0
 10
1.2443543307086615
 20
0.4214685039370079
 30
0.0
 10
1.2443543307086615
 20
0.4214685039370079
 30
0.0
 10
1.2586771653543307
 20
0.4060511811023622
 30
0.0
 10
1.3024685039370079
 20
0.3667913385826772
 30
0.0
 10
1.2842244094488189
 20
0.3589133858267717
 30
0.0
 10
1.2842244094488189
 20
0.3589133858267717
 30
0.0
 10
1.2739448818897638
 20
0.3544763779527559
 30
0.0
 10
1.2576771653543308
 20
0.3703976377952756
 30
0.0
 10
1.2548385826771653
 20
0.3722519685039371
 30
0.0
 10
1.2548385826771653
 20
0.3722519685039371
 30
0.0
 10
1.2477716535433072
 20
0.3630511811023622
 30
0.0
 10
1.2388149606299212
 20
0.3496535433070866
 30
0.0
 10
1.2311850393700787
 20
0.3508425196850394
 30
0.0
 10
1.2311850393700787
 20
0.3508425196850394
 30
0.0
 10
1.2117125984251969
 20
0.3538740157480315
 30
0.0
 10
1.2304763779527559
 20
0.3949133858267717
 30
0.0
 10
1.2443543307086615
 20
0.4214645669291339
 30
0.0
 10
1.2443543307086615
 20
0.4214645669291339
 30
0.0
 10
1.2212637795275592
 20
0.4023779527559055
 30
0.0
 10
1.185015748031496
 20
0.375496062992126
 30
0.0
 10
1.1780039370078741
 20
0.3939133858267717
 30
0.0
 10
1.1780039370078741
 20
0.3939133858267717
 30
0.0
 10
1.1752598425196852
 20
0.4011299212598425
 30
0.0
 10
1.186503937007874
 20
0.4126732283464567
 30
0.0
 10
1.1940354330708662
 20
0.421496062992126
 30
0.0
 10
1.1940354330708662
 20
0.421496062992126
 30
0.0
 10
1.1916299212598425
 20
0.4238897637795276
 30
0.0
 10
1.1726771653543309
 20
0.436496062992126
 30
0.0
 10
1.1748818897637796
 20
0.4474724409448819
 30
0.0
 10
1.1748818897637796
 20
0.4474724409448819
 30
0.0
 10
1.1751062992125985
 20
0.4485826771653543
 30
0.0
 10
1.1754763779527559
 20
0.449507874015748
 30
0.0
 10
1.175968503937008
 20
0.4502795275590552
 30
0.0
 10
1.175968503937008
 20
0.4502795275590552
 30
0.0
 10
1.1623346456692913
 20
0.4527047244094488
 30
0.0
 10
1.1465984251968504
 20
0.4678976377952756
 30
0.0
 10
1.1433346456692914
 20
0.4700275590551181
 30
0.0
 10
1.1433346456692914
 20
0.4700275590551181
 30
0.0
 10
1.1332834645669292
 20
0.4569409448818898
 30
0.0
 10
1.1205393700787403
 20
0.4378858267716536
 30
0.0
 10
1.1096889763779527
 20
0.4395748031496063
 30
0.0
 10
1.1096889763779527
 20
0.4395748031496063
 30
0.0
 10
1.0819881889763781
 20
0.4438858267716536
 30
0.0
 10
1.1086850393700787
 20
0.5022637795275591
 30
0.0
 10
1.1284212598425196
 20
0.5400354330708662
 30
0.0
 10
1.1284212598425196
 20
0.5400354330708662
 30
0.0
 10
1.0955748031496064
 20
0.5128818897637796
 30
0.0
 10
1.044015748031496
 20
0.4746417322834646
 30
0.0
 10
1.0340433070866142
 20
0.5008425196850393
 30
0.0
 10
1.0340433070866142
 20
0.5008425196850393
 30
0.0
 10
1.0301338582677166
 20
0.5111062992125984
 30
0.0
 10
1.0461299212598425
 20
0.5275314960629921
 30
0.0
 10
1.0568425196850395
 20
0.5400787401574804
 30
0.0
 10
1.0568425196850395
 20
0.5400787401574804
 30
0.0
 10
1.0541771653543308
 20
0.542736220472441
 30
0.0
 10
1.0372086614173228
 20
0.5542165354330709
 30
0.0
 10
1.0313425196850394
 20
0.5665472440944882
 30
0.0
 10
1.0313425196850394
 20
0.5665472440944882
 30
0.0
 10
1.0253937007874017
 20
0.5589606299212598
 30
0.0
 10
1.0184330708661418
 20
0.553503937007874
 30
0.0
 10
1.0101614173228346
 20
0.5510472440944882
 30
0.0
 10
1.0101614173228346
 20
0.5510472440944882
 30
0.0
 10
0.911515748031496
 20
0.5217204724409449
 30
0.0
 10
0.9018582677165354
 20
0.7382322834645669
 30
0.0
 10
0.903751968503937
 20
0.8820866141732284
 30
0.0
 10
0.903751968503937
 20
0.8820866141732284
 30
0.0
 10
0.8436062992125984
 20
0.7560354330708662
 30
0.0
 10
0.7440196850393701
 20
0.5734370078740158
 30
0.0
 10
0.6682874015748032
 20
0.61298031496063
 30
0.0
  0
SPLINE
  5
51
100
AcDbEntity
  8
Layer 1
370
    18
100
AcDbSpline
210
0.0
220
0.0
230
1.0
 70
     1
 71
     3
 72
    20
 73
    16
 74
     0
 42
0.0000000001
 43
0.0000000001
 40
0.0
 40
0.0
 40
0.0
 40
0.0
 40
0.25
 40
0.25
 40
0.25
 40
0.25
 40
0.5
 40
0.5
 40
0.5
 40
0.5
 40
0.75
 40
0.75
 40
0.75
 40
0.75
 40
1.0
 40
1.0
 40
1.0
 40
1.0
 10
0.5630314960629922
 20
0.232255905511811
 30
0.0
 10
0.5809330708661418
 20
0.2278700787401575
 30
0.0
 10
0.6075118110236221
 20
0.2660629921259843
 30
0.0
 10
0.6243267716535433
 20
0.2879566929133858
 30
0.0
 10
0.6243267716535433
 20
0.2879566929133858
 30
0.0
 10
0.6310866141732284
 20
0.2835472440944882
 30
0.0
 10
0.6750275590551181
 20
0.237751968503937
 30
0.0
 10
0.698244094488189
 20
0.2509724409448819
 30
0.0
 10
0.698244094488189
 20
0.2509724409448819
 30
0.0
 10
0.7357952755905513
 20
0.2723464566929134
 30
0.0
 10
0.6336062992125985
 20
0.3601141732283465
 30
0.0
 10
0.5995196850393701
 20
0.3967952755905512
 30
0.0
 10
0.5995196850393701
 20
0.3967952755905512
 30
0.0
 10
0.5692874015748032
 20
0.32648031496063
 30
0.0
 10
0.5246299212598425
 20
0.2355826771653543
 30
0.0
 10
0.5630314960629922
 20
0.232255905511811
 30
0.0
  0
SPLINE
  5
52
100
AcDbEntity
  8
Layer 1
370
    18
100
AcDbSpline
210
0.0
220
0.0
230
1.0
 70
     1
 71
     3
 72
    20
 73
    16
 74
     0
 42
0.0000000001
 43
0.0000000001
 40
0.0
 40
0.0
 40
0.0
 40
0.0
 40
0.25
 40
0.25
 40
0.25
 40
0.25
 40
0.5
 40
0.5
 40
0.5
 40
0.5
 40
0.75
 40
0.75
 40
0.75
 40
0.75
 40
1.0
 40
1.0
 40
1.0
 40
1.0
 10
0.5058622047244095
 20
0.5824212598425197
 30
0.0
 10
0.5214409448818898
 20
0.5922716535433071
 30
0.0
 10
0.5587874015748032
 20
0.5645157480314961
 30
0.0
 10
0.5816929133858269
 20
0.5491062992125985
 30
0.0
 10
0.5816929133858269
 20
0.5491062992125985
 30
0.0
 10
0.5867007874015748
 20
0.5554370078740157
 30
0.0
 10
0.6137913385826772
 20
0.6128267716535434
 30
0.0
 10
0.640011811023622
 20
0.6076811023622047
 30
0.0
 10
0.640011811023622
 20
0.6076811023622047
 30
0.0
 10
0.6824094488188977
 20
0.5993543307086614
 30
0.0
 10
0.6134409448818898
 20
0.4836456692913386
 30
0.0
 10
0.5927874015748031
 20
0.4380236220472441
 30
0.0
 10
0.5927874015748031
 20
0.4380236220472441
 30
0.0
 10
0.541759842519685
 20
0.4950748031496063
 30
0.0
 10
0.4705118110236221
 20
0.5670551181102362
 30
0.0
 10
0.5058622047244095
 20
0.5824212598425197
 30
0.0
  0
SPLINE
  5
53
100
AcDbEntity
  8
Layer 1
370
    18
100
AcDbSpline
210
0.0
220
0.0
230
1.0
 70
     1
 71
     3
 72
    20
 73
    16
 74
     0
 42
0.0000000001
 43
0.0000000001
 40
0.0
 40
0.0
 40
0.0
 40
0.0
 40
0.25
 40
0.25
 40
0.25
 40
0.25
 40
0.5
 40
0.5
 40
0.5
 40
0.5
 40
0.75
 40
0.75
 40
0.75
 40
0.75
 40
1.0
 40
1.0
 40
1.0
 40
1.0
 10
0.7825118110236221
 20
0.4065118110236221
 30
0.0
 10
0.7848267716535433
 20
0.4247992125984252
 30
0.0
 10
0.7438503937007874
 20
0.4468425196850394
 30
0.0
 10
0.7201771653543307
 20
0.4610472440944882
 30
0.0
 10
0.7201771653543307
 20
0.4610472440944882
 30
0.0
 10
0.7237874015748032
 20
0.4682677165354331
 30
0.0
 10
0.7642677165354331
 20
0.5171456692913387
 30
0.0
 10
0.748484251968504
 20
0.5387047244094488
 30
0.0
 10
0.748484251968504
 20
0.5387047244094488
 30
0.0
 10
0.7229606299212599
 20
0.5735669291338583
 30
0.0
 10
0.6474330708661418
 20
0.4620314960629922
 30
0.0
 10
0.6148779527559055
 20
0.4239803149606299
 30
0.0
 10
0.6148779527559055
 20
0.4239803149606299
 30
0.0
 10
0.6881889763779527
 20
0.4019685039370079
 30
0.0
 10
0.7835905511811024
 20
0.3679803149606299
 30
0.0
 10
0.7825118110236221
 20
0.4065118110236221
 30
0.0
  0
SPLINE
  5
54
100
AcDbEntity
  8
Layer 1
370
    18
100
AcDbSpline
210
0.0
220
0.0
230
1.0
 70
     1
 71
     3
 72
    20
 73
    16
 74
     0
 42
0.0000000001
 43
0.0000000001
 40
0.0
 40
0.0
 40
0.0
 40
0.0
 40
0.25
 40
0.25
 40
0.25
 40
0.25
 40
0.5
 40
0.5
 40
0.5
 40
0.5
 40
0.75
 40
0.75
 40
0.75
 40
0.75
 40
1.0
 40
1.0
 40
1.0
 40
1.0
 10
0.4207913385826772
 20
0.3474566929133858
 30
0.0
 10
0.4127834645669292
 20
0.3640590551181103
 30
0.0
 10
0.4446220472440945
 20
0.397992125984252
 30
0.0
 10
0.4625433070866142
 20
0.418988188976378
 30
0.0
 10
0.4625433070866142
 20
0.418988188976378
 30
0.0
 10
0.4568267716535434
 20
0.4246850393700787
 30
0.0
 10
0.4029015748031496
 20
0.4581496062992126
 30
0.0
 10
0.4110078740157481
 20
0.4836102362204724
 30
0.0
 10
0.4110078740157481
 20
0.4836102362204724
 30
0.0
 10
0.4241181102362205
 20
0.5247795275590551
 30
0.0
 10
0.5312007874015748
 20
0.4430551181102362
 30
0.0
 10
0.5741653543307087
 20
0.4173307086614174
 30
0.0
 10
0.5741653543307087
 20
0.4173307086614174
 30
0.0
 10
0.5116614173228347
 20
0.3731496062992126
 30
0.0
 10
0.4320236220472441
 20
0.3105826771653543
 30
0.0
 10
0.4207913385826772
 20
0.3474566929133858
 30
0.0
  0
SPLINE
  5
55
100
AcDbEntity
  8
Layer 1
370
    18
100
AcDbSpline
210
0.0
220
0.0
230
1.0
 70
     1
 71
     3
 72
    20
 73
    16
 74
     0
 42
0.0000000001
 43
0.0000000001
 40
0.0
 40
0.0
 40
0.0
 40
0.0
 40
0.25
 40
0.25
 40
0.25
 40
0.25
 40
0.5
 40
0.5
 40
0.5
 40
0.5
 40
0.75
 40
0.75
 40
0.75
 40
0.75
 40
1.0
 40
1.0
 40
1.0
 40
1.0
 10
1.2336259842519686
 20
0.3595393700787402
 30
0.0
 10
1.2396181102362205
 20
0.3580708661417323
 30
0.0
 10
1.2485157480314961
 20
0.3708543307086614
 30
0.0
 10
1.2541456692913386
 20
0.3781850393700788
 30
0.0
 10
1.2541456692913386
 20
0.3781850393700788
 30
0.0
 10
1.2564094488188977
 20
0.3767086614173228
 30
0.0
 10
1.2711181102362206
 20
0.3613779527559055
 30
0.0
 10
1.2788897637795276
 20
0.3658031496062992
 30
0.0
 10
1.2788897637795276
 20
0.3658031496062992
 30
0.0
 10
1.2914606299212599
 20
0.3729606299212598
 30
0.0
 10
1.2572519685039369
 20
0.4023425196850394
 30
0.0
 10
1.2458385826771654
 20
0.4146220472440945
 30
0.0
 10
1.2458385826771654
 20
0.4146220472440945
 30
0.0
 10
1.2357165354330708
 20
0.3910826771653543
 30
0.0
 10
1.2207677165354331
 20
0.3606496062992126
 30
0.0
 10
1.2336259842519686
 20
0.3595393700787402
 30
0.0
  0
SPLINE
  5
56
100
AcDbEntity
  8
Layer 1
370
    18
100
AcDbSpline
210
0.0
220
0.0
230
1.0
 70
     1
 71
     3
 72
    20
 73
    16
 74
     0
 42
0.0000000001
 43
0.0000000001
 40
0.0
 40
0.0
 40
0.0
 40
0.0
 40
0.25
 40
0.25
 40
0.25
 40
0.25
 40
0.5
 40
0.5
 40
0.5
 40
0.5
 40
0.75
 40
0.75
 40
0.75
 40
0.75
 40
1.0
 40
1.0
 40
1.0
 40
1.0
 10
1.214484251968504
 20
0.4767677165354331
 30
0.0
 10
1.2197007874015748
 20
0.4800669291338583
 30
0.0
 10
1.2322047244094489
 20
0.4707716535433071
 30
0.0
 10
1.2398700787401575
 20
0.4656141732283465
 30
0.0
 10
1.2398700787401575
 20
0.4656141732283465
 30
0.0
 10
1.2415472440944881
 20
0.467732283464567
 30
0.0
 10
1.2506181102362206
 20
0.4869488188976378
 30
0.0
 10
1.2593976377952756
 20
0.4852244094488189
 30
0.0
 10
1.2593976377952756
 20
0.4852244094488189
 30
0.0
 10
1.2735905511811023
 20
0.4824370078740158
 30
0.0
 10
1.2504999999999999
 20
0.4437007874015748
 30
0.0
 10
1.2435866141732284
 20
0.4284251968503937
 30
0.0
 10
1.2435866141732284
 20
0.4284251968503937
 30
0.0
 10
1.2265039370078741
 20
0.4475275590551182
 30
0.0
 10
1.2026496062992127
 20
0.4716220472440945
 30
0.0
 10
1.214484251968504
 20
0.4767677165354331
 30
0.0
  0
SPLINE
  5
57
100
AcDbEntity
  8
Layer 1
370
    18
100
AcDbSpline
210
0.0
220
0.0
230
1.0
 70
     1
 71
     3
 72
    20
 73
    16
 74
     0
 42
0.0000000001
 43
0.0000000001
 40
0.0
 40
0.0
 40
0.0
 40
0.0
 40
0.25
 40
0.25
 40
0.25
 40
0.25
 40
0.5
 40
0.5
 40
0.5
 40
0.5
 40
0.75
 40
0.75
 40
0.75
 40
0.75
 40
1.0
 40
1.0
 40
1.0
 40
1.0
 10
1.3071023622047244
 20
0.4178740157480315
 30
0.0
 10
1.3078779527559055
 20
0.423996062992126
 30
0.0
 10
1.2941574803149607
 20
0.4313779527559055
 30
0.0
 10
1.286232283464567
 20
0.4361338582677166
 30
0.0
 10
1.286232283464567
 20
0.4361338582677166
 30
0.0
 10
1.2874409448818898
 20
0.4385511811023622
 30
0.0
 10
1.300996062992126
 20
0.4549133858267717
 30
0.0
 10
1.2957125984251969
 20
0.4621338582677166
 30
0.0
 10
1.2957125984251969
 20
0.4621338582677166
 30
0.0
 10
1.2871653543307087
 20
0.4738031496062992
 30
0.0
 10
1.2618779527559056
 20
0.4364645669291339
 30
0.0
 10
1.25098031496063
 20
0.4237244094488189
 30
0.0
 10
1.25098031496063
 20
0.4237244094488189
 30
0.0
 10
1.2755236220472441
 20
0.4163543307086615
 30
0.0
 10
1.3074645669291338
 20
0.4049763779527559
 30
0.0
 10
1.3071023622047244
 20
0.4178740157480315
 30
0.0
  0
SPLINE
  5
58
100
AcDbEntity
  8
Layer 1
370
    18
100
AcDbSpline
210
0.0
220
0.0
230
1.0
 70
     1
 71
     3
 72
    20
 73
    16
 74
     0
 42
0.0000000001
 43
0.0000000001
 40
0.0
 40
0.0
 40
0.0
 40
0.0
 40
0.25
 40
0.25
 40
0.25
 40
0.25
 40
0.5
 40
0.5
 40
0.5
 40
0.5
 40
0.75
 40
0.75
 40
0.75
 40
0.75
 40
1.0
 40
1.0
 40
1.0
 40
1.0
 10
1.1860039370078741
 20
0.3981062992125984
 30
0.0
 10
1.1833228346456692
 20
0.4036653543307087
 30
0.0
 10
1.1939803149606301
 20
0.4150236220472441
 30
0.0
 10
1.199984251968504
 20
0.4220511811023622
 30
0.0
 10
1.199984251968504
 20
0.4220511811023622
 30
0.0
 10
1.1980669291338584
 20
0.4239606299212599
 30
0.0
 10
1.1800157480314961
 20
0.4351653543307087
 30
0.0
 10
1.1827283464566929
 20
0.4436889763779528
 30
0.0
 10
1.1827283464566929
 20
0.4436889763779528
 30
0.0
 10
1.1871181102362205
 20
0.4574685039370079
 30
0.0
 10
1.222968503937008
 20
0.4301102362204725
 30
0.0
 10
1.2373503937007875
 20
0.4215
 30
0.0
 10
1.2373503937007875
 20
0.4215
 30
0.0
 10
1.2164251968503939
 20
0.4067086614173229
 30
0.0
 10
1.1897637795275591
 20
0.385759842519685
 30
0.0
 10
1.1860039370078741
 20
0.3981062992125984
 30
0.0
  0
SPLINE
  5
59
100
AcDbEntity
  8
Layer 1
370
    18
100
AcDbSpline
210
0.0
220
0.0
230
1.0
 70
     1
 71
     3
 72
    20
 73
    16
 74
     0
 42
0.0000000001
 43
0.0000000001
 40
0.0
 40
0.0
 40
0.0
 40
0.0
 40
0.25
 40
0.25
 40
0.25
 40
0.25
 40
0.5
 40
0.5
 40
0.5
 40
0.5
 40
0.75
 40
0.75
 40
0.75
 40
0.75
 40
1.0
 40
1.0
 40
1.0
 40
1.0
 10
1.1131574803149606
 20
0.4519448818897638
 30
0.0
 10
1.1216850393700788
 20
0.4498543307086614
 30
0.0
 10
1.1343425196850394
 20
0.4680433070866142
 30
0.0
 10
1.1423503937007875
 20
0.4784724409448819
 30
0.0
 10
1.1423503937007875
 20
0.4784724409448819
 30
0.0
 10
1.1455708661417323
 20
0.4763700787401575
 30
0.0
 10
1.166492125984252
 20
0.4545629921259843
 30
0.0
 10
1.1775511811023622
 20
0.4608582677165354
 30
0.0
 10
1.1775511811023622
 20
0.4608582677165354
 30
0.0
 10
1.1954330708661418
 20
0.4710393700787402
 30
0.0
 10
1.1467677165354331
 20
0.5128346456692914
 30
0.0
 10
1.1305354330708661
 20
0.5303031496062992
 30
0.0
 10
1.1305354330708661
 20
0.5303031496062992
 30
0.0
 10
1.1161377952755906
 20
0.4968149606299213
 30
0.0
 10
1.0948700787401575
 20
0.4535275590551181
 30
0.0
 10
1.1131574803149606
 20
0.4519448818897638
 30
0.0
  0
SPLINE
  5
5A
100
AcDbEntity
  8
Layer 1
370
    18
100
AcDbSpline
210
0.0
220
0.0
230
1.0
 70
     1
 71
     3
 72
    20
 73
    16
 74
     0
 42
0.0000000001
 43
0.0000000001
 40
0.0
 40
0.0
 40
0.0
 40
0.0
 40
0.25
 40
0.25
 40
0.25
 40
0.25
 40
0.5
 40
0.5
 40
0.5
 40
0.5
 40
0.75
 40
0.75
 40
0.75
 40
0.75
 40
1.0
 40
1.0
 40
1.0
 40
1.0
 10
1.0859330708661419
 20
0.6187007874015749
 30
0.0
 10
1.0933543307086615
 20
0.6233937007874016
 30
0.0
 10
1.1111377952755905
 20
0.6101732283464567
 30
0.0
 10
1.1220472440944882
 20
0.6028346456692914
 30
0.0
 10
1.1220472440944882
 20
0.6028346456692914
 30
0.0
 10
1.1244291338582677
 20
0.6058503937007874
 30
0.0
 10
1.1373307086614173
 20
0.6331811023622047
 30
0.0
 10
1.1498188976377952
 20
0.630728346456693
 30
0.0
 10
1.1498188976377952
 20
0.630728346456693
 30
0.0
 10
1.170007874015748
 20
0.6267637795275591
 30
0.0
 10
1.1371653543307088
 20
0.5716614173228347
 30
0.0
 10
1.1273307086614173
 20
0.5499370078740158
 30
0.0
 10
1.1273307086614173
 20
0.5499370078740158
 30
0.0
 10
1.1030314960629921
 20
0.5771062992125985
 30
0.0
 10
1.0690984251968505
 20
0.6113818897637795
 30
0.0
 10
1.0859330708661419
 20
0.6187007874015749
 30
0.0
  0
SPLINE
  5
5B
100
AcDbEntity
  8
Layer 1
370
    18
100
AcDbSpline
210
0.0
220
0.0
230
1.0
 70
     1
 71
     3
 72
    20
 73
    16
 74
     0
 42
0.0000000001
 43
0.0000000001
 40
0.0
 40
0.0
 40
0.0
 40
0.0
 40
0.25
 40
0.25
 40
0.25
 40
0.25
 40
0.5
 40
0.5
 40
0.5
 40
0.5
 40
0.75
 40
0.75
 40
0.75
 40
0.75
 40
1.0
 40
1.0
 40
1.0
 40
1.0
 10
1.2176811023622047
 20
0.5349291338582678
 30
0.0
 10
1.2187834645669291
 20
0.5436377952755905
 30
0.0
 10
1.1992677165354331
 20
0.5541377952755906
 30
0.0
 10
1.187996062992126
 20
0.5609015748031496
 30
0.0
 10
1.187996062992126
 20
0.5609015748031496
 30
0.0
 10
1.189716535433071
 20
0.5643385826771654
 30
0.0
 10
1.208992125984252
 20
0.5876141732283465
 30
0.0
 10
1.201476377952756
 20
0.5978818897637795
 30
0.0
 10
1.201476377952756
 20
0.5978818897637795
 30
0.0
 10
1.1893228346456692
 20
0.614484251968504
 30
0.0
 10
1.1533503937007874
 20
0.5613700787401575
 30
0.0
 10
1.1378503937007876
 20
0.543248031496063
 30
0.0
 10
1.1378503937007876
 20
0.543248031496063
 30
0.0
 10
1.172759842519685
 20
0.5327677165354331
 30
0.0
 10
1.2181929133858269
 20
0.5165787401574803
 30
0.0
 10
1.2176811023622047
 20
0.5349291338582678
 30
0.0
  0
SPLINE
  5
5C
100
AcDbEntity
  8
Layer 1
370
    18
100
AcDbSpline
210
0.0
220
0.0
230
1.0
 70
     1
 71
     3
 72
    20
 73
    16
 74
     0
 42
0.0000000001
 43
0.0000000001
 40
0.0
 40
0.0
 40
0.0
 40
0.0
 40
0.25
 40
0.25
 40
0.25
 40
0.25
 40
0.5
 40
0.5
 40
0.5
 40
0.5
 40
0.75
 40
0.75
 40
0.75
 40
0.75
 40
1.0
 40
1.0
 40
1.0
 40
1.0
 10
1.0454212598425197
 20
0.5068070866141733
 30
0.0
 10
1.0416062992125985
 20
0.5147125984251969
 30
0.0
 10
1.0567677165354332
 20
0.5308740157480315
 30
0.0
 10
1.0653070866141732
 20
0.5408700787401575
 30
0.0
 10
1.0653070866141732
 20
0.5408700787401575
 30
0.0
 10
1.0625826771653544
 20
0.5435826771653544
 30
0.0
 10
1.0369015748031496
 20
0.5595196850393701
 30
0.0
 10
1.0407637795275591
 20
0.5716456692913386
 30
0.0
 10
1.0407637795275591
 20
0.5716456692913386
 30
0.0
 10
1.047007874015748
 20
0.591251968503937
 30
0.0
 10
1.0980000000000001
 20
0.5523307086614173
 30
0.0
 10
1.1184606299212598
 20
0.5400826771653543
 30
0.0
 10
1.1184606299212598
 20
0.5400826771653543
 30
0.0
 10
1.0886968503937009
 20
0.5190433070866142
 30
0.0
 10
1.0507716535433071
 20
0.489248031496063
 30
0.0
 10
1.0454212598425197
 20
0.5068070866141733
 30
0.0
  0
SPLINE
  5
5D
100
AcDbEntity
  8
Layer 1
370
    18
100
AcDbSpline
210
0.0
220
0.0
230
1.0
 70
     1
 71
     3
 72
    20
 73
    16
 74
     0
 42
0.0000000001
 43
0.0000000001
 40
0.0
 40
0.0
 40
0.0
 40
0.0
 40
0.25
 40
0.25
 40
0.25
 40
0.25
 40
0.5
 40
0.5
 40
0.5
 40
0.5
 40
0.75
 40
0.75
 40
0.75
 40
0.75
 40
1.0
 40
1.0
 40
1.0
 40
1.0
 10
1.3287834645669292
 20
0.9509409448818899
 30
0.0
 10
1.3447007874015748
 20
0.9470433070866142
 30
0.0
 10
1.3683307086614174
 20
0.981
 30
0.0
 10
1.3832795275590553
 20
1.0004685039370078
 30
0.0
 10
1.3832795275590553
 20
1.0004685039370078
 30
0.0
 10
1.3892913385826773
 20
0.9965433070866142
 30
0.0
 10
1.4283582677165354
 20
0.9558267716535434
 30
0.0
 10
1.449003937007874
 20
0.9675826771653544
 30
0.0
 10
1.449003937007874
 20
0.9675826771653544
 30
0.0
 10
1.4823897637795276
 20
0.9865905511811024
 30
0.0
 10
1.3915314960629921
 20
1.0646220472440946
 30
0.0
 10
1.3612244094488188
 20
1.097240157480315
 30
0.0
 10
1.3612244094488188
 20
1.097240157480315
 30
0.0
 10
1.3343425196850394
 20
1.0347204724409449
 30
0.0
 10
1.2946377952755905
 20
0.9538976377952756
 30
0.0
 10
1.3287834645669292
 20
0.9509409448818899
 30
0.0
  0
SPLINE
  5
5E
100
AcDbEntity
  8
Layer 1
370
    18
100
AcDbSpline
210
0.0
220
0.0
230
1.0
 70
     1
 71
     3
 72
    20
 73
    16
 74
     0
 42
0.0000000001
 43
0.0000000001
 40
0.0
 40
0.0
 40
0.0
 40
0.0
 40
0.25
 40
0.25
 40
0.25
 40
0.25
 40
0.5
 40
0.5
 40
0.5
 40
0.5
 40
0.75
 40
0.75
 40
0.75
 40
0.75
 40
1.0
 40
1.0
 40
1.0
 40
1.0
 10
1.2779527559055119
 20
1.2622795275590553
 30
0.0
 10
1.2918031496062992
 20
1.2710393700787401
 30
0.0
 10
1.3250118110236222
 20
1.2463622047244094
 30
0.0
 10
1.3453740157480316
 20
1.2326574803149606
 30
0.0
 10
1.3453740157480316
 20
1.2326574803149606
 30
0.0
 10
1.3498267716535433
 20
1.2382874015748031
 30
0.0
 10
1.3739133858267718
 20
1.2893149606299212
 30
0.0
 10
1.3972244094488189
 20
1.284740157480315
 30
0.0
 10
1.3972244094488189
 20
1.284740157480315
 30
0.0
 10
1.4349212598425198
 20
1.2773346456692913
 30
0.0
 10
1.3736023622047244
 20
1.1744566929133859
 30
0.0
 10
1.355240157480315
 20
1.1338976377952756
 30
0.0
 10
1.355240157480315
 20
1.1338976377952756
 30
0.0
 10
1.3098700787401576
 20
1.1846220472440945
 30
0.0
 10
1.2465236220472442
 20
1.2486181102362206
 30
0.0
 10
1.2779527559055119
 20
1.2622795275590553
 30
0.0
  0
SPLINE
  5
5F
100
AcDbEntity
  8
Layer 1
370
    18
100
AcDbSpline
210
0.0
220
0.0
230
1.0
 70
     1
 71
     3
 72
    20
 73
    16
 74
     0
 42
0.0000000001
 43
0.0000000001
 40
0.0
 40
0.0
 40
0.0
 40
0.0
 40
0.25
 40
0.25
 40
0.25
 40
0.25
 40
0.5
 40
0.5
 40
0.5
 40
0.5
 40
0.75
 40
0.75
 40
0.75
 40
0.75
 40
1.0
 40
1.0
 40
1.0
 40
1.0
 10
1.5239251968503937
 20
1.1058740157480316
 30
0.0
 10
1.5259842519685041
 20
1.1221338582677165
 30
0.0
 10
1.4895511811023623
 20
1.1417362204724411
 30
0.0
 10
1.4685039370078741
 20
1.1543661417322835
 30
0.0
 10
1.4685039370078741
 20
1.1543661417322835
 30
0.0
 10
1.4717125984251969
 20
1.1607874015748032
 30
0.0
 10
1.5077047244094488
 20
1.2042440944881889
 30
0.0
 10
1.4936732283464567
 20
1.2234133858267717
 30
0.0
 10
1.4936732283464567
 20
1.2234133858267717
 30
0.0
 10
1.47098031496063
 20
1.2544094488188977
 30
0.0
 10
1.4038228346456694
 20
1.1552401574803151
 30
0.0
 10
1.3748818897637796
 20
1.1214055118110238
 30
0.0
 10
1.3748818897637796
 20
1.1214055118110238
 30
0.0
 10
1.4400590551181103
 20
1.1018385826771655
 30
0.0
 10
1.5248858267716536
 20
1.0716181102362206
 30
0.0
 10
1.5239251968503937
 20
1.1058740157480316
 30
0.0
  0
SPLINE
  5
60
100
AcDbEntity
  8
Layer 1
370
    18
100
AcDbSpline
210
0.0
220
0.0
230
1.0
 70
     1
 71
     3
 72
    20
 73
    16
 74
     0
 42
0.0000000001
 43
0.0000000001
 40
0.0
 40
0.0
 40
0.0
 40
0.0
 40
0.25
 40
0.25
 40
0.25
 40
0.25
 40
0.5
 40
0.5
 40
0.5
 40
0.5
 40
0.75
 40
0.75
 40
0.75
 40
0.75
 40
1.0
 40
1.0
 40
1.0
 40
1.0
 10
1.2023149606299213
 20
1.0533700787401574
 30
0.0
 10
1.1951929133858268
 20
1.0681299212598425
 30
0.0
 10
1.2235
 20
1.0983031496062992
 30
0.0
 10
1.2394370078740158
 20
1.1169685039370079
 30
0.0
 10
1.2394370078740158
 20
1.1169685039370079
 30
0.0
 10
1.2343543307086615
 20
1.1220354330708662
 30
0.0
 10
1.1864094488188976
 20
1.1517874015748031
 30
0.0
 10
1.1936181102362204
 20
1.1744251968503938
 30
0.0
 10
1.1936181102362204
 20
1.1744251968503938
 30
0.0
 10
1.2052755905511812
 20
1.2110314960629922
 30
0.0
 10
1.3004803149606299
 20
1.1383661417322835
 30
0.0
 10
1.3386811023622047
 20
1.115496062992126
 30
0.0
 10
1.3386811023622047
 20
1.115496062992126
 30
0.0
 10
1.2831102362204725
 20
1.0762125984251969
 30
0.0
 10
1.2123031496062993
 20
1.0205866141732285
 30
0.0
 10
1.2023149606299213
 20
1.0533700787401574
 30
0.0
  0
SPLINE
  5
61
100
AcDbEntity
  8
Layer 1
370
    18
100
AcDbSpline
210
0.0
220
0.0
230
1.0
 70
     1
 71
     3
 72
    20
 73
    16
 74
     0
 42
0.0000000001
 43
0.0000000001
 40
0.0
 40
0.0
 40
0.0
 40
0.0
 40
0.25
 40
0.25
 40
0.25
 40
0.25
 40
0.5
 40
0.5
 40
0.5
 40
0.5
 40
0.75
 40
0.75
 40
0.75
 40
0.75
 40
1.0
 40
1.0
 40
1.0
 40
1.0
 10
1.0009015748031496
 20
0.5935866141732283
 30
0.0
 10
1.0325393700787402
 20
0.6003228346456693
 30
0.0
 10
1.0438582677165356
 20
0.6744055118110236
 30
0.0
 10
1.0528228346456694
 20
0.7180236220472441
 30
0.0
 10
1.0528228346456694
 20
0.7180236220472441
 30
0.0
 10
1.0669685039370078
 20
0.7166181102362205
 30
0.0
 10
1.1725551181102363
 20
0.6829291338582677
 30
0.0
 10
1.198507874015748
 20
0.7187677165354331
 30
0.0
 10
1.198507874015748
 20
0.7187677165354331
 30
0.0
 10
1.24048031496063
 20
0.7767244094488189
 30
0.0
 10
1.0098661417322834
 20
0.8282204724409449
 30
0.0
 10
0.9270314960629922
 20
0.8560157480314961
 30
0.0
 10
0.9270314960629922
 20
0.8560157480314961
 30
0.0
 10
0.9355866141732284
 20
0.7332165354330709
 30
0.0
 10
0.9378897637795276
 20
0.5704251968503937
 30
0.0
 10
1.0009015748031496
 20
0.5935866141732283
 30
0.0
  0
SPLINE
  5
62
100
AcDbEntity
  8
Layer 1
370
    18
100
AcDbSpline
210
0.0
220
0.0
230
1.0
 70
     1
 71
     3
 72
    20
 73
    16
 74
     0
 42
0.0000000001
 43
0.0000000001
 40
0.0
 40
0.0
 40
0.0
 40
0.0
 40
0.25
 40
0.25
 40
0.25
 40
0.25
 40
0.5
 40
0.5
 40
0.5
 40
0.5
 40
0.75
 40
0.75
 40
0.75
 40
0.75
 40
1.0
 40
1.0
 40
1.0
 40
1.0
 10
0.6317874015748032
 20
1.054
 30
0.0
 10
0.6484173228346457
 20
1.0794527559055118
 30
0.0
 10
0.729251968503937
 20
1.0668267716535433
 30
0.0
 10
0.7775433070866142
 20
1.0613937007874017
 30
0.0
 10
0.7775433070866142
 20
1.0613937007874017
 30
0.0
 10
0.7803661417322835
 20
1.0741141732283466
 30
0.0
 10
0.7771811023622047
 20
1.1760944881889763
 30
0.0
 10
0.822496062992126
 20
1.1877834645669292
 30
0.0
 10
0.822496062992126
 20
1.1877834645669292
 30
0.0
 10
0.8957795275590551
 20
1.2066850393700788
 30
0.0
 10
0.8796496062992126
 20
0.9906417322834646
 30
0.0
 10
0.8835708661417323
 20
0.910220472440945
 30
0.0
 10
0.8835708661417323
 20
0.910220472440945
 30
0.0
 10
0.7578700787401576
 20
0.9548937007874017
 30
0.0
 10
0.5884803149606299
 20
1.006255905511811
 30
0.0
 10
0.6317874015748032
 20
1.054
 30
0.0
  0
SPLINE
  5
63
100
AcDbEntity
  8
Layer 1
370
    18
100
AcDbSpline
210
0.0
220
0.0
230
1.0
 70
     1
 71
     3
 72
    20
 73
    16
 74
     0
 42
0.0000000001
 43
0.0000000001
 40
0.0
 40
0.0
 40
0.0
 40
0.0
 40
0.25
 40
0.25
 40
0.25
 40
0.25
 40
0.5
 40
0.5
 40
0.5
 40
0.5
 40
0.75
 40
0.75
 40
0.75
 40
0.75
 40
1.0
 40
1.0
 40
1.0
 40
1.0
 10
1.2069173228346457
 20
1.0030393700787401
 30
0.0
 10
1.1959685039370078
 20
1.0309409448818898
 30
0.0
 10
1.11398031496063
 20
1.032740157480315
 30
0.0
 10
1.0654448818897637
 20
1.0358818897637796
 30
0.0
 10
1.0654448818897637
 20
1.0358818897637796
 30
0.0
 10
1.0653622047244096
 20
1.0488622047244094
 30
0.0
 10
1.0900078740157482
 20
1.1483740157480316
 30
0.0
 10
1.048003937007874
 20
1.1678031496062993
 30
0.0
 10
1.048003937007874
 20
1.1678031496062993
 30
0.0
 10
0.9800826771653544
 20
1.1992165354330708
 30
0.0
 10
0.9503188976377953
 20
0.9843818897637796
 30
0.0
 10
0.9294960629921261
 20
0.9061535433070866
 30
0.0
 10
0.9294960629921261
 20
0.9061535433070866
 30
0.0
 10
1.0622755905511811
 20
0.9279212598425197
 30
0.0
 10
1.2393385826771655
 20
0.9485866141732284
 30
0.0
 10
1.2069173228346457
 20
1.0030393700787401
 30
0.0
  0
SPLINE
  5
64
100
AcDbEntity
  8
Layer 1
370
    18
100
AcDbSpline
210
0.0
220
0.0
230
1.0
 70
     1
 71
     3
 72
    20
 73
    16
 74
     0
 42
0.0000000001
 43
0.0000000001
 40
0.0
 40
0.0
 40
0.0
 40
0.0
 40
0.25
 40
0.25
 40
0.25
 40
0.25
 40
0.5
 40
0.5
 40
0.5
 40
0.5
 40
0.75
 40
0.75
 40
0.75
 40
0.75
 40
1.0
 40
1.0
 40
1.0
 40
1.0
 10
0.6854527559055118
 20
0.6552795275590552
 30
0.0
 10
0.6596220472440946
 20
0.673255905511811
 30
0.0
 10
0.6826062992125984
 20
0.7450590551181102
 30
0.0
 10
0.6940354330708661
 20
0.7881929133858268
 30
0.0
 10
0.6940354330708661
 20
0.7881929133858268
 30
0.0
 10
0.6805
 20
0.7922047244094489
 30
0.0
 10
0.5690551181102362
 20
0.8009566929133859
 30
0.0
 10
0.561492125984252
 20
0.8433543307086615
 30
0.0
 10
0.561492125984252
 20
0.8433543307086615
 30
0.0
 10
0.5492677165354331
 20
0.9119094488188977
 30
0.0
 10
0.7827559055118111
 20
0.8726377952755906
 30
0.0
 10
0.8708031496062992
 20
0.8670118110236221
 30
0.0
 10
0.8708031496062992
 20
0.8670118110236221
 30
0.0
 10
0.8077952755905512
 20
0.7582125984251968
 30
0.0
 10
0.7325118110236221
 20
0.6105905511811024
 30
0.0
 10
0.6854527559055118
 20
0.6552795275590552
 30
0.0
  0
SPLINE
  5
65
100
AcDbEntity
  8
Layer 1
370
    18
100
AcDbSpline
210
0.0
220
0.0
230
1.0
 70
     1
 71
     3
 72
    20
 73
    16
 74
     0
 42
0.0000000001
 43
0.0000000001
 40
0.0
 40
0.0
 40
0.0
 40
0.0
 40
0.25
 40
0.25
 40
0.25
 40
0.25
 40
0.5
 40
0.5
 40
0.5
 40
0.5
 40
0.75
 40
0.75
 40
0.75
 40
0.75
 40
1.0
 40
1.0
 40
1.0
 40
1.0
 10
1.0456417322834646
 20
0.0343346456692913
 30
0.0
 10
1.0535472440944882
 20
0.0360157480314961
 30
0.0
 10
1.0563740157480315
 20
0.0545275590551181
 30
0.0
 10
1.0586141732283465
 20
0.0654212598425197
 30
0.0
 10
1.0586141732283465
 20
0.0654212598425197
 30
0.0
 10
1.0621496062992126
 20
0.0650708661417323
 30
0.0
 10
1.0885275590551182
 20
0.0566535433070866
 30
0.0
 10
1.095011811023622
 20
0.0656102362204724
 30
0.0
 10
1.095011811023622
 20
0.0656102362204724
 30
0.0
 10
1.105496062992126
 20
0.0800866141732283
 30
0.0
 10
1.0478818897637796
 20
0.0929527559055118
 30
0.0
 10
1.0271889763779527
 20
0.0998976377952756
 30
0.0
 10
1.0271889763779527
 20
0.0998976377952756
 30
0.0
 10
1.0293267716535432
 20
0.0692165354330709
 30
0.0
 10
1.0299015748031497
 20
0.0285472440944882
 30
0.0
 10
1.0456417322834646
 20
0.0343346456692913
 30
0.0
  0
SPLINE
  5
66
100
AcDbEntity
  8
Layer 1
370
    18
100
AcDbSpline
210
0.0
220
0.0
230
1.0
 70
     1
 71
     3
 72
    20
 73
    16
 74
     0
 42
0.0000000001
 43
0.0000000001
 40
0.0
 40
0.0
 40
0.0
 40
0.0
 40
0.25
 40
0.25
 40
0.25
 40
0.25
 40
0.5
 40
0.5
 40
0.5
 40
0.5
 40
0.75
 40
0.75
 40
0.75
 40
0.75
 40
1.0
 40
1.0
 40
1.0
 40
1.0
 10
0.9534291338582678
 20
0.1493582677165354
 30
0.0
 10
0.9575826771653544
 20
0.1557165354330709
 30
0.0
 10
0.9777795275590552
 20
0.1525629921259843
 30
0.0
 10
0.9898425196850395
 20
0.1512047244094488
 30
0.0
 10
0.9898425196850395
 20
0.1512047244094488
 30
0.0
 10
0.9905472440944882
 20
0.1543818897637795
 30
0.0
 10
0.9897519685039371
 20
0.1798622047244095
 30
0.0
 10
1.0010748031496064
 20
0.1827834645669292
 30
0.0
 10
1.0010748031496064
 20
0.1827834645669292
 30
0.0
 10
1.0193818897637796
 20
0.187503937007874
 30
0.0
 10
1.0153503937007875
 20
0.1335314960629921
 30
0.0
 10
1.0163307086614173
 20
0.1134370078740158
 30
0.0
 10
1.0163307086614173
 20
0.1134370078740158
 30
0.0
 10
0.9849251968503937
 20
0.1245984251968504
 30
0.0
 10
0.9426102362204725
 20
0.1374330708661417
 30
0.0
 10
0.9534291338582678
 20
0.1493582677165354
 30
0.0
  0
SPLINE
  5
67
100
AcDbEntity
  8
Layer 1
370
    18
100
AcDbSpline
210
0.0
220
0.0
230
1.0
 70
     1
 71
     3
 72
    20
 73
    16
 74
     0
 42
0.0000000001
 43
0.0000000001
 40
0.0
 40
0.0
 40
0.0
 40
0.0
 40
0.25
 40
0.25
 40
0.25
 40
0.25
 40
0.5
 40
0.5
 40
0.5
 40
0.5
 40
0.75
 40
0.75
 40
0.75
 40
0.75
 40
1.0
 40
1.0
 40
1.0
 40
1.0
 10
1.0971141732283465
 20
0.1366259842519685
 30
0.0
 10
1.0943779527559057
 20
0.1435984251968504
 30
0.0
 10
1.0738937007874017
 20
0.1440472440944882
 30
0.0
 10
1.0617677165354331
 20
0.1448346456692914
 30
0.0
 10
1.0617677165354331
 20
0.1448346456692914
 30
0.0
 10
1.061748031496063
 20
0.1480748031496063
 30
0.0
 10
1.0679055118110237
 20
0.1729370078740158
 30
0.0
 10
1.0574133858267718
 20
0.1777913385826772
 30
0.0
 10
1.0574133858267718
 20
0.1777913385826772
 30
0.0
 10
1.0404448818897638
 20
0.1856377952755905
 30
0.0
 10
1.033007874015748
 20
0.1319645669291339
 30
0.0
 10
1.0278031496062991
 20
0.1124212598425197
 30
0.0
 10
1.0278031496062991
 20
0.1124212598425197
 30
0.0
 10
1.0609763779527559
 20
0.1178622047244095
 30
0.0
 10
1.1052125984251968
 20
0.1230236220472441
 30
0.0
 10
1.0971141732283465
 20
0.1366259842519685
 30
0.0
  0
SPLINE
  5
68
100
AcDbEntity
  8
Layer 1
370
    18
100
AcDbSpline
210
0.0
220
0.0
230
1.0
 70
     1
 71
     3
 72
    20
 73
    16
 74
     0
 42
0.0000000001
 43
0.0000000001
 40
0.0
 40
0.0
 40
0.0
 40
0.0
 40
0.25
 40
0.25
 40
0.25
 40
0.25
 40
0.5
 40
0.5
 40
0.5
 40
0.5
 40
0.75
 40
0.75
 40
0.75
 40
0.75
 40
1.0
 40
1.0
 40
1.0
 40
1.0
 10
0.9668346456692913
 20
0.049748031496063
 30
0.0
 10
0.9603818897637796
 20
0.0542362204724409
 30
0.0
 10
0.9661220472440946
 20
0.0721771653543307
 30
0.0
 10
0.96898031496063
 20
0.0829527559055118
 30
0.0
 10
0.96898031496063
 20
0.0829527559055118
 30
0.0
 10
0.9655984251968505
 20
0.0839527559055118
 30
0.0
 10
0.9377559055118111
 20
0.0861417322834646
 30
0.0
 10
0.9358661417322836
 20
0.0967322834645669
 30
0.0
 10
0.9358661417322836
 20
0.0967322834645669
 30
0.0
 10
0.9328110236220473
 20
0.1138622047244095
 30
0.0
 10
0.9911456692913386
 20
0.1040472440944882
 30
0.0
 10
1.0131417322834646
 20
0.1026417322834646
 30
0.0
 10
1.0131417322834646
 20
0.1026417322834646
 30
0.0
 10
0.9974015748031496
 20
0.0754606299212598
 30
0.0
 10
0.9785905511811024
 20
0.0385826771653543
 30
0.0
 10
0.9668346456692913
 20
0.049748031496063
 30
0.0
  0
SPLINE
  5
69
100
AcDbEntity
  8
Layer 1
370
    18
100
AcDbSpline
210
0.0
220
0.0
230
1.0
 70
     1
 71
     3
 72
    20
 73
    16
 74
     0
 42
0.0000000001
 43
0.0000000001
 40
0.0
 40
0.0
 40
0.0
 40
0.0
 40
0.25
 40
0.25
 40
0.25
 40
0.25
 40
0.5
 40
0.5
 40
0.5
 40
0.5
 40
0.75
 40
0.75
 40
0.75
 40
0.75
 40
1.0
 40
1.0
 40
1.0
 40
1.0
 10
0.7997716535433072
 20
-0.1272874015748031
 30
0.0
 10
0.8163937007874016
 20
-0.1234094488188977
 30
0.0
 10
0.8223425196850394
 20
-0.0807322834645669
 30
0.0
 10
0.8270511811023622
 20
-0.0556062992125984
 30
0.0
 10
0.8270511811023622
 20
-0.0556062992125984
 30
0.0
 10
0.834484251968504
 20
-0.0564173228346457
 30
0.0
 10
0.8899566929133859
 20
-0.0758228346456693
 30
0.0
 10
0.9035905511811024
 20
-0.0551771653543307
 30
0.0
 10
0.9035905511811024
 20
-0.0551771653543307
 30
0.0
 10
0.9256417322834646
 20
-0.0217913385826772
 30
0.0
 10
0.80448031496063
 20
0.0078700787401575
 30
0.0
 10
0.7609606299212599
 20
0.0238818897637795
 30
0.0
 10
0.7609606299212599
 20
0.0238818897637795
 30
0.0
 10
0.7654566929133858
 20
-0.0468543307086614
 30
0.0
 10
0.7666653543307087
 20
-0.1406299212598425
 30
0.0
 10
0.7997716535433072
 20
-0.1272874015748031
 30
0.0
  0
SPLINE
  5
6A
100
AcDbEntity
  8
Layer 1
370
    18
100
AcDbSpline
210
0.0
220
0.0
230
1.0
 70
     1
 71
     3
 72
    20
 73
    16
 74
     0
 42
0.0000000001
 43
0.0000000001
 40
0.0
 40
0.0
 40
0.0
 40
0.0
 40
0.25
 40
0.25
 40
0.25
 40
0.25
 40
0.5
 40
0.5
 40
0.5
 40
0.5
 40
0.75
 40
0.75
 40
0.75
 40
0.75
 40
1.0
 40
1.0
 40
1.0
 40
1.0
 10
0.6058464566929134
 20
0.1379291338582677
 30
0.0
 10
0.6145826771653543
 20
0.1525944881889764
 30
0.0
 10
0.6570551181102362
 20
0.1453188976377953
 30
0.0
 10
0.6824251968503937
 20
0.1421889763779528
 30
0.0
 10
0.6824251968503937
 20
0.1421889763779528
 30
0.0
 10
0.6839055118110237
 20
0.1495157480314961
 30
0.0
 10
0.682232283464567
 20
0.2082598425196851
 30
0.0
 10
0.7060433070866142
 20
0.214996062992126
 30
0.0
 10
0.7060433070866142
 20
0.214996062992126
 30
0.0
 10
0.7445433070866142
 20
0.2258858267716536
 30
0.0
 10
0.7360708661417323
 20
0.1014330708661417
 30
0.0
 10
0.7381299212598426
 20
0.0551062992125984
 30
0.0
 10
0.7381299212598426
 20
0.0551062992125984
 30
0.0
 10
0.6720866141732284
 20
0.0808385826771654
 30
0.0
 10
0.5830944881889764
 20
0.1104291338582677
 30
0.0
 10
0.6058464566929134
 20
0.1379291338582677
 30
0.0
  0
SPLINE
  5
6B
100
AcDbEntity
  8
Layer 1
370
    18
100
AcDbSpline
210
0.0
220
0.0
230
1.0
 70
     1
 71
     3
 72
    20
 73
    16
 74
     0
 42
0.0000000001
 43
0.0000000001
 40
0.0
 40
0.0
 40
0.0
 40
0.0
 40
0.25
 40
0.25
 40
0.25
 40
0.25
 40
0.5
 40
0.5
 40
0.5
 40
0.5
 40
0.75
 40
0.75
 40
0.75
 40
0.75
 40
1.0
 40
1.0
 40
1.0
 40
1.0
 10
0.9080078740157481
 20
0.1085748031496063
 30
0.0
 10
0.9022598425196851
 20
0.1246456692913386
 30
0.0
 10
0.8591811023622048
 20
0.1256811023622047
 30
0.0
 10
0.8336850393700788
 20
0.127492125984252
 30
0.0
 10
0.8336850393700788
 20
0.127492125984252
 30
0.0
 10
0.8336377952755906
 20
0.1349685039370079
 30
0.0
 10
0.8465866141732283
 20
0.1922952755905512
 30
0.0
 10
0.8245196850393701
 20
0.203484251968504
 30
0.0
 10
0.8245196850393701
 20
0.203484251968504
 30
0.0
 10
0.7888346456692914
 20
0.2215826771653544
 30
0.0
 10
0.7731968503937008
 20
0.0978267716535433
 30
0.0
 10
0.762259842519685
 20
0.0527637795275591
 30
0.0
 10
0.762259842519685
 20
0.0527637795275591
 30
0.0
 10
0.8320196850393701
 20
0.0653031496062992
 30
0.0
 10
0.9250433070866142
 20
0.0772086614173228
 30
0.0
 10
0.9080078740157481
 20
0.1085748031496063
 30
0.0
  0
SPLINE
  5
6C
100
AcDbEntity
  8
Layer 1
370
    18
100
AcDbSpline
210
0.0
220
0.0
230
1.0
 70
     1
 71
     3
 72
    20
 73
    16
 74
     0
 42
0.0000000001
 43
0.0000000001
 40
0.0
 40
0.0
 40
0.0
 40
0.0
 40
0.25
 40
0.25
 40
0.25
 40
0.25
 40
0.5
 40
0.5
 40
0.5
 40
0.5
 40
0.75
 40
0.75
 40
0.75
 40
0.75
 40
1.0
 40
1.0
 40
1.0
 40
1.0
 10
0.6340433070866142
 20
-0.091751968503937
 30
0.0
 10
0.620472440944882
 20
-0.0813976377952756
 30
0.0
 10
0.6325433070866142
 20
-0.0400354330708661
 30
0.0
 10
0.6385511811023622
 20
-0.0151850393700787
 30
0.0
 10
0.6385511811023622
 20
-0.0151850393700787
 30
0.0
 10
0.6314409448818898
 20
-0.0128779527559055
 30
0.0
 10
0.5728897637795276
 20
-0.0078346456692913
 30
0.0
 10
0.5689173228346457
 20
0.0165866141732283
 30
0.0
 10
0.5689173228346457
 20
0.0165866141732283
 30
0.0
 10
0.562492125984252
 20
0.0560787401574803
 30
0.0
 10
0.6851614173228346
 20
0.0334566929133858
 30
0.0
 10
0.7314212598425197
 20
0.0302165354330709
 30
0.0
 10
0.7314212598425197
 20
0.0302165354330709
 30
0.0
 10
0.6983188976377953
 20
-0.0324566929133858
 30
0.0
 10
0.6587637795275591
 20
-0.117492125984252
 30
0.0
 10
0.6340433070866142
 20
-0.091751968503937
 30
0.0
  0
SPLINE
  5
6D
100
AcDbEntity
  8
Layer 1
370
    18
100
AcDbSpline
210
0.0
220
0.0
230
1.0
 70
     1
 71
     3
 72
    20
 73
    16
 74
     0
 42
0.0000000001
 43
0.0000000001
 40
0.0
 40
0.0
 40
0.0
 40
0.0
 40
0.25
 40
0.25
 40
0.25
 40
0.25
 40
0.5
 40
0.5
 40
0.5
 40
0.5
 40
0.75
 40
0.75
 40
0.75
 40
0.75
 40
1.0
 40
1.0
 40
1.0
 40
1.0
 10
0.4356023622047244
 20
-0.0151141732283465
 30
0.0
 10
0.442744094488189
 20
-0.0134488188976378
 30
0.0
 10
0.4453031496062992
 20
0.0048937007874016
 30
0.0
 10
0.4473267716535433
 20
0.0156889763779528
 30
0.0
 10
0.4473267716535433
 20
0.0156889763779528
 30
0.0
 10
0.4505196850393701
 20
0.0153425196850394
 30
0.0
 10
0.4743582677165354
 20
0.007
 30
0.0
 10
0.4802204724409449
 20
0.0158740157480315
 30
0.0
 10
0.4802204724409449
 20
0.0158740157480315
 30
0.0
 10
0.4896968503937008
 20
0.0302244094488189
 30
0.0
 10
0.4376259842519685
 20
0.0429724409448819
 30
0.0
 10
0.4189212598425197
 20
0.0498503937007874
 30
0.0
 10
0.4189212598425197
 20
0.0498503937007874
 30
0.0
 10
0.4208543307086614
 20
0.0194527559055118
 30
0.0
 10
0.4213740157480315
 20
-0.0208503937007874
 30
0.0
 10
0.4356023622047244
 20
-0.0151141732283465
 30
0.0
  0
SPLINE
  5
6E
100
AcDbEntity
  8
Layer 1
370
    18
100
AcDbSpline
210
0.0
220
0.0
230
1.0
 70
     1
 71
     3
 72
    20
 73
    16
 74
     0
 42
0.0000000001
 43
0.0000000001
 40
0.0
 40
0.0
 40
0.0
 40
0.0
 40
0.25
 40
0.25
 40
0.25
 40
0.25
 40
0.5
 40
0.5
 40
0.5
 40
0.5
 40
0.75
 40
0.75
 40
0.75
 40
0.75
 40
1.0
 40
1.0
 40
1.0
 40
1.0
 10
0.3522598425196851
 20
0.0988661417322835
 30
0.0
 10
0.3560118110236221
 20
0.1051692913385827
 30
0.0
 10
0.3742677165354331
 20
0.1020433070866142
 30
0.0
 10
0.3851692913385827
 20
0.1006968503937008
 30
0.0
 10
0.3851692913385827
 20
0.1006968503937008
 30
0.0
 10
0.3858070866141732
 20
0.1038464566929134
 30
0.0
 10
0.3850866141732284
 20
0.1290944881889764
 30
0.0
 10
0.3953188976377953
 20
0.131988188976378
 30
0.0
 10
0.3953188976377953
 20
0.131988188976378
 30
0.0
 10
0.4118661417322835
 20
0.1366653543307087
 30
0.0
 10
0.4082244094488189
 20
0.0831811023622047
 30
0.0
 10
0.4091102362204724
 20
0.0632716535433071
 30
0.0
 10
0.4091102362204724
 20
0.0632716535433071
 30
0.0
 10
0.3807283464566929
 20
0.0743307086614173
 30
0.0
 10
0.3424803149606299
 20
0.0870472440944882
 30
0.0
 10
0.3522598425196851
 20
0.0988661417322835
 30
0.0
  0
SPLINE
  5
6F
100
AcDbEntity
  8
Layer 1
370
    18
100
AcDbSpline
210
0.0
220
0.0
230
1.0
 70
     1
 71
     3
 72
    20
 73
    16
 74
     0
 42
0.0000000001
 43
0.0000000001
 40
0.0
 40
0.0
 40
0.0
 40
0.0
 40
0.25
 40
0.25
 40
0.25
 40
0.25
 40
0.5
 40
0.5
 40
0.5
 40
0.5
 40
0.75
 40
0.75
 40
0.75
 40
0.75
 40
1.0
 40
1.0
 40
1.0
 40
1.0
 10
0.4821181102362205
 20
0.086251968503937
 30
0.0
 10
0.4796456692913386
 20
0.0931574803149606
 30
0.0
 10
0.4611338582677166
 20
0.0936023622047244
 30
0.0
 10
0.4501771653543307
 20
0.0943818897637795
 30
0.0
 10
0.4501771653543307
 20
0.0943818897637795
 30
0.0
 10
0.4501574803149607
 20
0.0975944881889764
 30
0.0
 10
0.4557204724409449
 20
0.1222322834645669
 30
0.0
 10
0.4462362204724409
 20
0.1270393700787402
 30
0.0
 10
0.4462362204724409
 20
0.1270393700787402
 30
0.0
 10
0.4309015748031496
 20
0.1348188976377953
 30
0.0
 10
0.4241811023622047
 20
0.0816299212598425
 30
0.0
 10
0.4194803149606299
 20
0.0622637795275591
 30
0.0
 10
0.4194803149606299
 20
0.0622637795275591
 30
0.0
 10
0.4494606299212599
 20
0.0676535433070866
 30
0.0
 10
0.4894409448818898
 20
0.0727716535433071
 30
0.0
 10
0.4821181102362205
 20
0.086251968503937
 30
0.0
  0
SPLINE
  5
70
100
AcDbEntity
  8
Layer 1
370
    18
100
AcDbSpline
210
0.0
220
0.0
230
1.0
 70
     1
 71
     3
 72
    20
 73
    16
 74
     0
 42
0.0000000001
 43
0.0000000001
 40
0.0
 40
0.0
 40
0.0
 40
0.0
 40
0.25
 40
0.25
 40
0.25
 40
0.25
 40
0.5
 40
0.5
 40
0.5
 40
0.5
 40
0.75
 40
0.75
 40
0.75
 40
0.75
 40
1.0
 40
1.0
 40
1.0
 40
1.0
 10
0.3643779527559055
 20
0.0001574803149606
 30
0.0
 10
0.3585433070866142
 20
0.0046062992125984
 30
0.0
 10
0.3637322834645669
 20
0.0223818897637795
 30
0.0
 10
0.3663149606299213
 20
0.0330629921259843
 30
0.0
 10
0.3663149606299213
 20
0.0330629921259843
 30
0.0
 10
0.3632598425196851
 20
0.0340551181102362
 30
0.0
 10
0.3380944881889764
 20
0.0362204724409449
 30
0.0
 10
0.3363858267716536
 20
0.0467165354330709
 30
0.0
 10
0.3363858267716536
 20
0.0467165354330709
 30
0.0
 10
0.3336259842519685
 20
0.0636889763779528
 30
0.0
 10
0.3863464566929134
 20
0.0539685039370079
 30
0.0
 10
0.4062283464566929
 20
0.0525748031496063
 30
0.0
 10
0.4062283464566929
 20
0.0525748031496063
 30
0.0
 10
0.392
 20
0.0256377952755906
 30
0.0
 10
0.375
 20
-0.0109055118110236
 30
0.0
 10
0.3643779527559055
 20
0.0001574803149606
 30
0.0
  0
SPLINE
  5
71
100
AcDbEntity
  8
Layer 1
370
    18
100
AcDbSpline
210
0.0
220
0.0
230
1.0
 70
     1
 71
     3
 72
    20
 73
    16
 74
     0
 42
0.0000000001
 43
0.0000000001
 40
0.0
 40
0.0
 40
0.0
 40
0.0
 40
0.25
 40
0.25
 40
0.25
 40
0.25
 40
0.5
 40
0.5
 40
0.5
 40
0.5
 40
0.75
 40
0.75
 40
0.75
 40
0.75
 40
1.0
 40
1.0
 40
1.0
 40
1.0
 10
1.4986889763779527
 20
-0.1178228346456693
 30
0.0
 10
1.5249055118110237
 20
-0.1117047244094488
 30
0.0
 10
1.5342834645669292
 20
-0.0444015748031496
 30
0.0
 10
1.5417125984251969
 20
-0.0047755905511811
 30
0.0
 10
1.5417125984251969
 20
-0.0047755905511811
 30
0.0
 10
1.5534330708661417
 20
-0.0060511811023622
 30
0.0
 10
1.6409173228346456
 20
-0.0366574803149606
 30
0.0
 10
1.6624251968503938
 20
-0.0040984251968504
 30
0.0
 10
1.6624251968503938
 20
-0.0040984251968504
 30
0.0
 10
1.6972007874015749
 20
0.0485551181102362
 30
0.0
 10
1.5061181102362204
 20
0.0953346456692913
 30
0.0
 10
1.4374803149606299
 20
0.1205866141732284
 30
0.0
 10
1.4374803149606299
 20
0.1205866141732284
 30
0.0
 10
1.4445708661417322
 20
0.0090275590551181
 30
0.0
 10
1.4464763779527559
 20
-0.1388661417322835
 30
0.0
 10
1.4986889763779527
 20
-0.1178228346456693
 30
0.0
  0
SPLINE
  5
72
100
AcDbEntity
  8
Layer 1
370
    18
100
AcDbSpline
210
0.0
220
0.0
230
1.0
 70
     1
 71
     3
 72
    20
 73
    16
 74
     0
 42
0.0000000001
 43
0.0000000001
 40
0.0
 40
0.0
 40
0.0
 40
0.0
 40
0.25
 40
0.25
 40
0.25
 40
0.25
 40
0.5
 40
0.5
 40
0.5
 40
0.5
 40
0.75
 40
0.75
 40
0.75
 40
0.75
 40
1.0
 40
1.0
 40
1.0
 40
1.0
 10
1.1928464566929133
 20
0.3004527559055119
 30
0.0
 10
1.2066259842519687
 20
0.3235787401574803
 30
0.0
 10
1.2736062992125985
 20
0.3121062992125984
 30
0.0
 10
1.3136181102362205
 20
0.3071692913385827
 30
0.0
 10
1.3136181102362205
 20
0.3071692913385827
 30
0.0
 10
1.3159566929133859
 20
0.3187283464566929
 30
0.0
 10
1.3133188976377954
 20
0.4113740157480315
 30
0.0
 10
1.3508661417322836
 20
0.421996062992126
 30
0.0
 10
1.3508661417322836
 20
0.421996062992126
 30
0.0
 10
1.4115866141732285
 20
0.4391653543307087
 30
0.0
 10
1.3982204724409448
 20
0.2428937007874016
 30
0.0
 10
1.401472440944882
 20
0.1698346456692914
 30
0.0
 10
1.401472440944882
 20
0.1698346456692914
 30
0.0
 10
1.2973149606299212
 20
0.2104173228346457
 30
0.0
 10
1.156964566929134
 20
0.2570826771653543
 30
0.0
 10
1.1928464566929133
 20
0.3004527559055119
 30
0.0
  0
SPLINE
  5
73
100
AcDbEntity
  8
Layer 1
370
    18
100
AcDbSpline
210
0.0
220
0.0
230
1.0
 70
     1
 71
     3
 72
    20
 73
    16
 74
     0
 42
0.0000000001
 43
0.0000000001
 40
0.0
 40
0.0
 40
0.0
 40
0.0
 40
0.25
 40
0.25
 40
0.25
 40
0.25
 40
0.5
 40
0.5
 40
0.5
 40
0.5
 40
0.75
 40
0.75
 40
0.75
 40
0.75
 40
1.0
 40
1.0
 40
1.0
 40
1.0
 10
1.6693897637795276
 20
0.2541574803149607
 30
0.0
 10
1.6603188976377954
 20
0.279503937007874
 30
0.0
 10
1.5923858267716535
 20
0.2811377952755906
 30
0.0
 10
1.5521692913385827
 20
0.283996062992126
 30
0.0
 10
1.5521692913385827
 20
0.283996062992126
 30
0.0
 10
1.5520984251968504
 20
0.2957874015748032
 30
0.0
 10
1.5725236220472441
 20
0.3861929133858268
 30
0.0
 10
1.537720472440945
 20
0.4038425196850394
 30
0.0
 10
1.537720472440945
 20
0.4038425196850394
 30
0.0
 10
1.4814409448818897
 20
0.4323818897637796
 30
0.0
 10
1.4567755905511812
 20
0.2372047244094488
 30
0.0
 10
1.439523622047244
 20
0.1661377952755906
 30
0.0
 10
1.439523622047244
 20
0.1661377952755906
 30
0.0
 10
1.5495433070866143
 20
0.1859133858267717
 30
0.0
 10
1.6962559055118112
 20
0.2046889763779528
 30
0.0
 10
1.6693897637795276
 20
0.2541574803149607
 30
0.0
  0
SPLINE
  5
74
100
AcDbEntity
  8
Layer 1
370
    18
100
AcDbSpline
210
0.0
220
0.0
230
1.0
 70
     1
 71
     3
 72
    20
 73
    16
 74
     0
 42
0.0000000001
 43
0.0000000001
 40
0.0
 40
0.0
 40
0.0
 40
0.0
 40
0.25
 40
0.25
 40
0.25
 40
0.25
 40
0.5
 40
0.5
 40
0.5
 40
0.5
 40
0.75
 40
0.75
 40
0.75
 40
0.75
 40
1.0
 40
1.0
 40
1.0
 40
1.0
 10
1.2373149606299214
 20
-0.0617755905511811
 30
0.0
 10
1.2159133858267717
 20
-0.0454448818897638
 30
0.0
 10
1.2349527559055118
 20
0.0197874015748031
 30
0.0
 10
1.2444251968503937
 20
0.0589724409448819
 30
0.0
 10
1.2444251968503937
 20
0.0589724409448819
 30
0.0
 10
1.2332125984251969
 20
0.0626141732283465
 30
0.0
 10
1.1408700787401576
 20
0.0705669291338583
 30
0.0
 10
1.1346023622047245
 20
0.1090866141732284
 30
0.0
 10
1.1346023622047245
 20
0.1090866141732284
 30
0.0
 10
1.1244724409448819
 20
0.1713661417322835
 30
0.0
 10
1.3179370078740158
 20
0.1356889763779528
 30
0.0
 10
1.3908937007874016
 20
0.1305787401574803
 30
0.0
 10
1.3908937007874016
 20
0.1305787401574803
 30
0.0
 10
1.3386850393700789
 20
0.0317362204724409
 30
0.0
 10
1.2763070866141732
 20
-0.1023740157480315
 30
0.0
 10
1.2373149606299214
 20
-0.0617755905511811
 30
0.0
  0
SPLINE
  5
75
100
AcDbEntity
  8
Layer 1
370
    18
100
AcDbSpline
210
0.0
220
0.0
230
1.0
 70
     1
 71
     3
 72
    20
 73
    16
 74
     0
 42
0.0000000001
 43
0.0000000001
 40
0.0
 40
0.0
 40
0.0
 40
0.0
 40
0.25
 40
0.25
 40
0.25
 40
0.25
 40
0.5
 40
0.5
 40
0.5
 40
0.5
 40
0.75
 40
0.75
 40
0.75
 40
0.75
 40
1.0
 40
1.0
 40
1.0
 40
1.0
 10
1.6000314960629922
 20
0.9792047244094488
 30
0.0
 10
1.6070629921259842
 20
0.977484251968504
 30
0.0
 10
1.6175039370078741
 20
0.992484251968504
 30
0.0
 10
1.6241062992125985
 20
1.0010826771653543
 30
0.0
 10
1.6241062992125985
 20
1.0010826771653543
 30
0.0
 10
1.6267637795275591
 20
0.9993503937007875
 30
0.0
 10
1.6440196850393702
 20
0.9813622047244095
 30
0.0
 10
1.6531417322834647
 20
0.9865551181102362
 30
0.0
 10
1.6531417322834647
 20
0.9865551181102362
 30
0.0
 10
1.6678897637795276
 20
0.9949527559055118
 30
0.0
 10
1.627751968503937
 20
1.0294251968503938
 30
0.0
 10
1.6143661417322834
 20
1.0438346456692913
 30
0.0
 10
1.6143661417322834
 20
1.0438346456692913
 30
0.0
 10
1.602488188976378
 20
1.016216535433071
 30
0.0
 10
1.5849488188976379
 20
0.9805118110236221
 30
0.0
 10
1.6000314960629922
 20
0.9792047244094488
 30
0.0
  0
SPLINE
  5
76
100
AcDbEntity
  8
Layer 1
370
    18
100
AcDbSpline
210
0.0
220
0.0
230
1.0
 70
     1
 71
     3
 72
    20
 73
    16
 74
     0
 42
0.0000000001
 43
0.0000000001
 40
0.0
 40
0.0
 40
0.0
 40
0.0
 40
0.25
 40
0.25
 40
0.25
 40
0.25
 40
0.5
 40
0.5
 40
0.5
 40
0.5
 40
0.75
 40
0.75
 40
0.75
 40
0.75
 40
1.0
 40
1.0
 40
1.0
 40
1.0
 10
1.5775787401574803
 20
1.1167401574803151
 30
0.0
 10
1.5836968503937008
 20
1.1206102362204724
 30
0.0
 10
1.5983661417322834
 20
1.1097086614173228
 30
0.0
 10
1.6073622047244096
 20
1.1036574803149606
 30
0.0
 10
1.6073622047244096
 20
1.1036574803149606
 30
0.0
 10
1.6093307086614175
 20
1.1061417322834646
 30
0.0
 10
1.619968503937008
 20
1.1286850393700787
 30
0.0
 10
1.6302677165354331
 20
1.1266614173228346
 30
0.0
 10
1.6302677165354331
 20
1.1266614173228346
 30
0.0
 10
1.6469212598425198
 20
1.1233937007874015
 30
0.0
 10
1.6198307086614174
 20
1.0779448818897639
 30
0.0
 10
1.6117204724409449
 20
1.0600275590551183
 30
0.0
 10
1.6117204724409449
 20
1.0600275590551183
 30
0.0
 10
1.5916771653543307
 20
1.0824330708661418
 30
0.0
 10
1.5636929133858268
 20
1.1107047244094488
 30
0.0
 10
1.5775787401574803
 20
1.1167401574803151
 30
0.0
  0
SPLINE
  5
77
100
AcDbEntity
  8
Layer 1
370
    18
100
AcDbSpline
210
0.0
220
0.0
230
1.0
 70
     1
 71
     3
 72
    20
 73
    16
 74
     0
 42
0.0000000001
 43
0.0000000001
 40
0.0
 40
0.0
 40
0.0
 40
0.0
 40
0.25
 40
0.25
 40
0.25
 40
0.25
 40
0.5
 40
0.5
 40
0.5
 40
0.5
 40
0.75
 40
0.75
 40
0.75
 40
0.75
 40
1.0
 40
1.0
 40
1.0
 40
1.0
 10
1.686240157480315
 20
1.0476496062992127
 30
0.0
 10
1.6871496062992126
 20
1.0548307086614173
 30
0.0
 10
1.6710551181102362
 20
1.063492125984252
 30
0.0
 10
1.6617559055118112
 20
1.0690669291338584
 30
0.0
 10
1.6617559055118112
 20
1.0690669291338584
 30
0.0
 10
1.6631732283464569
 20
1.0719055118110237
 30
0.0
 10
1.6790748031496063
 20
1.0911023622047245
 30
0.0
 10
1.6728740157480315
 20
1.0995708661417323
 30
0.0
 10
1.6728740157480315
 20
1.0995708661417323
 30
0.0
 10
1.6628503937007875
 20
1.1132637795275591
 30
0.0
 10
1.6331811023622047
 20
1.069456692913386
 30
0.0
 10
1.6203976377952756
 20
1.0545078740157481
 30
0.0
 10
1.6203976377952756
 20
1.0545078740157481
 30
0.0
 10
1.6491889763779528
 20
1.0458661417322834
 30
0.0
 10
1.6866614173228347
 20
1.0325157480314962
 30
0.0
 10
1.686240157480315
 20
1.0476496062992127
 30
0.0
  0
SPLINE
  5
78
100
AcDbEntity
  8
Layer 1
370
    18
100
AcDbSpline
210
0.0
220
0.0
230
1.0
 70
     1
 71
     3
 72
    20
 73
    16
 74
     0
 42
0.0000000001
 43
0.0000000001
 40
0.0
 40
0.0
 40
0.0
 40
0.0
 40
0.25
 40
0.25
 40
0.25
 40
0.25
 40
0.5
 40
0.5
 40
0.5
 40
0.5
 40
0.75
 40
0.75
 40
0.75
 40
0.75
 40
1.0
 40
1.0
 40
1.0
 40
1.0
 10
1.5441653543307088
 20
1.0244527559055119
 30
0.0
 10
1.54101968503937
 20
1.0309763779527559
 30
0.0
 10
1.5535236220472441
 20
1.0443031496062993
 30
0.0
 10
1.5605629921259843
 20
1.0525472440944883
 30
0.0
 10
1.5605629921259843
 20
1.0525472440944883
 30
0.0
 10
1.5583188976377953
 20
1.0547874015748031
 30
0.0
 10
1.5371377952755907
 20
1.0679291338582677
 30
0.0
 10
1.5403228346456694
 20
1.0779330708661419
 30
0.0
 10
1.5403228346456694
 20
1.0779330708661419
 30
0.0
 10
1.5454724409448819
 20
1.0941023622047243
 30
0.0
 10
1.5875314960629923
 20
1.062003937007874
 30
0.0
 10
1.6044055118110236
 20
1.0518976377952756
 30
0.0
 10
1.6044055118110236
 20
1.0518976377952756
 30
0.0
 10
1.5798582677165356
 20
1.0345472440944883
 30
0.0
 10
1.5485748031496063
 20
1.009972440944882
 30
0.0
 10
1.5441653543307088
 20
1.0244527559055119
 30
0.0
  0
SPLINE
  5
79
100
AcDbEntity
  8
Layer 1
370
    18
100
AcDbSpline
210
0.0
220
0.0
230
1.0
 70
     1
 71
     3
 72
    20
 73
    16
 74
     0
 42
0.0000000001
 43
0.0000000001
 40
0.0
 40
0.0
 40
0.0
 40
0.0
 40
0.25
 40
0.25
 40
0.25
 40
0.25
 40
0.5
 40
0.5
 40
0.5
 40
0.5
 40
0.75
 40
0.75
 40
0.75
 40
0.75
 40
1.0
 40
1.0
 40
1.0
 40
1.0
 10
0.8678700787401575
 20
1.5186653543307087
 30
0.0
 10
0.8777362204724409
 20
1.5162480314960631
 30
0.0
 10
0.8923858267716536
 20
1.5372992125984253
 30
0.0
 10
0.9016535433070867
 20
1.5493700787401576
 30
0.0
 10
0.9016535433070867
 20
1.5493700787401576
 30
0.0
 10
0.9053818897637795
 20
1.5469370078740159
 30
0.0
 10
0.9295984251968504
 20
1.521696850393701
 30
0.0
 10
0.9423976377952756
 20
1.528984251968504
 30
0.0
 10
0.9423976377952756
 20
1.528984251968504
 30
0.0
 10
0.9630944881889764
 20
1.5407677165354332
 30
0.0
 10
0.9067677165354331
 20
1.5891417322834647
 30
0.0
 10
0.8879803149606299
 20
1.6093622047244096
 30
0.0
 10
0.8879803149606299
 20
1.6093622047244096
 30
0.0
 10
0.8713149606299213
 20
1.5706023622047245
 30
0.0
 10
0.8467047244094489
 20
1.5205
 30
0.0
 10
0.8678700787401575
 20
1.5186653543307087
 30
0.0
  0
SPLINE
  5
7A
100
AcDbEntity
  8
Layer 1
370
    18
100
AcDbSpline
210
0.0
220
0.0
230
1.0
 70
     1
 71
     3
 72
    20
 73
    16
 74
     0
 42
0.0000000001
 43
0.0000000001
 40
0.0
 40
0.0
 40
0.0
 40
0.0
 40
0.25
 40
0.25
 40
0.25
 40
0.25
 40
0.5
 40
0.5
 40
0.5
 40
0.5
 40
0.75
 40
0.75
 40
0.75
 40
0.75
 40
1.0
 40
1.0
 40
1.0
 40
1.0
 10
0.8363582677165354
 20
1.7116732283464569
 30
0.0
 10
0.8449448818897638
 20
1.7171023622047246
 30
0.0
 10
0.8655314960629922
 20
1.7018031496062993
 30
0.0
 10
0.8781535433070866
 20
1.6933110236220472
 30
0.0
 10
0.8781535433070866
 20
1.6933110236220472
 30
0.0
 10
0.8809133858267717
 20
1.6967992125984253
 30
0.0
 10
0.8958464566929134
 20
1.7284330708661417
 30
0.0
 10
0.9102992125984253
 20
1.7255944881889764
 30
0.0
 10
0.9102992125984253
 20
1.7255944881889764
 30
0.0
 10
0.9336692913385827
 20
1.7210078740157482
 30
0.0
 10
0.8956535433070867
 20
1.657228346456693
 30
0.0
 10
0.8842716535433072
 20
1.6320866141732284
 30
0.0
 10
0.8842716535433072
 20
1.6320866141732284
 30
0.0
 10
0.8561456692913386
 20
1.6635314960629921
 30
0.0
 10
0.8168740157480315
 20
1.7032047244094488
 30
0.0
 10
0.8363582677165354
 20
1.7116732283464569
 30
0.0
  0
SPLINE
  5
7B
100
AcDbEntity
  8
Layer 1
370
    18
100
AcDbSpline
210
0.0
220
0.0
230
1.0
 70
     1
 71
     3
 72
    20
 73
    16
 74
     0
 42
0.0000000001
 43
0.0000000001
 40
0.0
 40
0.0
 40
0.0
 40
0.0
 40
0.25
 40
0.25
 40
0.25
 40
0.25
 40
0.5
 40
0.5
 40
0.5
 40
0.5
 40
0.75
 40
0.75
 40
0.75
 40
0.75
 40
1.0
 40
1.0
 40
1.0
 40
1.0
 10
0.9888425196850394
 20
1.6147125984251969
 30
0.0
 10
0.9901181102362205
 20
1.6247952755905513
 30
0.0
 10
0.9675314960629922
 20
1.6369448818897638
 30
0.0
 10
0.954484251968504
 20
1.6447755905511812
 30
0.0
 10
0.954484251968504
 20
1.6447755905511812
 30
0.0
 10
0.956476377952756
 20
1.6487559055118111
 30
0.0
 10
0.9787874015748032
 20
1.6756968503937009
 30
0.0
 10
0.9700866141732284
 20
1.6875787401574804
 30
0.0
 10
0.9700866141732284
 20
1.6875787401574804
 30
0.0
 10
0.9560196850393701
 20
1.7067952755905513
 30
0.0
 10
0.9143897637795276
 20
1.6453149606299213
 30
0.0
 10
0.8964488188976378
 20
1.6243425196850394
 30
0.0
 10
0.8964488188976378
 20
1.6243425196850394
 30
0.0
 10
0.9368543307086614
 20
1.6122125984251969
 30
0.0
 10
0.9894370078740158
 20
1.5934763779527559
 30
0.0
 10
0.9888425196850394
 20
1.6147125984251969
 30
0.0
  0
SPLINE
  5
7C
100
AcDbEntity
  8
Layer 1
370
    18
100
AcDbSpline
210
0.0
220
0.0
230
1.0
 70
     1
 71
     3
 72
    20
 73
    16
 74
     0
 42
0.0000000001
 43
0.0000000001
 40
0.0
 40
0.0
 40
0.0
 40
0.0
 40
0.25
 40
0.25
 40
0.25
 40
0.25
 40
0.5
 40
0.5
 40
0.5
 40
0.5
 40
0.75
 40
0.75
 40
0.75
 40
0.75
 40
1.0
 40
1.0
 40
1.0
 40
1.0
 10
0.7894685039370079
 20
1.5821653543307088
 30
0.0
 10
0.7850551181102362
 20
1.5913149606299213
 30
0.0
 10
0.8026023622047245
 20
1.6100196850393702
 30
0.0
 10
0.8124842519685039
 20
1.6215905511811024
 30
0.0
 10
0.8124842519685039
 20
1.6215905511811024
 30
0.0
 10
0.8093307086614173
 20
1.624732283464567
 30
0.0
 10
0.7796102362204724
 20
1.6431771653543308
 30
0.0
 10
0.7840787401574804
 20
1.6572125984251969
 30
0.0
 10
0.7840787401574804
 20
1.6572125984251969
 30
0.0
 10
0.7913031496062992
 20
1.6799015748031496
 30
0.0
 10
0.8503228346456694
 20
1.6348582677165355
 30
0.0
 10
0.8740078740157481
 20
1.6206811023622048
 30
0.0
 10
0.8740078740157481
 20
1.6206811023622048
 30
0.0
 10
0.8395551181102362
 20
1.5963267716535434
 30
0.0
 10
0.7956614173228347
 20
1.5618425196850394
 30
0.0
 10
0.7894685039370079
 20
1.5821653543307088
 30
0.0
  0
SPLINE
  5
7D
100
AcDbEntity
  8
Layer 1
370
    18
100
AcDbSpline
210
0.0
220
0.0
230
1.0
 70
     1
 71
     3
 72
    20
 73
    16
 74
     0
 42
0.0000000001
 43
0.0000000001
 40
0.0
 40
0.0
 40
0.0
 40
0.0
 40
0.25
 40
0.25
 40
0.25
 40
0.25
 40
0.5
 40
0.5
 40
0.5
 40
0.5
 40
0.75
 40
0.75
 40
0.75
 40
0.75
 40
1.0
 40
1.0
 40
1.0
 40
1.0
 10
0.4601220472440945
 20
2.1388740157480317
 30
0.0
 10
0.4766259842519685
 20
2.1320905511811024
 30
0.0
 10
0.5081299212598426
 20
2.1635157480314962
 30
0.0
 10
0.5277047244094488
 20
2.1812952755905513
 30
0.0
 10
0.5277047244094488
 20
2.1812952755905513
 30
0.0
 10
0.5335078740157481
 20
2.1761771653543307
 30
0.0
 10
0.5685157480314961
 20
2.1270039370078742
 30
0.0
 10
0.5928818897637795
 20
2.1357559055118109
 30
0.0
 10
0.5928818897637795
 20
2.1357559055118109
 30
0.0
 10
0.6322874015748031
 20
2.1499133858267716
 30
0.0
 10
0.5479291338582677
 20
2.2468779527559057
 30
0.0
 10
0.5209488188976378
 20
2.2860984251968506
 30
0.0
 10
0.5209488188976378
 20
2.2860984251968506
 30
0.0
 10
0.4808976377952756
 20
2.2254015748031497
 30
0.0
 10
0.4237716535433071
 20
2.1477834645669294
 30
0.0
 10
0.4601220472440945
 20
2.1388740157480317
 30
0.0
  0
SPLINE
  5
7E
100
AcDbEntity
  8
Layer 1
370
    18
100
AcDbSpline
210
0.0
220
0.0
230
1.0
 70
     1
 71
     3
 72
    20
 73
    16
 74
     0
 42
0.0000000001
 43
0.0000000001
 40
0.0
 40
0.0
 40
0.0
 40
0.0
 40
0.25
 40
0.25
 40
0.25
 40
0.25
 40
0.5
 40
0.5
 40
0.5
 40
0.5
 40
0.75
 40
0.75
 40
0.75
 40
0.75
 40
1.0
 40
1.0
 40
1.0
 40
1.0
 10
0.4601220472440945
 20
2.4726141732283464
 30
0.0
 10
0.4766259842519685
 20
2.4794015748031497
 30
0.0
 10
0.5081299212598426
 20
2.447972440944882
 30
0.0
 10
0.5277047244094488
 20
2.4301929133858269
 30
0.0
 10
0.5277047244094488
 20
2.4301929133858269
 30
0.0
 10
0.5335078740157481
 20
2.4353149606299214
 30
0.0
 10
0.5685157480314961
 20
2.4844881889763779
 30
0.0
 10
0.5928818897637795
 20
2.4757322834645672
 30
0.0
 10
0.5928818897637795
 20
2.4757322834645672
 30
0.0
 10
0.6322874015748031
 20
2.4615787401574805
 30
0.0
 10
0.5479291338582677
 20
2.3646141732283463
 30
0.0
 10
0.5209488188976378
 20
2.3253937007874015
 30
0.0
 10
0.5209488188976378
 20
2.3253937007874015
 30
0.0
 10
0.4808976377952756
 20
2.3860866141732284
 30
0.0
 10
0.4237716535433071
 20
2.4637047244094488
 30
0.0
 10
0.4601220472440945
 20
2.4726141732283464
 30
0.0
  0
SPLINE
  5
7F
100
AcDbEntity
  8
Layer 1
370
    18
100
AcDbSpline
210
0.0
220
0.0
230
1.0
 70
     1
 71
     3
 72
    20
 73
    16
 74
     0
 42
0.0000000001
 43
0.0000000001
 40
0.0
 40
0.0
 40
0.0
 40
0.0
 40
0.25
 40
0.25
 40
0.25
 40
0.25
 40
0.5
 40
0.5
 40
0.5
 40
0.5
 40
0.75
 40
0.75
 40
0.75
 40
0.75
 40
1.0
 40
1.0
 40
1.0
 40
1.0
 10
0.6981732283464567
 20
2.2673818897637794
 30
0.0
 10
0.7032598425196851
 20
2.2840078740157481
 30
0.0
 10
0.6673700787401575
 20
2.3106850393700786
 30
0.0
 10
0.6468700787401575
 20
2.327456692913386
 30
0.0
 10
0.6468700787401575
 20
2.327456692913386
 30
0.0
 10
0.651468503937008
 20
2.3336141732283466
 30
0.0
 10
0.697996062992126
 20
2.3728543307086616
 30
0.0
 10
0.6862204724409449
 20
2.3952598425196849
 30
0.0
 10
0.6862204724409449
 20
2.3952598425196849
 30
0.0
 10
0.6671811023622047
 20
2.4314921259842519
 30
0.0
 10
0.5771771653543307
 20
2.3393937007874017
 30
0.0
 10
0.5399566929133859
 20
2.3090039370078741
 30
0.0
 10
0.5399566929133859
 20
2.3090039370078741
 30
0.0
 10
0.6068937007874016
 20
2.2774606299212601
 30
0.0
 10
0.6931692913385827
 20
2.231448818897638
 30
0.0
 10
0.6981732283464567
 20
2.2673818897637794
 30
0.0
  0
SPLINE
  5
80
100
AcDbEntity
  8
Layer 1
370
    18
100
AcDbSpline
210
0.0
220
0.0
230
1.0
 70
     1
 71
     3
 72
    20
 73
    16
 74
     0
 42
0.0000000001
 43
0.0000000001
 40
0.0
 40
0.0
 40
0.0
 40
0.0
 40
0.25
 40
0.25
 40
0.25
 40
0.25
 40
0.5
 40
0.5
 40
0.5
 40
0.5
 40
0.75
 40
0.75
 40
0.75
 40
0.75
 40
1.0
 40
1.0
 40
1.0
 40
1.0
 10
0.3416102362204724
 20
2.2673818897637794
 30
0.0
 10
0.3365196850393701
 20
2.2840078740157481
 30
0.0
 10
0.3724094488188977
 20
2.3106850393700786
 30
0.0
 10
0.3929094488188977
 20
2.327456692913386
 30
0.0
 10
0.3929094488188977
 20
2.327456692913386
 30
0.0
 10
0.3883110236220473
 20
2.3336141732283466
 30
0.0
 10
0.3417834645669292
 20
2.3728543307086616
 30
0.0
 10
0.3535590551181103
 20
2.3952598425196849
 30
0.0
 10
0.3535590551181103
 20
2.3952598425196849
 30
0.0
 10
0.3725984251968504
 20
2.4314921259842519
 30
0.0
 10
0.4626023622047245
 20
2.3393937007874017
 30
0.0
 10
0.4998228346456693
 20
2.3090039370078741
 30
0.0
 10
0.4998228346456693
 20
2.3090039370078741
 30
0.0
 10
0.4328858267716536
 20
2.2774606299212601
 30
0.0
 10
0.3466141732283465
 20
2.231448818897638
 30
0.0
 10
0.3416102362204724
 20
2.2673818897637794
 30
0.0
  0
SPLINE
  5
81
100
AcDbEntity
  8
Layer 1
370
    18
100
AcDbSpline
210
0.0
220
0.0
230
1.0
 70
     1
 71
     3
 72
    20
 73
    16
 74
     0
 42
0.0000000001
 43
0.0000000001
 40
0.0
 40
0.0
 40
0.0
 40
0.0
 40
0.25
 40
0.25
 40
0.25
 40
0.25
 40
0.5
 40
0.5
 40
0.5
 40
0.5
 40
0.75
 40
0.75
 40
0.75
 40
0.75
 40
1.0
 40
1.0
 40
1.0
 40
1.0
 10
0.9483779527559055
 20
1.7695866141732284
 30
0.0
 10
0.9806653543307087
 20
1.7558543307086616
 30
0.0
 10
1.0423070866141733
 20
1.8194488188976379
 30
0.0
 10
1.0806023622047245
 20
1.8554251968503939
 30
0.0
 10
1.0806023622047245
 20
1.8554251968503939
 30
0.0
 10
1.0919527559055118
 20
1.8450629921259842
 30
0.0
 10
1.1604448818897639
 20
1.7455629921259843
 30
0.0
 10
1.2081181102362206
 20
1.7632755905511812
 30
0.0
 10
1.2081181102362206
 20
1.7632755905511812
 30
0.0
 10
1.2852086614173228
 20
1.7919173228346457
 30
0.0
 10
1.1201653543307086
 20
1.9881259842519685
 30
0.0
 10
1.0673818897637797
 20
2.0674881889763781
 30
0.0
 10
1.0673818897637797
 20
2.0674881889763781
 30
0.0
 10
0.9890236220472441
 20
1.9446692913385828
 30
0.0
 10
0.8772637795275591
 20
1.7876102362204724
 30
0.0
 10
0.9483779527559055
 20
1.7695866141732284
 30
0.0
  0
SPLINE
  5
82
100
AcDbEntity
  8
Layer 1
370
    18
100
AcDbSpline
210
0.0
220
0.0
230
1.0
 70
     1
 71
     3
 72
    20
 73
    16
 74
     0
 42
0.0000000001
 43
0.0000000001
 40
0.0
 40
0.0
 40
0.0
 40
0.0
 40
0.25
 40
0.25
 40
0.25
 40
0.25
 40
0.5
 40
0.5
 40
0.5
 40
0.5
 40
0.75
 40
0.75
 40
0.75
 40
0.75
 40
1.0
 40
1.0
 40
1.0
 40
1.0
 10
0.9483779527559055
 20
2.4449015748031497
 30
0.0
 10
0.9806653543307087
 20
2.4586299212598428
 30
0.0
 10
1.0423070866141733
 20
2.3950354330708663
 30
0.0
 10
1.0806023622047245
 20
2.3590629921259842
 30
0.0
 10
1.0806023622047245
 20
2.3590629921259842
 30
0.0
 10
1.0919527559055118
 20
2.3694212598425199
 30
0.0
 10
1.1604448818897639
 20
2.4689212598425199
 30
0.0
 10
1.2081181102362206
 20
2.451208661417323
 30
0.0
 10
1.2081181102362206
 20
2.451208661417323
 30
0.0
 10
1.2852086614173228
 20
2.4225669291338585
 30
0.0
 10
1.1201653543307086
 20
2.2263622047244094
 30
0.0
 10
1.0673818897637797
 20
2.1470000000000002
 30
0.0
 10
1.0673818897637797
 20
2.1470000000000002
 30
0.0
 10
0.9890236220472441
 20
2.2698149606299212
 30
0.0
 10
0.8772637795275591
 20
2.4268740157480315
 30
0.0
 10
0.9483779527559055
 20
2.4449015748031497
 30
0.0
  0
SPLINE
  5
83
100
AcDbEntity
  8
Layer 1
370
    18
100
AcDbSpline
210
0.0
220
0.0
230
1.0
 70
     1
 71
     3
 72
    20
 73
    16
 74
     0
 42
0.0000000001
 43
0.0000000001
 40
0.0
 40
0.0
 40
0.0
 40
0.0
 40
0.25
 40
0.25
 40
0.25
 40
0.25
 40
0.5
 40
0.5
 40
0.5
 40
0.5
 40
0.75
 40
0.75
 40
0.75
 40
0.75
 40
1.0
 40
1.0
 40
1.0
 40
1.0
 10
1.4141102362204725
 20
2.0296141732283464
 30
0.0
 10
1.4240669291338584
 20
2.0632559055118112
 30
0.0
 10
1.3538503937007875
 20
2.1172362204724409
 30
0.0
 10
1.3137401574803149
 20
2.1511771653543308
 30
0.0
 10
1.3137401574803149
 20
2.1511771653543308
 30
0.0
 10
1.3227362204724411
 20
2.1636338582677168
 30
0.0
 10
1.4137677165354332
 20
2.2430354330708662
 30
0.0
 10
1.390732283464567
 20
2.2883779527559054
 30
0.0
 10
1.390732283464567
 20
2.2883779527559054
 30
0.0
 10
1.3534763779527559
 20
2.3616929133858267
 30
0.0
 10
1.1773897637795276
 20
2.1753346456692912
 30
0.0
 10
1.1045708661417324
 20
2.1138385826771655
 30
0.0
 10
1.1045708661417324
 20
2.1138385826771655
 30
0.0
 10
1.2355314960629922
 20
2.0500118110236221
 30
0.0
 10
1.4043188976377954
 20
1.9569055118110237
 30
0.0
 10
1.4141102362204725
 20
2.0296141732283464
 30
0.0
  0
SPLINE
  5
84
100
AcDbEntity
  8
Layer 1
370
    18
100
AcDbSpline
210
0.0
220
0.0
230
1.0
 70
     1
 71
     3
 72
    20
 73
    16
 74
     0
 42
0.0000000001
 43
0.0000000001
 40
0.0
 40
0.0
 40
0.0
 40
0.0
 40
0.25
 40
0.25
 40
0.25
 40
0.25
 40
0.5
 40
0.5
 40
0.5
 40
0.5
 40
0.75
 40
0.75
 40
0.75
 40
0.75
 40
1.0
 40
1.0
 40
1.0
 40
1.0
 10
0.7165157480314961
 20
2.0296141732283464
 30
0.0
 10
0.7065590551181102
 20
2.0632559055118112
 30
0.0
 10
0.7767716535433071
 20
2.1172362204724409
 30
0.0
 10
0.8168818897637795
 20
2.1511771653543308
 30
0.0
 10
0.8168818897637795
 20
2.1511771653543308
 30
0.0
 10
0.8078858267716536
 20
2.1636338582677168
 30
0.0
 10
0.7168543307086615
 20
2.2430354330708662
 30
0.0
 10
0.7398937007874016
 20
2.2883779527559054
 30
0.0
 10
0.7398937007874016
 20
2.2883779527559054
 30
0.0
 10
0.7771456692913387
 20
2.3616929133858267
 30
0.0
 10
0.953232283464567
 20
2.1753346456692912
 30
0.0
 10
1.0260551181102362
 20
2.1138385826771655
 30
0.0
 10
1.0260551181102362
 20
2.1138385826771655
 30
0.0
 10
0.8950944881889764
 20
2.0500118110236221
 30
0.0
 10
0.7263031496062993
 20
1.9569055118110237
 30
0.0
 10
0.7165157480314961
 20
2.0296141732283464
 30
0.0
  0
SPLINE
  5
85
100
AcDbEntity
  8
Layer 1
370
    18
100
AcDbSpline
210
0.0
220
0.0
230
1.0
 70
     1
 71
     3
 72
    36
 73
    32
 74
     0
 42
0.0000000001
 43
0.0000000001
 40
0.0
 40
0.0
 40
0.0
 40
0.0
 40
0.125
 40
0.125
 40
0.125
 40
0.125
 40
0.25
 40
0.25
 40
0.25
 40
0.25
 40
0.375
 40
0.375
 40
0.375
 40
0.375
 40
0.5
 40
0.5
 40
0.5
 40
0.5
 40
0.625
 40
0.625
 40
0.625
 40
0.625
 40
0.75
 40
0.75
 40
0.75
 40
0.75
 40
0.875
 40
0.875
 40
0.875
 40
0.875
 40
1.0
 40
1.0
 40
1.0
 40
1.0
 10
1.1701968503937008
 20
2.9991181102362208
 30
0.0
 10
1.1519409448818898
 20
3.0021102362204726
 30
0.0
 10
1.1323070866141733
 20
3.0285748031496063
 30
0.0
 10
1.128259842519685
 20
3.0322677165354333
 30
0.0
 10
1.128259842519685
 20
3.0322677165354333
 30
0.0
 10
1.1176456692913386
 20
3.0222992125984254
 30
0.0
 10
1.1048503937007874
 20
3.0090433070866145
 30
0.0
 10
1.0935039370078741
 20
3.003031496062992
 30
0.0
 10
1.0935039370078741
 20
3.003031496062992
 30
0.0
 10
1.1020393700787401
 20
2.9741141732283465
 30
0.0
 10
1.0396220472440945
 20
2.8957716535433073
 30
0.0
 10
1.0177007874015749
 20
2.8628110236220472
 30
0.0
 10
1.0177007874015749
 20
2.8628110236220472
 30
0.0
 10
1.0531496062992127
 20
2.8927480314960632
 30
0.0
 10
1.1441968503937008
 20
2.9850944881889765
 30
0.0
 10
1.1596377952755905
 20
2.9440866141732283
 30
0.0
 10
1.1596377952755905
 20
2.9440866141732283
 30
0.0
 10
1.1683346456692913
 20
2.9209803149606302
 30
0.0
 10
1.1315708661417323
 20
2.8868188976377955
 30
0.0
 10
1.1271929133858267
 20
2.880755905511811
 30
0.0
 10
1.1271929133858267
 20
2.880755905511811
 30
0.0
 10
1.1358464566929134
 20
2.8734330708661417
 30
0.0
 10
1.1462755905511812
 20
2.8652047244094487
 30
0.0
 10
1.1549133858267717
 20
2.8568582677165355
 30
0.0
 10
1.1549133858267717
 20
2.8568582677165355
 30
0.0
 10
1.1528976377952755
 20
2.8782716535433073
 30
0.0
 10
1.1905314960629922
 20
2.9048070866141735
 30
0.0
 10
1.2165039370078741
 20
2.9256929133858267
 30
0.0
 10
1.2165039370078741
 20
2.9256929133858267
 30
0.0
 10
1.2110787401574803
 20
2.9328307086614176
 30
0.0
 10
1.1694448818897638
 20
2.9698307086614175
 30
0.0
 10
1.1701968503937008
 20
2.9991181102362208
 30
0.0
  0
SPLINE
  5
86
100
AcDbEntity
  8
Layer 1
370
    18
100
AcDbSpline
210
0.0
220
0.0
230
1.0
 70
     1
 71
     3
 72
    28
 73
    24
 74
     0
 42
0.0000000001
 43
0.0000000001
 40
0.0
 40
0.0
 40
0.0
 40
0.0
 40
0.1666666666666667
 40
0.1666666666666667
 40
0.1666666666666667
 40
0.1666666666666667
 40
0.3333333333333333
 40
0.3333333333333333
 40
0.3333333333333333
 40
0.3333333333333333
 40
0.5
 40
0.5
 40
0.5
 40
0.5
 40
0.6666666666666666
 40
0.6666666666666666
 40
0.6666666666666666
 40
0.6666666666666666
 40
0.8333333333333333
 40
0.8333333333333333
 40
0.8333333333333333
 40
0.8333333333333333
 40
1.0
 40
1.0
 40
1.0
 40
1.0
 10
1.5488385826771653
 20
3.0206614173228346
 30
0.0
 10
1.5505944881889764
 20
3.0201141732283467
 30
0.0
 10
1.5522125984251969
 20
3.0193267716535432
 30
0.0
 10
1.5537047244094488
 20
3.0183149606299216
 30
0.0
 10
1.5537047244094488
 20
3.0183149606299216
 30
0.0
 10
1.5650787401574804
 20
3.0172165354330711
 30
0.0
 10
1.5902637795275592
 20
3.0308070866141734
 30
0.0
 10
1.6108622047244094
 20
3.0408464566929134
 30
0.0
 10
1.6108622047244094
 20
3.0408464566929134
 30
0.0
 10
1.596003937007874
 20
3.0533937007874017
 30
0.0
 10
1.5600748031496063
 20
3.091417322834646
 30
0.0
 10
1.552472440944882
 20
3.07646062992126
 30
0.0
 10
1.552472440944882
 20
3.07646062992126
 30
0.0
 10
1.547771653543307
 20
3.0672086614173231
 30
0.0
 10
1.5663464566929135
 20
3.051007874015748
 30
0.0
 10
1.5681811023622048
 20
3.0484645669291339
 30
0.0
 10
1.5681811023622048
 20
3.0484645669291339
 30
0.0
 10
1.5599960629921261
 20
3.0415393700787403
 30
0.0
 10
1.5456692913385828
 20
3.030523622047244
 30
0.0
 10
1.5477007874015749
 20
3.0236574803149607
 30
0.0
 10
1.5477007874015749
 20
3.0236574803149607
 30
0.0
 10
1.5478661417322834
 20
3.0224370078740157
 30
0.0
 10
1.548255905511811
 20
3.0214488188976381
 30
0.0
 10
1.5488385826771653
 20
3.0206614173228346
 30
0.0
  0
SPLINE
  5
87
100
AcDbEntity
  8
Layer 1
370
    18
100
AcDbSpline
210
0.0
220
0.0
230
1.0
 70
     1
 71
     3
 72
    20
 73
    16
 74
     0
 42
0.0000000001
 43
0.0000000001
 40
0.0
 40
0.0
 40
0.0
 40
0.0
 40
0.25
 40
0.25
 40
0.25
 40
0.25
 40
0.5
 40
0.5
 40
0.5
 40
0.5
 40
0.75
 40
0.75
 40
0.75
 40
0.75
 40
1.0
 40
1.0
 40
1.0
 40
1.0
 10
1.3044803149606299
 20
2.7316023622047245
 30
0.0
 10
1.3216574803149608
 20
2.7246614173228347
 30
0.0
 10
1.3544488188976378
 20
2.7568110236220473
 30
0.0
 10
1.3748188976377953
 20
2.774996062992126
 30
0.0
 10
1.3748188976377953
 20
2.774996062992126
 30
0.0
 10
1.3808582677165355
 20
2.7697598425196852
 30
0.0
 10
1.4172913385826773
 20
2.7194566929133859
 30
0.0
 10
1.4426535433070866
 20
2.7284133858267716
 30
0.0
 10
1.4426535433070866
 20
2.7284133858267716
 30
0.0
 10
1.4836614173228346
 20
2.7428897637795275
 30
0.0
 10
1.3958661417322835
 20
2.8420826771653545
 30
0.0
 10
1.3677874015748033
 20
2.8822047244094491
 30
0.0
 10
1.3677874015748033
 20
2.8822047244094491
 30
0.0
 10
1.3261023622047245
 20
2.8201141732283466
 30
0.0
 10
1.2666496062992127
 20
2.7407125984251968
 30
0.0
 10
1.3044803149606299
 20
2.7316023622047245
 30
0.0
  0
SPLINE
  5
88
100
AcDbEntity
  8
Layer 1
370
    18
100
AcDbSpline
210
0.0
220
0.0
230
1.0
 70
     1
 71
     3
 72
    20
 73
    16
 74
     0
 42
0.0000000001
 43
0.0000000001
 40
0.0
 40
0.0
 40
0.0
 40
0.0
 40
0.25
 40
0.25
 40
0.25
 40
0.25
 40
0.5
 40
0.5
 40
0.5
 40
0.5
 40
0.75
 40
0.75
 40
0.75
 40
0.75
 40
1.0
 40
1.0
 40
1.0
 40
1.0
 10
1.3044803149606299
 20
3.0730078740157483
 30
0.0
 10
1.3216574803149608
 20
3.0799488188976381
 30
0.0
 10
1.3544488188976378
 20
3.0477992125984255
 30
0.0
 10
1.3748188976377953
 20
3.0296102362204724
 30
0.0
 10
1.3748188976377953
 20
3.0296102362204724
 30
0.0
 10
1.3808582677165355
 20
3.0348503937007876
 30
0.0
 10
1.4172913385826773
 20
3.0851496062992125
 30
0.0
 10
1.4426535433070866
 20
3.0761968503937007
 30
0.0
 10
1.4426535433070866
 20
3.0761968503937007
 30
0.0
 10
1.4836614173228346
 20
3.0617165354330709
 30
0.0
 10
1.3958661417322835
 20
2.9625236220472444
 30
0.0
 10
1.3677874015748033
 20
2.9224015748031498
 30
0.0
 10
1.3677874015748033
 20
2.9224015748031498
 30
0.0
 10
1.3261023622047245
 20
2.9844921259842523
 30
0.0
 10
1.2666496062992127
 20
3.0638937007874016
 30
0.0
 10
1.3044803149606299
 20
3.0730078740157483
 30
0.0
  0
SPLINE
  5
89
100
AcDbEntity
  8
Layer 1
370
    18
100
AcDbSpline
210
0.0
220
0.0
230
1.0
 70
     1
 71
     3
 72
    20
 73
    16
 74
     0
 42
0.0000000001
 43
0.0000000001
 40
0.0
 40
0.0
 40
0.0
 40
0.0
 40
0.25
 40
0.25
 40
0.25
 40
0.25
 40
0.5
 40
0.5
 40
0.5
 40
0.5
 40
0.75
 40
0.75
 40
0.75
 40
0.75
 40
1.0
 40
1.0
 40
1.0
 40
1.0
 10
1.552232283464567
 20
2.8630590551181103
 30
0.0
 10
1.5575275590551181
 20
2.8800669291338585
 30
0.0
 10
1.5201771653543308
 20
2.9073543307086616
 30
0.0
 10
1.4988425196850395
 20
2.9245157480314963
 30
0.0
 10
1.4988425196850395
 20
2.9245157480314963
 30
0.0
 10
1.5036259842519686
 20
2.9308110236220473
 30
0.0
 10
1.5520511811023623
 20
2.970952755905512
 30
0.0
 10
1.5397952755905513
 20
2.9938740157480317
 30
0.0
 10
1.5397952755905513
 20
2.9938740157480317
 30
0.0
 10
1.5199803149606299
 20
3.0309409448818898
 30
0.0
 10
1.4263070866141734
 20
2.9367283464566931
 30
0.0
 10
1.3875708661417323
 20
2.9056377952755907
 30
0.0
 10
1.3875708661417323
 20
2.9056377952755907
 30
0.0
 10
1.4572362204724409
 20
2.8733700787401575
 30
0.0
 10
1.5470236220472442
 20
2.8262992125984252
 30
0.0
 10
1.552232283464567
 20
2.8630590551181103
 30
0.0
  0
SPLINE
  5
8A
100
AcDbEntity
  8
Layer 1
370
    18
100
AcDbSpline
210
0.0
220
0.0
230
1.0
 70
     1
 71
     3
 72
    20
 73
    16
 74
     0
 42
0.0000000001
 43
0.0000000001
 40
0.0
 40
0.0
 40
0.0
 40
0.0
 40
0.25
 40
0.25
 40
0.25
 40
0.25
 40
0.5
 40
0.5
 40
0.5
 40
0.5
 40
0.75
 40
0.75
 40
0.75
 40
0.75
 40
1.0
 40
1.0
 40
1.0
 40
1.0
 10
1.1811377952755906
 20
2.8630590551181103
 30
0.0
 10
1.1758425196850395
 20
2.8800669291338585
 30
0.0
 10
1.2131929133858268
 20
2.9073543307086616
 30
0.0
 10
1.2345314960629921
 20
2.9245157480314963
 30
0.0
 10
1.2345314960629921
 20
2.9245157480314963
 30
0.0
 10
1.229744094488189
 20
2.9308110236220473
 30
0.0
 10
1.1813188976377953
 20
2.970952755905512
 30
0.0
 10
1.1935748031496063
 20
2.9938740157480317
 30
0.0
 10
1.1935748031496063
 20
2.9938740157480317
 30
0.0
 10
1.2133937007874016
 20
3.0309409448818898
 30
0.0
 10
1.3070629921259842
 20
2.9367283464566931
 30
0.0
 10
1.3458031496062992
 20
2.9056377952755907
 30
0.0
 10
1.3458031496062992
 20
2.9056377952755907
 30
0.0
 10
1.2761377952755906
 20
2.8733700787401575
 30
0.0
 10
1.1863464566929134
 20
2.8262992125984252
 30
0.0
 10
1.1811377952755906
 20
2.8630590551181103
 30
0.0
  0
SPLINE
  5
8B
100
AcDbEntity
  8
Layer 1
370
    18
100
AcDbSpline
210
0.0
220
0.0
230
1.0
 70
     1
 71
     3
 72
    20
 73
    16
 74
     0
 42
0.0000000001
 43
0.0000000001
 40
0.0
 40
0.0
 40
0.0
 40
0.0
 40
0.25
 40
0.25
 40
0.25
 40
0.25
 40
0.5
 40
0.5
 40
0.5
 40
0.5
 40
0.75
 40
0.75
 40
0.75
 40
0.75
 40
1.0
 40
1.0
 40
1.0
 40
1.0
 10
1.5950118110236222
 20
2.9706023622047244
 30
0.0
 10
1.6015984251968505
 20
2.9677992125984254
 30
0.0
 10
1.6141771653543309
 20
2.9807755905511812
 30
0.0
 10
1.621992125984252
 20
2.9881181102362206
 30
0.0
 10
1.621992125984252
 20
2.9881181102362206
 30
0.0
 10
1.6243070866141733
 20
2.9860039370078741
 30
0.0
 10
1.6382834645669293
 20
2.9657007874015751
 30
0.0
 10
1.6480118110236222
 20
2.9693149606299212
 30
0.0
 10
1.6480118110236222
 20
2.9693149606299212
 30
0.0
 10
1.663740157480315
 20
2.9751574803149605
 30
0.0
 10
1.6300669291338583
 20
3.0151929133858268
 30
0.0
 10
1.6192952755905512
 20
3.0313897637795275
 30
0.0
 10
1.6192952755905512
 20
3.0313897637795275
 30
0.0
 10
1.6033070866141732
 20
3.0063267716535433
 30
0.0
 10
1.5805
 20
2.9742795275590552
 30
0.0
 10
1.5950118110236222
 20
2.9706023622047244
 30
0.0
  0
SPLINE
  5
8C
100
AcDbEntity
  8
Layer 1
370
    18
100
AcDbSpline
210
0.0
220
0.0
230
1.0
 70
     1
 71
     3
 72
    20
 73
    16
 74
     0
 42
0.0000000001
 43
0.0000000001
 40
0.0
 40
0.0
 40
0.0
 40
0.0
 40
0.25
 40
0.25
 40
0.25
 40
0.25
 40
0.5
 40
0.5
 40
0.5
 40
0.5
 40
0.75
 40
0.75
 40
0.75
 40
0.75
 40
1.0
 40
1.0
 40
1.0
 40
1.0
 10
1.5950118110236222
 20
3.1083976377952758
 30
0.0
 10
1.6015984251968505
 20
3.1111968503937009
 30
0.0
 10
1.6141771653543309
 20
3.0982244094488189
 30
0.0
 10
1.621992125984252
 20
3.0908818897637795
 30
0.0
 10
1.621992125984252
 20
3.0908818897637795
 30
0.0
 10
1.6243070866141733
 20
3.092996062992126
 30
0.0
 10
1.6382834645669293
 20
3.1132992125984251
 30
0.0
 10
1.6480118110236222
 20
3.109685039370079
 30
0.0
 10
1.6480118110236222
 20
3.109685039370079
 30
0.0
 10
1.663740157480315
 20
3.1038385826771653
 30
0.0
 10
1.6300669291338583
 20
3.0638070866141733
 30
0.0
 10
1.6192952755905512
 20
3.0476102362204727
 30
0.0
 10
1.6192952755905512
 20
3.0476102362204727
 30
0.0
 10
1.6033070866141732
 20
3.0726732283464568
 30
0.0
 10
1.5805
 20
3.104720472440945
 30
0.0
 10
1.5950118110236222
 20
3.1083976377952758
 30
0.0
  0
SPLINE
  5
8D
100
AcDbEntity
  8
Layer 1
370
    18
100
AcDbSpline
210
0.0
220
0.0
230
1.0
 70
     1
 71
     3
 72
    20
 73
    16
 74
     0
 42
0.0000000001
 43
0.0000000001
 40
0.0
 40
0.0
 40
0.0
 40
0.0
 40
0.25
 40
0.25
 40
0.25
 40
0.25
 40
0.5
 40
0.5
 40
0.5
 40
0.5
 40
0.75
 40
0.75
 40
0.75
 40
0.75
 40
1.0
 40
1.0
 40
1.0
 40
1.0
 10
1.6900433070866143
 20
3.0236614173228347
 30
0.0
 10
1.6920748031496065
 20
3.030523622047244
 30
0.0
 10
1.6777480314960631
 20
3.0415393700787403
 30
0.0
 10
1.6695629921259842
 20
3.0484645669291339
 30
0.0
 10
1.6695629921259842
 20
3.0484645669291339
 30
0.0
 10
1.6713976377952757
 20
3.051007874015748
 30
0.0
 10
1.689972440944882
 20
3.0672086614173231
 30
0.0
 10
1.6852716535433072
 20
3.07646062992126
 30
0.0
 10
1.6852716535433072
 20
3.07646062992126
 30
0.0
 10
1.6776692913385827
 20
3.091417322834646
 30
0.0
 10
1.641740157480315
 20
3.0533937007874017
 30
0.0
 10
1.6268818897637796
 20
3.0408464566929134
 30
0.0
 10
1.6268818897637796
 20
3.0408464566929134
 30
0.0
 10
1.6536062992125984
 20
3.0278228346456695
 30
0.0
 10
1.6880433070866143
 20
3.0088228346456694
 30
0.0
 10
1.6900433070866143
 20
3.0236614173228347
 30
0.0
  0
SPLINE
  5
8E
100
AcDbEntity
  8
Layer 1
370
    18
100
AcDbSpline
210
0.0
220
0.0
230
1.0
 70
     1
 71
     3
 72
    12
 73
     8
 74
     0
 42
0.0000000001
 43
0.0000000001
 40
0.0
 40
0.0
 40
0.0
 40
0.0
 40
0.5
 40
0.5
 40
0.5
 40
0.5
 40
1.0
 40
1.0
 40
1.0
 40
1.0
 10
0.874507874015748
 20
2.9382795275590552
 30
0.0
 10
0.874492125984252
 20
2.9380314960629921
 30
0.0
 10
0.8744763779527559
 20
2.937779527559055
 30
0.0
 10
0.8744645669291339
 20
2.937523622047244
 30
0.0
 10
0.8744645669291339
 20
2.937523622047244
 30
0.0
 10
0.8744763779527559
 20
2.937779527559055
 30
0.0
 10
0.874492125984252
 20
2.9380314960629921
 30
0.0
 10
0.874507874015748
 20
2.9382795275590552
 30
0.0
  0
SPLINE
  5
8F
100
AcDbEntity
  8
Layer 1
370
    18
100
AcDbSpline
210
0.0
220
0.0
230
1.0
 70
     1
 71
     3
 72
    12
 73
     8
 74
     0
 42
0.0000000001
 43
0.0000000001
 40
0.0
 40
0.0
 40
0.0
 40
0.0
 40
0.5
 40
0.5
 40
0.5
 40
0.5
 40
1.0
 40
1.0
 40
1.0
 40
1.0
 10
0.8744488188976378
 20
2.9370984251968504
 30
0.0
 10
0.8744448818897638
 20
2.9368543307086616
 30
0.0
 10
0.8744409448818898
 20
2.9366102362204725
 30
0.0
 10
0.8744409448818898
 20
2.9363661417322837
 30
0.0
 10
0.8744409448818898
 20
2.9363661417322837
 30
0.0
 10
0.8744409448818898
 20
2.9366102362204725
 30
0.0
 10
0.8744448818897638
 20
2.9368543307086616
 30
0.0
 10
0.8744488188976378
 20
2.9370984251968504
 30
0.0
  0
SPLINE
  5
90
100
AcDbEntity
  8
Layer 1
370
    18
100
AcDbSpline
210
0.0
220
0.0
230
1.0
 70
     1
 71
     3
 72
    12
 73
     8
 74
     0
 42
0.0000000001
 43
0.0000000001
 40
0.0
 40
0.0
 40
0.0
 40
0.0
 40
0.5
 40
0.5
 40
0.5
 40
0.5
 40
1.0
 40
1.0
 40
1.0
 40
1.0
 10
0.8744488188976378
 20
2.9359173228346456
 30
0.0
 10
0.8744527559055119
 20
2.9356771653543308
 30
0.0
 10
0.8744645669291339
 20
2.935433070866142
 30
0.0
 10
0.8744763779527559
 20
2.9351929133858268
 30
0.0
 10
0.8744763779527559
 20
2.9351929133858268
 30
0.0
 10
0.8744645669291339
 20
2.935433070866142
 30
0.0
 10
0.8744527559055119
 20
2.9356771653543308
 30
0.0
 10
0.8744488188976378
 20
2.9359173228346456
 30
0.0
  0
SPLINE
  5
91
100
AcDbEntity
  8
Layer 1
370
    18
100
AcDbSpline
210
0.0
220
0.0
230
1.0
 70
     1
 71
     3
 72
    12
 73
     8
 74
     0
 42
0.0000000001
 43
0.0000000001
 40
0.0
 40
0.0
 40
0.0
 40
0.0
 40
0.5
 40
0.5
 40
0.5
 40
0.5
 40
1.0
 40
1.0
 40
1.0
 40
1.0
 10
0.8745039370078741
 20
2.9347165354330711
 30
0.0
 10
0.8745196850393702
 20
2.9344842519685042
 30
0.0
 10
0.8745354330708661
 20
2.9342480314960633
 30
0.0
 10
0.8745590551181103
 20
2.9340157480314963
 30
0.0
 10
0.8745590551181103
 20
2.9340157480314963
 30
0.0
 10
0.8745354330708661
 20
2.9342480314960633
 30
0.0
 10
0.8745196850393702
 20
2.9344842519685042
 30
0.0
 10
0.8745039370078741
 20
2.9347165354330711
 30
0.0
  0
SPLINE
  5
92
100
AcDbEntity
  8
Layer 1
370
    18
100
AcDbSpline
210
0.0
220
0.0
230
1.0
 70
     1
 71
     3
 72
    12
 73
     8
 74
     0
 42
0.0000000001
 43
0.0000000001
 40
0.0
 40
0.0
 40
0.0
 40
0.0
 40
0.5
 40
0.5
 40
0.5
 40
0.5
 40
1.0
 40
1.0
 40
1.0
 40
1.0
 10
0.8746102362204725
 20
2.9335118110236222
 30
0.0
 10
0.8746338582677166
 20
2.9332834645669292
 30
0.0
 10
0.8746614173228346
 20
2.9330590551181102
 30
0.0
 10
0.8746929133858268
 20
2.9328307086614176
 30
0.0
 10
0.8746929133858268
 20
2.9328307086614176
 30
0.0
 10
0.8746614173228346
 20
2.9330590551181102
 30
0.0
 10
0.8746338582677166
 20
2.9332834645669292
 30
0.0
 10
0.8746102362204725
 20
2.9335118110236222
 30
0.0
  0
SPLINE
  5
93
100
AcDbEntity
  8
Layer 1
370
    18
100
AcDbSpline
210
0.0
220
0.0
230
1.0
 70
     1
 71
     3
 72
    12
 73
     8
 74
     0
 42
0.0000000001
 43
0.0000000001
 40
0.0
 40
0.0
 40
0.0
 40
0.0
 40
0.5
 40
0.5
 40
0.5
 40
0.5
 40
1.0
 40
1.0
 40
1.0
 40
1.0
 10
0.8747637795275591
 20
2.9323149606299213
 30
0.0
 10
0.8747992125984252
 20
2.9320866141732282
 30
0.0
 10
0.8748346456692914
 20
2.9318582677165357
 30
0.0
 10
0.8748740157480315
 20
2.9316299212598427
 30
0.0
 10
0.8748740157480315
 20
2.9316299212598427
 30
0.0
 10
0.8748346456692914
 20
2.9318582677165357
 30
0.0
 10
0.8747992125984252
 20
2.9320866141732282
 30
0.0
 10
0.8747637795275591
 20
2.9323149606299213
 30
0.0
  0
SPLINE
  5
94
100
AcDbEntity
  8
Layer 1
370
    18
100
AcDbSpline
210
0.0
220
0.0
230
1.0
 70
     1
 71
     3
 72
    12
 73
     8
 74
     0
 42
0.0000000001
 43
0.0000000001
 40
0.0
 40
0.0
 40
0.0
 40
0.0
 40
0.5
 40
0.5
 40
0.5
 40
0.5
 40
1.0
 40
1.0
 40
1.0
 40
1.0
 10
0.8749724409448819
 20
2.9310905511811023
 30
0.0
 10
0.8750157480314961
 20
2.9308700787401576
 30
0.0
 10
0.8750590551181102
 20
2.9306496062992129
 30
0.0
 10
0.8751062992125984
 20
2.9304251968503938
 30
0.0
 10
0.8751062992125984
 20
2.9304251968503938
 30
0.0
 10
0.8750590551181102
 20
2.9306496062992129
 30
0.0
 10
0.8750157480314961
 20
2.9308700787401576
 30
0.0
 10
0.8749724409448819
 20
2.9310905511811023
 30
0.0
  0
SPLINE
  5
95
100
AcDbEntity
  8
Layer 1
370
    18
100
AcDbSpline
210
0.0
220
0.0
230
1.0
 70
     1
 71
     3
 72
    12
 73
     8
 74
     0
 42
0.0000000001
 43
0.0000000001
 40
0.0
 40
0.0
 40
0.0
 40
0.0
 40
0.5
 40
0.5
 40
0.5
 40
0.5
 40
1.0
 40
1.0
 40
1.0
 40
1.0
 10
0.8752283464566929
 20
2.9298700787401577
 30
0.0
 10
0.8752755905511811
 20
2.9296574803149609
 30
0.0
 10
0.8753267716535433
 20
2.9294409448818897
 30
0.0
 10
0.8753779527559056
 20
2.9292244094488189
 30
0.0
 10
0.8753779527559056
 20
2.9292244094488189
 30
0.0
 10
0.8753267716535433
 20
2.9294409448818897
 30
0.0
 10
0.8752755905511811
 20
2.9296574803149609
 30
0.0
 10
0.8752283464566929
 20
2.9298700787401577
 30
0.0
  0
SPLINE
  5
96
100
AcDbEntity
  8
Layer 1
370
    18
100
AcDbSpline
210
0.0
220
0.0
230
1.0
 70
     1
 71
     3
 72
    12
 73
     8
 74
     0
 42
0.0000000001
 43
0.0000000001
 40
0.0
 40
0.0
 40
0.0
 40
0.0
 40
0.5
 40
0.5
 40
0.5
 40
0.5
 40
1.0
 40
1.0
 40
1.0
 40
1.0
 10
0.8755314960629922
 20
2.9286299212598426
 30
0.0
 10
0.8755826771653543
 20
2.928429133858268
 30
0.0
 10
0.8756377952755906
 20
2.9282283464566929
 30
0.0
 10
0.8756929133858268
 20
2.9280236220472444
 30
0.0
 10
0.8756929133858268
 20
2.9280236220472444
 30
0.0
 10
0.8756377952755906
 20
2.9282283464566929
 30
0.0
 10
0.8755826771653543
 20
2.928429133858268
 30
0.0
 10
0.8755314960629922
 20
2.9286299212598426
 30
0.0
  0
SPLINE
  5
97
100
AcDbEntity
  8
Layer 1
370
    18
100
AcDbSpline
210
0.0
220
0.0
230
1.0
 70
     1
 71
     3
 72
    12
 73
     8
 74
     0
 42
0.0000000001
 43
0.0000000001
 40
0.0
 40
0.0
 40
0.0
 40
0.0
 40
0.5
 40
0.5
 40
0.5
 40
0.5
 40
1.0
 40
1.0
 40
1.0
 40
1.0
 10
0.8758700787401575
 20
2.9274055118110236
 30
0.0
 10
0.8759291338582678
 20
2.927204724409449
 30
0.0
 10
0.875992125984252
 20
2.927003937007874
 30
0.0
 10
0.8760551181102363
 20
2.9268031496062994
 30
0.0
 10
0.8760551181102363
 20
2.9268031496062994
 30
0.0
 10
0.875992125984252
 20
2.927003937007874
 30
0.0
 10
0.8759291338582678
 20
2.927204724409449
 30
0.0
 10
0.8758700787401575
 20
2.9274055118110236
 30
0.0
  0
SPLINE
  5
98
100
AcDbEntity
  8
Layer 1
370
    18
100
AcDbSpline
210
0.0
220
0.0
230
1.0
 70
     1
 71
     3
 72
    12
 73
     8
 74
     0
 42
0.0000000001
 43
0.0000000001
 40
0.0
 40
0.0
 40
0.0
 40
0.0
 40
0.5
 40
0.5
 40
0.5
 40
0.5
 40
1.0
 40
1.0
 40
1.0
 40
1.0
 10
0.876259842519685
 20
2.926161417322835
 30
0.0
 10
0.8763228346456693
 20
2.9259724409448822
 30
0.0
 10
0.8763858267716536
 20
2.925779527559055
 30
0.0
 10
0.8764527559055119
 20
2.9255905511811027
 30
0.0
 10
0.8764527559055119
 20
2.9255905511811027
 30
0.0
 10
0.8763858267716536
 20
2.925779527559055
 30
0.0
 10
0.8763228346456693
 20
2.9259724409448822
 30
0.0
 10
0.876259842519685
 20
2.926161417322835
 30
0.0
  0
SPLINE
  5
99
100
AcDbEntity
  8
Layer 1
370
    18
100
AcDbSpline
210
0.0
220
0.0
230
1.0
 70
     1
 71
     3
 72
    12
 73
     8
 74
     0
 42
0.0000000001
 43
0.0000000001
 40
0.0
 40
0.0
 40
0.0
 40
0.0
 40
0.5
 40
0.5
 40
0.5
 40
0.5
 40
1.0
 40
1.0
 40
1.0
 40
1.0
 10
0.8766811023622048
 20
2.9249330708661416
 30
0.0
 10
0.876751968503937
 20
2.924736220472441
 30
0.0
 10
0.8768228346456694
 20
2.9245393700787403
 30
0.0
 10
0.8768976377952756
 20
2.9243425196850397
 30
0.0
 10
0.8768976377952756
 20
2.9243425196850397
 30
0.0
 10
0.8768228346456694
 20
2.9245393700787403
 30
0.0
 10
0.876751968503937
 20
2.924736220472441
 30
0.0
 10
0.8766811023622048
 20
2.9249330708661416
 30
0.0
  0
SPLINE
  5
9A
100
AcDbEntity
  8
Layer 1
370
    18
100
AcDbSpline
210
0.0
220
0.0
230
1.0
 70
     1
 71
     3
 72
    12
 73
     8
 74
     0
 42
0.0000000001
 43
0.0000000001
 40
0.0
 40
0.0
 40
0.0
 40
0.0
 40
0.5
 40
0.5
 40
0.5
 40
0.5
 40
1.0
 40
1.0
 40
1.0
 40
1.0
 10
0.8771338582677166
 20
2.9237204724409449
 30
0.0
 10
0.8772125984251968
 20
2.9235236220472443
 30
0.0
 10
0.8772874015748032
 20
2.9233307086614175
 30
0.0
 10
0.8773661417322834
 20
2.9231377952755908
 30
0.0
 10
0.8773661417322834
 20
2.9231377952755908
 30
0.0
 10
0.8772874015748032
 20
2.9233307086614175
 30
0.0
 10
0.8772125984251968
 20
2.9235236220472443
 30
0.0
 10
0.8771338582677166
 20
2.9237204724409449
 30
0.0
  0
SPLINE
  5
9B
100
AcDbEntity
  8
Layer 1
370
    18
100
AcDbSpline
210
0.0
220
0.0
230
1.0
 70
     1
 71
     3
 72
    12
 73
     8
 74
     0
 42
0.0000000001
 43
0.0000000001
 40
0.0
 40
0.0
 40
0.0
 40
0.0
 40
0.5
 40
0.5
 40
0.5
 40
0.5
 40
1.0
 40
1.0
 40
1.0
 40
1.0
 10
0.8776417322834647
 20
2.922464566929134
 30
0.0
 10
0.8777165354330709
 20
2.9222795275590552
 30
0.0
 10
0.8777952755905513
 20
2.9220944881889763
 30
0.0
 10
0.8778740157480315
 20
2.9219094488188979
 30
0.0
 10
0.8778740157480315
 20
2.9219094488188979
 30
0.0
 10
0.8777952755905513
 20
2.9220944881889763
 30
0.0
 10
0.8777165354330709
 20
2.9222795275590552
 30
0.0
 10
0.8776417322834647
 20
2.922464566929134
 30
0.0
  0
SPLINE
  5
9C
100
AcDbEntity
  8
Layer 1
370
    18
100
AcDbSpline
210
0.0
220
0.0
230
1.0
 70
     1
 71
     3
 72
    12
 73
     8
 74
     0
 42
0.0000000001
 43
0.0000000001
 40
0.0
 40
0.0
 40
0.0
 40
0.0
 40
0.5
 40
0.5
 40
0.5
 40
0.5
 40
1.0
 40
1.0
 40
1.0
 40
1.0
 10
0.8781771653543308
 20
2.921220472440945
 30
0.0
 10
0.878244094488189
 20
2.9210708661417324
 30
0.0
 10
0.8783110236220473
 20
2.9209212598425198
 30
0.0
 10
0.8783779527559056
 20
2.9207716535433073
 30
0.0
 10
0.8783779527559056
 20
2.9207716535433073
 30
0.0
 10
0.8783110236220473
 20
2.9209212598425198
 30
0.0
 10
0.878244094488189
 20
2.9210708661417324
 30
0.0
 10
0.8781771653543308
 20
2.921220472440945
 30
0.0
  0
SPLINE
  5
9D
100
AcDbEntity
  8
Layer 1
370
    18
100
AcDbSpline
210
0.0
220
0.0
230
1.0
 70
     1
 71
     3
 72
    20
 73
    16
 74
     0
 42
0.0000000001
 43
0.0000000001
 40
0.0
 40
0.0
 40
0.0
 40
0.0
 40
0.25
 40
0.25
 40
0.25
 40
0.25
 40
0.5
 40
0.5
 40
0.5
 40
0.5
 40
0.75
 40
0.75
 40
0.75
 40
0.75
 40
1.0
 40
1.0
 40
1.0
 40
1.0
 10
0.9723503937007875
 20
2.7318582677165355
 30
0.0
 10
0.9848740157480316
 20
2.7265354330708664
 30
0.0
 10
1.0087795275590552
 20
2.751196850393701
 30
0.0
 10
1.0236299212598425
 20
2.7651496062992127
 30
0.0
 10
1.0236299212598425
 20
2.7651496062992127
 30
0.0
 10
1.0280314960629922
 20
2.7611299212598426
 30
0.0
 10
1.0545944881889764
 20
2.7225433070866143
 30
0.0
 10
1.0730866141732285
 20
2.729413385826772
 30
0.0
 10
1.0730866141732285
 20
2.729413385826772
 30
0.0
 10
1.102984251968504
 20
2.74051968503937
 30
0.0
 10
1.0389763779527559
 20
2.8166141732283467
 30
0.0
 10
1.0185039370078741
 20
2.8473937007874017
 30
0.0
 10
1.0185039370078741
 20
2.8473937007874017
 30
0.0
 10
0.9881141732283465
 20
2.7997637795275589
 30
0.0
 10
0.9447716535433072
 20
2.7388503937007873
 30
0.0
 10
0.9723503937007875
 20
2.7318582677165355
 30
0.0
  0
SPLINE
  5
9E
100
AcDbEntity
  8
Layer 1
370
    18
100
AcDbSpline
210
0.0
220
0.0
230
1.0
 70
     1
 71
     3
 72
    20
 73
    16
 74
     0
 42
0.0000000001
 43
0.0000000001
 40
0.0
 40
0.0
 40
0.0
 40
0.0
 40
0.25
 40
0.25
 40
0.25
 40
0.25
 40
0.5
 40
0.5
 40
0.5
 40
0.5
 40
0.75
 40
0.75
 40
0.75
 40
0.75
 40
1.0
 40
1.0
 40
1.0
 40
1.0
 10
0.9723503937007875
 20
2.9937637795275593
 30
0.0
 10
0.9848740157480316
 20
2.9990905511811023
 30
0.0
 10
1.0087795275590552
 20
2.9744291338582678
 30
0.0
 10
1.0236299212598425
 20
2.9604763779527561
 30
0.0
 10
1.0236299212598425
 20
2.9604763779527561
 30
0.0
 10
1.0280314960629922
 20
2.9644921259842523
 30
0.0
 10
1.0545944881889764
 20
3.0030826771653545
 30
0.0
 10
1.0730866141732285
 20
2.9962125984251968
 30
0.0
 10
1.0730866141732285
 20
2.9962125984251968
 30
0.0
 10
1.102984251968504
 20
2.9851062992125987
 30
0.0
 10
1.0389763779527559
 20
2.9090118110236221
 30
0.0
 10
1.0185039370078741
 20
2.8782322834645671
 30
0.0
 10
1.0185039370078741
 20
2.8782322834645671
 30
0.0
 10
0.9881141732283465
 20
2.9258622047244094
 30
0.0
 10
0.9447716535433072
 20
2.986775590551181
 30
0.0
 10
0.9723503937007875
 20
2.9937637795275593
 30
0.0
  0
SPLINE
  5
9F
100
AcDbEntity
  8
Layer 1
370
    18
100
AcDbSpline
210
0.0
220
0.0
230
1.0
 70
     1
 71
     3
 72
    20
 73
    16
 74
     0
 42
0.0000000001
 43
0.0000000001
 40
0.0
 40
0.0
 40
0.0
 40
0.0
 40
0.25
 40
0.25
 40
0.25
 40
0.25
 40
0.5
 40
0.5
 40
0.5
 40
0.5
 40
0.75
 40
0.75
 40
0.75
 40
0.75
 40
1.0
 40
1.0
 40
1.0
 40
1.0
 10
1.152976377952756
 20
2.832704724409449
 30
0.0
 10
1.1568346456692913
 20
2.845751968503937
 30
0.0
 10
1.1296062992125984
 20
2.8666889763779531
 30
0.0
 10
1.1140511811023623
 20
2.8798503937007873
 30
0.0
 10
1.1140511811023623
 20
2.8798503937007873
 30
0.0
 10
1.1175393700787402
 20
2.884681102362205
 30
0.0
 10
1.1528425196850394
 20
2.9154763779527562
 30
0.0
 10
1.1439094488188977
 20
2.9330629921259845
 30
0.0
 10
1.1439094488188977
 20
2.9330629921259845
 30
0.0
 10
1.12946062992126
 20
2.9614960629921261
 30
0.0
 10
1.0611692913385826
 20
2.8892204724409449
 30
0.0
 10
1.0329251968503936
 20
2.8653700787401575
 30
0.0
 10
1.0329251968503936
 20
2.8653700787401575
 30
0.0
 10
1.0837165354330709
 20
2.8406141732283468
 30
0.0
 10
1.1491771653543308
 20
2.8045078740157483
 30
0.0
 10
1.152976377952756
 20
2.832704724409449
 30
0.0
  0
SPLINE
  5
A0
100
AcDbEntity
  8
Layer 1
370
    18
100
AcDbSpline
210
0.0
220
0.0
230
1.0
 70
     1
 71
     3
 72
    20
 73
    16
 74
     0
 42
0.0000000001
 43
0.0000000001
 40
0.0
 40
0.0
 40
0.0
 40
0.0
 40
0.25
 40
0.25
 40
0.25
 40
0.25
 40
0.5
 40
0.5
 40
0.5
 40
0.5
 40
0.75
 40
0.75
 40
0.75
 40
0.75
 40
1.0
 40
1.0
 40
1.0
 40
1.0
 10
0.8824291338582677
 20
2.832704724409449
 30
0.0
 10
0.8785669291338583
 20
2.845751968503937
 30
0.0
 10
0.9057992125984252
 20
2.8666889763779531
 30
0.0
 10
0.9213543307086615
 20
2.8798503937007873
 30
0.0
 10
0.9213543307086615
 20
2.8798503937007873
 30
0.0
 10
0.9178622047244095
 20
2.884681102362205
 30
0.0
 10
0.8825590551181103
 20
2.9154763779527562
 30
0.0
 10
0.891496062992126
 20
2.9330629921259845
 30
0.0
 10
0.891496062992126
 20
2.9330629921259845
 30
0.0
 10
0.9059409448818898
 20
2.9614960629921261
 30
0.0
 10
0.9742322834645669
 20
2.8892204724409449
 30
0.0
 10
1.0024763779527559
 20
2.8653700787401575
 30
0.0
 10
1.0024763779527559
 20
2.8653700787401575
 30
0.0
 10
0.9516850393700788
 20
2.8406141732283468
 30
0.0
 10
0.886224409448819
 20
2.8045078740157483
 30
0.0
 10
0.8824291338582677
 20
2.832704724409449
 30
0.0
  0
SPLINE
  5
A1
100
AcDbEntity
  8
Layer 1
370
    18
100
AcDbSpline
210
0.0
220
0.0
230
1.0
 70
     1
 71
     3
 72
    20
 73
    16
 74
     0
 42
0.0000000001
 43
0.0000000001
 40
0.0
 40
0.0
 40
0.0
 40
0.0
 40
0.25
 40
0.25
 40
0.25
 40
0.25
 40
0.5
 40
0.5
 40
0.5
 40
0.5
 40
0.75
 40
0.75
 40
0.75
 40
0.75
 40
1.0
 40
1.0
 40
1.0
 40
1.0
 10
1.085976377952756
 20
3.0154724409448819
 30
0.0
 10
1.0964212598425198
 20
3.011031496062992
 30
0.0
 10
1.1163700787401576
 20
3.0316102362204727
 30
0.0
 10
1.128759842519685
 20
3.0432480314960633
 30
0.0
 10
1.128759842519685
 20
3.0432480314960633
 30
0.0
 10
1.1324330708661419
 20
3.0398976377952756
 30
0.0
 10
1.1545984251968504
 20
3.0077007874015749
 30
0.0
 10
1.1700236220472442
 20
3.0134330708661419
 30
0.0
 10
1.1700236220472442
 20
3.0134330708661419
 30
0.0
 10
1.1949685039370079
 20
3.022700787401575
 30
0.0
 10
1.1415629921259842
 20
3.0861889763779531
 30
0.0
 10
1.1244842519685039
 20
3.1118700787401576
 30
0.0
 10
1.1244842519685039
 20
3.1118700787401576
 30
0.0
 10
1.0991259842519685
 20
3.0721299212598425
 30
0.0
 10
1.0629606299212599
 20
3.0213070866141734
 30
0.0
 10
1.085976377952756
 20
3.0154724409448819
 30
0.0
  0
SPLINE
  5
A2
100
AcDbEntity
  8
Layer 1
370
    18
100
AcDbSpline
210
0.0
220
0.0
230
1.0
 70
     1
 71
     3
 72
    20
 73
    16
 74
     0
 42
0.0000000001
 43
0.0000000001
 40
0.0
 40
0.0
 40
0.0
 40
0.0
 40
0.25
 40
0.25
 40
0.25
 40
0.25
 40
0.5
 40
0.5
 40
0.5
 40
0.5
 40
0.75
 40
0.75
 40
0.75
 40
0.75
 40
1.0
 40
1.0
 40
1.0
 40
1.0
 10
1.085976377952756
 20
3.234
 30
0.0
 10
1.0964212598425198
 20
3.2384409448818898
 30
0.0
 10
1.1163700787401576
 20
3.2178622047244096
 30
0.0
 10
1.128759842519685
 20
3.206224409448819
 30
0.0
 10
1.128759842519685
 20
3.206224409448819
 30
0.0
 10
1.1324330708661419
 20
3.2095748031496063
 30
0.0
 10
1.1545984251968504
 20
3.2417716535433074
 30
0.0
 10
1.1700236220472442
 20
3.2360393700787404
 30
0.0
 10
1.1700236220472442
 20
3.2360393700787404
 30
0.0
 10
1.1949685039370079
 20
3.2267716535433073
 30
0.0
 10
1.1415629921259842
 20
3.1632834645669292
 30
0.0
 10
1.1244842519685039
 20
3.1376023622047247
 30
0.0
 10
1.1244842519685039
 20
3.1376023622047247
 30
0.0
 10
1.0991259842519685
 20
3.1773425196850393
 30
0.0
 10
1.0629606299212599
 20
3.2281653543307089
 30
0.0
 10
1.085976377952756
 20
3.234
 30
0.0
  0
SPLINE
  5
A3
100
AcDbEntity
  8
Layer 1
370
    18
100
AcDbSpline
210
0.0
220
0.0
230
1.0
 70
     1
 71
     3
 72
    20
 73
    16
 74
     0
 42
0.0000000001
 43
0.0000000001
 40
0.0
 40
0.0
 40
0.0
 40
0.0
 40
0.25
 40
0.25
 40
0.25
 40
0.25
 40
0.5
 40
0.5
 40
0.5
 40
0.5
 40
0.75
 40
0.75
 40
0.75
 40
0.75
 40
1.0
 40
1.0
 40
1.0
 40
1.0
 10
1.2366811023622049
 20
3.0996141732283466
 30
0.0
 10
1.2399015748031497
 20
3.110503937007874
 30
0.0
 10
1.2171811023622048
 20
3.1279685039370082
 30
0.0
 10
1.2042047244094489
 20
3.1389527559055121
 30
0.0
 10
1.2042047244094489
 20
3.1389527559055121
 30
0.0
 10
1.2071141732283466
 20
3.1429842519685041
 30
0.0
 10
1.2365708661417323
 20
3.1686771653543309
 30
0.0
 10
1.2291181102362205
 20
3.1833503937007874
 30
0.0
 10
1.2291181102362205
 20
3.1833503937007874
 30
0.0
 10
1.2170629921259843
 20
3.2070748031496064
 30
0.0
 10
1.1600826771653543
 20
3.1467677165354333
 30
0.0
 10
1.1365196850393702
 20
3.1268700787401578
 30
0.0
 10
1.1365196850393702
 20
3.1268700787401578
 30
0.0
 10
1.1788937007874016
 20
3.1062165354330711
 30
0.0
 10
1.2335118110236221
 20
3.0760866141732284
 30
0.0
 10
1.2366811023622049
 20
3.0996141732283466
 30
0.0
  0
SPLINE
  5
A4
100
AcDbEntity
  8
Layer 1
370
    18
100
AcDbSpline
210
0.0
220
0.0
230
1.0
 70
     1
 71
     3
 72
    20
 73
    16
 74
     0
 42
0.0000000001
 43
0.0000000001
 40
0.0
 40
0.0
 40
0.0
 40
0.0
 40
0.25
 40
0.25
 40
0.25
 40
0.25
 40
0.5
 40
0.5
 40
0.5
 40
0.5
 40
0.75
 40
0.75
 40
0.75
 40
0.75
 40
1.0
 40
1.0
 40
1.0
 40
1.0
 10
1.0109448818897637
 20
3.0996141732283466
 30
0.0
 10
1.0077244094488189
 20
3.110503937007874
 30
0.0
 10
1.0304448818897638
 20
3.1279685039370082
 30
0.0
 10
1.0434251968503938
 20
3.1389527559055121
 30
0.0
 10
1.0434251968503938
 20
3.1389527559055121
 30
0.0
 10
1.040511811023622
 20
3.1429842519685041
 30
0.0
 10
1.0110551181102363
 20
3.1686771653543309
 30
0.0
 10
1.018511811023622
 20
3.1833503937007874
 30
0.0
 10
1.018511811023622
 20
3.1833503937007874
 30
0.0
 10
1.0305669291338584
 20
3.2070748031496064
 30
0.0
 10
1.0875472440944882
 20
3.1467716535433072
 30
0.0
 10
1.1111102362204726
 20
3.1268700787401578
 30
0.0
 10
1.1111102362204726
 20
3.1268700787401578
 30
0.0
 10
1.0687322834645669
 20
3.1062165354330711
 30
0.0
 10
1.0141141732283465
 20
3.0760866141732284
 30
0.0
 10
1.0109448818897637
 20
3.0996141732283466
 30
0.0
  0
SPLINE
  5
A5
100
AcDbEntity
  8
Layer 1
370
    18
100
AcDbSpline
210
0.0
220
0.0
230
1.0
 70
     1
 71
     3
 72
    20
 73
    16
 74
     0
 42
0.0000000001
 43
0.0000000001
 40
0.0
 40
0.0
 40
0.0
 40
0.0
 40
0.25
 40
0.25
 40
0.25
 40
0.25
 40
0.5
 40
0.5
 40
0.5
 40
0.5
 40
0.75
 40
0.75
 40
0.75
 40
0.75
 40
1.0
 40
1.0
 40
1.0
 40
1.0
 10
0.5123385826771654
 20
2.7366850393700788
 30
0.0
 10
0.5355196850393701
 20
2.7268307086614176
 30
0.0
 10
0.5797755905511811
 20
2.7724881889763782
 30
0.0
 10
0.6072716535433071
 20
2.7983149606299214
 30
0.0
 10
0.6072716535433071
 20
2.7983149606299214
 30
0.0
 10
0.6154212598425197
 20
2.7908779527559058
 30
0.0
 10
0.6645944881889764
 20
2.7194409448818897
 30
0.0
 10
0.6988228346456693
 20
2.7321574803149606
 30
0.0
 10
0.6988228346456693
 20
2.7321574803149606
 30
0.0
 10
0.7541692913385827
 20
2.7527204724409451
 30
0.0
 10
0.6356771653543307
 20
2.8935905511811026
 30
0.0
 10
0.5977795275590552
 20
2.9505669291338585
 30
0.0
 10
0.5977795275590552
 20
2.9505669291338585
 30
0.0
 10
0.5415236220472441
 20
2.8623897637795275
 30
0.0
 10
0.4612834645669292
 20
2.7496299212598427
 30
0.0
 10
0.5123385826771654
 20
2.7366850393700788
 30
0.0
  0
SPLINE
  5
A6
100
AcDbEntity
  8
Layer 1
370
    18
100
AcDbSpline
210
0.0
220
0.0
230
1.0
 70
     1
 71
     3
 72
    20
 73
    16
 74
     0
 42
0.0000000001
 43
0.0000000001
 40
0.0
 40
0.0
 40
0.0
 40
0.0
 40
0.25
 40
0.25
 40
0.25
 40
0.25
 40
0.5
 40
0.5
 40
0.5
 40
0.5
 40
0.75
 40
0.75
 40
0.75
 40
0.75
 40
1.0
 40
1.0
 40
1.0
 40
1.0
 10
0.5123385826771654
 20
3.2215354330708661
 30
0.0
 10
0.5355196850393701
 20
3.2313937007874016
 30
0.0
 10
0.5797755905511811
 20
3.1857362204724411
 30
0.0
 10
0.6072716535433071
 20
3.1599094488188979
 30
0.0
 10
0.6072716535433071
 20
3.1599094488188979
 30
0.0
 10
0.6154212598425197
 20
3.1673464566929135
 30
0.0
 10
0.6645944881889764
 20
3.2387834645669291
 30
0.0
 10
0.6988228346456693
 20
3.2260669291338582
 30
0.0
 10
0.6988228346456693
 20
3.2260669291338582
 30
0.0
 10
0.7541692913385827
 20
3.2055000000000002
 30
0.0
 10
0.6356771653543307
 20
3.0646338582677166
 30
0.0
 10
0.5977795275590552
 20
3.0076535433070868
 30
0.0
 10
0.5977795275590552
 20
3.0076535433070868
 30
0.0
 10
0.5415236220472441
 20
3.0958307086614174
 30
0.0
 10
0.4612834645669292
 20
3.2085944881889765
 30
0.0
 10
0.5123385826771654
 20
3.2215354330708661
 30
0.0
  0
SPLINE
  5
A7
100
AcDbEntity
  8
Layer 1
370
    18
100
AcDbSpline
210
0.0
220
0.0
230
1.0
 70
     1
 71
     3
 72
    20
 73
    16
 74
     0
 42
0.0000000001
 43
0.0000000001
 40
0.0
 40
0.0
 40
0.0
 40
0.0
 40
0.25
 40
0.25
 40
0.25
 40
0.25
 40
0.5
 40
0.5
 40
0.5
 40
0.5
 40
0.75
 40
0.75
 40
0.75
 40
0.75
 40
1.0
 40
1.0
 40
1.0
 40
1.0
 10
0.8467165354330709
 20
2.9233740157480317
 30
0.0
 10
0.8538661417322835
 20
2.9475314960629921
 30
0.0
 10
0.8034527559055118
 20
2.9862874015748031
 30
0.0
 10
0.7746574803149606
 20
3.0106535433070869
 30
0.0
 10
0.7746574803149606
 20
3.0106535433070869
 30
0.0
 10
0.7811141732283465
 20
3.0195984251968504
 30
0.0
 10
0.8464724409448819
 20
3.0766062992125986
 30
0.0
 10
0.8299330708661418
 20
3.1091574803149609
 30
0.0
 10
0.8299330708661418
 20
3.1091574803149609
 30
0.0
 10
0.8031850393700788
 20
3.1617952755905514
 30
0.0
 10
0.6767637795275591
 20
3.0279960629921261
 30
0.0
 10
0.62448031496063
 20
2.9838464566929135
 30
0.0
 10
0.62448031496063
 20
2.9838464566929135
 30
0.0
 10
0.7185039370078741
 20
2.9380196850393703
 30
0.0
 10
0.8396889763779528
 20
2.8711732283464566
 30
0.0
 10
0.8467165354330709
 20
2.9233740157480317
 30
0.0
  0
SPLINE
  5
A8
100
AcDbEntity
  8
Layer 1
370
    18
100
AcDbSpline
210
0.0
220
0.0
230
1.0
 70
     1
 71
     3
 72
    20
 73
    16
 74
     0
 42
0.0000000001
 43
0.0000000001
 40
0.0
 40
0.0
 40
0.0
 40
0.0
 40
0.25
 40
0.25
 40
0.25
 40
0.25
 40
0.5
 40
0.5
 40
0.5
 40
0.5
 40
0.75
 40
0.75
 40
0.75
 40
0.75
 40
1.0
 40
1.0
 40
1.0
 40
1.0
 10
0.3458700787401575
 20
2.9233740157480317
 30
0.0
 10
0.3387244094488189
 20
2.9475314960629921
 30
0.0
 10
0.3891338582677166
 20
2.9862874015748031
 30
0.0
 10
0.4179330708661417
 20
3.0106535433070869
 30
0.0
 10
0.4179330708661417
 20
3.0106535433070869
 30
0.0
 10
0.4114724409448819
 20
3.0195984251968504
 30
0.0
 10
0.3461181102362205
 20
3.0766062992125986
 30
0.0
 10
0.3626574803149607
 20
3.1091574803149609
 30
0.0
 10
0.3626574803149607
 20
3.1091574803149609
 30
0.0
 10
0.3894055118110236
 20
3.1617952755905514
 30
0.0
 10
0.5158267716535433
 20
3.0279960629921261
 30
0.0
 10
0.5681062992125985
 20
2.9838464566929135
 30
0.0
 10
0.5681062992125985
 20
2.9838464566929135
 30
0.0
 10
0.4740866141732283
 20
2.9380196850393703
 30
0.0
 10
0.3529015748031496
 20
2.8711732283464566
 30
0.0
 10
0.3458700787401575
 20
2.9233740157480317
 30
0.0
  0
SPLINE
  5
A9
100
AcDbEntity
  8
Layer 1
 62
   254
100
AcDbSpline
210
0.0
220
0.0
230
1.0
 70
     1
 71
     3
 72
    20
 73
    16
 74
     0
 42
0.0000000001
 43
0.0000000001
 40
0.0
 40
0.0
 40
0.0
 40
0.0
 40
0.25
 40
0.25
 40
0.25
 40
0.25
 40
0.5
 40
0.5
 40
0.5
 40
0.5
 40
0.75
 40
0.75
 40
0.75
 40
0.75
 40
1.0
 40
1.0
 40
1.0
 40
1.0
 10
1.0145551181102364
 20
3.7774803149606302
 30
0.0
 10
1.0145551181102364
 20
3.7774803149606302
 30
0.0
 10
1.2133307086614173
 20
3.578700787401575
 30
0.0
 10
1.2133307086614173
 20
3.578700787401575
 30
0.0
 10
1.2133307086614173
 20
3.578700787401575
 30
0.0
 10
1.2133307086614173
 20
3.578700787401575
 30
0.0
 10
1.0145551181102364
 20
3.3799212598425199
 30
0.0
 10
1.0145551181102364
 20
3.3799212598425199
 30
0.0
 10
1.0145551181102364
 20
3.3799212598425199
 30
0.0
 10
1.0145551181102364
 20
3.3799212598425199
 30
0.0
 10
0.8157755905511811
 20
3.578700787401575
 30
0.0
 10
0.8157755905511811
 20
3.578700787401575
 30
0.0
 10
0.8157755905511811
 20
3.578700787401575
 30
0.0
 10
0.8157755905511811
 20
3.578700787401575
 30
0.0
 10
1.0145551181102364
 20
3.7774803149606302
 30
0.0
 10
1.0145551181102364
 20
3.7774803149606302
 30
0.0
  0
SPLINE
  5
AA
100
AcDbEntity
  8
Layer 1
 62
   254
100
AcDbSpline
210
0.0
220
0.0
230
1.0
 70
     1
 71
     3
 72
    20
 73
    16
 74
     0
 42
0.0000000001
 43
0.0000000001
 40
0.0
 40
0.0
 40
0.0
 40
0.0
 40
0.25
 40
0.25
 40
0.25
 40
0.25
 40
0.5
 40
0.5
 40
0.5
 40
0.5
 40
0.75
 40
0.75
 40
0.75
 40
0.75
 40
1.0
 40
1.0
 40
1.0
 40
1.0
 10
1.3292755905511811
 20
3.6718622047244094
 30
0.0
 10
1.3292755905511811
 20
3.6718622047244094
 30
0.0
 10
1.4224330708661417
 20
3.578700787401575
 30
0.0
 10
1.4224330708661417
 20
3.578700787401575
 30
0.0
 10
1.4224330708661417
 20
3.578700787401575
 30
0.0
 10
1.4224330708661417
 20
3.578700787401575
 30
0.0
 10
1.3292755905511811
 20
3.4855393700787403
 30
0.0
 10
1.3292755905511811
 20
3.4855393700787403
 30
0.0
 10
1.3292755905511811
 20
3.4855393700787403
 30
0.0
 10
1.3292755905511811
 20
3.4855393700787403
 30
0.0
 10
1.2361141732283465
 20
3.578700787401575
 30
0.0
 10
1.2361141732283465
 20
3.578700787401575
 30
0.0
 10
1.2361141732283465
 20
3.578700787401575
 30
0.0
 10
1.2361141732283465
 20
3.578700787401575
 30
0.0
 10
1.3292755905511811
 20
3.6718622047244094
 30
0.0
 10
1.3292755905511811
 20
3.6718622047244094
 30
0.0
  0
SPLINE
  5
AB
100
AcDbEntity
  8
Layer 1
 62
   254
100
AcDbSpline
210
0.0
220
0.0
230
1.0
 70
     1
 71
     3
 72
    20
 73
    16
 74
     0
 42
0.0000000001
 43
0.0000000001
 40
0.0
 40
0.0
 40
0.0
 40
0.0
 40
0.25
 40
0.25
 40
0.25
 40
0.25
 40
0.5
 40
0.5
 40
0.5
 40
0.5
 40
0.75
 40
0.75
 40
0.75
 40
0.75
 40
1.0
 40
1.0
 40
1.0
 40
1.0
 10
0.7088149606299213
 20
3.6718622047244094
 30
0.0
 10
0.7088149606299213
 20
3.6718622047244094
 30
0.0
 10
0.8019763779527559
 20
3.578700787401575
 30
0.0
 10
0.8019763779527559
 20
3.578700787401575
 30
0.0
 10
0.8019763779527559
 20
3.578700787401575
 30
0.0
 10
0.8019763779527559
 20
3.578700787401575
 30
0.0
 10
0.7088149606299213
 20
3.4855393700787403
 30
0.0
 10
0.7088149606299213
 20
3.4855393700787403
 30
0.0
 10
0.7088149606299213
 20
3.4855393700787403
 30
0.0
 10
0.7088149606299213
 20
3.4855393700787403
 30
0.0
 10
0.6156535433070867
 20
3.578700787401575
 30
0.0
 10
0.6156535433070867
 20
3.578700787401575
 30
0.0
 10
0.6156535433070867
 20
3.578700787401575
 30
0.0
 10
0.6156535433070867
 20
3.578700787401575
 30
0.0
 10
0.7088149606299213
 20
3.6718622047244094
 30
0.0
 10
0.7088149606299213
 20
3.6718622047244094
 30
0.0
  0
SPLINE
  5
AC
100
AcDbEntity
  8
Layer 1
100
AcDbSpline
210
0.0
220
0.0
230
1.0
 70
     1
 71
     3
 72
    36
 73
    32
 74
     0
 42
0.0000000001
 43
0.0000000001
 40
0.0
 40
0.0
 40
0.0
 40
0.0
 40
0.125
 40
0.125
 40
0.125
 40
0.125
 40
0.25
 40
0.25
 40
0.25
 40
0.25
 40
0.375
 40
0.375
 40
0.375
 40
0.375
 40
0.5
 40
0.5
 40
0.5
 40
0.5
 40
0.625
 40
0.625
 40
0.625
 40
0.625
 40
0.75
 40
0.75
 40
0.75
 40
0.75
 40
0.875
 40
0.875
 40
0.875
 40
0.875
 40
1.0
 40
1.0
 40
1.0
 40
1.0
 10
0.9795433070866142
 20
3.5202716535433072
 30
0.0
 10
0.9795433070866142
 20
3.5202716535433072
 30
0.0
 10
0.9913503937007875
 20
3.5202716535433072
 30
0.0
 10
0.9913503937007875
 20
3.5202716535433072
 30
0.0
 10
0.9913503937007875
 20
3.5202716535433072
 30
0.0
 10
0.9913503937007875
 20
3.5202716535433072
 30
0.0
 10
0.9913503937007875
 20
3.6105472440944881
 30
0.0
 10
0.9913503937007875
 20
3.6105472440944881
 30
0.0
 10
0.9913503937007875
 20
3.6105472440944881
 30
0.0
 10
0.9913503937007875
 20
3.6105472440944881
 30
0.0
 10
0.9809330708661418
 20
3.6105472440944881
 30
0.0
 10
0.9809330708661418
 20
3.6105472440944881
 30
0.0
 10
0.9809330708661418
 20
3.6105472440944881
 30
0.0
 10
0.9809330708661418
 20
3.6105472440944881
 30
0.0
 10
0.9612125984251969
 20
3.5999921259842522
 30
0.0
 10
0.9612125984251969
 20
3.5999921259842522
 30
0.0
 10
0.9612125984251969
 20
3.5999921259842522
 30
0.0
 10
0.9612125984251969
 20
3.5999921259842522
 30
0.0
 10
0.9635748031496063
 20
3.5906850393700789
 30
0.0
 10
0.9635748031496063
 20
3.5906850393700789
 30
0.0
 10
0.9635748031496063
 20
3.5906850393700789
 30
0.0
 10
0.9635748031496063
 20
3.5906850393700789
 30
0.0
 10
0.9792677165354331
 20
3.5991574803149606
 30
0.0
 10
0.9792677165354331
 20
3.5991574803149606
 30
0.0
 10
0.9792677165354331
 20
3.5991574803149606
 30
0.0
 10
0.9792677165354331
 20
3.5991574803149606
 30
0.0
 10
0.9795433070866142
 20
3.5991574803149606
 30
0.0
 10
0.9795433070866142
 20
3.5991574803149606
 30
0.0
 10
0.9795433070866142
 20
3.5991574803149606
 30
0.0
 10
0.9795433070866142
 20
3.5991574803149606
 30
0.0
 10
0.9795433070866142
 20
3.5202716535433072
 30
0.0
 10
0.9795433070866142
 20
3.5202716535433072
 30
0.0
  0
SPLINE
  5
AD
100
AcDbEntity
  8
Layer 1
100
AcDbSpline
210
0.0
220
0.0
230
1.0
 70
     1
 71
     3
 72
    76
 73
    72
 74
     0
 42
0.0000000001
 43
0.0000000001
 40
0.0
 40
0.0
 40
0.0
 40
0.0
 40
0.0555555555555556
 40
0.0555555555555556
 40
0.0555555555555556
 40
0.0555555555555556
 40
0.1111111111111111
 40
0.1111111111111111
 40
0.1111111111111111
 40
0.1111111111111111
 40
0.1666666666666667
 40
0.1666666666666667
 40
0.1666666666666667
 40
0.1666666666666667
 40
0.2222222222222222
 40
0.2222222222222222
 40
0.2222222222222222
 40
0.2222222222222222
 40
0.2777777777777778
 40
0.2777777777777778
 40
0.2777777777777778
 40
0.2777777777777778
 40
0.3333333333333334
 40
0.3333333333333334
 40
0.3333333333333334
 40
0.3333333333333334
 40
0.388888888888889
 40
0.388888888888889
 40
0.388888888888889
 40
0.388888888888889
 40
0.4444444444444445
 40
0.4444444444444445
 40
0.4444444444444445
 40
0.4444444444444445
 40
0.5000000000000001
 40
0.5000000000000001
 40
0.5000000000000001
 40
0.5000000000000001
 40
0.5555555555555557
 40
0.5555555555555557
 40
0.5555555555555557
 40
0.5555555555555557
 40
0.6111111111111113
 40
0.6111111111111113
 40
0.6111111111111113
 40
0.6111111111111113
 40
0.6666666666666669
 40
0.6666666666666669
 40
0.6666666666666669
 40
0.6666666666666669
 40
0.7222222222222224
 40
0.7222222222222224
 40
0.7222222222222224
 40
0.7222222222222224
 40
0.777777777777778
 40
0.777777777777778
 40
0.777777777777778
 40
0.777777777777778
 40
0.8333333333333336
 40
0.8333333333333336
 40
0.8333333333333336
 40
0.8333333333333336
 40
0.8888888888888892
 40
0.8888888888888892
 40
0.8888888888888892
 40
0.8888888888888892
 40
0.9444444444444448
 40
0.9444444444444448
 40
0.9444444444444448
 40
0.9444444444444448
 40
1.0
 40
1.0
 40
1.0
 40
1.0
 10
1.0238503937007875
 20
3.5248543307086617
 30
0.0
 10
1.0282913385826773
 20
3.521937007874016
 30
0.0
 10
1.0371811023622048
 20
3.5187204724409451
 30
0.0
 10
1.0473188976377954
 20
3.5187204724409451
 30
0.0
 10
1.0473188976377954
 20
3.5187204724409451
 30
0.0
 10
1.0689881889763779
 20
3.5187204724409451
 30
0.0
 10
1.0802362204724409
 20
3.5313818897637796
 30
0.0
 10
1.0802362204724409
 20
3.5458267716535437
 30
0.0
 10
1.0802362204724409
 20
3.5458267716535437
 30
0.0
 10
1.0802362204724409
 20
3.5584645669291342
 30
0.0
 10
1.0712086614173228
 20
3.5667992125984251
 30
0.0
 10
1.0600984251968504
 20
3.5690196850393701
 30
0.0
 10
1.0600984251968504
 20
3.5690196850393701
 30
0.0
 10
1.0600984251968504
 20
3.5690196850393701
 30
0.0
 10
1.0600984251968504
 20
3.5692992125984255
 30
0.0
 10
1.0600984251968504
 20
3.5692992125984255
 30
0.0
 10
1.0600984251968504
 20
3.5692992125984255
 30
0.0
 10
1.0712086614173228
 20
3.5733267716535435
 30
0.0
 10
1.0767637795275591
 20
3.5812401574803152
 30
0.0
 10
1.0767637795275591
 20
3.5905472440944881
 30
0.0
 10
1.0767637795275591
 20
3.5905472440944881
 30
0.0
 10
1.0767637795275591
 20
3.6015196850393703
 30
0.0
 10
1.0687086614173229
 20
3.6120748031496066
 30
0.0
 10
1.0509330708661417
 20
3.6120748031496066
 30
0.0
 10
1.0509330708661417
 20
3.6120748031496066
 30
0.0
 10
1.0412086614173228
 20
3.6120748031496066
 30
0.0
 10
1.0320433070866142
 20
3.6086023622047247
 30
0.0
 10
1.0273228346456693
 20
3.6051299212598424
 30
0.0
 10
1.0273228346456693
 20
3.6051299212598424
 30
0.0
 10
1.0273228346456693
 20
3.6051299212598424
 30
0.0
 10
1.0305157480314961
 20
3.5962401574803149
 30
0.0
 10
1.0305157480314961
 20
3.5962401574803149
 30
0.0
 10
1.0305157480314961
 20
3.5962401574803149
 30
0.0
 10
1.0344055118110236
 20
3.5990196850393703
 30
0.0
 10
1.0413503937007875
 20
3.6022125984251971
 30
0.0
 10
1.0485708661417323
 20
3.6022125984251971
 30
0.0
 10
1.0485708661417323
 20
3.6022125984251971
 30
0.0
 10
1.0598188976377954
 20
3.6022125984251971
 30
0.0
 10
1.0644055118110236
 20
3.5958267716535435
 30
0.0
 10
1.0644055118110236
 20
3.5886023622047247
 30
0.0
 10
1.0644055118110236
 20
3.5886023622047247
 30
0.0
 10
1.0644055118110236
 20
3.5779094488188976
 30
0.0
 10
1.0531535433070867
 20
3.5733267716535435
 30
0.0
 10
1.0442637795275591
 20
3.5733267716535435
 30
0.0
 10
1.0442637795275591
 20
3.5733267716535435
 30
0.0
 10
1.0442637795275591
 20
3.5733267716535435
 30
0.0
 10
1.0374606299212599
 20
3.5733267716535435
 30
0.0
 10
1.0374606299212599
 20
3.5733267716535435
 30
0.0
 10
1.0374606299212599
 20
3.5733267716535435
 30
0.0
 10
1.0374606299212599
 20
3.5733267716535435
 30
0.0
 10
1.0374606299212599
 20
3.5641574803149609
 30
0.0
 10
1.0374606299212599
 20
3.5641574803149609
 30
0.0
 10
1.0374606299212599
 20
3.5641574803149609
 30
0.0
 10
1.0374606299212599
 20
3.5641574803149609
 30
0.0
 10
1.0442637795275591
 20
3.5641574803149609
 30
0.0
 10
1.0442637795275591
 20
3.5641574803149609
 30
0.0
 10
1.0442637795275591
 20
3.5641574803149609
 30
0.0
 10
1.0560708661417324
 20
3.5641574803149609
 30
0.0
 10
1.0674606299212599
 20
3.5587440944881892
 30
0.0
 10
1.0675984251968504
 20
3.5461023622047247
 30
0.0
 10
1.0675984251968504
 20
3.5461023622047247
 30
0.0
 10
1.067736220472441
 20
3.5386023622047245
 30
0.0
 10
1.0628740157480316
 20
3.5286023622047247
 30
0.0
 10
1.0471811023622049
 20
3.5286023622047247
 30
0.0
 10
1.0471811023622049
 20
3.5286023622047247
 30
0.0
 10
1.0387086614173229
 20
3.5286023622047247
 30
0.0
 10
1.0306535433070867
 20
3.5320748031496065
 30
0.0
 10
1.0271811023622048
 20
3.5342992125984254
 30
0.0
 10
1.0271811023622048
 20
3.5342992125984254
 30
0.0
 10
1.0271811023622048
 20
3.5342992125984254
 30
0.0
 10
1.0238503937007875
 20
3.5248543307086617
 30
0.0
 10
1.0238503937007875
 20
3.5248543307086617
 30
0.0
  0
ENDSEC
  0
SECTION
  2
OBJECTS
  0
DICTIONARY
  5
19
100
AcDbDictionary
280
     0
281
     1
  3
ACAD_GROUP
350
1A
  3
ACAD_MLINESTYLE
350
1B
  3
ACAD_LAYOUT
350
1E
  3
ACAD_PLOTSETTINGS
350
22
  3
ACAD_PLOTSTYLENAME
350
1F
  3
ACAD_WIPEOUT_VARS
350
23
  0
DICTIONARY
  5
1A
102
{ACAD_REACTORS
330
19
102
}
100
AcDbDictionary
280
     0
281
     1
  0
DICTIONARY
  5
1B
102
{ACAD_REACTORS
330
19
102
}
100
AcDbDictionary
280
     0
281
     1
  3
Standard
350
1C
  0
MLINESTYLE
  5
1C
102
{ACAD_REACTORS
330
1B
102
}
100
AcDbMlineStyle
  2
Standard
 70
     0
  3

 62
     0
 51
90.0
 52
90.0
 71
     2
 49
0.5
 62
   256
  6
BYLAYER
 49
-0.5
 62
   256
  6
BYLAYER
  0
ACDBDICTIONARYWDFLT
  5
1F
102
{ACAD_REACTORS
330
19
102
}
100
AcDbDictionary
281
     1
  3
Normal
350
1D
100
AcDbDictionaryWithDefault
340
1D
  0
ACDBPLACEHOLDER
  5
1D
102
{ACAD_REACTORS
330
1F
102
}
  0
LAYOUT
  5
20
102
{ACAD_REACTORS
330
1E
102
}
100
AcDbPlotSettings
  1

  2

  4

  6

 40
0.0
 41
0.0
 42
0.0
 43
0.0
 44
0.0
 45
0.0
 46
0.0
 47
0.0
 48
0.0
 49
0.0
140
0.0
141
0.0
142
1.0
143
1.0
 70
  1024
 72
     0
 73
     0
 74
     0
  7

 75
     0
147
1.0
148
0.0
149
0.0
100
AcDbLayout
  1
Model
 70
     0
 71
     0
 10
0.0
 20
0.0
 11
0.0
 21
0.0
 12
0.0
 22
0.0
 32
0.0
 14
0.0
 24
0.0
 34
0.0
 15
0.0
 25
0.0
 35
0.0
146
0.0
 13
0.0
 23
0.0
 33
0.0
 16
0.0
 26
0.0
 36
0.0
 17
0.0
 27
0.0
 37
0.0
 76
     0
330
A
331
0
345
0
346
0
  0
LAYOUT
  5
21
102
{ACAD_REACTORS
330
1E
102
}
100
AcDbPlotSettings
  1

  2

  4

  6

 40
0.0
 41
0.0
 42
0.0
 43
0.0
 44
0.0
 45
0.0
 46
0.0
 47
0.0
 48
0.0
 49
0.0
140
0.0
141
0.0
142
1.0
143
1.0
 70
     0
 72
     0
 73
     0
 74
     0
  7

 75
     0
147
1.0
148
0.0
149
0.0
100
AcDbLayout
  1
Layout1
 70
     0
 71
     0
 10
0.0
 20
0.0
 11
0.0
 21
0.0
 12
0.0
 22
0.0
 32
0.0
 14
0.0
 24
0.0
 34
0.0
 15
0.0
 25
0.0
 35
0.0
146
0.0
 13
0.0
 23
0.0
 33
0.0
 16
0.0
 26
0.0
 36
0.0
 17
0.0
 27
0.0
 37
0.0
 76
     0
330
B
331
0
345
0
346
0
  0
DICTIONARY
  5
1E
102
{ACAD_REACTORS
330
19
102
}
100
AcDbDictionary
280
     0
281
     1
  3
Layout1
350
21
  3
Model
350
20
  0
DICTIONARY
  5
22
102
{ACAD_REACTORS
330
19
102
}
100
AcDbDictionary
280
     0
281
     1
  0
WIPEOUTVARIABLES
  5
23
100
AcDbWipeoutVariables
 70
     1
  0
ENDSEC
  0
EOF
