 0 
SECTION
 2 
HEADER
 9 
$ACADVER
 1 
AC1009
 9 
$EXTMIN
 10 
 0 
 20 
 0 
 9 
$EXTMAX
 10 
 8.5 
 20 
 11 
 0 
ENDSEC
 0 
SECTION
 2 
ENTITIES
0
LINE
8
Layer 1
10
44.587428
20
60.851378
11
48.930230
21
65.419063
0
LINE
8
Layer 1
10
48.930230
20
65.419063
11
49.953694
21
66.220610
0
LINE
8
Layer 1
10
49.953694
20
66.220610
11
51.069645
21
66.751504
0
LINE
8
Layer 1
10
51.069645
20
66.751504
11
52.207517
21
67.062227
0
LINE
8
Layer 1
10
52.207517
20
67.062227
11
53.296742
21
67.203258
0
LINE
8
Layer 1
10
53.296742
20
67.203258
11
55.046989
21
67.178161
0
LINE
8
Layer 1
10
55.046989
20
67.178161
11
55.755856
21
67.080054
0
LINE
8
Layer 1
10
55.755856
20
67.080054
11
68.464170
21
65.341184
0
LINE
8
Layer 1
10
68.464170
20
65.341184
11
74.900578
21
71.639162
0
LINE
8
Layer 1
10
74.900578
20
71.639162
11
76.148847
21
72.516078
0
LINE
8
Layer 1
10
76.148847
20
72.516078
11
77.318682
21
72.740955
0
LINE
8
Layer 1
10
77.318682
20
72.740955
11
78.362431
21
72.451665
0
LINE
8
Layer 1
10
78.362431
20
72.451665
11
79.232439
21
71.786079
0
LINE
8
Layer 1
10
79.232439
20
71.786079
11
79.881052
21
70.882067
0
LINE
8
Layer 1
10
79.881052
20
70.882067
11
80.260617
21
69.877502
0
LINE
8
Layer 1
10
80.260617
20
69.877502
11
80.323480
21
68.910255
0
LINE
8
Layer 1
10
80.323480
20
68.910255
11
80.021986
21
68.118197
0
LINE
8
Layer 1
10
80.021986
20
68.118197
11
76.717327
21
64.277141
0
LINE
8
Layer 1
10
76.717327
20
64.277141
11
90.403231
21
61.742337
0
LINE
8
Layer 1
10
90.403231
20
61.742337
11
95.048795
21
67.157933
0
LINE
8
Layer 1
10
95.048795
20
67.157933
11
95.963754
21
68.141683
0
LINE
8
Layer 1
10
95.963754
20
68.141683
11
96.842091
21
68.880794
0
LINE
8
Layer 1
10
96.842091
20
68.880794
11
97.676974
21
69.395011
0
LINE
8
Layer 1
10
97.676974
20
69.395011
11
98.461572
21
69.704074
0
LINE
8
Layer 1
10
98.461572
20
69.704074
11
99.189053
21
69.827727
0
LINE
8
Layer 1
10
99.189053
20
69.827727
11
99.852587
21
69.785712
0
LINE
8
Layer 1
10
99.852587
20
69.785712
11
100.445342
21
69.597773
0
LINE
8
Layer 1
10
100.445342
20
69.597773
11
100.960486
21
69.283651
0
LINE
8
Layer 1
10
100.960486
20
69.283651
11
101.730616
21
68.355831
0
LINE
8
Layer 1
10
101.730616
20
68.355831
11
102.108325
21
67.160194
0
LINE
8
Layer 1
10
102.108325
20
67.160194
11
102.038963
21
65.854679
0
LINE
8
Layer 1
10
102.038963
20
65.854679
11
101.467878
21
64.597229
0
LINE
8
Layer 1
10
101.467878
20
64.597229
11
98.465981
21
60.799399
0
LINE
8
Layer 1
10
98.465981
20
60.799399
11
119.029491
21
58.117590
0
LINE
8
Layer 1
10
119.029491
20
58.117590
11
130.452056
21
68.991812
0
LINE
8
Layer 1
10
130.452056
20
68.991812
11
134.923343
21
72.990784
0
LINE
8
Layer 1
10
134.923343
20
72.990784
11
138.691351
21
76.010778
0
LINE
8
Layer 1
10
138.691351
20
76.010778
11
141.848619
21
78.036630
0
LINE
8
Layer 1
10
141.848619
20
78.036630
11
143.227143
21
78.672014
0
LINE
8
Layer 1
10
143.227143
20
78.672014
11
144.487684
21
79.053176
0
LINE
8
Layer 1
10
144.487684
20
79.053176
11
145.641809
21
79.178221
0
LINE
8
Layer 1
10
145.641809
20
79.178221
11
146.701086
21
79.045253
0
LINE
8
Layer 1
10
146.701086
20
79.045253
11
147.677080
21
78.652377
0
LINE
8
Layer 1
10
147.677080
20
78.652377
11
148.581361
21
77.997696
0
LINE
8
Layer 1
10
148.581361
20
77.997696
11
149.308592
21
77.156320
0
LINE
8
Layer 1
10
149.308592
20
77.156320
11
149.739499
21
76.210863
0
LINE
8
Layer 1
10
149.739499
20
76.210863
11
149.881610
21
75.155484
0
LINE
8
Layer 1
10
149.881610
20
75.155484
11
149.742456
21
73.984340
0
LINE
8
Layer 1
10
149.742456
20
73.984340
11
149.329564
21
72.691590
0
LINE
8
Layer 1
10
149.329564
20
72.691590
11
148.650463
21
71.271392
0
LINE
8
Layer 1
10
148.650463
20
71.271392
11
146.523752
21
68.025281
0
LINE
8
Layer 1
10
146.523752
20
68.025281
11
143.422553
21
64.199271
0
LINE
8
Layer 1
10
143.422553
20
64.199271
11
139.407097
21
59.746627
0
LINE
8
Layer 1
10
139.407097
20
59.746627
11
128.874337
21
48.774488
0
LINE
8
Layer 1
10
128.874337
20
48.774488
11
131.798354
21
27.588131
0
LINE
8
Layer 1
10
131.798354
20
27.588131
11
136.106504
21
31.178226
0
LINE
8
Layer 1
10
136.106504
20
31.178226
11
137.130886
21
31.723042
0
LINE
8
Layer 1
10
137.130886
20
31.723042
11
138.209517
21
31.803140
0
LINE
8
Layer 1
10
138.209517
20
31.803140
11
139.211726
21
31.471245
0
LINE
8
Layer 1
10
139.211726
20
31.471245
11
140.006839
21
30.780080
0
LINE
8
Layer 1
10
140.006839
20
30.780080
11
140.464183
21
29.782368
0
LINE
8
Layer 1
10
140.464183
20
29.782368
11
140.453086
21
28.530834
0
LINE
8
Layer 1
10
140.453086
20
28.530834
11
139.842874
21
27.078201
0
LINE
8
Layer 1
10
139.842874
20
27.078201
11
138.502875
21
25.477193
0
LINE
8
Layer 1
10
138.502875
20
25.477193
11
132.576962
21
19.888694
0
LINE
8
Layer 1
10
132.576962
20
19.888694
11
135.077113
21
6.021135
0
LINE
8
Layer 1
10
135.077113
20
6.021135
11
138.779738
21
8.867275
0
LINE
8
Layer 1
10
138.779738
20
8.867275
11
140.021021
21
9.569539
0
LINE
8
Layer 1
10
140.021021
20
9.569539
11
141.221466
21
9.760761
0
LINE
8
Layer 1
10
141.221466
20
9.760761
11
142.274530
21
9.496805
0
LINE
8
Layer 1
10
142.274530
20
9.496805
11
143.073663
21
8.833539
0
LINE
8
Layer 1
10
143.073663
20
8.833539
11
143.512321
21
7.826827
0
LINE
8
Layer 1
10
143.512321
20
7.826827
11
143.483957
21
6.532536
0
LINE
8
Layer 1
10
143.483957
20
6.532536
11
142.882024
21
5.006530
0
LINE
8
Layer 1
10
142.882024
20
5.006530
11
141.599976
21
3.304675
0
LINE
8
Layer 1
10
141.599976
20
3.304675
11
135.717288
21
-2.621240
0
LINE
8
Layer 1
10
135.717288
20
-2.621240
11
135.915189
21
-4.598399
0
LINE
8
Layer 1
10
135.915189
20
-4.598399
11
136.586724
21
-8.771032
0
LINE
8
Layer 1
10
136.586724
20
-8.771032
11
137.637816
21
-14.784581
0
LINE
8
Layer 1
10
137.637816
20
-14.784581
11
137.935165
21
-16.815530
0
LINE
8
Layer 1
10
137.935165
20
-16.815530
11
137.890274
21
-18.515548
0
LINE
8
Layer 1
10
137.890274
20
-18.515548
11
137.596408
21
-19.903172
0
LINE
8
Layer 1
10
137.596408
20
-19.903172
11
137.146832
21
-20.996936
0
LINE
8
Layer 1
10
137.146832
20
-20.996936
11
136.634812
21
-21.815376
0
LINE
8
Layer 1
10
136.634812
20
-21.815376
11
136.153613
21
-22.377027
0
LINE
8
Layer 1
10
136.153613
20
-22.377027
11
135.656735
21
-22.804106
0
LINE
8
Layer 1
10
135.656735
20
-22.804106
11
131.616698
21
-26.325074
0
LINE
8
Layer 1
10
131.616698
20
-26.325074
11
116.269804
21
17.025228
0
LINE
8
Layer 1
10
116.269804
20
17.025228
11
115.701079
21
18.461455
0
LINE
8
Layer 1
10
115.701079
20
18.461455
11
114.946956
21
19.870269
0
LINE
8
Layer 1
10
114.946956
20
19.870269
11
114.004960
21
21.193520
0
LINE
8
Layer 1
10
114.004960
20
21.193520
11
112.872618
21
22.373056
0
LINE
8
Layer 1
10
112.872618
20
22.373056
11
111.547455
21
23.350725
0
LINE
8
Layer 1
10
111.547455
20
23.350725
11
110.026997
21
24.068378
0
LINE
8
Layer 1
10
110.026997
20
24.068378
11
108.308771
21
24.467863
0
LINE
8
Layer 1
10
108.308771
20
24.467863
11
106.390302
21
24.491030
0
LINE
8
Layer 1
10
106.390302
20
24.491030
11
105.140105
21
24.180308
0
LINE
8
Layer 1
10
105.140105
20
24.180308
11
103.606516
21
23.539691
0
LINE
8
Layer 1
10
103.606516
20
23.539691
11
100.184335
21
21.655653
0
LINE
8
Layer 1
10
100.184335
20
21.655653
11
97.114114
21
19.612664
0
LINE
8
Layer 1
10
97.114114
20
19.612664
11
95.386209
21
18.184475
0
LINE
8
Layer 1
10
95.386209
20
18.184475
11
78.741634
21
2.180079
0
LINE
8
Layer 1
10
78.741634
20
2.180079
11
78.729968
21
1.199158
0
LINE
8
Layer 1
10
78.729968
20
1.199158
11
78.962925
21
-1.198542
0
LINE
8
Layer 1
10
78.962925
20
-1.198542
11
79.863036
21
-8.336315
0
LINE
8
Layer 1
10
79.863036
20
-8.336315
11
81.302338
21
-18.625637
0
LINE
8
Layer 1
10
81.302338
20
-18.625637
11
80.477781
21
-20.057085
0
LINE
8
Layer 1
10
80.477781
20
-20.057085
11
78.663756
21
-22.615886
0
LINE
8
Layer 1
10
78.663756
20
-22.615886
11
76.025175
21
-26.151992
0
LINE
8
Layer 1
10
76.025175
20
-26.151992
11
65.479600
21
-7.379335
0
LINE
8
Layer 1
10
65.479600
20
-7.379335
11
60.271739
21
-9.801606
0
LINE
8
Layer 1
10
60.271739
20
-9.801606
11
63.316860
21
-5.060840
0
LINE
8
Layer 1
10
63.316860
20
-5.060840
11
44.327891
21
5.657822
0
LINE
8
Layer 1
10
44.327891
20
5.657822
11
51.447706
21
10.865680
0
LINE
8
Layer 1
10
51.447706
20
10.865680
11
56.191594
21
10.101179
0
LINE
8
Layer 1
10
56.191594
20
10.101179
11
63.349236
21
9.200401
0
LINE
8
Layer 1
10
63.349236
20
9.200401
11
69.939199
21
8.481281
0
LINE
8
Layer 1
10
69.939199
20
8.481281
11
72.980050
21
8.261751
0
LINE
8
Layer 1
10
72.980050
20
8.261751
11
88.283720
21
23.487541
0
LINE
8
Layer 1
10
88.283720
20
23.487541
11
91.312106
21
26.725312
0
LINE
8
Layer 1
10
91.312106
20
26.725312
11
93.365006
21
29.134406
0
LINE
8
Layer 1
10
93.365006
20
29.134406
11
94.657216
21
31.066650
0
LINE
8
Layer 1
10
94.657216
20
31.066650
11
95.403535
21
32.873871
0
LINE
8
Layer 1
10
95.403535
20
32.873871
11
95.575680
21
33.859473
0
LINE
8
Layer 1
10
95.575680
20
33.859473
11
95.513080
21
34.951298
0
LINE
8
Layer 1
10
95.513080
20
34.951298
11
95.165309
21
36.147149
0
LINE
8
Layer 1
10
95.165309
20
36.147149
11
94.481943
21
37.444827
0
LINE
8
Layer 1
10
94.481943
20
37.444827
11
93.412555
21
38.842134
0
LINE
8
Layer 1
10
93.412555
20
38.842134
11
91.906721
21
40.336873
0
LINE
8
Layer 1
10
91.906721
20
40.336873
11
89.914014
21
41.926845
0
LINE
8
Layer 1
10
89.914014
20
41.926845
11
87.384009
21
43.609853
0
LINE
8
Layer 1
10
87.384009
20
43.609853
11
82.572233
21
46.176141
0
LINE
8
Layer 1
10
82.572233
20
46.176141
11
76.328758
21
48.986123
0
LINE
8
Layer 1
10
76.328758
20
48.986123
11
69.292607
21
51.859223
0
LINE
8
Layer 1
10
69.292607
20
51.859223
11
62.102799
21
54.614866
0
LINE
8
Layer 1
10
62.102799
20
54.614866
11
49.818299
21
59.051484
0
LINE
8
Layer 1
10
49.818299
20
59.051484
11
44.587428
21
60.851378
0
LINE
8
Layer 1
10
44.587428
20
60.851378
11
44.587428
21
60.851378
 0 
ENDSEC
 0 
EOF