  0
SECTION
  2
HEADER
  9
$ACADVER
  1
AC1014
  9
$ACADMAINTVER
 70
     0
  9
$DWGCODEPAGE
  3
ANSI_1252
  9
$INSBASE
 10
0.0
 20
0.0
 30
0.0
  9
$EXTMIN
 10
0.0
 20
0.0
 30
0.0
  9
$EXTMAX
 10
959.475098
 20
772.362122
 30
2.0
  9
$LIMMIN
 10
0.0
 20
0.0
  9
$LIMMAX
 10
420.0
 20
297.0
  9
$ORTHOMODE
 70
     0
  9
$REGENMODE
 70
     1
  9
$FILLMODE
 70
     1
  9
$QTEXTMODE
 70
     0
  9
$MIRRTEXT
 70
     1
  9
$DRAGMODE
 70
     2
  9
$LTSCALE
 40
1.0
  9
$OSMODE
 70
     0
  9
$ATTMODE
 70
     1
  9
$TEXTSIZE
 40
2.5
  9
$TRACEWID
 40
1.0
  9
$TEXTSTYLE
  7
STANDARD
  9
$CLAYER
  8
0
  9
$CELTYPE
  6
BYLAYER
  9
$CECOLOR
 62
   256
  9
$CELTSCALE
 40
1.0
  9
$DELOBJ
 70
     1
  9
$DISPSILH
 70
     0
  9
$DIMSCALE
 40
1.0
  9
$DIMASZ
 40
2.5
  9
$DIMEXO
 40
0.625
  9
$DIMDLI
 40
3.75
  9
$DIMRND
 40
0.0
  9
$DIMDLE
 40
0.0
  9
$DIMEXE
 40
1.25
  9
$DIMTP
 40
0.0
  9
$DIMTM
 40
0.0
  9
$DIMTXT
 40
2.5
  9
$DIMCEN
 40
2.5
  9
$DIMTSZ
 40
0.0
  9
$DIMTOL
 70
     0
  9
$DIMLIM
 70
     0
  9
$DIMTIH
 70
     0
  9
$DIMTOH
 70
     0
  9
$DIMSE1
 70
     0
  9
$DIMSE2
 70
     0
  9
$DIMTAD
 70
     1
  9
$DIMZIN
 70
     8
  9
$DIMBLK
  1

  9
$DIMASO
 70
     1
  9
$DIMSHO
 70
     1
  9
$DIMPOST
  1

  9
$DIMAPOST
  1

  9
$DIMALT
 70
     0
  9
$DIMALTD
 70
     3
  9
$DIMALTF
 40
0.03937
  9
$DIMLFAC
 40
1.0
  9
$DIMTOFL
 70
     1
  9
$DIMTVP
 40
0.0
  9
$DIMTIX
 70
     0
  9
$DIMSOXD
 70
     0
  9
$DIMSAH
 70
     0
  9
$DIMBLK1
  1

  9
$DIMBLK2
  1

  9
$DIMSTYLE
  2

  9
$DIMCLRD
 70
     0
  9
$DIMCLRE
 70
     0
  9
$DIMCLRT
 70
     0
  9
$DIMTFAC
 40
1.0
  9
$DIMGAP
 40
0.625
  9
$DIMJUST
 70
     0
  9
$DIMSD1
 70
     0
  9
$DIMSD2
 70
     0
  9
$DIMTOLJ
 70
     0
  9
$DIMTZIN
 70
     8
  9
$DIMALTZ
 70
     0
  9
$DIMALTTZ
 70
     0
  9
$DIMFIT
 70
     0
  9
$DIMUPT
 70
     0
  9
$DIMUNIT
 70
     2
  9
$DIMDEC
 70
     2
  9
$DIMTDEC
 70
     2
  9
$DIMALTU
 70
     2
  9
$DIMALTTD
 70
     3
  9
$DIMTXSTY
  7
STANDARD
  9
$DIMAUNIT
 70
     0
  9
$LUNITS
 70
     2
  9
$LUPREC
 70
     4
  9
$SKETCHINC
 40
1.0
  9
$FILLETRAD
 40
2.5
  9
$AUNITS
 70
     0
  9
$AUPREC
 70
     0
  9
$MENU
  1
.
  9
$ELEVATION
 40
0.0
  9
$PELEVATION
 40
0.0
  9
$THICKNESS
 40
0.0
  9
$LIMCHECK
 70
     0
  9
$BLIPMODE
 70
     1
  9
$CHAMFERA
 40
2.5
  9
$CHAMFERB
 40
2.5
  9
$CHAMFERC
 40
0.0
  9
$CHAMFERD
 40
0.0
  9
$SKPOLY
 70
     0
  9
$TDCREATE
 40
0.000000000
  9
$TDUPDATE
 40
0.000000000
  9
$TDINDWG
 40
0.0000000000
  9
$TDUSRTIMER
 40
0.0000000000
  9
$USRTIMER
 70
     1
  9
$ANGBASE
 50
0.0
  9
$ANGDIR
 70
     0
  9
$PDMODE
 70
     0
  9
$PDSIZE
 40
0.0
  9
$PLINEWID
 40
0.0
  9
$COORDS
 70
     0
  9
$SPLFRAME
 70
     0
  9
$SPLINETYPE
 70
     6
  9
$SPLINESEGS
 70
     8
  9
$ATTDIA
 70
     0
  9
$ATTREQ
 70
     1
  9
$HANDLING
 70
     1
  9
$HANDSEED
  5
5D
  9
$SURFTAB1
 70
     6
  9
$SURFTAB2
 70
     6
  9
$SURFTYPE
 70
     6
  9
$SURFU
 70
     6
  9
$SURFV
 70
     6
  9
$UCSNAME
  2

  9
$UCSORG
 10
0.0
 20
0.0
 30
0.0
  9
$UCSXDIR
 10
1.0
 20
0.0
 30
0.0
  9
$UCSYDIR
 10
0.0
 20
1.0
 30
0.0
  9
$PUCSNAME
  2

  9
$PUCSORG
 10
0.0
 20
0.0
 30
0.0
  9
$PUCSXDIR
 10
1.0
 20
0.0
 30
0.0
  9
$PUCSYDIR
 10
0.0
 20
1.0
 30
0.0
  9
$USERI1
 70
     0
  9
$USERI2
 70
     0
  9
$USERI3
 70
     0
  9
$USERI4
 70
     0
  9
$USERI5
 70
     0
  9
$USERR1
 40
0.0
  9
$USERR2
 40
0.0
  9
$USERR3
 40
0.0
  9
$USERR4
 40
0.0
  9
$USERR5
 40
0.0
  9
$WORLDVIEW
 70
     1
  9
$SHADEDGE
 70
     3
  9
$SHADEDIF
 70
    70
  9
$TILEMODE
 70
     1
  9
$MAXACTVP
 70
    48
  9
$PINSBASE
 10
0.0
 20
0.0
 30
0.0
  9
$PLIMCHECK
 70
     0
  9
$PEXTMIN
 10
0.0
 20
0.0
 30
0.0
  9
$PEXTMAX
 10
959.475098
 20
772.362122
 30
2.0
  9
$PLIMMIN
 10
0.0
 20
0.0
  9
$PLIMMAX
 10
420.0
 20
297.0
  9
$UNITMODE
 70
     0
  9
$VISRETAIN
 70
     0
  9
$PLINEGEN
 70
     0
  9
$PSLTSCALE
 70
     1
  9
$TREEDEPTH
 70
  3020
  9
$PICKSTYLE
 70
     1
  9
$CMLSTYLE
  2
STANDARD
  9
$CMLJUST
 70
     0
  9
$CMLSCALE
 40
20.0
  9
$PROXYGRAPHICS
 70
     1
  9
$MEASUREMENT
 70
     1
  0
ENDSEC
  0
SECTION
  2
CLASSES
  0
CLASS
  1
LWPOLYLINE
  2
AcDbPolyline
  3
\"AutoCAD\"
 90
        0
280
     0
281
     1
  0
CLASS
  1
IMAGE
  2
AcDbRasterImage
  3
ISM
 90
      127
280
     0
281
     1
  0
CLASS
  1
OLE2FRAME
  2
AcDbOle2Frame
  3
\"\"
 90
        0
280
     0
281
     1
  0
CLASS
  1
HATCH
  2
AcDbHatch
  3
\"ACAD_SEDONA\"
 90
        0
280
     0
281
     1
  0
CLASS
  1
DICTIONARYVAR
  2
AcDbDictionaryVar
  3
\"AutoCAD\"
 90
        0
280
     0
281
     0
  0
CLASS
  1
RASTERVARIABLES
  2
AcDbRasterVariables
  3
ISM
 90
        0
280
     0
281
     0
  0
CLASS
  1
IMAGEDEF
  2
AcDbRasterImageDef
  3
ISM
 90
        0
280
     0
281
     0
  0
CLASS
  1
IMAGEDEF_REACTOR
  2
AcDbRasterImageDefReactor
  3
ISM
 90
        1
280
     0
281
     0
  0
CLASS
  1
IDBUFFER
  2
AcDbIdBuffer
  3
\"Acad\"
 90
        0
280
     0
281
     0
  0
CLASS
  1
SPATIAL_FILTER
  2
AcDbSpatialFilter
  3
\"Acad\"
 90
        0
280
     0
281
     0
  0
CLASS
  1
XRECORD
  2
AcDbXrecord
  3
\"<Built In>\"
 90
        0
280
     0
281
     0
  0
CLASS
  1
SORTENTSTABLE
  2
AcDbSortentsTable
  3
\"AutoCAD\"
 90
        0
280
     0
281
     0
  0
CLASS
  1
LAYER_INDEX
  2
AcDbLayerIndex
  3
\"Acad\"
 90
        0
280
     0
281
     0
  0
CLASS
  1
SPATIAL_INDEX
  2
AcDbSpatialIndex
  3
\"Acad\"
 90
        0
280
     0
281
     0
  0
CLASS
  1
OBJECT_PTR
  2
CAseDLPNTableRecord
  3
\"ASE-LPNTableRecord\"
 90
        1
280
     0
281
     0
  0
CLASS
  1
LAYOUT
  2
AcDbLayout
  3
\"AutoCAD 2000\"
 90
        0
280
     0
281
     0
  0
CLASS
  1
PLOTSETTINGS
  2
AcDbPlotSettings
  3
\"AutoCAD 2000\"
 90
        0
280
     0
281
     0
  0
CLASS
  1
ACDBDICTIONARYWDFLT
  2
AcDbDictionaryWithDefault
  3
\"AutoCAD 2000\"
 90
        0
280
     0
281
     0
  0
CLASS
  1
ACDBPLACEHOLDER
  2
AcDbPlaceHolder
  3
\"AutoCAD 2000\"
 90
        0
280
     0
281
     0
  0
CLASS
  1
VBA_PROJECT
  2
AcDbVbaProject
  3
\"acadvba\"
 90
        0
280
     0
281
     0
  0
CLASS
  1
WIPEOUT
  2
AcDbWipeout
  3
WipeOut|AutoCAD Express Tool|expresstools@autodesk.com
 90
      127
280
     0
281
     1
  0
CLASS
  1
WIPEOUTVARIABLES
  2
AcDbWipeoutVariables
  3
WipeOut|AutoCAD Express Tool|expresstools@autodesk.com
 90
        0
280
     0
281
     0
  0
CLASS
  1
RTEXT
  2
RText
  3
RText|AutoCAD Express Tool|expresstools@autodesk.com
 90
        0
280
     0
281
     1
  0
CLASS
  1
ARCALIGNEDTEXT
  2
AcDbArcAlignedText
  3
ATEXT|AutoCAD Express Tool|expresstools@autodesk.com
 90
        0
280
     0
281
     1
  0
ENDSEC
  0
SECTION
  2
TABLES
  0
TABLE
  2
VPORT
  5
7
100
AcDbSymbolTable
 70
     1
  0
VPORT
  5
15
100
AcDbSymbolTableRecord
100
AcDbViewportTableRecord
  2
*ACTIVE
 70
     0
 10
0.0
 20
0.0
 11
1.0
 21
1.0
 12
6.591288
 22
4.579184
 13
0.0
 23
0.0
 14
1.0
 24
1.0
 15
0.0
 25
0.0
 16
0.0
 26
0.0
 36
1.0
 17
0.0
 27
0.0
 37
0.0
 40
9.158369
 41
0.688564
 42
50.0
 43
0.0
 44
0.0
 50
0.0
 51
0.0
 71
     0
 72
   100
 73
     1
 74
     1
 75
     0
 76
     0
 77
     0
 78
     0
  0
ENDTAB
  0
TABLE
  2
LTYPE
  5
4
100
AcDbSymbolTable
 70
    10
  0
LTYPE
  5
11
100
AcDbSymbolTableRecord
100
AcDbLinetypeTableRecord
  2
BYBLOCK
 70
    64
  3

 72
    65
 73
     0
 40
0.0
  0
LTYPE
  5
12
100
AcDbSymbolTableRecord
100
AcDbLinetypeTableRecord
  2
BYLAYER
 70
    64
  3

 72
    65
 73
     0
 40
0.0
  0
LTYPE
  5
13
100
AcDbSymbolTableRecord
100
AcDbLinetypeTableRecord
  2
CONTINUOUS
 70
    64
  3
Solid line
 72
    65
 73
     0
 40
0.0
  0
LTYPE
  5
1D
100
AcDbSymbolTableRecord
100
AcDbLinetypeTableRecord
  2
DASHED
 70
     0
  3
__ __ __ __ __ __ __ __ __ __ __ __ __ __ __ __
 72
    65
 73
     2
 40
15.0
 49
12.0
 74
     0
 49
-3.0
 74
     0
  0
LTYPE
  5
1E
100
AcDbSymbolTableRecord
100
AcDbLinetypeTableRecord
  2
DASHDOT
 70
     0
  3
 __ . __ . __ . __ . __ . __ . __ . 
 72
    65
 73
     4
 40
18.5
 49
12.0
 74
     0
 49
-3.0
 74
     0
 49
0.5
 74
     0
 49
-3.0
 74
     0
  0
LTYPE
  5
1F
100
AcDbSymbolTableRecord
100
AcDbLinetypeTableRecord
  2
DOT
 70
     0
  3
 . . . . . . . . . . . . . . . .
 72
    65
 73
     2
 40
3.5
 49
0.5
 74
     0
 49
-3.0
 74
     0
  0
LTYPE
  5
20
100
AcDbSymbolTableRecord
100
AcDbLinetypeTableRecord
  2
DASHSPACE
 70
     0
  3
__    __    __    __    __   
 72
    65
 73
     2
 40
30.0
 49
12.0
 74
     0
 49
-18.0
 74
     0
  0
LTYPE
  5
21
100
AcDbSymbolTableRecord
100
AcDbLinetypeTableRecord
  2
DASHDOT2
 70
     0
  3
__ . . __ . . __ . . __ 
 72
    65
 73
     6
 40
22.0
 49
12.0
 74
     0
 49
-3.0
 74
     0
 49
0.5
 74
     0
 49
-3.0
 74
     0
 49
0.5
 74
     0
 49
-3.0
 74
     0
  0
LTYPE
  5
22
100
AcDbSymbolTableRecord
100
AcDbLinetypeTableRecord
  2
PHANTOM
 70
     0
  3
____________    ____    ____   _
 72
    65
 73
     6
 40
20.0
 49
10.0
 74
     0
 49
-2.0
 74
     0
 49
2.0
 74
     0
 49
-2.0
 74
     0
 49
2.0
 74
     0
 49
-2.0
 74
     0
  0
LTYPE
  5
23
100
AcDbSymbolTableRecord
100
AcDbLinetypeTableRecord
  2
AXES
 70
     0
  3
________  __  ________  __  _____
 72
    65
 73
     4
 40
24.0
 49
15.0
 74
     0
 49
-3.0
 74
     0
 49
3.0
 74
     0
 49
-3.0
 74
     0
  0
ENDTAB
  0
TABLE
  2
LAYER
  5
2
100
AcDbSymbolTable
 70
     1
  0
LAYER
  5
14
100
AcDbSymbolTableRecord
100
AcDbLayerTableRecord
  2
0
 70
     0
 62
     7
  6
CONTINUOUS
  0
ENDTAB
  0
TABLE
  2
STYLE
  5
3
100
AcDbSymbolTable
 70
     1
  0
STYLE
  5
17
100
AcDbSymbolTableRecord
100
AcDbTextStyleTableRecord
  2
STANDARD
 70
     0
 40
0.0
 41
1.0
 50
0.0
 71
     0
 42
0.0
  3
txt
  4

  0
ENDTAB
  0
TABLE
  2
VIEW
  5
5
100
AcDbSymbolTable
 70
     0
  0
ENDTAB
  0
TABLE
  2
UCS
  5
6
100
AcDbSymbolTable
 70
     0
  0
ENDTAB
  0
TABLE
  2
APPID
  5
8
100
AcDbSymbolTable
 70
     1
  0
APPID
  5
16
100
AcDbSymbolTableRecord
100
AcDbRegAppTableRecord
  2
ACAD
 70
     0
  0
ENDTAB
  0
TABLE
  2
DIMSTYLE
  5
9
100
AcDbSymbolTable
 70
     1
  0
DIMSTYLE
105
18
100
AcDbSymbolTableRecord
100
AcDbDimStyleTableRecord
  2
STANDARD
 70
     0
  3

  4

  5

  6

  7

 40
1.0
 41
0.18
 42
0.0625
 43
0.38
 44
0.18
 45
0.0
 46
0.0
 47
0.0
 48
0.0
 71
     0
 72
     0
 73
     1
 74
     1
 75
     0
 76
     0
 77
     0
 78
     0
140
0.18
141
0.09
142
0.0
143
25.4
144
1.0
145
0.0
146
1.0
147
0.09
170
     0
171
     2
172
     0
173
     0
174
     0
175
     0
176
     0
177
     0
178
     0
270
     2
271
     4
272
     4
273
     2
274
     2
275
     0
280
     0
281
     0
282
     0
283
     1
284
     0
285
     0
286
     0
287
     3
288
     0
340
17
  0
ENDTAB
  0
TABLE
  2
BLOCK_RECORD
  5
1
100
AcDbSymbolTable
 70
     0
  0
BLOCK_RECORD
  5
A
100
AcDbSymbolTableRecord
100
AcDbBlockTableRecord
  2
*MODEL_SPACE
  0
BLOCK_RECORD
  5
B
100
AcDbSymbolTableRecord
100
AcDbBlockTableRecord
  2
*PAPER_SPACE
  0
ENDTAB
  0
ENDSEC
  0
SECTION
  2
BLOCKS
  0
BLOCK
  5
D
100
AcDbEntity
  8
0
100
AcDbBlockBegin
  2
*MODEL_SPACE
 70
     0
 10
0.0
 20
0.0
 30
0.0
  3
*MODEL_SPACE
  1

  0
ENDBLK
  5
E
100
AcDbEntity
  8
0
100
AcDbBlockEnd
  0
BLOCK
  5
F
100
AcDbEntity
 67
     1
  8
0
100
AcDbBlockBegin
  2
*PAPER_SPACE
 70
     0
 10
0.0
 20
0.0
 30
0.0
  3
*PAPER_SPACE
  1

  0
ENDBLK
  5
10
100
AcDbEntity
 67
     1
  8
0
100
AcDbBlockEnd
  0
ENDSEC
  0
SECTION
  2
ENTITIES
  0
VIEWPORT
  5
5C
100
AcDbEntity
 67
     1
  8
0
 62
     0
 48
0.0
100
AcDbViewport
 10
0.0
 20
0.0
 30
0.0
 40
1000.0
 41
1000.0
 68
     1
 69
     1
1001
ACAD
1000
MVIEW
1002
{
1070
    16
1010
0.0
1020
0.0
1030
0.0
1010
0.0
1020
0.0
1030
1.0
1040
0.0
1040
1000.0
1040
0.0
1040
0.0
1040
50.0
1040
0.0
1040
0.0
1070
     0
1070
   100
1070
     1
1070
     1
1070
     0
1070
     0
1070
     0
1070
     0
1040
0.0
1040
0.0
1040
0.0
1040
1.0
1040
1.0
1040
1.0
1040
1.0
1070
     0
1002
{
1002
}
1002
}
  0
ARC
  5
24
100
AcDbEntity
  8
0
 62
     2
100
AcDbCircle
 10
368.385681
 20
280.658722
 30
0.0
 40
117.231239
210
0.0
220
0.0
230
1.0
100
AcDbArc
 50
354.149543
 51
10.213745
  0
ARC
  5
25
100
AcDbEntity
  8
0
 62
     2
100
AcDbCircle
 10
586.198059
 20
334.199158
 30
0.0
 40
107.547585
210
0.0
220
0.0
230
1.0
100
AcDbArc
 50
182.70853
 51
197.730684
  0
ARC
  5
26
100
AcDbEntity
  8
0
 62
     2
100
AcDbCircle
 10
367.953094
 20
337.553894
 30
0.0
 40
111.138245
210
0.0
220
0.0
230
1.0
100
AcDbArc
 50
355.646256
 51
12.576827
  0
ARC
  5
27
100
AcDbEntity
  8
0
 62
     2
100
AcDbCircle
 10
353.568848
 20
375.944153
 30
0.0
 40
123.672478
210
0.0
220
0.0
230
1.0
100
AcDbArc
 50
353.411445
 51
6.588567
  0
ARC
  5
28
100
AcDbEntity
  8
0
 62
     2
100
AcDbCircle
 10
385.967377
 20
430.105957
 30
0.0
 40
98.895126
210
0.0
220
0.0
230
1.0
100
AcDbArc
 50
336.160027
 51
349.205524
  0
ARC
  5
29
100
AcDbEntity
  8
0
 62
     2
100
AcDbCircle
 10
787.541016
 20
567.685608
 30
0.0
 40
342.117401
210
0.0
220
0.0
230
1.0
100
AcDbArc
 50
207.147316
 51
212.042825
  0
ARC
  5
2A
100
AcDbEntity
  8
0
 62
     2
100
AcDbCircle
 10
808.845276
 20
374.661377
 30
0.0
 40
311.513489
210
0.0
220
0.0
230
1.0
100
AcDbArc
 50
177.882004
 51
187.004337
  0
ARC
  5
2B
100
AcDbEntity
  8
0
 62
     2
100
AcDbCircle
 10
603.088745
 20
336.025269
 30
0.0
 40
103.434158
210
0.0
220
0.0
230
1.0
100
AcDbArc
 50
179.640628
 51
198.997929
  0
ARC
  5
2C
100
AcDbEntity
  8
0
 62
     2
100
AcDbCircle
 10
408.049103
 20
262.493195
 30
0.0
 40
105.092369
210
0.0
220
0.0
230
1.0
100
AcDbArc
 50
5.367464
 51
22.28986
  0
ARC
  5
2D
100
AcDbEntity
  8
0
 62
     2
100
AcDbCircle
 10
530.539429
 20
265.063843
 30
0.0
 40
19.278069
210
0.0
220
0.0
230
1.0
100
AcDbArc
 50
157.877064
 51
202.122933
  0
ARC
  5
2E
100
AcDbEntity
  8
0
 62
     2
100
AcDbCircle
 10
522.008667
 20
296.733398
 30
0.0
 40
40.031567
210
0.0
220
0.0
230
1.0
100
AcDbArc
 50
256.52524
 51
283.474762
  0
ARC
  5
2F
100
AcDbEntity
  8
0
 62
     2
100
AcDbCircle
 10
549.324768
 20
283.911346
 30
0.0
 40
31.704466
210
0.0
220
0.0
230
1.0
100
AcDbArc
 50
235.433261
 51
293.48801
  0
ARC
  5
30
100
AcDbEntity
  8
0
 62
     2
100
AcDbCircle
 10
589.160522
 20
324.559753
 30
0.0
 40
74.843391
210
0.0
220
0.0
230
1.0
100
AcDbArc
 50
229.434659
 51
248.68951
  0
ARC
  5
31
100
AcDbEntity
  8
0
 62
     2
100
AcDbCircle
 10
294.08316
 20
260.568542
 30
0.0
 40
246.508911
210
0.0
220
0.0
230
1.0
100
AcDbArc
 50
1.658683
 51
13.124787
  0
ARC
  5
32
100
AcDbEntity
  8
0
 62
     2
100
AcDbCircle
 10
400.018921
 20
312.005188
 30
0.0
 40
134.210571
210
0.0
220
0.0
230
1.0
100
AcDbArc
 50
1.938018
 51
20.098239
  0
ARC
  5
33
100
AcDbEntity
  8
0
 62
     2
100
AcDbCircle
 10
384.699921
 20
368.623566
 30
0.0
 40
141.746185
210
0.0
220
0.0
230
1.0
100
AcDbArc
 50
355.752069
 51
13.4878
  0
ARC
  5
34
100
AcDbEntity
  8
0
 62
     2
100
AcDbCircle
 10
1085.738525
 20
415.54422
 30
0.0
 40
563.372437
210
0.0
220
0.0
230
1.0
100
AcDbArc
 50
178.590268
 51
181.409729
  0
ARC
  5
35
100
AcDbEntity
  8
0
 62
     2
100
AcDbCircle
 10
524.945679
 20
520.936035
 30
0.0
 40
91.563492
210
0.0
220
0.0
230
1.0
100
AcDbArc
 50
268.492414
 51
271.507587
  0
ARC
  5
36
100
AcDbEntity
  8
0
 62
     2
100
AcDbCircle
 10
183.100266
 20
494.879761
 30
0.0
 40
350.425598
210
0.0
220
0.0
230
1.0
100
AcDbArc
 50
349.231233
 51
5.515761
  0
ARC
  5
37
100
AcDbEntity
  8
0
 62
     2
100
AcDbCircle
 10
467.295258
 20
520.942688
 30
0.0
 40
65.05584
210
0.0
220
0.0
230
1.0
100
AcDbArc
 50
6.726349
 51
28.972026
  0
ARC
  5
38
100
AcDbEntity
  8
0
 62
     2
100
AcDbCircle
 10
520.572388
 20
591.116638
 30
0.0
 40
38.832787
210
0.0
220
0.0
230
1.0
100
AcDbArc
 50
225.201077
 51
275.374622
  0
ARC
  5
39
100
AcDbEntity
  8
0
 62
     2
100
AcDbCircle
 10
419.038696
 20
593.462708
 30
0.0
 40
79.971657
210
0.0
220
0.0
230
1.0
100
AcDbArc
 50
317.224967
 51
338.043848
  0
ARC
  5
3A
100
AcDbEntity
  8
0
 62
     2
100
AcDbCircle
 10
494.354004
 20
547.270691
 30
0.0
 40
18.491508
210
0.0
220
0.0
230
1.0
100
AcDbArc
 50
180.367947
 51
206.04241
  0
ARC
  5
3B
100
AcDbEntity
  8
0
 62
     2
100
AcDbCircle
 10
471.255066
 20
557.752502
 30
0.0
 40
11.558735
210
0.0
220
0.0
230
1.0
100
AcDbArc
 50
293.493419
 51
324.694325
  0
ARC
  5
3C
100
AcDbEntity
  8
0
 62
     2
100
AcDbCircle
 10
482.579681
 20
565.310547
 30
0.0
 40
14.363418
210
0.0
220
0.0
230
1.0
100
AcDbArc
 50
239.918919
 51
262.431796
  0
ARC
  5
3D
100
AcDbEntity
  8
0
 62
     2
100
AcDbCircle
 10
436.491974
 20
556.914917
 30
0.0
 40
39.096989
210
0.0
220
0.0
230
1.0
100
AcDbArc
 50
354.07881
 51
0.23953
  0
ARC
  5
3E
100
AcDbEntity
  8
0
 62
     2
100
AcDbCircle
 10
468.703064
 20
571.175964
 30
0.0
 40
21.724236
210
0.0
220
0.0
230
1.0
100
AcDbArc
 50
347.70608
 51
12.293925
  0
ARC
  5
3F
100
AcDbEntity
  8
0
 62
     2
100
AcDbCircle
 10
489.385986
 20
585.599609
 30
0.0
 40
9.813028
210
0.0
220
0.0
230
1.0
100
AcDbArc
 50
273.172705
 51
300.664352
  0
ARC
  5
40
100
AcDbEntity
  8
0
 62
     2
100
AcDbCircle
 10
466.740387
 20
579.066711
 30
0.0
 40
27.71608
210
0.0
220
0.0
230
1.0
100
AcDbArc
 50
356.052625
 51
16.956028
  0
ARC
  5
41
100
AcDbEntity
  8
0
 62
     2
100
AcDbCircle
 10
492.611084
 20
581.3396
 30
0.0
 40
5.845359
210
0.0
220
0.0
230
1.0
100
AcDbArc
 50
83.708756
 51
96.291248
  0
ARC
  5
42
100
AcDbEntity
  8
0
 62
     2
100
AcDbCircle
 10
477.534119
 20
593.169434
 30
0.0
 40
15.641151
210
0.0
220
0.0
230
1.0
100
AcDbArc
 50
337.365037
 51
72.151953
  0
ARC
  5
43
100
AcDbEntity
  8
0
 62
     2
100
AcDbCircle
 10
474.674683
 20
593.247864
 30
0.0
 40
16.670544
210
0.0
220
0.0
230
1.0
100
AcDbArc
 50
62.671364
 51
180.269716
  0
ARC
  5
44
100
AcDbEntity
  8
0
 62
     2
100
AcDbCircle
 10
467.462921
 20
591.807922
 30
0.0
 40
9.556081
210
0.0
220
0.0
230
1.0
100
AcDbArc
 50
171.809051
 51
218.69435
  0
LINE
  5
45
100
AcDbEntity
  8
0
 62
     2
 48
0.429656
100
AcDbLine
 10
475.588623
 20
557.078369
 30
0.0
 11
489.929108
 21
566.550293
 31
0.0
210
0.0
220
0.0
230
1.0
  0
ARC
  5
46
100
AcDbEntity
  8
0
 62
     2
100
AcDbCircle
 10
474.064148
 20
298.952332
 30
0.0
 40
32.161892
210
0.0
220
0.0
230
1.0
100
AcDbArc
 50
263.732209
 51
289.890304
  0
ARC
  5
47
100
AcDbEntity
  8
0
 62
     2
100
AcDbCircle
 10
454.489258
 20
281.170441
 30
0.0
 40
21.432013
210
0.0
220
0.0
230
1.0
100
AcDbArc
 50
243.831387
 51
318.548274
  0
ARC
  5
48
100
AcDbEntity
  8
0
 62
     2
100
AcDbCircle
 10
398.251617
 20
324.542572
 30
0.0
 40
78.157501
210
0.0
220
0.0
230
1.0
100
AcDbArc
 50
306.77038
 51
321.380507
  0
ARC
  5
49
100
AcDbEntity
  8
0
 62
     2
100
AcDbCircle
 10
443.010986
 20
282.673798
 30
0.0
 40
17.710571
210
0.0
220
0.0
230
1.0
100
AcDbArc
 50
337.025302
 51
22.974701
  0
ARC
  5
4A
100
AcDbEntity
  8
0
 62
     2
100
AcDbCircle
 10
464.834869
 20
300.449707
 30
0.0
 40
12.18425
210
0.0
220
0.0
230
1.0
100
AcDbArc
 50
172.236416
 51
243.070587
  0
ARC
  5
4B
100
AcDbEntity
  8
0
 62
     2
100
AcDbCircle
 10
791.59967
 20
352.14093
 30
0.0
 40
342.513184
210
0.0
220
0.0
230
1.0
100
AcDbArc
 50
177.55533
 51
188.401671
  0
ARC
  5
4C
100
AcDbEntity
  8
0
 62
     2
100
AcDbCircle
 10
549.277039
 20
410.919189
 30
0.0
 40
109.209129
210
0.0
220
0.0
230
1.0
100
AcDbArc
 50
173.902996
 51
203.855985
  0
ARC
  5
4D
100
AcDbEntity
  8
0
 62
     2
100
AcDbCircle
 10
458.897949
 20
443.141968
 30
0.0
 40
27.513893
210
0.0
220
0.0
230
1.0
100
AcDbArc
 50
175.625433
 51
228.55268
  0
ARC
  5
4E
100
AcDbEntity
  8
0
 62
     2
100
AcDbCircle
 10
429.021057
 20
456.402283
 30
0.0
 40
11.425904
210
0.0
220
0.0
230
1.0
100
AcDbArc
 50
257.653477
 51
282.346524
  0
ARC
  5
4F
100
AcDbEntity
  8
0
 62
     2
100
AcDbCircle
 10
519.104858
 20
464.9953
 30
0.0
 40
94.612251
210
0.0
220
0.0
230
1.0
100
AcDbArc
 50
175.350764
 51
192.051805
  0
ARC
  5
50
100
AcDbEntity
  8
0
 62
     2
100
AcDbCircle
 10
91.511177
 20
607.059326
 30
0.0
 40
359.36908
210
0.0
220
0.0
230
1.0
100
AcDbArc
 50
338.039012
 51
344.094957
  0
ARC
  5
51
100
AcDbEntity
  8
0
 62
     2
100
AcDbCircle
 10
506.097809
 20
520.796448
 30
0.0
 40
70.049324
210
0.0
220
0.0
230
1.0
100
AcDbArc
 50
159.46836
 51
190.046517
  0
ARC
  5
52
100
AcDbEntity
  8
0
 62
     2
100
AcDbCircle
 10
432.494781
 20
593.306946
 30
0.0
 40
48.605946
210
0.0
220
0.0
230
1.0
100
AcDbArc
 50
279.477352
 51
309.948932
  0
ARC
  5
53
100
AcDbEntity
  8
0
 62
     2
100
AcDbCircle
 10
515.389648
 20
537.870422
 30
0.0
 40
54.787067
210
0.0
220
0.0
230
1.0
100
AcDbArc
 50
160.626352
 51
192.671564
  0
ARC
  5
54
100
AcDbEntity
  8
0
 62
     2
100
AcDbCircle
 10
426.833252
 20
552.558044
 30
0.0
 40
44.10751
210
0.0
220
0.0
230
1.0
100
AcDbArc
 50
322.737258
 51
353.345575
  0
ARC
  5
55
100
AcDbEntity
  8
0
 62
     2
100
AcDbCircle
 10
473.303284
 20
555.131226
 30
0.0
 40
8.13166
210
0.0
220
0.0
230
1.0
100
AcDbArc
 50
214.496573
 51
250.908556
  0
ARC
  5
56
100
AcDbEntity
  8
0
 62
     2
100
AcDbCircle
 10
481.158508
 20
533.99115
 30
0.0
 40
22.029591
210
0.0
220
0.0
230
1.0
100
AcDbArc
 50
118.116196
 51
131.36044
  0
ARC
  5
57
100
AcDbEntity
  8
0
 62
     2
100
AcDbCircle
 10
426.249481
 20
557.327515
 30
0.0
 40
44.698376
210
0.0
220
0.0
230
1.0
100
AcDbArc
 50
354.986241
 51
0.80121
  0
ARC
  5
58
100
AcDbEntity
  8
0
 62
     2
100
AcDbCircle
 10
478.90741
 20
571.23877
 30
0.0
 40
15.490274
210
0.0
220
0.0
230
1.0
100
AcDbArc
 50
216.751299
 51
239.061075
  0
ARC
  5
59
100
AcDbEntity
  8
0
 62
     2
100
AcDbCircle
 10
365.533051
 20
546.133118
 30
0.0
 40
102.197479
210
0.0
220
0.0
230
1.0
100
AcDbArc
 50
8.914853
 51
16.057392
  0
ARC
  5
5A
100
AcDbEntity
  8
0
 62
     2
100
AcDbCircle
 10
477.076385
 20
619.249451
 30
0.0
 40
46.788498
210
0.0
220
0.0
230
1.0
100
AcDbArc
 50
248.093016
 51
253.443267
  0
ARC
  5
5B
100
AcDbEntity
  8
0
 62
     2
100
AcDbCircle
 10
477.019165
 20
580.17395
 30
0.0
 40
17.931353
210
0.0
220
0.0
230
1.0
100
AcDbArc
 50
161.600569
 51
193.988246
  0
ENDSEC
  0
SECTION
  2
OBJECTS
  0
DICTIONARY
  5
19
100
AcDbDictionary
  3
ACAD_GROUP
350
1A
  3
ACAD_MLINESTYLE
350
1B
  0
DICTIONARY
  5
1A
102
{ACAD_REACTORS
330
19
102
}
100
AcDbDictionary
  0
DICTIONARY
  5
1B
102
{ACAD_REACTORS
330
19
102
}
100
AcDbDictionary
  3
STANDARD
350
1C
  0
MLINESTYLE
  5
1C
102
{ACAD_REACTORS
330
1B
102
}
100
AcDbMlineStyle
  2
STANDARD
 70
     0
  3

 62
     0
 51
90.0
 52
90.0
 71
     2
 49
0.5
 62
   256
  6
BYLAYER
 49
-0.5
 62
   256
  6
BYLAYER
  0
ENDSEC
  0
EOF
