  0
SECTION
  2
HEADER
  9
$ACADVER
  1
AC1009
  9
$INSBASE
 10
0.0
 20
0.0
 30
0.0
  9
$EXTMIN
 10
0.4999999999999999
 20
3.9999999900000001
 30
-0.00000001
  9
$EXTMAX
 10
8.0000000100000008
 20
10.50000000999999
 30
0.00000002
  9
$LIMMIN
 10
0.0
 20
0.0
  9
$LIMMAX
 10
8.5033333333333339
 20
11.00333333333333
  9
$ORTHOMODE
 70
     0
  9
$REGENMODE
 70
     1
  9
$FILLMODE
 70
     1
  9
$QTEXTMODE
 70
     0
  9
$MIRRTEXT
 70
     1
  9
$DRAGMODE
 70
     2
  9
$LTSCALE
 40
1.0
  9
$OSMODE
 70
     0
  9
$ATTMODE
 70
     1
  9
$TEXTSIZE
 40
0.25
  9
$TRACEWID
 40
0.05
  9
$TEXTSTYLE
  7
STANDARD
  9
$CLAYER
  8
0
  9
$CELTYPE
  6
BYLAYER
  9
$CECOLOR
 62
     7
  9
$DIMSCALE
 40
1.0
  9
$DIMASZ
 40
0.18
  9
$DIMEXO
 40
0.0625
  9
$DIMDLI
 40
0.38
  9
$DIMRND
 40
0.0
  9
$DIMDLE
 40
0.0
  9
$DIMEXE
 40
0.18
  9
$DIMTP
 40
0.0
  9
$DIMTM
 40
0.0
  9
$DIMTXT
 40
0.125
  9
$DIMCEN
 40
0.09
  9
$DIMTSZ
 40
0.0
  9
$DIMTOL
 70
     0
  9
$DIMLIM
 70
     0
  9
$DIMTIH
 70
     1
  9
$DIMTOH
 70
     1
  9
$DIMSE1
 70
     0
  9
$DIMSE2
 70
     0
  9
$DIMTAD
 70
     0
  9
$DIMZIN
 70
     0
  9
$DIMBLK
  1

  9
$DIMASO
 70
     1
  9
$DIMSHO
 70
     1
  9
$DIMPOST
  1

  9
$DIMAPOST
  1

  9
$DIMALT
 70
     0
  9
$DIMALTD
 70
     2
  9
$DIMALTF
 40
25.399999999999999
  9
$DIMLFAC
 40
1.0
  9
$DIMTOFL
 70
     0
  9
$DIMTVP
 40
0.0
  9
$DIMTIX
 70
     0
  9
$DIMSOXD
 70
     0
  9
$DIMSAH
 70
     0
  9
$DIMBLK1
  1

  9
$DIMBLK2
  1

  9
$DIMSTYLE
  2
STANDARD
  9
$DIMCLRD
 70
     0
  9
$DIMCLRE
 70
     0
  9
$DIMCLRT
 70
     0
  9
$DIMTFAC
 40
1.0
  9
$DIMGAP
 40
0.09
  9
$LUNITS
 70
     2
  9
$LUPREC
 70
     2
  9
$SKETCHINC
 40
0.1
  9
$FILLETRAD
 40
0.0625
  9
$AUNITS
 70
     0
  9
$AUPREC
 70
     2
  9
$MENU
  1
.
  9
$ELEVATION
 40
0.0
  9
$PELEVATION
 40
0.0
  9
$THICKNESS
 40
0.0
  9
$LIMCHECK
 70
     0
  9
$BLIPMODE
 70
     0
  9
$CHAMFERA
 40
0.25
  9
$CHAMFERB
 40
0.25
  9
$SKPOLY
 70
     0
  9
$TDCREATE
 40
2455959.0238962839
  9
$TDUPDATE
 40
2455959.0238962839
  9
$TDINDWG
 40
0.0
  9
$TDUSRTIMER
 40
0.0
  9
$USRTIMER
 70
     1
  9
$ANGBASE
 50
0.0
  9
$ANGDIR
 70
     0
  9
$PDMODE
 70
     0
  9
$PDSIZE
 40
0.0
  9
$PLINEWID
 40
0.0
  9
$COORDS
 70
     0
  9
$SPLFRAME
 70
     0
  9
$SPLINETYPE
 70
     6
  9
$SPLINESEGS
 70
     8
  9
$ATTDIA
 70
     0
  9
$ATTREQ
 70
     1
  9
$HANDLING
 70
 22529
  9
$HANDSEED
  5
E0
  9
$SURFTAB1
 70
     6
  9
$SURFTAB2
 70
     6
  9
$SURFTYPE
 70
     6
  9
$SURFU
 70
     6
  9
$SURFV
 70
     6
  9
$UCSNAME
  2

  9
$UCSORG
 10
0.0
 20
0.0
 30
0.0
  9
$UCSXDIR
 10
1.0
 20
0.0
 30
0.0
  9
$UCSYDIR
 10
0.0
 20
1.0
 30
0.0
  9
$PUCSNAME
  2

  9
$PUCSORG
 10
0.0
 20
0.0
 30
0.0
  9
$PUCSXDIR
 10
1.0
 20
0.0
 30
0.0
  9
$PUCSYDIR
 10
0.0
 20
1.0
 30
0.0
  9
$USERI1
 70
     0
  9
$USERI2
 70
     0
  9
$USERI3
 70
     0
  9
$USERI4
 70
     0
  9
$USERI5
 70
     0
  9
$USERR1
 40
0.0
  9
$USERR2
 40
0.0
  9
$USERR3
 40
0.0
  9
$USERR4
 40
0.0
  9
$USERR5
 40
0.0
  9
$WORLDVIEW
 70
     1
  9
$SHADEDGE
 70
     3
  9
$SHADEDIF
 70
    70
  9
$TILEMODE
 70
     1
  9
$MAXACTVP
 70
    64
  9
$PLIMCHECK
 70
     0
  9
$PEXTMIN
 10
1.0000000000000000E 020
 20
1.0000000000000000E 020
 30
1.0000000000000000E 020
  9
$PEXTMAX
 10
-1.0000000000000000E 020
 20
-1.0000000000000000E 020
 30
-1.0000000000000000E 020
  9
$PLIMMIN
 10
0.0
 20
0.0
  9
$PLIMMAX
 10
12.0
 20
9.0
  9
$UNITMODE
 70
     0
  9
$VISRETAIN
 70
     1
  9
$PLINEGEN
 70
     0
  9
$PSLTSCALE
 70
     1
  0
ENDSEC
  0
SECTION
  2
TABLES
  0
TABLE
  2
VPORT
 70
     1
  0
VPORT
  2
*ACTIVE
 70
     0
 10
0.0
 20
0.0
 11
1.0
 21
1.0
 12
4.251666666666666
 22
5.501666666666666
 13
0.0
 23
0.0
 14
1.0
 24
1.0
 15
0.0
 25
0.0
 16
0.0
 26
0.0
 36
1.0
 17
0.0
 27
0.0
 37
0.0
 40
11.00333333333333
 41
0.7727961223871555
 42
50.0
 43
0.0
 44
0.0
 50
0.0
 51
0.0
 71
     0
 72
   100
 73
     1
 74
     1
 75
     0
 76
     0
 77
     0
 78
     0
  0
ENDTAB
  0
TABLE
  2
LTYPE
 70
    40
  0
LTYPE
  2
CONTINUOUS
 70
     0
  3
Solid line
 72
    65
 73
     0
 40
0.0
  0
LTYPE
  2
HIDDEN
 70
     0
  3
_ _ _ _ _ _ _ _ _ _ _ _ _ _ 
 72
    65
 73
     2
 40
0.375
 49
0.25
 49
-0.125
  0
LTYPE
  2
DASHED
 70
     0
  3
__ __ __ __ __ __ __ __ __ 
 72
    65
 73
     2
 40
0.75
 49
0.5
 49
-0.25
  0
LTYPE
  2
CENTER
 70
     0
  3
____ _ ____ _ ____ _ ____ _ 
 72
    65
 73
     4
 40
2.0
 49
1.25
 49
-0.25
 49
0.25
 49
-0.25
  0
LTYPE
  2
PHANTOM
 70
     0
  3
_____ _ _ _____ _ _ _____ _ _ 
 72
    65
 73
     6
 40
2.5
 49
1.25
 49
-0.25
 49
0.25
 49
-0.25
 49
0.25
 49
-0.25
  0
LTYPE
  2
DOT
 70
     0
  3
...........................
 72
    65
 73
     2
 40
0.25
 49
0.0
 49
-0.25
  0
LTYPE
  2
DASHDOT
 70
     0
  3
__ . __ . __ . __ . __ . __ . 
 72
    65
 73
     4
 40
1.0
 49
0.5
 49
-0.25
 49
0.0
 49
-0.25
  0
LTYPE
  2
DIVIDE
 70
     0
  3
__ . . __ . . __ . . __ . . 
 72
    65
 73
     6
 40
1.25
 49
0.5
 49
-0.25
 49
0.0
 49
-0.25
 49
0.0
 49
-0.25
  0
LTYPE
  2
BORDER
 70
     0
  3
__ __ . __ __ . __ __ . __ __ .
 72
    65
 73
     6
 40
1.75
 49
0.5
 49
-0.25
 49
0.5
 49
-0.25
 49
0.0
 49
-0.25
  0
LTYPE
  2
BORDER2
 70
     0
  3
Border (.5x) __.__.__.__.__.__.
 72
    65
 73
     6
 40
0.875
 49
0.25
 49
-0.125
 49
0.25
 49
-0.125
 49
0.0
 49
-0.125
  0
LTYPE
  2
BORDERX2
 70
     0
  3
Border (2x) ____  ____  .  ____
 72
    65
 73
     6
 40
3.5
 49
1.0
 49
-0.5
 49
1.0
 49
-0.5
 49
0.0
 49
-0.5
  0
LTYPE
  2
CENTER2
 70
     0
  3
Center (.5x) ___ _ ___ _ ___ _ 
 72
    65
 73
     4
 40
1.125
 49
0.7500000000000001
 49
-0.125
 49
0.125
 49
-0.125
  0
LTYPE
  2
CENTERX2
 70
     0
  3
Center (2x) ________  __  _____
 72
    65
 73
     4
 40
4.0
 49
2.5
 49
-0.5
 49
0.5
 49
-0.5
  0
LTYPE
  2
DASHDOT2
 70
     0
  3
Dash dot (.5x) _._._._._._._._.
 72
    65
 73
     4
 40
0.5
 49
0.25
 49
-0.125
 49
0.0
 49
-0.125
  0
LTYPE
  2
DASHDOTX2
 70
     0
  3
Dash dot (2x) ____  .  ____  . 
 72
    65
 73
     4
 40
2.0
 49
1.0
 49
-0.5
 49
0.0
 49
-0.5
  0
LTYPE
  2
DASHED2
 70
     0
  3
Dashed (.5x) _ _ _ _ _ _ _ _ _ 
 72
    65
 73
     2
 40
0.375
 49
0.25
 49
-0.125
  0
LTYPE
  2
DASHEDX2
 70
     0
  3
Dashed (2x) ____  ____  ____  _
 72
    65
 73
     2
 40
1.5
 49
1.0
 49
-0.5
  0
LTYPE
  2
DIVIDE2
 70
     0
  3
Divide (.5x) __..__..__..__..__
 72
    65
 73
     6
 40
0.625
 49
0.25
 49
-0.125
 49
0.0
 49
-0.125
 49
0.0
 49
-0.125
  0
LTYPE
  2
DIVIDEX2
 70
     0
  3
Divide (2x) ________  .  .  ___
 72
    65
 73
     6
 40
2.5
 49
1.0
 49
-0.5
 49
0.0
 49
-0.5
 49
0.0
 49
-0.5
  0
LTYPE
  2
DOT2
 70
     0
  3
Dot (.5x) .....................
 72
    65
 73
     2
 40
0.125
 49
0.0
 49
-0.125
  0
LTYPE
  2
DOTX2
 70
     0
  3
Dot (2x) .  .  .  .  .  .  .  .
 72
    65
 73
     2
 40
0.5
 49
0.0
 49
-0.5
  0
LTYPE
  2
HIDDEN2
 70
     0
  3
Hidden (.5x) _ _ _ _ _ _ _ _ _ 
 72
    65
 73
     2
 40
0.1875
 49
0.125
 49
-0.0625
  0
LTYPE
  2
HIDDENX2
 70
     0
  3
Hidden (2x) ____ ____ ____ ____
 72
    65
 73
     2
 40
0.75
 49
0.5
 49
-0.25
  0
LTYPE
  2
PHANTOM2
 70
     0
  3
Phantom (.5x) ___ _ _ ___ _ _ _
 72
    65
 73
     6
 40
1.25
 49
0.6250000000000001
 49
-0.125
 49
0.125
 49
-0.125
 49
0.125
 49
-0.125
  0
LTYPE
  2
PHANTOMX2
 70
     0
  3
Phantom (2x) ____________    __
 72
    65
 73
     6
 40
5.0
 49
2.5
 49
-0.5
 49
0.5
 49
-0.5
 49
0.5
 49
-0.5
  0
LTYPE
  2
DOTS
 70
     0
  3
Dots - - - - - - - - - - - - - 
 72
    65
 73
     2
 40
0.1
 49
0.05
 49
-0.05
  0
LTYPE
  2
ACAD_ISO02W100
 70
     0
  3
__ __ __ __ __ __ __ __ __ __ _
 72
    65
 73
     2
 40
15.0
 49
12.0
 49
-3.0
  0
LTYPE
  2
ACAD_ISO03W100
 70
     0
  3
__    __    __    __    __    _
 72
    65
 73
     2
 40
30.0
 49
12.0
 49
-18.0
  0
LTYPE
  2
ACAD_ISO04W100
 70
     0
  3
____ . ____ . ____ . ____ . ___
 72
    65
 73
     4
 40
30.5
 49
24.0
 49
-3.0
 49
0.5
 49
-3.0
  0
LTYPE
  2
ACAD_ISO05W100
 70
     0
  3
____ .. ____ .. ____ .. ____ ..
 72
    65
 73
     6
 40
34.0
 49
24.0
 49
-3.0
 49
0.5
 49
-3.0
 49
0.5
 49
-3.0
  0
LTYPE
  2
ACAD_ISO06W100
 70
     0
  3
____ ... ____ ... ____ ... ____
 72
    65
 73
     6
 40
34.0
 49
24.0
 49
-3.0
 49
0.5
 49
-3.0
 49
0.5
 49
-3.0
  0
LTYPE
  2
ACAD_ISO07W100
 70
     0
  3
. . . . . . . . . . . . . . . .
 72
    65
 73
     2
 40
3.5
 49
0.5
 49
-3.0
  0
LTYPE
  2
ACAD_ISO08W100
 70
     0
  3
____ __ ____ __ ____ __ ____ __
 72
    65
 73
     4
 40
36.0
 49
24.0
 49
-3.0
 49
6.0
 49
-3.0
  0
LTYPE
  2
ACAD_ISO09W100
 70
     0
  3
____ __ __ ____ __ __ ____ __ _
 72
    65
 73
     6
 40
45.0
 49
24.0
 49
-3.0
 49
6.0
 49
-3.0
 49
6.0
 49
-3.0
  0
LTYPE
  2
ACAD_ISO10W100
 70
     0
  3
__ . __ . __ . __ . __ . __ . _
 72
    65
 73
     4
 40
18.5
 49
12.0
 49
-3.0
 49
0.5
 49
-3.0
  0
LTYPE
  2
ACAD_ISO11W100
 70
     0
  3
__ __ . __ __ . __ __ . __ __ .
 72
    65
 73
     6
 40
33.5
 49
12.0
 49
-3.0
 49
12.0
 49
-3.0
 49
0.5
 49
-3.0
  0
LTYPE
  2
ACAD_ISO12W100
 70
     0
  3
__ . . __ . . __ . . __ . . __ 
 72
    65
 73
     6
 40
22.0
 49
12.0
 49
-3.0
 49
0.5
 49
-3.0
 49
0.5
 49
-3.0
  0
LTYPE
  2
ACAD_ISO13W100
 70
     0
  3
__ __ . . __ __ . . __ __ . . _
 72
    65
 73
     6
 40
33.5
 49
12.0
 49
-3.0
 49
12.0
 49
-3.0
 49
0.5
 49
-3.0
  0
LTYPE
  2
ACAD_ISO14W100
 70
     0
  3
__ . . . __ . . . __ . . . __ .
 72
    65
 73
     6
 40
22.0
 49
12.0
 49
-3.0
 49
0.5
 49
-3.0
 49
0.5
 49
-3.0
  0
LTYPE
  2
ACAD_ISO15W100
 70
     0
  3
__ __ . . . __ __ . . . __ __ .
 72
    65
 73
     6
 40
33.5
 49
12.0
 49
-3.0
 49
12.0
 49
-3.0
 49
0.5
 49
-3.0
  0
ENDTAB
  0
TABLE
  2
LAYER
 70
     2
  0
LAYER
  2
0
 70
     0
 62
     7
  6
CONTINUOUS
  0
LAYER
  2
1
 70
     0
 62
     7
  6
CONTINUOUS
  0
ENDTAB
  0
TABLE
  2
STYLE
 70
     4
  0
STYLE
  2
STANDARD
 70
     0
 40
0.0
 41
1.0
 50
0.0
 71
     0
 42
0.25
  3
txt
  4

  0
STYLE
  2
ITALIC
 70
     0
 40
0.0
 41
1.0
 50
0.0
 71
     0
 42
0.25
  3
ITALIC
  4

  0
STYLE
  2
SIMPLEX
 70
     0
 40
0.0
 41
1.0
 50
0.0
 71
     0
 42
0.25
  3
SIMPLEX
  4

  0
STYLE
  2
COMPLEX
 70
     0
 40
0.0
 41
1.0
 50
0.0
 71
     0
 42
0.25
  3
COMPLEX
  4

  0
ENDTAB
  0
TABLE
  2
VIEW
 70
     0
  0
ENDTAB
  0
TABLE
  2
UCS
 70
     0
  0
ENDTAB
  0
TABLE
  2
APPID
 70
     1
  0
APPID
  2
ACAD
 70
     0
  0
ENDTAB
  0
TABLE
  2
DIMSTYLE
 70
     1
  0
DIMSTYLE
  2
STANDARD
 70
     0
  3

  4

  5

  6

  7

 40
1.0
 41
0.18
 42
0.0625
 43
0.38
 44
0.18
 45
0.0
 46
0.0
 47
0.0
 48
0.0
140
0.18
141
0.09
142
0.0
143
25.399999999999999
144
1.0
145
0.0
146
1.0
147
0.09
 71
     0
 72
     0
 73
     1
 74
     1
 75
     0
 76
     0
 77
     0
 78
     0
170
     0
171
     2
172
     0
173
     0
174
     0
175
     0
176
     0
177
     0
178
     0
  0
ENDTAB
  0
ENDSEC
  0
SECTION
  2
BLOCKS
  0
BLOCK
  8
0
  2
$MODEL_SPACE
 70
     0
 10
0.0
 20
0.0
 30
0.0
  3
$MODEL_SPACE
  1

  0
ENDBLK
  5
21
  8
0
  0
BLOCK
 67
     1
  8
0
  2
$PAPER_SPACE
 70
     0
 10
0.0
 20
0.0
 30
0.0
  3
$PAPER_SPACE
  1

  0
ENDBLK
  5
1D
 67
     1
  8
0
  0
ENDSEC
  0
SECTION
  2
ENTITIES
  0
LINE
  5
53
  8
1
  6
CONTINUOUS
 62
     7
 10
0.4999999999999999
 20
4.25
 30
0.0
 11
3.25
 21
4.25
 31
0.0
  0
LINE
  5
54
  8
1
  6
CONTINUOUS
 62
     7
 10
0.4999999999999999
 20
4.125
 30
0.0
 11
3.25
 21
4.125
 31
0.0
  0
LINE
  5
55
  8
1
  6
CONTINUOUS
 62
     7
 10
3.25
 20
4.125
 30
0.0
 11
3.25
 21
4.25
 31
0.0
  0
LINE
  5
56
  8
1
  6
CONTINUOUS
 62
     7
 10
2.7672745751406258
 20
4.7154508497187466
 30
0.0
 11
3.0
 21
4.25
 31
0.0
  0
LINE
  5
57
  8
1
  6
CONTINUOUS
 62
     7
 10
2.25
 20
4.25
 30
0.0
 11
1.0172745751406249
 21
6.7154508497187466
 31
0.0
  0
LINE
  5
58
  8
1
  6
CONTINUOUS
 62
     7
 10
0.7952254248593738
 20
6.6595491502812516
 30
0.0
 11
1.2499999999999989
 21
5.75
 31
0.0
  0
LINE
  5
59
  8
1
  6
CONTINUOUS
 62
     7
 10
0.961372875703131
 20
6.75
 30
0.0
 11
0.8511271242968685
 21
6.75
 31
0.0
  0
ARC
  5
5A
  8
1
  6
CONTINUOUS
 62
     7
 10
-0.125
 20
5.375
 30
0.0
 40
1.425219281373922
 50
307.87498365109809
 51
15.25511870305772
  0
LINE
  5
5B
  8
1
  6
HIDDEN
 62
     7
 10
2.0
 20
4.25
 30
0.0
 11
2.0
 21
4.125
 31
0.0
  0
LINE
  5
5C
  8
1
  6
HIDDEN
 62
     7
 10
2.0
 20
4.125
 30
0.0
 11
2.25
 21
4.125
 31
0.0
  0
LINE
  5
5D
  8
1
  6
HIDDEN
 62
     7
 10
2.25
 20
4.125
 30
0.0
 11
2.25
 21
4.25
 31
0.0
  0
LINE
  5
5E
  8
1
  6
HIDDEN
 62
     7
 10
0.75
 20
4.25
 30
0.0
 11
0.75
 21
4.125
 31
0.0
  0
LINE
  5
5F
  8
1
  6
HIDDEN
 62
     7
 10
0.75
 20
4.125
 30
0.0
 11
1.0
 21
4.125
 31
0.0
  0
LINE
  5
60
  8
1
  6
HIDDEN
 62
     7
 10
1.0
 20
4.125
 30
0.0
 11
1.0
 21
4.25
 31
0.0
  0
LINE
  5
61
  8
1
  6
CONTINUOUS
 62
     7
 10
2.75
 20
4.25
 30
0.0
 11
2.5452254248593729
 21
4.6595491502812516
 31
0.0
  0
LINE
  5
62
  8
1
  6
CONTINUOUS
 62
     7
 10
2.6011271242968679
 20
4.75
 30
0.0
 11
2.7113728757031308
 21
4.75
 31
0.0
  0
LINE
  5
63
  8
1
  6
HIDDEN
 62
     7
 10
2.75
 20
4.25
 30
0.0
 11
2.75
 21
4.125
 31
0.0
  0
LINE
  5
64
  8
1
  6
HIDDEN
 62
     7
 10
2.75
 20
4.125
 30
0.0
 11
3.0
 21
4.125
 31
0.0
  0
LINE
  5
65
  8
1
  6
HIDDEN
 62
     7
 10
3.0
 20
4.125
 30
0.0
 11
3.0
 21
4.25
 31
0.0
  0
LINE
  5
66
  8
1
  6
CONTINUOUS
 62
     7
 10
0.5
 20
4.25
 30
0.0
 11
0.5
 21
4.125
 31
0.0
  0
ARC
  5
67
  8
1
  6
CONTINUOUS
 62
     7
 10
0.8511271242968685
 20
6.6875
 30
0.0
 40
0.0625
 50
90.000000000000057
 51
206.5650511770786
  0
ARC
  5
68
  8
1
  6
CONTINUOUS
 62
     7
 10
0.961372875703131
 20
6.6875
 30
0.0
 40
0.0625
 50
26.565051177078601
 51
90.000000000000057
  0
ARC
  5
69
  8
1
  6
CONTINUOUS
 62
     7
 10
2.6011271242968679
 20
4.6875
 30
0.0
 40
0.0625
 50
90.000000000000057
 51
206.56505117707741
  0
ARC
  5
6A
  8
1
  6
CONTINUOUS
 62
     7
 10
2.7113728757031308
 20
4.6875
 30
0.0
 40
0.0625
 50
26.565051177077979
 51
90.000000000000057
  0
LINE
  5
6B
  8
1
  6
CONTINUOUS
 62
     7
 10
4.125
 20
4.0
 30
0.0
 11
7.875
 21
4.0
 31
0.0
  0
LINE
  5
6C
  8
1
  6
CONTINUOUS
 62
     7
 10
4.0
 20
4.125
 30
0.0
 11
4.0
 21
6.625
 31
0.0
  0
LINE
  5
6D
  8
1
  6
CONTINUOUS
 62
     7
 10
4.125
 20
6.75
 30
0.0
 11
7.875
 21
6.75
 31
0.0
  0
LINE
  5
6E
  8
1
  6
CONTINUOUS
 62
     7
 10
8.0
 20
6.625
 30
0.0
 11
8.0
 21
4.125
 31
0.0
  0
LINE
  5
6F
  8
1
  6
CONTINUOUS
 62
     7
 10
4.25
 20
4.25
 30
0.0
 11
4.25
 21
4.5
 31
0.0
  0
LINE
  5
70
  8
1
  6
CONTINUOUS
 62
     7
 10
4.25
 20
4.5
 30
0.0
 11
4.375
 21
4.5
 31
0.0
  0
LINE
  5
71
  8
1
  6
CONTINUOUS
 62
     7
 10
4.375
 20
4.5
 30
0.0
 11
4.375
 21
4.25
 31
0.0
  0
LINE
  5
72
  8
1
  6
CONTINUOUS
 62
     7
 10
4.25
 20
4.25
 30
0.0
 11
4.375
 21
4.25
 31
0.0
  0
LINE
  5
73
  8
1
  6
CONTINUOUS
 62
     7
 10
7.75
 20
4.25
 30
0.0
 11
7.75
 21
4.5
 31
0.0
  0
LINE
  5
74
  8
1
  6
CONTINUOUS
 62
     7
 10
7.75
 20
4.5
 30
0.0
 11
7.625
 21
4.5
 31
0.0
  0
LINE
  5
75
  8
1
  6
CONTINUOUS
 62
     7
 10
7.625
 20
4.5
 30
0.0
 11
7.625
 21
4.25
 31
0.0
  0
LINE
  5
76
  8
1
  6
CONTINUOUS
 62
     7
 10
7.625
 20
4.25
 30
0.0
 11
7.75
 21
4.25
 31
0.0
  0
LINE
  5
77
  8
1
  6
CONTINUOUS
 62
     7
 10
4.25
 20
6.5
 30
0.0
 11
4.25
 21
6.25
 31
0.0
  0
LINE
  5
78
  8
1
  6
CONTINUOUS
 62
     7
 10
4.25
 20
6.25
 30
0.0
 11
4.375
 21
6.25
 31
0.0
  0
LINE
  5
79
  8
1
  6
CONTINUOUS
 62
     7
 10
4.375
 20
6.25
 30
0.0
 11
4.375
 21
6.5
 31
0.0
  0
LINE
  5
7A
  8
1
  6
CONTINUOUS
 62
     7
 10
4.375
 20
6.5
 30
0.0
 11
4.25
 21
6.5
 31
0.0
  0
LINE
  5
7B
  8
1
  6
CONTINUOUS
 62
     7
 10
4.25
 20
5.25
 30
0.0
 11
4.25
 21
5.0
 31
0.0
  0
LINE
  5
7C
  8
1
  6
CONTINUOUS
 62
     7
 10
4.25
 20
5.0
 30
0.0
 11
4.375
 21
5.0
 31
0.0
  0
LINE
  5
7D
  8
1
  6
CONTINUOUS
 62
     7
 10
4.375
 20
5.0
 30
0.0
 11
4.375
 21
5.25
 31
0.0
  0
LINE
  5
7E
  8
1
  6
CONTINUOUS
 62
     7
 10
4.375
 20
5.25
 30
0.0
 11
4.25
 21
5.25
 31
0.0
  0
LINE
  5
7F
  8
1
  6
CONTINUOUS
 62
     7
 10
7.75
 20
6.5
 30
0.0
 11
7.75
 21
6.25
 31
0.0
  0
LINE
  5
80
  8
1
  6
CONTINUOUS
 62
     7
 10
7.75
 20
6.25
 30
0.0
 11
7.625
 21
6.25
 31
0.0
  0
LINE
  5
81
  8
1
  6
CONTINUOUS
 62
     7
 10
7.625
 20
6.25
 30
0.0
 11
7.625
 21
6.5
 31
0.0
  0
LINE
  5
82
  8
1
  6
CONTINUOUS
 62
     7
 10
7.625
 20
6.5
 30
0.0
 11
7.75
 21
6.5
 31
0.0
  0
LINE
  5
83
  8
1
  6
CONTINUOUS
 62
     7
 10
7.75
 20
5.25
 30
0.0
 11
7.75
 21
5.0
 31
0.0
  0
LINE
  5
84
  8
1
  6
CONTINUOUS
 62
     7
 10
7.75
 20
5.0
 30
0.0
 11
7.625
 21
5.0
 31
0.0
  0
LINE
  5
85
  8
1
  6
CONTINUOUS
 62
     7
 10
7.625
 20
5.0
 30
0.0
 11
7.625
 21
5.25
 31
0.0
  0
LINE
  5
86
  8
1
  6
CONTINUOUS
 62
     7
 10
7.625
 20
5.25
 30
0.0
 11
7.75
 21
5.25
 31
0.0
  0
LINE
  5
87
  8
1
  6
CONTINUOUS
 62
     7
 10
2.7672745751406258
 20
8.4654508447187471
 30
0.0
 11
3.0
 21
7.9999999949999987
 31
0.0
  0
LINE
  5
88
  8
1
  6
CONTINUOUS
 62
     7
 10
2.25
 20
7.9999999949999987
 30
0.0
 11
1.017274575140626
 21
10.46545084471874
 31
0.0
  0
LINE
  5
89
  8
1
  6
CONTINUOUS
 62
     7
 10
0.7952254248593742
 20
10.40954914528125
 30
0.0
 11
1.25
 21
9.4999999949999996
 31
0.0
  0
LINE
  5
8A
  8
1
  6
CONTINUOUS
 62
     7
 10
0.9613728757031314
 20
10.499999995
 30
0.0
 11
0.8511271242968689
 21
10.499999995
 31
0.0
  0
ARC
  5
8B
  8
1
  6
CONTINUOUS
 62
     7
 10
-0.1249999999999996
 20
9.1249999949999996
 30
0.0
 40
1.425219281373922
 50
307.87498365109809
 51
15.25511870305772
  0
LINE
  5
8C
  8
1
  6
CONTINUOUS
 62
     7
 10
2.0
 20
7.9999999949999987
 30
0.0
 11
2.0
 21
7.8749999949999987
 31
0.0
  0
LINE
  5
8D
  8
1
  6
CONTINUOUS
 62
     7
 10
2.0
 20
7.8749999949999987
 30
0.0
 11
2.25
 21
7.8749999949999987
 31
0.0
  0
LINE
  5
8E
  8
1
  6
CONTINUOUS
 62
     7
 10
2.25
 20
7.8749999949999987
 30
0.0
 11
2.25
 21
7.9999999949999987
 31
0.0
  0
LINE
  5
8F
  8
1
  6
CONTINUOUS
 62
     7
 10
0.7500000000000006
 20
7.9999999949999987
 30
0.0
 11
0.7500000000000006
 21
7.8749999949999987
 31
0.0
  0
LINE
  5
90
  8
1
  6
CONTINUOUS
 62
     7
 10
0.7500000000000006
 20
7.8749999949999987
 30
0.0
 11
1.0
 21
7.8749999949999987
 31
0.0
  0
LINE
  5
91
  8
1
  6
CONTINUOUS
 62
     7
 10
1.0
 20
7.8749999949999987
 30
0.0
 11
1.0
 21
7.9999999949999987
 31
0.0
  0
LINE
  5
92
  8
1
  6
CONTINUOUS
 62
     7
 10
2.75
 20
7.9999999949999987
 30
0.0
 11
2.5452254248593742
 21
8.4095491452812521
 31
0.0
  0
LINE
  5
93
  8
1
  6
CONTINUOUS
 62
     7
 10
2.6011271242968679
 20
8.4999999949999996
 30
0.0
 11
2.7113728757031321
 21
8.4999999949999996
 31
0.0
  0
LINE
  5
94
  8
1
  6
CONTINUOUS
 62
     7
 10
2.75
 20
7.9999999949999987
 30
0.0
 11
2.75
 21
7.8749999949999987
 31
0.0
  0
LINE
  5
95
  8
1
  6
CONTINUOUS
 62
     7
 10
2.75
 20
7.8749999949999987
 30
0.0
 11
3.0
 21
7.8749999949999987
 31
0.0
  0
LINE
  5
96
  8
1
  6
CONTINUOUS
 62
     7
 10
3.0
 20
7.8749999949999987
 30
0.0
 11
3.0
 21
7.9999999949999987
 31
0.0
  0
ARC
  5
97
  8
1
  6
CONTINUOUS
 62
     7
 10
0.8511271242968689
 20
10.437499994999991
 30
0.0
 40
0.0625
 50
90.000000000000057
 51
206.5650511770786
  0
ARC
  5
98
  8
1
  6
CONTINUOUS
 62
     7
 10
0.9613728757031314
 20
10.437499994999991
 30
0.0
 40
0.0625
 50
26.565051177078601
 51
90.000000000000057
  0
ARC
  5
99
  8
1
  6
CONTINUOUS
 62
     7
 10
2.6011271242968679
 20
8.4374999949999996
 30
0.0
 40
0.0625
 50
90.000000000000057
 51
206.56505117707741
  0
ARC
  5
9A
  8
1
  6
CONTINUOUS
 62
     7
 10
2.7113728757031321
 20
8.4374999949999996
 30
0.0
 40
0.0625
 50
26.565051177077979
 51
90.000000000000057
  0
ARC
  5
9B
  8
1
  6
CONTINUOUS
 62
     7
 10
1.5
 20
4.125
 30
0.0
 40
0.5153882032022076
 50
14.03624346792648
 51
165.96375653207349
  0
ARC
  5
9C
  8
1
  6
CONTINUOUS
 62
     7
 10
1.5
 20
7.875
 30
0.0
 40
0.5153882032022076
 50
14.03624346792648
 51
165.96375653207349
  0
LINE
  5
9D
  8
1
  6
CONTINUOUS
 62
     7
 10
5.2672745851406262
 20
8.4654508497187475
 30
0.00000001
 11
5.5000000099999999
 21
8.0
 31
0.00000001
  0
LINE
  5
9E
  8
1
  6
CONTINUOUS
 62
     7
 10
4.7500000099999999
 20
8.0
 30
0.00000001
 11
3.5172745851406262
 21
10.46545084971874
 31
0.00000001
  0
LINE
  5
9F
  8
1
  6
CONTINUOUS
 62
     7
 10
3.2952254348593741
 20
10.409549150281251
 30
0.00000001
 11
3.7500000099999991
 21
9.5
 31
0.00000001
  0
LINE
  5
A0
  8
1
  6
CONTINUOUS
 62
     7
 10
3.4613728857031312
 20
10.5
 30
0.00000001
 11
3.3511271342968678
 21
10.5
 31
0.00000001
  0
ARC
  5
A1
  8
1
  6
CONTINUOUS
 62
     7
 10
2.3750000099999999
 20
9.125
 30
0.00000001
 40
1.425219281373922
 50
307.87498365109809
 51
15.25511870305772
  0
LINE
  5
A2
  8
1
  6
CONTINUOUS
 62
     7
 10
4.5000000099999999
 20
8.0
 30
0.00000001
 11
4.5000000099999999
 21
7.875
 31
0.00000001
  0
LINE
  5
A3
  8
1
  6
CONTINUOUS
 62
     7
 10
4.5000000099999999
 20
7.875
 30
0.00000001
 11
4.7500000099999999
 21
7.875
 31
0.00000001
  0
LINE
  5
A4
  8
1
  6
CONTINUOUS
 62
     7
 10
4.7500000099999999
 20
7.875
 30
0.00000001
 11
4.7500000099999999
 21
8.0
 31
0.00000001
  0
LINE
  5
A5
  8
1
  6
CONTINUOUS
 62
     7
 10
3.2500000099999999
 20
8.0
 30
0.00000001
 11
3.2500000099999999
 21
7.875
 31
0.00000001
  0
LINE
  5
A6
  8
1
  6
CONTINUOUS
 62
     7
 10
3.2500000099999999
 20
7.875
 30
0.00000001
 11
3.5000000099999999
 21
7.875
 31
0.00000001
  0
LINE
  5
A7
  8
1
  6
CONTINUOUS
 62
     7
 10
3.5000000099999999
 20
7.875
 30
0.00000001
 11
3.5000000099999999
 21
8.0
 31
0.00000001
  0
LINE
  5
A8
  8
1
  6
CONTINUOUS
 62
     7
 10
5.2500000099999999
 20
8.0
 30
0.00000001
 11
5.0452254348593728
 21
8.4095491502812525
 31
0.00000001
  0
LINE
  5
A9
  8
1
  6
CONTINUOUS
 62
     7
 10
5.1011271342968678
 20
8.5
 30
0.00000001
 11
5.2113728857031321
 21
8.5
 31
0.00000001
  0
LINE
  5
AA
  8
1
  6
CONTINUOUS
 62
     7
 10
5.2500000099999999
 20
8.0
 30
0.00000001
 11
5.2500000099999999
 21
7.875
 31
0.00000001
  0
LINE
  5
AB
  8
1
  6
CONTINUOUS
 62
     7
 10
5.2500000099999999
 20
7.875
 30
0.00000001
 11
5.5000000099999999
 21
7.875
 31
0.00000001
  0
LINE
  5
AC
  8
1
  6
CONTINUOUS
 62
     7
 10
5.5000000099999999
 20
7.875
 30
0.00000001
 11
5.5000000099999999
 21
8.0
 31
0.00000001
  0
ARC
  5
AD
  8
1
  6
CONTINUOUS
 62
     7
 10
3.3511271342968678
 20
10.437499999999989
 30
0.00000001
 40
0.0625
 50
90.000000000000057
 51
206.5650511770786
  0
ARC
  5
AE
  8
1
  6
CONTINUOUS
 62
     7
 10
3.4613728857031312
 20
10.437499999999989
 30
0.00000001
 40
0.0625
 50
26.565051177078601
 51
90.000000000000057
  0
ARC
  5
AF
  8
1
  6
CONTINUOUS
 62
     7
 10
5.1011271342968678
 20
8.4375
 30
0.00000001
 40
0.0625
 50
90.000000000000057
 51
206.56505117707741
  0
ARC
  5
B0
  8
1
  6
CONTINUOUS
 62
     7
 10
5.2113728857031321
 20
8.4375
 30
0.00000001
 40
0.0625
 50
26.565051177077979
 51
90.000000000000057
  0
ARC
  5
B1
  8
1
  6
CONTINUOUS
 62
     7
 10
4.0000000099999991
 20
7.8750000050000004
 30
0.00000001
 40
0.5153882032022076
 50
14.03624346792648
 51
165.96375653207349
  0
ARC
  5
B2
  8
1
  6
CONTINUOUS
 62
     7
 10
4.125
 20
6.625
 30
0.0
 40
0.125
 50
90.000000000000057
 51
180.0
  0
ARC
  5
B3
  8
1
  6
CONTINUOUS
 62
     7
 10
7.875
 20
6.625
 30
0.0
 40
0.125
 50
0.0
 51
90.000000000000057
  0
ARC
  5
B4
  8
1
  6
CONTINUOUS
 62
     7
 10
4.125
 20
4.125
 30
0.0
 40
0.125
 50
180.0
 51
270.0
  0
ARC
  5
B5
  8
1
  6
CONTINUOUS
 62
     7
 10
7.875
 20
4.125
 30
0.0
 40
0.125
 50
270.0
 51
0.0
  0
LINE
  5
B6
  8
1
  6
CONTINUOUS
 62
     7
 10
5.9375
 20
6.5
 30
0.0
 11
5.9375
 21
6.25
 31
0.0
  0
LINE
  5
B7
  8
1
  6
CONTINUOUS
 62
     7
 10
5.9375
 20
6.25
 30
0.0
 11
6.0625
 21
6.25
 31
0.0
  0
LINE
  5
B8
  8
1
  6
CONTINUOUS
 62
     7
 10
6.0625
 20
6.25
 30
0.0
 11
6.0625
 21
6.5
 31
0.0
  0
LINE
  5
B9
  8
1
  6
CONTINUOUS
 62
     7
 10
6.0625
 20
6.5
 30
0.0
 11
5.9375
 21
6.5
 31
0.0
  0
LINE
  5
BA
  8
1
  6
CONTINUOUS
 62
     7
 10
5.9375
 20
5.25
 30
0.0
 11
5.9375
 21
5.0
 31
0.0
  0
LINE
  5
BB
  8
1
  6
CONTINUOUS
 62
     7
 10
5.9375
 20
5.0
 30
0.0
 11
6.0625
 21
5.0
 31
0.0
  0
LINE
  5
BC
  8
1
  6
CONTINUOUS
 62
     7
 10
6.0625
 20
5.0
 30
0.0
 11
6.0625
 21
5.25
 31
0.0
  0
LINE
  5
BD
  8
1
  6
CONTINUOUS
 62
     7
 10
6.0625
 20
5.25
 30
0.0
 11
5.9375
 21
5.25
 31
0.0
  0
LINE
  5
BE
  8
1
  6
CONTINUOUS
 62
     7
 10
7.7672745851406262
 20
8.4654508497187475
 30
0.0
 11
8.0000000100000008
 21
8.0
 31
0.0
  0
LINE
  5
BF
  8
1
  6
CONTINUOUS
 62
     7
 10
7.2500000099999999
 20
8.0
 30
0.0
 11
6.0172745851406262
 21
10.46545084971874
 31
0.0
  0
LINE
  5
C0
  8
1
  6
CONTINUOUS
 62
     7
 10
5.7952254348593728
 20
10.409549150281251
 30
0.0
 11
6.2500000099999991
 21
9.5
 31
0.0
  0
LINE
  5
C1
  8
1
  6
CONTINUOUS
 62
     7
 10
5.9613728857031312
 20
10.5
 30
0.0
 11
5.8511271342968678
 21
10.5
 31
0.0
  0
ARC
  5
C2
  8
1
  6
CONTINUOUS
 62
     7
 10
4.8750000099999999
 20
9.125
 30
0.0
 40
1.425219281373922
 50
307.87498365109809
 51
15.25511870305772
  0
LINE
  5
C3
  8
1
  6
CONTINUOUS
 62
     7
 10
7.0000000099999999
 20
8.0
 30
0.0
 11
7.0000000099999999
 21
7.875
 31
0.0
  0
LINE
  5
C4
  8
1
  6
CONTINUOUS
 62
     7
 10
7.0000000099999999
 20
7.875
 30
0.0
 11
7.2500000099999999
 21
7.875
 31
0.0
  0
LINE
  5
C5
  8
1
  6
CONTINUOUS
 62
     7
 10
7.2500000099999999
 20
7.875
 30
0.0
 11
7.2500000099999999
 21
8.0
 31
0.0
  0
LINE
  5
C6
  8
1
  6
CONTINUOUS
 62
     7
 10
5.7500000099999999
 20
8.0
 30
0.0
 11
5.7500000099999999
 21
7.875
 31
0.0
  0
LINE
  5
C7
  8
1
  6
CONTINUOUS
 62
     7
 10
5.7500000099999999
 20
7.875
 30
0.0
 11
6.0000000099999999
 21
7.875
 31
0.0
  0
LINE
  5
C8
  8
1
  6
CONTINUOUS
 62
     7
 10
6.0000000099999999
 20
7.875
 30
0.0
 11
6.0000000099999999
 21
8.0
 31
0.0
  0
LINE
  5
C9
  8
1
  6
CONTINUOUS
 62
     7
 10
7.7500000099999999
 20
8.0
 30
0.0
 11
7.5452254348593728
 21
8.4095491502812525
 31
0.0
  0
LINE
  5
CA
  8
1
  6
CONTINUOUS
 62
     7
 10
7.6011271342968678
 20
8.5
 30
0.0
 11
7.7113728857031321
 21
8.5
 31
0.0
  0
LINE
  5
CB
  8
1
  6
CONTINUOUS
 62
     7
 10
7.7500000099999999
 20
8.0
 30
0.0
 11
7.7500000099999999
 21
7.875
 31
0.0
  0
LINE
  5
CC
  8
1
  6
CONTINUOUS
 62
     7
 10
7.7500000099999999
 20
7.875
 30
0.0
 11
8.0000000100000008
 21
7.875
 31
0.0
  0
LINE
  5
CD
  8
1
  6
CONTINUOUS
 62
     7
 10
8.0000000100000008
 20
7.875
 30
0.0
 11
8.0000000100000008
 21
8.0
 31
0.0
  0
ARC
  5
CE
  8
1
  6
CONTINUOUS
 62
     7
 10
5.8511271342968678
 20
10.437499999999989
 30
0.0
 40
0.0625
 50
90.000000000000057
 51
206.5650511770786
  0
ARC
  5
CF
  8
1
  6
CONTINUOUS
 62
     7
 10
5.9613728857031312
 20
10.437499999999989
 30
0.0
 40
0.0625
 50
26.565051177078601
 51
90.000000000000057
  0
ARC
  5
D0
  8
1
  6
CONTINUOUS
 62
     7
 10
7.6011271342968678
 20
8.4375
 30
0.0
 40
0.0625
 50
90.000000000000057
 51
206.56505117707741
  0
ARC
  5
D1
  8
1
  6
CONTINUOUS
 62
     7
 10
7.7113728857031321
 20
8.4375
 30
0.0
 40
0.0625
 50
26.565051177077979
 51
90.000000000000057
  0
ARC
  5
D2
  8
1
  6
CONTINUOUS
 62
     7
 10
6.5000000099999991
 20
7.8750000050000004
 30
0.0
 40
0.5153882032022076
 50
14.03624346792648
 51
165.96375653207349
  0
LINE
  5
D3
  8
1
  6
CONTINUOUS
 62
     7
 10
5.9375
 20
4.25
 30
0.0
 11
5.9375
 21
4.5
 31
0.0
  0
LINE
  5
D4
  8
1
  6
CONTINUOUS
 62
     7
 10
5.9375
 20
4.5
 30
0.0
 11
6.0625
 21
4.5
 31
0.0
  0
LINE
  5
D5
  8
1
  6
CONTINUOUS
 62
     7
 10
6.0625
 20
4.5
 30
0.0
 11
6.0625
 21
4.25
 31
0.0
  0
LINE
  5
D6
  8
1
  6
CONTINUOUS
 62
     7
 10
5.9375
 20
4.25
 30
0.0
 11
6.0625
 21
4.25
 31
0.0
  0
ENDSEC
  0
EOF
