  0
SECTION
  2
HEADER
  9
$ACADVER
  1
AC1018
  9
$ACADMAINTVER
 70
     0
  9
$DWGCODEPAGE
  3
ANSI_1251
  9
$INSBASE
 10
0.0
 20
0.0
 30
0.0
  9
$EXTMIN
 10
145.1931
 20
322.6071
 30
0.0
  9
$EXTMAX
 10
636.0505000000001
 20
611.864
 30
0.0
  9
$LIMMIN
 10
0.0
 20
0.0
  9
$LIMMAX
 10
12.0
 20
9.0
  9
$ORTHOMODE
 70
     0
  9
$REGENMODE
 70
     1
  9
$FILLMODE
 70
     1
  9
$QTEXTMODE
 70
     0
  9
$MIRRTEXT
 70
     1
  9
$LTSCALE
 40
1.0
  9
$ATTMODE
 70
     1
  9
$TEXTSIZE
 40
0.2
  9
$TRACEWID
 40
0.05
  9
$TEXTSTYLE
  7
Standard
  9
$CLAYER
  8
0
  9
$CELTYPE
  6
ByLayer
  9
$CECOLOR
 62
   256
  9
$CELTSCALE
 40
1.0
  9
$DISPSILH
 70
     0
  9
$DIMSCALE
 40
1.0
  9
$DIMASZ
 40
0.18
  9
$DIMEXO
 40
0.0625
  9
$DIMDLI
 40
0.38
  9
$DIMRND
 40
0.0
  9
$DIMDLE
 40
0.0
  9
$DIMEXE
 40
0.18
  9
$DIMTP
 40
0.0
  9
$DIMTM
 40
0.0
  9
$DIMTXT
 40
0.18
  9
$DIMCEN
 40
0.09
  9
$DIMTSZ
 40
0.0
  9
$DIMTOL
 70
     0
  9
$DIMLIM
 70
     0
  9
$DIMTIH
 70
     1
  9
$DIMTOH
 70
     1
  9
$DIMSE1
 70
     0
  9
$DIMSE2
 70
     0
  9
$DIMTAD
 70
     0
  9
$DIMZIN
 70
     0
  9
$DIMBLK
  1

  9
$DIMASO
 70
     1
  9
$DIMSHO
 70
     1
  9
$DIMPOST
  1

  9
$DIMAPOST
  1

  9
$DIMALT
 70
     0
  9
$DIMALTD
 70
     2
  9
$DIMALTF
 40
25.4
  9
$DIMLFAC
 40
1.0
  9
$DIMTOFL
 70
     0
  9
$DIMTVP
 40
0.0
  9
$DIMTIX
 70
     0
  9
$DIMSOXD
 70
     0
  9
$DIMSAH
 70
     0
  9
$DIMBLK1
  1

  9
$DIMBLK2
  1

  9
$DIMSTYLE
  2
Standard
  9
$DIMCLRD
 70
     0
  9
$DIMCLRE
 70
     0
  9
$DIMCLRT
 70
     0
  9
$DIMTFAC
 40
1.0
  9
$DIMGAP
 40
0.09
  9
$DIMJUST
 70
     0
  9
$DIMSD1
 70
     0
  9
$DIMSD2
 70
     0
  9
$DIMTOLJ
 70
     1
  9
$DIMTZIN
 70
     0
  9
$DIMALTZ
 70
     0
  9
$DIMALTTZ
 70
     0
  9
$DIMUPT
 70
     0
  9
$DIMDEC
 70
     4
  9
$DIMTDEC
 70
     4
  9
$DIMALTU
 70
     2
  9
$DIMALTTD
 70
     2
  9
$DIMTXSTY
  7
Standard
  9
$DIMAUNIT
 70
     0
  9
$DIMADEC
 70
     0
  9
$DIMALTRND
 40
0.0
  9
$DIMAZIN
 70
     0
  9
$DIMDSEP
 70
    46
  9
$DIMATFIT
 70
     3
  9
$DIMFRAC
 70
     0
  9
$DIMLDRBLK
  1

  9
$DIMLUNIT
 70
     2
  9
$DIMLWD
 70
    -2
  9
$DIMLWE
 70
    -2
  9
$DIMTMOVE
 70
     0
  9
$LUNITS
 70
     2
  9
$LUPREC
 70
     4
  9
$SKETCHINC
 40
0.1
  9
$FILLETRAD
 40
0.5
  9
$AUNITS
 70
     0
  9
$AUPREC
 70
     0
  9
$MENU
  1
.
  9
$ELEVATION
 40
0.0
  9
$PELEVATION
 40
0.0
  9
$THICKNESS
 40
0.0
  9
$LIMCHECK
 70
     0
  9
$CHAMFERA
 40
0.5
  9
$CHAMFERB
 40
0.5
  9
$CHAMFERC
 40
1.0
  9
$CHAMFERD
 40
0.0
  9
$SKPOLY
 70
     0
  9
$TDCREATE
 40
2456506.896771007
  9
$TDUCREATE
 40
2456506.771771007
  9
$TDUPDATE
 40
2456506.938437685
  9
$TDUUPDATE
 40
2456506.771771018
  9
$TDINDWG
 40
0.0000000116
  9
$TDUSRTIMER
 40
0.0000000116
  9
$USRTIMER
 70
     1
  9
$ANGBASE
 50
0.0
  9
$ANGDIR
 70
     0
  9
$PDMODE
 70
     0
  9
$PDSIZE
 40
0.0
  9
$PLINEWID
 40
0.0
  9
$SPLFRAME
 70
     0
  9
$SPLINETYPE
 70
     6
  9
$SPLINESEGS
 70
     8
  9
$HANDSEED
  5
173
  9
$SURFTAB1
 70
     6
  9
$SURFTAB2
 70
     6
  9
$SURFTYPE
 70
     6
  9
$SURFU
 70
     6
  9
$SURFV
 70
     6
  9
$UCSBASE
  2

  9
$UCSNAME
  2

  9
$UCSORG
 10
0.0
 20
0.0
 30
0.0
  9
$UCSXDIR
 10
1.0
 20
0.0
 30
0.0
  9
$UCSYDIR
 10
0.0
 20
1.0
 30
0.0
  9
$UCSORTHOREF
  2

  9
$UCSORTHOVIEW
 70
     0
  9
$UCSORGTOP
 10
0.0
 20
0.0
 30
0.0
  9
$UCSORGBOTTOM
 10
0.0
 20
0.0
 30
0.0
  9
$UCSORGLEFT
 10
0.0
 20
0.0
 30
0.0
  9
$UCSORGRIGHT
 10
0.0
 20
0.0
 30
0.0
  9
$UCSORGFRONT
 10
0.0
 20
0.0
 30
0.0
  9
$UCSORGBACK
 10
0.0
 20
0.0
 30
0.0
  9
$PUCSBASE
  2

  9
$PUCSNAME
  2

  9
$PUCSORG
 10
0.0
 20
0.0
 30
0.0
  9
$PUCSXDIR
 10
1.0
 20
0.0
 30
0.0
  9
$PUCSYDIR
 10
0.0
 20
1.0
 30
0.0
  9
$PUCSORTHOREF
  2

  9
$PUCSORTHOVIEW
 70
     0
  9
$PUCSORGTOP
 10
0.0
 20
0.0
 30
0.0
  9
$PUCSORGBOTTOM
 10
0.0
 20
0.0
 30
0.0
  9
$PUCSORGLEFT
 10
0.0
 20
0.0
 30
0.0
  9
$PUCSORGRIGHT
 10
0.0
 20
0.0
 30
0.0
  9
$PUCSORGFRONT
 10
0.0
 20
0.0
 30
0.0
  9
$PUCSORGBACK
 10
0.0
 20
0.0
 30
0.0
  9
$USERI1
 70
     0
  9
$USERI2
 70
     0
  9
$USERI3
 70
     0
  9
$USERI4
 70
     0
  9
$USERI5
 70
     0
  9
$USERR1
 40
0.0
  9
$USERR2
 40
0.0
  9
$USERR3
 40
0.0
  9
$USERR4
 40
0.0
  9
$USERR5
 40
0.0
  9
$WORLDVIEW
 70
     1
  9
$SHADEDGE
 70
     3
  9
$SHADEDIF
 70
    70
  9
$TILEMODE
 70
     1
  9
$MAXACTVP
 70
    64
  9
$PINSBASE
 10
0.0
 20
0.0
 30
0.0
  9
$PLIMCHECK
 70
     0
  9
$PEXTMIN
 10
1.000000000000000E 20
 20
1.000000000000000E 20
 30
1.000000000000000E 20
  9
$PEXTMAX
 10
-1.000000000000000E 20
 20
-1.000000000000000E 20
 30
-1.000000000000000E 20
  9
$PLIMMIN
 10
0.0
 20
0.0
  9
$PLIMMAX
 10
12.0
 20
9.0
  9
$UNITMODE
 70
     0
  9
$VISRETAIN
 70
     1
  9
$PLINEGEN
 70
     0
  9
$PSLTSCALE
 70
     1
  9
$TREEDEPTH
 70
  3020
  9
$CMLSTYLE
  2
Standard
  9
$CMLJUST
 70
     0
  9
$CMLSCALE
 40
1.0
  9
$PROXYGRAPHICS
 70
     1
  9
$MEASUREMENT
 70
     0
  9
$CELWEIGHT
370
    -1
  9
$ENDCAPS
280
     0
  9
$JOINSTYLE
280
     0
  9
$LWDISPLAY
290
     0
  9
$INSUNITS
 70
     4
  9
$HYPERLINKBASE
  1

  9
$STYLESHEET
  1

  9
$XEDIT
290
     1
  9
$CEPSNTYPE
380
     0
  9
$PSTYLEMODE
290
     0
  9
$FINGERPRINTGUID
  2
{FAEB1C30-E019-11D5-929B-00C0DF256EC4}
  9
$VERSIONGUID
  2
{FAEB1C32-E019-11D5-929B-00C0DF256EC4}
  9
$EXTNAMES
290
     1
  9
$PSVPSCALE
 40
0.0
  9
$OLESTARTUP
290
     0
  9
$SORTENTS
280
   127
  9
$INDEXCTL
280
     0
  9
$HIDETEXT
280
     1
  9
$XCLIPFRAME
290
     0
  9
$HALOGAP
280
     0
  9
$OBSCOLOR
 70
   257
  9
$OBSLTYPE
280
     0
  9
$INTERSECTIONDISPLAY
280
     0
  9
$INTERSECTIONCOLOR
 70
   257
  9
$DIMASSOC
280
     2
  9
$PROJECTNAME
  1

  0
ENDSEC
  0
SECTION
  2
CLASSES
  0
CLASS
  1
ACDBDICTIONARYWDFLT
  2
AcDbDictionaryWithDefault
  3
ObjectDBX Classes
 90
        0
 91
        1
280
     0
281
     0
  0
ENDSEC
  0
SECTION
  2
TABLES
  0
TABLE
  2
VPORT
  5
8
330
0
100
AcDbSymbolTable
 70
     2
  0
VPORT
  5
29
330
8
100
AcDbSymbolTableRecord
100
AcDbViewportTableRecord
  2
*Active
 70
     0
 10
0.0
 20
0.0
 11
1.0
 21
1.0
 12
10.42990654205607
 22
4.5
 13
0.0
 23
0.0
 14
0.5
 24
0.5
 15
0.5
 25
0.5
 16
0.0
 26
0.0
 36
1.0
 17
0.0
 27
0.0
 37
0.0
 40
9.0
 41
1.972972972850329
 42
50.0
 43
0.0
 44
0.0
 50
0.0
 51
0.0
 71
     0
 72
   100
 73
     1
 74
     3
 75
     0
 76
     0
 77
     0
 78
     0
281
     0
 65
     1
110
0.0
120
0.0
130
0.0
111
1.0
121
0.0
131
0.0
112
0.0
122
1.0
132
0.0
 79
     0
146
0.0
  0
ENDTAB
  0
TABLE
  2
LTYPE
  5
5
330
0
100
AcDbSymbolTable
 70
     1
  0
LTYPE
  5
14
330
5
100
AcDbSymbolTableRecord
100
AcDbLinetypeTableRecord
  2
ByBlock
 70
     0
  3

 72
    65
 73
     0
 40
0.0
  0
LTYPE
  5
15
330
5
100
AcDbSymbolTableRecord
100
AcDbLinetypeTableRecord
  2
ByLayer
 70
     0
  3

 72
    65
 73
     0
 40
0.0
  0
LTYPE
  5
16
330
5
100
AcDbSymbolTableRecord
100
AcDbLinetypeTableRecord
  2
Continuous
 70
     0
  3
Solid line
 72
    65
 73
     0
 40
0.0
  0
ENDTAB
  0
TABLE
  2
LAYER
  5
2
330
0
100
AcDbSymbolTable
 70
     2
  0
LAYER
  5
10
330
2
100
AcDbSymbolTableRecord
100
AcDbLayerTableRecord
  2
0
 70
     0
 62
     7
  6
Continuous
370
    -3
390
F
  0
LAYER
  5
2B
330
2
100
AcDbSymbolTableRecord
100
AcDbLayerTableRecord
  2
layer 1
 70
     0
 62
     7
  6
Continuous
370
    -3
390
F
  0
ENDTAB
  0
TABLE
  2
STYLE
  5
3
330
0
100
AcDbSymbolTable
 70
     1
  0
STYLE
  5
11
330
3
100
AcDbSymbolTableRecord
100
AcDbTextStyleTableRecord
  2
Standard
 70
     0
 40
0.0
 41
1.0
 50
0.0
 71
     0
 42
0.2
  3
txt
  4

  0
ENDTAB
  0
TABLE
  2
VIEW
  5
6
330
0
100
AcDbSymbolTable
 70
     0
  0
ENDTAB
  0
TABLE
  2
UCS
  5
7
330
0
100
AcDbSymbolTable
 70
     0
  0
ENDTAB
  0
TABLE
  2
APPID
  5
9
330
0
100
AcDbSymbolTable
 70
     2
  0
APPID
  5
12
330
9
100
AcDbSymbolTableRecord
100
AcDbRegAppTableRecord
  2
ACAD
 70
     0
  0
APPID
  5
2A
330
9
100
AcDbSymbolTableRecord
100
AcDbRegAppTableRecord
  2
ODA
 70
     0
  0
ENDTAB
  0
TABLE
  2
DIMSTYLE
  5
A
330
0
100
AcDbSymbolTable
 70
     1
100
AcDbDimStyleTable
  0
DIMSTYLE
105
27
330
A
100
AcDbSymbolTableRecord
100
AcDbDimStyleTableRecord
  2
Standard
 70
     0
340
11
  0
ENDTAB
  0
TABLE
  2
BLOCK_RECORD
  5
1
330
0
100
AcDbSymbolTable
 70
     1
  0
BLOCK_RECORD
  5
1F
330
1
100
AcDbSymbolTableRecord
100
AcDbBlockTableRecord
  2
*Model_Space
340
22
  0
BLOCK_RECORD
  5
1B
330
1
100
AcDbSymbolTableRecord
100
AcDbBlockTableRecord
  2
*Paper_Space
340
1E
  0
BLOCK_RECORD
  5
23
330
1
100
AcDbSymbolTableRecord
100
AcDbBlockTableRecord
  2
*Paper_Space0
340
26
  0
ENDTAB
  0
ENDSEC
  0
SECTION
  2
BLOCKS
  0
BLOCK
  5
20
330
1F
100
AcDbEntity
  8
0
100
AcDbBlockBegin
  2
*Model_Space
 70
     0
 71
     0
 10
0.0
 20
0.0
 30
0.0
  3
*Model_Space
  1

  0
ENDBLK
  5
21
330
1F
100
AcDbEntity
  8
0
100
AcDbBlockEnd
  0
BLOCK
  5
1C
330
1B
100
AcDbEntity
 67
     1
  8
0
100
AcDbBlockBegin
  2
*Paper_Space
 70
     0
 71
     0
 10
0.0
 20
0.0
 30
0.0
  3
*Paper_Space
  1

  0
ENDBLK
  5
1D
330
1B
100
AcDbEntity
 67
     1
  8
0
100
AcDbBlockEnd
  0
BLOCK
  5
24
330
23
100
AcDbEntity
  8
0
100
AcDbBlockBegin
  2
*Paper_Space0
 70
     0
 71
     0
 10
0.0
 20
0.0
 30
0.0
  3
*Paper_Space0
  1

  0
ENDBLK
  5
25
330
23
100
AcDbEntity
  8
0
100
AcDbBlockEnd
  0
ENDSEC
  0
SECTION
  2
ENTITIES
  0
SPLINE
  5
2C
330
1F
100
AcDbEntity
  8
layer 1
370
     5
100
AcDbSpline
210
0.0
220
0.0
230
1.0
 70
     8
 71
     3
 72
    32
 73
    28
 74
     0
 42
0.0000000001
 43
0.0000000001
 40
0.0
 40
0.0
 40
0.0
 40
0.0
 40
0.1428571428571429
 40
0.1428571428571429
 40
0.1428571428571429
 40
0.1428571428571429
 40
0.2857142857142857
 40
0.2857142857142857
 40
0.2857142857142857
 40
0.2857142857142857
 40
0.4285714285714286
 40
0.4285714285714286
 40
0.4285714285714286
 40
0.4285714285714286
 40
0.5714285714285714
 40
0.5714285714285714
 40
0.5714285714285714
 40
0.5714285714285714
 40
0.7142857142857142
 40
0.7142857142857142
 40
0.7142857142857142
 40
0.7142857142857142
 40
0.857142857142857
 40
0.857142857142857
 40
0.857142857142857
 40
0.857142857142857
 40
1.0
 40
1.0
 40
1.0
 40
1.0
 10
431.4009
 20
575.7222
 30
0.0
 10
434.1445
 20
575.2765000000001
 30
0.0
 10
437.7551
 20
576.5932
 30
0.0
 10
441.382
 20
579.619
 30
0.0
 10
441.382
 20
579.619
 30
0.0
 10
441.8759
 20
581.9459000000001
 30
0.0
 10
442.8379000000001
 20
583.8311
 30
0.0
 10
444.268
 20
585.274
 30
0.0
 10
444.268
 20
585.274
 30
0.0
 10
446.8549
 20
587.614
 30
0.0
 10
448.4799
 20
589.6419000000001
 30
0.0
 10
449.143
 20
591.3580000000001
 30
0.0
 10
449.143
 20
591.3580000000001
 30
0.0
 10
449.4701
 20
591.8296
 30
0.0
 10
449.978
 20
593.1626
 30
0.0
 10
450.6669
 20
595.3570000000001
 30
0.0
 10
450.6669
 20
595.3570000000001
 30
0.0
 10
451.201
 20
597.4064000000001
 30
0.0
 10
450.7058
 20
598.4239
 30
0.0
 10
449.767
 20
597.9100000000001
 30
0.0
 10
449.767
 20
597.9100000000001
 30
0.0
 10
439.9519
 20
590.188
 30
0.0
 10
433.27
 20
586.119
 30
0.0
 10
423.1689
 20
585.1180000000001
 30
0.0
 10
423.1689
 20
585.1180000000001
 30
0.0
 10
425.0929
 20
581.9200000000001
 30
0.0
 10
430.2878
 20
576.3699
 30
0.0
 10
434.7078
 20
572.8599
 30
0.0
  0
SPLINE
  5
2D
330
1F
100
AcDbEntity
  8
layer 1
370
     5
100
AcDbSpline
210
0.0
220
0.0
230
1.0
 70
    11
 71
     3
 72
    20
 73
    16
 74
     0
 42
0.0000000001
 43
0.0000000001
 40
0.0
 40
0.0
 40
0.0
 40
0.0
 40
0.25
 40
0.25
 40
0.25
 40
0.25
 40
0.5
 40
0.5
 40
0.5
 40
0.5
 40
0.75
 40
0.75
 40
0.75
 40
0.75
 40
1.0
 40
1.0
 40
1.0
 40
1.0
 10
449.0425
 20
596.0972
 30
0.0
 10
449.4567
 20
596.0972
 30
0.0
 10
449.7925
 20
595.7613
 30
0.0
 10
449.7925
 20
595.3472
 30
0.0
 10
449.7925
 20
595.3472
 30
0.0
 10
449.7925
 20
594.933
 30
0.0
 10
449.4567
 20
594.5972
 30
0.0
 10
449.0425
 20
594.5972
 30
0.0
 10
449.0425
 20
594.5972
 30
0.0
 10
448.6283
 20
594.5972
 30
0.0
 10
448.2925
 20
594.933
 30
0.0
 10
448.2925
 20
595.3472
 30
0.0
 10
448.2925
 20
595.3472
 30
0.0
 10
448.2925
 20
595.7613
 30
0.0
 10
448.6283
 20
596.0972
 30
0.0
 10
449.0425
 20
596.0972
 30
0.0
  0
SPLINE
  5
2E
330
1F
100
AcDbEntity
  8
layer 1
370
     5
100
AcDbSpline
210
0.0
220
0.0
230
1.0
 70
     8
 71
     3
 72
    12
 73
     8
 74
     0
 42
0.0000000001
 43
0.0000000001
 40
0.0
 40
0.0
 40
0.0
 40
0.0
 40
0.5
 40
0.5
 40
0.5
 40
0.5
 40
1.0
 40
1.0
 40
1.0
 40
1.0
 10
430.072
 20
601.1080000000001
 30
0.0
 10
435.506
 20
601.3419
 30
0.0
 10
439.5361
 20
600.5879
 30
0.0
 10
442.162
 20
598.846
 30
0.0
 10
442.162
 20
598.846
 30
0.0
 10
444.0771
 20
597.1234000000001
 30
0.0
 10
447.6846000000001
 20
597.7613
 30
0.0
 10
450.0037
 20
598.0103
 30
0.0
  0
SPLINE
  5
2F
330
1F
100
AcDbEntity
  8
layer 1
370
     5
100
AcDbSpline
210
0.0
220
0.0
230
1.0
 70
     8
 71
     3
 72
    16
 73
    12
 74
     0
 42
0.0000000001
 43
0.0000000001
 40
0.0
 40
0.0
 40
0.0
 40
0.0
 40
0.3333333333333333
 40
0.3333333333333333
 40
0.3333333333333333
 40
0.3333333333333333
 40
0.6666666666666666
 40
0.6666666666666666
 40
0.6666666666666666
 40
0.6666666666666666
 40
1.0
 40
1.0
 40
1.0
 40
1.0
 10
425.314
 20
589.9540000000001
 30
0.0
 10
428.8246
 20
589.9045
 30
0.0
 10
432.0227
 20
589.9045
 30
0.0
 10
434.9084
 20
589.9540000000001
 30
0.0
 10
434.9084
 20
589.9540000000001
 30
0.0
 10
435.0151
 20
590.5632000000001
 30
0.0
 10
435.002
 20
591.1481
 30
0.0
 10
434.8694
 20
591.7090000000001
 30
0.0
 10
434.8694
 20
591.7090000000001
 30
0.0
 10
431.9833
 20
591.7076000000001
 30
0.0
 10
428.9412
 20
591.7076000000001
 30
0.0
 10
425.743
 20
591.7090000000001
 30
0.0
  0
SPLINE
  5
30
330
1F
100
AcDbEntity
  8
layer 1
370
     5
100
AcDbSpline
210
0.0
220
0.0
230
1.0
 70
     8
 71
     3
 72
    20
 73
    16
 74
     0
 42
0.0000000001
 43
0.0000000001
 40
0.0
 40
0.0
 40
0.0
 40
0.0
 40
0.25
 40
0.25
 40
0.25
 40
0.25
 40
0.5
 40
0.5
 40
0.5
 40
0.5
 40
0.75
 40
0.75
 40
0.75
 40
0.75
 40
1.0
 40
1.0
 40
1.0
 40
1.0
 10
425.743
 20
591.7089000000001
 30
0.0
 10
426.7439
 20
594.6600000000001
 30
0.0
 10
428.187
 20
597.7931
 30
0.0
 10
430.072
 20
601.1080000000001
 30
0.0
 10
430.072
 20
601.1080000000001
 30
0.0
 10
435.7107
 20
607.6102000000001
 30
0.0
 10
447.7728
 20
607.1544
 30
0.0
 10
451.366
 20
598.6900000000001
 30
0.0
 10
451.366
 20
598.6900000000001
 30
0.0
 10
452.926
 20
594.192
 30
0.0
 10
453.394
 20
589.018
 30
0.0
 10
452.7803
 20
583.2665000000001
 30
0.0
 10
452.7803
 20
583.2665000000001
 30
0.0
 10
451.2489000000001
 20
579.7621
 30
0.0
 10
447.0619
 20
575.5713000000001
 30
0.0
 10
442.6878
 20
572.7509
 30
0.0
  0
SPLINE
  5
31
330
1F
100
AcDbEntity
  8
layer 1
370
     5
100
AcDbSpline
210
0.0
220
0.0
230
1.0
 70
     8
 71
     3
 72
     8
 73
     4
 74
     0
 42
0.0000000001
 43
0.0000000001
 40
0.0
 40
0.0
 40
0.0
 40
0.0
 40
1.0
 40
1.0
 40
1.0
 40
1.0
 10
425.314
 20
589.9540000000001
 30
0.0
 10
424.4499
 20
588.2919000000001
 30
0.0
 10
423.7348
 20
586.6800000000001
 30
0.0
 10
423.1689
 20
585.1179000000001
 30
0.0
  0
SPLINE
  5
32
330
1F
100
AcDbEntity
  8
layer 1
370
     5
100
AcDbSpline
210
0.0
220
0.0
230
1.0
 70
    11
 71
     3
 72
    20
 73
    16
 74
     0
 42
0.0000000001
 43
0.0000000001
 40
0.0
 40
0.0
 40
0.0
 40
0.0
 40
0.25
 40
0.25
 40
0.25
 40
0.25
 40
0.5
 40
0.5
 40
0.5
 40
0.5
 40
0.75
 40
0.75
 40
0.75
 40
0.75
 40
1.0
 40
1.0
 40
1.0
 40
1.0
 10
425.2174
 20
586.1489
 30
0.0
 10
425.5751
 20
586.8805
 30
0.0
 10
425.9834
 20
587.8708
 30
0.0
 10
426.4712
 20
589.4386000000001
 30
0.0
 10
426.4712
 20
589.4386000000001
 30
0.0
 10
426.7562
 20
589.4297
 30
0.0
 10
427.0504
 20
589.4255000000001
 30
0.0
 10
427.3533000000001
 20
589.4262
 30
0.0
 10
427.3533000000001
 20
589.4262
 30
0.0
 10
426.8329
 20
587.6886000000001
 30
0.0
 10
426.5953
 20
586.8469
 30
0.0
 10
426.3353
 20
586.3113000000001
 30
0.0
 10
426.3353
 20
586.3113000000001
 30
0.0
 10
425.8841000000001
 20
586.2282
 30
0.0
 10
425.5998
 20
586.1457
 30
0.0
 10
425.2174
 20
586.1489
 30
0.0
  0
SPLINE
  5
33
330
1F
100
AcDbEntity
  8
layer 1
370
     5
100
AcDbSpline
210
0.0
220
0.0
230
1.0
 70
    11
 71
     3
 72
    20
 73
    16
 74
     0
 42
0.0000000001
 43
0.0000000001
 40
0.0
 40
0.0
 40
0.0
 40
0.0
 40
0.25
 40
0.25
 40
0.25
 40
0.25
 40
0.5
 40
0.5
 40
0.5
 40
0.5
 40
0.75
 40
0.75
 40
0.75
 40
0.75
 40
1.0
 40
1.0
 40
1.0
 40
1.0
 10
428.0085
 20
586.6164
 30
0.0
 10
428.327
 20
587.2575000000001
 30
0.0
 10
428.6414
 20
588.0647
 30
0.0
 10
429.0757
 20
589.4386000000001
 30
0.0
 10
429.0757
 20
589.4386000000001
 30
0.0
 10
429.3295
 20
589.4308
 30
0.0
 10
429.5914
 20
589.4271
 30
0.0
 10
429.8611
 20
589.4277000000001
 30
0.0
 10
429.8611
 20
589.4277000000001
 30
0.0
 10
429.3978
 20
587.905
 30
0.0
 10
429.1801
 20
587.2716
 30
0.0
 10
428.9486
 20
586.8023000000001
 30
0.0
 10
428.9486
 20
586.8023000000001
 30
0.0
 10
428.5469
 20
586.7507000000001
 30
0.0
 10
428.4123
 20
586.6982
 30
0.0
 10
428.0085
 20
586.6164
 30
0.0
  0
SPLINE
  5
34
330
1F
100
AcDbEntity
  8
layer 1
370
     5
100
AcDbSpline
210
0.0
220
0.0
230
1.0
 70
    11
 71
     3
 72
    20
 73
    16
 74
     0
 42
0.0000000001
 43
0.0000000001
 40
0.0
 40
0.0
 40
0.0
 40
0.0
 40
0.25
 40
0.25
 40
0.25
 40
0.25
 40
0.5
 40
0.5
 40
0.5
 40
0.5
 40
0.75
 40
0.75
 40
0.75
 40
0.75
 40
1.0
 40
1.0
 40
1.0
 40
1.0
 10
430.512
 20
587.2293000000001
 30
0.0
 10
430.7946
 20
587.7409
 30
0.0
 10
431.0375
 20
588.3422000000001
 30
0.0
 10
431.4228
 20
589.4386000000001
 30
0.0
 10
431.4228
 20
589.4386000000001
 30
0.0
 10
431.648
 20
589.4324
 30
0.0
 10
431.8803
 20
589.4294
 30
0.0
 10
432.1196000000001
 20
589.4299
 30
0.0
 10
432.1196000000001
 20
589.4299
 30
0.0
 10
431.7085
 20
588.2148000000001
 30
0.0
 10
431.6334
 20
587.8304000000001
 30
0.0
 10
431.428
 20
587.4558000000001
 30
0.0
 10
431.428
 20
587.4558000000001
 30
0.0
 10
431.1071
 20
587.3372000000001
 30
0.0
 10
430.8176
 20
587.2497000000001
 30
0.0
 10
430.512
 20
587.2293000000001
 30
0.0
  0
SPLINE
  5
35
330
1F
100
AcDbEntity
  8
layer 1
370
     5
100
AcDbSpline
210
0.0
220
0.0
230
1.0
 70
     8
 71
     3
 72
    16
 73
    12
 74
     0
 42
0.0000000001
 43
0.0000000001
 40
0.0
 40
0.0
 40
0.0
 40
0.0
 40
0.3333333333333333
 40
0.3333333333333333
 40
0.3333333333333333
 40
0.3333333333333333
 40
0.6666666666666666
 40
0.6666666666666666
 40
0.6666666666666666
 40
0.6666666666666666
 40
1.0
 40
1.0
 40
1.0
 40
1.0
 10
454.228
 20
573.7757
 30
0.0
 10
455.619
 20
574.6987
 30
0.0
 10
457.2419
 20
577.4481000000001
 30
0.0
 10
458.581
 20
581.335
 30
0.0
 10
458.581
 20
581.335
 30
0.0
 10
458.8224
 20
581.8879000000001
 30
0.0
 10
457.8697
 20
582.2858
 30
0.0
 10
457.567
 20
581.764
 30
0.0
 10
457.567
 20
581.764
 30
0.0
 10
455.7209
 20
577.6431
 30
0.0
 10
453.478
 20
574.52
 30
0.0
 10
452.0481
 20
573.5711
 30
0.0
  0
SPLINE
  5
36
330
1F
100
AcDbEntity
  8
layer 1
370
     5
100
AcDbSpline
210
0.0
220
0.0
230
1.0
 70
     8
 71
     3
 72
     8
 73
     4
 74
     0
 42
0.0000000001
 43
0.0000000001
 40
0.0
 40
0.0
 40
0.0
 40
0.0
 40
1.0
 40
1.0
 40
1.0
 40
1.0
 10
409.48
 20
581.335
 30
0.0
 10
413.9073
 20
567.1507
 30
0.0
 10
465.1095
 20
569.2843
 30
0.0
 10
471.6713
 20
580.0807
 30
0.0
  0
SPLINE
  5
37
330
1F
100
AcDbEntity
  8
layer 1
370
     5
100
AcDbSpline
210
0.0
220
0.0
230
1.0
 70
     8
 71
     3
 72
    60
 73
    56
 74
     0
 42
0.0000000001
 43
0.0000000001
 40
0.0
 40
0.0
 40
0.0
 40
0.0
 40
0.0714285714285714
 40
0.0714285714285714
 40
0.0714285714285714
 40
0.0714285714285714
 40
0.1428571428571429
 40
0.1428571428571429
 40
0.1428571428571429
 40
0.1428571428571429
 40
0.2142857142857143
 40
0.2142857142857143
 40
0.2142857142857143
 40
0.2142857142857143
 40
0.2857142857142857
 40
0.2857142857142857
 40
0.2857142857142857
 40
0.2857142857142857
 40
0.3571428571428571
 40
0.3571428571428571
 40
0.3571428571428571
 40
0.3571428571428571
 40
0.4285714285714285
 40
0.4285714285714285
 40
0.4285714285714285
 40
0.4285714285714285
 40
0.4999999999999999
 40
0.4999999999999999
 40
0.4999999999999999
 40
0.4999999999999999
 40
0.5714285714285713
 40
0.5714285714285713
 40
0.5714285714285713
 40
0.5714285714285713
 40
0.6428571428571427
 40
0.6428571428571427
 40
0.6428571428571427
 40
0.6428571428571427
 40
0.7142857142857141
 40
0.7142857142857141
 40
0.7142857142857141
 40
0.7142857142857141
 40
0.7857142857142855
 40
0.7857142857142855
 40
0.7857142857142855
 40
0.7857142857142855
 40
0.8571428571428569
 40
0.8571428571428569
 40
0.8571428571428569
 40
0.8571428571428569
 40
0.9285714285714283
 40
0.9285714285714283
 40
0.9285714285714283
 40
0.9285714285714283
 40
1.0
 40
1.0
 40
1.0
 40
1.0
 10
426.2456
 20
495.3497
 30
0.0
 10
428.0259
 20
494.6139
 30
0.0
 10
429.7043000000001
 20
493.8046000000001
 30
0.0
 10
431.281
 20
492.922
 30
0.0
 10
431.281
 20
492.922
 30
0.0
 10
434.3359
 20
490.6731
 30
0.0
 10
437.937
 20
490.426
 30
0.0
 10
442.084
 20
492.181
 30
0.0
 10
442.084
 20
492.181
 30
0.0
 10
446.0229000000001
 20
493.9621
 30
0.0
 10
452.5359
 20
495.3532
 30
0.0
 10
461.6230000000001
 20
496.354
 30
0.0
 10
461.6230000000001
 20
496.354
 30
0.0
 10
466.7969000000001
 20
496.3539
 30
0.0
 10
468.8509
 20
498.278
 30
0.0
 10
467.785
 20
502.126
 30
0.0
 10
467.785
 20
502.126
 30
0.0
 10
457.8997
 20
523.4118
 30
0.0
 10
476.3771
 20
538.3416
 30
0.0
 10
472.0382
 20
557.9837
 30
0.0
 10
472.0382
 20
557.9837
 30
0.0
 10
470.4539
 20
565.1558
 30
0.0
 10
470.9607
 20
571.9036
 30
0.0
 10
471.6713
 20
580.0807
 30
0.0
 10
471.6713
 20
580.0807
 30
0.0
 10
471.2059
 20
580.1379000000001
 30
0.0
 10
470.7163000000001
 20
580.1333000000001
 30
0.0
 10
470.2027000000001
 20
580.0668000000001
 30
0.0
 10
470.2027000000001
 20
580.0668000000001
 30
0.0
 10
465.6589
 20
571.8484000000001
 30
0.0
 10
419.3941
 20
568.3282
 30
0.0
 10
411.1171
 20
581.2848
 30
0.0
 10
411.1171
 20
581.2848
 30
0.0
 10
410.6452000000001
 20
581.4004
 30
0.0
 10
410.0993
 20
581.4172
 30
0.0
 10
409.48
 20
581.335
 30
0.0
 10
409.48
 20
581.335
 30
0.0
 10
409.87
 20
577.331
 30
0.0
 10
409.74
 20
573.4830000000001
 30
0.0
 10
409.09
 20
569.7910000000001
 30
0.0
 10
409.09
 20
569.7910000000001
 30
0.0
 10
406.3219
 20
556.5602
 30
0.0
 10
408.1788
 20
540.7523
 30
0.0
 10
413.107
 20
528.3340000000001
 30
0.0
 10
413.107
 20
528.3340000000001
 30
0.0
 10
416.0524
 20
517.6718000000001
 30
0.0
 10
414.6536
 20
512.0478000000001
 30
0.0
 10
411.937
 20
502.0870000000001
 30
0.0
 10
411.937
 20
502.0870000000001
 30
0.0
 10
411.729
 20
500.4361
 30
0.0
 10
412.457
 20
499.383
 30
0.0
 10
414.121
 20
498.928
 30
0.0
 10
414.121
 20
498.928
 30
0.0
 10
416.877
 20
498.379
 30
0.0
 10
419.4726
 20
497.7141
 30
0.0
 10
421.9075
 20
496.9332
 30
0.0
  0
SPLINE
  5
38
330
1F
100
AcDbEntity
  8
layer 1
370
     5
100
AcDbSpline
210
0.0
220
0.0
230
1.0
 70
     8
 71
     3
 72
     8
 73
     4
 74
     0
 42
0.0000000001
 43
0.0000000001
 40
0.0
 40
0.0
 40
0.0
 40
0.0
 40
1.0
 40
1.0
 40
1.0
 40
1.0
 10
407.9441
 20
561.1779
 30
0.0
 10
402.0569
 20
559.5601
 30
0.0
 10
398.0839
 20
556.4901
 30
0.0
 10
396.025
 20
551.9680000000001
 30
0.0
  0
SPLINE
  5
39
330
1F
100
AcDbEntity
  8
layer 1
370
     5
100
AcDbSpline
210
0.0
220
0.0
230
1.0
 70
     8
 71
     3
 72
     8
 73
     4
 74
     0
 42
0.0000000001
 43
0.0000000001
 40
0.0
 40
0.0
 40
0.0
 40
0.0
 40
1.0
 40
1.0
 40
1.0
 40
1.0
 10
395.635
 20
546.859
 30
0.0
 10
396.207
 20
542.465
 30
0.0
 10
398.9615
 20
537.4934000000001
 30
0.0
 10
403.0956000000001
 20
534.7503
 30
0.0
  0
SPLINE
  5
3A
330
1F
100
AcDbEntity
  8
layer 1
370
     5
100
AcDbSpline
210
0.0
220
0.0
230
1.0
 70
     8
 71
     3
 72
     8
 73
     4
 74
     0
 42
0.0000000001
 43
0.0000000001
 40
0.0
 40
0.0
 40
0.0
 40
0.0
 40
1.0
 40
1.0
 40
1.0
 40
1.0
 10
396.025
 20
551.9680000000001
 30
0.0
 10
396.6839
 20
549.674
 30
0.0
 10
396.554
 20
547.9709
 30
0.0
 10
395.635
 20
546.859
 30
0.0
  0
SPLINE
  5
3B
330
1F
100
AcDbEntity
  8
layer 1
370
     5
100
AcDbSpline
210
0.0
220
0.0
230
1.0
 70
     8
 71
     3
 72
     8
 73
     4
 74
     0
 42
0.0000000001
 43
0.0000000001
 40
0.0
 40
0.0
 40
0.0
 40
0.0
 40
1.0
 40
1.0
 40
1.0
 40
1.0
 10
409.8725
 20
538.7775
 30
0.0
 10
374.1359
 20
516.907
 30
0.0
 10
337.138
 20
504.5139
 30
0.0
 10
297.3999
 20
492.0433
 30
0.0
  0
SPLINE
  5
3C
330
1F
100
AcDbEntity
  8
layer 1
370
     5
100
AcDbSpline
210
0.0
220
0.0
230
1.0
 70
     8
 71
     3
 72
    28
 73
    24
 74
     0
 42
0.0000000001
 43
0.0000000001
 40
0.0
 40
0.0
 40
0.0
 40
0.0
 40
0.1666666666666667
 40
0.1666666666666667
 40
0.1666666666666667
 40
0.1666666666666667
 40
0.3333333333333333
 40
0.3333333333333333
 40
0.3333333333333333
 40
0.3333333333333333
 40
0.5
 40
0.5
 40
0.5
 40
0.5
 40
0.6666666666666666
 40
0.6666666666666666
 40
0.6666666666666666
 40
0.6666666666666666
 40
0.8333333333333333
 40
0.8333333333333333
 40
0.8333333333333333
 40
0.8333333333333333
 40
1.0
 40
1.0
 40
1.0
 40
1.0
 10
278.284
 20
496.8610000000001
 30
0.0
 10
273.1359
 20
494.3781
 30
0.0
 10
270.4319
 20
491.609
 30
0.0
 10
270.172
 20
488.554
 30
0.0
 10
270.172
 20
488.554
 30
0.0
 10
269.2881
 20
485.8629
 30
0.0
 10
265.3617
 20
485.6936
 30
0.0
 10
264.595
 20
487.228
 30
0.0
 10
264.595
 20
487.228
 30
0.0
 10
263.5718
 20
489.4714
 30
0.0
 10
261.5588
 20
490.6715
 30
0.0
 10
260.149
 20
492.6101000000001
 30
0.0
 10
260.149
 20
492.6101000000001
 30
0.0
 10
258.979
 20
493.936
 30
0.0
 10
258.849
 20
495.574
 30
0.0
 10
259.759
 20
497.524
 30
0.0
 10
259.759
 20
497.524
 30
0.0
 10
260.201
 20
499.032
 30
0.0
 10
260.123
 20
500.488
 30
0.0
 10
259.525
 20
501.892
 30
0.0
 10
259.525
 20
501.892
 30
0.0
 10
258.745
 20
503.6470000000001
 30
0.0
 10
258.953
 20
505.012
 30
0.0
 10
260.149
 20
505.987
 30
0.0
  0
SPLINE
  5
3D
330
1F
100
AcDbEntity
  8
layer 1
370
     5
100
AcDbSpline
210
0.0
220
0.0
230
1.0
 70
     8
 71
     3
 72
    12
 73
     8
 74
     0
 42
0.0000000001
 43
0.0000000001
 40
0.0
 40
0.0
 40
0.0
 40
0.0
 40
0.5
 40
0.5
 40
0.5
 40
0.5
 40
1.0
 40
1.0
 40
1.0
 40
1.0
 10
283.2491
 20
492.2941
 30
0.0
 10
283.3478
 20
492.4218
 30
0.0
 10
283.4457
 20
492.5444
 30
0.0
 10
283.5422
 20
492.6619
 30
0.0
 10
283.5422
 20
492.6619
 30
0.0
 10
283.5481
 20
492.6691
 30
0.0
 10
283.554
 20
492.6764
 30
0.0
 10
283.5599
 20
492.6835
 30
0.0
  0
SPLINE
  5
3E
330
1F
100
AcDbEntity
  8
layer 1
370
     5
100
AcDbSpline
210
0.0
220
0.0
230
1.0
 70
     8
 71
     3
 72
    16
 73
    12
 74
     0
 42
0.0000000001
 43
0.0000000001
 40
0.0
 40
0.0
 40
0.0
 40
0.0
 40
0.3333333333333333
 40
0.3333333333333333
 40
0.3333333333333333
 40
0.3333333333333333
 40
0.6666666666666666
 40
0.6666666666666666
 40
0.6666666666666666
 40
0.6666666666666666
 40
1.0
 40
1.0
 40
1.0
 40
1.0
 10
290.0894
 20
496.6912
 30
0.0
 10
292.9308
 20
497.3607
 30
0.0
 10
295.4532
 20
499.008
 30
0.0
 10
297.656
 20
501.6329
 30
0.0
 10
297.656
 20
501.6329
 30
0.0
 10
297.7908
 20
501.7936
 30
0.0
 10
297.9245
 20
501.958
 30
0.0
 10
298.0569
 20
502.126
 30
0.0
 10
298.0569
 20
502.126
 30
0.0
 10
299.4479
 20
503.7531
 30
0.0
 10
301.5929
 20
504.8301
 30
0.0
 10
304.4922
 20
505.3569
 30
0.0
  0
SPLINE
  5
3F
330
1F
100
AcDbEntity
  8
layer 1
370
     5
100
AcDbSpline
210
0.0
220
0.0
230
1.0
 70
     8
 71
     3
 72
     8
 73
     4
 74
     0
 42
0.0000000001
 43
0.0000000001
 40
0.0
 40
0.0
 40
0.0
 40
0.0
 40
1.0
 40
1.0
 40
1.0
 40
1.0
 10
284.325
 20
493.5321
 30
0.0
 10
285.681
 20
494.8944
 30
0.0
 10
286.9699
 20
495.4372
 30
0.0
 10
288.9555
 20
496.3451
 30
0.0
  0
SPLINE
  5
40
330
1F
100
AcDbEntity
  8
layer 1
370
     5
100
AcDbSpline
210
0.0
220
0.0
230
1.0
 70
     8
 71
     3
 72
    16
 73
    12
 74
     0
 42
0.0000000001
 43
0.0000000001
 40
0.0
 40
0.0
 40
0.0
 40
0.0
 40
0.3333333333333333
 40
0.3333333333333333
 40
0.3333333333333333
 40
0.3333333333333333
 40
0.6666666666666666
 40
0.6666666666666666
 40
0.6666666666666666
 40
0.6666666666666666
 40
1.0
 40
1.0
 40
1.0
 40
1.0
 10
270.172
 20
488.554
 30
0.0
 10
270.9733
 20
486.4723
 30
0.0
 10
273.182
 20
484.7584000000001
 30
0.0
 10
275.2873
 20
486.5724
 30
0.0
 10
275.2873
 20
486.5724
 30
0.0
 10
275.8271
 20
486.971
 30
0.0
 10
276.655
 20
487.0589000000001
 30
0.0
 10
278.1576
 20
486.8433
 30
0.0
 10
278.1576
 20
486.8433
 30
0.0
 10
279.133
 20
486.9586000000001
 30
0.0
 10
280.3965
 20
487.8227
 30
0.0
 10
280.9825
 20
488.7717
 30
0.0
  0
SPLINE
  5
41
330
1F
100
AcDbEntity
  8
layer 1
370
     5
100
AcDbSpline
210
0.0
220
0.0
230
1.0
 70
     8
 71
     3
 72
     8
 73
     4
 74
     0
 42
0.0000000001
 43
0.0000000001
 40
0.0
 40
0.0
 40
0.0
 40
0.0
 40
1.0
 40
1.0
 40
1.0
 40
1.0
 10
279.3374
 20
500.9061
 30
0.0
 10
270.2634
 20
500.1781
 30
0.0
 10
268.1803
 20
497.7437000000001
 30
0.0
 10
265.3749
 20
490.348
 30
0.0
  0
SPLINE
  5
42
330
1F
100
AcDbEntity
  8
layer 1
370
     5
100
AcDbSpline
210
0.0
220
0.0
230
1.0
 70
     8
 71
     3
 72
     8
 73
     4
 74
     0
 42
0.0000000001
 43
0.0000000001
 40
0.0
 40
0.0
 40
0.0
 40
0.0
 40
1.0
 40
1.0
 40
1.0
 40
1.0
 10
283.4666
 20
518.8449000000001
 30
0.0
 10
279.4755
 20
512.878
 30
0.0
 10
274.033
 20
507.547
 30
0.0
 10
267.91
 20
503.608
 30
0.0
  0
SPLINE
  5
43
330
1F
100
AcDbEntity
  8
layer 1
370
     5
100
AcDbSpline
210
0.0
220
0.0
230
1.0
 70
     8
 71
     3
 72
     8
 73
     4
 74
     0
 42
0.0000000001
 43
0.0000000001
 40
0.0
 40
0.0
 40
0.0
 40
0.0
 40
1.0
 40
1.0
 40
1.0
 40
1.0
 10
268.469
 20
525.8451
 30
0.0
 10
268.6007
 20
523.6459
 30
0.0
 10
267.741
 20
522.3946
 30
0.0
 10
266.1792
 20
521.7744
 30
0.0
  0
SPLINE
  5
44
330
1F
100
AcDbEntity
  8
layer 1
370
     5
100
AcDbSpline
210
0.0
220
0.0
230
1.0
 70
     8
 71
     3
 72
     8
 73
     4
 74
     0
 42
0.0000000001
 43
0.0000000001
 40
0.0
 40
0.0
 40
0.0
 40
0.0
 40
1.0
 40
1.0
 40
1.0
 40
1.0
 10
272.0384
 20
532.2995000000001
 30
0.0
 10
272.4222
 20
529.6004
 30
0.0
 10
271.8378
 20
527.9482
 30
0.0
 10
270.2851
 20
527.3430000000001
 30
0.0
  0
SPLINE
  5
45
330
1F
100
AcDbEntity
  8
layer 1
370
     5
100
AcDbSpline
210
0.0
220
0.0
230
1.0
 70
     8
 71
     3
 72
     8
 73
     4
 74
     0
 42
0.0000000001
 43
0.0000000001
 40
0.0
 40
0.0
 40
0.0
 40
0.0
 40
1.0
 40
1.0
 40
1.0
 40
1.0
 10
275.7316
 20
537.2731
 30
0.0
 10
275.4961
 20
535.0791
 30
0.0
 10
274.8528
 20
533.7162000000001
 30
0.0
 10
273.8018
 20
533.1847
 30
0.0
  0
SPLINE
  5
46
330
1F
100
AcDbEntity
  8
layer 1
370
     5
100
AcDbSpline
210
0.0
220
0.0
230
1.0
 70
     8
 71
     3
 72
    60
 73
    56
 74
     0
 42
0.0000000001
 43
0.0000000001
 40
0.0
 40
0.0
 40
0.0
 40
0.0
 40
0.0714285714285714
 40
0.0714285714285714
 40
0.0714285714285714
 40
0.0714285714285714
 40
0.1428571428571429
 40
0.1428571428571429
 40
0.1428571428571429
 40
0.1428571428571429
 40
0.2142857142857143
 40
0.2142857142857143
 40
0.2142857142857143
 40
0.2142857142857143
 40
0.2857142857142857
 40
0.2857142857142857
 40
0.2857142857142857
 40
0.2857142857142857
 40
0.3571428571428571
 40
0.3571428571428571
 40
0.3571428571428571
 40
0.3571428571428571
 40
0.4285714285714285
 40
0.4285714285714285
 40
0.4285714285714285
 40
0.4285714285714285
 40
0.4999999999999999
 40
0.4999999999999999
 40
0.4999999999999999
 40
0.4999999999999999
 40
0.5714285714285713
 40
0.5714285714285713
 40
0.5714285714285713
 40
0.5714285714285713
 40
0.6428571428571427
 40
0.6428571428571427
 40
0.6428571428571427
 40
0.6428571428571427
 40
0.7142857142857141
 40
0.7142857142857141
 40
0.7142857142857141
 40
0.7142857142857141
 40
0.7857142857142855
 40
0.7857142857142855
 40
0.7857142857142855
 40
0.7857142857142855
 40
0.8571428571428569
 40
0.8571428571428569
 40
0.8571428571428569
 40
0.8571428571428569
 40
0.9285714285714283
 40
0.9285714285714283
 40
0.9285714285714283
 40
0.9285714285714283
 40
1.0
 40
1.0
 40
1.0
 40
1.0
 10
280.1358
 20
538.7979
 30
0.0
 10
279.6518
 20
537.3947000000001
 30
0.0
 10
278.5884
 20
537.0750000000001
 30
0.0
 10
276.9459
 20
537.8389000000001
 30
0.0
 10
276.9459
 20
537.8389000000001
 30
0.0
 10
275.8204
 20
538.3092
 30
0.0
 10
275.4627
 20
537.9434
 30
0.0
 10
275.8727
 20
536.7415
 30
0.0
 10
275.8727
 20
536.7415
 30
0.0
 10
276.9298
 20
533.5332000000001
 30
0.0
 10
276.9572
 20
530.4732
 30
0.0
 10
276.3409
 20
527.9619
 30
0.0
 10
276.3409
 20
527.9619
 30
0.0
 10
275.685
 20
530.1666
 30
0.0
 10
274.6237
 20
532.1950000000001
 30
0.0
 10
273.1573
 20
534.0469000000001
 30
0.0
 10
273.1573
 20
534.0469000000001
 30
0.0
 10
271.6421
 20
535.4372000000001
 30
0.0
 10
271.141
 20
535.2749
 30
0.0
 10
271.654
 20
533.5600000000001
 30
0.0
 10
271.654
 20
533.5600000000001
 30
0.0
 10
272.9005
 20
529.7543000000001
 30
0.0
 10
273.4349
 20
525.8361
 30
0.0
 10
272.087
 20
522.7263
 30
0.0
 10
272.087
 20
522.7263
 30
0.0
 10
271.958
 20
528.5202000000001
 30
0.0
 10
266.991
 20
529.0982
 30
0.0
 10
268.0481
 20
526.8057
 30
0.0
 10
268.0481
 20
526.8057
 30
0.0
 10
269.5343
 20
523.6903
 30
0.0
 10
269.736
 20
520.8355
 30
0.0
 10
268.653
 20
518.2417
 30
0.0
 10
268.653
 20
518.2417
 30
0.0
 10
268.1065
 20
522.1028
 30
0.0
 10
265.4594
 20
522.6054
 30
0.0
 10
264.751
 20
520.6900000000001
 30
0.0
 10
264.751
 20
520.6900000000001
 30
0.0
 10
264.1591
 20
517.2899
 30
0.0
 10
262.0469
 20
513.9300000000001
 30
0.0
 10
256.834
 20
510.199
 30
0.0
 10
256.834
 20
510.199
 30
0.0
 10
252.3359
 20
507.079
 30
0.0
 10
250.3339
 20
504.6350000000001
 30
0.0
 10
250.828
 20
502.867
 30
0.0
 10
250.828
 20
502.867
 30
0.0
 10
257.5619
 20
506.78
 30
0.0
 10
263.256
 20
507.027
 30
0.0
 10
267.91
 20
503.608
 30
0.0
 10
267.91
 20
503.608
 30
0.0
 10
268.248
 20
501.6191
 30
0.0
 10
267.962
 20
500.28
 30
0.0
 10
267.052
 20
499.591
 30
0.0
 10
267.052
 20
499.591
 30
0.0
 10
264.686
 20
498.265
 30
0.0
 10
263.516
 20
496.107
 30
0.0
 10
263.542
 20
493.117
 30
0.0
  0
SPLINE
  5
47
330
1F
100
AcDbEntity
  8
layer 1
370
     5
100
AcDbSpline
210
0.0
220
0.0
230
1.0
 70
     8
 71
     3
 72
    36
 73
    32
 74
     0
 42
0.0000000001
 43
0.0000000001
 40
0.0
 40
0.0
 40
0.0
 40
0.0
 40
0.125
 40
0.125
 40
0.125
 40
0.125
 40
0.25
 40
0.25
 40
0.25
 40
0.25
 40
0.375
 40
0.375
 40
0.375
 40
0.375
 40
0.5
 40
0.5
 40
0.5
 40
0.5
 40
0.625
 40
0.625
 40
0.625
 40
0.625
 40
0.75
 40
0.75
 40
0.75
 40
0.75
 40
0.875
 40
0.875
 40
0.875
 40
0.875
 40
1.0
 40
1.0
 40
1.0
 40
1.0
 10
276.9459
 20
537.8389000000001
 30
0.0
 10
277.9309
 20
537.2825
 30
0.0
 10
278.585
 20
536.4802000000001
 30
0.0
 10
278.908
 20
535.432
 30
0.0
 10
278.908
 20
535.432
 30
0.0
 10
280.1074
 20
536.0048000000001
 30
0.0
 10
280.4679
 20
537.4081
 30
0.0
 10
279.9898
 20
539.6419000000001
 30
0.0
 10
279.9898
 20
539.6419000000001
 30
0.0
 10
279.8725
 20
540.981
 30
0.0
 10
280.406
 20
541.5493
 30
0.0
 10
281.5899
 20
541.3469
 30
0.0
 10
281.5899
 20
541.3469
 30
0.0
 10
282.7151
 20
541.1641000000001
 30
0.0
 10
283.4111
 20
541.2946000000001
 30
0.0
 10
283.6777
 20
541.7389000000001
 30
0.0
 10
283.6777
 20
541.7389000000001
 30
0.0
 10
288.9039
 20
549.258
 30
0.0
 10
296.3136
 20
554.6003000000001
 30
0.0
 10
305.116
 20
557.1549
 30
0.0
 10
305.116
 20
557.1549
 30
0.0
 10
309.2109
 20
558.6890000000001
 30
0.0
 10
310.4198
 20
561.3150000000001
 30
0.0
 10
308.743
 20
565.033
 30
0.0
 10
308.743
 20
565.033
 30
0.0
 10
308.5042
 20
565.5756
 30
0.0
 10
308.8583
 20
565.591
 30
0.0
 10
309.8052
 20
565.0792
 30
0.0
 10
309.8052
 20
565.0792
 30
0.0
 10
315.2225
 20
561.2963
 30
0.0
 10
315.7668
 20
547.3594000000001
 30
0.0
 10
311.824
 20
542.2570000000001
 30
0.0
  0
SPLINE
  5
48
330
1F
100
AcDbEntity
  8
layer 1
370
     5
100
AcDbSpline
210
0.0
220
0.0
230
1.0
 70
    11
 71
     3
 72
    20
 73
    16
 74
     0
 42
0.0000000001
 43
0.0000000001
 40
0.0
 40
0.0
 40
0.0
 40
0.0
 40
0.25
 40
0.25
 40
0.25
 40
0.25
 40
0.5
 40
0.5
 40
0.5
 40
0.5
 40
0.75
 40
0.75
 40
0.75
 40
0.75
 40
1.0
 40
1.0
 40
1.0
 40
1.0
 10
284.953
 20
528.2169
 30
0.0
 10
282.795
 20
528.542
 30
0.0
 10
282.197
 20
529.985
 30
0.0
 10
283.159
 20
532.5460000000001
 30
0.0
 10
283.159
 20
532.5460000000001
 30
0.0
 10
284.069
 20
535.458
 30
0.0
 10
285.7589
 20
538.1619000000001
 30
0.0
 10
288.229
 20
540.658
 30
0.0
 10
288.229
 20
540.658
 30
0.0
 10
296.32
 20
546.7324
 30
0.0
 10
304.0737
 20
538.1560000000001
 30
0.0
 10
297.511
 20
531.181
 30
0.0
 10
297.511
 20
531.181
 30
0.0
 10
294.157
 20
528.5812000000001
 30
0.0
 10
289.971
 20
527.5931000000001
 30
0.0
 10
284.953
 20
528.2169
 30
0.0
  0
SPLINE
  5
49
330
1F
100
AcDbEntity
  8
layer 1
370
     5
100
AcDbSpline
210
0.0
220
0.0
230
1.0
 70
     8
 71
     3
 72
     8
 73
     4
 74
     0
 42
0.0000000001
 43
0.0000000001
 40
0.0
 40
0.0
 40
0.0
 40
0.0
 40
1.0
 40
1.0
 40
1.0
 40
1.0
 10
283.6777
 20
541.7389000000001
 30
0.0
 10
280.4633
 20
528.2654
 30
0.0
 10
277.9563
 20
523.1617
 30
0.0
 10
267.598
 20
515.035
 30
0.0
  0
SPLINE
  5
4A
330
1F
100
AcDbEntity
  8
layer 1
370
     5
100
AcDbSpline
210
0.0
220
0.0
230
1.0
 70
     8
 71
     3
 72
    12
 73
     8
 74
     0
 42
0.0000000001
 43
0.0000000001
 40
0.0
 40
0.0
 40
0.0
 40
0.0
 40
0.5
 40
0.5
 40
0.5
 40
0.5
 40
1.0
 40
1.0
 40
1.0
 40
1.0
 10
280.117
 20
521.938
 30
0.0
 10
285.0097
 20
514.1757
 30
0.0
 10
298.9616
 20
517.9755
 30
0.0
 10
304.6969
 20
522.4801
 30
0.0
 10
304.6969
 20
522.4801
 30
0.0
 10
312.7758
 20
528.8258000000001
 30
0.0
 10
314.3585
 20
537.8231000000001
 30
0.0
 10
309.445
 20
549.472
 30
0.0
  0
SPLINE
  5
4B
330
1F
100
AcDbEntity
  8
layer 1
370
     5
100
AcDbSpline
210
0.0
220
0.0
230
1.0
 70
     8
 71
     3
 72
    16
 73
    12
 74
     0
 42
0.0000000001
 43
0.0000000001
 40
0.0
 40
0.0
 40
0.0
 40
0.0
 40
0.3333333333333333
 40
0.3333333333333333
 40
0.3333333333333333
 40
0.3333333333333333
 40
0.6666666666666666
 40
0.6666666666666666
 40
0.6666666666666666
 40
0.6666666666666666
 40
1.0
 40
1.0
 40
1.0
 40
1.0
 10
284.9828
 20
536.5533
 30
0.0
 10
287.2933
 20
543.4157
 30
0.0
 10
292.5927
 20
547.8705
 30
0.0
 10
299.344
 20
549.8620000000001
 30
0.0
 10
299.344
 20
549.8620000000001
 30
0.0
 10
303.8231
 20
551.0515
 30
0.0
 10
306.4487
 20
552.5781000000001
 30
0.0
 10
309.445
 20
554.971
 30
0.0
 10
309.445
 20
554.971
 30
0.0
 10
310.416
 20
547.293
 30
0.0
 10
307.209
 20
541.659
 30
0.0
 10
299.8236
 20
538.0689
 30
0.0
  0
SPLINE
  5
4C
330
1F
100
AcDbEntity
  8
layer 1
370
     5
100
AcDbSpline
210
0.0
220
0.0
230
1.0
 70
     8
 71
     3
 72
     8
 73
     4
 74
     0
 42
0.0000000001
 43
0.0000000001
 40
0.0
 40
0.0
 40
0.0
 40
0.0
 40
1.0
 40
1.0
 40
1.0
 40
1.0
 10
304.5588
 20
541.1270000000001
 30
0.0
 10
309.0901
 20
534.9285
 30
0.0
 10
309.9296
 20
529.4257
 30
0.0
 10
307.077
 20
524.6184000000001
 30
0.0
  0
SPLINE
  5
4D
330
1F
100
AcDbEntity
  8
layer 1
370
     5
100
AcDbSpline
210
0.0
220
0.0
230
1.0
 70
     8
 71
     3
 72
     8
 73
     4
 74
     0
 42
0.0000000001
 43
0.0000000001
 40
0.0
 40
0.0
 40
0.0
 40
0.0
 40
1.0
 40
1.0
 40
1.0
 40
1.0
 10
278.8005
 20
527.2431
 30
0.0
 10
289.2584
 20
521.183
 30
0.0
 10
304.9087
 20
525.4476000000001
 30
0.0
 10
302.7482
 20
539.7429000000001
 30
0.0
  0
SPLINE
  5
4E
330
1F
100
AcDbEntity
  8
layer 1
370
     5
100
AcDbSpline
210
0.0
220
0.0
230
1.0
 70
     8
 71
     3
 72
     8
 73
     4
 74
     0
 42
0.0000000001
 43
0.0000000001
 40
0.0
 40
0.0
 40
0.0
 40
0.0
 40
1.0
 40
1.0
 40
1.0
 40
1.0
 10
301.4518
 20
520.451
 30
0.0
 10
295.9509
 20
513.6441
 30
0.0
 10
289.1254
 20
507.1457
 30
0.0
 10
280.975
 20
500.956
 30
0.0
  0
SPLINE
  5
4F
330
1F
100
AcDbEntity
  8
layer 1
370
     5
100
AcDbSpline
210
0.0
220
0.0
230
1.0
 70
     8
 71
     3
 72
     8
 73
     4
 74
     0
 42
0.0000000001
 43
0.0000000001
 40
0.0
 40
0.0
 40
0.0
 40
0.0
 40
1.0
 40
1.0
 40
1.0
 40
1.0
 10
284.6651
 20
496.478
 30
0.0
 10
296.9924
 20
506.7661000000001
 30
0.0
 10
309.0282
 20
519.5068
 30
0.0
 10
314.82
 20
534.6576
 30
0.0
  0
SPLINE
  5
50
330
1F
100
AcDbEntity
  8
layer 1
370
     5
100
AcDbSpline
210
0.0
220
0.0
230
1.0
 70
    11
 71
     3
 72
    20
 73
    16
 74
     0
 42
0.0000000001
 43
0.0000000001
 40
0.0
 40
0.0
 40
0.0
 40
0.0
 40
0.25
 40
0.25
 40
0.25
 40
0.25
 40
0.5
 40
0.5
 40
0.5
 40
0.5
 40
0.75
 40
0.75
 40
0.75
 40
0.75
 40
1.0
 40
1.0
 40
1.0
 40
1.0
 10
281.677
 20
501.008
 30
0.0
 10
283.4716
 20
501.008
 30
0.0
 10
284.927
 20
499.5526
 30
0.0
 10
284.927
 20
497.758
 30
0.0
 10
284.927
 20
497.758
 30
0.0
 10
284.927
 20
495.9634
 30
0.0
 10
283.4716
 20
494.508
 30
0.0
 10
281.677
 20
494.508
 30
0.0
 10
281.677
 20
494.508
 30
0.0
 10
279.8824
 20
494.508
 30
0.0
 10
278.427
 20
495.9634
 30
0.0
 10
278.427
 20
497.758
 30
0.0
 10
278.427
 20
497.758
 30
0.0
 10
278.427
 20
499.5526
 30
0.0
 10
279.8824
 20
501.008
 30
0.0
 10
281.677
 20
501.008
 30
0.0
  0
SPLINE
  5
51
330
1F
100
AcDbEntity
  8
layer 1
370
     5
100
AcDbSpline
210
0.0
220
0.0
230
1.0
 70
     8
 71
     3
 72
     8
 73
     4
 74
     0
 42
0.0000000001
 43
0.0000000001
 40
0.0
 40
0.0
 40
0.0
 40
0.0
 40
1.0
 40
1.0
 40
1.0
 40
1.0
 10
276.9035
 20
510.8775
 30
0.0
 10
279.4575
 20
508.2668000000001
 30
0.0
 10
281.4481
 20
505.4489
 30
0.0
 10
282.8751
 20
502.4235000000001
 30
0.0
  0
SPLINE
  5
52
330
1F
100
AcDbEntity
  8
layer 1
370
     5
100
AcDbSpline
210
0.0
220
0.0
230
1.0
 70
     8
 71
     3
 72
     8
 73
     4
 74
     0
 42
0.0000000001
 43
0.0000000001
 40
0.0
 40
0.0
 40
0.0
 40
0.0
 40
1.0
 40
1.0
 40
1.0
 40
1.0
 10
274.4092
 20
508.5324000000001
 30
0.0
 10
277.1121
 20
504.9286
 30
0.0
 10
278.8476
 20
502.1744000000001
 30
0.0
 10
279.615
 20
500.2699
 30
0.0
  0
SPLINE
  5
53
330
1F
100
AcDbEntity
  8
layer 1
370
     5
100
AcDbSpline
210
0.0
220
0.0
230
1.0
 70
     8
 71
     3
 72
     8
 73
     4
 74
     0
 42
0.0000000001
 43
0.0000000001
 40
0.0
 40
0.0
 40
0.0
 40
0.0
 40
1.0
 40
1.0
 40
1.0
 40
1.0
 10
316.309
 20
513.202
 30
0.0
 10
311.2628
 20
505.4308
 30
0.0
 10
304.6609
 20
503.426
 30
0.0
 10
296.5034
 20
507.1876
 30
0.0
  0
SPLINE
  5
54
330
1F
100
AcDbEntity
  8
layer 1
370
     5
100
AcDbSpline
210
0.0
220
0.0
230
1.0
 70
    11
 71
     3
 72
    20
 73
    16
 74
     0
 42
0.0000000001
 43
0.0000000001
 40
0.0
 40
0.0
 40
0.0
 40
0.0
 40
0.25
 40
0.25
 40
0.25
 40
0.25
 40
0.5
 40
0.5
 40
0.5
 40
0.5
 40
0.75
 40
0.75
 40
0.75
 40
0.75
 40
1.0
 40
1.0
 40
1.0
 40
1.0
 10
281.677
 20
499.508
 30
0.0
 10
282.6433
 20
499.508
 30
0.0
 10
283.427
 20
498.7243
 30
0.0
 10
283.427
 20
497.758
 30
0.0
 10
283.427
 20
497.758
 30
0.0
 10
283.427
 20
496.7917000000001
 30
0.0
 10
282.6433
 20
496.008
 30
0.0
 10
281.677
 20
496.008
 30
0.0
 10
281.677
 20
496.008
 30
0.0
 10
280.7107
 20
496.008
 30
0.0
 10
279.927
 20
496.7917000000001
 30
0.0
 10
279.927
 20
497.758
 30
0.0
 10
279.927
 20
497.758
 30
0.0
 10
279.927
 20
498.7243
 30
0.0
 10
280.7107
 20
499.508
 30
0.0
 10
281.677
 20
499.508
 30
0.0
  0
SPLINE
  5
55
330
1F
100
AcDbEntity
  8
layer 1
370
     5
100
AcDbSpline
210
0.0
220
0.0
230
1.0
 70
    11
 71
     3
 72
    20
 73
    16
 74
     0
 42
0.0000000001
 43
0.0000000001
 40
0.0
 40
0.0
 40
0.0
 40
0.0
 40
0.25
 40
0.25
 40
0.25
 40
0.25
 40
0.5
 40
0.5
 40
0.5
 40
0.5
 40
0.75
 40
0.75
 40
0.75
 40
0.75
 40
1.0
 40
1.0
 40
1.0
 40
1.0
 10
315.1953
 20
543.0471
 30
0.0
 10
316.8104
 20
543.0471
 30
0.0
 10
318.1203
 20
541.7372
 30
0.0
 10
318.1203
 20
540.1221000000001
 30
0.0
 10
318.1203
 20
540.1221000000001
 30
0.0
 10
318.1203
 20
538.5070000000001
 30
0.0
 10
316.8104
 20
537.1971
 30
0.0
 10
315.1953
 20
537.1971
 30
0.0
 10
315.1953
 20
537.1971
 30
0.0
 10
313.5802
 20
537.1971
 30
0.0
 10
312.2703
 20
538.5070000000001
 30
0.0
 10
312.2703
 20
540.1221000000001
 30
0.0
 10
312.2703
 20
540.1221000000001
 30
0.0
 10
312.2703
 20
541.7372
 30
0.0
 10
313.5802
 20
543.0471
 30
0.0
 10
315.1953
 20
543.0471
 30
0.0
  0
SPLINE
  5
56
330
1F
100
AcDbEntity
  8
layer 1
370
     5
100
AcDbSpline
210
0.0
220
0.0
230
1.0
 70
    11
 71
     3
 72
    20
 73
    16
 74
     0
 42
0.0000000001
 43
0.0000000001
 40
0.0
 40
0.0
 40
0.0
 40
0.0
 40
0.25
 40
0.25
 40
0.25
 40
0.25
 40
0.5
 40
0.5
 40
0.5
 40
0.5
 40
0.75
 40
0.75
 40
0.75
 40
0.75
 40
1.0
 40
1.0
 40
1.0
 40
1.0
 10
315.1953
 20
541.6971
 30
0.0
 10
316.065
 20
541.6971
 30
0.0
 10
316.7703
 20
540.9918
 30
0.0
 10
316.7703
 20
540.1221000000001
 30
0.0
 10
316.7703
 20
540.1221000000001
 30
0.0
 10
316.7703
 20
539.2524000000001
 30
0.0
 10
316.065
 20
538.5471
 30
0.0
 10
315.1953
 20
538.5471
 30
0.0
 10
315.1953
 20
538.5471
 30
0.0
 10
314.3256
 20
538.5471
 30
0.0
 10
313.6203
 20
539.2524000000001
 30
0.0
 10
313.6203
 20
540.1221000000001
 30
0.0
 10
313.6203
 20
540.1221000000001
 30
0.0
 10
313.6203
 20
540.9918
 30
0.0
 10
314.3256
 20
541.6971
 30
0.0
 10
315.1953
 20
541.6971
 30
0.0
  0
SPLINE
  5
57
330
1F
100
AcDbEntity
  8
layer 1
370
     5
100
AcDbSpline
210
0.0
220
0.0
230
1.0
 70
     8
 71
     3
 72
     8
 73
     4
 74
     0
 42
0.0000000001
 43
0.0000000001
 40
0.0
 40
0.0
 40
0.0
 40
0.0
 40
1.0
 40
1.0
 40
1.0
 40
1.0
 10
314.3939
 20
537.3083
 30
0.0
 10
315.3729
 20
532.1301
 30
0.0
 10
316.0112
 20
524.0946
 30
0.0
 10
316.309
 20
513.202
 30
0.0
  0
SPLINE
  5
58
330
1F
100
AcDbEntity
  8
layer 1
370
     5
100
AcDbSpline
210
0.0
220
0.0
230
1.0
 70
     8
 71
     3
 72
     8
 73
     4
 74
     0
 42
0.0000000001
 43
0.0000000001
 40
0.0
 40
0.0
 40
0.0
 40
0.0
 40
1.0
 40
1.0
 40
1.0
 40
1.0
 10
316.9469
 20
537.7796000000001
 30
0.0
 10
318.9609
 20
524.6939
 30
0.0
 10
319.4244
 20
516.0333000000001
 30
0.0
 10
318.337
 20
511.798
 30
0.0
  0
SPLINE
  5
59
330
1F
100
AcDbEntity
  8
layer 1
370
     5
100
AcDbSpline
210
0.0
220
0.0
230
1.0
 70
     8
 71
     3
 72
     8
 73
     4
 74
     0
 42
0.0000000001
 43
0.0000000001
 40
0.0
 40
0.0
 40
0.0
 40
0.0
 40
1.0
 40
1.0
 40
1.0
 40
1.0
 10
320.1386
 20
554.715
 30
0.0
 10
319.5864
 20
549.2513
 30
0.0
 10
318.6229
 20
545.039
 30
0.0
 10
317.2635
 20
542.1902
 30
0.0
  0
SPLINE
  5
5A
330
1F
100
AcDbEntity
  8
layer 1
370
     5
100
AcDbSpline
210
0.0
220
0.0
230
1.0
 70
     8
 71
     3
 72
     8
 73
     4
 74
     0
 42
0.0000000001
 43
0.0000000001
 40
0.0
 40
0.0
 40
0.0
 40
0.0
 40
1.0
 40
1.0
 40
1.0
 40
1.0
 10
318.1161
 20
552.7603
 30
0.0
 10
316.9584
 20
547.4422000000001
 30
0.0
 10
315.874
 20
544.1981000000001
 30
0.0
 10
314.8626
 20
543.0283000000001
 30
0.0
  0
SPLINE
  5
5B
330
1F
100
AcDbEntity
  8
layer 1
370
     5
100
AcDbSpline
210
0.0
220
0.0
230
1.0
 70
     8
 71
     3
 72
     8
 73
     4
 74
     0
 42
0.0000000001
 43
0.0000000001
 40
0.0
 40
0.0
 40
0.0
 40
0.0
 40
1.0
 40
1.0
 40
1.0
 40
1.0
 10
281.0247
 20
494.5735
 30
0.0
 10
280.6445
 20
489.9108000000001
 30
0.0
 10
281.0396
 20
486.0612
 30
0.0
 10
282.2102
 20
483.0251
 30
0.0
  0
SPLINE
  5
5C
330
1F
100
AcDbEntity
  8
layer 1
370
     5
100
AcDbSpline
210
0.0
220
0.0
230
1.0
 70
     8
 71
     3
 72
     8
 73
     4
 74
     0
 42
0.0000000001
 43
0.0000000001
 40
0.0
 40
0.0
 40
0.0
 40
0.0
 40
1.0
 40
1.0
 40
1.0
 40
1.0
 10
283.1891
 20
494.8805
 30
0.0
 10
283.2254
 20
490.6798
 30
0.0
 10
283.5655
 20
486.9749000000001
 30
0.0
 10
284.1915
 20
484.407
 30
0.0
  0
SPLINE
  5
5D
330
1F
100
AcDbEntity
  8
layer 1
370
     5
100
AcDbSpline
210
0.0
220
0.0
230
1.0
 70
     8
 71
     3
 72
     8
 73
     4
 74
     0
 42
0.0000000001
 43
0.0000000001
 40
0.0
 40
0.0
 40
0.0
 40
0.0
 40
1.0
 40
1.0
 40
1.0
 40
1.0
 10
286.4808
 20
498.0135
 30
0.0
 10
288.6809
 20
497.1356
 30
0.0
 10
289.8832
 20
495.6672
 30
0.0
 10
289.9051
 20
493.6943
 30
0.0
  0
SPLINE
  5
5E
330
1F
100
AcDbEntity
  8
layer 1
370
     5
100
AcDbSpline
210
0.0
220
0.0
230
1.0
 70
     8
 71
     3
 72
     8
 73
     4
 74
     0
 42
0.0000000001
 43
0.0000000001
 40
0.0
 40
0.0
 40
0.0
 40
0.0
 40
1.0
 40
1.0
 40
1.0
 40
1.0
 10
287.4898
 20
498.8849
 30
0.0
 10
289.722
 20
497.8234000000001
 30
0.0
 10
291.0116
 20
495.9832
 30
0.0
 10
291.0324
 20
493.473
 30
0.0
  0
SPLINE
  5
5F
330
1F
100
AcDbEntity
  8
layer 1
370
     5
100
AcDbSpline
210
0.0
220
0.0
230
1.0
 70
     8
 71
     3
 72
     8
 73
     4
 74
     0
 42
0.0000000001
 43
0.0000000001
 40
0.0
 40
0.0
 40
0.0
 40
0.0
 40
1.0
 40
1.0
 40
1.0
 40
1.0
 10
283.2152
 20
493.4329
 30
0.0
 10
284.5361
 20
489.8582
 30
0.0
 10
288.4244
 20
489.1055
 30
0.0
 10
290.602
 20
491.304
 30
0.0
  0
SPLINE
  5
60
330
1F
100
AcDbEntity
  8
layer 1
370
     5
100
AcDbSpline
210
0.0
220
0.0
230
1.0
 70
     8
 71
     3
 72
     8
 73
     4
 74
     0
 42
0.0000000001
 43
0.0000000001
 40
0.0
 40
0.0
 40
0.0
 40
0.0
 40
1.0
 40
1.0
 40
1.0
 40
1.0
 10
283.6241
 20
495.1558
 30
0.0
 10
284.8607
 20
491.6693
 30
0.0
 10
286.6199
 20
490.4808
 30
0.0
 10
288.9013
 20
491.5907
 30
0.0
  0
SPLINE
  5
61
330
1F
100
AcDbEntity
  8
layer 1
370
     5
100
AcDbSpline
210
0.0
220
0.0
230
1.0
 70
    11
 71
     3
 72
    20
 73
    16
 74
     0
 42
0.0000000001
 43
0.0000000001
 40
0.0
 40
0.0
 40
0.0
 40
0.0
 40
0.25
 40
0.25
 40
0.25
 40
0.25
 40
0.5
 40
0.5
 40
0.5
 40
0.5
 40
0.75
 40
0.75
 40
0.75
 40
0.75
 40
1.0
 40
1.0
 40
1.0
 40
1.0
 10
284.4192
 20
484.4242
 30
0.0
 10
285.7651
 20
484.4242
 30
0.0
 10
286.8567
 20
483.3327000000001
 30
0.0
 10
286.8567
 20
481.9867
 30
0.0
 10
286.8567
 20
481.9867
 30
0.0
 10
286.8567
 20
480.6408
 30
0.0
 10
285.7651
 20
479.5492
 30
0.0
 10
284.4192
 20
479.5492
 30
0.0
 10
284.4192
 20
479.5492
 30
0.0
 10
283.0732
 20
479.5492
 30
0.0
 10
281.9817
 20
480.6408
 30
0.0
 10
281.9817
 20
481.9867
 30
0.0
 10
281.9817
 20
481.9867
 30
0.0
 10
281.9817
 20
483.3327000000001
 30
0.0
 10
283.0732
 20
484.4242
 30
0.0
 10
284.4192
 20
484.4242
 30
0.0
  0
SPLINE
  5
62
330
1F
100
AcDbEntity
  8
layer 1
370
     5
100
AcDbSpline
210
0.0
220
0.0
230
1.0
 70
    11
 71
     3
 72
    20
 73
    16
 74
     0
 42
0.0000000001
 43
0.0000000001
 40
0.0
 40
0.0
 40
0.0
 40
0.0
 40
0.25
 40
0.25
 40
0.25
 40
0.25
 40
0.5
 40
0.5
 40
0.5
 40
0.5
 40
0.75
 40
0.75
 40
0.75
 40
0.75
 40
1.0
 40
1.0
 40
1.0
 40
1.0
 10
284.4192
 20
483.2992
 30
0.0
 10
285.1439
 20
483.2992
 30
0.0
 10
285.7317
 20
482.7114
 30
0.0
 10
285.7317
 20
481.9867
 30
0.0
 10
285.7317
 20
481.9867
 30
0.0
 10
285.7317
 20
481.262
 30
0.0
 10
285.1439
 20
480.6742
 30
0.0
 10
284.4192
 20
480.6742
 30
0.0
 10
284.4192
 20
480.6742
 30
0.0
 10
283.6945
 20
480.6742
 30
0.0
 10
283.1067
 20
481.262
 30
0.0
 10
283.1067
 20
481.9867
 30
0.0
 10
283.1067
 20
481.9867
 30
0.0
 10
283.1067
 20
482.7114
 30
0.0
 10
283.6945
 20
483.2992
 30
0.0
 10
284.4192
 20
483.2992
 30
0.0
  0
SPLINE
  5
63
330
1F
100
AcDbEntity
  8
layer 1
370
     5
100
AcDbSpline
210
0.0
220
0.0
230
1.0
 70
     8
 71
     3
 72
    20
 73
    16
 74
     0
 42
0.0000000001
 43
0.0000000001
 40
0.0
 40
0.0
 40
0.0
 40
0.0
 40
0.25
 40
0.25
 40
0.25
 40
0.25
 40
0.5
 40
0.5
 40
0.5
 40
0.5
 40
0.75
 40
0.75
 40
0.75
 40
0.75
 40
1.0
 40
1.0
 40
1.0
 40
1.0
 10
297.3999
 20
492.0433
 30
0.0
 10
294.0713
 20
492.8436
 30
0.0
 10
291.2794
 20
493.4501
 30
0.0
 10
289.0242
 20
493.8626
 30
0.0
 10
289.0242
 20
493.8626
 30
0.0
 10
288.1069
 20
493.4707
 30
0.0
 10
287.9054
 20
492.7391
 30
0.0
 10
288.4193
 20
491.6676000000001
 30
0.0
 10
288.4193
 20
491.6676000000001
 30
0.0
 10
290.6892
 20
491.3216000000001
 30
0.0
 10
293.4926
 20
490.7794
 30
0.0
 10
296.8292
 20
490.0411
 30
0.0
 10
296.8292
 20
490.0411
 30
0.0
 10
291.5659
 20
487.8163
 30
0.0
 10
287.5982
 20
485.9263
 30
0.0
 10
284.9262
 20
484.3714000000001
 30
0.0
  0
SPLINE
  5
64
330
1F
100
AcDbEntity
  8
layer 1
370
     5
100
AcDbSpline
210
0.0
220
0.0
230
1.0
 70
     8
 71
     3
 72
    68
 73
    64
 74
     0
 42
0.0000000001
 43
0.0000000001
 40
0.0
 40
0.0
 40
0.0
 40
0.0
 40
0.0625
 40
0.0625
 40
0.0625
 40
0.0625
 40
0.125
 40
0.125
 40
0.125
 40
0.125
 40
0.1875
 40
0.1875
 40
0.1875
 40
0.1875
 40
0.25
 40
0.25
 40
0.25
 40
0.25
 40
0.3125
 40
0.3125
 40
0.3125
 40
0.3125
 40
0.375
 40
0.375
 40
0.375
 40
0.375
 40
0.4375
 40
0.4375
 40
0.4375
 40
0.4375
 40
0.5
 40
0.5
 40
0.5
 40
0.5
 40
0.5625
 40
0.5625
 40
0.5625
 40
0.5625
 40
0.625
 40
0.625
 40
0.625
 40
0.625
 40
0.6875
 40
0.6875
 40
0.6875
 40
0.6875
 40
0.75
 40
0.75
 40
0.75
 40
0.75
 40
0.8125
 40
0.8125
 40
0.8125
 40
0.8125
 40
0.875
 40
0.875
 40
0.875
 40
0.875
 40
0.9375
 40
0.9375
 40
0.9375
 40
0.9375
 40
1.0
 40
1.0
 40
1.0
 40
1.0
 10
286.8567
 20
481.9867
 30
0.0
 10
293.0501
 20
485.2888
 30
0.0
 10
298.9263
 20
488.2109
 30
0.0
 10
305.7985
 20
491.1268
 30
0.0
 10
305.7985
 20
491.1268
 30
0.0
 10
311.9736
 20
493.7398
 30
0.0
 10
316.2439
 20
493.6501
 30
0.0
 10
318.727
 20
490.387
 30
0.0
 10
318.727
 20
490.387
 30
0.0
 10
321.561
 20
490.985
 30
0.0
 10
324.395
 20
491.531
 30
0.0
 10
327.229
 20
492.025
 30
0.0
 10
327.229
 20
492.025
 30
0.0
 10
326.1742
 20
497.4086
 30
0.0
 10
332.7517
 20
498.9835000000001
 30
0.0
 10
334.0539
 20
493.663
 30
0.0
 10
334.0539
 20
493.663
 30
0.0
 10
336.7846
 20
494.333
 30
0.0
 10
339.6807
 20
495.0267
 30
0.0
 10
342.7425
 20
495.744
 30
0.0
 10
342.7425
 20
495.744
 30
0.0
 10
341.1269
 20
502.1672
 30
0.0
 10
348.0903
 20
504.9354
 30
0.0
 10
350.1999
 20
498.694
 30
0.0
 10
350.1999
 20
498.694
 30
0.0
 10
352.8389
 20
499.071
 30
0.0
 10
355.296
 20
499.8902000000001
 30
0.0
 10
357.571
 20
501.151
 30
0.0
 10
357.571
 20
501.151
 30
0.0
 10
354.0792
 20
507.5093
 30
0.0
 10
363.4881
 20
510.321
 30
0.0
 10
364.2454
 20
503.6809
 30
0.0
 10
364.2454
 20
503.6809
 30
0.0
 10
367.6796
 20
504.3015
 30
0.0
 10
370.2551
 20
505.2487
 30
0.0
 10
371.9529
 20
506.64
 30
0.0
 10
371.9529
 20
506.64
 30
0.0
 10
369.7051
 20
513.1397000000001
 30
0.0
 10
377.0886
 20
516.2842000000001
 30
0.0
 10
379.6019
 20
510.148
 30
0.0
 10
379.6019
 20
510.148
 30
0.0
 10
382.1059
 20
511.0496
 30
0.0
 10
384.3889
 20
512.2385
 30
0.0
 10
386.4508
 20
513.7147
 30
0.0
 10
386.4508
 20
513.7147
 30
0.0
 10
385.833
 20
516.9201000000001
 30
0.0
 10
386.5804
 20
519.0632000000001
 30
0.0
 10
388.693
 20
520.144
 30
0.0
 10
388.693
 20
520.144
 30
0.0
 10
391.0459
 20
520.8720000000001
 30
0.0
 10
392.905
 20
520.3000000000001
 30
0.0
 10
394.2699
 20
518.428
 30
0.0
 10
394.2699
 20
518.428
 30
0.0
 10
396.9159
 20
519.3261
 30
0.0
 10
399.1422
 20
520.5836000000001
 30
0.0
 10
400.9487
 20
522.2003
 30
0.0
 10
400.9487
 20
522.2003
 30
0.0
 10
399.316
 20
527.5877
 30
0.0
 10
403.0536
 20
531.37
 30
0.0
 10
407.7196
 20
527.08
 30
0.0
 10
407.7196
 20
527.08
 30
0.0
 10
409.4643
 20
527.8798000000001
 30
0.0
 10
410.9718
 20
529.0659000000001
 30
0.0
 10
412.2416
 20
530.638
 30
0.0
  0
SPLINE
  5
65
330
1F
100
AcDbEntity
  8
layer 1
370
     5
100
AcDbSpline
210
0.0
220
0.0
230
1.0
 70
     8
 71
     3
 72
     8
 73
     4
 74
     0
 42
0.0000000001
 43
0.0000000001
 40
0.0
 40
0.0
 40
0.0
 40
0.0
 40
1.0
 40
1.0
 40
1.0
 40
1.0
 10
297.153
 20
487.2078
 30
0.0
 10
311.2371
 20
480.943
 30
0.0
 10
323.3083
 20
474.7806000000001
 30
0.0
 10
334.8731
 20
469.21
 30
0.0
  0
SPLINE
  5
66
330
1F
100
AcDbEntity
  8
layer 1
370
     5
100
AcDbSpline
210
0.0
220
0.0
230
1.0
 70
     8
 71
     3
 72
     8
 73
     4
 74
     0
 42
0.0000000001
 43
0.0000000001
 40
0.0
 40
0.0
 40
0.0
 40
0.0
 40
1.0
 40
1.0
 40
1.0
 40
1.0
 10
289.5309
 20
490.5184
 30
0.0
 10
290.9599
 20
489.913
 30
0.0
 10
292.368
 20
489.3079
 30
0.0
 10
293.7562
 20
488.7031
 30
0.0
  0
SPLINE
  5
67
330
1F
100
AcDbEntity
  8
layer 1
370
     5
100
AcDbSpline
210
0.0
220
0.0
230
1.0
 70
    11
 71
     3
 72
    20
 73
    16
 74
     0
 42
0.0000000001
 43
0.0000000001
 40
0.0
 40
0.0
 40
0.0
 40
0.0
 40
0.25
 40
0.25
 40
0.25
 40
0.25
 40
0.5
 40
0.5
 40
0.5
 40
0.5
 40
0.75
 40
0.75
 40
0.75
 40
0.75
 40
1.0
 40
1.0
 40
1.0
 40
1.0
 10
364.679
 20
415.086
 30
0.0
 10
361.7566
 20
424.1173
 30
0.0
 10
357.1776
 20
433.4834
 30
0.0
 10
350.9422
 20
443.1839
 30
0.0
 10
350.9422
 20
443.1839
 30
0.0
 10
376.1783
 20
464.4657
 30
0.0
 10
384.2205
 20
479.6919
 30
0.0
 10
388.8745
 20
518.5803000000001
 30
0.0
 10
388.8745
 20
518.5803000000001
 30
0.0
 10
397.521
 20
516.4544000000001
 30
0.0
 10
402.9846
 20
514.5291
 30
0.0
 10
405.265
 20
512.8046000000001
 30
0.0
 10
405.265
 20
512.8046000000001
 30
0.0
 10
409.2194
 20
472.1146
 30
0.0
 10
395.6908
 20
439.5417000000001
 30
0.0
 10
364.679
 20
415.086
 30
0.0
  0
SPLINE
  5
68
330
1F
100
AcDbEntity
  8
layer 1
370
     5
100
AcDbSpline
210
0.0
220
0.0
230
1.0
 70
     8
 71
     3
 72
     8
 73
     4
 74
     0
 42
0.0000000001
 43
0.0000000001
 40
0.0
 40
0.0
 40
0.0
 40
0.0
 40
1.0
 40
1.0
 40
1.0
 40
1.0
 10
316.309
 20
513.202
 30
0.0
 10
318.8292
 20
512.1411000000001
 30
0.0
 10
321.249
 20
507.8979000000001
 30
0.0
 10
323.5682
 20
500.4725
 30
0.0
  0
SPLINE
  5
69
330
1F
100
AcDbEntity
  8
layer 1
370
     5
100
AcDbSpline
210
0.0
220
0.0
230
1.0
 70
     8
 71
     3
 72
     8
 73
     4
 74
     0
 42
0.0000000001
 43
0.0000000001
 40
0.0
 40
0.0
 40
0.0
 40
0.0
 40
1.0
 40
1.0
 40
1.0
 40
1.0
 10
335.965
 20
522.952
 30
0.0
 10
331.308
 20
515.0062
 30
0.0
 10
326.2928
 20
509.848
 30
0.0
 10
320.9195
 20
507.4777
 30
0.0
  0
SPLINE
  5
6A
330
1F
100
AcDbEntity
  8
layer 1
370
     5
100
AcDbSpline
210
0.0
220
0.0
230
1.0
 70
     8
 71
     3
 72
     8
 73
     4
 74
     0
 42
0.0000000001
 43
0.0000000001
 40
0.0
 40
0.0
 40
0.0
 40
0.0
 40
1.0
 40
1.0
 40
1.0
 40
1.0
 10
338.9042
 20
520.255
 30
0.0
 10
334.724
 20
513.8970000000001
 30
0.0
 10
329.1009
 20
508.418
 30
0.0
 10
322.2974
 20
504.1961
 30
0.0
  0
SPLINE
  5
6B
330
1F
100
AcDbEntity
  8
layer 1
370
     5
100
AcDbSpline
210
0.0
220
0.0
230
1.0
 70
     8
 71
     3
 72
     8
 73
     4
 74
     0
 42
0.0000000001
 43
0.0000000001
 40
0.0
 40
0.0
 40
0.0
 40
0.0
 40
1.0
 40
1.0
 40
1.0
 40
1.0
 10
355.855
 20
495.184
 30
0.0
 10
349.745
 20
490.5561
 30
0.0
 10
341.2949
 20
485.2000000000001
 30
0.0
 10
330.505
 20
479.116
 30
0.0
  0
SPLINE
  5
6C
330
1F
100
AcDbEntity
  8
layer 1
370
     5
100
AcDbSpline
210
0.0
220
0.0
230
1.0
 70
     8
 71
     3
 72
    12
 73
     8
 74
     0
 42
0.0000000001
 43
0.0000000001
 40
0.0
 40
0.0
 40
0.0
 40
0.0
 40
0.5
 40
0.5
 40
0.5
 40
0.5
 40
1.0
 40
1.0
 40
1.0
 40
1.0
 10
357.479
 20
475.895
 30
0.0
 10
356.4083
 20
475.8134
 30
0.0
 10
355.2949
 20
475.691
 30
0.0
 10
354.1389
 20
475.528
 30
0.0
 10
354.1389
 20
475.528
 30
0.0
 10
348.705
 20
476.386
 30
0.0
 10
343.1149
 20
473.656
 30
0.0
 10
337.369
 20
467.338
 30
0.0
  0
SPLINE
  5
6D
330
1F
100
AcDbEntity
  8
layer 1
370
     5
100
AcDbSpline
210
0.0
220
0.0
230
1.0
 70
     8
 71
     3
 72
     8
 73
     4
 74
     0
 42
0.0000000001
 43
0.0000000001
 40
0.0
 40
0.0
 40
0.0
 40
0.0
 40
1.0
 40
1.0
 40
1.0
 40
1.0
 10
375.1591
 20
469.8112
 30
0.0
 10
372.7388
 20
473.5363
 30
0.0
 10
368.5587
 20
475.5849
 30
0.0
 10
362.6194
 20
475.9566
 30
0.0
  0
SPLINE
  5
6E
330
1F
100
AcDbEntity
  8
layer 1
370
     5
100
AcDbSpline
210
0.0
220
0.0
230
1.0
 70
     8
 71
     3
 72
     8
 73
     4
 74
     0
 42
0.0000000001
 43
0.0000000001
 40
0.0
 40
0.0
 40
0.0
 40
0.0
 40
1.0
 40
1.0
 40
1.0
 40
1.0
 10
330.505
 20
479.116
 30
0.0
 10
332.845
 20
473.7339
 30
0.0
 10
335.133
 20
469.8080000000001
 30
0.0
 10
337.369
 20
467.338
 30
0.0
  0
SPLINE
  5
6F
330
1F
100
AcDbEntity
  8
layer 1
370
     5
100
AcDbSpline
210
0.0
220
0.0
230
1.0
 70
     8
 71
     3
 72
     8
 73
     4
 74
     0
 42
0.0000000001
 43
0.0000000001
 40
0.0
 40
0.0
 40
0.0
 40
0.0
 40
1.0
 40
1.0
 40
1.0
 40
1.0
 10
335.1237
 20
470.2812
 30
0.0
 10
334.4254
 20
469.1714
 30
0.0
 10
334.9013
 20
468.512
 30
0.0
 10
336.5513
 20
468.3032
 30
0.0
  0
SPLINE
  5
70
330
1F
100
AcDbEntity
  8
layer 1
370
     5
100
AcDbSpline
210
0.0
220
0.0
230
1.0
 70
     8
 71
     3
 72
     8
 73
     4
 74
     0
 42
0.0000000001
 43
0.0000000001
 40
0.0
 40
0.0
 40
0.0
 40
0.0
 40
1.0
 40
1.0
 40
1.0
 40
1.0
 10
338.7764
 20
468.8169
 30
0.0
 10
347.5921
 20
456.6682
 30
0.0
 10
352.4999
 20
448.8529
 30
0.0
 10
353.4996
 20
445.3715
 30
0.0
  0
SPLINE
  5
71
330
1F
100
AcDbEntity
  8
layer 1
370
     5
100
AcDbSpline
210
0.0
220
0.0
230
1.0
 70
     8
 71
     3
 72
     8
 73
     4
 74
     0
 42
0.0000000001
 43
0.0000000001
 40
0.0
 40
0.0
 40
0.0
 40
0.0
 40
1.0
 40
1.0
 40
1.0
 40
1.0
 10
325.6633
 20
491.7468
 30
0.0
 10
327.7778
 20
485.0022
 30
0.0
 10
329.5225
 20
481.3923
 30
0.0
 10
330.9973
 20
479.394
 30
0.0
  0
SPLINE
  5
72
330
1F
100
AcDbEntity
  8
layer 1
370
     5
100
AcDbSpline
210
0.0
220
0.0
230
1.0
 70
     8
 71
     3
 72
     8
 73
     4
 74
     0
 42
0.0000000001
 43
0.0000000001
 40
0.0
 40
0.0
 40
0.0
 40
0.0
 40
1.0
 40
1.0
 40
1.0
 40
1.0
 10
363.733
 20
482.9380000000001
 30
0.0
 10
356.7005
 20
473.9148
 30
0.0
 10
349.2769
 20
467.9621
 30
0.0
 10
341.4621
 20
465.0799
 30
0.0
  0
SPLINE
  5
73
330
1F
100
AcDbEntity
  8
layer 1
370
     5
100
AcDbSpline
210
0.0
220
0.0
230
1.0
 70
     8
 71
     3
 72
     8
 73
     4
 74
     0
 42
0.0000000001
 43
0.0000000001
 40
0.0
 40
0.0
 40
0.0
 40
0.0
 40
1.0
 40
1.0
 40
1.0
 40
1.0
 10
365.917
 20
479.662
 30
0.0
 10
359.9582
 20
472.5088
 30
0.0
 10
352.5009
 20
466.6621
 30
0.0
 10
343.5451
 20
462.1219
 30
0.0
  0
SPLINE
  5
74
330
1F
100
AcDbEntity
  8
layer 1
370
     5
100
AcDbSpline
210
0.0
220
0.0
230
1.0
 70
     8
 71
     3
 72
    12
 73
     8
 74
     0
 42
0.0000000001
 43
0.0000000001
 40
0.0
 40
0.0
 40
0.0
 40
0.0
 40
0.5
 40
0.5
 40
0.5
 40
0.5
 40
1.0
 40
1.0
 40
1.0
 40
1.0
 10
354.171
 20
499.6414
 30
0.0
 10
354.5662
 20
496.6959000000001
 30
0.0
 10
357.1655
 20
491.1046
 30
0.0
 10
360.223
 20
495.4570000000001
 30
0.0
 10
360.223
 20
495.4570000000001
 30
0.0
 10
361.1314
 20
499.4669
 30
0.0
 10
362.1989
 20
502.3211
 30
0.0
 10
364.0695
 20
504.6073
 30
0.0
  0
SPLINE
  5
75
330
1F
100
AcDbEntity
  8
layer 1
370
     5
100
AcDbSpline
210
0.0
220
0.0
230
1.0
 70
     8
 71
     3
 72
    12
 73
     8
 74
     0
 42
0.0000000001
 43
0.0000000001
 40
0.0
 40
0.0
 40
0.0
 40
0.0
 40
0.5
 40
0.5
 40
0.5
 40
0.5
 40
1.0
 40
1.0
 40
1.0
 40
1.0
 10
367.0870000000001
 20
487.891
 30
0.0
 10
367.3338
 20
483.5101
 30
0.0
 10
365.4229
 20
482.3791000000001
 30
0.0
 10
361.3539
 20
484.4980000000001
 30
0.0
 10
361.3539
 20
484.4980000000001
 30
0.0
 10
358.8783
 20
486.4955000000001
 30
0.0
 10
357.5579
 20
489.6461000000001
 30
0.0
 10
357.3932
 20
493.9494
 30
0.0
  0
SPLINE
  5
76
330
1F
100
AcDbEntity
  8
layer 1
370
     5
100
AcDbSpline
210
0.0
220
0.0
230
1.0
 70
     8
 71
     3
 72
    12
 73
     8
 74
     0
 42
0.0000000001
 43
0.0000000001
 40
0.0
 40
0.0
 40
0.0
 40
0.0
 40
0.5
 40
0.5
 40
0.5
 40
0.5
 40
1.0
 40
1.0
 40
1.0
 40
1.0
 10
367.0870000000001
 20
487.8909
 30
0.0
 10
366.5289
 20
493.4721
 30
0.0
 10
370.0309
 20
498.5678
 30
0.0
 10
373.015
 20
503.023
 30
0.0
 10
373.015
 20
503.023
 30
0.0
 10
375.4195
 20
505.7419
 30
0.0
 10
377.2789
 20
508.6911
 30
0.0
 10
378.5933
 20
511.8704
 30
0.0
  0
SPLINE
  5
77
330
1F
100
AcDbEntity
  8
layer 1
370
     5
100
AcDbSpline
210
0.0
220
0.0
230
1.0
 70
     8
 71
     3
 72
    16
 73
    12
 74
     0
 42
0.0000000001
 43
0.0000000001
 40
0.0
 40
0.0
 40
0.0
 40
0.0
 40
0.3333333333333333
 40
0.3333333333333333
 40
0.3333333333333333
 40
0.3333333333333333
 40
0.6666666666666666
 40
0.6666666666666666
 40
0.6666666666666666
 40
0.6666666666666666
 40
1.0
 40
1.0
 40
1.0
 40
1.0
 10
363.1043
 20
483.7424
 30
0.0
 10
364.9873
 20
474.2911
 30
0.0
 10
375.8656
 20
481.7399
 30
0.0
 10
375.121
 20
488.5539
 30
0.0
 10
375.121
 20
488.5539
 30
0.0
 10
375.017
 20
491.518
 30
0.0
 10
376.109
 20
494.69
 30
0.0
 10
378.397
 20
498.0700000000001
 30
0.0
 10
378.397
 20
498.0700000000001
 30
0.0
 10
383.2377
 20
504.2228
 30
0.0
 10
386.8392
 20
511.0126
 30
0.0
 10
388.0431
 20
518.7659
 30
0.0
  0
SPLINE
  5
78
330
1F
100
AcDbEntity
  8
layer 1
370
     5
100
AcDbSpline
210
0.0
220
0.0
230
1.0
 70
     8
 71
     3
 72
     8
 73
     4
 74
     0
 42
0.0000000001
 43
0.0000000001
 40
0.0
 40
0.0
 40
0.0
 40
0.0
 40
1.0
 40
1.0
 40
1.0
 40
1.0
 10
388.8745
 20
518.5803000000001
 30
0.0
 10
388.2264
 20
518.7368
 30
0.0
 10
387.6722
 20
518.8606
 30
0.0
 10
387.2117
 20
518.9515
 30
0.0
  0
SPLINE
  5
79
330
1F
100
AcDbEntity
  8
layer 1
370
     5
100
AcDbSpline
210
0.0
220
0.0
230
1.0
 70
     8
 71
     3
 72
     8
 73
     4
 74
     0
 42
0.0000000001
 43
0.0000000001
 40
0.0
 40
0.0
 40
0.0
 40
0.0
 40
1.0
 40
1.0
 40
1.0
 40
1.0
 10
401.7287
 20
535.9818
 30
0.0
 10
389.5767
 20
530.2986000000001
 30
0.0
 10
382.8396
 20
526.0968
 30
0.0
 10
381.5175
 20
523.3769
 30
0.0
  0
SPLINE
  5
7A
330
1F
100
AcDbEntity
  8
layer 1
370
     5
100
AcDbSpline
210
0.0
220
0.0
230
1.0
 70
     8
 71
     3
 72
    20
 73
    16
 74
     0
 42
0.0000000001
 43
0.0000000001
 40
0.0
 40
0.0
 40
0.0
 40
0.0
 40
0.25
 40
0.25
 40
0.25
 40
0.25
 40
0.5
 40
0.5
 40
0.5
 40
0.5
 40
0.75
 40
0.75
 40
0.75
 40
0.75
 40
1.0
 40
1.0
 40
1.0
 40
1.0
 10
374.1817
 20
519.9484
 30
0.0
 10
374.9519
 20
521.4441000000001
 30
0.0
 10
375.278
 20
524.4214000000001
 30
0.0
 10
375.16
 20
528.88
 30
0.0
 10
375.16
 20
528.88
 30
0.0
 10
374.3149
 20
532.52
 30
0.0
 10
375.8359
 20
534.86
 30
0.0
 10
379.723
 20
535.9
 30
0.0
 10
379.723
 20
535.9
 30
0.0
 10
378.5546
 20
536.6828
 30
0.0
 10
375.9451
 20
536.8653000000001
 30
0.0
 10
371.8945
 20
536.4475
 30
0.0
 10
371.8945
 20
536.4475
 30
0.0
 10
370.0875
 20
536.3194
 30
0.0
 10
369.1624
 20
536.8657000000001
 30
0.0
 10
369.1194
 20
538.086
 30
0.0
  0
SPLINE
  5
7B
330
1F
100
AcDbEntity
  8
layer 1
370
     5
100
AcDbSpline
210
0.0
220
0.0
230
1.0
 70
     8
 71
     3
 72
     8
 73
     4
 74
     0
 42
0.0000000001
 43
0.0000000001
 40
0.0
 40
0.0
 40
0.0
 40
0.0
 40
1.0
 40
1.0
 40
1.0
 40
1.0
 10
375.7367
 20
533.4690000000001
 30
0.0
 10
375.1778
 20
529.5197000000001
 30
0.0
 10
383.7336
 20
529.8121
 30
0.0
 10
386.5541
 20
527.9242
 30
0.0
  0
SPLINE
  5
7C
330
1F
100
AcDbEntity
  8
layer 1
370
     5
100
AcDbSpline
210
0.0
220
0.0
230
1.0
 70
     8
 71
     3
 72
    20
 73
    16
 74
     0
 42
0.0000000001
 43
0.0000000001
 40
0.0
 40
0.0
 40
0.0
 40
0.0
 40
0.25
 40
0.25
 40
0.25
 40
0.25
 40
0.5
 40
0.5
 40
0.5
 40
0.5
 40
0.75
 40
0.75
 40
0.75
 40
0.75
 40
1.0
 40
1.0
 40
1.0
 40
1.0
 10
364.8132
 20
515.8429
 30
0.0
 10
368.1356
 20
520.0062
 30
0.0
 10
370.246
 20
526.7746000000001
 30
0.0
 10
369.0437
 20
532.0855
 30
0.0
 10
369.0437
 20
532.0855
 30
0.0
 10
367.9554
 20
536.8956000000001
 30
0.0
 10
367.8435
 20
538.3842000000001
 30
0.0
 10
373.171
 20
540.8530000000001
 30
0.0
 10
373.171
 20
540.8530000000001
 30
0.0
 10
370.6845
 20
541.5038000000001
 30
0.0
 10
368.0865
 20
541.5377
 30
0.0
 10
365.3772
 20
540.9549000000001
 30
0.0
 10
365.3772
 20
540.9549000000001
 30
0.0
 10
363.9715
 20
540.6187
 30
0.0
 10
363.2437
 20
540.9811
 30
0.0
 10
363.194
 20
542.0415
 30
0.0
  0
SPLINE
  5
7D
330
1F
100
AcDbEntity
  8
layer 1
370
     5
100
AcDbSpline
210
0.0
220
0.0
230
1.0
 70
     8
 71
     3
 72
    20
 73
    16
 74
     0
 42
0.0000000001
 43
0.0000000001
 40
0.0
 40
0.0
 40
0.0
 40
0.0
 40
0.25
 40
0.25
 40
0.25
 40
0.25
 40
0.5
 40
0.5
 40
0.5
 40
0.5
 40
0.75
 40
0.75
 40
0.75
 40
0.75
 40
1.0
 40
1.0
 40
1.0
 40
1.0
 10
352.2333
 20
510.7478
 30
0.0
 10
359.594
 20
517.4052
 30
0.0
 10
363.389
 20
528.3535000000001
 30
0.0
 10
362.173
 20
538.0839
 30
0.0
 10
362.173
 20
538.0839
 30
0.0
 10
361.848
 20
540.905
 30
0.0
 10
363.3689
 20
543.1281
 30
0.0
 10
366.736
 20
544.753
 30
0.0
 10
366.736
 20
544.753
 30
0.0
 10
363.9918
 20
545.2011
 30
0.0
 10
361.542
 20
545.124
 30
0.0
 10
359.3868
 20
544.5216
 30
0.0
 10
359.3868
 20
544.5216
 30
0.0
 10
358.2044
 20
544.2116
 30
0.0
 10
357.5396
 20
544.4432000000001
 30
0.0
 10
357.3924
 20
545.2161
 30
0.0
  0
SPLINE
  5
7E
330
1F
100
AcDbEntity
  8
layer 1
370
     5
100
AcDbSpline
210
0.0
220
0.0
230
1.0
 70
     8
 71
     3
 72
    24
 73
    20
 74
     0
 42
0.0000000001
 43
0.0000000001
 40
0.0
 40
0.0
 40
0.0
 40
0.0
 40
0.2
 40
0.2
 40
0.2
 40
0.2
 40
0.4
 40
0.4
 40
0.4
 40
0.4
 40
0.6000000000000001
 40
0.6000000000000001
 40
0.6000000000000001
 40
0.6000000000000001
 40
0.8
 40
0.8
 40
0.8
 40
0.8
 40
1.0
 40
1.0
 40
1.0
 40
1.0
 10
347.6812
 20
509.0059
 30
0.0
 10
347.3066
 20
509.3734
 30
0.0
 10
347.1582
 20
509.8231
 30
0.0
 10
347.236
 20
510.355
 30
0.0
 10
347.236
 20
510.355
 30
0.0
 10
351.2012
 20
521.5410000000001
 30
0.0
 10
357.7695
 20
528.0844000000001
 30
0.0
 10
356.2062
 20
540.563
 30
0.0
 10
356.2062
 20
540.563
 30
0.0
 10
355.9199
 20
543.7182
 30
0.0
 10
357.4028
 20
546.181
 30
0.0
 10
360.6551
 20
547.9512
 30
0.0
 10
360.6551
 20
547.9512
 30
0.0
 10
358.6908
 20
548.1013
 30
0.0
 10
356.6484
 20
548.0294
 30
0.0
 10
354.5281
 20
547.7356
 30
0.0
 10
354.5281
 20
547.7356
 30
0.0
 10
353.9207
 20
547.7893
 30
0.0
 10
353.6435
 20
548.1274000000001
 30
0.0
 10
353.6964
 20
548.7496
 30
0.0
  0
SPLINE
  5
7F
330
1F
100
AcDbEntity
  8
layer 1
370
     5
100
AcDbSpline
210
0.0
220
0.0
230
1.0
 70
     8
 71
     3
 72
    24
 73
    20
 74
     0
 42
0.0000000001
 43
0.0000000001
 40
0.0
 40
0.0
 40
0.0
 40
0.0
 40
0.2
 40
0.2
 40
0.2
 40
0.2
 40
0.4
 40
0.4
 40
0.4
 40
0.4
 40
0.6000000000000001
 40
0.6000000000000001
 40
0.6000000000000001
 40
0.6000000000000001
 40
0.8
 40
0.8
 40
0.8
 40
0.8
 40
1.0
 40
1.0
 40
1.0
 40
1.0
 10
347.3189
 20
510.5871
 30
0.0
 10
344.6258
 20
511.6952
 30
0.0
 10
343.2043
 20
513.3975
 30
0.0
 10
343.0547
 20
515.6940000000001
 30
0.0
 10
343.0547
 20
515.6940000000001
 30
0.0
 10
346.3713
 20
521.4945
 30
0.0
 10
349.2553
 20
526.7354
 30
0.0
 10
350.941
 20
533.326
 30
0.0
 10
350.941
 20
533.326
 30
0.0
 10
352.098
 20
539.4787
 30
0.0
 10
348.7894
 20
546.2856
 30
0.0
 10
355.5623
 20
550.0873
 30
0.0
 10
355.5623
 20
550.0873
 30
0.0
 10
352.5926
 20
550.2443000000001
 30
0.0
 10
350.4815
 20
549.5626
 30
0.0
 10
347.5036
 20
548.8917
 30
0.0
 10
347.5036
 20
548.8917
 30
0.0
 10
346.5442
 20
548.7122000000001
 30
0.0
 10
345.8911
 20
549.3803
 30
0.0
 10
346.2424
 20
550.6688
 30
0.0
  0
SPLINE
  5
80
330
1F
100
AcDbEntity
  8
layer 1
370
     5
100
AcDbSpline
210
0.0
220
0.0
230
1.0
 70
     8
 71
     3
 72
    24
 73
    20
 74
     0
 42
0.0000000001
 43
0.0000000001
 40
0.0
 40
0.0
 40
0.0
 40
0.0
 40
0.2
 40
0.2
 40
0.2
 40
0.2
 40
0.4
 40
0.4
 40
0.4
 40
0.4
 40
0.6000000000000001
 40
0.6000000000000001
 40
0.6000000000000001
 40
0.6000000000000001
 40
0.8
 40
0.8
 40
0.8
 40
0.8
 40
1.0
 40
1.0
 40
1.0
 40
1.0
 10
340.4639
 20
551.6905
 30
0.0
 10
340.2688
 20
550.7695
 30
0.0
 10
341.0936
 20
550.1266000000001
 30
0.0
 10
341.7473
 20
550.7143
 30
0.0
 10
341.7473
 20
550.7143
 30
0.0
 10
343.0579
 20
552.1875
 30
0.0
 10
345.7538
 20
553.1446000000001
 30
0.0
 10
350.2744
 20
553.2032
 30
0.0
 10
350.2744
 20
553.2032
 30
0.0
 10
345.9467
 20
551.8237
 30
0.0
 10
344.8183
 20
549.7171000000001
 30
0.0
 10
345.9949
 20
545.2024
 30
0.0
 10
345.9949
 20
545.2024
 30
0.0
 10
347.4161
 20
537.0022
 30
0.0
 10
344.4391
 20
526.8183
 30
0.0
 10
339.553
 20
520.144
 30
0.0
 10
339.553
 20
520.144
 30
0.0
 10
340.0366
 20
517.3924000000001
 30
0.0
 10
341.2039
 20
515.909
 30
0.0
 10
343.0547
 20
515.6940000000001
 30
0.0
  0
SPLINE
  5
81
330
1F
100
AcDbEntity
  8
layer 1
370
     5
100
AcDbSpline
210
0.0
220
0.0
230
1.0
 70
     8
 71
     3
 72
    16
 73
    12
 74
     0
 42
0.0000000001
 43
0.0000000001
 40
0.0
 40
0.0
 40
0.0
 40
0.0
 40
0.3333333333333333
 40
0.3333333333333333
 40
0.3333333333333333
 40
0.3333333333333333
 40
0.6666666666666666
 40
0.6666666666666666
 40
0.6666666666666666
 40
0.6666666666666666
 40
1.0
 40
1.0
 40
1.0
 40
1.0
 10
343.9132
 20
554.3007
 30
0.0
 10
340.4659
 20
552.8504
 30
0.0
 10
339.074
 20
550.4335
 30
0.0
 10
339.7375
 20
547.0496000000001
 30
0.0
 10
339.7375
 20
547.0496000000001
 30
0.0
 10
340.9693
 20
542.0120000000001
 30
0.0
 10
340.5867
 20
528.5310000000001
 30
0.0
 10
335.6338
 20
525.0753
 30
0.0
 10
335.6338
 20
525.0753
 30
0.0
 10
335.7404
 20
522.0758000000001
 30
0.0
 10
337.0469
 20
520.432
 30
0.0
 10
339.553
 20
520.144
 30
0.0
  0
SPLINE
  5
82
330
1F
100
AcDbEntity
  8
layer 1
370
     5
100
AcDbSpline
210
0.0
220
0.0
230
1.0
 70
     8
 71
     3
 72
    12
 73
     8
 74
     0
 42
0.0000000001
 43
0.0000000001
 40
0.0
 40
0.0
 40
0.0
 40
0.0
 40
0.5
 40
0.5
 40
0.5
 40
0.5
 40
1.0
 40
1.0
 40
1.0
 40
1.0
 10
334.2935
 20
553.6932000000001
 30
0.0
 10
334.144
 20
552.3279
 30
0.0
 10
334.8365
 20
551.6093000000001
 30
0.0
 10
335.9911
 20
552.3018000000001
 30
0.0
 10
335.9911
 20
552.3018000000001
 30
0.0
 10
338.1895
 20
553.6996
 30
0.0
 10
340.8303
 20
554.3659
 30
0.0
 10
343.9132
 20
554.3007
 30
0.0
  0
SPLINE
  5
83
330
1F
100
AcDbEntity
  8
layer 1
370
     5
100
AcDbSpline
210
0.0
220
0.0
230
1.0
 70
     8
 71
     3
 72
    16
 73
    12
 74
     0
 42
0.0000000001
 43
0.0000000001
 40
0.0
 40
0.0
 40
0.0
 40
0.0
 40
0.3333333333333333
 40
0.3333333333333333
 40
0.3333333333333333
 40
0.3333333333333333
 40
0.6666666666666666
 40
0.6666666666666666
 40
0.6666666666666666
 40
0.6666666666666666
 40
1.0
 40
1.0
 40
1.0
 40
1.0
 10
337.8838
 20
555.4569
 30
0.0
 10
333.8641
 20
554.1897
 30
0.0
 10
332.16
 20
552.1647
 30
0.0
 10
332.7715
 20
549.3817
 30
0.0
 10
332.7715
 20
549.3817
 30
0.0
 10
333.4279
 20
542.4688
 30
0.0
 10
332.3199
 20
536.8199000000001
 30
0.0
 10
330.856
 20
530.0890000000001
 30
0.0
 10
330.856
 20
530.0890000000001
 30
0.0
 10
330.9588
 20
526.9384
 30
0.0
 10
332.5514
 20
525.2671
 30
0.0
 10
335.6338
 20
525.0753
 30
0.0
  0
SPLINE
  5
84
330
1F
100
AcDbEntity
  8
layer 1
370
     5
100
AcDbSpline
210
0.0
220
0.0
230
1.0
 70
     8
 71
     3
 72
    20
 73
    16
 74
     0
 42
0.0000000001
 43
0.0000000001
 40
0.0
 40
0.0
 40
0.0
 40
0.0
 40
0.25
 40
0.25
 40
0.25
 40
0.25
 40
0.5
 40
0.5
 40
0.5
 40
0.5
 40
0.75
 40
0.75
 40
0.75
 40
0.75
 40
1.0
 40
1.0
 40
1.0
 40
1.0
 10
337.8838
 20
555.4569
 30
0.0
 10
335.4513
 20
555.6333000000001
 30
0.0
 10
332.9926
 20
555.3524
 30
0.0
 10
330.5081
 20
554.6142
 30
0.0
 10
330.5081
 20
554.6142
 30
0.0
 10
329.1941
 20
554.2810000000001
 30
0.0
 10
328.2318
 20
555.7359
 30
0.0
 10
329.7276
 20
557.3971
 30
0.0
 10
329.7276
 20
557.3971
 30
0.0
 10
322.0421
 20
552.0124000000001
 30
0.0
 10
329.0397
 20
542.9386000000001
 30
0.0
 10
325.279
 20
535.354
 30
0.0
 10
325.279
 20
535.354
 30
0.0
 10
326.1772
 20
531.1202000000001
 30
0.0
 10
328.0363
 20
529.3651
 30
0.0
 10
330.856
 20
530.0890000000001
 30
0.0
  0
SPLINE
  5
85
330
1F
100
AcDbEntity
  8
layer 1
370
     5
100
AcDbSpline
210
0.0
220
0.0
230
1.0
 70
     8
 71
     3
 72
    16
 73
    12
 74
     0
 42
0.0000000001
 43
0.0000000001
 40
0.0
 40
0.0
 40
0.0
 40
0.0
 40
0.3333333333333333
 40
0.3333333333333333
 40
0.3333333333333333
 40
0.3333333333333333
 40
0.6666666666666666
 40
0.6666666666666666
 40
0.6666666666666666
 40
0.6666666666666666
 40
1.0
 40
1.0
 40
1.0
 40
1.0
 10
329.7276
 20
557.3971
 30
0.0
 10
322.3537
 20
557.5143000000001
 30
0.0
 10
321.5482
 20
550.7626
 30
0.0
 10
321.223
 20
545.104
 30
0.0
 10
321.223
 20
545.104
 30
0.0
 10
321.116
 20
542.5684
 30
0.0
 10
320.8548
 20
540.5649000000001
 30
0.0
 10
320.4395
 20
539.0932
 30
0.0
 10
320.4395
 20
539.0932
 30
0.0
 10
321.0377
 20
536.3418
 30
0.0
 10
322.6509
 20
535.0953000000001
 30
0.0
 10
325.2791
 20
535.354
 30
0.0
  0
SPLINE
  5
86
330
1F
100
AcDbEntity
  8
layer 1
370
     5
100
AcDbSpline
210
0.0
220
0.0
230
1.0
 70
     8
 71
     3
 72
     8
 73
     4
 74
     0
 42
0.0000000001
 43
0.0000000001
 40
0.0
 40
0.0
 40
0.0
 40
0.0
 40
1.0
 40
1.0
 40
1.0
 40
1.0
 10
330.5081
 20
554.6142
 30
0.0
 10
327.6906
 20
553.0026
 30
0.0
 10
326.2412
 20
550.0677000000001
 30
0.0
 10
326.1599
 20
545.8095000000001
 30
0.0
  0
SPLINE
  5
87
330
1F
100
AcDbEntity
  8
layer 1
370
     5
100
AcDbSpline
210
0.0
220
0.0
230
1.0
 70
     8
 71
     3
 72
    28
 73
    24
 74
     0
 42
0.0000000001
 43
0.0000000001
 40
0.0
 40
0.0
 40
0.0
 40
0.0
 40
0.1666666666666667
 40
0.1666666666666667
 40
0.1666666666666667
 40
0.1666666666666667
 40
0.3333333333333333
 40
0.3333333333333333
 40
0.3333333333333333
 40
0.3333333333333333
 40
0.5
 40
0.5
 40
0.5
 40
0.5
 40
0.6666666666666666
 40
0.6666666666666666
 40
0.6666666666666666
 40
0.6666666666666666
 40
0.8333333333333333
 40
0.8333333333333333
 40
0.8333333333333333
 40
0.8333333333333333
 40
1.0
 40
1.0
 40
1.0
 40
1.0
 10
314.1237
 20
556.0598
 30
0.0
 10
314.774
 20
559.4239
 30
0.0
 10
317.4865
 20
561.6235
 30
0.0
 10
321.4347
 20
564.4521
 30
0.0
 10
321.4347
 20
564.4521
 30
0.0
 10
322.8265
 20
565.6999000000001
 30
0.0
 10
323.9583
 20
567.2481
 30
0.0
 10
324.8299
 20
569.0966000000001
 30
0.0
 10
324.8299
 20
569.0966000000001
 30
0.0
 10
326.0005
 20
566.4575
 30
0.0
 10
325.9484
 20
563.7138
 30
0.0
 10
324.6738
 20
560.8658
 30
0.0
 10
324.6738
 20
560.8658
 30
0.0
 10
323.8282
 20
558.6513
 30
0.0
 10
321.4737
 20
555.7966
 30
0.0
 10
317.6102
 20
552.3018000000001
 30
0.0
 10
317.6102
 20
552.3018000000001
 30
0.0
 10
316.4155
 20
557.3389000000001
 30
0.0
 10
318.2301
 20
559.6187
 30
0.0
 10
322.1957
 20
562.4922
 30
0.0
 10
322.1957
 20
562.4922
 30
0.0
 10
323.8606
 20
563.5441000000001
 30
0.0
 10
324.7452
 20
565.7587
 30
0.0
 10
325.0835
 20
567.6072
 30
0.0
  0
SPLINE
  5
88
330
1F
100
AcDbEntity
  8
layer 1
370
     5
100
AcDbSpline
210
0.0
220
0.0
230
1.0
 70
     8
 71
     3
 72
    16
 73
    12
 74
     0
 42
0.0000000001
 43
0.0000000001
 40
0.0
 40
0.0
 40
0.0
 40
0.0
 40
0.3333333333333333
 40
0.3333333333333333
 40
0.3333333333333333
 40
0.3333333333333333
 40
0.6666666666666666
 40
0.6666666666666666
 40
0.6666666666666666
 40
0.6666666666666666
 40
1.0
 40
1.0
 40
1.0
 40
1.0
 10
319.8932
 20
563.3580000000001
 30
0.0
 10
320.7771
 20
565.3797000000001
 30
0.0
 10
320.777
 20
567.2926
 30
0.0
 10
319.8134
 20
569.1015
 30
0.0
 10
319.8134
 20
569.1015
 30
0.0
 10
319.1123
 20
567.5452
 30
0.0
 10
318.2246
 20
566.3367000000001
 30
0.0
 10
317.07
 20
565.4808
 30
0.0
 10
317.07
 20
565.4808
 30
0.0
 10
315.0754
 20
563.9758000000001
 30
0.0
 10
313.8097
 20
562.071
 30
0.0
 10
313.2729
 20
559.7668
 30
0.0
  0
SPLINE
  5
89
330
1F
100
AcDbEntity
  8
layer 1
370
     5
100
AcDbSpline
210
0.0
220
0.0
230
1.0
 70
    11
 71
     3
 72
    12
 73
     8
 74
     0
 42
0.0000000001
 43
0.0000000001
 40
0.0
 40
0.0
 40
0.0
 40
0.0
 40
0.5
 40
0.5
 40
0.5
 40
0.5
 40
1.0
 40
1.0
 40
1.0
 40
1.0
 10
286.357
 20
530.2059
 30
0.0
 10
284.8449
 20
535.8238
 30
0.0
 10
290.6666
 20
538.9282000000001
 30
0.0
 10
295.444
 20
536.6800000000001
 30
0.0
 10
295.444
 20
536.6800000000001
 30
0.0
 10
295.8368
 20
530.7224
 30
0.0
 10
291.6426
 20
529.2869000000001
 30
0.0
 10
286.357
 20
530.2059
 30
0.0
  0
SPLINE
  5
8A
330
1F
100
AcDbEntity
  8
layer 1
370
     5
100
AcDbSpline
210
0.0
220
0.0
230
1.0
 70
    11
 71
     3
 72
    20
 73
    16
 74
     0
 42
0.0000000001
 43
0.0000000001
 40
0.0
 40
0.0
 40
0.0
 40
0.0
 40
0.25
 40
0.25
 40
0.25
 40
0.25
 40
0.5
 40
0.5
 40
0.5
 40
0.5
 40
0.75
 40
0.75
 40
0.75
 40
0.75
 40
1.0
 40
1.0
 40
1.0
 40
1.0
 10
290.7925
 20
535.4341000000001
 30
0.0
 10
291.7588
 20
535.4341000000001
 30
0.0
 10
292.5425
 20
534.6504
 30
0.0
 10
292.5425
 20
533.6841000000001
 30
0.0
 10
292.5425
 20
533.6841000000001
 30
0.0
 10
292.5425
 20
532.7178
 30
0.0
 10
291.7588
 20
531.9341000000001
 30
0.0
 10
290.7925
 20
531.9341000000001
 30
0.0
 10
290.7925
 20
531.9341000000001
 30
0.0
 10
289.8262
 20
531.9341000000001
 30
0.0
 10
289.0425
 20
532.7178
 30
0.0
 10
289.0425
 20
533.6841000000001
 30
0.0
 10
289.0425
 20
533.6841000000001
 30
0.0
 10
289.0425
 20
534.6504
 30
0.0
 10
289.8262
 20
535.4341000000001
 30
0.0
 10
290.7925
 20
535.4341000000001
 30
0.0
  0
SPLINE
  5
8B
330
1F
100
AcDbEntity
  8
layer 1
370
     5
100
AcDbSpline
210
0.0
220
0.0
230
1.0
 70
     8
 71
     3
 72
    28
 73
    24
 74
     0
 42
0.0000000001
 43
0.0000000001
 40
0.0
 40
0.0
 40
0.0
 40
0.0
 40
0.1666666666666667
 40
0.1666666666666667
 40
0.1666666666666667
 40
0.1666666666666667
 40
0.3333333333333333
 40
0.3333333333333333
 40
0.3333333333333333
 40
0.3333333333333333
 40
0.5
 40
0.5
 40
0.5
 40
0.5
 40
0.6666666666666666
 40
0.6666666666666666
 40
0.6666666666666666
 40
0.6666666666666666
 40
0.8333333333333333
 40
0.8333333333333333
 40
0.8333333333333333
 40
0.8333333333333333
 40
1.0
 40
1.0
 40
1.0
 40
1.0
 10
400.237
 20
514.138
 30
0.0
 10
402.707
 20
512.5779
 30
0.0
 10
403.981
 20
510.1859
 30
0.0
 10
404.059
 20
506.9620000000001
 30
0.0
 10
404.059
 20
506.9620000000001
 30
0.0
 10
403.9976
 20
504.9667
 30
0.0
 10
403.4649
 20
503.2545
 30
0.0
 10
402.5391
 20
501.7305
 30
0.0
 10
402.5391
 20
501.7305
 30
0.0
 10
401.7221
 20
500.3857
 30
0.0
 10
400.5990000000001
 20
499.1873000000001
 30
0.0
 10
399.223
 20
498.0700000000001
 30
0.0
 10
399.223
 20
498.0700000000001
 30
0.0
 10
397.7539
 20
501.801
 30
0.0
 10
398.2349
 20
504.6741
 30
0.0
 10
400.666
 20
506.689
 30
0.0
 10
400.666
 20
506.689
 30
0.0
 10
401.2548000000001
 20
505.9055
 30
0.0
 10
401.8516
 20
504.4457
 30
0.0
 10
402.5061
 20
502.2213
 30
0.0
 10
402.5061
 20
502.2213
 30
0.0
 10
404.3032
 20
495.4162
 30
0.0
 10
403.3130000000001
 20
490.3918000000001
 30
0.0
 10
399.535
 20
487.15
 30
0.0
  0
SPLINE
  5
8C
330
1F
100
AcDbEntity
  8
layer 1
370
     5
100
AcDbSpline
210
0.0
220
0.0
230
1.0
 70
     8
 71
     3
 72
    20
 73
    16
 74
     0
 42
0.0000000001
 43
0.0000000001
 40
0.0
 40
0.0
 40
0.0
 40
0.0
 40
0.25
 40
0.25
 40
0.25
 40
0.25
 40
0.5
 40
0.5
 40
0.5
 40
0.5
 40
0.75
 40
0.75
 40
0.75
 40
0.75
 40
1.0
 40
1.0
 40
1.0
 40
1.0
 10
391.501
 20
492.922
 30
0.0
 10
382.3606
 20
488.6865
 30
0.0
 10
387.0261
 20
480.1188
 30
0.0
 10
387.835
 20
473.4999
 30
0.0
 10
387.835
 20
473.4999
 30
0.0
 10
391.5139
 20
476.321
 30
0.0
 10
391.6049
 20
480.741
 30
0.0
 10
390.409
 20
485.005
 30
0.0
 10
390.409
 20
485.005
 30
0.0
 10
387.1849
 20
481.729
 30
0.0
 10
384.481
 20
478.7000000000001
 30
0.0
 10
382.921
 20
477.088
 30
0.0
 10
382.921
 20
477.088
 30
0.0
 10
380.061
 20
473.7991
 30
0.0
 10
379.5411
 20
468.768
 30
0.0
 10
381.361
 20
461.995
 30
0.0
  0
SPLINE
  5
8D
330
1F
100
AcDbEntity
  8
layer 1
370
     5
100
AcDbSpline
210
0.0
220
0.0
230
1.0
 70
     8
 71
     3
 72
    20
 73
    16
 74
     0
 42
0.0000000001
 43
0.0000000001
 40
0.0
 40
0.0
 40
0.0
 40
0.0
 40
0.25
 40
0.25
 40
0.25
 40
0.25
 40
0.5
 40
0.5
 40
0.5
 40
0.5
 40
0.75
 40
0.75
 40
0.75
 40
0.75
 40
1.0
 40
1.0
 40
1.0
 40
1.0
 10
399.262
 20
492.3370000000001
 30
0.0
 10
403.6038
 20
483.9651
 30
0.0
 10
402.3689
 20
476.7761
 30
0.0
 10
393.646
 20
472.2519
 30
0.0
 10
393.646
 20
472.2519
 30
0.0
 10
392.687
 20
476.8319
 30
0.0
 10
394.062
 20
481.703
 30
0.0
 10
398.209
 20
484.03
 30
0.0
 10
398.209
 20
484.03
 30
0.0
 10
397.936
 20
480.8191000000001
 30
0.0
 10
398.3130000000001
 20
477.686
 30
0.0
 10
399.34
 20
474.6309
 30
0.0
 10
399.34
 20
474.6309
 30
0.0
 10
400.5489
 20
466.5581
 30
0.0
 10
397.728
 20
460.851
 30
0.0
 10
390.877
 20
457.5100000000001
 30
0.0
  0
SPLINE
  5
8E
330
1F
100
AcDbEntity
  8
layer 1
370
     5
100
AcDbSpline
210
0.0
220
0.0
230
1.0
 70
     8
 71
     3
 72
    20
 73
    16
 74
     0
 42
0.0000000001
 43
0.0000000001
 40
0.0
 40
0.0
 40
0.0
 40
0.0
 40
0.25
 40
0.25
 40
0.25
 40
0.25
 40
0.5
 40
0.5
 40
0.5
 40
0.5
 40
0.75
 40
0.75
 40
0.75
 40
0.75
 40
1.0
 40
1.0
 40
1.0
 40
1.0
 10
360.636
 20
425.513
 30
0.0
 10
375.823
 20
427.194
 30
0.0
 10
383.4073
 20
435.3768
 30
0.0
 10
383.545
 20
448.891
 30
0.0
 10
383.545
 20
448.891
 30
0.0
 10
379.91
 20
447.3751
 30
0.0
 10
376.057
 20
444.432
 30
0.0
 10
373.873
 20
437.308
 30
0.0
 10
373.873
 20
437.308
 30
0.0
 10
376.9148
 20
439.9601
 30
0.0
 10
379.515
 20
441.0001
 30
0.0
 10
380.815
 20
441.5199
 30
0.0
 10
380.815
 20
441.5199
 30
0.0
 10
388.8749
 20
443.834
 30
0.0
 10
392.463
 20
450.256
 30
0.0
 10
391.579
 20
460.786
 30
0.0
  0
SPLINE
  5
8F
330
1F
100
AcDbEntity
  8
layer 1
370
     5
100
AcDbSpline
210
0.0
220
0.0
230
1.0
 70
     8
 71
     3
 72
    20
 73
    16
 74
     0
 42
0.0000000001
 43
0.0000000001
 40
0.0
 40
0.0
 40
0.0
 40
0.0
 40
0.25
 40
0.25
 40
0.25
 40
0.25
 40
0.5
 40
0.5
 40
0.5
 40
0.5
 40
0.75
 40
0.75
 40
0.75
 40
0.75
 40
1.0
 40
1.0
 40
1.0
 40
1.0
 10
357.2032
 20
432.5159
 30
0.0
 10
359.4689
 20
445.3421
 30
0.0
 10
366.1175
 20
451.5934
 30
0.0
 10
377.1964
 20
451.2852
 30
0.0
 10
377.1964
 20
451.2852
 30
0.0
 10
375.5318
 20
446.7912
 30
0.0
 10
374.1743
 20
444.7269
 30
0.0
 10
369.661
 20
439.7259
 30
0.0
 10
369.661
 20
439.7259
 30
0.0
 10
370.1289
 20
442.222
 30
0.0
 10
370.3889
 20
444.9259
 30
0.0
 10
370.441
 20
447.838
 30
0.0
 10
370.441
 20
447.838
 30
0.0
 10
370.1029
 20
457.484
 30
0.0
 10
374.6009
 20
463.542
 30
0.0
 10
383.935
 20
466.012
 30
0.0
  0
SPLINE
  5
90
330
1F
100
AcDbEntity
  8
layer 1
370
     5
100
AcDbSpline
210
0.0
220
0.0
230
1.0
 70
     8
 71
     3
 72
    24
 73
    20
 74
     0
 42
0.0000000001
 43
0.0000000001
 40
0.0
 40
0.0
 40
0.0
 40
0.0
 40
0.2
 40
0.2
 40
0.2
 40
0.2
 40
0.4
 40
0.4
 40
0.4
 40
0.4
 40
0.6000000000000001
 40
0.6000000000000001
 40
0.6000000000000001
 40
0.6000000000000001
 40
0.8
 40
0.8
 40
0.8
 40
0.8
 40
1.0
 40
1.0
 40
1.0
 40
1.0
 10
390.175
 20
489.334
 30
0.0
 10
387.0949
 20
494.4437
 30
0.0
 10
387.7424
 20
499.3781
 30
0.0
 10
392.1089
 20
504.1273000000001
 30
0.0
 10
392.1089
 20
504.1273000000001
 30
0.0
 10
393.1455
 20
505.0449
 30
0.0
 10
393.9598
 20
506.3051
 30
0.0
 10
394.543
 20
507.898
 30
0.0
 10
394.543
 20
507.898
 30
0.0
 10
397.117
 20
504.31
 30
0.0
 10
396.831
 20
501.242
 30
0.0
 10
393.685
 20
498.694
 30
0.0
 10
393.685
 20
498.694
 30
0.0
 10
393.295
 20
500.8001
 30
0.0
 10
392.541
 20
503.1661
 30
0.0
 10
391.423
 20
505.7919
 30
0.0
 10
391.423
 20
505.7919
 30
0.0
 10
389.8889
 20
509.276
 30
0.0
 10
391.1109
 20
512.3440000000001
 30
0.0
 10
395.089
 20
514.996
 30
0.0
  0
SPLINE
  5
91
330
1F
100
AcDbEntity
  8
layer 1
370
     5
100
AcDbSpline
210
0.0
220
0.0
230
1.0
 70
     8
 71
     3
 72
     8
 73
     4
 74
     0
 42
0.0000000001
 43
0.0000000001
 40
0.0
 40
0.0
 40
0.0
 40
0.0
 40
1.0
 40
1.0
 40
1.0
 40
1.0
 10
393.3466
 20
517.4210000000001
 30
0.0
 10
393.3456000000001
 20
514.8265
 30
0.0
 10
394.1214
 20
513.0562
 30
0.0
 10
395.674
 20
512.11
 30
0.0
  0
SPLINE
  5
92
330
1F
100
AcDbEntity
  8
layer 1
370
     5
100
AcDbSpline
210
0.0
220
0.0
230
1.0
 70
     8
 71
     3
 72
     8
 73
     4
 74
     0
 42
0.0000000001
 43
0.0000000001
 40
0.0
 40
0.0
 40
0.0
 40
0.0
 40
1.0
 40
1.0
 40
1.0
 40
1.0
 10
399.847
 20
511.915
 30
0.0
 10
401.5319
 20
512.4415
 30
0.0
 10
402.391
 20
513.263
 30
0.0
 10
402.4244
 20
514.3795
 30
0.0
  0
SPLINE
  5
93
330
1F
100
AcDbEntity
  8
layer 1
370
     5
100
AcDbSpline
210
0.0
220
0.0
230
1.0
 70
     8
 71
     3
 72
    84
 73
    80
 74
     0
 42
0.0000000001
 43
0.0000000001
 40
0.0
 40
0.0
 40
0.0
 40
0.0
 40
0.05
 40
0.05
 40
0.05
 40
0.05
 40
0.1
 40
0.1
 40
0.1
 40
0.1
 40
0.15
 40
0.15
 40
0.15
 40
0.15
 40
0.2
 40
0.2
 40
0.2
 40
0.2
 40
0.25
 40
0.25
 40
0.25
 40
0.25
 40
0.3
 40
0.3
 40
0.3
 40
0.3
 40
0.35
 40
0.35
 40
0.35
 40
0.35
 40
0.4
 40
0.4
 40
0.4
 40
0.4
 40
0.45
 40
0.45
 40
0.45
 40
0.45
 40
0.4999999999999999
 40
0.4999999999999999
 40
0.4999999999999999
 40
0.4999999999999999
 40
0.5499999999999999
 40
0.5499999999999999
 40
0.5499999999999999
 40
0.5499999999999999
 40
0.6
 40
0.6
 40
0.6
 40
0.6
 40
0.65
 40
0.65
 40
0.65
 40
0.65
 40
0.7000000000000001
 40
0.7000000000000001
 40
0.7000000000000001
 40
0.7000000000000001
 40
0.7500000000000001
 40
0.7500000000000001
 40
0.7500000000000001
 40
0.7500000000000001
 40
0.8000000000000002
 40
0.8000000000000002
 40
0.8000000000000002
 40
0.8000000000000002
 40
0.8500000000000002
 40
0.8500000000000002
 40
0.8500000000000002
 40
0.8500000000000002
 40
0.9000000000000002
 40
0.9000000000000002
 40
0.9000000000000002
 40
0.9000000000000002
 40
0.9500000000000003
 40
0.9500000000000003
 40
0.9500000000000003
 40
0.9500000000000003
 40
1.0
 40
1.0
 40
1.0
 40
1.0
 10
360.0153
 20
426.8682
 30
0.0
 10
354.3911
 20
419.0751
 30
0.0
 10
347.0004
 20
412.7272
 30
0.0
 10
340.333
 20
405.835
 30
0.0
 10
340.333
 20
405.835
 30
0.0
 10
336.6471
 20
402.2285
 30
0.0
 10
334.1887
 20
391.6756
 30
0.0
 10
340.483
 20
389.1244
 30
0.0
 10
340.483
 20
389.1244
 30
0.0
 10
342.1358
 20
388.4925
 30
0.0
 10
343.4002
 20
387.4761
 30
0.0
 10
344.311
 20
386.062
 30
0.0
 10
344.311
 20
386.062
 30
0.0
 10
348.575
 20
380.42
 30
0.0
 10
351.799
 20
376.286
 30
0.0
 10
353.983
 20
373.66
 30
0.0
 10
353.983
 20
373.66
 30
0.0
 10
356.5699
 20
369.942
 30
0.0
 10
357.883
 20
368.096
 30
0.0
 10
357.922
 20
368.122
 30
0.0
 10
357.922
 20
368.122
 30
0.0
 10
358.1683
 20
367.7918
 30
0.0
 10
358.5106
 20
367.0318
 30
0.0
 10
358.9508
 20
365.8371
 30
0.0
 10
358.9508
 20
365.8371
 30
0.0
 10
359.4778
 20
364.3832
 30
0.0
 10
360.4421
 20
363.2732
 30
0.0
 10
361.8454
 20
362.5018
 30
0.0
 10
361.8454
 20
362.5018
 30
0.0
 10
366.4104
 20
359.1272
 30
0.0
 10
374.0177
 20
358.0888
 30
0.0
 10
379.294
 20
355.837
 30
0.0
 10
379.294
 20
355.837
 30
0.0
 10
381.452
 20
354.992
 30
0.0
 10
383.35
 20
354.953
 30
0.0
 10
384.988
 20
355.72
 30
0.0
 10
384.988
 20
355.72
 30
0.0
 10
386.9928000000001
 20
356.6323
 30
0.0
 10
390.5274
 20
358.1656
 30
0.0
 10
395.592
 20
360.3196
 30
0.0
 10
395.592
 20
360.3196
 30
0.0
 10
396.2621
 20
360.6046
 30
0.0
 10
396.4108
 20
361.4974
 30
0.0
 10
395.8688
 20
361.9839
 30
0.0
 10
395.8688
 20
361.9839
 30
0.0
 10
393.7237
 20
363.9099
 30
0.0
 10
389.433
 20
365.9835
 30
0.0
 10
382.9971000000001
 20
368.2047
 30
0.0
 10
382.9971000000001
 20
368.2047
 30
0.0
 10
379.905
 20
368.8621
 30
0.0
 10
379.0819
 20
367.4948
 30
0.0
 10
377.383
 20
365.353
 30
0.0
 10
377.383
 20
365.353
 30
0.0
 10
375.9257
 20
365.1996
 30
0.0
 10
374.7229
 20
365.3292
 30
0.0
 10
373.7746
 20
365.7414
 30
0.0
 10
373.7746
 20
365.7414
 30
0.0
 10
373.2684
 20
365.9614
 30
0.0
 10
373.036
 20
366.553
 30
0.0
 10
373.2571
 20
367.0588
 30
0.0
 10
373.2571
 20
367.0588
 30
0.0
 10
374.5343
 20
369.9829
 30
0.0
 10
372.8157
 20
372.3783
 30
0.0
 10
368.101
 20
374.245
 30
0.0
 10
368.101
 20
374.245
 30
0.0
 10
360.8492
 20
379.1919
 30
0.0
 10
356.0036
 20
385.7085
 30
0.0
 10
350.902
 20
392.692
 30
0.0
 10
350.902
 20
392.692
 30
0.0
 10
351.578
 20
393.875
 30
0.0
 10
351.734
 20
395.084
 30
0.0
 10
351.37
 20
396.319
 30
0.0
 10
351.37
 20
396.319
 30
0.0
 10
359.0019
 20
402.5707
 30
0.0
 10
368.8897
 20
406.0139
 30
0.0
 10
377.773
 20
410.086
 30
0.0
 10
377.773
 20
410.086
 30
0.0
 10
380.8313
 20
410.1883
 30
0.0
 10
383.4569
 20
411.6749
 30
0.0
 10
385.262
 20
413.9037
 30
0.0
  0
SPLINE
  5
94
330
1F
100
AcDbEntity
  8
layer 1
370
     5
100
AcDbSpline
210
0.0
220
0.0
230
1.0
 70
     8
 71
     3
 72
     8
 73
     4
 74
     0
 42
0.0000000001
 43
0.0000000001
 40
0.0
 40
0.0
 40
0.0
 40
0.0
 40
1.0
 40
1.0
 40
1.0
 40
1.0
 10
377.383
 20
365.353
 30
0.0
 10
380.5899
 20
361.4561
 30
0.0
 10
382.7911
 20
358.1249
 30
0.0
 10
383.9864
 20
355.3596
 30
0.0
  0
SPLINE
  5
95
330
1F
100
AcDbEntity
  8
layer 1
370
     5
100
AcDbSpline
210
0.0
220
0.0
230
1.0
 70
     8
 71
     3
 72
    76
 73
    72
 74
     0
 42
0.0000000001
 43
0.0000000001
 40
0.0
 40
0.0
 40
0.0
 40
0.0
 40
0.0555555555555556
 40
0.0555555555555556
 40
0.0555555555555556
 40
0.0555555555555556
 40
0.1111111111111111
 40
0.1111111111111111
 40
0.1111111111111111
 40
0.1111111111111111
 40
0.1666666666666667
 40
0.1666666666666667
 40
0.1666666666666667
 40
0.1666666666666667
 40
0.2222222222222222
 40
0.2222222222222222
 40
0.2222222222222222
 40
0.2222222222222222
 40
0.2777777777777778
 40
0.2777777777777778
 40
0.2777777777777778
 40
0.2777777777777778
 40
0.3333333333333334
 40
0.3333333333333334
 40
0.3333333333333334
 40
0.3333333333333334
 40
0.388888888888889
 40
0.388888888888889
 40
0.388888888888889
 40
0.388888888888889
 40
0.4444444444444445
 40
0.4444444444444445
 40
0.4444444444444445
 40
0.4444444444444445
 40
0.5000000000000001
 40
0.5000000000000001
 40
0.5000000000000001
 40
0.5000000000000001
 40
0.5555555555555557
 40
0.5555555555555557
 40
0.5555555555555557
 40
0.5555555555555557
 40
0.6111111111111113
 40
0.6111111111111113
 40
0.6111111111111113
 40
0.6111111111111113
 40
0.6666666666666669
 40
0.6666666666666669
 40
0.6666666666666669
 40
0.6666666666666669
 40
0.7222222222222224
 40
0.7222222222222224
 40
0.7222222222222224
 40
0.7222222222222224
 40
0.777777777777778
 40
0.777777777777778
 40
0.777777777777778
 40
0.777777777777778
 40
0.8333333333333336
 40
0.8333333333333336
 40
0.8333333333333336
 40
0.8333333333333336
 40
0.8888888888888892
 40
0.8888888888888892
 40
0.8888888888888892
 40
0.8888888888888892
 40
0.9444444444444448
 40
0.9444444444444448
 40
0.9444444444444448
 40
0.9444444444444448
 40
1.0
 40
1.0
 40
1.0
 40
1.0
 10
372.2916
 20
421.5752
 30
0.0
 10
375.6424
 20
417.1009
 30
0.0
 10
386.4756
 20
416.7618
 30
0.0
 10
387.211
 20
410.164
 30
0.0
 10
387.211
 20
410.164
 30
0.0
 10
388.121
 20
402.9620000000001
 30
0.0
 10
388.771
 20
398.204
 30
0.0
 10
389.161
 20
395.89
 30
0.0
 10
389.161
 20
395.89
 30
0.0
 10
390.7515
 20
389.2134
 30
0.0
 10
390.7986
 20
382.6375000000001
 30
0.0
 10
391.4118
 20
375.8677
 30
0.0
 10
391.4118
 20
375.8677
 30
0.0
 10
393.022
 20
370.345
 30
0.0
 10
397.1041
 20
367.693
 30
0.0
 10
403.6301
 20
368.005
 30
0.0
 10
403.6301
 20
368.005
 30
0.0
 10
415.9405
 20
369.3421
 30
0.0
 10
427.5774
 20
370.1448
 30
0.0
 10
440.0169
 20
370.384
 30
0.0
 10
440.0169
 20
370.384
 30
0.0
 10
442.591
 20
370.2669
 30
0.0
 10
444.801
 20
371.2159
 30
0.0
 10
446.6470000000001
 20
373.231
 30
0.0
 10
446.6470000000001
 20
373.231
 30
0.0
 10
448.142
 20
374.466
 30
0.0
 10
451.119
 20
375.311
 30
0.0
 10
455.578
 20
375.766
 30
0.0
 10
455.578
 20
375.766
 30
0.0
 10
460.102
 20
375.844
 30
0.0
 10
463.0139
 20
377.378
 30
0.0
 10
464.314
 20
380.368
 30
0.0
 10
464.314
 20
380.368
 30
0.0
 10
465.0013
 20
381.8475
 30
0.0
 10
466.5448
 20
384.7263
 30
0.0
 10
468.9445
 20
389.0039
 30
0.0
 10
468.9445
 20
389.0039
 30
0.0
 10
469.3226
 20
389.6779
 30
0.0
 10
468.8157000000001
 20
390.5153
 30
0.0
 10
468.0432
 20
390.4928000000001
 30
0.0
 10
468.0432
 20
390.4928000000001
 30
0.0
 10
464.9264
 20
390.4015
 30
0.0
 10
461.6813
 20
390.3285
 30
0.0
 10
458.3080000000001
 20
390.274
 30
0.0
 10
458.3080000000001
 20
390.274
 30
0.0
 10
452.315
 20
390.105
 30
0.0
 10
449.1559
 20
387.4659
 30
0.0
 10
448.831
 20
382.357
 30
0.0
 10
448.831
 20
382.357
 30
0.0
 10
447.388
 20
381.109
 30
0.0
 10
445.6590000000001
 20
380.693
 30
0.0
 10
443.644
 20
381.109
 30
0.0
 10
443.644
 20
381.109
 30
0.0
 10
439.8221
 20
384.073
 30
0.0
 10
435.636
 20
383.969
 30
0.0
 10
431.086
 20
380.797
 30
0.0
 10
431.086
 20
380.797
 30
0.0
 10
425.3016
 20
379.436
 30
0.0
 10
419.1899
 20
379.2963
 30
0.0
 10
413.263
 20
379.003
 30
0.0
 10
413.263
 20
379.003
 30
0.0
 10
409.0901
 20
378.444
 30
0.0
 10
406.867
 20
380.147
 30
0.0
 10
406.594
 20
384.112
 30
0.0
 10
406.594
 20
384.112
 30
0.0
 10
407.5313
 20
392.8608
 30
0.0
 10
409.618
 20
401.5347
 30
0.0
 10
411.664
 20
410.0859
 30
0.0
 10
411.664
 20
410.0859
 30
0.0
 10
412.8054
 20
413.3865
 30
0.0
 10
413.3279
 20
416.0139
 30
0.0
 10
413.2318
 20
417.9684
 30
0.0
  0
SPLINE
  5
96
330
1F
100
AcDbEntity
  8
layer 1
370
     5
100
AcDbSpline
210
0.0
220
0.0
230
1.0
 70
     8
 71
     3
 72
    24
 73
    20
 74
     0
 42
0.0000000001
 43
0.0000000001
 40
0.0
 40
0.0
 40
0.0
 40
0.0
 40
0.2
 40
0.2
 40
0.2
 40
0.2
 40
0.4
 40
0.4
 40
0.4
 40
0.4
 40
0.6000000000000001
 40
0.6000000000000001
 40
0.6000000000000001
 40
0.6000000000000001
 40
0.8
 40
0.8
 40
0.8
 40
0.8
 40
1.0
 40
1.0
 40
1.0
 40
1.0
 10
419.7608
 20
413.7627
 30
0.0
 10
420.3186
 20
413.1898000000001
 30
0.0
 10
420.8047
 20
412.5881
 30
0.0
 10
421.219
 20
411.958
 30
0.0
 10
421.219
 20
411.958
 30
0.0
 10
423.923
 20
407.85
 30
0.0
 10
427.095
 20
406.238
 30
0.0
 10
430.735
 20
407.122
 30
0.0
 10
430.735
 20
407.122
 30
0.0
 10
436.143
 20
407.122
 30
0.0
 10
439.1590000000001
 20
405.874
 30
0.0
 10
439.783
 20
403.378
 30
0.0
 10
439.783
 20
403.378
 30
0.0
 10
441.8629
 20
406.186
 30
0.0
 10
444.463
 20
408.786
 30
0.0
 10
447.583
 20
411.178
 30
0.0
 10
447.583
 20
411.178
 30
0.0
 10
447.57
 20
414.6619
 30
0.0
 10
445.0869
 20
417.4179
 30
0.0
 10
440.134
 20
419.446
 30
0.0
  0
SPLINE
  5
97
330
1F
100
AcDbEntity
  8
layer 1
370
     5
100
AcDbSpline
210
0.0
220
0.0
230
1.0
 70
     8
 71
     3
 72
    12
 73
     8
 74
     0
 42
0.0000000001
 43
0.0000000001
 40
0.0
 40
0.0
 40
0.0
 40
0.0
 40
0.5
 40
0.5
 40
0.5
 40
0.5
 40
1.0
 40
1.0
 40
1.0
 40
1.0
 10
390.0522
 20
442.5405
 30
0.0
 10
393.8518
 20
436.5503
 30
0.0
 10
398.9392
 20
421.5707
 30
0.0
 10
405.931
 20
420.226
 30
0.0
 10
405.931
 20
420.226
 30
0.0
 10
411.222
 20
419.0463
 30
0.0
 10
415.2841
 20
417.375
 30
0.0
 10
418.1172
 20
415.2121
 30
0.0
  0
SPLINE
  5
98
330
1F
100
AcDbEntity
  8
layer 1
370
     5
100
AcDbSpline
210
0.0
220
0.0
230
1.0
 70
     8
 71
     3
 72
     8
 73
     4
 74
     0
 42
0.0000000001
 43
0.0000000001
 40
0.0
 40
0.0
 40
0.0
 40
0.0
 40
1.0
 40
1.0
 40
1.0
 40
1.0
 10
448.831
 20
382.357
 30
0.0
 10
455.5113
 20
382.8804
 30
0.0
 10
460.531
 20
381.941
 30
0.0
 10
463.8899
 20
379.5386
 30
0.0
  0
SPLINE
  5
99
330
1F
100
AcDbEntity
  8
layer 1
370
     5
100
AcDbSpline
210
0.0
220
0.0
230
1.0
 70
     8
 71
     3
 72
    72
 73
    68
 74
     0
 42
0.0000000001
 43
0.0000000001
 40
0.0
 40
0.0
 40
0.0
 40
0.0
 40
0.0588235294117647
 40
0.0588235294117647
 40
0.0588235294117647
 40
0.0588235294117647
 40
0.1176470588235294
 40
0.1176470588235294
 40
0.1176470588235294
 40
0.1176470588235294
 40
0.1764705882352941
 40
0.1764705882352941
 40
0.1764705882352941
 40
0.1764705882352941
 40
0.2352941176470588
 40
0.2352941176470588
 40
0.2352941176470588
 40
0.2352941176470588
 40
0.2941176470588235
 40
0.2941176470588235
 40
0.2941176470588235
 40
0.2941176470588235
 40
0.3529411764705883
 40
0.3529411764705883
 40
0.3529411764705883
 40
0.3529411764705883
 40
0.411764705882353
 40
0.411764705882353
 40
0.411764705882353
 40
0.411764705882353
 40
0.4705882352941177
 40
0.4705882352941177
 40
0.4705882352941177
 40
0.4705882352941177
 40
0.5294117647058824
 40
0.5294117647058824
 40
0.5294117647058824
 40
0.5294117647058824
 40
0.5882352941176471
 40
0.5882352941176471
 40
0.5882352941176471
 40
0.5882352941176471
 40
0.6470588235294118
 40
0.6470588235294118
 40
0.6470588235294118
 40
0.6470588235294118
 40
0.7058823529411765
 40
0.7058823529411765
 40
0.7058823529411765
 40
0.7058823529411765
 40
0.7647058823529412
 40
0.7647058823529412
 40
0.7647058823529412
 40
0.7647058823529412
 40
0.823529411764706
 40
0.823529411764706
 40
0.823529411764706
 40
0.823529411764706
 40
0.8823529411764707
 40
0.8823529411764707
 40
0.8823529411764707
 40
0.8823529411764707
 40
0.9411764705882354
 40
0.9411764705882354
 40
0.9411764705882354
 40
0.9411764705882354
 40
1.0
 40
1.0
 40
1.0
 40
1.0
 10
431.5342
 20
482.5236
 30
0.0
 10
434.7965
 20
482.7705
 30
0.0
 10
436.9333
 20
482.8267
 30
0.0
 10
437.9447
 20
482.6922
 30
0.0
 10
437.9447
 20
482.6922
 30
0.0
 10
440.5872
 20
482.1733
 30
0.0
 10
439.7409
 20
478.499
 30
0.0
 10
437.4178
 20
479.5174
 30
0.0
 10
437.4178
 20
479.5174
 30
0.0
 10
437.0990000000001
 20
480.4319
 30
0.0
 10
436.7153
 20
481.0068
 30
0.0
 10
436.2667
 20
481.242
 30
0.0
 10
436.2667
 20
481.242
 30
0.0
 10
435.5253
 20
481.536
 30
0.0
 10
434.4194
 20
481.5554
 30
0.0
 10
432.9494
 20
481.3007
 30
0.0
 10
432.9494
 20
481.3007
 30
0.0
 10
430.6273000000001
 20
479.9748
 30
0.0
 10
428.9428
 20
478.0084
 30
0.0
 10
427.8957
 20
475.402
 30
0.0
 10
427.8957
 20
475.402
 30
0.0
 10
426.8278
 20
471.479
 30
0.0
 10
425.8911
 20
466.9292
 30
0.0
 10
420.6565
 20
467.8178
 30
0.0
 10
420.6565
 20
467.8178
 30
0.0
 10
419.4336
 20
468.0825
 30
0.0
 10
419.606
 20
469.2518
 30
0.0
 10
420.2662
 20
470.1499
 30
0.0
 10
420.2662
 20
470.1499
 30
0.0
 10
420.8882
 20
471.2063
 30
0.0
 10
420.4223
 20
473.1288
 30
0.0
 10
419.425
 20
474.124
 30
0.0
 10
419.425
 20
474.124
 30
0.0
 10
418.645
 20
475.229
 30
0.0
 10
417.605
 20
476.8281
 30
0.0
 10
416.305
 20
478.9210000000001
 30
0.0
 10
416.305
 20
478.9210000000001
 30
0.0
 10
414.316
 20
481.352
 30
0.0
 10
414.381
 20
484.4851000000001
 30
0.0
 10
416.5
 20
488.3200000000001
 30
0.0
 10
416.5
 20
488.3200000000001
 30
0.0
 10
416.6875
 20
489.0714
 30
0.0
 10
418.164
 20
491.1281
 30
0.0
 10
420.9296
 20
494.4897
 30
0.0
 10
420.9296
 20
494.4897
 30
0.0
 10
421.5866
 20
495.5349000000001
 30
0.0
 10
421.9443
 20
496.6063
 30
0.0
 10
422.0028
 20
497.7037
 30
0.0
 10
422.0028
 20
497.7037
 30
0.0
 10
422.4645
 20
499.5197
 30
0.0
 10
424.1004
 20
499.5196
 30
0.0
 10
424.7567
 20
498.1379
 30
0.0
 10
424.7567
 20
498.1379
 30
0.0
 10
425.9509000000001
 20
495.6651
 30
0.0
 10
427.3969
 20
493.2361
 30
0.0
 10
429.019
 20
490.9330000000001
 30
0.0
 10
429.019
 20
490.9330000000001
 30
0.0
 10
430.9396
 20
488.2578
 30
0.0
 10
431.8661
 20
485.9289
 30
0.0
 10
431.7982
 20
483.9464
 30
0.0
 10
431.7982
 20
483.9464
 30
0.0
 10
431.9477
 20
481.0506
 30
0.0
 10
427.7593
 20
478.8755000000001
 30
0.0
 10
426.3931
 20
475.3628000000001
 30
0.0
 10
426.3931
 20
475.3628000000001
 30
0.0
 10
424.6309
 20
471.7403000000001
 30
0.0
 10
421.7367
 20
472.7449
 30
0.0
 10
419.1808
 20
474.4737
 30
0.0
  0
SPLINE
  5
9A
330
1F
100
AcDbEntity
  8
layer 1
370
     5
100
AcDbSpline
210
0.0
220
0.0
230
1.0
 70
     8
 71
     3
 72
    16
 73
    12
 74
     0
 42
0.0000000001
 43
0.0000000001
 40
0.0
 40
0.0
 40
0.0
 40
0.0
 40
0.3333333333333333
 40
0.3333333333333333
 40
0.3333333333333333
 40
0.3333333333333333
 40
0.6666666666666666
 40
0.6666666666666666
 40
0.6666666666666666
 40
0.6666666666666666
 40
1.0
 40
1.0
 40
1.0
 40
1.0
 10
431.0606
 20
487.4085
 30
0.0
 10
433.5802000000001
 20
487.2191
 30
0.0
 10
436.0506
 20
487.2605
 30
0.0
 10
438.4716
 20
487.5327
 30
0.0
 10
438.4716
 20
487.5327
 30
0.0
 10
439.2518
 20
486.6247
 30
0.0
 10
439.1218
 20
486.0432
 30
0.0
 10
438.0813
 20
485.7885
 30
0.0
 10
438.0813
 20
485.7885
 30
0.0
 10
435.8139000000001
 20
485.7319
 30
0.0
 10
433.6583
 20
485.7102
 30
0.0
 10
431.6145
 20
485.7234
 30
0.0
  0
SPLINE
  5
9B
330
1F
100
AcDbEntity
  8
layer 1
370
     5
100
AcDbSpline
210
0.0
220
0.0
230
1.0
 70
     8
 71
     3
 72
    28
 73
    24
 74
     0
 42
0.0000000001
 43
0.0000000001
 40
0.0
 40
0.0
 40
0.0
 40
0.0
 40
0.1666666666666667
 40
0.1666666666666667
 40
0.1666666666666667
 40
0.1666666666666667
 40
0.3333333333333333
 40
0.3333333333333333
 40
0.3333333333333333
 40
0.3333333333333333
 40
0.5
 40
0.5
 40
0.5
 40
0.5
 40
0.6666666666666666
 40
0.6666666666666666
 40
0.6666666666666666
 40
0.6666666666666666
 40
0.8333333333333333
 40
0.8333333333333333
 40
0.8333333333333333
 40
0.8333333333333333
 40
1.0
 40
1.0
 40
1.0
 40
1.0
 10
435.3287
 20
481.4356
 30
0.0
 10
435.6262
 20
480.2047
 30
0.0
 10
436.097
 20
478.9374
 30
0.0
 10
436.741
 20
477.6339
 30
0.0
 10
436.741
 20
477.6339
 30
0.0
 10
439.5162
 20
473.627
 30
0.0
 10
441.044
 20
470.4061
 30
0.0
 10
441.343
 20
465.232
 30
0.0
 10
441.343
 20
465.232
 30
0.0
 10
441.551
 20
458.6411
 30
0.0
 10
443.423
 20
452.96
 30
0.0
 10
446.491
 20
447.37
 30
0.0
 10
446.491
 20
447.37
 30
0.0
 10
445.1
 20
446.902
 30
0.0
 10
444.047
 20
445.862
 30
0.0
 10
443.332
 20
444.25
 30
0.0
 10
443.332
 20
444.25
 30
0.0
 10
441.629
 20
441.8451
 30
0.0
 10
438.444
 20
440.9740000000001
 30
0.0
 10
433.777
 20
441.637
 30
0.0
 10
433.777
 20
441.637
 30
0.0
 10
433.9959
 20
451.3273
 30
0.0
 10
426.7149
 20
459.1866
 30
0.0
 10
423.0856
 20
467.8299
 30
0.0
  0
SPLINE
  5
9C
330
1F
100
AcDbEntity
  8
layer 1
370
     5
100
AcDbSpline
210
0.0
220
0.0
230
1.0
 70
     8
 71
     3
 72
     8
 73
     4
 74
     0
 42
0.0000000001
 43
0.0000000001
 40
0.0
 40
0.0
 40
0.0
 40
0.0
 40
1.0
 40
1.0
 40
1.0
 40
1.0
 10
436.9753
 20
491.0272000000001
 30
0.0
 10
436.1751
 20
489.83
 30
0.0
 10
435.6114
 20
488.5832
 30
0.0
 10
435.2844
 20
487.2866
 30
0.0
  0
SPLINE
  5
9D
330
1F
100
AcDbEntity
  8
layer 1
370
     5
100
AcDbSpline
210
0.0
220
0.0
230
1.0
 70
     8
 71
     3
 72
     8
 73
     4
 74
     0
 42
0.0000000001
 43
0.0000000001
 40
0.0
 40
0.0
 40
0.0
 40
0.0
 40
1.0
 40
1.0
 40
1.0
 40
1.0
 10
437.4177
 20
485.7729000000001
 30
0.0
 10
437.7832
 20
484.5057000000001
 30
0.0
 10
437.7832
 20
483.4946000000001
 30
0.0
 10
437.4177
 20
482.7396
 30
0.0
  0
SPLINE
  5
9E
330
1F
100
AcDbEntity
  8
layer 1
370
     5
100
AcDbSpline
210
0.0
220
0.0
230
1.0
 70
     8
 71
     3
 72
     8
 73
     4
 74
     0
 42
0.0000000001
 43
0.0000000001
 40
0.0
 40
0.0
 40
0.0
 40
0.0
 40
1.0
 40
1.0
 40
1.0
 40
1.0
 10
459.2301000000001
 20
496.0741
 30
0.0
 10
443.8956
 20
489.5926
 30
0.0
 10
453.3007
 20
465.9592
 30
0.0
 10
441.5815
 20
462.0253
 30
0.0
  0
SPLINE
  5
9F
330
1F
100
AcDbEntity
  8
layer 1
370
     5
100
AcDbSpline
210
0.0
220
0.0
230
1.0
 70
     8
 71
     3
 72
     8
 73
     4
 74
     0
 42
0.0000000001
 43
0.0000000001
 40
0.0
 40
0.0
 40
0.0
 40
0.0
 40
1.0
 40
1.0
 40
1.0
 40
1.0
 10
426.2596
 20
461.5103
 30
0.0
 10
412.8626
 20
465.9051
 30
0.0
 10
407.8096000000001
 20
483.9679
 30
0.0
 10
413.5288000000001
 20
499.1318
 30
0.0
  0
SPLINE
  5
A0
330
1F
100
AcDbEntity
  8
layer 1
370
     5
100
AcDbSpline
210
0.0
220
0.0
230
1.0
 70
     8
 71
     3
 72
    20
 73
    16
 74
     0
 42
0.0000000001
 43
0.0000000001
 40
0.0
 40
0.0
 40
0.0
 40
0.0
 40
0.25
 40
0.25
 40
0.25
 40
0.25
 40
0.5
 40
0.5
 40
0.5
 40
0.5
 40
0.75
 40
0.75
 40
0.75
 40
0.75
 40
1.0
 40
1.0
 40
1.0
 40
1.0
 10
468.9583
 20
517.7384000000001
 30
0.0
 10
469.9302
 20
518.4865
 30
0.0
 10
470.4752
 20
520.0035
 30
0.0
 10
470.593
 20
522.289
 30
0.0
 10
470.593
 20
522.289
 30
0.0
 10
472.0100000000001
 20
523.1600000000001
 30
0.0
 10
473.505
 20
523.277
 30
0.0
 10
475.078
 20
522.64
 30
0.0
 10
475.078
 20
522.64
 30
0.0
 10
474.818
 20
519.2731
 30
0.0
 10
474.61
 20
516.2960000000001
 30
0.0
 10
474.454
 20
513.7090000000001
 30
0.0
 10
474.454
 20
513.7090000000001
 30
0.0
 10
475.1541
 20
506.318
 30
0.0
 10
474.2498000000001
 20
503.5343
 30
0.0
 10
467.9724000000001
 20
499.4591
 30
0.0
  0
SPLINE
  5
A1
330
1F
100
AcDbEntity
  8
layer 1
370
     5
100
AcDbSpline
210
0.0
220
0.0
230
1.0
 70
     8
 71
     3
 72
     8
 73
     4
 74
     0
 42
0.0000000001
 43
0.0000000001
 40
0.0
 40
0.0
 40
0.0
 40
0.0
 40
1.0
 40
1.0
 40
1.0
 40
1.0
 10
467.863
 20
525.1360000000001
 30
0.0
 10
468.4575
 20
518.3986
 30
0.0
 10
471.5772
 20
507.4069
 30
0.0
 10
469.7945
 20
500.7204
 30
0.0
  0
SPLINE
  5
A2
330
1F
100
AcDbEntity
  8
layer 1
370
     5
100
AcDbSpline
210
0.0
220
0.0
230
1.0
 70
     8
 71
     3
 72
     8
 73
     4
 74
     0
 42
0.0000000001
 43
0.0000000001
 40
0.0
 40
0.0
 40
0.0
 40
0.0
 40
1.0
 40
1.0
 40
1.0
 40
1.0
 10
405.265
 20
512.8046000000001
 30
0.0
 10
408.4705
 20
511.3800000000001
 30
0.0
 10
410.6793
 20
510.3389
 30
0.0
 10
411.8912
 20
509.6817
 30
0.0
  0
SPLINE
  5
A3
330
1F
100
AcDbEntity
  8
layer 1
370
     5
100
AcDbSpline
210
0.0
220
0.0
230
1.0
 70
     8
 71
     3
 72
    12
 73
     8
 74
     0
 42
0.0000000001
 43
0.0000000001
 40
0.0
 40
0.0
 40
0.0
 40
0.0
 40
0.5
 40
0.5
 40
0.5
 40
0.5
 40
1.0
 40
1.0
 40
1.0
 40
1.0
 10
414.5016
 20
521.5421
 30
0.0
 10
413.666
 20
521.7301
 30
0.0
 10
412.9541
 20
521.8100000000001
 30
0.0
 10
412.3659
 20
521.782
 30
0.0
 10
412.3659
 20
521.782
 30
0.0
 10
411.5528000000001
 20
515.7437
 30
0.0
 10
411.4925
 20
510.4422
 30
0.0
 10
412.5669
 20
504.4173
 30
0.0
  0
SPLINE
  5
A4
330
1F
100
AcDbEntity
  8
layer 1
370
     5
100
AcDbSpline
210
0.0
220
0.0
230
1.0
 70
     8
 71
     3
 72
     8
 73
     4
 74
     0
 42
0.0000000001
 43
0.0000000001
 40
0.0
 40
0.0
 40
0.0
 40
0.0
 40
1.0
 40
1.0
 40
1.0
 40
1.0
 10
483.8384
 20
529.5101000000001
 30
0.0
 10
483.3726
 20
528.2109
 30
0.0
 10
482.2764
 20
527.2241
 30
0.0
 10
480.55
 20
526.5497
 30
0.0
  0
SPLINE
  5
A5
330
1F
100
AcDbEntity
  8
layer 1
370
     5
100
AcDbSpline
210
0.0
220
0.0
230
1.0
 70
     8
 71
     3
 72
     8
 73
     4
 74
     0
 42
0.0000000001
 43
0.0000000001
 40
0.0
 40
0.0
 40
0.0
 40
0.0
 40
1.0
 40
1.0
 40
1.0
 40
1.0
 10
490.3946
 20
535.7420000000001
 30
0.0
 10
487.4808
 20
534.8928000000001
 30
0.0
 10
485.2953
 20
532.8155
 30
0.0
 10
483.8384
 20
529.5101000000001
 30
0.0
  0
SPLINE
  5
A6
330
1F
100
AcDbEntity
  8
layer 1
370
     5
100
AcDbSpline
210
0.0
220
0.0
230
1.0
 70
     8
 71
     3
 72
    12
 73
     8
 74
     0
 42
0.0000000001
 43
0.0000000001
 40
0.0
 40
0.0
 40
0.0
 40
0.0
 40
0.5
 40
0.5
 40
0.5
 40
0.5
 40
1.0
 40
1.0
 40
1.0
 40
1.0
 10
485.881
 20
541.009
 30
0.0
 10
486.6479000000001
 20
538.9160000000001
 30
0.0
 10
488.221
 20
537.4729
 30
0.0
 10
490.6
 20
536.6800000000001
 30
0.0
 10
490.6
 20
536.6800000000001
 30
0.0
 10
490.7778
 20
536.3039
 30
0.0
 10
490.7094
 20
535.9912000000001
 30
0.0
 10
490.3946
 20
535.7420000000001
 30
0.0
  0
SPLINE
  5
A7
330
1F
100
AcDbEntity
  8
layer 1
370
     5
100
AcDbSpline
210
0.0
220
0.0
230
1.0
 70
     8
 71
     3
 72
    20
 73
    16
 74
     0
 42
0.0000000001
 43
0.0000000001
 40
0.0
 40
0.0
 40
0.0
 40
0.0
 40
0.25
 40
0.25
 40
0.25
 40
0.25
 40
0.5
 40
0.5
 40
0.5
 40
0.5
 40
0.75
 40
0.75
 40
0.75
 40
0.75
 40
1.0
 40
1.0
 40
1.0
 40
1.0
 10
485.9831
 20
540.7458
 30
0.0
 10
485.8156
 20
541.1314
 30
0.0
 10
485.8292
 20
542.096
 30
0.0
 10
486.0239
 20
543.6396
 30
0.0
 10
486.0239
 20
543.6396
 30
0.0
 10
485.8612
 20
545.2336
 30
0.0
 10
484.9570000000001
 20
546.4879000000001
 30
0.0
 10
483.3116
 20
547.4024000000001
 30
0.0
 10
483.3116
 20
547.4024000000001
 30
0.0
 10
481.0676
 20
548.1602
 30
0.0
 10
478.4724000000001
 20
547.7422
 30
0.0
 10
475.526
 20
546.1482
 30
0.0
 10
475.526
 20
546.1482
 30
0.0
 10
469.1088
 20
543.0784
 30
0.0
 10
470.5194
 20
537.8052
 30
0.0
 10
474.0507
 20
532.6031
 30
0.0
  0
SPLINE
  5
A8
330
1F
100
AcDbEntity
  8
layer 1
370
     5
100
AcDbSpline
210
0.0
220
0.0
230
1.0
 70
     8
 71
     3
 72
    20
 73
    16
 74
     0
 42
0.0000000001
 43
0.0000000001
 40
0.0
 40
0.0
 40
0.0
 40
0.0
 40
0.25
 40
0.25
 40
0.25
 40
0.25
 40
0.5
 40
0.5
 40
0.5
 40
0.5
 40
0.75
 40
0.75
 40
0.75
 40
0.75
 40
1.0
 40
1.0
 40
1.0
 40
1.0
 10
480.4848
 20
526.5245
 30
0.0
 10
478.9534
 20
525.8886
 30
0.0
 10
476.5788
 20
525.3839
 30
0.0
 10
473.4385
 20
525.0166
 30
0.0
 10
473.4385
 20
525.0166
 30
0.0
 10
472.0006
 20
524.8982
 30
0.0
 10
471.302
 20
525.1886000000001
 30
0.0
 10
471.4257
 20
525.9267
 30
0.0
 10
471.4257
 20
525.9267
 30
0.0
 10
479.8736
 20
526.912
 30
0.0
 10
466.9195
 20
539.9491
 30
0.0
 10
477.73
 20
544.402
 30
0.0
 10
477.73
 20
544.402
 30
0.0
 10
483.2234
 20
546.4623
 30
0.0
 10
487.0602
 20
538.1008000000001
 30
0.0
 10
485.3485
 20
532.1563
 30
0.0
  0
SPLINE
  5
A9
330
1F
100
AcDbEntity
  8
layer 1
370
     5
100
AcDbSpline
210
0.0
220
0.0
230
1.0
 70
     8
 71
     3
 72
    20
 73
    16
 74
     0
 42
0.0000000001
 43
0.0000000001
 40
0.0
 40
0.0
 40
0.0
 40
0.0
 40
0.25
 40
0.25
 40
0.25
 40
0.25
 40
0.5
 40
0.5
 40
0.5
 40
0.5
 40
0.75
 40
0.75
 40
0.75
 40
0.75
 40
1.0
 40
1.0
 40
1.0
 40
1.0
 10
480.226
 20
556.5700000000001
 30
0.0
 10
482.4948
 20
557.7667
 30
0.0
 10
484.1942
 20
560.7428
 30
0.0
 10
481.7701
 20
562.6883
 30
0.0
 10
481.7701
 20
562.6883
 30
0.0
 10
480.7423
 20
563.7205
 30
0.0
 10
480.287
 20
564.9094
 30
0.0
 10
480.4042
 20
566.255
 30
0.0
 10
480.4042
 20
566.255
 30
0.0
 10
481.0161000000001
 20
572.4337
 30
0.0
 10
476.7283000000001
 20
580.8893000000001
 30
0.0
 10
469.657
 20
580.438
 30
0.0
 10
469.657
 20
580.438
 30
0.0
 10
464.3531
 20
580.3989
 30
0.0
 10
460.6611
 20
580.698
 30
0.0
 10
458.581
 20
581.335
 30
0.0
  0
SPLINE
  5
AA
330
1F
100
AcDbEntity
  8
layer 1
370
     5
100
AcDbSpline
210
0.0
220
0.0
230
1.0
 70
     8
 71
     3
 72
     8
 73
     4
 74
     0
 42
0.0000000001
 43
0.0000000001
 40
0.0
 40
0.0
 40
0.0
 40
0.0
 40
1.0
 40
1.0
 40
1.0
 40
1.0
 10
452.7802
 20
583.2649
 30
0.0
 10
455.0012
 20
582.3549
 30
0.0
 10
456.5969
 20
581.8545
 30
0.0
 10
457.567
 20
581.764
 30
0.0
  0
SPLINE
  5
AB
330
1F
100
AcDbEntity
  8
layer 1
370
     5
100
AcDbSpline
210
0.0
220
0.0
230
1.0
 70
     8
 71
     3
 72
     8
 73
     4
 74
     0
 42
0.0000000001
 43
0.0000000001
 40
0.0
 40
0.0
 40
0.0
 40
0.0
 40
1.0
 40
1.0
 40
1.0
 40
1.0
 10
480.0334
 20
557.3383
 30
0.0
 10
486.8207
 20
562.5023
 30
0.0
 10
474.4378
 20
564.419
 30
0.0
 10
471.1288
 20
564.3346
 30
0.0
  0
SPLINE
  5
AC
330
1F
100
AcDbEntity
  8
layer 1
370
     5
100
AcDbSpline
210
0.0
220
0.0
230
1.0
 70
     8
 71
     3
 72
     8
 73
     4
 74
     0
 42
0.0000000001
 43
0.0000000001
 40
0.0
 40
0.0
 40
0.0
 40
0.0
 40
1.0
 40
1.0
 40
1.0
 40
1.0
 10
471.0555
 20
565.5774
 30
0.0
 10
475.0395
 20
565.7452000000001
 30
0.0
 10
478.638
 20
564.9035
 30
0.0
 10
481.4372
 20
563.052
 30
0.0
  0
SPLINE
  5
AD
330
1F
100
AcDbEntity
  8
layer 1
370
     5
100
AcDbSpline
210
0.0
220
0.0
230
1.0
 70
     8
 71
     3
 72
     8
 73
     4
 74
     0
 42
0.0000000001
 43
0.0000000001
 40
0.0
 40
0.0
 40
0.0
 40
0.0
 40
1.0
 40
1.0
 40
1.0
 40
1.0
 10
478.5646
 20
563.1713
 30
0.0
 10
479.6866
 20
559.5183000000001
 30
0.0
 10
480.7798
 20
554.3694
 30
0.0
 10
481.8436
 20
547.725
 30
0.0
  0
SPLINE
  5
AE
330
1F
100
AcDbEntity
  8
layer 1
370
     5
100
AcDbSpline
210
0.0
220
0.0
230
1.0
 70
     8
 71
     3
 72
     8
 73
     4
 74
     0
 42
0.0000000001
 43
0.0000000001
 40
0.0
 40
0.0
 40
0.0
 40
0.0
 40
1.0
 40
1.0
 40
1.0
 40
1.0
 10
471.4257
 20
525.9268000000001
 30
0.0
 10
469.3737
 20
525.4367
 30
0.0
 10
467.6104
 20
525.0749000000001
 30
0.0
 10
466.1305
 20
524.8084
 30
0.0
  0
SPLINE
  5
AF
330
1F
100
AcDbEntity
  8
layer 1
370
     5
100
AcDbSpline
210
0.0
220
0.0
230
1.0
 70
     8
 71
     3
 72
    16
 73
    12
 74
     0
 42
0.0000000001
 43
0.0000000001
 40
0.0
 40
0.0
 40
0.0
 40
0.0
 40
0.3333333333333333
 40
0.3333333333333333
 40
0.3333333333333333
 40
0.3333333333333333
 40
0.6666666666666666
 40
0.6666666666666666
 40
0.6666666666666666
 40
0.6666666666666666
 40
1.0
 40
1.0
 40
1.0
 40
1.0
 10
450.6734
 20
600.0569
 30
0.0
 10
450.6019
 20
601.9613000000001
 30
0.0
 10
451.2405
 20
603.5329
 30
0.0
 10
452.8427
 20
604.5703
 30
0.0
 10
452.8427
 20
604.5703
 30
0.0
 10
452.9338
 20
604.8773
 30
0.0
 10
452.9815
 20
604.8104000000001
 30
0.0
 10
452.6693
 20
604.856
 30
0.0
 10
452.6693
 20
604.856
 30
0.0
 10
451.0314
 20
603.8512000000001
 30
0.0
 10
448.9692
 20
603.6663
 30
0.0
 10
446.5459
 20
604.0158
 30
0.0
  0
SPLINE
  5
B0
330
1F
100
AcDbEntity
  8
layer 1
370
     5
100
AcDbSpline
210
0.0
220
0.0
230
1.0
 70
    11
 71
     3
 72
    20
 73
    16
 74
     0
 42
0.0000000001
 43
0.0000000001
 40
0.0
 40
0.0
 40
0.0
 40
0.0
 40
0.25
 40
0.25
 40
0.25
 40
0.25
 40
0.5
 40
0.5
 40
0.5
 40
0.5
 40
0.75
 40
0.75
 40
0.75
 40
0.75
 40
1.0
 40
1.0
 40
1.0
 40
1.0
 10
455.1880000000001
 20
444.592
 30
0.0
 10
455.8507
 20
444.592
 30
0.0
 10
456.388
 20
444.0546
 30
0.0
 10
456.388
 20
443.392
 30
0.0
 10
456.388
 20
443.392
 30
0.0
 10
456.388
 20
442.7294
 30
0.0
 10
455.8507
 20
442.192
 30
0.0
 10
455.1880000000001
 20
442.192
 30
0.0
 10
455.1880000000001
 20
442.192
 30
0.0
 10
454.5253
 20
442.192
 30
0.0
 10
453.988
 20
442.7294
 30
0.0
 10
453.988
 20
443.392
 30
0.0
 10
453.988
 20
443.392
 30
0.0
 10
453.988
 20
444.0546
 30
0.0
 10
454.5253
 20
444.592
 30
0.0
 10
455.1880000000001
 20
444.592
 30
0.0
  0
SPLINE
  5
B1
330
1F
100
AcDbEntity
  8
layer 1
370
     5
100
AcDbSpline
210
0.0
220
0.0
230
1.0
 70
     8
 71
     3
 72
     8
 73
     4
 74
     0
 42
0.0000000001
 43
0.0000000001
 40
0.0
 40
0.0
 40
0.0
 40
0.0
 40
1.0
 40
1.0
 40
1.0
 40
1.0
 10
454.0191
 20
443.1193
 30
0.0
 10
451.2228
 20
440.5842
 30
0.0
 10
447.5229000000001
 20
438.366
 30
0.0
 10
444.8844
 20
437.3391
 30
0.0
  0
SPLINE
  5
B2
330
1F
100
AcDbEntity
  8
layer 1
370
     5
100
AcDbSpline
210
0.0
220
0.0
230
1.0
 70
     8
 71
     3
 72
     8
 73
     4
 74
     0
 42
0.0000000001
 43
0.0000000001
 40
0.0
 40
0.0
 40
0.0
 40
0.0
 40
1.0
 40
1.0
 40
1.0
 40
1.0
 10
454.9599
 20
442.2137
 30
0.0
 10
451.4048
 20
439.3361
 30
0.0
 10
448.0739
 20
437.0663
 30
0.0
 10
445.9309
 20
435.9455
 30
0.0
  0
SPLINE
  5
B3
330
1F
100
AcDbEntity
  8
layer 1
370
     5
100
AcDbSpline
210
0.0
220
0.0
230
1.0
 70
     8
 71
     3
 72
     8
 73
     4
 74
     0
 42
0.0000000001
 43
0.0000000001
 40
0.0
 40
0.0
 40
0.0
 40
0.0
 40
1.0
 40
1.0
 40
1.0
 40
1.0
 10
446.491
 20
447.37
 30
0.0
 10
446.9291
 20
443.8549
 30
0.0
 10
447.9469
 20
441.2859
 30
0.0
 10
449.5443
 20
439.6632
 30
0.0
  0
SPLINE
  5
B4
330
1F
100
AcDbEntity
  8
layer 1
370
     5
100
AcDbSpline
210
0.0
220
0.0
230
1.0
 70
     8
 71
     3
 72
    12
 73
     8
 74
     0
 42
0.0000000001
 43
0.0000000001
 40
0.0
 40
0.0
 40
0.0
 40
0.0
 40
0.5
 40
0.5
 40
0.5
 40
0.5
 40
1.0
 40
1.0
 40
1.0
 40
1.0
 10
450.5012
 20
438.7995
 30
0.0
 10
452.7829
 20
437.0611
 30
0.0
 10
453.1102
 20
435.4067
 30
0.0
 10
451.483
 20
433.8370000000001
 30
0.0
 10
451.483
 20
433.8370000000001
 30
0.0
 10
448.1658000000001
 20
430.8785
 30
0.0
 10
446.0385
 20
428.2934
 30
0.0
 10
444.6863
 20
426.2817
 30
0.0
  0
SPLINE
  5
B5
330
1F
100
AcDbEntity
  8
layer 1
370
     5
100
AcDbSpline
210
0.0
220
0.0
230
1.0
 70
     8
 71
     3
 72
     8
 73
     4
 74
     0
 42
0.0000000001
 43
0.0000000001
 40
0.0
 40
0.0
 40
0.0
 40
0.0
 40
1.0
 40
1.0
 40
1.0
 40
1.0
 10
437.2864
 20
440.4398000000001
 30
0.0
 10
443.9411
 20
440.1376
 30
0.0
 10
447.5723
 20
436.1852
 30
0.0
 10
447.122
 20
429.4454
 30
0.0
  0
SPLINE
  5
B6
330
1F
100
AcDbEntity
  8
layer 1
370
     5
100
AcDbSpline
210
0.0
220
0.0
230
1.0
 70
     8
 71
     3
 72
     8
 73
     4
 74
     0
 42
0.0000000001
 43
0.0000000001
 40
0.0
 40
0.0
 40
0.0
 40
0.0
 40
1.0
 40
1.0
 40
1.0
 40
1.0
 10
437.1885
 20
439.4763
 30
0.0
 10
442.6025
 20
439.0703
 30
0.0
 10
445.8788
 20
434.7855
 30
0.0
 10
445.4449
 20
427.3562
 30
0.0
  0
SPLINE
  5
B7
330
1F
100
AcDbEntity
  8
layer 1
370
     5
100
AcDbSpline
210
0.0
220
0.0
230
1.0
 70
     8
 71
     3
 72
     8
 73
     4
 74
     0
 42
0.0000000001
 43
0.0000000001
 40
0.0
 40
0.0
 40
0.0
 40
0.0
 40
1.0
 40
1.0
 40
1.0
 40
1.0
 10
434.089
 20
436.06
 30
0.0
 10
440.1892
 20
432.3507
 30
0.0
 10
440.6082
 20
424.3899
 30
0.0
 10
443.995
 20
418.7829
 30
0.0
  0
SPLINE
  5
B8
330
1F
100
AcDbEntity
  8
layer 1
370
     5
100
AcDbSpline
210
0.0
220
0.0
230
1.0
 70
     8
 71
     3
 72
     8
 73
     4
 74
     0
 42
0.0000000001
 43
0.0000000001
 40
0.0
 40
0.0
 40
0.0
 40
0.0
 40
1.0
 40
1.0
 40
1.0
 40
1.0
 10
434.089
 20
436.06
 30
0.0
 10
430.6699
 20
432.2899000000001
 30
0.0
 10
429.097
 20
428.936
 30
0.0
 10
429.37
 20
425.9979
 30
0.0
  0
SPLINE
  5
B9
330
1F
100
AcDbEntity
  8
layer 1
370
     5
100
AcDbSpline
210
0.0
220
0.0
230
1.0
 70
     8
 71
     3
 72
    20
 73
    16
 74
     0
 42
0.0000000001
 43
0.0000000001
 40
0.0
 40
0.0
 40
0.0
 40
0.0
 40
0.25
 40
0.25
 40
0.25
 40
0.25
 40
0.5
 40
0.5
 40
0.5
 40
0.5
 40
0.75
 40
0.75
 40
0.75
 40
0.75
 40
1.0
 40
1.0
 40
1.0
 40
1.0
 10
428.5022
 20
425.0734
 30
0.0
 10
427.7758
 20
428.83
 30
0.0
 10
429.4663000000001
 20
432.7372
 30
0.0
 10
433.5737
 20
436.7953
 30
0.0
 10
433.5737
 20
436.7953
 30
0.0
 10
434.9526
 20
437.037
 30
0.0
 10
436.0454
 20
437.1350000000001
 30
0.0
 10
436.852
 20
437.0892
 30
0.0
 10
436.852
 20
437.0892
 30
0.0
 10
442.5156
 20
433.2178
 30
0.0
 10
444.0198
 20
427.0537
 30
0.0
 10
447.037
 20
421.318
 30
0.0
 10
447.037
 20
421.318
 30
0.0
 10
446.439
 20
420.4991
 30
0.0
 10
445.4573
 20
419.5923
 30
0.0
 10
443.995
 20
418.7829
 30
0.0
  0
SPLINE
  5
BA
330
1F
100
AcDbEntity
  8
layer 1
370
     5
100
AcDbSpline
210
0.0
220
0.0
230
1.0
 70
     8
 71
     3
 72
     8
 73
     4
 74
     0
 42
0.0000000001
 43
0.0000000001
 40
0.0
 40
0.0
 40
0.0
 40
0.0
 40
1.0
 40
1.0
 40
1.0
 40
1.0
 10
435.4317
 20
435.1053
 30
0.0
 10
435.1029
 20
434.1101000000001
 30
0.0
 10
434.7853
 20
432.8942
 30
0.0
 10
434.479
 20
431.458
 30
0.0
  0
SPLINE
  5
BB
330
1F
100
AcDbEntity
  8
layer 1
370
     5
100
AcDbSpline
210
0.0
220
0.0
230
1.0
 70
     8
 71
     3
 72
    16
 73
    12
 74
     0
 42
0.0000000001
 43
0.0000000001
 40
0.0
 40
0.0
 40
0.0
 40
0.0
 40
0.3333333333333333
 40
0.3333333333333333
 40
0.3333333333333333
 40
0.3333333333333333
 40
0.6666666666666666
 40
0.6666666666666666
 40
0.6666666666666666
 40
0.6666666666666666
 40
1.0
 40
1.0
 40
1.0
 40
1.0
 10
437.0786
 20
416.8353
 30
0.0
 10
438.158
 20
417.9119
 30
0.0
 10
439.1766
 20
418.7822000000001
 30
0.0
 10
440.134
 20
419.446
 30
0.0
 10
440.134
 20
419.446
 30
0.0
 10
440.1932000000001
 20
422.4443
 30
0.0
 10
438.9573
 20
431.9556
 30
0.0
 10
434.479
 20
431.458
 30
0.0
 10
434.479
 20
431.458
 30
0.0
 10
433.0501
 20
430.8215
 30
0.0
 10
431.9971000000001
 20
429.7163000000001
 30
0.0
 10
431.32
 20
428.143
 30
0.0
  0
SPLINE
  5
BC
330
1F
100
AcDbEntity
  8
layer 1
370
     5
100
AcDbSpline
210
0.0
220
0.0
230
1.0
 70
     8
 71
     3
 72
    16
 73
    12
 74
     0
 42
0.0000000001
 43
0.0000000001
 40
0.0
 40
0.0
 40
0.0
 40
0.0
 40
0.3333333333333333
 40
0.3333333333333333
 40
0.3333333333333333
 40
0.3333333333333333
 40
0.6666666666666666
 40
0.6666666666666666
 40
0.6666666666666666
 40
0.6666666666666666
 40
1.0
 40
1.0
 40
1.0
 40
1.0
 10
433.7426
 20
415.5519000000001
 30
0.0
 10
434.9833
 20
415.7385
 30
0.0
 10
436.0999000000001
 20
416.0877
 30
0.0
 10
437.092
 20
416.5990000000001
 30
0.0
 10
437.092
 20
416.5990000000001
 30
0.0
 10
436.8762
 20
420.0842
 30
0.0
 10
437.1893
 20
429.9824
 30
0.0
 10
431.32
 20
428.143
 30
0.0
 10
431.32
 20
428.143
 30
0.0
 10
430.4482
 20
427.3818
 30
0.0
 10
429.7981
 20
426.6667000000001
 30
0.0
 10
429.37
 20
425.9979
 30
0.0
  0
SPLINE
  5
BD
330
1F
100
AcDbEntity
  8
layer 1
370
     5
100
AcDbSpline
210
0.0
220
0.0
230
1.0
 70
     8
 71
     3
 72
    16
 73
    12
 74
     0
 42
0.0000000001
 43
0.0000000001
 40
0.0
 40
0.0
 40
0.0
 40
0.0
 40
0.3333333333333333
 40
0.3333333333333333
 40
0.3333333333333333
 40
0.3333333333333333
 40
0.6666666666666666
 40
0.6666666666666666
 40
0.6666666666666666
 40
0.6666666666666666
 40
1.0
 40
1.0
 40
1.0
 40
1.0
 10
431.047
 20
414.727
 30
0.0
 10
432.4591
 20
414.9395
 30
0.0
 10
433.3562
 20
415.1606
 30
0.0
 10
433.738
 20
415.39
 30
0.0
 10
433.738
 20
415.39
 30
0.0
 10
433.8132
 20
418.2511
 30
0.0
 10
434.4571
 20
427.1398
 30
0.0
 10
429.37
 20
425.9979
 30
0.0
 10
429.37
 20
425.9979
 30
0.0
 10
428.4159
 20
425.1284
 30
0.0
 10
427.6123
 20
423.9588
 30
0.0
 10
426.959
 20
422.4892
 30
0.0
  0
SPLINE
  5
BE
330
1F
100
AcDbEntity
  8
layer 1
370
     5
100
AcDbSpline
210
0.0
220
0.0
230
1.0
 70
    11
 71
     3
 72
    16
 73
    12
 74
     0
 42
0.0000000001
 43
0.0000000001
 40
0.0
 40
0.0
 40
0.0
 40
0.0
 40
0.3333333333333333
 40
0.3333333333333333
 40
0.3333333333333333
 40
0.3333333333333333
 40
0.6666666666666666
 40
0.6666666666666666
 40
0.6666666666666666
 40
0.6666666666666666
 40
1.0
 40
1.0
 40
1.0
 40
1.0
 10
427.459
 20
413.128
 30
0.0
 10
429.1879
 20
416.469
 30
0.0
 10
428.7069
 20
418.5881
 30
0.0
 10
426.016
 20
419.4849
 30
0.0
 10
426.016
 20
419.4849
 30
0.0
 10
420.1139
 20
417.4961
 30
0.0
 10
417.124
 20
415.2731
 30
0.0
 10
417.046
 20
412.816
 30
0.0
 10
417.046
 20
412.816
 30
0.0
 10
419.7508
 20
413.9155
 30
0.0
 10
424.9316
 20
415.3934
 30
0.0
 10
427.459
 20
413.128
 30
0.0
  0
SPLINE
  5
BF
330
1F
100
AcDbEntity
  8
layer 1
370
     5
100
AcDbSpline
210
0.0
220
0.0
230
1.0
 70
     8
 71
     3
 72
    16
 73
    12
 74
     0
 42
0.0000000001
 43
0.0000000001
 40
0.0
 40
0.0
 40
0.0
 40
0.0
 40
0.3333333333333333
 40
0.3333333333333333
 40
0.3333333333333333
 40
0.3333333333333333
 40
0.6666666666666666
 40
0.6666666666666666
 40
0.6666666666666666
 40
0.6666666666666666
 40
1.0
 40
1.0
 40
1.0
 40
1.0
 10
426.016
 20
419.4849
 30
0.0
 10
426.0656
 20
420.6156
 30
0.0
 10
426.3799
 20
421.6171
 30
0.0
 10
426.959
 20
422.4893
 30
0.0
 10
426.959
 20
422.4893
 30
0.0
 10
431.8583
 20
425.3109
 30
0.0
 10
431.2947
 20
417.1615000000001
 30
0.0
 10
431.047
 20
414.727
 30
0.0
 10
431.047
 20
414.727
 30
0.0
 10
430.0749
 20
414.3774
 30
0.0
 10
429.0566
 20
414.233
 30
0.0
 10
427.9921
 20
414.2937
 30
0.0
  0
SPLINE
  5
C0
330
1F
100
AcDbEntity
  8
layer 1
370
     5
100
AcDbSpline
210
0.0
220
0.0
230
1.0
 70
     8
 71
     3
 72
     8
 73
     4
 74
     0
 42
0.0000000001
 43
0.0000000001
 40
0.0
 40
0.0
 40
0.0
 40
0.0
 40
1.0
 40
1.0
 40
1.0
 40
1.0
 10
440.134
 20
419.446
 30
0.0
 10
452.2976000000001
 20
416.4566
 30
0.0
 10
467.1222
 20
422.1675
 30
0.0
 10
478.003
 20
426.856
 30
0.0
  0
SPLINE
  5
C1
330
1F
100
AcDbEntity
  8
layer 1
370
     5
100
AcDbSpline
210
0.0
220
0.0
230
1.0
 70
     8
 71
     3
 72
     8
 73
     4
 74
     0
 42
0.0000000001
 43
0.0000000001
 40
0.0
 40
0.0
 40
0.0
 40
0.0
 40
1.0
 40
1.0
 40
1.0
 40
1.0
 10
433.777
 20
441.637
 30
0.0
 10
433.6887
 20
439.663
 30
0.0
 10
433.6209
 20
438.0491
 30
0.0
 10
433.5737
 20
436.7953
 30
0.0
  0
SPLINE
  5
C2
330
1F
100
AcDbEntity
  8
layer 1
370
     5
100
AcDbSpline
210
0.0
220
0.0
230
1.0
 70
     8
 71
     3
 72
     8
 73
     4
 74
     0
 42
0.0000000001
 43
0.0000000001
 40
0.0
 40
0.0
 40
0.0
 40
0.0
 40
1.0
 40
1.0
 40
1.0
 40
1.0
 10
446.9966
 20
413.9212
 30
0.0
 10
451.3919
 20
414.4409
 30
0.0
 10
453.9664
 20
413.5395
 30
0.0
 10
454.7201
 20
411.217
 30
0.0
  0
SPLINE
  5
C3
330
1F
100
AcDbEntity
  8
layer 1
370
     5
100
AcDbSpline
210
0.0
220
0.0
230
1.0
 70
     8
 71
     3
 72
    12
 73
     8
 74
     0
 42
0.0000000001
 43
0.0000000001
 40
0.0
 40
0.0
 40
0.0
 40
0.0
 40
0.5
 40
0.5
 40
0.5
 40
0.5
 40
1.0
 40
1.0
 40
1.0
 40
1.0
 10
458.6141
 20
420.0457
 30
0.0
 10
460.4269000000001
 20
418.367
 30
0.0
 10
461.326
 20
416.8021
 30
0.0
 10
461.311
 20
415.351
 30
0.0
 10
461.311
 20
415.351
 30
0.0
 10
458.516
 20
414.181
 30
0.0
 10
456.319
 20
412.803
 30
0.0
 10
454.7201
 20
411.217
 30
0.0
  0
SPLINE
  5
C4
330
1F
100
AcDbEntity
  8
layer 1
370
     5
100
AcDbSpline
210
0.0
220
0.0
230
1.0
 70
     8
 71
     3
 72
    12
 73
     8
 74
     0
 42
0.0000000001
 43
0.0000000001
 40
0.0
 40
0.0
 40
0.0
 40
0.0
 40
0.5
 40
0.5
 40
0.5
 40
0.5
 40
1.0
 40
1.0
 40
1.0
 40
1.0
 10
461.311
 20
415.351
 30
0.0
 10
458.061
 20
412.2961
 30
0.0
 10
456.9429
 20
408.6429
 30
0.0
 10
457.957
 20
404.392
 30
0.0
 10
457.957
 20
404.392
 30
0.0
 10
455.5781
 20
406.0798
 30
0.0
 10
454.6162000000001
 20
406.65
 30
0.0
 10
454.7201
 20
411.217
 30
0.0
  0
SPLINE
  5
C5
330
1F
100
AcDbEntity
  8
layer 1
370
     5
100
AcDbSpline
210
0.0
220
0.0
230
1.0
 70
     8
 71
     3
 72
     8
 73
     4
 74
     0
 42
0.0000000001
 43
0.0000000001
 40
0.0
 40
0.0
 40
0.0
 40
0.0
 40
1.0
 40
1.0
 40
1.0
 40
1.0
 10
437.3592
 20
441.4414
 30
0.0
 10
437.2161
 20
439.7024
 30
0.0
 10
437.0471
 20
438.2516
 30
0.0
 10
436.852
 20
437.0892
 30
0.0
  0
SPLINE
  5
C6
330
1F
100
AcDbEntity
  8
layer 1
370
     5
100
AcDbSpline
210
0.0
220
0.0
230
1.0
 70
     8
 71
     3
 72
     8
 73
     4
 74
     0
 42
0.0000000001
 43
0.0000000001
 40
0.0
 40
0.0
 40
0.0
 40
0.0
 40
1.0
 40
1.0
 40
1.0
 40
1.0
 10
448.0028
 20
441.8658
 30
0.0
 10
450.3666
 20
441.8445
 30
0.0
 10
451.9453
 20
441.8988
 30
0.0
 10
452.7384
 20
442.0288000000001
 30
0.0
  0
SPLINE
  5
C7
330
1F
100
AcDbEntity
  8
layer 1
370
     5
100
AcDbSpline
210
0.0
220
0.0
230
1.0
 70
     8
 71
     3
 72
     8
 73
     4
 74
     0
 42
0.0000000001
 43
0.0000000001
 40
0.0
 40
0.0
 40
0.0
 40
0.0
 40
1.0
 40
1.0
 40
1.0
 40
1.0
 10
448.6697
 20
440.7295
 30
0.0
 10
450.1399
 20
440.6511
 30
0.0
 10
451.0726
 20
440.762
 30
0.0
 10
451.4676
 20
441.0621
 30
0.0
  0
SPLINE
  5
C8
330
1F
100
AcDbEntity
  8
layer 1
370
     5
100
AcDbSpline
210
0.0
220
0.0
230
1.0
 70
     8
 71
     3
 72
    64
 73
    60
 74
     0
 42
0.0000000001
 43
0.0000000001
 40
0.0
 40
0.0
 40
0.0
 40
0.0
 40
0.0666666666666667
 40
0.0666666666666667
 40
0.0666666666666667
 40
0.0666666666666667
 40
0.1333333333333333
 40
0.1333333333333333
 40
0.1333333333333333
 40
0.1333333333333333
 40
0.2
 40
0.2
 40
0.2
 40
0.2
 40
0.2666666666666667
 40
0.2666666666666667
 40
0.2666666666666667
 40
0.2666666666666667
 40
0.3333333333333333
 40
0.3333333333333333
 40
0.3333333333333333
 40
0.3333333333333333
 40
0.4
 40
0.4
 40
0.4
 40
0.4
 40
0.4666666666666666
 40
0.4666666666666666
 40
0.4666666666666666
 40
0.4666666666666666
 40
0.5333333333333333
 40
0.5333333333333333
 40
0.5333333333333333
 40
0.5333333333333333
 40
0.6
 40
0.6
 40
0.6
 40
0.6
 40
0.6666666666666666
 40
0.6666666666666666
 40
0.6666666666666666
 40
0.6666666666666666
 40
0.7333333333333333
 40
0.7333333333333333
 40
0.7333333333333333
 40
0.7333333333333333
 40
0.7999999999999999
 40
0.7999999999999999
 40
0.7999999999999999
 40
0.7999999999999999
 40
0.8666666666666666
 40
0.8666666666666666
 40
0.8666666666666666
 40
0.8666666666666666
 40
0.9333333333333332
 40
0.9333333333333332
 40
0.9333333333333332
 40
0.9333333333333332
 40
1.0
 40
1.0
 40
1.0
 40
1.0
 10
452.5686
 20
442.0037
 30
0.0
 10
452.6063
 20
442.5493
 30
0.0
 10
452.6075
 20
442.485
 30
0.0
 10
452.6846000000001
 20
442.9154
 30
0.0
 10
452.6846000000001
 20
442.9154
 30
0.0
 10
451.9496
 20
443.1995
 30
0.0
 10
451.067
 20
443.2166
 30
0.0
 10
450.3841000000001
 20
442.4001
 30
0.0
 10
450.3841000000001
 20
442.4001
 30
0.0
 10
450.4881
 20
444.2749
 30
0.0
 10
451.4504
 20
445.4214
 30
0.0
 10
453.4085
 20
445.1633000000001
 30
0.0
 10
453.4085
 20
445.1633000000001
 30
0.0
 10
453.4214
 20
446.4501
 30
0.0
 10
452.4035
 20
446.499
 30
0.0
 10
451.2718
 20
446.5743
 30
0.0
 10
451.2718
 20
446.5743
 30
0.0
 10
452.953
 20
447.6717
 30
0.0
 10
454.618
 20
447.9708
 30
0.0
 10
455.7695
 20
445.9276
 30
0.0
 10
455.7695
 20
445.9276
 30
0.0
 10
456.3353
 20
446.3947
 30
0.0
 10
456.3092
 20
447.1787000000001
 30
0.0
 10
455.8378
 20
448.1715
 30
0.0
 10
455.8378
 20
448.1715
 30
0.0
 10
457.4996
 20
447.9854
 30
0.0
 10
458.5987
 20
447.0219
 30
0.0
 10
457.8866
 20
444.8498
 30
0.0
 10
457.8866
 20
444.8498
 30
0.0
 10
458.5564
 20
444.9412
 30
0.0
 10
459.223
 20
445.5161
 30
0.0
 10
459.2427
 20
446.8095
 30
0.0
 10
459.2427
 20
446.8095
 30
0.0
 10
460.2119
 20
445.4051
 30
0.0
 10
460.098
 20
443.7393
 30
0.0
 10
458.1988
 20
442.988
 30
0.0
 10
458.1988
 20
442.988
 30
0.0
 10
458.6703
 20
442.2694
 30
0.0
 10
459.1972
 20
442.3186
 30
0.0
 10
460.1891
 20
442.6941000000001
 30
0.0
 10
460.1891
 20
442.6941000000001
 30
0.0
 10
459.4833
 20
440.9206
 30
0.0
 10
458.9434
 20
441.0838
 30
0.0
 10
457.145
 20
441.4006
 30
0.0
 10
457.145
 20
441.4006
 30
0.0
 10
457.1725
 20
440.5743
 30
0.0
 10
457.1125
 20
439.6761
 30
0.0
 10
458.3403
 20
439.5781
 30
0.0
 10
458.3403
 20
439.5781
 30
0.0
 10
456.7776
 20
438.7974
 30
0.0
 10
456.0279000000001
 20
439.5487
 30
0.0
 10
455.0572
 20
440.7147
 30
0.0
 10
455.0572
 20
440.7147
 30
0.0
 10
454.4375
 20
440.1984000000001
 30
0.0
 10
454.062
 20
439.9635
 30
0.0
 10
454.2622
 20
438.6963
 30
0.0
 10
454.2622
 20
438.6963
 30
0.0
 10
453.2489000000001
 20
439.345
 30
0.0
 10
453.0214
 20
439.637
 30
0.0
 10
452.7244
 20
440.46
 30
0.0
  0
SPLINE
  5
C9
330
1F
100
AcDbEntity
  8
layer 1
370
     5
100
AcDbSpline
210
0.0
220
0.0
230
1.0
 70
     8
 71
     3
 72
     8
 73
     4
 74
     0
 42
0.0000000001
 43
0.0000000001
 40
0.0
 40
0.0
 40
0.0
 40
0.0
 40
1.0
 40
1.0
 40
1.0
 40
1.0
 10
442.0112
 20
422.9774000000001
 30
0.0
 10
441.2248
 20
421.8196
 30
0.0
 10
440.4752
 20
420.5539
 30
0.0
 10
440.1323
 20
419.9719
 30
0.0
  0
SPLINE
  5
CA
330
1F
100
AcDbEntity
  8
layer 1
370
     5
100
AcDbSpline
210
0.0
220
0.0
230
1.0
 70
     8
 71
     3
 72
    80
 73
    76
 74
     0
 42
0.0000000001
 43
0.0000000001
 40
0.0
 40
0.0
 40
0.0
 40
0.0
 40
0.0526315789473684
 40
0.0526315789473684
 40
0.0526315789473684
 40
0.0526315789473684
 40
0.1052631578947368
 40
0.1052631578947368
 40
0.1052631578947368
 40
0.1052631578947368
 40
0.1578947368421053
 40
0.1578947368421053
 40
0.1578947368421053
 40
0.1578947368421053
 40
0.2105263157894737
 40
0.2105263157894737
 40
0.2105263157894737
 40
0.2105263157894737
 40
0.2631578947368421
 40
0.2631578947368421
 40
0.2631578947368421
 40
0.2631578947368421
 40
0.3157894736842105
 40
0.3157894736842105
 40
0.3157894736842105
 40
0.3157894736842105
 40
0.3684210526315789
 40
0.3684210526315789
 40
0.3684210526315789
 40
0.3684210526315789
 40
0.4210526315789474
 40
0.4210526315789474
 40
0.4210526315789474
 40
0.4210526315789474
 40
0.4736842105263158
 40
0.4736842105263158
 40
0.4736842105263158
 40
0.4736842105263158
 40
0.5263157894736842
 40
0.5263157894736842
 40
0.5263157894736842
 40
0.5263157894736842
 40
0.5789473684210527
 40
0.5789473684210527
 40
0.5789473684210527
 40
0.5789473684210527
 40
0.631578947368421
 40
0.631578947368421
 40
0.631578947368421
 40
0.631578947368421
 40
0.6842105263157894
 40
0.6842105263157894
 40
0.6842105263157894
 40
0.6842105263157894
 40
0.7368421052631577
 40
0.7368421052631577
 40
0.7368421052631577
 40
0.7368421052631577
 40
0.7894736842105261
 40
0.7894736842105261
 40
0.7894736842105261
 40
0.7894736842105261
 40
0.8421052631578945
 40
0.8421052631578945
 40
0.8421052631578945
 40
0.8421052631578945
 40
0.8947368421052628
 40
0.8947368421052628
 40
0.8947368421052628
 40
0.8947368421052628
 40
0.9473684210526312
 40
0.9473684210526312
 40
0.9473684210526312
 40
0.9473684210526312
 40
1.0
 40
1.0
 40
1.0
 40
1.0
 10
512.596
 20
410.749
 30
0.0
 10
512.9468000000001
 20
409.267
 30
0.0
 10
513.0639
 20
407.369
 30
0.0
 10
512.947
 20
405.0549
 30
0.0
 10
512.947
 20
405.0549
 30
0.0
 10
513.077
 20
402.819
 30
0.0
 10
513.831
 20
400.219
 30
0.0
 10
515.2090000000001
 20
397.255
 30
0.0
 10
515.2090000000001
 20
397.255
 30
0.0
 10
516.7950000000001
 20
394.824
 30
0.0
 10
517.4970000000001
 20
392.523
 30
0.0
 10
517.3150000000001
 20
390.352
 30
0.0
 10
517.3150000000001
 20
390.352
 30
0.0
 10
518.5890000000001
 20
386.218
 30
0.0
 10
517.991
 20
383.488
 30
0.0
 10
515.5210000000001
 20
382.162
 30
0.0
 10
515.5210000000001
 20
382.162
 30
0.0
 10
511.699
 20
379.692
 30
0.0
 10
507.201
 20
377.378
 30
0.0
 10
502.027
 20
375.22
 30
0.0
 10
502.027
 20
375.22
 30
0.0
 10
489.6387
 20
369.874
 30
0.0
 10
481.9789
 20
361.3492
 30
0.0
 10
471.529
 20
353.302
 30
0.0
 10
471.529
 20
353.302
 30
0.0
 10
468.993
 20
351.0739
 30
0.0
 10
468.6384000000001
 20
349.1617
 30
0.0
 10
468.1772
 20
345.6318
 30
0.0
 10
468.1772
 20
345.6318
 30
0.0
 10
468.1261
 20
345.2411
 30
0.0
 10
468.293
 20
344.8791
 30
0.0
 10
468.6233
 20
344.6641
 30
0.0
 10
468.6233
 20
344.6641
 30
0.0
 10
470.3105000000001
 20
343.5657
 30
0.0
 10
471.1479000000001
 20
341.7586
 30
0.0
 10
470.944
 20
339.5739
 30
0.0
 10
470.944
 20
339.5739
 30
0.0
 10
471.4724000000001
 20
336.0815
 30
0.0
 10
470.7032
 20
334.1743
 30
0.0
 10
469.5033
 20
332.7238
 30
0.0
 10
469.5033
 20
332.7238
 30
0.0
 10
463.9985
 20
327.1741
 30
0.0
 10
459.5937
 20
323.8339
 30
0.0
 10
456.1299
 20
322.6951
 30
0.0
 10
456.1299
 20
322.6951
 30
0.0
 10
455.5113
 20
322.4917
 30
0.0
 10
454.8627
 20
322.9294
 30
0.0
 10
454.8197
 20
323.5791
 30
0.0
 10
454.8197
 20
323.5791
 30
0.0
 10
454.4791
 20
328.7298
 30
0.0
 10
454.1342
 20
331.1177
 30
0.0
 10
454.993
 20
337.468
 30
0.0
 10
454.993
 20
337.468
 30
0.0
 10
455.5482
 20
338.5871
 30
0.0
 10
457.281
 20
342.8759
 30
0.0
 10
460.492
 20
352.015
 30
0.0
 10
460.492
 20
352.015
 30
0.0
 10
461.285
 20
353.51
 30
0.0
 10
461.6359000000001
 20
355.135
 30
0.0
 10
461.545
 20
356.8901
 30
0.0
 10
461.545
 20
356.8901
 30
0.0
 10
461.285
 20
359.854
 30
0.0
 10
462.429
 20
362.09
 30
0.0
 10
464.977
 20
363.598
 30
0.0
 10
464.977
 20
363.598
 30
0.0
 10
464.483
 20
363.338
 30
0.0
 10
485.8277000000001
 20
375.6957
 30
0.0
 10
494.6950000000001
 20
384.7360000000001
 30
0.0
 10
494.6950000000001
 20
384.7360000000001
 30
0.0
 10
498.439
 20
388.818
 30
0.0
 10
498.2310000000001
 20
393.784
 30
0.0
 10
493.603
 20
403.8459
 30
0.0
 10
493.603
 20
403.8459
 30
0.0
 10
492.797
 20
406.056
 30
0.0
 10
491.003
 20
410.8139000000001
 30
0.0
 10
488.221
 20
418.12
 30
0.0
  0
SPLINE
  5
CB
330
1F
100
AcDbEntity
  8
layer 1
370
     5
100
AcDbSpline
210
0.0
220
0.0
230
1.0
 70
     8
 71
     3
 72
     8
 73
     4
 74
     0
 42
0.0000000001
 43
0.0000000001
 40
0.0
 40
0.0
 40
0.0
 40
0.0
 40
1.0
 40
1.0
 40
1.0
 40
1.0
 10
454.7816
 20
335.7752
 30
0.0
 10
461.5544
 20
335.0082
 30
0.0
 10
465.6789
 20
336.701
 30
0.0
 10
470.9441000000001
 20
339.574
 30
0.0
  0
SPLINE
  5
CC
330
1F
100
AcDbEntity
  8
layer 1
370
     5
100
AcDbSpline
210
0.0
220
0.0
230
1.0
 70
     8
 71
     3
 72
    20
 73
    16
 74
     0
 42
0.0000000001
 43
0.0000000001
 40
0.0
 40
0.0
 40
0.0
 40
0.0
 40
0.25
 40
0.25
 40
0.25
 40
0.25
 40
0.5
 40
0.5
 40
0.5
 40
0.5
 40
0.75
 40
0.75
 40
0.75
 40
0.75
 40
1.0
 40
1.0
 40
1.0
 40
1.0
 10
478.003
 20
426.856
 30
0.0
 10
481.513
 20
421.812
 30
0.0
 10
484.919
 20
418.9
 30
0.0
 10
488.2211
 20
418.1199
 30
0.0
 10
488.2211
 20
418.1199
 30
0.0
 10
490.4699
 20
416.4171
 30
0.0
 10
492.537
 20
415.884
 30
0.0
 10
494.422
 20
416.521
 30
0.0
 10
494.422
 20
416.521
 30
0.0
 10
496.424
 20
416.794
 30
0.0
 10
498.374
 20
416.105
 30
0.0
 10
500.2720000000001
 20
414.454
 30
0.0
 10
500.2720000000001
 20
414.454
 30
0.0
 10
503.2749
 20
411.6981
 30
0.0
 10
507.604
 20
410.4500000000001
 30
0.0
 10
513.259
 20
410.71
 30
0.0
  0
SPLINE
  5
CD
330
1F
100
AcDbEntity
  8
layer 1
370
     5
100
AcDbSpline
210
0.0
220
0.0
230
1.0
 70
     8
 71
     3
 72
     8
 73
     4
 74
     0
 42
0.0000000001
 43
0.0000000001
 40
0.0
 40
0.0
 40
0.0
 40
0.0
 40
1.0
 40
1.0
 40
1.0
 40
1.0
 10
464.7891
 20
496.6814
 30
0.0
 10
459.8657
 20
469.7031
 30
0.0
 10
462.5304
 20
452.322
 30
0.0
 10
478.003
 20
426.856
 30
0.0
  0
SPLINE
  5
CE
330
1F
100
AcDbEntity
  8
layer 1
370
     5
100
AcDbSpline
210
0.0
220
0.0
230
1.0
 70
     8
 71
     3
 72
     8
 73
     4
 74
     0
 42
0.0000000001
 43
0.0000000001
 40
0.0
 40
0.0
 40
0.0
 40
0.0
 40
1.0
 40
1.0
 40
1.0
 40
1.0
 10
528.0409000000001
 20
350.437
 30
0.0
 10
530.4839000000001
 20
351.352
 30
0.0
 10
532.4110000000001
 20
355.4459
 30
0.0
 10
533.8154000000001
 20
362.7329
 30
0.0
  0
SPLINE
  5
CF
330
1F
100
AcDbEntity
  8
layer 1
370
     5
100
AcDbSpline
210
0.0
220
0.0
230
1.0
 70
     8
 71
     3
 72
   128
 73
   124
 74
     0
 42
0.0000000001
 43
0.0000000001
 40
0.0
 40
0.0
 40
0.0
 40
0.0
 40
0.032258064516129
 40
0.032258064516129
 40
0.032258064516129
 40
0.032258064516129
 40
0.0645161290322581
 40
0.0645161290322581
 40
0.0645161290322581
 40
0.0645161290322581
 40
0.0967741935483871
 40
0.0967741935483871
 40
0.0967741935483871
 40
0.0967741935483871
 40
0.1290322580645161
 40
0.1290322580645161
 40
0.1290322580645161
 40
0.1290322580645161
 40
0.1612903225806452
 40
0.1612903225806452
 40
0.1612903225806452
 40
0.1612903225806452
 40
0.1935483870967742
 40
0.1935483870967742
 40
0.1935483870967742
 40
0.1935483870967742
 40
0.2258064516129032
 40
0.2258064516129032
 40
0.2258064516129032
 40
0.2258064516129032
 40
0.2580645161290323
 40
0.2580645161290323
 40
0.2580645161290323
 40
0.2580645161290323
 40
0.2903225806451613
 40
0.2903225806451613
 40
0.2903225806451613
 40
0.2903225806451613
 40
0.3225806451612903
 40
0.3225806451612903
 40
0.3225806451612903
 40
0.3225806451612903
 40
0.3548387096774193
 40
0.3548387096774193
 40
0.3548387096774193
 40
0.3548387096774193
 40
0.3870967741935483
 40
0.3870967741935483
 40
0.3870967741935483
 40
0.3870967741935483
 40
0.4193548387096773
 40
0.4193548387096773
 40
0.4193548387096773
 40
0.4193548387096773
 40
0.4516129032258063
 40
0.4516129032258063
 40
0.4516129032258063
 40
0.4516129032258063
 40
0.4838709677419353
 40
0.4838709677419353
 40
0.4838709677419353
 40
0.4838709677419353
 40
0.5161290322580643
 40
0.5161290322580643
 40
0.5161290322580643
 40
0.5161290322580643
 40
0.5483870967741933
 40
0.5483870967741933
 40
0.5483870967741933
 40
0.5483870967741933
 40
0.5806451612903223
 40
0.5806451612903223
 40
0.5806451612903223
 40
0.5806451612903223
 40
0.6129032258064513
 40
0.6129032258064513
 40
0.6129032258064513
 40
0.6129032258064513
 40
0.6451612903225803
 40
0.6451612903225803
 40
0.6451612903225803
 40
0.6451612903225803
 40
0.6774193548387093
 40
0.6774193548387093
 40
0.6774193548387093
 40
0.6774193548387093
 40
0.7096774193548383
 40
0.7096774193548383
 40
0.7096774193548383
 40
0.7096774193548383
 40
0.7419354838709673
 40
0.7419354838709673
 40
0.7419354838709673
 40
0.7419354838709673
 40
0.7741935483870963
 40
0.7741935483870963
 40
0.7741935483870963
 40
0.7741935483870963
 40
0.8064516129032253
 40
0.8064516129032253
 40
0.8064516129032253
 40
0.8064516129032253
 40
0.8387096774193543
 40
0.8387096774193543
 40
0.8387096774193543
 40
0.8387096774193543
 40
0.8709677419354833
 40
0.8709677419354833
 40
0.8709677419354833
 40
0.8709677419354833
 40
0.9032258064516123
 40
0.9032258064516123
 40
0.9032258064516123
 40
0.9032258064516123
 40
0.9354838709677413
 40
0.9354838709677413
 40
0.9354838709677413
 40
0.9354838709677413
 40
0.9677419354838703
 40
0.9677419354838703
 40
0.9677419354838703
 40
0.9677419354838703
 40
1.0
 40
1.0
 40
1.0
 40
1.0
 10
552.1030000000001
 20
412.582
 30
0.0
 10
554.6272
 20
409.5679
 30
0.0
 10
556.6553
 20
403.4579
 30
0.0
 10
558.2455
 20
393.979
 30
0.0
 10
558.2455
 20
393.979
 30
0.0
 10
559.071
 20
394.772
 30
0.0
 10
560.2280000000001
 20
395.526
 30
0.0
 10
561.775
 20
395.9679
 30
0.0
 10
561.775
 20
395.9679
 30
0.0
 10
560.787
 20
407.4339
 30
0.0
 10
558.239
 20
414.1679
 30
0.0
 10
554.131
 20
416.17
 30
0.0
 10
554.131
 20
416.17
 30
0.0
 10
553.1405
 20
416.7723
 30
0.0
 10
550.4523
 20
420.4463
 30
0.0
 10
553.234
 20
420.226
 30
0.0
 10
553.234
 20
420.226
 30
0.0
 10
554.7029
 20
420.1611
 30
0.0
 10
557.03
 20
418.562
 30
0.0
 10
560.215
 20
415.429
 30
0.0
 10
560.215
 20
415.429
 30
0.0
 10
561.385
 20
413.9341
 30
0.0
 10
562.607
 20
411.633
 30
0.0
 10
563.881
 20
408.526
 30
0.0
 10
563.881
 20
408.526
 30
0.0
 10
564.5439
 20
406.1211
 30
0.0
 10
565.649
 20
405.094
 30
0.0
 10
567.196
 20
405.445
 30
0.0
 10
567.196
 20
405.445
 30
0.0
 10
569.6529000000001
 20
404.288
 30
0.0
 10
571.2000000000001
 20
400.297
 30
0.0
 10
571.8369
 20
393.472
 30
0.0
 10
571.8369
 20
393.472
 30
0.0
 10
572.981
 20
395.8769
 30
0.0
 10
574.177
 20
397.3719
 30
0.0
 10
575.4250000000001
 20
397.957
 30
0.0
 10
575.4250000000001
 20
397.957
 30
0.0
 10
574.1532000000001
 20
401.7058
 30
0.0
 10
575.5014
 20
406.3899
 30
0.0
 10
572.3673
 20
409.3591
 30
0.0
 10
572.3673
 20
409.3591
 30
0.0
 10
571.1386
 20
409.9966
 30
0.0
 10
570.1818000000001
 20
411.136
 30
0.0
 10
569.4970000000001
 20
412.777
 30
0.0
 10
569.4970000000001
 20
412.777
 30
0.0
 10
568.6130000000001
 20
415.234
 30
0.0
 10
567.937
 20
418.0291
 30
0.0
 10
567.4690000000001
 20
421.162
 30
0.0
 10
567.4690000000001
 20
421.162
 30
0.0
 10
567.4819
 20
423.6971
 30
0.0
 10
568.5089
 20
424.49
 30
0.0
 10
570.5500000000001
 20
423.541
 30
0.0
 10
570.5500000000001
 20
423.541
 30
0.0
 10
572.5297000000001
 20
421.7709
 30
0.0
 10
574.7941000000001
 20
420.2313
 30
0.0
 10
577.3430000000001
 20
418.9225
 30
0.0
 10
577.3430000000001
 20
418.9225
 30
0.0
 10
580.595
 20
417.6554
 30
0.0
 10
581.9999
 20
415.6826
 30
0.0
 10
581.5577000000001
 20
413.0042
 30
0.0
 10
581.5577000000001
 20
413.0042
 30
0.0
 10
581.369
 20
409.4572
 30
0.0
 10
581.7658
 20
406.9421
 30
0.0
 10
582.7480000000001
 20
405.4592
 30
0.0
 10
582.7480000000001
 20
405.4592
 30
0.0
 10
583.5350000000001
 20
408.621
 30
0.0
 10
584.9853000000001
 20
410.7376
 30
0.0
 10
587.0993000000001
 20
411.8087
 30
0.0
 10
587.0993000000001
 20
411.8087
 30
0.0
 10
586.7871
 20
413.2197000000001
 30
0.0
 10
586.657
 20
414.9443
 30
0.0
 10
586.7090000000001
 20
416.9824
 30
0.0
 10
586.7090000000001
 20
416.9824
 30
0.0
 10
586.6257000000001
 20
421.2813
 30
0.0
 10
582.556
 20
423.7608
 30
0.0
 10
579.3138
 20
425.762
 30
0.0
 10
579.3138
 20
425.762
 30
0.0
 10
577.7852
 20
427.5128
 30
0.0
 10
578.1948
 20
428.7148
 30
0.0
 10
580.5431
 20
429.3679
 30
0.0
 10
580.5431
 20
429.3679
 30
0.0
 10
583.8275
 20
429.4659
 30
0.0
 10
586.0585
 20
429.4725
 30
0.0
 10
587.2359
 20
429.3875000000001
 30
0.0
 10
587.2359
 20
429.3875000000001
 30
0.0
 10
588.7838
 20
429.5442000000001
 30
0.0
 10
590.1497000000001
 20
429.0216
 30
0.0
 10
591.2795
 20
427.8734
 30
0.0
 10
591.2795
 20
427.8734
 30
0.0
 10
593.9091000000001
 20
425.4027
 30
0.0
 10
595.7404
 20
423.7599
 30
0.0
 10
596.7190000000001
 20
422.9988
 30
0.0
 10
596.7190000000001
 20
422.9988
 30
0.0
 10
596.7320000000001
 20
424.9389000000001
 30
0.0
 10
597.1613
 20
426.683
 30
0.0
 10
598.0069
 20
428.2313
 30
0.0
 10
598.0069
 20
428.2313
 30
0.0
 10
594.604
 20
428.3154
 30
0.0
 10
592.3896
 20
431.9985
 30
0.0
 10
590.6896
 20
434.4828
 30
0.0
 10
590.6896
 20
434.4828
 30
0.0
 10
589.5904000000001
 20
435.9852
 30
0.0
 10
587.7758
 20
436.6515
 30
0.0
 10
585.2456000000001
 20
436.4817000000001
 30
0.0
 10
585.2456000000001
 20
436.4817000000001
 30
0.0
 10
580.5041
 20
436.4032
 30
0.0
 10
577.4925000000001
 20
437.344
 30
0.0
 10
576.2112000000001
 20
439.3037000000001
 30
0.0
 10
576.2112000000001
 20
439.3037000000001
 30
0.0
 10
572.3466000000001
 20
443.419
 30
0.0
 10
569.3266
 20
445.0558
 30
0.0
 10
568.327
 20
451.231
 30
0.0
 10
568.327
 20
451.231
 30
0.0
 10
567.7016
 20
459.4809
 30
0.0
 10
559.8412000000001
 20
469.9055
 30
0.0
 10
554.0332000000001
 20
477.1821000000001
 30
0.0
 10
554.0332000000001
 20
477.1821000000001
 30
0.0
 10
544.1989
 20
476.568
 30
0.0
 10
540.5369000000001
 20
481.7399
 30
0.0
 10
543.0550000000001
 20
492.6880000000001
 30
0.0
 10
543.0550000000001
 20
492.6880000000001
 30
0.0
 10
525.3117
 20
506.288
 30
0.0
 10
494.2575000000001
 20
511.8207
 30
0.0
 10
474.2988
 20
506.7375
 30
0.0
  0
SPLINE
  5
D0
330
1F
100
AcDbEntity
  8
layer 1
370
     5
100
AcDbSpline
210
0.0
220
0.0
230
1.0
 70
     8
 71
     3
 72
    24
 73
    20
 74
     0
 42
0.0000000001
 43
0.0000000001
 40
0.0
 40
0.0
 40
0.0
 40
0.0
 40
0.2
 40
0.2
 40
0.2
 40
0.2
 40
0.4
 40
0.4
 40
0.4
 40
0.4
 40
0.6000000000000001
 40
0.6000000000000001
 40
0.6000000000000001
 40
0.6000000000000001
 40
0.8
 40
0.8
 40
0.8
 40
0.8
 40
1.0
 40
1.0
 40
1.0
 40
1.0
 10
553.5592
 20
477.1568
 30
0.0
 10
553.518
 20
477.3094
 30
0.0
 10
552.8018000000001
 20
478.4752
 30
0.0
 10
551.4107
 20
480.654
 30
0.0
 10
551.4107
 20
480.654
 30
0.0
 10
550.7472
 20
481.7907
 30
0.0
 10
551.1243000000001
 20
482.4049
 30
0.0
 10
552.5424
 20
482.4962
 30
0.0
 10
552.5424
 20
482.4962
 30
0.0
 10
560.5788
 20
482.951
 30
0.0
 10
566.2565000000001
 20
480.9533
 30
0.0
 10
569.5750000000001
 20
476.503
 30
0.0
 10
569.5750000000001
 20
476.503
 30
0.0
 10
573.8528
 20
466.2635
 30
0.0
 10
572.2257000000001
 20
456.4944
 30
0.0
 10
584.0830000000001
 20
450.7240000000001
 30
0.0
 10
584.0830000000001
 20
450.7240000000001
 30
0.0
 10
591.1030000000001
 20
446.9019
 30
0.0
 10
598.4350000000001
 20
440.9479
 30
0.0
 10
606.0790000000001
 20
432.862
 30
0.0
  0
SPLINE
  5
D1
330
1F
100
AcDbEntity
  8
layer 1
370
     5
100
AcDbSpline
210
0.0
220
0.0
230
1.0
 70
     8
 71
     3
 72
    24
 73
    20
 74
     0
 42
0.0000000001
 43
0.0000000001
 40
0.0
 40
0.0
 40
0.0
 40
0.0
 40
0.2
 40
0.2
 40
0.2
 40
0.2
 40
0.4
 40
0.4
 40
0.4
 40
0.4
 40
0.6000000000000001
 40
0.6000000000000001
 40
0.6000000000000001
 40
0.6000000000000001
 40
0.8
 40
0.8
 40
0.8
 40
0.8
 40
1.0
 40
1.0
 40
1.0
 40
1.0
 10
542.7496
 20
491.2291
 30
0.0
 10
558.3511
 20
491.7532000000001
 30
0.0
 10
581.1410000000001
 20
493.7206000000001
 30
0.0
 10
589.621
 20
477.088
 30
0.0
 10
589.621
 20
477.088
 30
0.0
 10
594.0885000000001
 20
469.0003
 30
0.0
 10
601.8079
 20
466.8877
 30
0.0
 10
606.547
 20
460.942
 30
0.0
 10
606.547
 20
460.942
 30
0.0
 10
613.1278
 20
454.9189
 30
0.0
 10
623.3291
 20
458.6252
 30
0.0
 10
627.6070000000001
 20
449.476
 30
0.0
 10
627.6070000000001
 20
449.476
 30
0.0
 10
631.5901
 20
442.1226
 30
0.0
 10
637.3863
 20
437.2753
 30
0.0
 10
635.7190000000001
 20
428.221
 30
0.0
 10
635.7190000000001
 20
428.221
 30
0.0
 10
634.4156
 20
421.9285
 30
0.0
 10
633.431
 20
415.481
 30
0.0
 10
633.6911
 20
408.214
 30
0.0
  0
SPLINE
  5
D2
330
1F
100
AcDbEntity
  8
layer 1
370
     5
100
AcDbSpline
210
0.0
220
0.0
230
1.0
 70
     8
 71
     3
 72
    52
 73
    48
 74
     0
 42
0.0000000001
 43
0.0000000001
 40
0.0
 40
0.0
 40
0.0
 40
0.0
 40
0.0833333333333333
 40
0.0833333333333333
 40
0.0833333333333333
 40
0.0833333333333333
 40
0.1666666666666667
 40
0.1666666666666667
 40
0.1666666666666667
 40
0.1666666666666667
 40
0.25
 40
0.25
 40
0.25
 40
0.25
 40
0.3333333333333333
 40
0.3333333333333333
 40
0.3333333333333333
 40
0.3333333333333333
 40
0.4166666666666666
 40
0.4166666666666666
 40
0.4166666666666666
 40
0.4166666666666666
 40
0.4999999999999999
 40
0.4999999999999999
 40
0.4999999999999999
 40
0.4999999999999999
 40
0.5833333333333333
 40
0.5833333333333333
 40
0.5833333333333333
 40
0.5833333333333333
 40
0.6666666666666666
 40
0.6666666666666666
 40
0.6666666666666666
 40
0.6666666666666666
 40
0.75
 40
0.75
 40
0.75
 40
0.75
 40
0.8333333333333334
 40
0.8333333333333334
 40
0.8333333333333334
 40
0.8333333333333334
 40
0.9166666666666667
 40
0.9166666666666667
 40
0.9166666666666667
 40
0.9166666666666667
 40
1.0
 40
1.0
 40
1.0
 40
1.0
 10
522.9813
 20
413.0471
 30
0.0
 10
530.1460000000001
 20
412.0372
 30
0.0
 10
534.3293
 20
411.0673000000001
 30
0.0
 10
535.684
 20
410.359
 30
0.0
 10
535.684
 20
410.359
 30
0.0
 10
540.572
 20
408.591
 30
0.0
 10
541.924
 20
405.5749
 30
0.0
 10
539.74
 20
401.311
 30
0.0
 10
539.74
 20
401.311
 30
0.0
 10
533.067
 20
392.2126
 30
0.0
 10
525.5661
 20
383.4883
 30
0.0
 10
519.2343000000001
 20
374.1819
 30
0.0
 10
519.2343000000001
 20
374.1819
 30
0.0
 10
517.9364000000001
 20
371.548
 30
0.0
 10
518.2197
 20
368.9822
 30
0.0
 10
520.0840000000001
 20
366.484
 30
0.0
 10
520.0840000000001
 20
366.484
 30
0.0
 10
521.9519
 20
363.7836
 30
0.0
 10
525.1739
 20
359.902
 30
0.0
 10
525.778
 20
356.578
 30
0.0
 10
525.778
 20
356.578
 30
0.0
 10
525.895
 20
353.5229
 30
0.0
 10
526.4021
 20
351.69
 30
0.0
 10
527.299
 20
351.079
 30
0.0
 10
527.299
 20
351.079
 30
0.0
 10
534.2279
 20
345.047
 30
0.0
 10
538.2484000000001
 20
342.548
 30
0.0
 10
538.804
 20
343.435
 30
0.0
 10
538.804
 20
343.435
 30
0.0
 10
539.1419000000001
 20
347.881
 30
0.0
 10
539.1679
 20
353.003
 30
0.0
 10
538.8821
 20
358.801
 30
0.0
 10
538.8821
 20
358.801
 30
0.0
 10
538.2841000000001
 20
361.18
 30
0.0
 10
536.6074
 20
362.4918
 30
0.0
 10
533.8186000000001
 20
362.7394
 30
0.0
 10
533.8186000000001
 20
362.7394
 30
0.0
 10
530.2247
 20
364.2592
 30
0.0
 10
529.0739
 20
368.5774
 30
0.0
 10
529.606
 20
370.7973
 30
0.0
 10
529.606
 20
370.7973
 30
0.0
 10
530.3612000000001
 20
373.9476
 30
0.0
 10
536.8223
 20
380.7015
 30
0.0
 10
539.0849000000001
 20
383.7779000000001
 30
0.0
 10
539.0849000000001
 20
383.7779000000001
 30
0.0
 10
546.6555000000001
 20
394.0718
 30
0.0
 10
550.2536
 20
398.9777
 30
0.0
 10
555.6936000000001
 20
405.1827
 30
0.0
  0
SPLINE
  5
D3
330
1F
100
AcDbEntity
  8
layer 1
370
     5
100
AcDbSpline
210
0.0
220
0.0
230
1.0
 70
     8
 71
     3
 72
    32
 73
    28
 74
     0
 42
0.0000000001
 43
0.0000000001
 40
0.0
 40
0.0
 40
0.0
 40
0.0
 40
0.1428571428571429
 40
0.1428571428571429
 40
0.1428571428571429
 40
0.1428571428571429
 40
0.2857142857142857
 40
0.2857142857142857
 40
0.2857142857142857
 40
0.2857142857142857
 40
0.4285714285714286
 40
0.4285714285714286
 40
0.4285714285714286
 40
0.4285714285714286
 40
0.5714285714285714
 40
0.5714285714285714
 40
0.5714285714285714
 40
0.5714285714285714
 40
0.7142857142857142
 40
0.7142857142857142
 40
0.7142857142857142
 40
0.7142857142857142
 40
0.857142857142857
 40
0.857142857142857
 40
0.857142857142857
 40
0.857142857142857
 40
1.0
 40
1.0
 40
1.0
 40
1.0
 10
513.259
 20
410.71
 30
0.0
 10
515.2999
 20
409.059
 30
0.0
 10
517.003
 20
407.3819
 30
0.0
 10
518.3680000000001
 20
405.679
 30
0.0
 10
518.3680000000001
 20
405.679
 30
0.0
 10
519.798
 20
403.768
 30
0.0
 10
520.1360000000001
 20
401.571
 30
0.0
 10
519.3820000000001
 20
399.088
 30
0.0
 10
519.3820000000001
 20
399.088
 30
0.0
 10
517.8163000000001
 20
395.8695
 30
0.0
 10
517.9362
 20
392.9502
 30
0.0
 10
519.7417
 20
390.3301
 30
0.0
 10
519.7417
 20
390.3301
 30
0.0
 10
520.9587
 20
395.7096
 30
0.0
 10
522.8328
 20
399.2645
 30
0.0
 10
526.6491
 20
403.0683
 30
0.0
 10
526.6491
 20
403.0683
 30
0.0
 10
530.1367
 20
409.1942
 30
0.0
 10
516.7487
 20
418.907
 30
0.0
 10
512.0890000000001
 20
421.396
 30
0.0
 10
512.0890000000001
 20
421.396
 30
0.0
 10
518.095
 20
422.488
 30
0.0
 10
522.801
 20
422.228
 30
0.0
 10
526.2069
 20
420.616
 30
0.0
 10
526.2069
 20
420.616
 30
0.0
 10
540.2470000000001
 20
414.35
 30
0.0
 10
548.879
 20
411.672
 30
0.0
 10
552.1030000000001
 20
412.582
 30
0.0
  0
SPLINE
  5
D4
330
1F
100
AcDbEntity
  8
layer 1
370
     5
100
AcDbSpline
210
0.0
220
0.0
230
1.0
 70
     8
 71
     3
 72
     8
 73
     4
 74
     0
 42
0.0000000001
 43
0.0000000001
 40
0.0
 40
0.0
 40
0.0
 40
0.0
 40
1.0
 40
1.0
 40
1.0
 40
1.0
 10
559.8786
 20
415.7573
 30
0.0
 10
559.9688
 20
413.0134000000001
 30
0.0
 10
559.703
 20
411.0036
 30
0.0
 10
559.0811
 20
409.7279
 30
0.0
  0
SPLINE
  5
D5
330
1F
100
AcDbEntity
  8
layer 1
370
     5
100
AcDbSpline
210
0.0
220
0.0
230
1.0
 70
     8
 71
     3
 72
    12
 73
     8
 74
     0
 42
0.0000000001
 43
0.0000000001
 40
0.0
 40
0.0
 40
0.0
 40
0.0
 40
0.5
 40
0.5
 40
0.5
 40
0.5
 40
1.0
 40
1.0
 40
1.0
 40
1.0
 10
447.583
 20
411.178
 30
0.0
 10
443.709
 20
405.25
 30
0.0
 10
442.799
 20
400.674
 30
0.0
 10
444.853
 20
397.4499
 30
0.0
 10
444.853
 20
397.4499
 30
0.0
 10
442.591
 20
398.594
 30
0.0
 10
440.9011
 20
400.57
 30
0.0
 10
439.783
 20
403.378
 30
0.0
  0
SPLINE
  5
D6
330
1F
100
AcDbEntity
  8
layer 1
370
     5
100
AcDbSpline
210
0.0
220
0.0
230
1.0
 70
     8
 71
     3
 72
    12
 73
     8
 74
     0
 42
0.0000000001
 43
0.0000000001
 40
0.0
 40
0.0
 40
0.0
 40
0.0
 40
0.5
 40
0.5
 40
0.5
 40
0.5
 40
1.0
 40
1.0
 40
1.0
 40
1.0
 10
430.5686
 20
554.759
 30
0.0
 10
431.0385
 20
556.2831
 30
0.0
 10
429.9524
 20
557.3847000000001
 30
0.0
 10
427.3103
 20
558.0634
 30
0.0
 10
427.3103
 20
558.0634
 30
0.0
 10
428.2754000000001
 20
556.6508
 30
0.0
 10
428.533
 20
555.5549
 30
0.0
 10
428.083
 20
554.7760000000001
 30
0.0
  0
SPLINE
  5
D7
330
1F
100
AcDbEntity
  8
layer 1
370
     5
100
AcDbSpline
210
0.0
220
0.0
230
1.0
 70
     8
 71
     3
 72
     8
 73
     4
 74
     0
 42
0.0000000001
 43
0.0000000001
 40
0.0
 40
0.0
 40
0.0
 40
0.0
 40
1.0
 40
1.0
 40
1.0
 40
1.0
 10
427.3103
 20
558.0634
 30
0.0
 10
430.2394000000001
 20
556.0847
 30
0.0
 10
429.8859
 20
553.0856
 30
0.0
 10
427.186
 20
552.2409
 30
0.0
  0
SPLINE
  5
D8
330
1F
100
AcDbEntity
  8
layer 1
370
     5
100
AcDbSpline
210
0.0
220
0.0
230
1.0
 70
    11
 71
     3
 72
    20
 73
    16
 74
     0
 42
0.0000000001
 43
0.0000000001
 40
0.0
 40
0.0
 40
0.0
 40
0.0
 40
0.25
 40
0.25
 40
0.25
 40
0.25
 40
0.5
 40
0.5
 40
0.5
 40
0.5
 40
0.75
 40
0.75
 40
0.75
 40
0.75
 40
1.0
 40
1.0
 40
1.0
 40
1.0
 10
427.186
 20
552.2409
 30
0.0
 10
428.4055
 20
552.705
 30
0.0
 10
428.7043000000001
 20
553.5502
 30
0.0
 10
428.083
 20
554.7760000000001
 30
0.0
 10
428.083
 20
554.7760000000001
 30
0.0
 10
420.5559
 20
554.6981000000001
 30
0.0
 10
415.6029
 20
554.1521
 30
0.0
 10
413.2239
 20
553.138
 30
0.0
 10
413.2239
 20
553.138
 30
0.0
 10
412.9095
 20
552.9238
 30
0.0
 10
413.0655
 20
552.7807
 30
0.0
 10
413.6919
 20
552.7090000000001
 30
0.0
 10
413.6919
 20
552.7090000000001
 30
0.0
 10
420.2179
 20
552.2931
 30
0.0
 10
424.7159
 20
552.1371
 30
0.0
 10
427.186
 20
552.2409
 30
0.0
  0
SPLINE
  5
D9
330
1F
100
AcDbEntity
  8
layer 1
370
     5
100
AcDbSpline
210
0.0
220
0.0
230
1.0
 70
     8
 71
     3
 72
     8
 73
     4
 74
     0
 42
0.0000000001
 43
0.0000000001
 40
0.0
 40
0.0
 40
0.0
 40
0.0
 40
1.0
 40
1.0
 40
1.0
 40
1.0
 10
425.9062
 20
554.7387
 30
0.0
 10
426.3022
 20
553.5604000000001
 30
0.0
 10
426.0872
 20
552.7175
 30
0.0
 10
425.2613
 20
552.21
 30
0.0
  0
SPLINE
  5
DA
330
1F
100
AcDbEntity
  8
layer 1
370
     5
100
AcDbSpline
210
0.0
220
0.0
230
1.0
 70
     8
 71
     3
 72
     8
 73
     4
 74
     0
 42
0.0000000001
 43
0.0000000001
 40
0.0
 40
0.0
 40
0.0
 40
0.0
 40
1.0
 40
1.0
 40
1.0
 40
1.0
 10
423.6982
 20
554.6657
 30
0.0
 10
424.1231
 20
553.441
 30
0.0
 10
423.8053000000001
 20
552.6373
 30
0.0
 10
422.7441
 20
552.2548000000001
 30
0.0
  0
SPLINE
  5
DB
330
1F
100
AcDbEntity
  8
layer 1
370
     5
100
AcDbSpline
210
0.0
220
0.0
230
1.0
 70
     8
 71
     3
 72
     8
 73
     4
 74
     0
 42
0.0000000001
 43
0.0000000001
 40
0.0
 40
0.0
 40
0.0
 40
0.0
 40
1.0
 40
1.0
 40
1.0
 40
1.0
 10
421.1091
 20
554.5210000000001
 30
0.0
 10
421.3578
 20
553.3657000000001
 30
0.0
 10
421.2600000000001
 20
552.6332
 30
0.0
 10
420.8151
 20
552.3236000000001
 30
0.0
  0
SPLINE
  5
DC
330
1F
100
AcDbEntity
  8
layer 1
370
     5
100
AcDbSpline
210
0.0
220
0.0
230
1.0
 70
     8
 71
     3
 72
     8
 73
     4
 74
     0
 42
0.0000000001
 43
0.0000000001
 40
0.0
 40
0.0
 40
0.0
 40
0.0
 40
1.0
 40
1.0
 40
1.0
 40
1.0
 10
418.5246
 20
554.2858
 30
0.0
 10
418.7312
 20
553.4340000000001
 30
0.0
 10
418.7133
 20
552.8161
 30
0.0
 10
418.4708
 20
552.4322000000001
 30
0.0
  0
SPLINE
  5
DD
330
1F
100
AcDbEntity
  8
layer 1
370
     5
100
AcDbSpline
210
0.0
220
0.0
230
1.0
 70
     8
 71
     3
 72
     8
 73
     4
 74
     0
 42
0.0000000001
 43
0.0000000001
 40
0.0
 40
0.0
 40
0.0
 40
0.0
 40
1.0
 40
1.0
 40
1.0
 40
1.0
 10
416.3015
 20
553.9683
 30
0.0
 10
416.4424
 20
553.525
 30
0.0
 10
416.4364
 20
553.0527000000001
 30
0.0
 10
416.283
 20
552.5513000000001
 30
0.0
  0
SPLINE
  5
DE
330
1F
100
AcDbEntity
  8
layer 1
370
     5
100
AcDbSpline
210
0.0
220
0.0
230
1.0
 70
    11
 71
     3
 72
    20
 73
    16
 74
     0
 42
0.0000000001
 43
0.0000000001
 40
0.0
 40
0.0
 40
0.0
 40
0.0
 40
0.25
 40
0.25
 40
0.25
 40
0.25
 40
0.5
 40
0.5
 40
0.5
 40
0.5
 40
0.75
 40
0.75
 40
0.75
 40
0.75
 40
1.0
 40
1.0
 40
1.0
 40
1.0
 10
430.1786
 20
553.0518000000001
 30
0.0
 10
430.5927
 20
553.0518000000001
 30
0.0
 10
430.9286
 20
552.716
 30
0.0
 10
430.9286
 20
552.3018000000001
 30
0.0
 10
430.9286
 20
552.3018000000001
 30
0.0
 10
430.9286
 20
551.8876
 30
0.0
 10
430.5927
 20
551.5518000000001
 30
0.0
 10
430.1786
 20
551.5518000000001
 30
0.0
 10
430.1786
 20
551.5518000000001
 30
0.0
 10
429.7645
 20
551.5518000000001
 30
0.0
 10
429.4286
 20
551.8876
 30
0.0
 10
429.4286
 20
552.3018000000001
 30
0.0
 10
429.4286
 20
552.3018000000001
 30
0.0
 10
429.4286
 20
552.716
 30
0.0
 10
429.7645
 20
553.0518000000001
 30
0.0
 10
430.1786
 20
553.0518000000001
 30
0.0
  0
SPLINE
  5
DF
330
1F
100
AcDbEntity
  8
layer 1
370
     5
100
AcDbSpline
210
0.0
220
0.0
230
1.0
 70
     8
 71
     3
 72
    24
 73
    20
 74
     0
 42
0.0000000001
 43
0.0000000001
 40
0.0
 40
0.0
 40
0.0
 40
0.0
 40
0.2
 40
0.2
 40
0.2
 40
0.2
 40
0.4
 40
0.4
 40
0.4
 40
0.4
 40
0.6000000000000001
 40
0.6000000000000001
 40
0.6000000000000001
 40
0.6000000000000001
 40
0.8
 40
0.8
 40
0.8
 40
0.8
 40
1.0
 40
1.0
 40
1.0
 40
1.0
 10
427.186
 20
552.2409
 30
0.0
 10
428.0582
 20
551.7857
 30
0.0
 10
428.3924
 20
550.9632
 30
0.0
 10
428.1883
 20
549.7736
 30
0.0
 10
428.1883
 20
549.7736
 30
0.0
 10
427.8696000000001
 20
548.0754000000001
 30
0.0
 10
427.9542
 20
546.9518000000001
 30
0.0
 10
428.442
 20
546.403
 30
0.0
 10
428.442
 20
546.403
 30
0.0
 10
428.546
 20
546.3769
 30
0.0
 10
428.7021
 20
545.9849
 30
0.0
 10
428.9103
 20
545.2271000000001
 30
0.0
 10
428.9103
 20
545.2271000000001
 30
0.0
 10
429.5996
 20
544.2931
 30
0.0
 10
430.3672
 20
544.0774
 30
0.0
 10
431.2128
 20
544.5804000000001
 30
0.0
 10
431.2128
 20
544.5804000000001
 30
0.0
 10
432.2903
 20
545.58
 30
0.0
 10
432.0007
 20
545.9169000000001
 30
0.0
 10
432.3844
 20
547.3933000000001
 30
0.0
  0
SPLINE
  5
E0
330
1F
100
AcDbEntity
  8
layer 1
370
     5
100
AcDbSpline
210
0.0
220
0.0
230
1.0
 70
     8
 71
     3
 72
     8
 73
     4
 74
     0
 42
0.0000000001
 43
0.0000000001
 40
0.0
 40
0.0
 40
0.0
 40
0.0
 40
1.0
 40
1.0
 40
1.0
 40
1.0
 10
432.5592
 20
555.2022000000001
 30
0.0
 10
434.8031
 20
553.3077000000001
 30
0.0
 10
435.3951
 20
551.361
 30
0.0
 10
434.3348
 20
549.3622
 30
0.0
  0
SPLINE
  5
E1
330
1F
100
AcDbEntity
  8
layer 1
370
     5
100
AcDbSpline
210
0.0
220
0.0
230
1.0
 70
     8
 71
     3
 72
    12
 73
     8
 74
     0
 42
0.0000000001
 43
0.0000000001
 40
0.0
 40
0.0
 40
0.0
 40
0.0
 40
0.5
 40
0.5
 40
0.5
 40
0.5
 40
1.0
 40
1.0
 40
1.0
 40
1.0
 10
435.181
 20
554.269
 30
0.0
 10
437.5209
 20
552.085
 30
0.0
 10
437.9889
 20
550.1089000000001
 30
0.0
 10
436.585
 20
548.341
 30
0.0
 10
436.585
 20
548.341
 30
0.0
 10
434.843
 20
546.8721000000001
 30
0.0
 10
433.933
 20
545.273
 30
0.0
 10
433.855
 20
543.544
 30
0.0
  0
SPLINE
  5
E2
330
1F
100
AcDbEntity
  8
layer 1
370
     5
100
AcDbSpline
210
0.0
220
0.0
230
1.0
 70
     8
 71
     3
 72
    16
 73
    12
 74
     0
 42
0.0000000001
 43
0.0000000001
 40
0.0
 40
0.0
 40
0.0
 40
0.0
 40
0.3333333333333333
 40
0.3333333333333333
 40
0.3333333333333333
 40
0.3333333333333333
 40
0.6666666666666666
 40
0.6666666666666666
 40
0.6666666666666666
 40
0.6666666666666666
 40
1.0
 40
1.0
 40
1.0
 40
1.0
 10
430.5578
 20
556.0524
 30
0.0
 10
430.1205
 20
557.8372000000001
 30
0.0
 10
431.3136
 20
559.4852000000001
 30
0.0
 10
433.047
 20
559.8467000000001
 30
0.0
 10
433.047
 20
559.8467000000001
 30
0.0
 10
433.9055
 20
560.0034000000001
 30
0.0
 10
434.6339
 20
560.4999
 30
0.0
 10
435.2324
 20
561.3361
 30
0.0
 10
435.2324
 20
561.3361
 30
0.0
 10
435.8046
 20
559.2785
 30
0.0
 10
435.2323
 20
557.9654000000001
 30
0.0
 10
433.5153
 20
557.3971
 30
0.0
  0
SPLINE
  5
E3
330
1F
100
AcDbEntity
  8
layer 1
370
     5
100
AcDbSpline
210
0.0
220
0.0
230
1.0
 70
     8
 71
     3
 72
    20
 73
    16
 74
     0
 42
0.0000000001
 43
0.0000000001
 40
0.0
 40
0.0
 40
0.0
 40
0.0
 40
0.25
 40
0.25
 40
0.25
 40
0.25
 40
0.5
 40
0.5
 40
0.5
 40
0.5
 40
0.75
 40
0.75
 40
0.75
 40
0.75
 40
1.0
 40
1.0
 40
1.0
 40
1.0
 10
434.0812
 20
557.3383
 30
0.0
 10
436.0039
 20
556.818
 30
0.0
 10
437.3331
 20
556.9986
 30
0.0
 10
438.0785
 20
557.8903
 30
0.0
 10
438.0785
 20
557.8903
 30
0.0
 10
439.8347
 20
559.6660000000001
 30
0.0
 10
442.139
 20
556.9446
 30
0.0
 10
439.3842
 20
555.9450000000001
 30
0.0
 10
439.3842
 20
555.9450000000001
 30
0.0
 10
443.3504
 20
554.321
 30
0.0
 10
443.9399
 20
560.664
 30
0.0
 10
439.4667
 20
561.5909
 30
0.0
 10
439.4667
 20
561.5909
 30
0.0
 10
437.8408
 20
561.9045
 30
0.0
 10
436.5008
 20
561.3558
 30
0.0
 10
435.4469
 20
559.9446
 30
0.0
  0
SPLINE
  5
E4
330
1F
100
AcDbEntity
  8
layer 1
370
     5
100
AcDbSpline
210
0.0
220
0.0
230
1.0
 70
     8
 71
     3
 72
    12
 73
     8
 74
     0
 42
0.0000000001
 43
0.0000000001
 40
0.0
 40
0.0
 40
0.0
 40
0.0
 40
0.5
 40
0.5
 40
0.5
 40
0.5
 40
1.0
 40
1.0
 40
1.0
 40
1.0
 10
442.045
 20
546.1180000000001
 30
0.0
 10
441.6549
 20
544.2201
 30
0.0
 10
440.1209
 20
543.206
 30
0.0
 10
437.4429
 20
543.076
 30
0.0
 10
437.4429
 20
543.076
 30
0.0
 10
432.6198
 20
541.958
 30
0.0
 10
431.0990000000001
 20
539.696
 30
0.0
 10
432.88
 20
536.2900000000001
 30
0.0
  0
SPLINE
  5
E5
330
1F
100
AcDbEntity
  8
layer 1
370
     5
100
AcDbSpline
210
0.0
220
0.0
230
1.0
 70
     8
 71
     3
 72
     8
 73
     4
 74
     0
 42
0.0000000001
 43
0.0000000001
 40
0.0
 40
0.0
 40
0.0
 40
0.0
 40
1.0
 40
1.0
 40
1.0
 40
1.0
 10
441.1311
 20
555.7483
 30
0.0
 10
441.5870000000001
 20
553.6672
 30
0.0
 10
443.2045
 20
552.9036
 30
0.0
 10
445.984
 20
553.458
 30
0.0
  0
SPLINE
  5
E6
330
1F
100
AcDbEntity
  8
layer 1
370
     5
100
AcDbSpline
210
0.0
220
0.0
230
1.0
 70
     8
 71
     3
 72
     8
 73
     4
 74
     0
 42
0.0000000001
 43
0.0000000001
 40
0.0
 40
0.0
 40
0.0
 40
0.0
 40
1.0
 40
1.0
 40
1.0
 40
1.0
 10
442.5948
 20
558.0433
 30
0.0
 10
442.6276
 20
555.7052
 30
0.0
 10
443.7573
 20
554.1767
 30
0.0
 10
445.984
 20
553.458
 30
0.0
  0
SPLINE
  5
E7
330
1F
100
AcDbEntity
  8
layer 1
370
     5
100
AcDbSpline
210
0.0
220
0.0
230
1.0
 70
     8
 71
     3
 72
    12
 73
     8
 74
     0
 42
0.0000000001
 43
0.0000000001
 40
0.0
 40
0.0
 40
0.0
 40
0.0
 40
0.5
 40
0.5
 40
0.5
 40
0.5
 40
1.0
 40
1.0
 40
1.0
 40
1.0
 10
442.2619
 20
553.8643000000001
 30
0.0
 10
443.009
 20
549.7552000000001
 30
0.0
 10
447.1814
 20
551.5175
 30
0.0
 10
447.3705000000001
 20
547.9902000000001
 30
0.0
 10
447.3705000000001
 20
547.9902000000001
 30
0.0
 10
448.3133
 20
551.0405000000001
 30
0.0
 10
447.4724
 20
552.8506
 30
0.0
 10
445.3464
 20
553.3512000000001
 30
0.0
  0
SPLINE
  5
E8
330
1F
100
AcDbEntity
  8
layer 1
370
     5
100
AcDbSpline
210
0.0
220
0.0
230
1.0
 70
     8
 71
     3
 72
    24
 73
    20
 74
     0
 42
0.0000000001
 43
0.0000000001
 40
0.0
 40
0.0
 40
0.0
 40
0.0
 40
0.2
 40
0.2
 40
0.2
 40
0.2
 40
0.4
 40
0.4
 40
0.4
 40
0.4
 40
0.6000000000000001
 40
0.6000000000000001
 40
0.6000000000000001
 40
0.6000000000000001
 40
0.8
 40
0.8
 40
0.8
 40
0.8
 40
1.0
 40
1.0
 40
1.0
 40
1.0
 10
443.8593
 20
551.3259000000001
 30
0.0
 10
443.2586
 20
549.5189
 30
0.0
 10
443.7000000000001
 20
548.1326
 30
0.0
 10
445.1299
 20
547.2034
 30
0.0
 10
445.1299
 20
547.2034
 30
0.0
 10
445.8577
 20
546.7457000000001
 30
0.0
 10
446.2823
 20
546.0215000000001
 30
0.0
 10
446.3503
 20
545.0593
 30
0.0
 10
446.3503
 20
545.0593
 30
0.0
 10
446.335
 20
543.6593
 30
0.0
 10
446.8241
 20
542.8293
 30
0.0
 10
447.8181
 20
542.5619
 30
0.0
 10
447.8181
 20
542.5619
 30
0.0
 10
447.2847
 20
543.6659000000001
 30
0.0
 10
447.3237
 20
544.6785
 30
0.0
 10
447.9351
 20
545.5994000000001
 30
0.0
 10
447.9351
 20
545.5994000000001
 30
0.0
 10
448.336
 20
546.2494
 30
0.0
 10
448.2212
 20
547.3240000000001
 30
0.0
 10
447.5907
 20
548.8231000000001
 30
0.0
  0
SPLINE
  5
E9
330
1F
100
AcDbEntity
  8
layer 1
370
     5
100
AcDbSpline
210
0.0
220
0.0
230
1.0
 70
     8
 71
     3
 72
    12
 73
     8
 74
     0
 42
0.0000000001
 43
0.0000000001
 40
0.0
 40
0.0
 40
0.0
 40
0.0
 40
0.5
 40
0.5
 40
0.5
 40
0.5
 40
1.0
 40
1.0
 40
1.0
 40
1.0
 10
431.1738
 20
536.1927000000001
 30
0.0
 10
429.7737
 20
538.7005
 30
0.0
 10
429.9289
 20
541.086
 30
0.0
 10
431.4717
 20
543.6637000000001
 30
0.0
 10
431.4717
 20
543.6637000000001
 30
0.0
 10
433.0945
 20
545.4327000000001
 30
0.0
 10
433.2443
 20
547.5935000000001
 30
0.0
 10
434.3831
 20
549.4555
 30
0.0
  0
SPLINE
  5
EA
330
1F
100
AcDbEntity
  8
layer 1
370
     5
100
AcDbSpline
210
0.0
220
0.0
230
1.0
 70
     8
 71
     3
 72
    28
 73
    24
 74
     0
 42
0.0000000001
 43
0.0000000001
 40
0.0
 40
0.0
 40
0.0
 40
0.0
 40
0.1666666666666667
 40
0.1666666666666667
 40
0.1666666666666667
 40
0.1666666666666667
 40
0.3333333333333333
 40
0.3333333333333333
 40
0.3333333333333333
 40
0.3333333333333333
 40
0.5
 40
0.5
 40
0.5
 40
0.5
 40
0.6666666666666666
 40
0.6666666666666666
 40
0.6666666666666666
 40
0.6666666666666666
 40
0.8333333333333333
 40
0.8333333333333333
 40
0.8333333333333333
 40
0.8333333333333333
 40
1.0
 40
1.0
 40
1.0
 40
1.0
 10
415.7251
 20
546.109
 30
0.0
 10
413.9416
 20
545.9162
 30
0.0
 10
412.9836
 20
546.8047
 30
0.0
 10
413.1246
 20
547.8140000000001
 30
0.0
 10
413.1246
 20
547.8140000000001
 30
0.0
 10
414.5829
 20
547.3701
 30
0.0
 10
415.8747
 20
547.3327000000001
 30
0.0
 10
417.0141
 20
547.7068
 30
0.0
 10
417.0141
 20
547.7068
 30
0.0
 10
418.5296
 20
548.356
 30
0.0
 10
420.1226
 20
548.1615000000001
 30
0.0
 10
421.8077
 20
547.1281
 30
0.0
 10
421.8077
 20
547.1281
 30
0.0
 10
422.6337
 20
546.5075000000001
 30
0.0
 10
423.785
 20
546.0044
 30
0.0
 10
425.2614
 20
545.6191
 30
0.0
 10
425.2614
 20
545.6191
 30
0.0
 10
426.3671
 20
545.6778000000001
 30
0.0
 10
427.0046
 20
545.2271000000001
 30
0.0
 10
427.1737
 20
544.2669000000001
 30
0.0
 10
427.1737
 20
544.2669000000001
 30
0.0
 10
427.6571
 20
542.8454
 30
0.0
 10
428.6826
 20
541.5231
 30
0.0
 10
430.2502
 20
540.3003
 30
0.0
  0
SPLINE
  5
EB
330
1F
100
AcDbEntity
  8
layer 1
370
     5
100
AcDbSpline
210
0.0
220
0.0
230
1.0
 70
     8
 71
     3
 72
    24
 73
    20
 74
     0
 42
0.0000000001
 43
0.0000000001
 40
0.0
 40
0.0
 40
0.0
 40
0.0
 40
0.2
 40
0.2
 40
0.2
 40
0.2
 40
0.4
 40
0.4
 40
0.4
 40
0.4
 40
0.6000000000000001
 40
0.6000000000000001
 40
0.6000000000000001
 40
0.6000000000000001
 40
0.8
 40
0.8
 40
0.8
 40
0.8
 40
1.0
 40
1.0
 40
1.0
 40
1.0
 10
413.7202
 20
546.4801
 30
0.0
 10
413.6557
 20
544.6285
 30
0.0
 10
415.4012
 20
544.4589
 30
0.0
 10
416.8515
 20
544.9528
 30
0.0
 10
416.8515
 20
544.9528
 30
0.0
 10
417.8466
 20
545.5146
 30
0.0
 10
418.6467
 20
545.4492
 30
0.0
 10
419.2516
 20
544.7568
 30
0.0
 10
419.2516
 20
544.7568
 30
0.0
 10
419.98
 20
543.9859
 30
0.0
 10
421.0468
 20
543.6331
 30
0.0
 10
422.4516
 20
543.6985000000001
 30
0.0
 10
422.4516
 20
543.6985000000001
 30
0.0
 10
423.7654
 20
543.8488
 30
0.0
 10
424.6631
 20
543.4373000000001
 30
0.0
 10
425.1444
 20
542.4639000000001
 30
0.0
 10
425.1444
 20
542.4639000000001
 30
0.0
 10
426.2956
 20
539.5179000000001
 30
0.0
 10
427.694
 20
537.5254
 30
0.0
 10
429.3396
 20
536.4867
 30
0.0
  0
SPLINE
  5
EC
330
1F
100
AcDbEntity
  8
layer 1
370
     5
100
AcDbSpline
210
0.0
220
0.0
230
1.0
 70
     8
 71
     3
 72
     8
 73
     4
 74
     0
 42
0.0000000001
 43
0.0000000001
 40
0.0
 40
0.0
 40
0.0
 40
0.0
 40
1.0
 40
1.0
 40
1.0
 40
1.0
 10
433.543
 20
536.797
 30
0.0
 10
433.5558
 20
536.3811000000001
 30
0.0
 10
431.8269
 20
536.121
 30
0.0
 10
428.3559
 20
536.0170000000001
 30
0.0
  0
SPLINE
  5
ED
330
1F
100
AcDbEntity
  8
layer 1
370
     5
100
AcDbSpline
210
0.0
220
0.0
230
1.0
 70
     8
 71
     3
 72
    28
 73
    24
 74
     0
 42
0.0000000001
 43
0.0000000001
 40
0.0
 40
0.0
 40
0.0
 40
0.0
 40
0.1666666666666667
 40
0.1666666666666667
 40
0.1666666666666667
 40
0.1666666666666667
 40
0.3333333333333333
 40
0.3333333333333333
 40
0.3333333333333333
 40
0.3333333333333333
 40
0.5
 40
0.5
 40
0.5
 40
0.5
 40
0.6666666666666666
 40
0.6666666666666666
 40
0.6666666666666666
 40
0.6666666666666666
 40
0.8333333333333333
 40
0.8333333333333333
 40
0.8333333333333333
 40
0.8333333333333333
 40
1.0
 40
1.0
 40
1.0
 40
1.0
 10
424.52
 20
521.6908000000001
 30
0.0
 10
425.4909
 20
520.5247000000001
 30
0.0
 10
425.2874000000001
 20
519.3194
 30
0.0
 10
424.612
 20
518.4279
 30
0.0
 10
424.612
 20
518.4279
 30
0.0
 10
422.6542
 20
520.1717
 30
0.0
 10
421.908
 20
521.8081000000001
 30
0.0
 10
422.3736
 20
523.3369
 30
0.0
 10
422.3736
 20
523.3369
 30
0.0
 10
421.2939
 20
524.2711000000001
 30
0.0
 10
421.3069
 20
525.6102000000001
 30
0.0
 10
422.4126
 20
527.3544000000001
 30
0.0
 10
422.4126
 20
527.3544000000001
 30
0.0
 10
422.7834
 20
528.8252
 30
0.0
 10
422.933
 20
530.3071
 30
0.0
 10
422.8613
 20
531.8000000000001
 30
0.0
 10
422.8613
 20
531.8000000000001
 30
0.0
 10
423.3208
 20
533.6649
 30
0.0
 10
424.3749
 20
534.5568000000001
 30
0.0
 10
426.0235
 20
534.4757000000001
 30
0.0
 10
426.0235
 20
534.4757000000001
 30
0.0
 10
426.847
 20
535.3074
 30
0.0
 10
427.8072
 20
535.8272000000001
 30
0.0
 10
428.9042
 20
536.0353
 30
0.0
  0
SPLINE
  5
EE
330
1F
100
AcDbEntity
  8
layer 1
370
     5
100
AcDbSpline
210
0.0
220
0.0
230
1.0
 70
     8
 71
     3
 72
    28
 73
    24
 74
     0
 42
0.0000000001
 43
0.0000000001
 40
0.0
 40
0.0
 40
0.0
 40
0.0
 40
0.1666666666666667
 40
0.1666666666666667
 40
0.1666666666666667
 40
0.1666666666666667
 40
0.3333333333333333
 40
0.3333333333333333
 40
0.3333333333333333
 40
0.3333333333333333
 40
0.5
 40
0.5
 40
0.5
 40
0.5
 40
0.6666666666666666
 40
0.6666666666666666
 40
0.6666666666666666
 40
0.6666666666666666
 40
0.8333333333333333
 40
0.8333333333333333
 40
0.8333333333333333
 40
0.8333333333333333
 40
1.0
 40
1.0
 40
1.0
 40
1.0
 10
425.1821000000001
 20
519.9171
 30
0.0
 10
426.4175
 20
521.5692
 30
0.0
 10
425.9449
 20
522.5767000000001
 30
0.0
 10
425.1286
 20
523.859
 30
0.0
 10
425.1286
 20
523.859
 30
0.0
 10
424.8922
 20
524.2304
 30
0.0
 10
424.7777
 20
524.6422
 30
0.0
 10
424.9937000000001
 20
525.0259
 30
0.0
 10
424.9937000000001
 20
525.0259
 30
0.0
 10
425.2526
 20
525.486
 30
0.0
 10
425.2637
 20
526.1120000000001
 30
0.0
 10
425.0273
 20
526.9037000000001
 30
0.0
 10
425.0273
 20
526.9037000000001
 30
0.0
 10
425.8473
 20
529.3622
 30
0.0
 10
425.044
 20
531.9684
 30
0.0
 10
427.681
 20
531.7246
 30
0.0
 10
427.681
 20
531.7246
 30
0.0
 10
429.721
 20
531.831
 30
0.0
 10
431.3370000000001
 20
532.1437000000001
 30
0.0
 10
432.529
 20
532.663
 30
0.0
 10
432.529
 20
532.663
 30
0.0
 10
436.8189
 20
532.871
 30
0.0
 10
439.4969
 20
535.2631
 30
0.0
 10
440.5630000000001
 20
539.8390000000001
 30
0.0
  0
SPLINE
  5
EF
330
1F
100
AcDbEntity
  8
layer 1
370
     5
100
AcDbSpline
210
0.0
220
0.0
230
1.0
 70
     8
 71
     3
 72
     8
 73
     4
 74
     0
 42
0.0000000001
 43
0.0000000001
 40
0.0
 40
0.0
 40
0.0
 40
0.0
 40
1.0
 40
1.0
 40
1.0
 40
1.0
 10
434.4884
 20
532.9364000000001
 30
0.0
 10
438.2007
 20
528.9099
 30
0.0
 10
448.1562
 20
536.1716
 30
0.0
 10
447.973
 20
528.256
 30
0.0
  0
SPLINE
  5
F0
330
1F
100
AcDbEntity
  8
layer 1
370
     5
100
AcDbSpline
210
0.0
220
0.0
230
1.0
 70
     8
 71
     3
 72
    32
 73
    28
 74
     0
 42
0.0000000001
 43
0.0000000001
 40
0.0
 40
0.0
 40
0.0
 40
0.0
 40
0.1428571428571429
 40
0.1428571428571429
 40
0.1428571428571429
 40
0.1428571428571429
 40
0.2857142857142857
 40
0.2857142857142857
 40
0.2857142857142857
 40
0.2857142857142857
 40
0.4285714285714286
 40
0.4285714285714286
 40
0.4285714285714286
 40
0.4285714285714286
 40
0.5714285714285714
 40
0.5714285714285714
 40
0.5714285714285714
 40
0.5714285714285714
 40
0.7142857142857142
 40
0.7142857142857142
 40
0.7142857142857142
 40
0.7142857142857142
 40
0.857142857142857
 40
0.857142857142857
 40
0.857142857142857
 40
0.857142857142857
 40
1.0
 40
1.0
 40
1.0
 40
1.0
 10
446.179
 20
527.788
 30
0.0
 10
446.959
 20
526.2151
 30
0.0
 10
447.011
 20
524.4079
 30
0.0
 10
446.335
 20
522.3669
 30
0.0
 10
446.335
 20
522.3669
 30
0.0
 10
445.8082
 20
521.5930000000001
 30
0.0
 10
445.8148000000001
 20
520.7078
 30
0.0
 10
446.3546
 20
519.7114
 30
0.0
 10
446.3546
 20
519.7114
 30
0.0
 10
446.6798
 20
518.8362000000001
 30
0.0
 10
446.3026
 20
518.5096
 30
0.0
 10
445.2229
 20
518.7316000000001
 30
0.0
 10
445.2229
 20
518.7316000000001
 30
0.0
 10
443.1155
 20
519.2869000000001
 30
0.0
 10
441.0602
 20
519.4894000000001
 30
0.0
 10
439.0569
 20
519.3391
 30
0.0
 10
439.0569
 20
519.3391
 30
0.0
 10
438.6601
 20
519.3261
 30
0.0
 10
437.8861
 20
519.1824
 30
0.0
 10
436.7349
 20
518.908
 30
0.0
 10
436.7349
 20
518.908
 30
0.0
 10
436.5462
 20
518.503
 30
0.0
 10
435.9283
 20
518.3069
 30
0.0
 10
434.8812
 20
518.3200000000001
 30
0.0
 10
434.8812
 20
518.3200000000001
 30
0.0
 10
434.8421
 20
515.792
 30
0.0
 10
433.4106
 20
514.8752000000001
 30
0.0
 10
431.2382
 20
515.0385
 30
0.0
  0
SPLINE
  5
F1
330
1F
100
AcDbEntity
  8
layer 1
370
     5
100
AcDbSpline
210
0.0
220
0.0
230
1.0
 70
     8
 71
     3
 72
     8
 73
     4
 74
     0
 42
0.0000000001
 43
0.0000000001
 40
0.0
 40
0.0
 40
0.0
 40
0.0
 40
1.0
 40
1.0
 40
1.0
 40
1.0
 10
430.5104
 20
517.5166
 30
0.0
 10
429.8924
 20
515.9358
 30
0.0
 10
429.3134
 20
515.0081
 30
0.0
 10
428.7737
 20
514.7337
 30
0.0
  0
SPLINE
  5
F2
330
1F
100
AcDbEntity
  8
layer 1
370
     5
100
AcDbSpline
210
0.0
220
0.0
230
1.0
 70
     8
 71
     3
 72
     8
 73
     4
 74
     0
 42
0.0000000001
 43
0.0000000001
 40
0.0
 40
0.0
 40
0.0
 40
0.0
 40
1.0
 40
1.0
 40
1.0
 40
1.0
 10
432.3836
 20
517.0854000000001
 30
0.0
 10
432.1809
 20
515.2151
 30
0.0
 10
431.0046
 20
514.4464
 30
0.0
 10
428.8548
 20
514.7797000000001
 30
0.0
  0
SPLINE
  5
F3
330
1F
100
AcDbEntity
  8
layer 1
370
     5
100
AcDbSpline
210
0.0
220
0.0
230
1.0
 70
     8
 71
     3
 72
    20
 73
    16
 74
     0
 42
0.0000000001
 43
0.0000000001
 40
0.0
 40
0.0
 40
0.0
 40
0.0
 40
0.25
 40
0.25
 40
0.25
 40
0.25
 40
0.5
 40
0.5
 40
0.5
 40
0.5
 40
0.75
 40
0.75
 40
0.75
 40
0.75
 40
1.0
 40
1.0
 40
1.0
 40
1.0
 10
430.5104
 20
517.5166
 30
0.0
 10
431.4018
 20
517.8955
 30
0.0
 10
431.9611
 20
518.3920000000001
 30
0.0
 10
432.1883
 20
519.0058
 30
0.0
 10
432.1883
 20
519.0058
 30
0.0
 10
432.416
 20
520.711
 30
0.0
 10
433.7825
 20
521.6175000000001
 30
0.0
 10
435.9043
 20
521.6742
 30
0.0
 10
435.9043
 20
521.6742
 30
0.0
 10
437.6525
 20
521.7023
 30
0.0
 10
438.5845000000001
 20
521.8122000000001
 30
0.0
 10
438.9844
 20
521.8255
 30
0.0
 10
438.9844
 20
521.8255
 30
0.0
 10
435.1396
 20
522.7879
 30
0.0
 10
433.6938
 20
524.4883
 30
0.0
 10
434.5745
 20
526.9439
 30
0.0
  0
SPLINE
  5
F4
330
1F
100
AcDbEntity
  8
layer 1
370
     5
100
AcDbSpline
210
0.0
220
0.0
230
1.0
 70
     8
 71
     3
 72
    20
 73
    16
 74
     0
 42
0.0000000001
 43
0.0000000001
 40
0.0
 40
0.0
 40
0.0
 40
0.0
 40
0.25
 40
0.25
 40
0.25
 40
0.25
 40
0.5
 40
0.5
 40
0.5
 40
0.5
 40
0.75
 40
0.75
 40
0.75
 40
0.75
 40
1.0
 40
1.0
 40
1.0
 40
1.0
 10
441.0862
 20
525.7082
 30
0.0
 10
440.0717
 20
523.4121
 30
0.0
 10
436.3761
 20
524.3933000000001
 30
0.0
 10
435.1544
 20
525.8061
 30
0.0
 10
435.1544
 20
525.8061
 30
0.0
 10
433.8209
 20
527.7726
 30
0.0
 10
434.3737
 20
529.2293000000001
 30
0.0
 10
436.8129
 20
530.1764000000001
 30
0.0
 10
436.8129
 20
530.1764000000001
 30
0.0
 10
435.4514
 20
527.3259000000001
 30
0.0
 10
438.3114000000001
 20
526.5912000000001
 30
0.0
 10
439.6228
 20
528.7654
 30
0.0
 10
439.6228
 20
528.7654
 30
0.0
 10
441.2197000000001
 20
530.7974
 30
0.0
 10
443.4992
 20
531.7965
 30
0.0
 10
446.4611
 20
531.7627
 30
0.0
  0
SPLINE
  5
F5
330
1F
100
AcDbEntity
  8
layer 1
370
     5
100
AcDbSpline
210
0.0
220
0.0
230
1.0
 70
     8
 71
     3
 72
    16
 73
    12
 74
     0
 42
0.0000000001
 43
0.0000000001
 40
0.0
 40
0.0
 40
0.0
 40
0.0
 40
0.3333333333333333
 40
0.3333333333333333
 40
0.3333333333333333
 40
0.3333333333333333
 40
0.6666666666666666
 40
0.6666666666666666
 40
0.6666666666666666
 40
0.6666666666666666
 40
1.0
 40
1.0
 40
1.0
 40
1.0
 10
446.179
 20
527.788
 30
0.0
 10
447.5057000000001
 20
526.3419
 30
0.0
 10
448.3124
 20
525.0411
 30
0.0
 10
448.5986
 20
523.8857
 30
0.0
 10
448.5986
 20
523.8857
 30
0.0
 10
450.6148
 20
522.0110000000001
 30
0.0
 10
450.4718
 20
520.6195
 30
0.0
 10
448.1693
 20
519.7114
 30
0.0
 10
448.1693
 20
519.7114
 30
0.0
 10
450.862
 20
518.2158000000001
 30
0.0
 10
451.8313
 20
518.9212
 30
0.0
 10
452.8914
 20
521.5928
 30
0.0
  0
SPLINE
  5
F6
330
1F
100
AcDbEntity
  8
layer 1
370
     5
100
AcDbSpline
210
0.0
220
0.0
230
1.0
 70
     8
 71
     3
 72
    28
 73
    24
 74
     0
 42
0.0000000001
 43
0.0000000001
 40
0.0
 40
0.0
 40
0.0
 40
0.0
 40
0.1666666666666667
 40
0.1666666666666667
 40
0.1666666666666667
 40
0.1666666666666667
 40
0.3333333333333333
 40
0.3333333333333333
 40
0.3333333333333333
 40
0.3333333333333333
 40
0.5
 40
0.5
 40
0.5
 40
0.5
 40
0.6666666666666666
 40
0.6666666666666666
 40
0.6666666666666666
 40
0.6666666666666666
 40
0.8333333333333333
 40
0.8333333333333333
 40
0.8333333333333333
 40
0.8333333333333333
 40
1.0
 40
1.0
 40
1.0
 40
1.0
 10
453.828
 20
516.1447000000001
 30
0.0
 10
453.7509
 20
514.4745
 30
0.0
 10
452.9693
 20
513.6885
 30
0.0
 10
451.483
 20
513.7869000000001
 30
0.0
 10
451.483
 20
513.7869000000001
 30
0.0
 10
451.9249
 20
513.917
 30
0.0
 10
452.1069
 20
514.5149
 30
0.0
 10
452.029
 20
515.581
 30
0.0
 10
452.029
 20
515.581
 30
0.0
 10
452.0716000000001
 20
516.393
 30
0.0
 10
452.603
 20
516.7932000000001
 30
0.0
 10
453.4767
 20
517.0462
 30
0.0
 10
453.4767
 20
517.0462
 30
0.0
 10
456.0779
 20
518.1515000000001
 30
0.0
 10
457.6343
 20
520.3532
 30
0.0
 10
457.5744
 20
523.3565
 30
0.0
 10
457.5744
 20
523.3565
 30
0.0
 10
457.1192
 20
524.3821
 30
0.0
 10
456.6378
 20
524.4017
 30
0.0
 10
456.1304
 20
523.4153
 30
0.0
 10
456.1304
 20
523.4153
 30
0.0
 10
454.1726000000001
 20
522.7555
 30
0.0
 10
453.3207
 20
523.8334
 30
0.0
 10
453.5743
 20
526.6489
 30
0.0
  0
SPLINE
  5
F7
330
1F
100
AcDbEntity
  8
layer 1
370
     5
100
AcDbSpline
210
0.0
220
0.0
230
1.0
 70
     8
 71
     3
 72
    88
 73
    84
 74
     0
 42
0.0000000001
 43
0.0000000001
 40
0.0
 40
0.0
 40
0.0
 40
0.0
 40
0.0476190476190476
 40
0.0476190476190476
 40
0.0476190476190476
 40
0.0476190476190476
 40
0.0952380952380952
 40
0.0952380952380952
 40
0.0952380952380952
 40
0.0952380952380952
 40
0.1428571428571429
 40
0.1428571428571429
 40
0.1428571428571429
 40
0.1428571428571429
 40
0.1904761904761905
 40
0.1904761904761905
 40
0.1904761904761905
 40
0.1904761904761905
 40
0.2380952380952381
 40
0.2380952380952381
 40
0.2380952380952381
 40
0.2380952380952381
 40
0.2857142857142857
 40
0.2857142857142857
 40
0.2857142857142857
 40
0.2857142857142857
 40
0.3333333333333333
 40
0.3333333333333333
 40
0.3333333333333333
 40
0.3333333333333333
 40
0.3809523809523809
 40
0.3809523809523809
 40
0.3809523809523809
 40
0.3809523809523809
 40
0.4285714285714286
 40
0.4285714285714286
 40
0.4285714285714286
 40
0.4285714285714286
 40
0.4761904761904762
 40
0.4761904761904762
 40
0.4761904761904762
 40
0.4761904761904762
 40
0.5238095238095237
 40
0.5238095238095237
 40
0.5238095238095237
 40
0.5238095238095237
 40
0.5714285714285714
 40
0.5714285714285714
 40
0.5714285714285714
 40
0.5714285714285714
 40
0.6190476190476191
 40
0.6190476190476191
 40
0.6190476190476191
 40
0.6190476190476191
 40
0.6666666666666667
 40
0.6666666666666667
 40
0.6666666666666667
 40
0.6666666666666667
 40
0.7142857142857144
 40
0.7142857142857144
 40
0.7142857142857144
 40
0.7142857142857144
 40
0.7619047619047621
 40
0.7619047619047621
 40
0.7619047619047621
 40
0.7619047619047621
 40
0.8095238095238098
 40
0.8095238095238098
 40
0.8095238095238098
 40
0.8095238095238098
 40
0.8571428571428574
 40
0.8571428571428574
 40
0.8571428571428574
 40
0.8571428571428574
 40
0.9047619047619051
 40
0.9047619047619051
 40
0.9047619047619051
 40
0.9047619047619051
 40
0.9523809523809528
 40
0.9523809523809528
 40
0.9523809523809528
 40
0.9523809523809528
 40
1.0
 40
1.0
 40
1.0
 40
1.0
 10
452.8785
 20
514.0617
 30
0.0
 10
455.0117
 20
513.7343000000001
 30
0.0
 10
456.2258000000001
 20
514.6181
 30
0.0
 10
456.5207
 20
516.7131000000001
 30
0.0
 10
456.5207
 20
516.7131000000001
 30
0.0
 10
456.6703
 20
517.2945
 30
0.0
 10
457.1711
 20
517.5492
 30
0.0
 10
458.0232
 20
517.4773
 30
0.0
 10
458.0232
 20
517.4773
 30
0.0
 10
459.4802
 20
518.418
 30
0.0
 10
459.9224
 20
519.6461000000001
 30
0.0
 10
459.35
 20
521.1616
 30
0.0
 10
459.35
 20
521.1616
 30
0.0
 10
459.0639000000001
 20
521.8476000000001
 30
0.0
 10
459.0379
 20
522.4421
 30
0.0
 10
459.2720000000001
 20
522.9449000000001
 30
0.0
 10
459.2720000000001
 20
522.9449000000001
 30
0.0
 10
459.8054
 20
524.0946
 30
0.0
 10
459.8442
 20
524.9308
 30
0.0
 10
459.4062
 20
525.4329
 30
0.0
 10
459.4062
 20
525.4329
 30
0.0
 10
459.1353
 20
525.9108
 30
0.0
 10
459.3970000000001
 20
526.9566
 30
0.0
 10
460.2087
 20
528.5498
 30
0.0
 10
460.2087
 20
528.5498
 30
0.0
 10
460.4166
 20
529.1964
 30
0.0
 10
460.1045
 20
529.3598000000001
 30
0.0
 10
459.2720000000001
 20
529.0398
 30
0.0
 10
459.2720000000001
 20
529.0398
 30
0.0
 10
458.3695
 20
528.576
 30
0.0
 10
457.6264000000001
 20
528.3603000000001
 30
0.0
 10
457.0426000000001
 20
528.3931
 30
0.0
 10
457.0426000000001
 20
528.3931
 30
0.0
 10
455.5311
 20
529.2312000000001
 30
0.0
 10
456.4429
 20
531.4322000000001
 30
0.0
 10
457.9645
 20
531.6265000000001
 30
0.0
 10
457.9645
 20
531.6265000000001
 30
0.0
 10
463.144
 20
532.4728
 30
0.0
 10
465.161
 20
537.1749
 30
0.0
 10
461.0867
 20
540.9353
 30
0.0
 10
461.0867
 20
540.9353
 30
0.0
 10
458.9728
 20
542.4834000000001
 30
0.0
 10
458.1987
 20
543.9402
 30
0.0
 10
458.7647
 20
545.3055000000001
 30
0.0
 10
458.7647
 20
545.3055000000001
 30
0.0
 10
458.0278
 20
545.5015000000001
 30
0.0
 10
455.8031
 20
544.4565
 30
0.0
 10
456.0878
 20
542.7124
 30
0.0
 10
456.0878
 20
542.7124
 30
0.0
 10
452.8373
 20
542.7125
 30
0.0
 10
452.0897
 20
541.5364000000001
 30
0.0
 10
452.7743
 20
538.0349
 30
0.0
 10
452.7743
 20
538.0349
 30
0.0
 10
453.7629
 20
540.9876
 30
0.0
 10
455.4345
 20
540.942
 30
0.0
 10
456.3841000000001
 20
540.6414
 30
0.0
 10
456.3841000000001
 20
540.6414
 30
0.0
 10
454.1049
 20
539.6935
 30
0.0
 10
453.9287000000001
 20
535.6822000000001
 30
0.0
 10
457.0672
 20
535.9184
 30
0.0
 10
457.0672
 20
535.9184
 30
0.0
 10
453.3845
 20
540.8731
 30
0.0
 10
465.1502
 20
540.1879
 30
0.0
 10
460.0031
 20
534.1926
 30
0.0
 10
460.0031
 20
534.1926
 30
0.0
 10
459.3021
 20
533.5525
 30
0.0
 10
457.8475
 20
533.3464
 30
0.0
 10
455.677
 20
533.6191
 30
0.0
 10
455.677
 20
533.6191
 30
0.0
 10
455.2818
 20
533.6687000000001
 30
0.0
 10
454.9551
 20
533.8103
 30
0.0
 10
454.6486
 20
534.0648
 30
0.0
 10
454.6486
 20
534.0648
 30
0.0
 10
452.4772
 20
535.8680000000001
 30
0.0
 10
450.5773
 20
537.0264000000001
 30
0.0
 10
449.0083
 20
537.4862000000001
 30
0.0
 10
449.0083
 20
537.4862000000001
 30
0.0
 10
448.4751
 20
537.9631000000001
 30
0.0
 10
448.2279
 20
538.4269000000001
 30
0.0
 10
448.2669
 20
538.8775000000001
 30
0.0
 10
448.2669
 20
538.8775000000001
 30
0.0
 10
448.2148
 20
540.1318
 30
0.0
 10
447.9286
 20
541.4122
 30
0.0
 10
447.4082
 20
542.7185000000001
 30
0.0
  0
SPLINE
  5
F8
330
1F
100
AcDbEntity
  8
layer 1
370
     5
100
AcDbSpline
210
0.0
220
0.0
230
1.0
 70
     8
 71
     3
 72
    16
 73
    12
 74
     0
 42
0.0000000001
 43
0.0000000001
 40
0.0
 40
0.0
 40
0.0
 40
0.0
 40
0.3333333333333333
 40
0.3333333333333333
 40
0.3333333333333333
 40
0.3333333333333333
 40
0.6666666666666666
 40
0.6666666666666666
 40
0.6666666666666666
 40
0.6666666666666666
 40
1.0
 40
1.0
 40
1.0
 40
1.0
 10
454.4133000000001
 20
554.183
 30
0.0
 10
457.6087
 20
554.2985
 30
0.0
 10
458.3261
 20
550.4537
 30
0.0
 10
455.7403000000001
 20
548.9506
 30
0.0
 10
455.7403000000001
 20
548.9506
 30
0.0
 10
455.8227
 20
552.7911
 30
0.0
 10
450.8049
 20
551.7033
 30
0.0
 10
452.2718
 20
548.4901
 30
0.0
 10
452.2718
 20
548.4901
 30
0.0
 10
453.8111
 20
546.4669
 30
0.0
 10
455.1773
 20
545.1156
 30
0.0
 10
456.582
 20
544.3133
 30
0.0
  0
SPLINE
  5
F9
330
1F
100
AcDbEntity
  8
layer 1
370
     5
100
AcDbSpline
210
0.0
220
0.0
230
1.0
 70
     8
 71
     3
 72
    56
 73
    52
 74
     0
 42
0.0000000001
 43
0.0000000001
 40
0.0
 40
0.0
 40
0.0
 40
0.0
 40
0.0769230769230769
 40
0.0769230769230769
 40
0.0769230769230769
 40
0.0769230769230769
 40
0.1538461538461539
 40
0.1538461538461539
 40
0.1538461538461539
 40
0.1538461538461539
 40
0.2307692307692308
 40
0.2307692307692308
 40
0.2307692307692308
 40
0.2307692307692308
 40
0.3076923076923077
 40
0.3076923076923077
 40
0.3076923076923077
 40
0.3076923076923077
 40
0.3846153846153846
 40
0.3846153846153846
 40
0.3846153846153846
 40
0.3846153846153846
 40
0.4615384615384616
 40
0.4615384615384616
 40
0.4615384615384616
 40
0.4615384615384616
 40
0.5384615384615386
 40
0.5384615384615386
 40
0.5384615384615386
 40
0.5384615384615386
 40
0.6153846153846154
 40
0.6153846153846154
 40
0.6153846153846154
 40
0.6153846153846154
 40
0.6923076923076923
 40
0.6923076923076923
 40
0.6923076923076923
 40
0.6923076923076923
 40
0.7692307692307692
 40
0.7692307692307692
 40
0.7692307692307692
 40
0.7692307692307692
 40
0.846153846153846
 40
0.846153846153846
 40
0.846153846153846
 40
0.846153846153846
 40
0.9230769230769229
 40
0.9230769230769229
 40
0.9230769230769229
 40
0.9230769230769229
 40
1.0
 40
1.0
 40
1.0
 40
1.0
 10
452.2865000000001
 20
552.3018000000001
 30
0.0
 10
453.0865
 20
553.1902
 30
0.0
 10
453.7955
 20
553.8173000000001
 30
0.0
 10
454.4133000000001
 20
554.183
 30
0.0
 10
454.4133000000001
 20
554.183
 30
0.0
 10
456.5791
 20
554.8951000000001
 30
0.0
 10
456.9107
 20
556.4042000000001
 30
0.0
 10
455.4085
 20
558.7101
 30
0.0
 10
455.4085
 20
558.7101
 30
0.0
 10
455.3776
 20
557.0638
 30
0.0
 10
454.9336
 20
556.2016
 30
0.0
 10
454.0767
 20
556.1232
 30
0.0
 10
454.0767
 20
556.1232
 30
0.0
 10
453.8865
 20
558.8996000000001
 30
0.0
 10
452.3921
 20
560.6177
 30
0.0
 10
449.5937
 20
561.2773000000001
 30
0.0
 10
449.5937
 20
561.2773000000001
 30
0.0
 10
451.8444
 20
561.9175
 30
0.0
 10
453.1906
 20
563.1
 30
0.0
 10
453.067
 20
565.0008
 30
0.0
 10
453.067
 20
565.0008
 30
0.0
 10
451.6788
 20
563.8977
 30
0.0
 10
449.2195
 20
565.1645
 30
0.0
 10
448.0754
 20
563.0295
 30
0.0
 10
448.0754
 20
563.0295
 30
0.0
 10
447.2149
 20
561.6835
 30
0.0
 10
445.061
 20
562.7803
 30
0.0
 10
445.2814
 20
564.6872000000001
 30
0.0
 10
445.2814
 20
564.6872000000001
 30
0.0
 10
442.8163
 20
562.806
 30
0.0
 10
442.7577
 20
561.1075000000001
 30
0.0
 10
445.1058
 20
559.5918
 30
0.0
 10
445.1058
 20
559.5918
 30
0.0
 10
444.4424
 20
557.2143
 30
0.0
 10
445.4181
 20
556.0905
 30
0.0
 10
448.0327
 20
556.2212000000001
 30
0.0
 10
448.0327
 20
556.2212000000001
 30
0.0
 10
447.4668
 20
558.2201
 30
0.0
 10
448.1888
 20
559.0955
 30
0.0
 10
450.1986
 20
558.8473
 30
0.0
 10
450.1986
 20
558.8473
 30
0.0
 10
451.9872
 20
557.7366000000001
 30
0.0
 10
452.4621
 20
556.2342
 30
0.0
 10
451.6230000000001
 20
554.3398000000001
 30
0.0
 10
451.6230000000001
 20
554.3398000000001
 30
0.0
 10
450.3069
 20
552.1582000000001
 30
0.0
 10
447.469
 20
549.1125000000001
 30
0.0
 10
450.079
 20
546.7420000000001
 30
0.0
 10
450.079
 20
546.7420000000001
 30
0.0
 10
451.818
 20
544.8942000000001
 30
0.0
 10
453.2411
 20
543.3945
 30
0.0
 10
454.1704
 20
542.4949
 30
0.0
  0
SPLINE
  5
FA
330
1F
100
AcDbEntity
  8
layer 1
370
     5
100
AcDbSpline
210
0.0
220
0.0
230
1.0
 70
     8
 71
     3
 72
    20
 73
    16
 74
     0
 42
0.0000000001
 43
0.0000000001
 40
0.0
 40
0.0
 40
0.0
 40
0.0
 40
0.25
 40
0.25
 40
0.25
 40
0.25
 40
0.5
 40
0.5
 40
0.5
 40
0.5
 40
0.75
 40
0.75
 40
0.75
 40
0.75
 40
1.0
 40
1.0
 40
1.0
 40
1.0
 10
451.4796
 20
519.2923000000001
 30
0.0
 10
451.7363
 20
518.6617
 30
0.0
 10
451.7313
 20
518.2090000000001
 30
0.0
 10
451.3108
 20
517.3793000000001
 30
0.0
 10
451.3108
 20
517.3793000000001
 30
0.0
 10
453.7304
 20
518.1176
 30
0.0
 10
454.7189
 20
519.287
 30
0.0
 10
454.2767
 20
520.8873
 30
0.0
 10
454.2767
 20
520.8873
 30
0.0
 10
454.8619000000001
 20
520.3582
 30
0.0
 10
455.0831
 20
519.7113000000001
 30
0.0
 10
454.9402
 20
518.9471
 30
0.0
 10
454.9402
 20
518.9471
 30
0.0
 10
456.0979
 20
520.0895
 30
0.0
 10
456.7944
 20
521.8483
 30
0.0
 10
456.1304
 20
523.4153
 30
0.0
  0
SPLINE
  5
FB
330
1F
100
AcDbEntity
  8
layer 1
370
     5
100
AcDbSpline
210
0.0
220
0.0
230
1.0
 70
     8
 71
     3
 72
    16
 73
    12
 74
     0
 42
0.0000000001
 43
0.0000000001
 40
0.0
 40
0.0
 40
0.0
 40
0.0
 40
0.3333333333333333
 40
0.3333333333333333
 40
0.3333333333333333
 40
0.3333333333333333
 40
0.6666666666666666
 40
0.6666666666666666
 40
0.6666666666666666
 40
0.6666666666666666
 40
1.0
 40
1.0
 40
1.0
 40
1.0
 10
429.7884
 20
550.6164
 30
0.0
 10
429.6908
 20
548.7677
 30
0.0
 10
430.2307
 20
548.1078
 30
0.0
 10
431.4079
 20
548.6370000000001
 30
0.0
 10
431.4079
 20
548.6370000000001
 30
0.0
 10
431.6590000000001
 20
548.8052
 30
0.0
 10
432.0956000000001
 20
548.855
 30
0.0
 10
432.7375
 20
548.784
 30
0.0
 10
432.7375
 20
548.784
 30
0.0
 10
433.6339
 20
548.5883
 30
0.0
 10
434.3143
 20
549.6080000000001
 30
0.0
 10
434.7985000000001
 20
551.8406
 30
0.0
  0
SPLINE
  5
FC
330
1F
100
AcDbEntity
  8
layer 1
370
     5
100
AcDbSpline
210
0.0
220
0.0
230
1.0
 70
     8
 71
     3
 72
     8
 73
     4
 74
     0
 42
0.0000000001
 43
0.0000000001
 40
0.0
 40
0.0
 40
0.0
 40
0.0
 40
1.0
 40
1.0
 40
1.0
 40
1.0
 10
430.5371
 20
544.453
 30
0.0
 10
430.5884
 20
547.5724
 30
0.0
 10
432.58
 20
546.8205
 30
0.0
 10
433.9461
 20
548.6364
 30
0.0
  0
SPLINE
  5
FD
330
1F
100
AcDbEntity
  8
layer 1
370
     5
100
AcDbSpline
210
0.0
220
0.0
230
1.0
 70
     8
 71
     3
 72
    12
 73
     8
 74
     0
 42
0.0000000001
 43
0.0000000001
 40
0.0
 40
0.0
 40
0.0
 40
0.0
 40
0.5
 40
0.5
 40
0.5
 40
0.5
 40
1.0
 40
1.0
 40
1.0
 40
1.0
 10
497.4764
 20
479.1448
 30
0.0
 10
497.5477
 20
481.0574
 30
0.0
 10
495.9467
 20
481.9969
 30
0.0
 10
492.6734
 20
481.963
 30
0.0
 10
492.6734
 20
481.963
 30
0.0
 10
494.2308
 20
480.6254
 30
0.0
 10
494.8698
 20
479.4351
 30
0.0
 10
494.5901
 20
478.3925
 30
0.0
  0
SPLINE
  5
FE
330
1F
100
AcDbEntity
  8
layer 1
370
     5
100
AcDbSpline
210
0.0
220
0.0
230
1.0
 70
     8
 71
     3
 72
     8
 73
     4
 74
     0
 42
0.0000000001
 43
0.0000000001
 40
0.0
 40
0.0
 40
0.0
 40
0.0
 40
1.0
 40
1.0
 40
1.0
 40
1.0
 10
492.6734
 20
481.963
 30
0.0
 10
496.6831
 20
480.5792
 30
0.0
 10
497.2048
 20
476.9931
 30
0.0
 10
494.3377
 20
475.1755
 30
0.0
  0
SPLINE
  5
FF
330
1F
100
AcDbEntity
  8
layer 1
370
     5
100
AcDbSpline
210
0.0
220
0.0
230
1.0
 70
    11
 71
     3
 72
    20
 73
    16
 74
     0
 42
0.0000000001
 43
0.0000000001
 40
0.0
 40
0.0
 40
0.0
 40
0.0
 40
0.25
 40
0.25
 40
0.25
 40
0.25
 40
0.5
 40
0.5
 40
0.5
 40
0.5
 40
0.75
 40
0.75
 40
0.75
 40
0.75
 40
1.0
 40
1.0
 40
1.0
 40
1.0
 10
494.3377
 20
475.1755
 30
0.0
 10
495.6071
 20
476.0922000000001
 30
0.0
 10
495.6909
 20
477.1647
 30
0.0
 10
494.5901
 20
478.3925
 30
0.0
 10
494.5901
 20
478.3925
 30
0.0
 10
485.8895
 20
475.9645
 30
0.0
 10
480.318
 20
473.7933
 30
0.0
 10
477.8755000000001
 20
471.8789
 30
0.0
 10
477.8755000000001
 20
471.8789
 30
0.0
 10
477.5776
 20
471.533
 30
0.0
 10
477.8028000000001
 20
471.4156
 30
0.0
 10
478.5512000000001
 20
471.527
 30
0.0
 10
478.5512000000001
 20
471.527
 30
0.0
 10
486.2447
 20
473.0718
 30
0.0
 10
491.5068
 20
474.288
 30
0.0
 10
494.3377
 20
475.1755
 30
0.0
  0
SPLINE
  5
100
330
1F
100
AcDbEntity
  8
layer 1
370
     5
100
AcDbSpline
210
0.0
220
0.0
230
1.0
 70
     8
 71
     3
 72
     8
 73
     4
 74
     0
 42
0.0000000001
 43
0.0000000001
 40
0.0
 40
0.0
 40
0.0
 40
0.0
 40
1.0
 40
1.0
 40
1.0
 40
1.0
 10
492.0785
 20
477.6732
 30
0.0
 10
492.9035
 20
476.4304
 30
0.0
 10
492.9161
 20
475.3866
 30
0.0
 10
492.1164
 20
474.5419
 30
0.0
  0
SPLINE
  5
101
330
1F
100
AcDbEntity
  8
layer 1
370
     5
100
AcDbSpline
210
0.0
220
0.0
230
1.0
 70
     8
 71
     3
 72
     8
 73
     4
 74
     0
 42
0.0000000001
 43
0.0000000001
 40
0.0
 40
0.0
 40
0.0
 40
0.0
 40
1.0
 40
1.0
 40
1.0
 40
1.0
 10
489.5419
 20
476.9028
 30
0.0
 10
490.4147
 20
475.6152
 30
0.0
 10
490.2960000000001
 20
474.585
 30
0.0
 10
489.1847
 20
473.812
 30
0.0
  0
SPLINE
  5
102
330
1F
100
AcDbEntity
  8
layer 1
370
     5
100
AcDbSpline
210
0.0
220
0.0
230
1.0
 70
     8
 71
     3
 72
     8
 73
     4
 74
     0
 42
0.0000000001
 43
0.0000000001
 40
0.0
 40
0.0
 40
0.0
 40
0.0
 40
1.0
 40
1.0
 40
1.0
 40
1.0
 10
486.5858
 20
475.931
 30
0.0
 10
487.2328
 20
474.6691
 30
0.0
 10
487.347
 20
473.7897
 30
0.0
 10
486.9274
 20
473.2926000000001
 30
0.0
  0
SPLINE
  5
103
330
1F
100
AcDbEntity
  8
layer 1
370
     5
100
AcDbSpline
210
0.0
220
0.0
230
1.0
 70
     8
 71
     3
 72
     8
 73
     4
 74
     0
 42
0.0000000001
 43
0.0000000001
 40
0.0
 40
0.0
 40
0.0
 40
0.0
 40
1.0
 40
1.0
 40
1.0
 40
1.0
 10
483.6631
 20
474.8557
 30
0.0
 10
484.1671
 20
473.9325
 30
0.0
 10
484.3383
 20
473.2107
 30
0.0
 10
484.1764
 20
472.6904
 30
0.0
  0
SPLINE
  5
104
330
1F
100
AcDbEntity
  8
layer 1
370
     5
100
AcDbSpline
210
0.0
220
0.0
230
1.0
 70
     8
 71
     3
 72
     8
 73
     4
 74
     0
 42
0.0000000001
 43
0.0000000001
 40
0.0
 40
0.0
 40
0.0
 40
0.0
 40
1.0
 40
1.0
 40
1.0
 40
1.0
 10
481.1849
 20
473.7972
 30
0.0
 10
481.4859
 20
473.3271
 30
0.0
 10
481.6256
 20
472.7778
 30
0.0
 10
481.6035
 20
472.149
 30
0.0
  0
SPLINE
  5
105
330
1F
100
AcDbEntity
  8
layer 1
370
     5
100
AcDbSpline
210
0.0
220
0.0
230
1.0
 70
    11
 71
     3
 72
    20
 73
    16
 74
     0
 42
0.0000000001
 43
0.0000000001
 40
0.0
 40
0.0
 40
0.0
 40
0.0
 40
0.25
 40
0.25
 40
0.25
 40
0.25
 40
0.5
 40
0.5
 40
0.5
 40
0.5
 40
0.75
 40
0.75
 40
0.75
 40
0.75
 40
1.0
 40
1.0
 40
1.0
 40
1.0
 10
497.5546000000001
 20
477.0449
 30
0.0
 10
498.0346
 20
477.1735000000001
 30
0.0
 10
498.5282
 20
476.8886
 30
0.0
 10
498.6569
 20
476.4085
 30
0.0
 10
498.6569
 20
476.4085
 30
0.0
 10
498.7855
 20
475.9284
 30
0.0
 10
498.5005000000001
 20
475.4348
 30
0.0
 10
498.0205
 20
475.3062000000001
 30
0.0
 10
498.0205
 20
475.3062000000001
 30
0.0
 10
497.5405
 20
475.1776
 30
0.0
 10
497.0469000000001
 20
475.4625
 30
0.0
 10
496.9182
 20
475.9426
 30
0.0
 10
496.9182
 20
475.9426
 30
0.0
 10
496.7896
 20
476.4227
 30
0.0
 10
497.0746
 20
476.9162
 30
0.0
 10
497.5546000000001
 20
477.0449
 30
0.0
  0
SPLINE
  5
106
330
1F
100
AcDbEntity
  8
layer 1
370
     5
100
AcDbSpline
210
0.0
220
0.0
230
1.0
 70
     8
 71
     3
 72
    24
 73
    20
 74
     0
 42
0.0000000001
 43
0.0000000001
 40
0.0
 40
0.0
 40
0.0
 40
0.0
 40
0.2
 40
0.2
 40
0.2
 40
0.2
 40
0.4
 40
0.4
 40
0.4
 40
0.4
 40
0.6000000000000001
 40
0.6000000000000001
 40
0.6000000000000001
 40
0.6000000000000001
 40
0.8
 40
0.8
 40
0.8
 40
0.8
 40
1.0
 40
1.0
 40
1.0
 40
1.0
 10
494.3377
 20
475.1755
 30
0.0
 10
495.4901
 20
474.9187
 30
0.0
 10
496.1329
 20
474.0692
 30
0.0
 10
496.2658
 20
472.6269
 30
0.0
 10
496.2658
 20
472.6269
 30
0.0
 10
496.4238
 20
470.5595
 30
0.0
 10
496.8708
 20
469.2834
 30
0.0
 10
497.6067000000001
 20
468.7988
 30
0.0
 10
497.6067000000001
 20
468.7988
 30
0.0
 10
497.7354
 20
468.8008
 30
0.0
 10
498.038
 20
468.395
 30
0.0
 10
498.5147
 20
467.5812
 30
0.0
 10
498.5147
 20
467.5812
 30
0.0
 10
499.6038
 20
466.7127
 30
0.0
 10
500.5605000000001
 20
466.7011
 30
0.0
 10
501.3844
 20
467.5468
 30
0.0
 10
501.3844
 20
467.5468
 30
0.0
 10
502.3229
 20
469.0401
 30
0.0
 10
501.8826
 20
469.3406
 30
0.0
 10
501.8688
 20
471.1711
 30
0.0
  0
SPLINE
  5
107
330
1F
100
AcDbEntity
  8
layer 1
370
     5
100
AcDbSpline
210
0.0
220
0.0
230
1.0
 70
     8
 71
     3
 72
     8
 73
     4
 74
     0
 42
0.0000000001
 43
0.0000000001
 40
0.0
 40
0.0
 40
0.0
 40
0.0
 40
1.0
 40
1.0
 40
1.0
 40
1.0
 10
499.6461000000001
 20
480.2768
 30
0.0
 10
502.8354000000001
 20
478.7778
 30
0.0
 10
504.1263
 20
476.7052000000001
 30
0.0
 10
503.518
 20
474.059
 30
0.0
  0
SPLINE
  5
108
330
1F
100
AcDbEntity
  8
layer 1
370
     5
100
AcDbSpline
210
0.0
220
0.0
230
1.0
 70
     8
 71
     3
 72
    12
 73
     8
 74
     0
 42
0.0000000001
 43
0.0000000001
 40
0.0
 40
0.0
 40
0.0
 40
0.0
 40
0.5
 40
0.5
 40
0.5
 40
0.5
 40
1.0
 40
1.0
 40
1.0
 40
1.0
 10
502.9749000000001
 20
480.0094
 30
0.0
 10
506.3654
 20
478.2046
 30
0.0
 10
507.5216
 20
476.0594
 30
0.0
 10
506.4434
 20
473.5742
 30
0.0
 10
506.4434
 20
473.5742
 30
0.0
 10
504.8805
 20
471.3306
 30
0.0
 10
504.3223
 20
469.1944
 30
0.0
 10
504.7689
 20
467.1661
 30
0.0
  0
SPLINE
  5
109
330
1F
100
AcDbEntity
  8
layer 1
370
     5
100
AcDbSpline
210
0.0
220
0.0
230
1.0
 70
     8
 71
     3
 72
    16
 73
    12
 74
     0
 42
0.0000000001
 43
0.0000000001
 40
0.0
 40
0.0
 40
0.0
 40
0.0
 40
0.3333333333333333
 40
0.3333333333333333
 40
0.3333333333333333
 40
0.3333333333333333
 40
0.6666666666666666
 40
0.6666666666666666
 40
0.6666666666666666
 40
0.6666666666666666
 40
1.0
 40
1.0
 40
1.0
 40
1.0
 10
497.0622
 20
480.6407
 30
0.0
 10
496.001
 20
482.5736
 30
0.0
 10
496.8721000000001
 20
484.8544
 30
0.0
 10
498.769
 20
485.8118
 30
0.0
 10
498.769
 20
485.8118
 30
0.0
 10
499.7155
 20
486.2600000000001
 30
0.0
 10
500.4055
 20
487.0618
 30
0.0
 10
500.8396
 20
488.2169
 30
0.0
 10
500.8396
 20
488.2169
 30
0.0
 10
502.1419
 20
486.0096
 30
0.0
 10
501.8863
 20
484.3099
 30
0.0
 10
500.0726
 20
483.1179
 30
0.0
  0
SPLINE
  5
10A
330
1F
100
AcDbEntity
  8
layer 1
370
     5
100
AcDbSpline
210
0.0
220
0.0
230
1.0
 70
     8
 71
     3
 72
    20
 73
    16
 74
     0
 42
0.0000000001
 43
0.0000000001
 40
0.0
 40
0.0
 40
0.0
 40
0.0
 40
0.25
 40
0.25
 40
0.25
 40
0.25
 40
0.5
 40
0.5
 40
0.5
 40
0.5
 40
0.75
 40
0.75
 40
0.75
 40
0.75
 40
1.0
 40
1.0
 40
1.0
 40
1.0
 10
500.7468
 20
483.2255
 30
0.0
 10
503.1371
 20
483.2195
 30
0.0
 10
504.6217
 20
483.8417
 30
0.0
 10
505.2087
 20
485.1068
 30
0.0
 10
505.2087
 20
485.1068
 30
0.0
 10
506.6928
 20
487.7105
 30
0.0
 10
510.209
 20
485.2717
 30
0.0
 10
507.3263
 20
483.2575000000001
 30
0.0
 10
507.3263
 20
483.2575000000001
 30
0.0
 10
512.428
 20
482.6069
 30
0.0
 10
511.1413
 20
490.1423
 30
0.0
 10
505.6685000000001
 20
489.8273
 30
0.0
 10
505.6685000000001
 20
489.8273
 30
0.0
 10
503.6865
 20
489.6859
 30
0.0
 10
502.3037000000001
 20
488.6337
 30
0.0
 10
501.5204000000001
 20
486.6706
 30
0.0
  0
SPLINE
  5
10B
330
1F
100
AcDbEntity
  8
layer 1
370
     5
100
AcDbSpline
210
0.0
220
0.0
230
1.0
 70
     8
 71
     3
 72
    12
 73
     8
 74
     0
 42
0.0000000001
 43
0.0000000001
 40
0.0
 40
0.0
 40
0.0
 40
0.0
 40
0.5
 40
0.5
 40
0.5
 40
0.5
 40
1.0
 40
1.0
 40
1.0
 40
1.0
 10
513.4626000000001
 20
472.6933
 30
0.0
 10
513.5999000000001
 20
470.3723
 30
0.0
 10
512.1368
 20
468.7204
 30
0.0
 10
509.0731
 20
467.738
 30
0.0
 10
509.0731
 20
467.738
 30
0.0
 10
503.8298
 20
464.9441000000001
 30
0.0
 10
502.7695000000001
 20
461.8499000000001
 30
0.0
 10
505.8918000000001
 20
458.4551
 30
0.0
  0
SPLINE
  5
10C
330
1F
100
AcDbEntity
  8
layer 1
370
     5
100
AcDbSpline
210
0.0
220
0.0
230
1.0
 70
     8
 71
     3
 72
     8
 73
     4
 74
     0
 42
0.0000000001
 43
0.0000000001
 40
0.0
 40
0.0
 40
0.0
 40
0.0
 40
1.0
 40
1.0
 40
1.0
 40
1.0
 10
509.4123
 20
483.5721
 30
0.0
 10
510.5871
 20
481.3014
 30
0.0
 10
512.6991
 20
480.9187
 30
0.0
 10
515.7487
 20
482.4246
 30
0.0
  0
SPLINE
  5
10D
330
1F
100
AcDbEntity
  8
layer 1
370
     5
100
AcDbSpline
210
0.0
220
0.0
230
1.0
 70
     8
 71
     3
 72
     8
 73
     4
 74
     0
 42
0.0000000001
 43
0.0000000001
 40
0.0
 40
0.0
 40
0.0
 40
0.0
 40
1.0
 40
1.0
 40
1.0
 40
1.0
 10
510.3961000000001
 20
486.6868
 30
0.0
 10
511.1603
 20
483.9869000000001
 30
0.0
 10
512.9445000000001
 20
482.566
 30
0.0
 10
515.7487
 20
482.4246
 30
0.0
  0
SPLINE
  5
10E
330
1F
100
AcDbEntity
  8
layer 1
370
     5
100
AcDbSpline
210
0.0
220
0.0
230
1.0
 70
     8
 71
     3
 72
    12
 73
     8
 74
     0
 42
0.0000000001
 43
0.0000000001
 40
0.0
 40
0.0
 40
0.0
 40
0.0
 40
0.5
 40
0.5
 40
0.5
 40
0.5
 40
1.0
 40
1.0
 40
1.0
 40
1.0
 10
511.3082
 20
481.7395
 30
0.0
 10
513.4503
 20
477.2086000000001
 30
0.0
 10
517.7393000000001
 20
480.5472
 30
0.0
 10
519.054
 20
476.5174
 30
0.0
 10
519.054
 20
476.5174
 30
0.0
 10
519.1994
 20
480.3459
 30
0.0
 10
517.6625
 20
482.1828
 30
0.0
 10
515.0428000000001
 20
482.1027
 30
0.0
  0
SPLINE
  5
10F
330
1F
100
AcDbEntity
  8
layer 1
370
     5
100
AcDbSpline
210
0.0
220
0.0
230
1.0
 70
     8
 71
     3
 72
    24
 73
    20
 74
     0
 42
0.0000000001
 43
0.0000000001
 40
0.0
 40
0.0
 40
0.0
 40
0.0
 40
0.2
 40
0.2
 40
0.2
 40
0.2
 40
0.4
 40
0.4
 40
0.4
 40
0.4
 40
0.6000000000000001
 40
0.6000000000000001
 40
0.6000000000000001
 40
0.6000000000000001
 40
0.8
 40
0.8
 40
0.8
 40
0.8
 40
1.0
 40
1.0
 40
1.0
 40
1.0
 10
513.9481000000001
 20
479.2933
 30
0.0
 10
513.813
 20
477.0123
 30
0.0
 10
514.7552000000001
 20
475.5425
 30
0.0
 10
516.7012
 20
474.9095
 30
0.0
 10
516.7012
 20
474.9095
 30
0.0
 10
517.687
 20
474.605
 30
0.0
 10
518.4041
 20
473.8975
 30
0.0
 10
518.7817
 20
472.8033
 30
0.0
 10
518.7817
 20
472.8033
 30
0.0
 10
519.1988
 20
471.1758
 30
0.0
 10
520.0235
 20
470.3656
 30
0.0
 10
521.2587
 20
470.3644000000001
 30
0.0
 10
521.2587
 20
470.3644000000001
 30
0.0
 10
520.2976
 20
471.4784
 30
0.0
 10
520.0283000000001
 20
472.6642000000001
 30
0.0
 10
520.451
 20
473.9216
 30
0.0
 10
520.451
 20
473.9216
 30
0.0
 10
520.7138
 20
474.7995
 30
0.0
 10
520.2469
 20
476.0094
 30
0.0
 10
519.0505000000001
 20
477.5512000000001
 30
0.0
  0
SPLINE
  5
110
330
1F
100
AcDbEntity
  8
layer 1
370
     5
100
AcDbSpline
210
0.0
220
0.0
230
1.0
 70
     8
 71
     3
 72
    12
 73
     8
 74
     0
 42
0.0000000001
 43
0.0000000001
 40
0.0
 40
0.0
 40
0.0
 40
0.0
 40
0.5
 40
0.5
 40
0.5
 40
0.5
 40
1.0
 40
1.0
 40
1.0
 40
1.0
 10
503.9443
 20
457.8124
 30
0.0
 10
501.5426000000001
 20
460.2843
 30
0.0
 10
500.9816
 20
463.0976
 30
0.0
 10
501.9692
 20
466.5646
 30
0.0
 10
501.9692
 20
466.5646
 30
0.0
 10
503.3008
 20
469.1191
 30
0.0
 10
502.8034
 20
471.6702
 30
0.0
 10
503.545
 20
474.1822
 30
0.0
  0
SPLINE
  5
111
330
1F
100
AcDbEntity
  8
layer 1
370
     5
100
AcDbSpline
210
0.0
220
0.0
230
1.0
 70
     8
 71
     3
 72
    28
 73
    24
 74
     0
 42
0.0000000001
 43
0.0000000001
 40
0.0
 40
0.0
 40
0.0
 40
0.0
 40
0.1666666666666667
 40
0.1666666666666667
 40
0.1666666666666667
 40
0.1666666666666667
 40
0.3333333333333333
 40
0.3333333333333333
 40
0.3333333333333333
 40
0.3333333333333333
 40
0.5
 40
0.5
 40
0.5
 40
0.5
 40
0.6666666666666666
 40
0.6666666666666666
 40
0.6666666666666666
 40
0.6666666666666666
 40
0.8333333333333333
 40
0.8333333333333333
 40
0.8333333333333333
 40
0.8333333333333333
 40
1.0
 40
1.0
 40
1.0
 40
1.0
 10
482.9577000000001
 20
464.5084
 30
0.0
 10
480.9503
 20
463.731
 30
0.0
 10
479.5639000000001
 20
464.4633
 30
0.0
 10
479.4139
 20
465.677
 30
0.0
 10
479.4139
 20
465.677
 30
0.0
 10
481.2421000000001
 20
465.6154
 30
0.0
 10
482.7511
 20
465.9732
 30
0.0
 10
483.9556
 20
466.7607
 30
0.0
 10
483.9556
 20
466.7607
 30
0.0
 10
485.5106
 20
467.9839
 30
0.0
 10
487.4174
 20
468.2532000000001
 30
0.0
 10
489.6916000000001
 20
467.5788
 30
0.0
 10
489.6916000000001
 20
467.5788
 30
0.0
 10
490.8418
 20
467.116
 30
0.0
 10
492.3325
 20
466.8904
 30
0.0
 10
494.1635
 20
466.9023
 30
0.0
 10
494.1635
 20
466.9023
 30
0.0
 10
495.4269000000001
 20
467.3138
 30
0.0
 10
496.3058
 20
466.9894000000001
 30
0.0
 10
496.8
 20
465.9289
 30
0.0
 10
496.8
 20
465.9289
 30
0.0
 10
497.8019000000001
 20
464.4314
 30
0.0
 10
499.4012
 20
463.2172000000001
 30
0.0
 10
501.598
 20
462.2867
 30
0.0
  0
SPLINE
  5
112
330
1F
100
AcDbEntity
  8
layer 1
370
     5
100
AcDbSpline
210
0.0
220
0.0
230
1.0
 70
     8
 71
     3
 72
    24
 73
    20
 74
     0
 42
0.0000000001
 43
0.0000000001
 40
0.0
 40
0.0
 40
0.0
 40
0.0
 40
0.2
 40
0.2
 40
0.2
 40
0.2
 40
0.4
 40
0.4
 40
0.4
 40
0.4
 40
0.6000000000000001
 40
0.6000000000000001
 40
0.6000000000000001
 40
0.6000000000000001
 40
0.8
 40
0.8
 40
0.8
 40
0.8
 40
1.0
 40
1.0
 40
1.0
 40
1.0
 10
480.5186000000001
 20
464.3158
 30
0.0
 10
481.0189
 20
462.1496
 30
0.0
 10
483.0948
 20
462.4951
 30
0.0
 10
484.6224
 20
463.518
 30
0.0
 10
484.6224
 20
463.518
 30
0.0
 10
485.6014
 20
464.4783000000001
 30
0.0
 10
486.5491
 20
464.651
 30
0.0
 10
487.4653
 20
464.0363
 30
0.0
 10
487.4653
 20
464.0363
 30
0.0
 10
488.549
 20
463.369
 30
0.0
 10
489.8951
 20
463.2914
 30
0.0
 10
491.5031
 20
463.8035
 30
0.0
 10
491.5031
 20
463.8035
 30
0.0
 10
492.9793
 20
464.3857
 30
0.0
 10
494.1476
 20
464.1876
 30
0.0
 10
495.0078
 20
463.2088
 30
0.0
 10
495.0078
 20
463.2088
 30
0.0
 10
497.2572
 20
460.1516
 30
0.0
 10
499.4969
 20
458.2764
 30
0.0
 10
501.727
 20
457.5835
 30
0.0
  0
SPLINE
  5
113
330
1F
100
AcDbEntity
  8
layer 1
370
     5
100
AcDbSpline
210
0.0
220
0.0
230
1.0
 70
     8
 71
     3
 72
     8
 73
     4
 74
     0
 42
0.0000000001
 43
0.0000000001
 40
0.0
 40
0.0
 40
0.0
 40
0.0
 40
1.0
 40
1.0
 40
1.0
 40
1.0
 10
506.5028
 20
459.2487
 30
0.0
 10
506.6468
 20
458.7706
 30
0.0
 10
504.7236
 20
457.9321000000001
 30
0.0
 10
500.7326000000001
 20
456.7335000000001
 30
0.0
  0
SPLINE
  5
114
330
1F
100
AcDbEntity
  8
layer 1
370
     5
100
AcDbSpline
210
0.0
220
0.0
230
1.0
 70
     8
 71
     3
 72
    28
 73
    24
 74
     0
 42
0.0000000001
 43
0.0000000001
 40
0.0
 40
0.0
 40
0.0
 40
0.0
 40
0.1666666666666667
 40
0.1666666666666667
 40
0.1666666666666667
 40
0.1666666666666667
 40
0.3333333333333333
 40
0.3333333333333333
 40
0.3333333333333333
 40
0.3333333333333333
 40
0.5
 40
0.5
 40
0.5
 40
0.5
 40
0.6666666666666666
 40
0.6666666666666666
 40
0.6666666666666666
 40
0.6666666666666666
 40
0.8333333333333333
 40
0.8333333333333333
 40
0.8333333333333333
 40
0.8333333333333333
 40
1.0
 40
1.0
 40
1.0
 40
1.0
 10
500.7359
 20
438.9365
 30
0.0
 10
502.2234
 20
437.8864
 30
0.0
 10
502.3619000000001
 20
436.4261
 30
0.0
 10
501.8559
 20
435.183
 30
0.0
 10
501.8559
 20
435.183
 30
0.0
 10
499.045
 20
436.5962
 30
0.0
 10
497.6718
 20
438.2612
 30
0.0
 10
497.7367
 20
440.1779
 30
0.0
 10
497.7367
 20
440.1779
 30
0.0
 10
496.1951
 20
440.9254
 30
0.0
 10
495.7942000000001
 20
442.4816
 30
0.0
 10
496.5341
 20
444.8467
 30
0.0
 10
496.5341
 20
444.8467
 30
0.0
 10
496.5071
 20
446.6667000000001
 30
0.0
 10
496.2203
 20
448.4309
 30
0.0
 10
495.6735000000001
 20
450.139
 30
0.0
 10
495.6735000000001
 20
450.139
 30
0.0
 10
495.6269
 20
452.4434
 30
0.0
 10
496.5717
 20
453.8046
 30
0.0
 10
498.5078
 20
454.2226
 30
0.0
 10
498.5078
 20
454.2226
 30
0.0
 10
499.204
 20
455.4424
 30
0.0
 10
500.1556000000001
 20
456.3431000000001
 30
0.0
 10
501.3625
 20
456.925
 30
0.0
  0
SPLINE
  5
115
330
1F
100
AcDbEntity
  8
layer 1
370
     5
100
AcDbSpline
210
0.0
220
0.0
230
1.0
 70
     8
 71
     3
 72
    28
 73
    24
 74
     0
 42
0.0000000001
 43
0.0000000001
 40
0.0
 40
0.0
 40
0.0
 40
0.0
 40
0.1666666666666667
 40
0.1666666666666667
 40
0.1666666666666667
 40
0.1666666666666667
 40
0.3333333333333333
 40
0.3333333333333333
 40
0.3333333333333333
 40
0.3333333333333333
 40
0.5
 40
0.5
 40
0.5
 40
0.5
 40
0.6666666666666666
 40
0.6666666666666666
 40
0.6666666666666666
 40
0.6666666666666666
 40
0.8333333333333333
 40
0.8333333333333333
 40
0.8333333333333333
 40
0.8333333333333333
 40
1.0
 40
1.0
 40
1.0
 40
1.0
 10
502.0542
 20
437.0862
 30
0.0
 10
502.973
 20
439.3849
 30
0.0
 10
502.1123
 20
440.4059
 30
0.0
 10
500.7679
 20
441.6387
 30
0.0
 10
500.7679
 20
441.6387
 30
0.0
 10
500.3785
 20
441.9958
 30
0.0
 10
500.1179
 20
442.4375
 30
0.0
 10
500.2491
 20
442.9494
 30
0.0
 10
500.2491
 20
442.9494
 30
0.0
 10
500.4063
 20
443.5631
 30
0.0
 10
500.2247
 20
444.2921
 30
0.0
 10
499.7048
 20
445.1364
 30
0.0
 10
499.7048
 20
445.1364
 30
0.0
 10
499.8917
 20
448.2407
 30
0.0
 10
498.1512
 20
451.0121
 30
0.0
 10
501.2835
 20
451.5485000000001
 30
0.0
 10
501.2835
 20
451.5485000000001
 30
0.0
 10
503.615
 20
452.3055
 30
0.0
 10
505.391
 20
453.1698
 30
0.0
 10
506.6114
 20
454.142
 30
0.0
 10
506.6114
 20
454.142
 30
0.0
 10
511.5193
 20
455.7154000000001
 30
0.0
 10
513.8804
 20
459.3199
 30
0.0
 10
513.6950000000001
 20
464.955
 30
0.0
  0
SPLINE
  5
116
330
1F
100
AcDbEntity
  8
layer 1
370
     5
100
AcDbSpline
210
0.0
220
0.0
230
1.0
 70
     8
 71
     3
 72
     8
 73
     4
 74
     0
 42
0.0000000001
 43
0.0000000001
 40
0.0
 40
0.0
 40
0.0
 40
0.0
 40
1.0
 40
1.0
 40
1.0
 40
1.0
 10
508.7977
 20
455.0674
 30
0.0
 10
514.3512000000001
 20
451.5532
 30
0.0
 10
523.6353
 20
463.0624
 30
0.0
 10
525.8815000000001
 20
453.8304
 30
0.0
  0
SPLINE
  5
117
330
1F
100
AcDbEntity
  8
layer 1
370
     5
100
AcDbSpline
210
0.0
220
0.0
230
1.0
 70
     8
 71
     3
 72
    32
 73
    28
 74
     0
 42
0.0000000001
 43
0.0000000001
 40
0.0
 40
0.0
 40
0.0
 40
0.0
 40
0.1428571428571429
 40
0.1428571428571429
 40
0.1428571428571429
 40
0.1428571428571429
 40
0.2857142857142857
 40
0.2857142857142857
 40
0.2857142857142857
 40
0.2857142857142857
 40
0.4285714285714286
 40
0.4285714285714286
 40
0.4285714285714286
 40
0.4285714285714286
 40
0.5714285714285714
 40
0.5714285714285714
 40
0.5714285714285714
 40
0.5714285714285714
 40
0.7142857142857142
 40
0.7142857142857142
 40
0.7142857142857142
 40
0.7142857142857142
 40
0.857142857142857
 40
0.857142857142857
 40
0.857142857142857
 40
0.857142857142857
 40
1.0
 40
1.0
 40
1.0
 40
1.0
 10
523.9474
 20
452.7307
 30
0.0
 10
525.34
 20
451.1498
 30
0.0
 10
525.9615
 20
449.0712
 30
0.0
 10
525.8119
 20
446.4955000000001
 30
0.0
 10
525.8119
 20
446.4955000000001
 30
0.0
 10
525.4416
 20
445.4349
 30
0.0
 10
525.7242
 20
444.4109
 30
0.0
 10
526.6594
 20
443.4236
 30
0.0
 10
526.6594
 20
443.4236
 30
0.0
 10
527.3081000000001
 20
442.5102
 30
0.0
 10
526.9723
 20
442.0144
 30
0.0
 10
525.6519000000001
 20
441.9364000000001
 30
0.0
 10
525.6519000000001
 20
441.9364000000001
 30
0.0
 10
523.0367
 20
441.9256
 30
0.0
 10
520.5915
 20
441.5219
 30
0.0
 10
518.3161
 20
440.7255
 30
0.0
 10
518.3161
 20
440.7255
 30
0.0
 10
517.8602000000001
 20
440.5872
 30
0.0
 10
517.0077
 20
440.1803000000001
 30
0.0
 10
515.7586
 20
439.5047
 30
0.0
 10
515.7586
 20
439.5047
 30
0.0
 10
515.6656
 20
438.9766
 30
0.0
 10
515.0103
 20
438.5574
 30
0.0
 10
513.7926
 20
438.2474
 30
0.0
 10
513.7926
 20
438.2474
 30
0.0
 10
514.5324000000001
 20
435.305
 30
0.0
 10
513.1579
 20
433.7977
 30
0.0
 10
510.5891
 20
433.3123
 30
0.0
  0
SPLINE
  5
118
330
1F
100
AcDbEntity
  8
layer 1
370
     5
100
AcDbSpline
210
0.0
220
0.0
230
1.0
 70
     8
 71
     3
 72
     8
 73
     4
 74
     0
 42
0.0000000001
 43
0.0000000001
 40
0.0
 40
0.0
 40
0.0
 40
0.0
 40
1.0
 40
1.0
 40
1.0
 40
1.0
 10
508.9758000000001
 20
435.9587
 30
0.0
 10
508.7505000000001
 20
433.9344
 30
0.0
 10
508.3675
 20
432.6793
 30
0.0
 10
507.8271
 20
432.1936
 30
0.0
  0
SPLINE
  5
119
330
1F
100
AcDbEntity
  8
layer 1
370
     5
100
AcDbSpline
210
0.0
220
0.0
230
1.0
 70
     8
 71
     3
 72
     8
 73
     4
 74
     0
 42
0.0000000001
 43
0.0000000001
 40
0.0
 40
0.0
 40
0.0
 40
0.0
 40
1.0
 40
1.0
 40
1.0
 40
1.0
 10
511.281
 20
436.0406
 30
0.0
 10
511.6269
 20
433.8098
 30
0.0
 10
510.5022
 20
432.5534
 30
0.0
 10
507.9068
 20
432.2721
 30
0.0
  0
SPLINE
  5
11A
330
1F
100
AcDbEntity
  8
layer 1
370
     5
100
AcDbSpline
210
0.0
220
0.0
230
1.0
 70
     8
 71
     3
 72
    20
 73
    16
 74
     0
 42
0.0000000001
 43
0.0000000001
 40
0.0
 40
0.0
 40
0.0
 40
0.0
 40
0.25
 40
0.25
 40
0.25
 40
0.25
 40
0.5
 40
0.5
 40
0.5
 40
0.5
 40
0.75
 40
0.75
 40
0.75
 40
0.75
 40
1.0
 40
1.0
 40
1.0
 40
1.0
 10
508.9758000000001
 20
435.9587
 30
0.0
 10
509.8914
 20
436.6747
 30
0.0
 10
510.3855
 20
437.4239
 30
0.0
 10
510.4582
 20
438.2059
 30
0.0
 10
510.4582
 20
438.2059
 30
0.0
 10
510.1925000000001
 20
440.2532000000001
 30
0.0
 10
511.4949
 20
441.7283000000001
 30
0.0
 10
513.9367
 20
442.453
 30
0.0
 10
513.9367
 20
442.453
 30
0.0
 10
515.9543
 20
443.0286
 30
0.0
 10
517.0005
 20
443.4454
 30
0.0
 10
517.4599000000001
 20
443.585
 30
0.0
 10
517.4599000000001
 20
443.585
 30
0.0
 10
512.7044000000001
 20
443.5064
 30
0.0
 10
510.5005000000001
 20
445.0283
 30
0.0
 10
510.7586
 20
448.1482
 30
0.0
  0
SPLINE
  5
11B
330
1F
100
AcDbEntity
  8
layer 1
370
     5
100
AcDbSpline
210
0.0
220
0.0
230
1.0
 70
     8
 71
     3
 72
    20
 73
    16
 74
     0
 42
0.0000000001
 43
0.0000000001
 40
0.0
 40
0.0
 40
0.0
 40
0.0
 40
0.25
 40
0.25
 40
0.25
 40
0.25
 40
0.5
 40
0.5
 40
0.5
 40
0.5
 40
0.75
 40
0.75
 40
0.75
 40
0.75
 40
1.0
 40
1.0
 40
1.0
 40
1.0
 10
518.6902
 20
448.7383
 30
0.0
 10
518.2274
 20
445.7618
 30
0.0
 10
513.639
 20
445.7513
 30
0.0
 10
511.7842
 20
447.0095
 30
0.0
 10
511.7842
 20
447.0095
 30
0.0
 10
509.6277
 20
448.8747
 30
0.0
 10
509.8161
 20
450.7348
 30
0.0
 10
512.3492
 20
452.5902
 30
0.0
 10
512.3492
 20
452.5902
 30
0.0
 10
511.6564
 20
448.8633
 30
0.0
 10
515.1996
 20
448.9
 30
0.0
 10
516.0444
 20
451.8274
 30
0.0
 10
516.0444
 20
451.8274
 30
0.0
 10
517.2643000000001
 20
454.6787000000001
 30
0.0
 10
519.5962000000001
 20
456.5447
 30
0.0
 10
523.0399
 20
457.4255
 30
0.0
  0
SPLINE
  5
11C
330
1F
100
AcDbEntity
  8
layer 1
370
     5
100
AcDbSpline
210
0.0
220
0.0
230
1.0
 70
     8
 71
     3
 72
    16
 73
    12
 74
     0
 42
0.0000000001
 43
0.0000000001
 40
0.0
 40
0.0
 40
0.0
 40
0.0
 40
0.3333333333333333
 40
0.3333333333333333
 40
0.3333333333333333
 40
0.3333333333333333
 40
0.6666666666666666
 40
0.6666666666666666
 40
0.6666666666666666
 40
0.6666666666666666
 40
1.0
 40
1.0
 40
1.0
 40
1.0
 10
523.9474
 20
452.7307
 30
0.0
 10
525.9343
 20
451.4666
 30
0.0
 10
527.2733000000001
 20
450.2094
 30
0.0
 10
527.9639000000001
 20
448.959
 30
0.0
 10
527.9639000000001
 20
448.959
 30
0.0
 10
530.8832
 20
447.4122
 30
0.0
 10
531.1496000000001
 20
445.7549
 30
0.0
 10
528.7628
 20
443.9872
 30
0.0
 10
528.7628
 20
443.9872
 30
0.0
 10
532.3484
 20
443.09
 30
0.0
 10
533.2529000000001
 20
444.2086000000001
 30
0.0
 10
533.6519000000001
 20
447.6346
 30
0.0
  0
SPLINE
  5
11D
330
1F
100
AcDbEntity
  8
layer 1
370
     5
100
AcDbSpline
210
0.0
220
0.0
230
1.0
 70
     8
 71
     3
 72
    28
 73
    24
 74
     0
 42
0.0000000001
 43
0.0000000001
 40
0.0
 40
0.0
 40
0.0
 40
0.0
 40
0.1666666666666667
 40
0.1666666666666667
 40
0.1666666666666667
 40
0.1666666666666667
 40
0.3333333333333333
 40
0.3333333333333333
 40
0.3333333333333333
 40
0.3333333333333333
 40
0.5
 40
0.5
 40
0.5
 40
0.5
 40
0.6666666666666666
 40
0.6666666666666666
 40
0.6666666666666666
 40
0.6666666666666666
 40
0.8333333333333333
 40
0.8333333333333333
 40
0.8333333333333333
 40
0.8333333333333333
 40
1.0
 40
1.0
 40
1.0
 40
1.0
 10
536.4296000000001
 20
441.6105
 30
0.0
 10
536.859
 20
439.6506
 30
0.0
 10
536.1971
 20
438.4968
 30
0.0
 10
534.4438
 20
438.1492
 30
0.0
 10
534.4438
 20
438.1492
 30
0.0
 10
534.9156
 20
438.4373
 30
0.0
 10
534.9408000000001
 20
439.1868
 30
0.0
 10
534.5194
 20
440.3984
 30
0.0
 10
534.5194
 20
440.3984
 30
0.0
 10
534.3166
 20
441.3528
 30
0.0
 10
534.8083
 20
441.9817000000001
 30
0.0
 10
535.7424
 20
442.5463
 30
0.0
 10
535.7424
 20
442.5463
 30
0.0
 10
538.4142000000001
 20
444.6354
 30
0.0
 10
539.5344
 20
447.6708
 30
0.0
 10
538.5322
 20
451.1334
 30
0.0
 10
538.5322
 20
451.1334
 30
0.0
 10
537.6861
 20
452.1808
 30
0.0
 10
537.1220000000001
 20
452.054
 30
0.0
 10
536.8402
 20
450.753
 30
0.0
 10
536.8402
 20
450.753
 30
0.0
 10
534.7758
 20
449.3802
 30
0.0
 10
533.4536000000001
 20
450.365
 30
0.0
 10
532.8731
 20
453.7073
 30
0.0
  0
SPLINE
  5
11E
330
1F
100
AcDbEntity
  8
layer 1
370
     5
100
AcDbSpline
210
0.0
220
0.0
230
1.0
 70
     8
 71
     3
 72
    88
 73
    84
 74
     0
 42
0.0000000001
 43
0.0000000001
 40
0.0
 40
0.0
 40
0.0
 40
0.0
 40
0.0476190476190476
 40
0.0476190476190476
 40
0.0476190476190476
 40
0.0476190476190476
 40
0.0952380952380952
 40
0.0952380952380952
 40
0.0952380952380952
 40
0.0952380952380952
 40
0.1428571428571429
 40
0.1428571428571429
 40
0.1428571428571429
 40
0.1428571428571429
 40
0.1904761904761905
 40
0.1904761904761905
 40
0.1904761904761905
 40
0.1904761904761905
 40
0.2380952380952381
 40
0.2380952380952381
 40
0.2380952380952381
 40
0.2380952380952381
 40
0.2857142857142857
 40
0.2857142857142857
 40
0.2857142857142857
 40
0.2857142857142857
 40
0.3333333333333333
 40
0.3333333333333333
 40
0.3333333333333333
 40
0.3333333333333333
 40
0.3809523809523809
 40
0.3809523809523809
 40
0.3809523809523809
 40
0.3809523809523809
 40
0.4285714285714286
 40
0.4285714285714286
 40
0.4285714285714286
 40
0.4285714285714286
 40
0.4761904761904762
 40
0.4761904761904762
 40
0.4761904761904762
 40
0.4761904761904762
 40
0.5238095238095237
 40
0.5238095238095237
 40
0.5238095238095237
 40
0.5238095238095237
 40
0.5714285714285714
 40
0.5714285714285714
 40
0.5714285714285714
 40
0.5714285714285714
 40
0.6190476190476191
 40
0.6190476190476191
 40
0.6190476190476191
 40
0.6190476190476191
 40
0.6666666666666667
 40
0.6666666666666667
 40
0.6666666666666667
 40
0.6666666666666667
 40
0.7142857142857144
 40
0.7142857142857144
 40
0.7142857142857144
 40
0.7142857142857144
 40
0.7619047619047621
 40
0.7619047619047621
 40
0.7619047619047621
 40
0.7619047619047621
 40
0.8095238095238098
 40
0.8095238095238098
 40
0.8095238095238098
 40
0.8095238095238098
 40
0.8571428571428574
 40
0.8571428571428574
 40
0.8571428571428574
 40
0.8571428571428574
 40
0.9047619047619051
 40
0.9047619047619051
 40
0.9047619047619051
 40
0.9047619047619051
 40
0.9523809523809528
 40
0.9523809523809528
 40
0.9523809523809528
 40
0.9523809523809528
 40
1.0
 40
1.0
 40
1.0
 40
1.0
 10
535.976
 20
438.9012
 30
0.0
 10
538.5503
 20
439.1842
 30
0.0
 10
539.6831000000001
 20
440.5857
 30
0.0
 10
539.3742
 20
443.1057
 30
0.0
 10
539.3742
 20
443.1057
 30
0.0
 10
539.3670000000001
 20
443.826
 30
0.0
 10
539.8684000000001
 20
444.2768
 30
0.0
 10
540.8784000000001
 20
444.4581
 30
0.0
 10
540.8784000000001
 20
444.4581
 30
0.0
 10
542.2751000000001
 20
446.001
 30
0.0
 10
542.4062
 20
447.5618
 30
0.0
 10
541.2721
 20
449.1407
 30
0.0
 10
541.2721
 20
449.1407
 30
0.0
 10
540.7274
 20
449.847
 30
0.0
 10
540.5126
 20
450.528
 30
0.0
 10
540.6278
 20
451.1835
 30
0.0
 10
540.6278
 20
451.1835
 30
0.0
 10
540.889
 20
452.6818
 30
0.0
 10
540.6742
 20
453.6631
 30
0.0
 10
540.0106000000001
 20
454.1091
 30
0.0
 10
540.0106000000001
 20
454.1091
 30
0.0
 10
539.5482000000001
 20
454.5789
 30
0.0
 10
539.5267
 20
455.8723
 30
0.0
 10
539.9727
 20
457.9711
 30
0.0
 10
539.9727
 20
457.9711
 30
0.0
 10
540.0129000000001
 20
458.7852
 30
0.0
 10
539.6004
 20
458.8777
 30
0.0
 10
538.7348000000001
 20
458.2482
 30
0.0
 10
538.7348000000001
 20
458.2482
 30
0.0
 10
537.8328
 20
457.4303000000001
 30
0.0
 10
537.0384
 20
456.9495
 30
0.0
 10
536.3515
 20
456.8062000000001
 30
0.0
 10
536.3515
 20
456.8062000000001
 30
0.0
 10
534.3392
 20
457.3082
 30
0.0
 10
534.7125
 20
460.1426
 30
0.0
 10
536.4159000000001
 20
460.8404000000001
 30
0.0
 10
536.4159000000001
 20
460.8404000000001
 30
0.0
 10
542.1567
 20
463.43
 30
0.0
 10
543.0342000000001
 20
469.5067
 30
0.0
 10
537.1437000000001
 20
472.6
 30
0.0
 10
537.1437000000001
 20
472.6
 30
0.0
 10
534.2126000000001
 20
473.7379
 30
0.0
 10
532.8629000000001
 20
475.1861
 30
0.0
 10
533.0949000000001
 20
476.9444
 30
0.0
 10
533.0949000000001
 20
476.9444
 30
0.0
 10
532.1799
 20
476.9427
 30
0.0
 10
529.9258
 20
475.0405
 30
0.0
 10
530.7975
 20
473.1073
 30
0.0
 10
530.7975
 20
473.1073
 30
0.0
 10
527.0298
 20
472.0979
 30
0.0
 10
526.5285
 20
470.5024
 30
0.0
 10
528.4095
 20
466.6564
 30
0.0
 10
528.4095
 20
466.6564
 30
0.0
 10
528.6384000000001
 20
470.386
 30
0.0
 10
530.5901
 20
470.8523
 30
0.0
 10
531.7842000000001
 20
470.7988
 30
0.0
 10
531.7842000000001
 20
470.7988
 30
0.0
 10
529.4367
 20
468.9922
 30
0.0
 10
530.4783
 20
464.2879
 30
0.0
 10
534.0428000000001
 20
465.5365000000001
 30
0.0
 10
534.0428000000001
 20
465.5365000000001
 30
0.0
 10
528.2353000000001
 20
470.1357
 30
0.0
 10
542.0859
 20
472.9957
 30
0.0
 10
537.9819
 20
464.4479
 30
0.0
 10
537.9819
 20
464.4479
 30
0.0
 10
537.3681
 20
463.4883
 30
0.0
 10
535.7461000000001
 20
462.7976000000001
 30
0.0
 10
533.1456000000001
 20
462.4396
 30
0.0
 10
533.1456000000001
 20
462.4396
 30
0.0
 10
532.6721
 20
462.3743
 30
0.0
 10
532.2494
 20
462.437
 30
0.0
 10
531.8151
 20
462.6368
 30
0.0
 10
531.8151
 20
462.6368
 30
0.0
 10
528.7382
 20
464.0525
 30
0.0
 10
526.1762
 20
464.8051
 30
0.0
 10
524.2147
 20
464.8508000000001
 30
0.0
 10
524.2147
 20
464.8508000000001
 30
0.0
 10
523.4486000000001
 20
465.2379
 30
0.0
 10
523.018
 20
465.6988
 30
0.0
 10
522.9233
 20
466.2332
 30
0.0
 10
522.9233
 20
466.2332
 30
0.0
 10
522.4733
 20
467.6709
 30
0.0
 10
521.7439000000001
 20
469.0661
 30
0.0
 10
520.735
 20
470.4186
 30
0.0
  0
SPLINE
  5
11F
330
1F
100
AcDbEntity
  8
layer 1
370
     5
100
AcDbSpline
210
0.0
220
0.0
230
1.0
 70
     8
 71
     3
 72
    16
 73
    12
 74
     0
 42
0.0000000001
 43
0.0000000001
 40
0.0
 40
0.0
 40
0.0
 40
0.0
 40
0.3333333333333333
 40
0.3333333333333333
 40
0.3333333333333333
 40
0.3333333333333333
 40
0.6666666666666666
 40
0.6666666666666666
 40
0.6666666666666666
 40
0.6666666666666666
 40
1.0
 40
1.0
 40
1.0
 40
1.0
 10
525.294
 20
485.8829
 30
0.0
 10
528.9619
 20
487.0092
 30
0.0
 10
530.9876
 20
482.7755
 30
0.0
 10
528.4572000000001
 20
480.2301000000001
 30
0.0
 10
528.4572000000001
 20
480.2301000000001
 30
0.0
 10
527.3599
 20
484.7073
 30
0.0
 10
521.8816000000001
 20
481.888
 30
0.0
 10
524.5799000000001
 20
478.6191
 30
0.0
 10
524.5799000000001
 20
478.6191
 30
0.0
 10
526.9925000000001
 20
476.7521
 30
0.0
 10
528.9957000000001
 20
475.6101000000001
 30
0.0
 10
530.8731
 20
475.1164
 30
0.0
  0
SPLINE
  5
120
330
1F
100
AcDbEntity
  8
layer 1
370
     5
100
AcDbSpline
210
0.0
220
0.0
230
1.0
 70
     8
 71
     3
 72
    56
 73
    52
 74
     0
 42
0.0000000001
 43
0.0000000001
 40
0.0
 40
0.0
 40
0.0
 40
0.0
 40
0.0769230769230769
 40
0.0769230769230769
 40
0.0769230769230769
 40
0.0769230769230769
 40
0.1538461538461539
 40
0.1538461538461539
 40
0.1538461538461539
 40
0.1538461538461539
 40
0.2307692307692308
 40
0.2307692307692308
 40
0.2307692307692308
 40
0.2307692307692308
 40
0.3076923076923077
 40
0.3076923076923077
 40
0.3076923076923077
 40
0.3076923076923077
 40
0.3846153846153846
 40
0.3846153846153846
 40
0.3846153846153846
 40
0.3846153846153846
 40
0.4615384615384616
 40
0.4615384615384616
 40
0.4615384615384616
 40
0.4615384615384616
 40
0.5384615384615386
 40
0.5384615384615386
 40
0.5384615384615386
 40
0.5384615384615386
 40
0.6153846153846154
 40
0.6153846153846154
 40
0.6153846153846154
 40
0.6153846153846154
 40
0.6923076923076923
 40
0.6923076923076923
 40
0.6923076923076923
 40
0.6923076923076923
 40
0.7692307692307692
 40
0.7692307692307692
 40
0.7692307692307692
 40
0.7692307692307692
 40
0.846153846153846
 40
0.846153846153846
 40
0.846153846153846
 40
0.846153846153846
 40
0.9230769230769229
 40
0.9230769230769229
 40
0.9230769230769229
 40
0.9230769230769229
 40
1.0
 40
1.0
 40
1.0
 40
1.0
 10
523.4131
 20
483.0419
 30
0.0
 10
524.0644
 20
484.3201
 30
0.0
 10
524.6915
 20
485.2672
 30
0.0
 10
525.294
 20
485.8829
 30
0.0
 10
525.294
 20
485.8829
 30
0.0
 10
527.5832
 20
487.381
 30
0.0
 10
527.4989000000001
 20
489.2332
 30
0.0
 10
525.0415
 20
491.4394
 30
0.0
 10
525.0415
 20
491.4394
 30
0.0
 10
525.5170000000001
 20
489.5216
 30
0.0
 10
525.2701000000001
 20
488.3843
 30
0.0
 10
524.3012
 20
488.0273
 30
0.0
 10
524.3012
 20
488.0273
 30
0.0
 10
523.2185000000001
 20
491.1864000000001
 30
0.0
 10
520.9527000000001
 20
492.7137
 30
0.0
 10
517.5042
 20
492.6091
 30
0.0
 10
517.5042
 20
492.6091
 30
0.0
 10
519.9141000000001
 20
494.0502
 30
0.0
 10
521.1073
 20
495.839
 30
0.0
 10
520.3737
 20
498.0038
 30
0.0
 10
520.3737
 20
498.0038
 30
0.0
 10
519.1072
 20
496.2941
 30
0.0
 10
515.8631
 20
496.9986
 30
0.0
 10
515.2001
 20
494.1686
 30
0.0
 10
515.2001
 20
494.1686
 30
0.0
 10
514.6207000000001
 20
492.3411
 30
0.0
 10
511.7835
 20
492.9435
 30
0.0
 10
511.4467
 20
495.2222
 30
0.0
 10
511.4467
 20
495.2222
 30
0.0
 10
509.1736
 20
492.2761
 30
0.0
 10
509.6332
 20
490.2892000000001
 30
0.0
 10
512.8257
 20
489.2616
 30
0.0
 10
512.8257
 20
489.2616
 30
0.0
 10
512.7951000000001
 20
486.2997
 30
0.0
 10
514.2751000000001
 20
485.3002
 30
0.0
 10
517.2651000000001
 20
486.2637
 30
0.0
 10
517.2651000000001
 20
486.2637
 30
0.0
 10
515.9884000000001
 20
488.4049
 30
0.0
 10
516.5534
 20
489.6438
 30
0.0
 10
518.96
 20
489.9803
 30
0.0
 10
518.96
 20
489.9803
 30
0.0
 10
521.3782
 20
489.2484
 30
0.0
 10
522.3953
 20
487.6545
 30
0.0
 10
522.0110000000001
 20
485.198
 30
0.0
 10
522.0110000000001
 20
485.198
 30
0.0
 10
521.1631
 20
482.2606
 30
0.0
 10
518.8196
 20
477.8489
 30
0.0
 10
522.5811
 20
475.9118
 30
0.0
 10
522.5811
 20
475.9118
 30
0.0
 10
525.1707
 20
474.3101
 30
0.0
 10
527.2860000000001
 20
473.0138
 30
0.0
 10
528.6426
 20
472.2597
 30
0.0
  0
SPLINE
  5
121
330
1F
100
AcDbEntity
  8
layer 1
370
     5
100
AcDbSpline
210
0.0
220
0.0
230
1.0
 70
     8
 71
     3
 72
    20
 73
    16
 74
     0
 42
0.0000000001
 43
0.0000000001
 40
0.0
 40
0.0
 40
0.0
 40
0.0
 40
0.25
 40
0.25
 40
0.25
 40
0.25
 40
0.5
 40
0.5
 40
0.5
 40
0.5
 40
0.75
 40
0.75
 40
0.75
 40
0.75
 40
1.0
 40
1.0
 40
1.0
 40
1.0
 10
532.73
 20
444.5296
 30
0.0
 10
533.2234
 20
443.8783
 30
0.0
 10
533.3582
 20
443.3521
 30
0.0
 10
533.1284000000001
 20
442.2598
 30
0.0
 10
533.1284000000001
 20
442.2598
 30
0.0
 10
535.7037
 20
443.867
 30
0.0
 10
536.4863
 20
445.5295
 30
0.0
 10
535.4767000000001
 20
447.2471000000001
 30
0.0
 10
535.4767000000001
 20
447.2471000000001
 30
0.0
 10
536.3194
 20
446.8155
 30
0.0
 10
536.7767
 20
446.1344
 30
0.0
 10
536.8484
 20
445.2042
 30
0.0
 10
536.8484
 20
445.2042
 30
0.0
 10
537.8355
 20
446.888
 30
0.0
 10
538.0966000000001
 20
449.1429
 30
0.0
 10
536.8402
 20
450.753
 30
0.0
  0
SPLINE
  5
122
330
1F
100
AcDbEntity
  8
layer 1
370
     5
100
AcDbSpline
210
0.0
220
0.0
230
1.0
 70
     8
 71
     3
 72
    16
 73
    12
 74
     0
 42
0.0000000001
 43
0.0000000001
 40
0.0
 40
0.0
 40
0.0
 40
0.0
 40
0.3333333333333333
 40
0.3333333333333333
 40
0.3333333333333333
 40
0.3333333333333333
 40
0.6666666666666666
 40
0.6666666666666666
 40
0.6666666666666666
 40
0.6666666666666666
 40
1.0
 40
1.0
 40
1.0
 40
1.0
 10
497.8587
 20
474.1008000000001
 30
0.0
 10
498.3198
 20
471.9276
 30
0.0
 10
499.1505
 20
471.3304
 30
0.0
 10
500.3507
 20
472.3094
 30
0.0
 10
500.3507
 20
472.3094
 30
0.0
 10
500.5895
 20
472.5824
 30
0.0
 10
501.0801
 20
472.7757
 30
0.0
 10
501.8462
 20
472.8927000000001
 30
0.0
 10
501.8462
 20
472.8927000000001
 30
0.0
 10
502.946
 20
472.9443
 30
0.0
 10
503.4179
 20
474.3376
 30
0.0
 10
503.2858000000001
 20
477.0758
 30
0.0
  0
SPLINE
  5
123
330
1F
100
AcDbEntity
  8
layer 1
370
     5
100
AcDbSpline
210
0.0
220
0.0
230
1.0
 70
     8
 71
     3
 72
     8
 73
     4
 74
     0
 42
0.0000000001
 43
0.0000000001
 40
0.0
 40
0.0
 40
0.0
 40
0.0
 40
1.0
 40
1.0
 40
1.0
 40
1.0
 10
500.6408
 20
467.1892
 30
0.0
 10
499.7314
 20
470.8209
 30
0.0
 10
502.2734
 20
470.5679
 30
0.0
 10
503.2929
 20
473.097
 30
0.0
  0
SPLINE
  5
124
330
1F
100
AcDbEntity
  8
layer 1
370
     5
100
AcDbSpline
210
0.0
220
0.0
230
1.0
 70
     8
 71
     3
 72
     8
 73
     4
 74
     0
 42
0.0000000001
 43
0.0000000001
 40
0.0
 40
0.0
 40
0.0
 40
0.0
 40
1.0
 40
1.0
 40
1.0
 40
1.0
 10
542.5629
 20
490.1294
 30
0.0
 10
545.9912000000001
 20
487.9781
 30
0.0
 10
548.835
 20
485.1168
 30
0.0
 10
551.0941
 20
481.5459
 30
0.0
  0
SPLINE
  5
125
330
1F
100
AcDbEntity
  8
layer 1
370
     5
100
AcDbSpline
210
0.0
220
0.0
230
1.0
 70
     8
 71
     3
 72
    16
 73
    12
 74
     0
 42
0.0000000001
 43
0.0000000001
 40
0.0
 40
0.0
 40
0.0
 40
0.0
 40
0.3333333333333333
 40
0.3333333333333333
 40
0.3333333333333333
 40
0.3333333333333333
 40
0.6666666666666666
 40
0.6666666666666666
 40
0.6666666666666666
 40
0.6666666666666666
 40
1.0
 40
1.0
 40
1.0
 40
1.0
 10
543.3116
 20
489.642
 30
0.0
 10
557.7627
 20
489.8539
 30
0.0
 10
571.3181000000001
 20
486.1808
 30
0.0
 10
576.1270000000001
 20
470.77
 30
0.0
 10
576.1270000000001
 20
470.77
 30
0.0
 10
580.3514
 20
455.2364
 30
0.0
 10
597.3972
 20
439.6983
 30
0.0
 10
612.475
 20
435.0460000000001
 30
0.0
 10
612.475
 20
435.0460000000001
 30
0.0
 10
617.207
 20
433.382
 30
0.0
 10
620.7950000000001
 20
429.5340000000001
 30
0.0
 10
623.239
 20
423.502
 30
0.0
  0
SPLINE
  5
126
330
1F
100
AcDbEntity
  8
layer 1
370
     5
100
AcDbSpline
210
0.0
220
0.0
230
1.0
 70
     8
 71
     3
 72
    20
 73
    16
 74
     0
 42
0.0000000001
 43
0.0000000001
 40
0.0
 40
0.0
 40
0.0
 40
0.0
 40
0.25
 40
0.25
 40
0.25
 40
0.25
 40
0.5
 40
0.5
 40
0.5
 40
0.5
 40
0.75
 40
0.75
 40
0.75
 40
0.75
 40
1.0
 40
1.0
 40
1.0
 40
1.0
 10
631.8190000000001
 20
409.852
 30
0.0
 10
632.287
 20
422.358
 30
0.0
 10
626.931
 20
430.86
 30
0.0
 10
615.751
 20
435.358
 30
0.0
 10
615.751
 20
435.358
 30
0.0
 10
605.2136
 20
438.4958
 30
0.0
 10
597.6548
 20
444.3021
 30
0.0
 10
593.2089000000001
 20
452.44
 30
0.0
 10
593.2089000000001
 20
452.44
 30
0.0
 10
586.735
 20
468.768
 30
0.0
 10
580.313
 20
479.064
 30
0.0
 10
573.943
 20
483.328
 30
0.0
 10
573.943
 20
483.328
 30
0.0
 10
565.8628
 20
487.973
 30
0.0
 10
553.3099
 20
491.2058
 30
0.0
 10
542.5629
 20
490.1294
 30
0.0
  0
SPLINE
  5
127
330
1F
100
AcDbEntity
  8
layer 1
370
     5
100
AcDbSpline
210
0.0
220
0.0
230
1.0
 70
     8
 71
     3
 72
    12
 73
     8
 74
     0
 42
0.0000000001
 43
0.0000000001
 40
0.0
 40
0.0
 40
0.0
 40
0.0
 40
0.5
 40
0.5
 40
0.5
 40
0.5
 40
1.0
 40
1.0
 40
1.0
 40
1.0
 10
562.9929000000001
 20
486.228
 30
0.0
 10
573.5529
 20
481.7939
 30
0.0
 10
579.673
 20
475.2893
 30
0.0
 10
581.3530000000001
 20
466.714
 30
0.0
 10
581.3530000000001
 20
466.714
 30
0.0
 10
584.818
 20
454.7044
 30
0.0
 10
595.6824
 20
444.127
 30
0.0
 10
606.859
 20
438.166
 30
0.0
  0
SPLINE
  5
128
330
1F
100
AcDbEntity
  8
layer 1
370
     5
100
AcDbSpline
210
0.0
220
0.0
230
1.0
 70
     8
 71
     3
 72
    12
 73
     8
 74
     0
 42
0.0000000001
 43
0.0000000001
 40
0.0
 40
0.0
 40
0.0
 40
0.0
 40
0.5
 40
0.5
 40
0.5
 40
0.5
 40
1.0
 40
1.0
 40
1.0
 40
1.0
 10
542.6463
 20
490.65
 30
0.0
 10
554.705
 20
491.4613000000001
 30
0.0
 10
569.5338
 20
490.1952
 30
0.0
 10
578.311
 20
480.793
 30
0.0
 10
578.311
 20
480.793
 30
0.0
 10
586.1226
 20
469.9747
 30
0.0
 10
583.7105
 20
458.6067000000001
 30
0.0
 10
594.457
 20
448.696
 30
0.0
  0
SPLINE
  5
129
330
1F
100
AcDbEntity
  8
layer 1
370
     5
100
AcDbSpline
210
0.0
220
0.0
230
1.0
 70
     8
 71
     3
 72
    12
 73
     8
 74
     0
 42
0.0000000001
 43
0.0000000001
 40
0.0
 40
0.0
 40
0.0
 40
0.0
 40
0.5
 40
0.5
 40
0.5
 40
0.5
 40
1.0
 40
1.0
 40
1.0
 40
1.0
 10
544.6608
 20
488.6683
 30
0.0
 10
558.7445
 20
488.8796
 30
0.0
 10
569.4165
 20
482.8728
 30
0.0
 10
574.3330000000001
 20
469.5220000000001
 30
0.0
 10
574.3330000000001
 20
469.5220000000001
 30
0.0
 10
576.3119
 20
459.8316
 30
0.0
 10
580.0041
 20
453.7736
 30
0.0
 10
585.409
 20
451.348
 30
0.0
  0
SPLINE
  5
12A
330
1F
100
AcDbEntity
  8
layer 1
370
     5
100
AcDbSpline
210
0.0
220
0.0
230
1.0
 70
     8
 71
     3
 72
    16
 73
    12
 74
     0
 42
0.0000000001
 43
0.0000000001
 40
0.0
 40
0.0
 40
0.0
 40
0.0
 40
0.3333333333333333
 40
0.3333333333333333
 40
0.3333333333333333
 40
0.3333333333333333
 40
0.6666666666666666
 40
0.6666666666666666
 40
0.6666666666666666
 40
0.6666666666666666
 40
1.0
 40
1.0
 40
1.0
 40
1.0
 10
632.677
 20
418.276
 30
0.0
 10
633.3967
 20
434.0723
 30
0.0
 10
630.8742
 20
451.53
 30
0.0
 10
611.773
 20
454.5460000000001
 30
0.0
 10
611.773
 20
454.5460000000001
 30
0.0
 10
604.129
 20
456.704
 30
0.0
 10
597.7330000000001
 20
461.306
 30
0.0
 10
592.585
 20
468.352
 30
0.0
 10
592.585
 20
468.352
 30
0.0
 10
579.2992
 20
488.7234
 30
0.0
 10
565.5381
 20
491.9415
 30
0.0
 10
543.3116
 20
489.642
 30
0.0
  0
SPLINE
  5
12B
330
1F
100
AcDbEntity
  8
layer 1
370
     5
100
AcDbSpline
210
0.0
220
0.0
230
1.0
 70
     8
 71
     3
 72
     8
 73
     4
 74
     0
 42
0.0000000001
 43
0.0000000001
 40
0.0
 40
0.0
 40
0.0
 40
0.0
 40
1.0
 40
1.0
 40
1.0
 40
1.0
 10
546.6299
 20
486.9899
 30
0.0
 10
552.2795
 20
488.1156
 30
0.0
 10
558.4879000000001
 20
487.5237
 30
0.0
 10
565.2546
 20
485.2143
 30
0.0
  0
SPLINE
  5
12C
330
1F
100
AcDbEntity
  8
layer 1
370
     5
100
AcDbSpline
210
0.0
220
0.0
230
1.0
 70
     8
 71
     3
 72
     8
 73
     4
 74
     0
 42
0.0000000001
 43
0.0000000001
 40
0.0
 40
0.0
 40
0.0
 40
0.0
 40
1.0
 40
1.0
 40
1.0
 40
1.0
 10
547.3146
 20
486.3219
 30
0.0
 10
553.9143
 20
486.6753000000001
 30
0.0
 10
559.5752
 20
485.6581000000001
 30
0.0
 10
564.2967
 20
483.2704
 30
0.0
  0
SPLINE
  5
12D
330
1F
100
AcDbEntity
  8
layer 1
370
     5
100
AcDbSpline
210
0.0
220
0.0
230
1.0
 70
     8
 71
     3
 72
    16
 73
    12
 74
     0
 42
0.0000000001
 43
0.0000000001
 40
0.0
 40
0.0
 40
0.0
 40
0.0
 40
0.3333333333333333
 40
0.3333333333333333
 40
0.3333333333333333
 40
0.3333333333333333
 40
0.6666666666666666
 40
0.6666666666666666
 40
0.6666666666666666
 40
0.6666666666666666
 40
1.0
 40
1.0
 40
1.0
 40
1.0
 10
549.4654000000001
 20
483.8678000000001
 30
0.0
 10
566.9389
 20
487.7375
 30
0.0
 10
582.0316
 20
478.7215000000001
 30
0.0
 10
591.883
 20
465.232
 30
0.0
 10
591.883
 20
465.232
 30
0.0
 10
597.3430000000001
 20
458.81
 30
0.0
 10
603.635
 20
454.104
 30
0.0
 10
610.759
 20
451.114
 30
0.0
 10
610.759
 20
451.114
 30
0.0
 10
625.7810000000001
 20
445.945
 30
0.0
 10
631.9685000000001
 20
434.0832
 30
0.0
 10
631.702
 20
419.368
 30
0.0
  0
SPLINE
  5
12E
330
1F
100
AcDbEntity
  8
layer 1
370
     5
100
AcDbSpline
210
0.0
220
0.0
230
1.0
 70
     8
 71
     3
 72
    16
 73
    12
 74
     0
 42
0.0000000001
 43
0.0000000001
 40
0.0
 40
0.0
 40
0.0
 40
0.0
 40
0.3333333333333333
 40
0.3333333333333333
 40
0.3333333333333333
 40
0.3333333333333333
 40
0.6666666666666666
 40
0.6666666666666666
 40
0.6666666666666666
 40
0.6666666666666666
 40
1.0
 40
1.0
 40
1.0
 40
1.0
 10
632.8330000000001
 20
412.816
 30
0.0
 10
631.9594000000001
 20
442.5415
 30
0.0
 10
603.5992
 20
433.9366
 30
0.0
 10
594.379
 20
456.8080000000001
 30
0.0
 10
594.379
 20
456.8080000000001
 30
0.0
 10
589.465
 20
468.638
 30
0.0
 10
584.9150000000001
 20
476.4639
 30
0.0
 10
580.729
 20
480.286
 30
0.0
 10
580.729
 20
480.286
 30
0.0
 10
576.1338000000001
 20
483.7897
 30
0.0
 10
570.5889000000001
 20
486.214
 30
0.0
 10
564.0943
 20
487.5589000000001
 30
0.0
  0
SPLINE
  5
12F
330
1F
100
AcDbEntity
  8
layer 1
370
     5
100
AcDbSpline
210
0.0
220
0.0
230
1.0
 70
     8
 71
     3
 72
    16
 73
    12
 74
     0
 42
0.0000000001
 43
0.0000000001
 40
0.0
 40
0.0
 40
0.0
 40
0.0
 40
0.3333333333333333
 40
0.3333333333333333
 40
0.3333333333333333
 40
0.3333333333333333
 40
0.6666666666666666
 40
0.6666666666666666
 40
0.6666666666666666
 40
0.6666666666666666
 40
1.0
 40
1.0
 40
1.0
 40
1.0
 10
548.7470000000001
 20
484.7545
 30
0.0
 10
556.4971000000001
 20
486.942
 30
0.0
 10
564.1418
 20
486.4925
 30
0.0
 10
571.6811
 20
483.406
 30
0.0
 10
571.6811
 20
483.406
 30
0.0
 10
580.3129
 20
477.53
 30
0.0
 10
588.8409
 20
468.638
 30
0.0
 10
597.265
 20
456.73
 30
0.0
 10
597.265
 20
456.73
 30
0.0
 10
604.2539
 20
441.7632
 30
0.0
 10
623.0682000000001
 20
441.0094
 30
0.0
 10
630.337
 20
427.246
 30
0.0
  0
SPLINE
  5
130
330
1F
100
AcDbEntity
  8
layer 1
370
     5
100
AcDbSpline
210
0.0
220
0.0
230
1.0
 70
     8
 71
     3
 72
    16
 73
    12
 74
     0
 42
0.0000000001
 43
0.0000000001
 40
0.0
 40
0.0
 40
0.0
 40
0.0
 40
0.3333333333333333
 40
0.3333333333333333
 40
0.3333333333333333
 40
0.3333333333333333
 40
0.6666666666666666
 40
0.6666666666666666
 40
0.6666666666666666
 40
0.6666666666666666
 40
1.0
 40
1.0
 40
1.0
 40
1.0
 10
628.855
 20
431.536
 30
0.0
 10
626.3541
 20
436.3349
 30
0.0
 10
622.5108
 20
439.752
 30
0.0
 10
617.1710000000001
 20
441.8673
 30
0.0
 10
617.1710000000001
 20
441.8673
 30
0.0
 10
607.3032000000001
 20
447.0296
 30
0.0
 10
598.0301000000001
 20
453.619
 30
0.0
 10
596.4210000000001
 20
465.5989
 30
0.0
 10
596.4210000000001
 20
465.5989
 30
0.0
 10
592.6569000000001
 20
487.6524
 30
0.0
 10
559.9147
 20
490.7691
 30
0.0
 10
542.5629
 20
490.1295
 30
0.0
  0
SPLINE
  5
131
330
1F
100
AcDbEntity
  8
layer 1
370
     5
100
AcDbSpline
210
0.0
220
0.0
230
1.0
 70
     8
 71
     3
 72
    20
 73
    16
 74
     0
 42
0.0000000001
 43
0.0000000001
 40
0.0
 40
0.0
 40
0.0
 40
0.0
 40
0.25
 40
0.25
 40
0.25
 40
0.25
 40
0.5
 40
0.5
 40
0.5
 40
0.5
 40
0.75
 40
0.75
 40
0.75
 40
0.75
 40
1.0
 40
1.0
 40
1.0
 40
1.0
 10
632.677
 20
418.276
 30
0.0
 10
635.1853
 20
430.3385
 30
0.0
 10
633.1464000000001
 20
449.0143000000001
 30
0.0
 10
619.534
 20
454.312
 30
0.0
 10
619.534
 20
454.312
 30
0.0
 10
612.5400000000001
 20
455.352
 30
0.0
 10
607.5740000000001
 20
457.2241
 30
0.0
 10
604.6360000000001
 20
459.928
 30
0.0
 10
604.6360000000001
 20
459.928
 30
0.0
 10
602.14
 20
462.9049
 30
0.0
 10
598.3960000000001
 20
466.168
 30
0.0
 10
593.404
 20
469.717
 30
0.0
 10
593.404
 20
469.717
 30
0.0
 10
589.231
 20
473.565
 30
0.0
 10
584.0794000000001
 20
477.3432
 30
0.0
 10
578.311
 20
480.793
 30
0.0
  0
SPLINE
  5
132
330
1F
100
AcDbEntity
  8
layer 1
370
     5
100
AcDbSpline
210
0.0
220
0.0
230
1.0
 70
     8
 71
     3
 72
    12
 73
     8
 74
     0
 42
0.0000000001
 43
0.0000000001
 40
0.0
 40
0.0
 40
0.0
 40
0.0
 40
0.5
 40
0.5
 40
0.5
 40
0.5
 40
1.0
 40
1.0
 40
1.0
 40
1.0
 10
595.2634000000001
 20
459.4999
 30
0.0
 10
602.2127
 20
451.1693
 30
0.0
 10
607.7473
 20
451.019
 30
0.0
 10
613.3032000000001
 20
446.6713
 30
0.0
 10
613.3032000000001
 20
446.6713
 30
0.0
 10
618.282
 20
442.7753
 30
0.0
 10
621.8987000000001
 20
444.8109
 30
0.0
 10
627.6070000000001
 20
435.514
 30
0.0
  0
SPLINE
  5
133
330
1F
100
AcDbEntity
  8
layer 1
370
     5
100
AcDbSpline
210
0.0
220
0.0
230
1.0
 70
     8
 71
     3
 72
    16
 73
    12
 74
     0
 42
0.0000000001
 43
0.0000000001
 40
0.0
 40
0.0
 40
0.0
 40
0.0
 40
0.3333333333333333
 40
0.3333333333333333
 40
0.3333333333333333
 40
0.3333333333333333
 40
0.6666666666666666
 40
0.6666666666666666
 40
0.6666666666666666
 40
0.6666666666666666
 40
1.0
 40
1.0
 40
1.0
 40
1.0
 10
631.741
 20
429.82
 30
0.0
 10
629.193
 20
442.3259000000001
 30
0.0
 10
622.173
 20
449.996
 30
0.0
 10
610.681
 20
452.83
 30
0.0
 10
610.681
 20
452.83
 30
0.0
 10
602.673
 20
456.002
 30
0.0
 10
595.913
 20
461.4620000000001
 30
0.0
 10
590.4010000000001
 20
469.21
 30
0.0
 10
590.4010000000001
 20
469.21
 30
0.0
 10
585.7872
 20
476.8741
 30
0.0
 10
580.417
 20
481.898
 30
0.0
 10
574.2906
 20
484.2818
 30
0.0
  0
SPLINE
  5
134
330
1F
100
AcDbEntity
  8
layer 1
370
     5
100
AcDbSpline
210
0.0
220
0.0
230
1.0
 70
     8
 71
     3
 72
    12
 73
     8
 74
     0
 42
0.0000000001
 43
0.0000000001
 40
0.0
 40
0.0
 40
0.0
 40
0.0
 40
0.5
 40
0.5
 40
0.5
 40
0.5
 40
1.0
 40
1.0
 40
1.0
 40
1.0
 10
569.1085000000001
 20
482.8644000000001
 30
0.0
 10
574.1249
 20
478.6479000000001
 30
0.0
 10
577.8425
 20
472.5624
 30
0.0
 10
580.2610000000001
 20
464.6079
 30
0.0
 10
580.2610000000001
 20
464.6079
 30
0.0
 10
581.8191000000001
 20
460.0875
 30
0.0
 10
585.3569
 20
454.624
 30
0.0
 10
590.8745
 20
448.2177
 30
0.0
  0
SPLINE
  5
135
330
1F
100
AcDbEntity
  8
layer 1
370
     5
100
AcDbSpline
210
0.0
220
0.0
230
1.0
 70
     8
 71
     3
 72
    12
 73
     8
 74
     0
 42
0.0000000001
 43
0.0000000001
 40
0.0
 40
0.0
 40
0.0
 40
0.0
 40
0.5
 40
0.5
 40
0.5
 40
0.5
 40
1.0
 40
1.0
 40
1.0
 40
1.0
 10
620.509
 20
423.424
 30
0.0
 10
618.1949000000001
 20
429.4041
 30
0.0
 10
613.9569
 20
433.3041
 30
0.0
 10
607.7950000000001
 20
435.124
 30
0.0
 10
607.7950000000001
 20
435.124
 30
0.0
 10
603.7001
 20
437.2015
 30
0.0
 10
600.4533
 20
439.0328
 30
0.0
 10
598.0549
 20
440.6178000000001
 30
0.0
  0
SPLINE
  5
136
330
1F
100
AcDbEntity
  8
layer 1
370
     5
100
AcDbSpline
210
0.0
220
0.0
230
1.0
 70
     8
 71
     3
 72
     8
 73
     4
 74
     0
 42
0.0000000001
 43
0.0000000001
 40
0.0
 40
0.0
 40
0.0
 40
0.0
 40
1.0
 40
1.0
 40
1.0
 40
1.0
 10
549.9177000000001
 20
483.2697
 30
0.0
 10
561.3573
 20
484.6948
 30
0.0
 10
567.7278
 20
480.4763
 30
0.0
 10
569.029
 20
470.614
 30
0.0
  0
SPLINE
  5
137
330
1F
100
AcDbEntity
  8
layer 1
370
     5
100
AcDbSpline
210
0.0
220
0.0
230
1.0
 70
     8
 71
     3
 72
     8
 73
     4
 74
     0
 42
0.0000000001
 43
0.0000000001
 40
0.0
 40
0.0
 40
0.0
 40
0.0
 40
1.0
 40
1.0
 40
1.0
 40
1.0
 10
550.4539
 20
482.5161000000001
 30
0.0
 10
559.4609
 20
483.1459
 30
0.0
 10
564.8207
 20
480.4786
 30
0.0
 10
566.533
 20
474.514
 30
0.0
  0
SPLINE
  5
138
330
1F
100
AcDbEntity
  8
layer 1
370
     5
100
AcDbSpline
210
0.0
220
0.0
230
1.0
 70
     8
 71
     3
 72
    12
 73
     8
 74
     0
 42
0.0000000001
 43
0.0000000001
 40
0.0
 40
0.0
 40
0.0
 40
0.0
 40
0.5
 40
0.5
 40
0.5
 40
0.5
 40
1.0
 40
1.0
 40
1.0
 40
1.0
 10
606.859
 20
438.166
 30
0.0
 10
610.707
 20
436.632
 30
0.0
 10
615.0750000000001
 20
434.526
 30
0.0
 10
619.9630000000001
 20
431.848
 30
0.0
 10
619.9630000000001
 20
431.848
 30
0.0
 10
627.0562
 20
426.7846
 30
0.0
 10
629.4396
 20
422.074
 30
0.0
 10
630.4150000000001
 20
411.451
 30
0.0
  0
SPLINE
  5
139
330
1F
100
AcDbEntity
  8
layer 1
370
     5
100
AcDbSpline
210
0.0
220
0.0
230
1.0
 70
     8
 71
     3
 72
     8
 73
     4
 74
     0
 42
0.0000000001
 43
0.0000000001
 40
0.0
 40
0.0
 40
0.0
 40
0.0
 40
1.0
 40
1.0
 40
1.0
 40
1.0
 10
615.859
 20
433.3556
 30
0.0
 10
621.5099
 20
430.6779
 30
0.0
 10
625.4390000000001
 20
425.6253
 30
0.0
 10
627.6461000000001
 20
418.1979
 30
0.0
  0
SPLINE
  5
13A
330
1F
100
AcDbEntity
  8
layer 1
370
     5
100
AcDbSpline
210
0.0
220
0.0
230
1.0
 70
    24
 71
     3
 72
     8
 73
     4
 74
     0
 42
0.0000000001
 43
0.0000000001
 40
0.0
 40
0.0
 40
0.0
 40
0.0
 40
1.0
 40
1.0
 40
1.0
 40
1.0
 10
326.534
 20
556.9121
 30
0.0
 10
326.534
 20
556.9121
 30
0.0
 10
322.3691
 20
557.2084
 30
0.0
 10
322.3691
 20
557.2084
 30
0.0
  0
SPLINE
  5
13B
330
1F
100
AcDbEntity
  8
layer 1
370
     5
100
AcDbSpline
210
0.0
220
0.0
230
1.0
 70
    24
 71
     3
 72
     8
 73
     4
 74
     0
 42
0.0000000001
 43
0.0000000001
 40
0.0
 40
0.0
 40
0.0
 40
0.0
 40
1.0
 40
1.0
 40
1.0
 40
1.0
 10
396.025
 20
551.9680000000001
 30
0.0
 10
396.025
 20
551.9680000000001
 30
0.0
 10
329.2665
 20
556.7177
 30
0.0
 10
329.2665
 20
556.7177
 30
0.0
  0
SPLINE
  5
13C
330
1F
100
AcDbEntity
  8
layer 1
370
     5
100
AcDbSpline
210
0.0
220
0.0
230
1.0
 70
     8
 71
     3
 72
    16
 73
    12
 74
     0
 42
0.0000000001
 43
0.0000000001
 40
0.0
 40
0.0
 40
0.0
 40
0.0
 40
0.3333333333333333
 40
0.3333333333333333
 40
0.3333333333333333
 40
0.3333333333333333
 40
0.6666666666666666
 40
0.6666666666666666
 40
0.6666666666666666
 40
0.6666666666666666
 40
1.0
 40
1.0
 40
1.0
 40
1.0
 10
486.4492
 20
539.8123000000001
 30
0.0
 10
486.4492
 20
539.8123000000001
 30
0.0
 10
568.5557
 20
534.4632
 30
0.0
 10
568.5557
 20
534.4632
 30
0.0
 10
568.5557
 20
534.4632
 30
0.0
 10
569.6917000000001
 20
536.4215
 30
0.0
 10
569.6646000000001
 20
538.1859000000001
 30
0.0
 10
568.5343
 20
539.6776
 30
0.0
 10
568.5343
 20
539.6776
 30
0.0
 10
568.5343
 20
539.6776
 30
0.0
 10
485.5947000000001
 20
545.1601000000001
 30
0.0
 10
485.5947000000001
 20
545.1601000000001
 30
0.0
  0
SPLINE
  5
13D
330
1F
100
AcDbEntity
  8
layer 1
370
     5
100
AcDbSpline
210
0.0
220
0.0
230
1.0
 70
    24
 71
     3
 72
     8
 73
     4
 74
     0
 42
0.0000000001
 43
0.0000000001
 40
0.0
 40
0.0
 40
0.0
 40
0.0
 40
1.0
 40
1.0
 40
1.0
 40
1.0
 10
354.9757
 20
549.7366000000001
 30
0.0
 10
354.9757
 20
549.7366000000001
 30
0.0
 10
395.635
 20
546.859
 30
0.0
 10
395.635
 20
546.859
 30
0.0
  0
SPLINE
  5
13E
330
1F
100
AcDbEntity
  8
layer 1
370
     5
100
AcDbSpline
210
0.0
220
0.0
230
1.0
 70
    24
 71
     3
 72
     8
 73
     4
 74
     0
 42
0.0000000001
 43
0.0000000001
 40
0.0
 40
0.0
 40
0.0
 40
0.0
 40
1.0
 40
1.0
 40
1.0
 40
1.0
 10
346.1946
 20
550.3580000000001
 30
0.0
 10
346.1946
 20
550.3580000000001
 30
0.0
 10
352.3481
 20
549.9225
 30
0.0
 10
352.3481
 20
549.9225
 30
0.0
  0
SPLINE
  5
13F
330
1F
100
AcDbEntity
  8
layer 1
370
     5
100
AcDbSpline
210
0.0
220
0.0
230
1.0
 70
    24
 71
     3
 72
     8
 73
     4
 74
     0
 42
0.0000000001
 43
0.0000000001
 40
0.0
 40
0.0
 40
0.0
 40
0.0
 40
1.0
 40
1.0
 40
1.0
 40
1.0
 10
321.2396
 20
552.1242
 30
0.0
 10
321.2396
 20
552.1242
 30
0.0
 10
322.2546
 20
552.0523000000001
 30
0.0
 10
322.2546
 20
552.0523000000001
 30
0.0
  0
SPLINE
  5
140
330
1F
100
AcDbEntity
  8
layer 1
370
     5
100
AcDbSpline
210
0.0
220
0.0
230
1.0
 70
     8
 71
     3
 72
    16
 73
    12
 74
     0
 42
0.0000000001
 43
0.0000000001
 40
0.0
 40
0.0
 40
0.0
 40
0.0
 40
0.3333333333333333
 40
0.3333333333333333
 40
0.3333333333333333
 40
0.3333333333333333
 40
0.6666666666666666
 40
0.6666666666666666
 40
0.6666666666666666
 40
0.6666666666666666
 40
1.0
 40
1.0
 40
1.0
 40
1.0
 10
192.5752
 20
561.2296
 30
0.0
 10
192.5752
 20
561.2296
 30
0.0
 10
191.4189
 20
561.3114000000001
 30
0.0
 10
191.4189
 20
561.3114000000001
 30
0.0
 10
191.4189
 20
561.3114000000001
 30
0.0
 10
192.6306
 20
563.1715
 30
0.0
 10
192.6115
 20
564.927
 30
0.0
 10
191.3987
 20
566.5265000000001
 30
0.0
 10
191.3987
 20
566.5265000000001
 30
0.0
 10
191.3987
 20
566.5265000000001
 30
0.0
 10
307.2647
 20
558.283
 30
0.0
 10
307.2647
 20
558.283
 30
0.0
  0
SPLINE
  5
141
330
1F
100
AcDbEntity
  8
layer 1
370
     5
100
AcDbSpline
210
0.0
220
0.0
230
1.0
 70
    24
 71
     3
 72
     8
 73
     4
 74
     0
 42
0.0000000001
 43
0.0000000001
 40
0.0
 40
0.0
 40
0.0
 40
0.0
 40
1.0
 40
1.0
 40
1.0
 40
1.0
 10
297.0818
 20
553.8340000000001
 30
0.0
 10
297.0818
 20
553.8340000000001
 30
0.0
 10
204.7755
 20
560.3663
 30
0.0
 10
204.7755
 20
560.3663
 30
0.0
  0
SPLINE
  5
142
330
1F
100
AcDbEntity
  8
layer 1
370
     5
100
AcDbSpline
210
0.0
220
0.0
230
1.0
 70
     8
 71
     3
 72
     8
 73
     4
 74
     0
 42
0.0000000001
 43
0.0000000001
 40
0.0
 40
0.0
 40
0.0
 40
0.0
 40
1.0
 40
1.0
 40
1.0
 40
1.0
 10
320.1386
 20
554.715
 30
0.0
 10
320.9699
 20
553.6113
 30
0.0
 10
321.4803
 20
551.8843000000001
 30
0.0
 10
321.6699
 20
549.5345
 30
0.0
  0
SPLINE
  5
143
330
1F
100
AcDbEntity
  8
layer 1
370
     5
100
AcDbSpline
210
0.0
220
0.0
230
1.0
 70
     8
 71
     3
 72
    12
 73
     8
 74
     0
 42
0.0000000001
 43
0.0000000001
 40
0.0
 40
0.0
 40
0.0
 40
0.0
 40
0.5
 40
0.5
 40
0.5
 40
0.5
 40
1.0
 40
1.0
 40
1.0
 40
1.0
 10
483.151
 20
581.4519
 30
0.0
 10
485.7595
 20
596.7246
 30
0.0
 10
477.6243
 20
609.4852000000001
 30
0.0
 10
461.3862
 20
604.8835
 30
0.0
 10
461.3862
 20
604.8835
 30
0.0
 10
459.322
 20
604.428
 30
0.0
 10
456.4225
 20
604.461
 30
0.0
 10
452.9088
 20
604.807
 30
0.0
  0
SPLINE
  5
144
330
1F
100
AcDbEntity
  8
layer 1
370
     5
100
AcDbSpline
210
0.0
220
0.0
230
1.0
 70
     8
 71
     3
 72
     8
 73
     4
 74
     0
 42
0.0000000001
 43
0.0000000001
 40
0.0
 40
0.0
 40
0.0
 40
0.0
 40
1.0
 40
1.0
 40
1.0
 40
1.0
 10
482.489
 20
594.7087
 30
0.0
 10
482.8279
 20
590.0631000000001
 30
0.0
 10
482.8999
 20
587.4522000000001
 30
0.0
 10
481.552
 20
583.441
 30
0.0
  0
SPLINE
  5
145
330
1F
100
AcDbEntity
  8
layer 1
370
     5
100
AcDbSpline
210
0.0
220
0.0
230
1.0
 70
     8
 71
     3
 72
     8
 73
     4
 74
     0
 42
0.0000000001
 43
0.0000000001
 40
0.0
 40
0.0
 40
0.0
 40
0.0
 40
1.0
 40
1.0
 40
1.0
 40
1.0
 10
483.0528000000001
 20
592.5962000000001
 30
0.0
 10
484.85
 20
589.0789
 30
0.0
 10
485.4487
 20
585.6746000000001
 30
0.0
 10
484.711
 20
582.2709
 30
0.0
  0
SPLINE
  5
146
330
1F
100
AcDbEntity
  8
layer 1
370
     5
100
AcDbSpline
210
0.0
220
0.0
230
1.0
 70
     8
 71
     3
 72
     8
 73
     4
 74
     0
 42
0.0000000001
 43
0.0000000001
 40
0.0
 40
0.0
 40
0.0
 40
0.0
 40
1.0
 40
1.0
 40
1.0
 40
1.0
 10
481.8284
 20
596.4805
 30
0.0
 10
485.3875000000001
 20
592.1262
 30
0.0
 10
486.2006
 20
589.3777
 30
0.0
 10
486.232
 20
583.9089
 30
0.0
  0
SPLINE
  5
147
330
1F
100
AcDbEntity
  8
layer 1
370
     5
100
AcDbSpline
210
0.0
220
0.0
230
1.0
 70
     8
 71
     3
 72
     8
 73
     4
 74
     0
 42
0.0000000001
 43
0.0000000001
 40
0.0
 40
0.0
 40
0.0
 40
0.0
 40
1.0
 40
1.0
 40
1.0
 40
1.0
 10
480.5273
 20
598.9708000000001
 30
0.0
 10
482.669
 20
592.1541000000001
 30
0.0
 10
481.7448
 20
590.2105
 30
0.0
 10
480.3919
 20
585.0045
 30
0.0
  0
SPLINE
  5
148
330
1F
100
AcDbEntity
  8
layer 1
370
     5
100
AcDbSpline
210
0.0
220
0.0
230
1.0
 70
     8
 71
     3
 72
     8
 73
     4
 74
     0
 42
0.0000000001
 43
0.0000000001
 40
0.0
 40
0.0
 40
0.0
 40
0.0
 40
1.0
 40
1.0
 40
1.0
 40
1.0
 10
481.1606
 20
597.8773
 30
0.0
 10
485.3744
 20
594.6365000000001
 30
0.0
 10
487.5326
 20
590.6373
 30
0.0
 10
487.792
 20
585.235
 30
0.0
  0
SPLINE
  5
149
330
1F
100
AcDbEntity
  8
layer 1
370
     5
100
AcDbSpline
210
0.0
220
0.0
230
1.0
 70
     8
 71
     3
 72
     8
 73
     4
 74
     0
 42
0.0000000001
 43
0.0000000001
 40
0.0
 40
0.0
 40
0.0
 40
0.0
 40
1.0
 40
1.0
 40
1.0
 40
1.0
 10
479.7647
 20
600.0772000000001
 30
0.0
 10
481.2913
 20
592.3297
 30
0.0
 10
480.3616
 20
590.1633000000001
 30
0.0
 10
479.1984000000001
 20
586.7916
 30
0.0
  0
SPLINE
  5
14A
330
1F
100
AcDbEntity
  8
layer 1
370
     5
100
AcDbSpline
210
0.0
220
0.0
230
1.0
 70
     8
 71
     3
 72
     8
 73
     4
 74
     0
 42
0.0000000001
 43
0.0000000001
 40
0.0
 40
0.0
 40
0.0
 40
0.0
 40
1.0
 40
1.0
 40
1.0
 40
1.0
 10
480.2574
 20
599.3853
 30
0.0
 10
485.299
 20
596.6512
 30
0.0
 10
488.0556
 20
592.8992000000001
 30
0.0
 10
489.079
 20
586.912
 30
0.0
  0
SPLINE
  5
14B
330
1F
100
AcDbEntity
  8
layer 1
370
     5
100
AcDbSpline
210
0.0
220
0.0
230
1.0
 70
     8
 71
     3
 72
     8
 73
     4
 74
     0
 42
0.0000000001
 43
0.0000000001
 40
0.0
 40
0.0
 40
0.0
 40
0.0
 40
1.0
 40
1.0
 40
1.0
 40
1.0
 10
479.2937
 20
600.6714000000001
 30
0.0
 10
485.2221
 20
598.1733
 30
0.0
 10
487.9914
 20
596.6005
 30
0.0
 10
489.859
 20
588.3549
 30
0.0
  0
SPLINE
  5
14C
330
1F
100
AcDbEntity
  8
layer 1
370
     5
100
AcDbSpline
210
0.0
220
0.0
230
1.0
 70
     8
 71
     3
 72
     8
 73
     4
 74
     0
 42
0.0000000001
 43
0.0000000001
 40
0.0
 40
0.0
 40
0.0
 40
0.0
 40
1.0
 40
1.0
 40
1.0
 40
1.0
 10
479.0862
 20
600.9154
 30
0.0
 10
480.2398
 20
593.9937
 30
0.0
 10
478.9624
 20
590.3680000000001
 30
0.0
 10
477.73
 20
588.2380000000001
 30
0.0
  0
SPLINE
  5
14D
330
1F
100
AcDbEntity
  8
layer 1
370
     5
100
AcDbSpline
210
0.0
220
0.0
230
1.0
 70
     8
 71
     3
 72
     8
 73
     4
 74
     0
 42
0.0000000001
 43
0.0000000001
 40
0.0
 40
0.0
 40
0.0
 40
0.0
 40
1.0
 40
1.0
 40
1.0
 40
1.0
 10
478.6230000000001
 20
601.4234
 30
0.0
 10
486.642
 20
600.1843
 30
0.0
 10
490.036
 20
596.0583
 30
0.0
 10
490.366
 20
590.6950000000001
 30
0.0
  0
SPLINE
  5
14E
330
1F
100
AcDbEntity
  8
layer 1
370
     5
100
AcDbSpline
210
0.0
220
0.0
230
1.0
 70
     8
 71
     3
 72
     8
 73
     4
 74
     0
 42
0.0000000001
 43
0.0000000001
 40
0.0
 40
0.0
 40
0.0
 40
0.0
 40
1.0
 40
1.0
 40
1.0
 40
1.0
 10
477.9982
 20
602.0389
 30
0.0
 10
478.5229000000001
 20
596.6752
 30
0.0
 10
478.6339
 20
594.5767000000001
 30
0.0
 10
476.8329
 20
590.188
 30
0.0
  0
SPLINE
  5
14F
330
1F
100
AcDbEntity
  8
layer 1
370
     5
100
AcDbSpline
210
0.0
220
0.0
230
1.0
 70
     8
 71
     3
 72
     8
 73
     4
 74
     0
 42
0.0000000001
 43
0.0000000001
 40
0.0
 40
0.0
 40
0.0
 40
0.0
 40
1.0
 40
1.0
 40
1.0
 40
1.0
 10
477.3783
 20
602.5808000000001
 30
0.0
 10
484.1549
 20
602.504
 30
0.0
 10
488.0870000000001
 20
600.2365
 30
0.0
 10
491.77
 20
594.712
 30
0.0
  0
SPLINE
  5
150
330
1F
100
AcDbEntity
  8
layer 1
370
     5
100
AcDbSpline
210
0.0
220
0.0
230
1.0
 70
     8
 71
     3
 72
     8
 73
     4
 74
     0
 42
0.0000000001
 43
0.0000000001
 40
0.0
 40
0.0
 40
0.0
 40
0.0
 40
1.0
 40
1.0
 40
1.0
 40
1.0
 10
476.2872
 20
603.3931
 30
0.0
 10
477.2137
 20
598.0785000000001
 30
0.0
 10
476.7847
 20
595.4838
 30
0.0
 10
475.702
 20
590.734
 30
0.0
  0
SPLINE
  5
151
330
1F
100
AcDbEntity
  8
layer 1
370
     5
100
AcDbSpline
210
0.0
220
0.0
230
1.0
 70
     8
 71
     3
 72
     8
 73
     4
 74
     0
 42
0.0000000001
 43
0.0000000001
 40
0.0
 40
0.0
 40
0.0
 40
0.0
 40
1.0
 40
1.0
 40
1.0
 40
1.0
 10
475.7723
 20
603.7221000000001
 30
0.0
 10
480.031
 20
604.0070000000001
 30
0.0
 10
483.5306000000001
 20
603.2526
 30
0.0
 10
486.2711000000001
 20
601.4590000000001
 30
0.0
  0
SPLINE
  5
152
330
1F
100
AcDbEntity
  8
layer 1
370
     5
100
AcDbSpline
210
0.0
220
0.0
230
1.0
 70
     8
 71
     3
 72
     8
 73
     4
 74
     0
 42
0.0000000001
 43
0.0000000001
 40
0.0
 40
0.0
 40
0.0
 40
0.0
 40
1.0
 40
1.0
 40
1.0
 40
1.0
 10
474.28
 20
604.5085
 30
0.0
 10
479.5709
 20
605.3404000000001
 30
0.0
 10
483.333
 20
605.0859
 30
0.0
 10
485.764
 20
603.2140000000001
 30
0.0
  0
SPLINE
  5
153
330
1F
100
AcDbEntity
  8
layer 1
370
     5
100
AcDbSpline
210
0.0
220
0.0
230
1.0
 70
     8
 71
     3
 72
     8
 73
     4
 74
     0
 42
0.0000000001
 43
0.0000000001
 40
0.0
 40
0.0
 40
0.0
 40
0.0
 40
1.0
 40
1.0
 40
1.0
 40
1.0
 10
475.0662
 20
604.1233000000001
 30
0.0
 10
475.8319
 20
598.937
 30
0.0
 10
475.7058
 20
594.7469
 30
0.0
 10
474.6880000000001
 20
591.553
 30
0.0
  0
SPLINE
  5
154
330
1F
100
AcDbEntity
  8
layer 1
370
     5
100
AcDbSpline
210
0.0
220
0.0
230
1.0
 70
     8
 71
     3
 72
     8
 73
     4
 74
     0
 42
0.0000000001
 43
0.0000000001
 40
0.0
 40
0.0
 40
0.0
 40
0.0
 40
1.0
 40
1.0
 40
1.0
 40
1.0
 10
472.3669
 20
605.2114
 30
0.0
 10
476.9500000000001
 20
606.5940000000001
 30
0.0
 10
481.9097
 20
606.5002000000001
 30
0.0
 10
487.246
 20
604.9300000000001
 30
0.0
  0
SPLINE
  5
155
330
1F
100
AcDbEntity
  8
layer 1
370
     5
100
AcDbSpline
210
0.0
220
0.0
230
1.0
 70
     8
 71
     3
 72
     8
 73
     4
 74
     0
 42
0.0000000001
 43
0.0000000001
 40
0.0
 40
0.0
 40
0.0
 40
0.0
 40
1.0
 40
1.0
 40
1.0
 40
1.0
 10
473.6239000000001
 20
604.7848
 30
0.0
 10
474.4149000000001
 20
600.0159
 30
0.0
 10
474.4706000000001
 20
596.2943
 30
0.0
 10
473.791
 20
593.62
 30
0.0
  0
SPLINE
  5
156
330
1F
100
AcDbEntity
  8
layer 1
370
     5
100
AcDbSpline
210
0.0
220
0.0
230
1.0
 70
     8
 71
     3
 72
     8
 73
     4
 74
     0
 42
0.0000000001
 43
0.0000000001
 40
0.0
 40
0.0
 40
0.0
 40
0.0
 40
1.0
 40
1.0
 40
1.0
 40
1.0
 10
471.7293
 20
605.3807000000001
 30
0.0
 10
472.7249000000001
 20
602.0051000000001
 30
0.0
 10
472.9701
 20
598.5918
 30
0.0
 10
472.465
 20
595.1410000000001
 30
0.0
  0
SPLINE
  5
157
330
1F
100
AcDbEntity
  8
layer 1
370
     5
100
AcDbSpline
210
0.0
220
0.0
230
1.0
 70
     8
 71
     3
 72
     8
 73
     4
 74
     0
 42
0.0000000001
 43
0.0000000001
 40
0.0
 40
0.0
 40
0.0
 40
0.0
 40
1.0
 40
1.0
 40
1.0
 40
1.0
 10
470.6783
 20
605.5969
 30
0.0
 10
474.6489
 20
607.2699
 30
0.0
 10
478.9886
 20
607.6196
 30
0.0
 10
483.6971
 20
606.6460000000001
 30
0.0
  0
SPLINE
  5
158
330
1F
100
AcDbEntity
  8
layer 1
370
     5
100
AcDbSpline
210
0.0
220
0.0
230
1.0
 70
     8
 71
     3
 72
     8
 73
     4
 74
     0
 42
0.0000000001
 43
0.0000000001
 40
0.0
 40
0.0
 40
0.0
 40
0.0
 40
1.0
 40
1.0
 40
1.0
 40
1.0
 10
469.6558
 20
605.7378
 30
0.0
 10
471.113
 20
604.0069
 30
0.0
 10
471.7374
 20
600.8646
 30
0.0
 10
471.529
 20
596.3109000000001
 30
0.0
  0
SPLINE
  5
159
330
1F
100
AcDbEntity
  8
layer 1
370
     5
100
AcDbSpline
210
0.0
220
0.0
230
1.0
 70
     8
 71
     3
 72
     8
 73
     4
 74
     0
 42
0.0000000001
 43
0.0000000001
 40
0.0
 40
0.0
 40
0.0
 40
0.0
 40
1.0
 40
1.0
 40
1.0
 40
1.0
 10
480.148
 20
608.3620000000001
 30
0.0
 10
475.7937
 20
608.7505
 30
0.0
 10
472.088
 20
607.8941
 30
0.0
 10
469.0305
 20
605.7927000000001
 30
0.0
  0
SPLINE
  5
15A
330
1F
100
AcDbEntity
  8
layer 1
370
     5
100
AcDbSpline
210
0.0
220
0.0
230
1.0
 70
     8
 71
     3
 72
     8
 73
     4
 74
     0
 42
0.0000000001
 43
0.0000000001
 40
0.0
 40
0.0
 40
0.0
 40
0.0
 40
1.0
 40
1.0
 40
1.0
 40
1.0
 10
468.0569
 20
605.8339000000001
 30
0.0
 10
469.6439
 20
602.8240000000001
 30
0.0
 10
470.2942000000001
 20
599.8967
 30
0.0
 10
470.008
 20
597.0519000000001
 30
0.0
  0
SPLINE
  5
15B
330
1F
100
AcDbEntity
  8
layer 1
370
     5
100
AcDbSpline
210
0.0
220
0.0
230
1.0
 70
     8
 71
     3
 72
     8
 73
     4
 74
     0
 42
0.0000000001
 43
0.0000000001
 40
0.0
 40
0.0
 40
0.0
 40
0.0
 40
1.0
 40
1.0
 40
1.0
 40
1.0
 10
478.081
 20
609.922
 30
0.0
 10
473.1136
 20
609.5220000000001
 30
0.0
 10
469.3968
 20
608.1541000000001
 30
0.0
 10
466.9307
 20
605.8181000000001
 30
0.0
  0
SPLINE
  5
15C
330
1F
100
AcDbEntity
  8
layer 1
370
     5
100
AcDbSpline
210
0.0
220
0.0
230
1.0
 70
     8
 71
     3
 72
     8
 73
     4
 74
     0
 42
0.0000000001
 43
0.0000000001
 40
0.0
 40
0.0
 40
0.0
 40
0.0
 40
1.0
 40
1.0
 40
1.0
 40
1.0
 10
465.7546
 20
605.7339000000001
 30
0.0
 10
467.8824
 20
603.5360000000001
 30
0.0
 10
468.2145
 20
601.9784000000001
 30
0.0
 10
468.448
 20
598.6509
 30
0.0
  0
SPLINE
  5
15D
330
1F
100
AcDbEntity
  8
layer 1
370
     5
100
AcDbSpline
210
0.0
220
0.0
230
1.0
 70
     8
 71
     3
 72
     8
 73
     4
 74
     0
 42
0.0000000001
 43
0.0000000001
 40
0.0
 40
0.0
 40
0.0
 40
0.0
 40
1.0
 40
1.0
 40
1.0
 40
1.0
 10
475.8970000000001
 20
610.8190000000001
 30
0.0
 10
470.9403
 20
609.8609
 30
0.0
 10
467.1608
 20
608.115
 30
0.0
 10
464.5586
 20
605.582
 30
0.0
  0
SPLINE
  5
15E
330
1F
100
AcDbEntity
  8
layer 1
370
     5
100
AcDbSpline
210
0.0
220
0.0
230
1.0
 70
     8
 71
     3
 72
     8
 73
     4
 74
     0
 42
0.0000000001
 43
0.0000000001
 40
0.0
 40
0.0
 40
0.0
 40
0.0
 40
1.0
 40
1.0
 40
1.0
 40
1.0
 10
463.9443
 20
605.4792
 30
0.0
 10
465.5809
 20
603.6205
 30
0.0
 10
466.5081
 20
601.3634000000001
 30
0.0
 10
466.7258000000001
 20
598.7082
 30
0.0
  0
SPLINE
  5
15F
330
1F
100
AcDbEntity
  8
layer 1
370
     5
100
AcDbSpline
210
0.0
220
0.0
230
1.0
 70
     8
 71
     3
 72
     8
 73
     4
 74
     0
 42
0.0000000001
 43
0.0000000001
 40
0.0
 40
0.0
 40
0.0
 40
0.0
 40
1.0
 40
1.0
 40
1.0
 40
1.0
 10
462.0752
 20
605.0696
 30
0.0
 10
464.158
 20
603.253
 30
0.0
 10
465.2683
 20
600.9315
 30
0.0
 10
465.406
 20
598.105
 30
0.0
  0
SPLINE
  5
160
330
1F
100
AcDbEntity
  8
layer 1
370
     5
100
AcDbSpline
210
0.0
220
0.0
230
1.0
 70
     8
 71
     3
 72
     8
 73
     4
 74
     0
 42
0.0000000001
 43
0.0000000001
 40
0.0
 40
0.0
 40
0.0
 40
0.0
 40
1.0
 40
1.0
 40
1.0
 40
1.0
 10
473.05
 20
611.716
 30
0.0
 10
467.1375000000001
 20
609.5294
 30
0.0
 10
463.8459
 20
607.4
 30
0.0
 10
463.1754
 20
605.328
 30
0.0
  0
SPLINE
  5
161
330
1F
100
AcDbEntity
  8
layer 1
370
     5
100
AcDbSpline
210
0.0
220
0.0
230
1.0
 70
     8
 71
     3
 72
     8
 73
     4
 74
     0
 42
0.0000000001
 43
0.0000000001
 40
0.0
 40
0.0
 40
0.0
 40
0.0
 40
1.0
 40
1.0
 40
1.0
 40
1.0
 10
467.824
 20
611.5600000000001
 30
0.0
 10
463.8338
 20
609.1576
 30
0.0
 10
461.6879
 20
606.9321
 30
0.0
 10
461.3862
 20
604.8835
 30
0.0
  0
SPLINE
  5
162
330
1F
100
AcDbEntity
  8
layer 1
370
     5
100
AcDbSpline
210
0.0
220
0.0
230
1.0
 70
     8
 71
     3
 72
     8
 73
     4
 74
     0
 42
0.0000000001
 43
0.0000000001
 40
0.0
 40
0.0
 40
0.0
 40
0.0
 40
1.0
 40
1.0
 40
1.0
 40
1.0
 10
460.5209
 20
604.7247
 30
0.0
 10
462.3769
 20
603.227
 30
0.0
 10
463.6024000000001
 20
600.9944
 30
0.0
 10
464.197
 20
598.0269000000001
 30
0.0
  0
SPLINE
  5
163
330
1F
100
AcDbEntity
  8
layer 1
370
     5
100
AcDbSpline
210
0.0
220
0.0
230
1.0
 70
     8
 71
     3
 72
     8
 73
     4
 74
     0
 42
0.0000000001
 43
0.0000000001
 40
0.0
 40
0.0
 40
0.0
 40
0.0
 40
1.0
 40
1.0
 40
1.0
 40
1.0
 10
465.7960000000001
 20
611.8330000000001
 30
0.0
 10
461.6623
 20
608.8770000000001
 30
0.0
 10
459.6598
 20
606.477
 30
0.0
 10
459.7884
 20
604.6329000000001
 30
0.0
  0
SPLINE
  5
164
330
1F
100
AcDbEntity
  8
layer 1
370
     5
100
AcDbSpline
210
0.0
220
0.0
230
1.0
 70
     8
 71
     3
 72
     8
 73
     4
 74
     0
 42
0.0000000001
 43
0.0000000001
 40
0.0
 40
0.0
 40
0.0
 40
0.0
 40
1.0
 40
1.0
 40
1.0
 40
1.0
 10
459.0833
 20
604.5746
 30
0.0
 10
461.1029
 20
602.408
 30
0.0
 10
462.1576
 20
600.0564000000001
 30
0.0
 10
462.247
 20
597.5199
 30
0.0
  0
SPLINE
  5
165
330
1F
100
AcDbEntity
  8
layer 1
370
     5
100
AcDbSpline
210
0.0
220
0.0
230
1.0
 70
     8
 71
     3
 72
     8
 73
     4
 74
     0
 42
0.0000000001
 43
0.0000000001
 40
0.0
 40
0.0
 40
0.0
 40
0.0
 40
1.0
 40
1.0
 40
1.0
 40
1.0
 10
461.662
 20
610.273
 30
0.0
 10
459.6966000000001
 20
608.8542
 30
0.0
 10
458.6459
 20
606.9450000000001
 30
0.0
 10
458.5102
 20
604.5454
 30
0.0
  0
SPLINE
  5
166
330
1F
100
AcDbEntity
  8
layer 1
370
     5
100
AcDbSpline
210
0.0
220
0.0
230
1.0
 70
     8
 71
     3
 72
     8
 73
     4
 74
     0
 42
0.0000000001
 43
0.0000000001
 40
0.0
 40
0.0
 40
0.0
 40
0.0
 40
1.0
 40
1.0
 40
1.0
 40
1.0
 10
457.177
 20
604.5306000000001
 30
0.0
 10
458.841
 20
603.24
 30
0.0
 10
459.881
 20
600.9551
 30
0.0
 10
460.297
 20
597.676
 30
0.0
  0
SPLINE
  5
167
330
1F
100
AcDbEntity
  8
layer 1
370
     5
100
AcDbSpline
210
0.0
220
0.0
230
1.0
 70
     8
 71
     3
 72
     8
 73
     4
 74
     0
 42
0.0000000001
 43
0.0000000001
 40
0.0
 40
0.0
 40
0.0
 40
0.0
 40
1.0
 40
1.0
 40
1.0
 40
1.0
 10
460.18
 20
610.39
 30
0.0
 10
457.9979
 20
608.6987
 30
0.0
 10
456.7999
 20
606.7501
 30
0.0
 10
456.5858
 20
604.5443
 30
0.0
  0
SPLINE
  5
168
330
1F
100
AcDbEntity
  8
layer 1
370
     5
100
AcDbSpline
210
0.0
220
0.0
230
1.0
 70
     8
 71
     3
 72
     8
 73
     4
 74
     0
 42
0.0000000001
 43
0.0000000001
 40
0.0
 40
0.0
 40
0.0
 40
0.0
 40
1.0
 40
1.0
 40
1.0
 40
1.0
 10
458.854
 20
610.8970000000001
 30
0.0
 10
456.3354000000001
 20
608.6664000000001
 30
0.0
 10
455.0059
 20
606.5811
 30
0.0
 10
454.8656
 20
604.6413
 30
0.0
  0
SPLINE
  5
169
330
1F
100
AcDbEntity
  8
layer 1
370
     5
100
AcDbSpline
210
0.0
220
0.0
230
1.0
 70
     8
 71
     3
 72
     8
 73
     4
 74
     0
 42
0.0000000001
 43
0.0000000001
 40
0.0
 40
0.0
 40
0.0
 40
0.0
 40
1.0
 40
1.0
 40
1.0
 40
1.0
 10
456.826
 20
610.8580000000001
 30
0.0
 10
454.9721
 20
608.2183
 30
0.0
 10
453.9633
 20
606.1648
 30
0.0
 10
453.8047
 20
604.7236
 30
0.0
  0
SPLINE
  5
16A
330
1F
100
AcDbEntity
  8
layer 1
370
     5
100
AcDbSpline
210
0.0
220
0.0
230
1.0
 70
     8
 71
     3
 72
     8
 73
     4
 74
     0
 42
0.0000000001
 43
0.0000000001
 40
0.0
 40
0.0
 40
0.0
 40
0.0
 40
1.0
 40
1.0
 40
1.0
 40
1.0
 10
455.7298
 20
604.5826000000001
 30
0.0
 10
457.125
 20
603.2009000000001
 30
0.0
 10
457.8154
 20
601.7177
 30
0.0
 10
457.801
 20
600.1329000000001
 30
0.0
  0
SPLINE
  5
16B
330
1F
100
AcDbEntity
  8
layer 1
370
     5
100
AcDbSpline
210
0.0
220
0.0
230
1.0
 70
     8
 71
     3
 72
     8
 73
     4
 74
     0
 42
0.0000000001
 43
0.0000000001
 40
0.0
 40
0.0
 40
0.0
 40
0.0
 40
1.0
 40
1.0
 40
1.0
 40
1.0
 10
454.4662
 20
604.6714000000001
 30
0.0
 10
455.8242
 20
603.1612
 30
0.0
 10
456.5694
 20
601.2366000000001
 30
0.0
 10
456.7172000000001
 20
598.8796
 30
0.0
  0
SPLINE
  5
16C
330
1F
100
AcDbEntity
  8
layer 1
370
     5
100
AcDbSpline
210
0.0
220
0.0
230
1.0
 70
     8
 71
     3
 72
     8
 73
     4
 74
     0
 42
0.0000000001
 43
0.0000000001
 40
0.0
 40
0.0
 40
0.0
 40
0.0
 40
1.0
 40
1.0
 40
1.0
 40
1.0
 10
453.2196
 20
604.7771
 30
0.0
 10
454.6057
 20
603.6693
 30
0.0
 10
455.1973
 20
602.1082
 30
0.0
 10
455.0918
 20
600.0122
 30
0.0
  0
SPLINE
  5
16D
330
1F
100
AcDbEntity
  8
layer 1
370
     5
100
AcDbSpline
210
0.0
220
0.0
230
1.0
 70
     8
 71
     3
 72
    36
 73
    32
 74
     0
 42
0.0000000001
 43
0.0000000001
 40
0.0
 40
0.0
 40
0.0
 40
0.0
 40
0.125
 40
0.125
 40
0.125
 40
0.125
 40
0.25
 40
0.25
 40
0.25
 40
0.25
 40
0.375
 40
0.375
 40
0.375
 40
0.375
 40
0.5
 40
0.5
 40
0.5
 40
0.5
 40
0.625
 40
0.625
 40
0.625
 40
0.625
 40
0.75
 40
0.75
 40
0.75
 40
0.75
 40
0.875
 40
0.875
 40
0.875
 40
0.875
 40
1.0
 40
1.0
 40
1.0
 40
1.0
 10
191.4201
 20
561.3134
 30
0.0
 10
189.7259
 20
561.5447
 30
0.0
 10
186.0085
 20
561.6604
 30
0.0
 10
184.4923
 20
561.3957
 30
0.0
 10
184.4923
 20
561.3957
 30
0.0
 10
182.7647
 20
559.5865
 30
0.0
 10
181.0482
 20
559.3507000000001
 30
0.0
 10
179.4266
 20
560.6990000000001
 30
0.0
 10
179.4266
 20
560.6990000000001
 30
0.0
 10
175.6373
 20
562.6664000000001
 30
0.0
 10
174.5575
 20
561.6586
 30
0.0
 10
168.4762
 20
562.1103000000001
 30
0.0
 10
168.4762
 20
562.1103000000001
 30
0.0
 10
172.5262
 20
565.3173000000001
 30
0.0
 10
177.3476
 20
565.0794000000001
 30
0.0
 10
179.807
 20
565.251
 30
0.0
 10
179.807
 20
565.251
 30
0.0
 10
177.3741
 20
565.8729000000001
 30
0.0
 10
172.7818
 20
566.8529
 30
0.0
 10
169.5783
 20
570.9057
 30
0.0
 10
169.5783
 20
570.9057
 30
0.0
 10
175.6004
 20
569.9461
 30
0.0
 10
176.4193
 20
568.7168
 30
0.0
 10
180.5596
 20
569.7596
 30
0.0
 10
180.5596
 20
569.7596
 30
0.0
 10
182.4479
 20
570.6986000000001
 30
0.0
 10
184.0641
 20
570.0742
 30
0.0
 10
185.3291
 20
567.9160000000001
 30
0.0
 10
185.3291
 20
567.9160000000001
 30
0.0
 10
186.7437
 20
567.3096000000001
 30
0.0
 10
189.6962
 20
566.6925
 30
0.0
 10
191.3981
 20
566.5278000000001
 30
0.0
  0
SPLINE
  5
16E
330
1F
100
AcDbEntity
  8
layer 1
370
     5
100
AcDbSpline
210
0.0
220
0.0
230
1.0
 70
     8
 71
     3
 72
    12
 73
     8
 74
     0
 42
0.0000000001
 43
0.0000000001
 40
0.0
 40
0.0
 40
0.0
 40
0.0
 40
0.5
 40
0.5
 40
0.5
 40
0.5
 40
1.0
 40
1.0
 40
1.0
 40
1.0
 10
173.2011
 20
567.7280000000001
 30
0.0
 10
173.2011
 20
567.7280000000001
 30
0.0
 10
145.8395
 20
569.2177
 30
0.0
 10
145.8395
 20
569.2177
 30
0.0
 10
145.8395
 20
569.2177
 30
0.0
 10
145.8395
 20
569.2177
 30
0.0
 10
173.2326
 20
564.4758000000001
 30
0.0
 10
173.2326
 20
564.4758000000001
 30
0.0
  0
SPLINE
  5
16F
330
1F
100
AcDbEntity
  8
layer 1
370
     5
100
AcDbSpline
210
0.0
220
0.0
230
1.0
 70
    11
 71
     3
 72
    20
 73
    16
 74
     0
 42
0.0000000001
 43
0.0000000001
 40
0.0
 40
0.0
 40
0.0
 40
0.0
 40
0.25
 40
0.25
 40
0.25
 40
0.25
 40
0.5
 40
0.5
 40
0.5
 40
0.5
 40
0.75
 40
0.75
 40
0.75
 40
0.75
 40
1.0
 40
1.0
 40
1.0
 40
1.0
 10
192.5955
 20
566.441
 30
0.0
 10
215.8154
 20
558.6035000000001
 30
0.0
 10
220.6942
 20
538.5962000000001
 30
0.0
 10
243.9141
 20
530.7593000000001
 30
0.0
 10
243.9141
 20
530.7593000000001
 30
0.0
 10
240.2938
 20
529.3926
 30
0.0
 10
236.6735
 20
528.0259
 30
0.0
 10
233.0533
 20
526.6592000000001
 30
0.0
 10
233.0533
 20
526.6592000000001
 30
0.0
 10
209.8334
 20
534.4961000000001
 30
0.0
 10
215.7947
 20
553.3922
 30
0.0
 10
192.5749
 20
561.2302000000001
 30
0.0
 10
192.5749
 20
561.2302000000001
 30
0.0
 10
193.7566
 20
563.0599
 30
0.0
 10
193.7772
 20
564.8380000000001
 30
0.0
 10
192.5955
 20
566.441
 30
0.0
  0
SPLINE
  5
170
330
1F
100
AcDbEntity
  8
layer 1
370
     5
100
AcDbSpline
210
0.0
220
0.0
230
1.0
 70
     8
 71
     3
 72
     8
 73
     4
 74
     0
 42
0.0000000001
 43
0.0000000001
 40
0.0
 40
0.0
 40
0.0
 40
0.0
 40
1.0
 40
1.0
 40
1.0
 40
1.0
 10
429.2696
 20
430.9128
 30
0.0
 10
421.8701
 20
441.3379000000001
 30
0.0
 10
418.2085
 20
453.3196
 30
0.0
 10
418.2864
 20
466.5631
 30
0.0
  0
SPLINE
  5
171
330
1F
100
AcDbEntity
  8
layer 1
370
     5
100
AcDbSpline
210
0.0
220
0.0
230
1.0
 70
     8
 71
     3
 72
     8
 73
     4
 74
     0
 42
0.0000000001
 43
0.0000000001
 40
0.0
 40
0.0
 40
0.0
 40
0.0
 40
1.0
 40
1.0
 40
1.0
 40
1.0
 10
431.3524000000001
 20
428.1436
 30
0.0
 10
430.8884000000001
 20
428.7268
 30
0.0
 10
430.4366
 20
429.3153
 30
0.0
 10
429.9973
 20
429.9089
 30
0.0
  0
SPLINE
  5
172
330
1F
100
AcDbEntity
  8
layer 1
370
     5
100
AcDbSpline
210
0.0
220
0.0
230
1.0
 70
     8
 71
     3
 72
     8
 73
     4
 74
     0
 42
0.0000000001
 43
0.0000000001
 40
0.0
 40
0.0
 40
0.0
 40
0.0
 40
1.0
 40
1.0
 40
1.0
 40
1.0
 10
436.8208
 20
437.0849
 30
0.0
 10
435.6996
 20
436.9191
 30
0.0
 10
435.1706
 20
436.7178
 30
0.0
 10
434.0885
 20
436.0596000000001
 30
0.0
  0
ENDSEC
  0
SECTION
  2
OBJECTS
  0
DICTIONARY
  5
C
330
0
100
AcDbDictionary
281
     1
  3
ACAD_GROUP
350
D
  3
ACAD_LAYOUT
350
1A
  3
ACAD_MLINESTYLE
350
17
  3
ACAD_PLOTSETTINGS
350
19
  3
ACAD_PLOTSTYLENAME
350
E
  0
DICTIONARY
  5
D
102
{ACAD_REACTORS
330
C
102
}
330
C
100
AcDbDictionary
281
     1
  0
DICTIONARY
  5
1A
102
{ACAD_REACTORS
330
C
102
}
330
C
100
AcDbDictionary
281
     1
  3
Layout1
350
1E
  3
Layout2
350
26
  3
Model
350
22
  0
DICTIONARY
  5
17
102
{ACAD_REACTORS
330
C
102
}
330
C
100
AcDbDictionary
281
     1
  3
Standard
350
18
  0
DICTIONARY
  5
19
102
{ACAD_REACTORS
330
C
102
}
330
C
100
AcDbDictionary
281
     1
  0
ACDBDICTIONARYWDFLT
  5
E
102
{ACAD_REACTORS
330
C
102
}
330
C
100
AcDbDictionary
281
     1
  3
Normal
350
F
100
AcDbDictionaryWithDefault
340
F
  0
LAYOUT
  5
1E
102
{ACAD_REACTORS
330
1A
102
}
330
1A
100
AcDbPlotSettings
  1

  2

  4

  6

 40
0.0
 41
0.0
 42
0.0
 43
0.0
 44
0.0
 45
0.0
 46
0.0
 47
0.0
 48
0.0
 49
0.0
140
0.0
141
0.0
142
1.0
143
1.0
 70
   688
 72
     0
 73
     0
 74
     5
  7

 75
    16
 76
     0
 77
     2
 78
   300
147
1.0
148
0.0
149
0.0
100
AcDbLayout
  1
Layout1
 70
     1
 71
     1
 10
0.0
 20
0.0
 11
12.0
 21
9.0
 12
0.0
 22
0.0
 32
0.0
 14
1.000000000000000E 20
 24
1.000000000000000E 20
 34
1.000000000000000E 20
 15
-1.000000000000000E 20
 25
-1.000000000000000E 20
 35
-1.000000000000000E 20
146
0.0
 13
0.0
 23
0.0
 33
0.0
 16
1.0
 26
0.0
 36
0.0
 17
0.0
 27
1.0
 37
0.0
 76
     0
330
1B
  0
LAYOUT
  5
26
102
{ACAD_REACTORS
330
1A
102
}
330
1A
100
AcDbPlotSettings
  1

  2

  4

  6

 40
0.0
 41
0.0
 42
0.0
 43
0.0
 44
0.0
 45
0.0
 46
0.0
 47
0.0
 48
0.0
 49
0.0
140
0.0
141
0.0
142
1.0
143
1.0
 70
   688
 72
     0
 73
     0
 74
     5
  7

 75
    16
 76
     0
 77
     2
 78
   300
147
1.0
148
0.0
149
0.0
100
AcDbLayout
  1
Layout2
 70
     1
 71
     2
 10
0.0
 20
0.0
 11
0.0
 21
0.0
 12
0.0
 22
0.0
 32
0.0
 14
0.0
 24
0.0
 34
0.0
 15
0.0
 25
0.0
 35
0.0
146
0.0
 13
0.0
 23
0.0
 33
0.0
 16
1.0
 26
0.0
 36
0.0
 17
0.0
 27
1.0
 37
0.0
 76
     0
330
23
  0
LAYOUT
  5
22
102
{ACAD_REACTORS
330
1A
102
}
330
1A
100
AcDbPlotSettings
  1

  2

  4

  6

 40
0.0
 41
0.0
 42
0.0
 43
0.0
 44
0.0
 45
0.0
 46
0.0
 47
0.0
 48
0.0
 49
0.0
140
0.0
141
0.0
142
1.0
143
1.0
 70
  1712
 72
     0
 73
     0
 74
     0
  7

 75
     0
 76
     0
 77
     2
 78
   300
147
1.0
148
0.0
149
0.0
100
AcDbLayout
  1
Model
 70
     1
 71
     0
 10
0.0
 20
0.0
 11
0.0
 21
0.0
 12
0.0
 22
0.0
 32
0.0
 14
145.1931
 24
322.6071
 34
0.0
 15
636.0505000000001
 25
611.864
 35
0.0
146
0.0
 13
0.0
 23
0.0
 33
0.0
 16
1.0
 26
0.0
 36
0.0
 17
0.0
 27
1.0
 37
0.0
 76
     0
330
1F
  0
MLINESTYLE
  5
18
102
{ACAD_REACTORS
330
17
102
}
330
17
100
AcDbMlineStyle
  2
Standard
 70
     0
  3

 62
   256
 51
90.0
 52
90.0
 71
     2
 49
0.5
 62
   256
  6
BYLAYER
 49
-0.5
 62
   256
  6
BYLAYER
  0
ACDBPLACEHOLDER
  5
F
102
{ACAD_REACTORS
330
E
102
}
330
E
  0
ENDSEC
  0
EOF
