  0
SECTION
  2
HEADER
  9
$ANGDIR
 70
     0
  9
$EXTMAX
 10
4.606910
 20
3.928905
 30
0.000000
  9
$EXTMIN
 10
0.034918
 20
0.041584
 30
0.000000
  9
$CECOLOR
 62
   256
  9
$CELTYPE
  6
BYLAYER
  0
ENDSEC
  0
SECTION
  2
TABLES
  0
TABLE
  2
LTYPE
 70
     1
  0
LTYPE
  2
CONTINUOUS
 70
    64
  3
Solid line
 72
    65
 73
     0
 40
0.000000
  0
ENDTAB
  0
TABLE
  2
LAYER
 70
   257
  0
LAYER
  2
0
 70
    64
 62
     7
  6
CONTINUOUS
  0
ENDTAB
  0
ENDSEC
  0
SECTION
  2
BLOCKS
  0
ENDSEC
  0
SECTION
  2
ENTITIES
  0
POLYLINE
  8
Layer 0
 66
     1
 10
0.000000
 20
0.000000
 30
0.000000
  0
VERTEX
  8
Layer 0
 10
3.006910
 20
1.849151
 30
0.000000
  0
VERTEX
  8
Layer 0
 10
3.013812
 20
1.812572
 30
0.000000
  0
VERTEX
  8
Layer 0
 10
3.020713
 20
1.775993
 30
0.000000
  0
SEQEND
  0
POLYLINE
  8
Layer 0
 66
     1
 10
0.000000
 20
0.000000
 30
0.000000
  0
VERTEX
  8
Layer 0
 10
3.020713
 20
1.775993
 30
0.000000
  0
VERTEX
  8
Layer 0
 10
3.028292
 20
1.728111
 30
0.000000
  0
VERTEX
  8
Layer 0
 10
3.035875
 20
1.680225
 30
0.000000
  0
VERTEX
  8
Layer 0
 10
3.042091
 20
1.640965
 30
0.000000
  0
VERTEX
  8
Layer 0
 10
3.048312
 20
1.601702
 30
0.000000
  0
SEQEND
  0
POLYLINE
  8
Layer 0
 66
     1
 10
0.000000
 20
0.000000
 30
0.000000
  0
VERTEX
  8
Layer 0
 10
3.048312
 20
1.601702
 30
0.000000
  0
VERTEX
  8
Layer 0
 10
3.053209
 20
1.558186
 30
0.000000
  0
VERTEX
  8
Layer 0
 10
3.058111
 20
1.514670
 30
0.000000
  0
SEQEND
  0
POLYLINE
  8
Layer 0
 66
     1
 10
0.000000
 20
0.000000
 30
0.000000
  0
VERTEX
  8
Layer 0
 10
3.058111
 20
1.514670
 30
0.000000
  0
VERTEX
  8
Layer 0
 10
3.064359
 20
1.482095
 30
0.000000
  0
VERTEX
  8
Layer 0
 10
3.070611
 20
1.449521
 30
0.000000
  0
SEQEND
  0
POLYLINE
  8
Layer 0
 66
     1
 10
0.000000
 20
0.000000
 30
0.000000
  0
VERTEX
  8
Layer 0
 10
3.070611
 20
1.449521
 30
0.000000
  0
VERTEX
  8
Layer 0
 10
3.072910
 20
1.427863
 30
0.000000
  0
VERTEX
  8
Layer 0
 10
3.075213
 20
1.406202
 30
0.000000
  0
SEQEND
  0
POLYLINE
  8
Layer 0
 66
     1
 10
0.000000
 20
0.000000
 30
0.000000
  0
VERTEX
  8
Layer 0
 10
3.075213
 20
1.406202
 30
0.000000
  0
VERTEX
  8
Layer 0
 10
3.075512
 20
1.384422
 30
0.000000
  0
VERTEX
  8
Layer 0
 10
3.075812
 20
1.362643
 30
0.000000
  0
SEQEND
  0
POLYLINE
  8
Layer 0
 66
     1
 10
0.000000
 20
0.000000
 30
0.000000
  0
VERTEX
  8
Layer 0
 10
3.075812
 20
1.362643
 30
0.000000
  0
VERTEX
  8
Layer 0
 10
3.075300
 20
1.323733
 30
0.000000
  0
VERTEX
  8
Layer 0
 10
3.074792
 20
1.284820
 30
0.000000
  0
VERTEX
  8
Layer 0
 10
3.074150
 20
1.235863
 30
0.000000
  0
VERTEX
  8
Layer 0
 10
3.073512
 20
1.186902
 30
0.000000
  0
SEQEND
  0
POLYLINE
  8
Layer 0
 66
     1
 10
0.000000
 20
0.000000
 30
0.000000
  0
VERTEX
  8
Layer 0
 10
3.073512
 20
1.186902
 30
0.000000
  0
VERTEX
  8
Layer 0
 10
3.073760
 20
1.143879
 30
0.000000
  0
VERTEX
  8
Layer 0
 10
3.074012
 20
1.100851
 30
0.000000
  0
SEQEND
  0
POLYLINE
  8
Layer 0
 66
     1
 10
0.000000
 20
0.000000
 30
0.000000
  0
VERTEX
  8
Layer 0
 10
3.074012
 20
1.100851
 30
0.000000
  0
VERTEX
  8
Layer 0
 10
3.073410
 20
1.085749
 30
0.000000
  0
VERTEX
  8
Layer 0
 10
3.072812
 20
1.070643
 30
0.000000
  0
SEQEND
  0
POLYLINE
  8
Layer 0
 66
     1
 10
0.000000
 20
0.000000
 30
0.000000
  0
VERTEX
  8
Layer 0
 10
3.072812
 20
1.070643
 30
0.000000
  0
VERTEX
  8
Layer 0
 10
3.070260
 20
1.055745
 30
0.000000
  0
VERTEX
  8
Layer 0
 10
3.067713
 20
1.040843
 30
0.000000
  0
SEQEND
  0
POLYLINE
  8
Layer 0
 66
     1
 10
0.000000
 20
0.000000
 30
0.000000
  0
VERTEX
  8
Layer 0
 10
3.067713
 20
1.040843
 30
0.000000
  0
VERTEX
  8
Layer 0
 10
3.064162
 20
1.033670
 30
0.000000
  0
VERTEX
  8
Layer 0
 10
3.060611
 20
1.026493
 30
0.000000
  0
SEQEND
  0
POLYLINE
  8
Layer 0
 66
     1
 10
0.000000
 20
0.000000
 30
0.000000
  0
VERTEX
  8
Layer 0
 10
3.060611
 20
1.026493
 30
0.000000
  0
VERTEX
  8
Layer 0
 10
3.054209
 20
1.021654
 30
0.000000
  0
VERTEX
  8
Layer 0
 10
3.047812
 20
1.016812
 30
0.000000
  0
SEQEND
  0
POLYLINE
  8
Layer 0
 66
     1
 10
0.000000
 20
0.000000
 30
0.000000
  0
VERTEX
  8
Layer 0
 10
3.047812
 20
1.016812
 30
0.000000
  0
VERTEX
  8
Layer 0
 10
3.041260
 20
1.015166
 30
0.000000
  0
VERTEX
  8
Layer 0
 10
3.034713
 20
1.013521
 30
0.000000
  0
SEQEND
  0
POLYLINE
  8
Layer 0
 66
     1
 10
0.000000
 20
0.000000
 30
0.000000
  0
VERTEX
  8
Layer 0
 10
3.034713
 20
1.013521
 30
0.000000
  0
VERTEX
  8
Layer 0
 10
3.027961
 20
1.012859
 30
0.000000
  0
VERTEX
  8
Layer 0
 10
3.021213
 20
1.012194
 30
0.000000
  0
SEQEND
  0
POLYLINE
  8
Layer 0
 66
     1
 10
0.000000
 20
0.000000
 30
0.000000
  0
VERTEX
  8
Layer 0
 10
3.021213
 20
1.012194
 30
0.000000
  0
VERTEX
  8
Layer 0
 10
3.010213
 20
1.010273
 30
0.000000
  0
VERTEX
  8
Layer 0
 10
2.999213
 20
1.008351
 30
0.000000
  0
SEQEND
  0
POLYLINE
  8
Layer 0
 66
     1
 10
0.000000
 20
0.000000
 30
0.000000
  0
VERTEX
  8
Layer 0
 10
2.999213
 20
1.008351
 30
0.000000
  0
VERTEX
  8
Layer 0
 10
2.988961
 20
1.003899
 30
0.000000
  0
VERTEX
  8
Layer 0
 10
2.978713
 20
0.999442
 30
0.000000
  0
SEQEND
  0
POLYLINE
  8
Layer 0
 66
     1
 10
0.000000
 20
0.000000
 30
0.000000
  0
VERTEX
  8
Layer 0
 10
2.978713
 20
0.999442
 30
0.000000
  0
VERTEX
  8
Layer 0
 10
2.973662
 20
0.994123
 30
0.000000
  0
VERTEX
  8
Layer 0
 10
2.968611
 20
0.988800
 30
0.000000
  0
SEQEND
  0
POLYLINE
  8
Layer 0
 66
     1
 10
0.000000
 20
0.000000
 30
0.000000
  0
VERTEX
  8
Layer 0
 10
2.968611
 20
0.988800
 30
0.000000
  0
VERTEX
  8
Layer 0
 10
2.966859
 20
0.981694
 30
0.000000
  0
VERTEX
  8
Layer 0
 10
2.965111
 20
0.974584
 30
0.000000
  0
SEQEND
  0
POLYLINE
  8
Layer 0
 66
     1
 10
0.000000
 20
0.000000
 30
0.000000
  0
VERTEX
  8
Layer 0
 10
2.965111
 20
0.974584
 30
0.000000
  0
VERTEX
  8
Layer 0
 10
2.938111
 20
0.975584
 30
0.000000
  0
VERTEX
  8
Layer 0
 10
2.911111
 20
0.976584
 30
0.000000
  0
SEQEND
  0
POLYLINE
  8
Layer 0
 66
     1
 10
0.000000
 20
0.000000
 30
0.000000
  0
VERTEX
  8
Layer 0
 10
2.911111
 20
0.976584
 30
0.000000
  0
VERTEX
  8
Layer 0
 10
2.910709
 20
0.980623
 30
0.000000
  0
VERTEX
  8
Layer 0
 10
2.910312
 20
0.984662
 30
0.000000
  0
SEQEND
  0
POLYLINE
  8
Layer 0
 66
     1
 10
0.000000
 20
0.000000
 30
0.000000
  0
VERTEX
  8
Layer 0
 10
2.910312
 20
0.984662
 30
0.000000
  0
VERTEX
  8
Layer 0
 10
2.907961
 20
0.987993
 30
0.000000
  0
VERTEX
  8
Layer 0
 10
2.905611
 20
0.991324
 30
0.000000
  0
SEQEND
  0
POLYLINE
  8
Layer 0
 66
     1
 10
0.000000
 20
0.000000
 30
0.000000
  0
VERTEX
  8
Layer 0
 10
2.905611
 20
0.991324
 30
0.000000
  0
VERTEX
  8
Layer 0
 10
2.901961
 20
0.993115
 30
0.000000
  0
VERTEX
  8
Layer 0
 10
2.898312
 20
0.994902
 30
0.000000
  0
SEQEND
  0
POLYLINE
  8
Layer 0
 66
     1
 10
0.000000
 20
0.000000
 30
0.000000
  0
VERTEX
  8
Layer 0
 10
0.701016
 20
2.403347
 30
0.000000
  0
VERTEX
  8
Layer 0
 10
0.745217
 20
2.444887
 30
0.000000
  0
VERTEX
  8
Layer 0
 10
0.789418
 20
2.486426
 30
0.000000
  0
SEQEND
  0
POLYLINE
  8
Layer 0
 66
     1
 10
0.000000
 20
0.000000
 30
0.000000
  0
VERTEX
  8
Layer 0
 10
0.789418
 20
2.486426
 30
0.000000
  0
VERTEX
  8
Layer 0
 10
0.841217
 20
2.529426
 30
0.000000
  0
VERTEX
  8
Layer 0
 10
0.893016
 20
2.572426
 30
0.000000
  0
SEQEND
  0
POLYLINE
  8
Layer 0
 66
     1
 10
0.000000
 20
0.000000
 30
0.000000
  0
VERTEX
  8
Layer 0
 10
0.893016
 20
2.572426
 30
0.000000
  0
VERTEX
  8
Layer 0
 10
0.946119
 20
2.613855
 30
0.000000
  0
VERTEX
  8
Layer 0
 10
0.999217
 20
2.655288
 30
0.000000
  0
SEQEND
  0
POLYLINE
  8
Layer 0
 66
     1
 10
0.000000
 20
0.000000
 30
0.000000
  0
VERTEX
  8
Layer 0
 10
0.999217
 20
2.655288
 30
0.000000
  0
VERTEX
  8
Layer 0
 10
1.053516
 20
2.695107
 30
0.000000
  0
VERTEX
  8
Layer 0
 10
1.107816
 20
2.734926
 30
0.000000
  0
SEQEND
  0
POLYLINE
  8
Layer 0
 66
     1
 10
0.000000
 20
0.000000
 30
0.000000
  0
VERTEX
  8
Layer 0
 10
1.107816
 20
2.734926
 30
0.000000
  0
VERTEX
  8
Layer 0
 10
1.158166
 20
2.771481
 30
0.000000
  0
VERTEX
  8
Layer 0
 10
1.208516
 20
2.808036
 30
0.000000
  0
SEQEND
  0
POLYLINE
  8
Layer 0
 66
     1
 10
0.000000
 20
0.000000
 30
0.000000
  0
VERTEX
  8
Layer 0
 10
1.208516
 20
2.808036
 30
0.000000
  0
VERTEX
  8
Layer 0
 10
1.220568
 20
2.817308
 30
0.000000
  0
VERTEX
  8
Layer 0
 10
1.232615
 20
2.826580
 30
0.000000
  0
SEQEND
  0
POLYLINE
  8
Layer 0
 66
     1
 10
0.000000
 20
0.000000
 30
0.000000
  0
VERTEX
  8
Layer 0
 10
1.232615
 20
2.826580
 30
0.000000
  0
VERTEX
  8
Layer 0
 10
1.243316
 20
2.837339
 30
0.000000
  0
VERTEX
  8
Layer 0
 10
1.254016
 20
2.848099
 30
0.000000
  0
SEQEND
  0
POLYLINE
  8
Layer 0
 66
     1
 10
0.000000
 20
0.000000
 30
0.000000
  0
VERTEX
  8
Layer 0
 10
1.254016
 20
2.848099
 30
0.000000
  0
VERTEX
  8
Layer 0
 10
1.256166
 20
2.851111
 30
0.000000
  0
VERTEX
  8
Layer 0
 10
1.258316
 20
2.854127
 30
0.000000
  0
SEQEND
  0
POLYLINE
  8
Layer 0
 66
     1
 10
0.000000
 20
0.000000
 30
0.000000
  0
VERTEX
  8
Layer 0
 10
1.258316
 20
2.854127
 30
0.000000
  0
VERTEX
  8
Layer 0
 10
1.258115
 20
2.857808
 30
0.000000
  0
VERTEX
  8
Layer 0
 10
1.257914
 20
2.861489
 30
0.000000
  0
SEQEND
  0
POLYLINE
  8
Layer 0
 66
     1
 10
0.000000
 20
0.000000
 30
0.000000
  0
VERTEX
  8
Layer 0
 10
1.257914
 20
2.861489
 30
0.000000
  0
VERTEX
  8
Layer 0
 10
1.255465
 20
2.864237
 30
0.000000
  0
VERTEX
  8
Layer 0
 10
1.253016
 20
2.866989
 30
0.000000
  0
SEQEND
  0
POLYLINE
  8
Layer 0
 66
     1
 10
0.000000
 20
0.000000
 30
0.000000
  0
VERTEX
  8
Layer 0
 10
1.253016
 20
2.866989
 30
0.000000
  0
VERTEX
  8
Layer 0
 10
1.245367
 20
2.867918
 30
0.000000
  0
VERTEX
  8
Layer 0
 10
1.237717
 20
2.868847
 30
0.000000
  0
SEQEND
  0
POLYLINE
  8
Layer 0
 66
     1
 10
0.000000
 20
0.000000
 30
0.000000
  0
VERTEX
  8
Layer 0
 10
1.237717
 20
2.868847
 30
0.000000
  0
VERTEX
  8
Layer 0
 10
1.230217
 20
2.867151
 30
0.000000
  0
VERTEX
  8
Layer 0
 10
1.222717
 20
2.865458
 30
0.000000
  0
SEQEND
  0
POLYLINE
  8
Layer 0
 66
     1
 10
0.000000
 20
0.000000
 30
0.000000
  0
VERTEX
  8
Layer 0
 10
1.222717
 20
2.865458
 30
0.000000
  0
VERTEX
  8
Layer 0
 10
1.210619
 20
2.859985
 30
0.000000
  0
VERTEX
  8
Layer 0
 10
1.198516
 20
2.854517
 30
0.000000
  0
SEQEND
  0
POLYLINE
  8
Layer 0
 66
     1
 10
0.000000
 20
0.000000
 30
0.000000
  0
VERTEX
  8
Layer 0
 10
1.198516
 20
2.854517
 30
0.000000
  0
VERTEX
  8
Layer 0
 10
1.187268
 20
2.847548
 30
0.000000
  0
VERTEX
  8
Layer 0
 10
1.176016
 20
2.840580
 30
0.000000
  0
SEQEND
  0
POLYLINE
  8
Layer 0
 66
     1
 10
0.000000
 20
0.000000
 30
0.000000
  0
VERTEX
  8
Layer 0
 10
1.176016
 20
2.840580
 30
0.000000
  0
VERTEX
  8
Layer 0
 10
1.136717
 20
2.813269
 30
0.000000
  0
VERTEX
  8
Layer 0
 10
1.097418
 20
2.785958
 30
0.000000
  0
SEQEND
  0
POLYLINE
  8
Layer 0
 66
     1
 10
0.000000
 20
0.000000
 30
0.000000
  0
VERTEX
  8
Layer 0
 10
1.097418
 20
2.785958
 30
0.000000
  0
VERTEX
  8
Layer 0
 10
1.026867
 20
2.735942
 30
0.000000
  0
VERTEX
  8
Layer 0
 10
0.956316
 20
2.685925
 30
0.000000
  0
SEQEND
  0
POLYLINE
  8
Layer 0
 66
     1
 10
0.000000
 20
0.000000
 30
0.000000
  0
VERTEX
  8
Layer 0
 10
0.956316
 20
2.685925
 30
0.000000
  0
VERTEX
  8
Layer 0
 10
0.886465
 20
2.634914
 30
0.000000
  0
VERTEX
  8
Layer 0
 10
0.816615
 20
2.583906
 30
0.000000
  0
SEQEND
  0
POLYLINE
  8
Layer 0
 66
     1
 10
0.000000
 20
0.000000
 30
0.000000
  0
VERTEX
  8
Layer 0
 10
0.816615
 20
2.583906
 30
0.000000
  0
VERTEX
  8
Layer 0
 10
0.738666
 20
2.523887
 30
0.000000
  0
VERTEX
  8
Layer 0
 10
0.660717
 20
2.463867
 30
0.000000
  0
SEQEND
  0
POLYLINE
  8
Layer 0
 66
     1
 10
0.000000
 20
0.000000
 30
0.000000
  0
VERTEX
  8
Layer 0
 10
0.660717
 20
2.463867
 30
0.000000
  0
VERTEX
  8
Layer 0
 10
0.509316
 20
2.338237
 30
0.000000
  0
SEQEND
  0
POLYLINE
  8
Layer 0
 66
     1
 10
0.000000
 20
0.000000
 30
0.000000
  0
VERTEX
  8
Layer 0
 10
0.509316
 20
2.338237
 30
0.000000
  0
VERTEX
  8
Layer 0
 10
0.442914
 20
2.278009
 30
0.000000
  0
SEQEND
  0
POLYLINE
  8
Layer 0
 66
     1
 10
0.000000
 20
0.000000
 30
0.000000
  0
VERTEX
  8
Layer 0
 10
0.442914
 20
2.278009
 30
0.000000
  0
VERTEX
  8
Layer 0
 10
0.380414
 20
2.213698
 30
0.000000
  0
SEQEND
  0
POLYLINE
  8
Layer 0
 66
     1
 10
0.000000
 20
0.000000
 30
0.000000
  0
VERTEX
  8
Layer 0
 10
0.380414
 20
2.213698
 30
0.000000
  0
VERTEX
  8
Layer 0
 10
0.322115
 20
2.145580
 30
0.000000
  0
SEQEND
  0
POLYLINE
  8
Layer 0
 66
     1
 10
0.000000
 20
0.000000
 30
0.000000
  0
VERTEX
  8
Layer 0
 10
0.322115
 20
2.145580
 30
0.000000
  0
VERTEX
  8
Layer 0
 10
0.326615
 20
2.180847
 30
0.000000
  0
SEQEND
  0
POLYLINE
  8
Layer 0
 66
     1
 10
0.000000
 20
0.000000
 30
0.000000
  0
VERTEX
  8
Layer 0
 10
0.326615
 20
2.180847
 30
0.000000
  0
VERTEX
  8
Layer 0
 10
0.335217
 20
2.215359
 30
0.000000
  0
SEQEND
  0
POLYLINE
  8
Layer 0
 66
     1
 10
0.000000
 20
0.000000
 30
0.000000
  0
VERTEX
  8
Layer 0
 10
0.335217
 20
2.215359
 30
0.000000
  0
VERTEX
  8
Layer 0
 10
0.353316
 20
2.274399
 30
0.000000
  0
SEQEND
  0
POLYLINE
  8
Layer 0
 66
     1
 10
0.000000
 20
0.000000
 30
0.000000
  0
VERTEX
  8
Layer 0
 10
0.353316
 20
2.274399
 30
0.000000
  0
VERTEX
  8
Layer 0
 10
0.377414
 20
2.331229
 30
0.000000
  0
SEQEND
  0
POLYLINE
  8
Layer 0
 66
     1
 10
0.000000
 20
0.000000
 30
0.000000
  0
VERTEX
  8
Layer 0
 10
0.377414
 20
2.331229
 30
0.000000
  0
VERTEX
  8
Layer 0
 10
0.390316
 20
2.350387
 30
0.000000
  0
SEQEND
  0
POLYLINE
  8
Layer 0
 66
     1
 10
0.000000
 20
0.000000
 30
0.000000
  0
VERTEX
  8
Layer 0
 10
0.390316
 20
2.350387
 30
0.000000
  0
VERTEX
  8
Layer 0
 10
0.406316
 20
2.367036
 30
0.000000
  0
SEQEND
  0
POLYLINE
  8
Layer 0
 66
     1
 10
0.000000
 20
0.000000
 30
0.000000
  0
VERTEX
  8
Layer 0
 10
0.406316
 20
2.367036
 30
0.000000
  0
VERTEX
  8
Layer 0
 10
0.449217
 20
2.402926
 30
0.000000
  0
SEQEND
  0
POLYLINE
  8
Layer 0
 66
     1
 10
0.000000
 20
0.000000
 30
0.000000
  0
VERTEX
  8
Layer 0
 10
0.449217
 20
2.402926
 30
0.000000
  0
VERTEX
  8
Layer 0
 10
0.512816
 20
2.459993
 30
0.000000
  0
VERTEX
  8
Layer 0
 10
0.576414
 20
2.517060
 30
0.000000
  0
SEQEND
  0
POLYLINE
  8
Layer 0
 66
     1
 10
0.000000
 20
0.000000
 30
0.000000
  0
VERTEX
  8
Layer 0
 10
0.576414
 20
2.517060
 30
0.000000
  0
VERTEX
  8
Layer 0
 10
0.587867
 20
2.526359
 30
0.000000
  0
VERTEX
  8
Layer 0
 10
0.599316
 20
2.535658
 30
0.000000
  0
SEQEND
  0
POLYLINE
  8
Layer 0
 66
     1
 10
0.000000
 20
0.000000
 30
0.000000
  0
VERTEX
  8
Layer 0
 10
0.599316
 20
2.535658
 30
0.000000
  0
VERTEX
  8
Layer 0
 10
0.611418
 20
2.544036
 30
0.000000
  0
VERTEX
  8
Layer 0
 10
0.623516
 20
2.552418
 30
0.000000
  0
SEQEND
  0
POLYLINE
  8
Layer 0
 66
     1
 10
0.000000
 20
0.000000
 30
0.000000
  0
VERTEX
  8
Layer 0
 10
0.623516
 20
2.552418
 30
0.000000
  0
VERTEX
  8
Layer 0
 10
0.631816
 20
2.556787
 30
0.000000
  0
VERTEX
  8
Layer 0
 10
0.640115
 20
2.561158
 30
0.000000
  0
SEQEND
  0
POLYLINE
  8
Layer 0
 66
     1
 10
0.000000
 20
0.000000
 30
0.000000
  0
VERTEX
  8
Layer 0
 10
0.640115
 20
2.561158
 30
0.000000
  0
VERTEX
  8
Layer 0
 10
0.649016
 20
2.564068
 30
0.000000
  0
VERTEX
  8
Layer 0
 10
0.657914
 20
2.566977
 30
0.000000
  0
SEQEND
  0
POLYLINE
  8
Layer 0
 66
     1
 10
0.000000
 20
0.000000
 30
0.000000
  0
VERTEX
  8
Layer 0
 10
0.657914
 20
2.566977
 30
0.000000
  0
VERTEX
  8
Layer 0
 10
0.673465
 20
2.568647
 30
0.000000
  0
VERTEX
  8
Layer 0
 10
0.689016
 20
2.570320
 30
0.000000
  0
SEQEND
  0
POLYLINE
  8
Layer 0
 66
     1
 10
0.000000
 20
0.000000
 30
0.000000
  0
VERTEX
  8
Layer 0
 10
0.689016
 20
2.570320
 30
0.000000
  0
VERTEX
  8
Layer 0
 10
0.698068
 20
2.571879
 30
0.000000
  0
VERTEX
  8
Layer 0
 10
0.707115
 20
2.573438
 30
0.000000
  0
SEQEND
  0
POLYLINE
  8
Layer 0
 66
     1
 10
0.000000
 20
0.000000
 30
0.000000
  0
VERTEX
  8
Layer 0
 10
0.707115
 20
2.573438
 30
0.000000
  0
VERTEX
  8
Layer 0
 10
0.715717
 20
2.576595
 30
0.000000
  0
VERTEX
  8
Layer 0
 10
0.724316
 20
2.579757
 30
0.000000
  0
SEQEND
  0
POLYLINE
  8
Layer 0
 66
     1
 10
0.000000
 20
0.000000
 30
0.000000
  0
VERTEX
  8
Layer 0
 10
0.724316
 20
2.579757
 30
0.000000
  0
VERTEX
  8
Layer 0
 10
0.752418
 20
2.598611
 30
0.000000
  0
VERTEX
  8
Layer 0
 10
0.780516
 20
2.617469
 30
0.000000
  0
SEQEND
  0
POLYLINE
  8
Layer 0
 66
     1
 10
0.000000
 20
0.000000
 30
0.000000
  0
VERTEX
  8
Layer 0
 10
0.780516
 20
2.617469
 30
0.000000
  0
VERTEX
  8
Layer 0
 10
0.806666
 20
2.638883
 30
0.000000
  0
VERTEX
  8
Layer 0
 10
0.832816
 20
2.660295
 30
0.000000
  0
SEQEND
  0
POLYLINE
  8
Layer 0
 66
     1
 10
0.000000
 20
0.000000
 30
0.000000
  0
VERTEX
  8
Layer 0
 10
0.832816
 20
2.660295
 30
0.000000
  0
VERTEX
  8
Layer 0
 10
0.910418
 20
2.722115
 30
0.000000
  0
VERTEX
  8
Layer 0
 10
0.988016
 20
2.783938
 30
0.000000
  0
SEQEND
  0
POLYLINE
  8
Layer 0
 66
     1
 10
0.000000
 20
0.000000
 30
0.000000
  0
VERTEX
  8
Layer 0
 10
0.988016
 20
2.783938
 30
0.000000
  0
VERTEX
  8
Layer 0
 10
1.005316
 20
2.797773
 30
0.000000
  0
VERTEX
  8
Layer 0
 10
1.022615
 20
2.811607
 30
0.000000
  0
SEQEND
  0
POLYLINE
  8
Layer 0
 66
     1
 10
0.000000
 20
0.000000
 30
0.000000
  0
VERTEX
  8
Layer 0
 10
1.022615
 20
2.811607
 30
0.000000
  0
VERTEX
  8
Layer 0
 10
1.038516
 20
2.826977
 30
0.000000
  0
VERTEX
  8
Layer 0
 10
1.054414
 20
2.842347
 30
0.000000
  0
SEQEND
  0
POLYLINE
  8
Layer 0
 66
     1
 10
0.000000
 20
0.000000
 30
0.000000
  0
VERTEX
  8
Layer 0
 10
1.054414
 20
2.842347
 30
0.000000
  0
VERTEX
  8
Layer 0
 10
1.068867
 20
2.859123
 30
0.000000
  0
VERTEX
  8
Layer 0
 10
1.083316
 20
2.875899
 30
0.000000
  0
SEQEND
  0
POLYLINE
  8
Layer 0
 66
     1
 10
0.000000
 20
0.000000
 30
0.000000
  0
VERTEX
  8
Layer 0
 10
1.083316
 20
2.875899
 30
0.000000
  0
VERTEX
  8
Layer 0
 10
1.091268
 20
2.892328
 30
0.000000
  0
VERTEX
  8
Layer 0
 10
1.099217
 20
2.908757
 30
0.000000
  0
SEQEND
  0
POLYLINE
  8
Layer 0
 66
     1
 10
0.000000
 20
0.000000
 30
0.000000
  0
VERTEX
  8
Layer 0
 10
1.099217
 20
2.908757
 30
0.000000
  0
VERTEX
  8
Layer 0
 10
1.105516
 20
2.925883
 30
0.000000
  0
VERTEX
  8
Layer 0
 10
1.111816
 20
2.943009
 30
0.000000
  0
SEQEND
  0
POLYLINE
  8
Layer 0
 66
     1
 10
0.000000
 20
0.000000
 30
0.000000
  0
VERTEX
  8
Layer 0
 10
1.111816
 20
2.943009
 30
0.000000
  0
VERTEX
  8
Layer 0
 10
1.118965
 20
2.952379
 30
0.000000
  0
VERTEX
  8
Layer 0
 10
1.126115
 20
2.961749
 30
0.000000
  0
SEQEND
  0
POLYLINE
  8
Layer 0
 66
     1
 10
0.000000
 20
0.000000
 30
0.000000
  0
VERTEX
  8
Layer 0
 10
1.126115
 20
2.961749
 30
0.000000
  0
VERTEX
  8
Layer 0
 10
1.134918
 20
2.969591
 30
0.000000
  0
VERTEX
  8
Layer 0
 10
1.143717
 20
2.977437
 30
0.000000
  0
SEQEND
  0
POLYLINE
  8
Layer 0
 66
     1
 10
0.000000
 20
0.000000
 30
0.000000
  0
VERTEX
  8
Layer 0
 10
1.143717
 20
2.977437
 30
0.000000
  0
VERTEX
  8
Layer 0
 10
1.148166
 20
2.981910
 30
0.000000
  0
VERTEX
  8
Layer 0
 10
1.152615
 20
2.986387
 30
0.000000
  0
SEQEND
  0
POLYLINE
  8
Layer 0
 66
     1
 10
0.000000
 20
0.000000
 30
0.000000
  0
VERTEX
  8
Layer 0
 10
1.152615
 20
2.986387
 30
0.000000
  0
VERTEX
  8
Layer 0
 10
1.155516
 20
2.991981
 30
0.000000
  0
VERTEX
  8
Layer 0
 10
1.158418
 20
2.997580
 30
0.000000
  0
SEQEND
  0
POLYLINE
  8
Layer 0
 66
     1
 10
0.000000
 20
0.000000
 30
0.000000
  0
VERTEX
  8
Layer 0
 10
1.158418
 20
2.997580
 30
0.000000
  0
VERTEX
  8
Layer 0
 10
1.159568
 20
3.003788
 30
0.000000
  0
VERTEX
  8
Layer 0
 10
1.160717
 20
3.009997
 30
0.000000
  0
SEQEND
  0
POLYLINE
  8
Layer 0
 66
     1
 10
0.000000
 20
0.000000
 30
0.000000
  0
VERTEX
  8
Layer 0
 10
1.160717
 20
3.009997
 30
0.000000
  0
VERTEX
  8
Layer 0
 10
1.157119
 20
3.014552
 30
0.000000
  0
VERTEX
  8
Layer 0
 10
1.153516
 20
3.019107
 30
0.000000
  0
SEQEND
  0
POLYLINE
  8
Layer 0
 66
     1
 10
0.000000
 20
0.000000
 30
0.000000
  0
VERTEX
  8
Layer 0
 10
1.153516
 20
3.019107
 30
0.000000
  0
VERTEX
  8
Layer 0
 10
1.148016
 20
3.020938
 30
0.000000
  0
VERTEX
  8
Layer 0
 10
1.142516
 20
3.022768
 30
0.000000
  0
SEQEND
  0
POLYLINE
  8
Layer 0
 66
     1
 10
0.000000
 20
0.000000
 30
0.000000
  0
VERTEX
  8
Layer 0
 10
1.142516
 20
3.022768
 30
0.000000
  0
VERTEX
  8
Layer 0
 10
1.136918
 20
3.021269
 30
0.000000
  0
VERTEX
  8
Layer 0
 10
1.131316
 20
3.019769
 30
0.000000
  0
SEQEND
  0
POLYLINE
  8
Layer 0
 66
     1
 10
0.000000
 20
0.000000
 30
0.000000
  0
VERTEX
  8
Layer 0
 10
1.131316
 20
3.019769
 30
0.000000
  0
VERTEX
  8
Layer 0
 10
1.107965
 20
3.003391
 30
0.000000
  0
VERTEX
  8
Layer 0
 10
1.084615
 20
2.987017
 30
0.000000
  0
SEQEND
  0
POLYLINE
  8
Layer 0
 66
     1
 10
0.000000
 20
0.000000
 30
0.000000
  0
VERTEX
  8
Layer 0
 10
1.084615
 20
2.987017
 30
0.000000
  0
VERTEX
  8
Layer 0
 10
1.072418
 20
2.984115
 30
0.000000
  0
VERTEX
  8
Layer 0
 10
1.060217
 20
2.981217
 30
0.000000
  0
SEQEND
  0
POLYLINE
  8
Layer 0
 66
     1
 10
0.000000
 20
0.000000
 30
0.000000
  0
VERTEX
  8
Layer 0
 10
1.060217
 20
2.981217
 30
0.000000
  0
VERTEX
  8
Layer 0
 10
1.047768
 20
2.979769
 30
0.000000
  0
VERTEX
  8
Layer 0
 10
1.035316
 20
2.978320
 30
0.000000
  0
SEQEND
  0
POLYLINE
  8
Layer 0
 66
     1
 10
0.000000
 20
0.000000
 30
0.000000
  0
VERTEX
  8
Layer 0
 10
1.035316
 20
2.978320
 30
0.000000
  0
VERTEX
  8
Layer 0
 10
1.027068
 20
2.975509
 30
0.000000
  0
VERTEX
  8
Layer 0
 10
1.018816
 20
2.972698
 30
0.000000
  0
SEQEND
  0
POLYLINE
  8
Layer 0
 66
     1
 10
0.000000
 20
0.000000
 30
0.000000
  0
VERTEX
  8
Layer 0
 10
1.018816
 20
2.972698
 30
0.000000
  0
VERTEX
  8
Layer 0
 10
1.011016
 20
2.968698
 30
0.000000
  0
VERTEX
  8
Layer 0
 10
1.003217
 20
2.964698
 30
0.000000
  0
SEQEND
  0
POLYLINE
  8
Layer 0
 66
     1
 10
0.000000
 20
0.000000
 30
0.000000
  0
VERTEX
  8
Layer 0
 10
1.003217
 20
2.964698
 30
0.000000
  0
VERTEX
  8
Layer 0
 10
0.976418
 20
2.946954
 30
0.000000
  0
VERTEX
  8
Layer 0
 10
0.949615
 20
2.929210
 30
0.000000
  0
SEQEND
  0
POLYLINE
  8
Layer 0
 66
     1
 10
0.000000
 20
0.000000
 30
0.000000
  0
VERTEX
  8
Layer 0
 10
0.949615
 20
2.929210
 30
0.000000
  0
VERTEX
  8
Layer 0
 10
0.899146
 20
2.891875
 30
0.000000
  0
VERTEX
  8
Layer 0
 10
0.848678
 20
2.854540
 30
0.000000
  0
VERTEX
  8
Layer 0
 10
0.809249
 20
2.825375
 30
0.000000
  0
VERTEX
  8
Layer 0
 10
0.769816
 20
2.796210
 30
0.000000
  0
SEQEND
  0
POLYLINE
  8
Layer 0
 66
     1
 10
0.000000
 20
0.000000
 30
0.000000
  0
VERTEX
  8
Layer 0
 10
0.769816
 20
2.796210
 30
0.000000
  0
VERTEX
  8
Layer 0
 10
0.702568
 20
2.745214
 30
0.000000
  0
VERTEX
  8
Layer 0
 10
0.635316
 20
2.694217
 30
0.000000
  0
SEQEND
  0
POLYLINE
  8
Layer 0
 66
     1
 10
0.000000
 20
0.000000
 30
0.000000
  0
VERTEX
  8
Layer 0
 10
0.635316
 20
2.694217
 30
0.000000
  0
VERTEX
  8
Layer 0
 10
0.626918
 20
2.687190
 30
0.000000
  0
VERTEX
  8
Layer 0
 10
0.618516
 20
2.680166
 30
0.000000
  0
SEQEND
  0
POLYLINE
  8
Layer 0
 66
     1
 10
0.000000
 20
0.000000
 30
0.000000
  0
VERTEX
  8
Layer 0
 10
0.618516
 20
2.680166
 30
0.000000
  0
VERTEX
  8
Layer 0
 10
0.611516
 20
2.671784
 30
0.000000
  0
VERTEX
  8
Layer 0
 10
0.604516
 20
2.663406
 30
0.000000
  0
SEQEND
  0
POLYLINE
  8
Layer 0
 66
     1
 10
0.000000
 20
0.000000
 30
0.000000
  0
VERTEX
  8
Layer 0
 10
0.604516
 20
2.663406
 30
0.000000
  0
VERTEX
  8
Layer 0
 10
0.599068
 20
2.653930
 30
0.000000
  0
VERTEX
  8
Layer 0
 10
0.593615
 20
2.644458
 30
0.000000
  0
SEQEND
  0
POLYLINE
  8
Layer 0
 66
     1
 10
0.000000
 20
0.000000
 30
0.000000
  0
VERTEX
  8
Layer 0
 10
0.593615
 20
2.644458
 30
0.000000
  0
VERTEX
  8
Layer 0
 10
0.584316
 20
2.620068
 30
0.000000
  0
VERTEX
  8
Layer 0
 10
0.575016
 20
2.595678
 30
0.000000
  0
SEQEND
  0
POLYLINE
  8
Layer 0
 66
     1
 10
0.000000
 20
0.000000
 30
0.000000
  0
VERTEX
  8
Layer 0
 10
0.575016
 20
2.595678
 30
0.000000
  0
VERTEX
  8
Layer 0
 10
0.560615
 20
2.569607
 30
0.000000
  0
SEQEND
  0
POLYLINE
  8
Layer 0
 66
     1
 10
0.000000
 20
0.000000
 30
0.000000
  0
VERTEX
  8
Layer 0
 10
0.560615
 20
2.569607
 30
0.000000
  0
VERTEX
  8
Layer 0
 10
0.540918
 20
2.547229
 30
0.000000
  0
SEQEND
  0
POLYLINE
  8
Layer 0
 66
     1
 10
0.000000
 20
0.000000
 30
0.000000
  0
VERTEX
  8
Layer 0
 10
0.540918
 20
2.547229
 30
0.000000
  0
VERTEX
  8
Layer 0
 10
0.511414
 20
2.523009
 30
0.000000
  0
SEQEND
  0
POLYLINE
  8
Layer 0
 66
     1
 10
0.000000
 20
0.000000
 30
0.000000
  0
VERTEX
  8
Layer 0
 10
0.511414
 20
2.523009
 30
0.000000
  0
VERTEX
  8
Layer 0
 10
0.479414
 20
2.502288
 30
0.000000
  0
SEQEND
  0
POLYLINE
  8
Layer 0
 66
     1
 10
0.000000
 20
0.000000
 30
0.000000
  0
VERTEX
  8
Layer 0
 10
0.479414
 20
2.502288
 30
0.000000
  0
VERTEX
  8
Layer 0
 10
0.459615
 20
2.493257
 30
0.000000
  0
SEQEND
  0
POLYLINE
  8
Layer 0
 66
     1
 10
0.000000
 20
0.000000
 30
0.000000
  0
VERTEX
  8
Layer 0
 10
0.459615
 20
2.493257
 30
0.000000
  0
VERTEX
  8
Layer 0
 10
0.437816
 20
2.491198
 30
0.000000
  0
SEQEND
  0
POLYLINE
  8
Layer 0
 66
     1
 10
0.000000
 20
0.000000
 30
0.000000
  0
VERTEX
  8
Layer 0
 10
0.437816
 20
2.491198
 30
0.000000
  0
VERTEX
  8
Layer 0
 10
0.483316
 20
2.585257
 30
0.000000
  0
SEQEND
  0
POLYLINE
  8
Layer 0
 66
     1
 10
0.000000
 20
0.000000
 30
0.000000
  0
VERTEX
  8
Layer 0
 10
0.483316
 20
2.585257
 30
0.000000
  0
VERTEX
  8
Layer 0
 10
0.533418
 20
2.676887
 30
0.000000
  0
SEQEND
  0
POLYLINE
  8
Layer 0
 66
     1
 10
0.000000
 20
0.000000
 30
0.000000
  0
VERTEX
  8
Layer 0
 10
0.533418
 20
2.676887
 30
0.000000
  0
VERTEX
  8
Layer 0
 10
0.560768
 20
2.721367
 30
0.000000
  0
VERTEX
  8
Layer 0
 10
0.588115
 20
2.765847
 30
0.000000
  0
SEQEND
  0
POLYLINE
  8
Layer 0
 66
     1
 10
0.000000
 20
0.000000
 30
0.000000
  0
VERTEX
  8
Layer 0
 10
2.898312
 20
0.994902
 30
0.000000
  0
VERTEX
  8
Layer 0
 10
2.856611
 20
0.999682
 30
0.000000
  0
SEQEND
  0
POLYLINE
  8
Layer 0
 66
     1
 10
0.000000
 20
0.000000
 30
0.000000
  0
VERTEX
  8
Layer 0
 10
2.856611
 20
0.999682
 30
0.000000
  0
VERTEX
  8
Layer 0
 10
2.842812
 20
1.004324
 30
0.000000
  0
SEQEND
  0
POLYLINE
  8
Layer 0
 66
     1
 10
0.000000
 20
0.000000
 30
0.000000
  0
VERTEX
  8
Layer 0
 10
2.842812
 20
1.004324
 30
0.000000
  0
VERTEX
  8
Layer 0
 10
2.831410
 20
1.013513
 30
0.000000
  0
SEQEND
  0
POLYLINE
  8
Layer 0
 66
     1
 10
0.000000
 20
0.000000
 30
0.000000
  0
VERTEX
  8
Layer 0
 10
2.831410
 20
1.013513
 30
0.000000
  0
VERTEX
  8
Layer 0
 10
2.823910
 20
1.026091
 30
0.000000
  0
SEQEND
  0
POLYLINE
  8
Layer 0
 66
     1
 10
0.000000
 20
0.000000
 30
0.000000
  0
VERTEX
  8
Layer 0
 10
2.823910
 20
1.026091
 30
0.000000
  0
VERTEX
  8
Layer 0
 10
2.821512
 20
1.041623
 30
0.000000
  0
SEQEND
  0
POLYLINE
  8
Layer 0
 66
     1
 10
0.000000
 20
0.000000
 30
0.000000
  0
VERTEX
  8
Layer 0
 10
2.821512
 20
1.041623
 30
0.000000
  0
VERTEX
  8
Layer 0
 10
2.822410
 20
1.057312
 30
0.000000
  0
SEQEND
  0
POLYLINE
  8
Layer 0
 66
     1
 10
0.000000
 20
0.000000
 30
0.000000
  0
VERTEX
  8
Layer 0
 10
2.822410
 20
1.057312
 30
0.000000
  0
VERTEX
  8
Layer 0
 10
2.832611
 20
1.120221
 30
0.000000
  0
SEQEND
  0
POLYLINE
  8
Layer 0
 66
     1
 10
0.000000
 20
0.000000
 30
0.000000
  0
VERTEX
  8
Layer 0
 10
2.832611
 20
1.120221
 30
0.000000
  0
VERTEX
  8
Layer 0
 10
2.860532
 20
1.265265
 30
0.000000
  0
VERTEX
  8
Layer 0
 10
2.874713
 20
1.338922
 30
0.000000
  0
SEQEND
  0
POLYLINE
  8
Layer 0
 66
     1
 10
0.000000
 20
0.000000
 30
0.000000
  0
VERTEX
  8
Layer 0
 10
2.874713
 20
1.338922
 30
0.000000
  0
VERTEX
  8
Layer 0
 10
2.889111
 20
1.412123
 30
0.000000
  0
SEQEND
  0
POLYLINE
  8
Layer 0
 66
     1
 10
0.000000
 20
0.000000
 30
0.000000
  0
VERTEX
  8
Layer 0
 10
2.889111
 20
1.412123
 30
0.000000
  0
VERTEX
  8
Layer 0
 10
2.907611
 20
1.484402
 30
0.000000
  0
SEQEND
  0
POLYLINE
  8
Layer 0
 66
     1
 10
0.000000
 20
0.000000
 30
0.000000
  0
VERTEX
  8
Layer 0
 10
2.907611
 20
1.484402
 30
0.000000
  0
VERTEX
  8
Layer 0
 10
2.934012
 20
1.552513
 30
0.000000
  0
SEQEND
  0
POLYLINE
  8
Layer 0
 66
     1
 10
0.000000
 20
0.000000
 30
0.000000
  0
VERTEX
  8
Layer 0
 10
2.934012
 20
1.552513
 30
0.000000
  0
VERTEX
  8
Layer 0
 10
2.933910
 20
1.581170
 30
0.000000
  0
SEQEND
  0
POLYLINE
  8
Layer 0
 66
     1
 10
0.000000
 20
0.000000
 30
0.000000
  0
VERTEX
  8
Layer 0
 10
2.933910
 20
1.581170
 30
0.000000
  0
VERTEX
  8
Layer 0
 10
2.929713
 20
1.609521
 30
0.000000
  0
SEQEND
  0
POLYLINE
  8
Layer 0
 66
     1
 10
0.000000
 20
0.000000
 30
0.000000
  0
VERTEX
  8
Layer 0
 10
2.929713
 20
1.609521
 30
0.000000
  0
VERTEX
  8
Layer 0
 10
2.925910
 20
1.698410
 30
0.000000
  0
SEQEND
  0
POLYLINE
  8
Layer 0
 66
     1
 10
0.000000
 20
0.000000
 30
0.000000
  0
VERTEX
  8
Layer 0
 10
2.925910
 20
1.698410
 30
0.000000
  0
VERTEX
  8
Layer 0
 10
2.918394
 20
1.809060
 30
0.000000
  0
VERTEX
  8
Layer 0
 10
2.914512
 20
1.866221
 30
0.000000
  0
SEQEND
  0
POLYLINE
  8
Layer 0
 66
     1
 10
0.000000
 20
0.000000
 30
0.000000
  0
VERTEX
  8
Layer 0
 10
2.914512
 20
1.866221
 30
0.000000
  0
VERTEX
  8
Layer 0
 10
2.912611
 20
1.936572
 30
0.000000
  0
SEQEND
  0
POLYLINE
  8
Layer 0
 66
     1
 10
0.000000
 20
0.000000
 30
0.000000
  0
VERTEX
  8
Layer 0
 10
2.912611
 20
1.936572
 30
0.000000
  0
VERTEX
  8
Layer 0
 10
2.916713
 20
2.006828
 30
0.000000
  0
SEQEND
  0
POLYLINE
  8
Layer 0
 66
     1
 10
0.000000
 20
0.000000
 30
0.000000
  0
VERTEX
  8
Layer 0
 10
2.916713
 20
2.006828
 30
0.000000
  0
VERTEX
  8
Layer 0
 10
2.920611
 20
2.018426
 30
0.000000
  0
SEQEND
  0
POLYLINE
  8
Layer 0
 66
     1
 10
0.000000
 20
0.000000
 30
0.000000
  0
VERTEX
  8
Layer 0
 10
2.920611
 20
2.018426
 30
0.000000
  0
VERTEX
  8
Layer 0
 10
2.924512
 20
2.020717
 30
0.000000
  0
SEQEND
  0
POLYLINE
  8
Layer 0
 66
     1
 10
0.000000
 20
0.000000
 30
0.000000
  0
VERTEX
  8
Layer 0
 10
2.924512
 20
2.020717
 30
0.000000
  0
VERTEX
  8
Layer 0
 10
2.928611
 20
2.018938
 30
0.000000
  0
SEQEND
  0
POLYLINE
  8
Layer 0
 66
     1
 10
0.000000
 20
0.000000
 30
0.000000
  0
VERTEX
  8
Layer 0
 10
2.928611
 20
2.018938
 30
0.000000
  0
VERTEX
  8
Layer 0
 10
2.938312
 20
2.008580
 30
0.000000
  0
SEQEND
  0
POLYLINE
  8
Layer 0
 66
     1
 10
0.000000
 20
0.000000
 30
0.000000
  0
VERTEX
  8
Layer 0
 10
2.938312
 20
2.008580
 30
0.000000
  0
VERTEX
  8
Layer 0
 10
2.965713
 20
1.975473
 30
0.000000
  0
SEQEND
  0
POLYLINE
  8
Layer 0
 66
     1
 10
0.000000
 20
0.000000
 30
0.000000
  0
VERTEX
  8
Layer 0
 10
2.965713
 20
1.975473
 30
0.000000
  0
VERTEX
  8
Layer 0
 10
2.980812
 20
1.949922
 30
0.000000
  0
SEQEND
  0
POLYLINE
  8
Layer 0
 66
     1
 10
0.000000
 20
0.000000
 30
0.000000
  0
VERTEX
  8
Layer 0
 10
2.980812
 20
1.949922
 30
0.000000
  0
VERTEX
  8
Layer 0
 10
2.990012
 20
1.921682
 30
0.000000
  0
SEQEND
  0
POLYLINE
  8
Layer 0
 66
     1
 10
0.000000
 20
0.000000
 30
0.000000
  0
VERTEX
  8
Layer 0
 10
2.990012
 20
1.921682
 30
0.000000
  0
VERTEX
  8
Layer 0
 10
3.006910
 20
1.849151
 30
0.000000
  0
SEQEND
  0
POLYLINE
  8
Layer 0
 66
     1
 10
0.000000
 20
0.000000
 30
0.000000
  0
VERTEX
  8
Layer 0
 10
1.205115
 20
1.935430
 30
0.000000
  0
VERTEX
  8
Layer 0
 10
1.177213
 20
1.920855
 30
0.000000
  0
VERTEX
  8
Layer 0
 10
1.149312
 20
1.906276
 30
0.000000
  0
VERTEX
  8
Layer 0
 10
1.112764
 20
1.887186
 30
0.000000
  0
VERTEX
  8
Layer 0
 10
1.076217
 20
1.868091
 30
0.000000
  0
SEQEND
  0
POLYLINE
  8
Layer 0
 66
     1
 10
0.000000
 20
0.000000
 30
0.000000
  0
VERTEX
  8
Layer 0
 10
1.076217
 20
1.868091
 30
0.000000
  0
VERTEX
  8
Layer 0
 10
1.055398
 20
1.857088
 30
0.000000
  0
VERTEX
  8
Layer 0
 10
1.034575
 20
1.846080
 30
0.000000
  0
VERTEX
  8
Layer 0
 10
0.998745
 20
1.827139
 30
0.000000
  0
VERTEX
  8
Layer 0
 10
0.962914
 20
1.808194
 30
0.000000
  0
SEQEND
  0
POLYLINE
  8
Layer 0
 66
     1
 10
0.000000
 20
0.000000
 30
0.000000
  0
VERTEX
  8
Layer 0
 10
0.962914
 20
1.808194
 30
0.000000
  0
VERTEX
  8
Layer 0
 10
0.936914
 20
1.795985
 30
0.000000
  0
VERTEX
  8
Layer 0
 10
0.910910
 20
1.783773
 30
0.000000
  0
VERTEX
  8
Layer 0
 10
0.878914
 20
1.768745
 30
0.000000
  0
VERTEX
  8
Layer 0
 10
0.846914
 20
1.753714
 30
0.000000
  0
SEQEND
  0
POLYLINE
  8
Layer 0
 66
     1
 10
0.000000
 20
0.000000
 30
0.000000
  0
VERTEX
  8
Layer 0
 10
0.846914
 20
1.753714
 30
0.000000
  0
VERTEX
  8
Layer 0
 10
0.842217
 20
1.752249
 30
0.000000
  0
VERTEX
  8
Layer 0
 10
0.837516
 20
1.750780
 30
0.000000
  0
SEQEND
  0
POLYLINE
  8
Layer 0
 66
     1
 10
0.000000
 20
0.000000
 30
0.000000
  0
VERTEX
  8
Layer 0
 10
0.837516
 20
1.750780
 30
0.000000
  0
VERTEX
  8
Layer 0
 10
0.832619
 20
1.750521
 30
0.000000
  0
VERTEX
  8
Layer 0
 10
0.827717
 20
1.750261
 30
0.000000
  0
SEQEND
  0
POLYLINE
  8
Layer 0
 66
     1
 10
0.000000
 20
0.000000
 30
0.000000
  0
VERTEX
  8
Layer 0
 10
0.827717
 20
1.750261
 30
0.000000
  0
VERTEX
  8
Layer 0
 10
0.826367
 20
1.751202
 30
0.000000
  0
VERTEX
  8
Layer 0
 10
0.825016
 20
1.752143
 30
0.000000
  0
SEQEND
  0
POLYLINE
  8
Layer 0
 66
     1
 10
0.000000
 20
0.000000
 30
0.000000
  0
VERTEX
  8
Layer 0
 10
0.825016
 20
1.752143
 30
0.000000
  0
VERTEX
  8
Layer 0
 10
0.824768
 20
1.753773
 30
0.000000
  0
VERTEX
  8
Layer 0
 10
0.824516
 20
1.755402
 30
0.000000
  0
SEQEND
  0
POLYLINE
  8
Layer 0
 66
     1
 10
0.000000
 20
0.000000
 30
0.000000
  0
VERTEX
  8
Layer 0
 10
0.824516
 20
1.755402
 30
0.000000
  0
VERTEX
  8
Layer 0
 10
0.831316
 20
1.767568
 30
0.000000
  0
VERTEX
  8
Layer 0
 10
0.838115
 20
1.779733
 30
0.000000
  0
SEQEND
  0
POLYLINE
  8
Layer 0
 66
     1
 10
0.000000
 20
0.000000
 30
0.000000
  0
VERTEX
  8
Layer 0
 10
0.838115
 20
1.779733
 30
0.000000
  0
VERTEX
  8
Layer 0
 10
0.847016
 20
1.790469
 30
0.000000
  0
VERTEX
  8
Layer 0
 10
0.855914
 20
1.801202
 30
0.000000
  0
SEQEND
  0
POLYLINE
  8
Layer 0
 66
     1
 10
0.000000
 20
0.000000
 30
0.000000
  0
VERTEX
  8
Layer 0
 10
0.855914
 20
1.801202
 30
0.000000
  0
VERTEX
  8
Layer 0
 10
0.870552
 20
1.818670
 30
0.000000
  0
VERTEX
  8
Layer 0
 10
0.885186
 20
1.836135
 30
0.000000
  0
VERTEX
  8
Layer 0
 10
0.904973
 20
1.859749
 30
0.000000
  0
VERTEX
  8
Layer 0
 10
0.924757
 20
1.883363
 30
0.000000
  0
VERTEX
  8
Layer 0
 10
0.944233
 20
1.906603
 30
0.000000
  0
VERTEX
  8
Layer 0
 10
0.963705
 20
1.929843
 30
0.000000
  0
VERTEX
  8
Layer 0
 10
0.976812
 20
1.945485
 30
0.000000
  0
VERTEX
  8
Layer 0
 10
0.989914
 20
1.961123
 30
0.000000
  0
SEQEND
  0
POLYLINE
  8
Layer 0
 66
     1
 10
0.000000
 20
0.000000
 30
0.000000
  0
VERTEX
  8
Layer 0
 10
0.989914
 20
1.961123
 30
0.000000
  0
VERTEX
  8
Layer 0
 10
1.006764
 20
1.982631
 30
0.000000
  0
VERTEX
  8
Layer 0
 10
1.023615
 20
2.004139
 30
0.000000
  0
VERTEX
  8
Layer 0
 10
1.040347
 20
2.025501
 30
0.000000
  0
VERTEX
  8
Layer 0
 10
1.057079
 20
2.046863
 30
0.000000
  0
VERTEX
  8
Layer 0
 10
1.073997
 20
2.068462
 30
0.000000
  0
VERTEX
  8
Layer 0
 10
1.090914
 20
2.090060
 30
0.000000
  0
SEQEND
  0
POLYLINE
  8
Layer 0
 66
     1
 10
0.000000
 20
0.000000
 30
0.000000
  0
VERTEX
  8
Layer 0
 10
1.090914
 20
2.090060
 30
0.000000
  0
VERTEX
  8
Layer 0
 10
1.110111
 20
2.115166
 30
0.000000
  0
VERTEX
  8
Layer 0
 10
1.129304
 20
2.140273
 30
0.000000
  0
VERTEX
  8
Layer 0
 10
1.146182
 20
2.162355
 30
0.000000
  0
VERTEX
  8
Layer 0
 10
1.163060
 20
2.184438
 30
0.000000
  0
VERTEX
  8
Layer 0
 10
1.176741
 20
2.202332
 30
0.000000
  0
VERTEX
  8
Layer 0
 10
1.190418
 20
2.220229
 30
0.000000
  0
SEQEND
  0
POLYLINE
  8
Layer 0
 66
     1
 10
0.000000
 20
0.000000
 30
0.000000
  0
VERTEX
  8
Layer 0
 10
1.190418
 20
2.220229
 30
0.000000
  0
VERTEX
  8
Layer 0
 10
1.210406
 20
2.246560
 30
0.000000
  0
VERTEX
  8
Layer 0
 10
1.230390
 20
2.272895
 30
0.000000
  0
VERTEX
  8
Layer 0
 10
1.244820
 20
2.291906
 30
0.000000
  0
VERTEX
  8
Layer 0
 10
1.259245
 20
2.310922
 30
0.000000
  0
VERTEX
  8
Layer 0
 10
1.274981
 20
2.331658
 30
0.000000
  0
VERTEX
  8
Layer 0
 10
1.290717
 20
2.352399
 30
0.000000
  0
SEQEND
  0
POLYLINE
  8
Layer 0
 66
     1
 10
0.000000
 20
0.000000
 30
0.000000
  0
VERTEX
  8
Layer 0
 10
1.290717
 20
2.352399
 30
0.000000
  0
VERTEX
  8
Layer 0
 10
1.305449
 20
2.373308
 30
0.000000
  0
VERTEX
  8
Layer 0
 10
1.320182
 20
2.394221
 30
0.000000
  0
VERTEX
  8
Layer 0
 10
1.338922
 20
2.420820
 30
0.000000
  0
VERTEX
  8
Layer 0
 10
1.357658
 20
2.447422
 30
0.000000
  0
VERTEX
  8
Layer 0
 10
1.371989
 20
2.467765
 30
0.000000
  0
VERTEX
  8
Layer 0
 10
1.386316
 20
2.488107
 30
0.000000
  0
SEQEND
  0
POLYLINE
  8
Layer 0
 66
     1
 10
0.000000
 20
0.000000
 30
0.000000
  0
VERTEX
  8
Layer 0
 10
1.386316
 20
2.488107
 30
0.000000
  0
VERTEX
  8
Layer 0
 10
1.394666
 20
2.502418
 30
0.000000
  0
VERTEX
  8
Layer 0
 10
1.403016
 20
2.516729
 30
0.000000
  0
SEQEND
  0
POLYLINE
  8
Layer 0
 66
     1
 10
0.000000
 20
0.000000
 30
0.000000
  0
VERTEX
  8
Layer 0
 10
1.403016
 20
2.516729
 30
0.000000
  0
VERTEX
  8
Layer 0
 10
1.408666
 20
2.532324
 30
0.000000
  0
VERTEX
  8
Layer 0
 10
1.414316
 20
2.547918
 30
0.000000
  0
SEQEND
  0
POLYLINE
  8
Layer 0
 66
     1
 10
0.000000
 20
0.000000
 30
0.000000
  0
VERTEX
  8
Layer 0
 10
1.414316
 20
2.547918
 30
0.000000
  0
VERTEX
  8
Layer 0
 10
1.414768
 20
2.551143
 30
0.000000
  0
VERTEX
  8
Layer 0
 10
1.415217
 20
2.554367
 30
0.000000
  0
SEQEND
  0
POLYLINE
  8
Layer 0
 66
     1
 10
0.000000
 20
0.000000
 30
0.000000
  0
VERTEX
  8
Layer 0
 10
1.415217
 20
2.554367
 30
0.000000
  0
VERTEX
  8
Layer 0
 10
1.413568
 20
2.557202
 30
0.000000
  0
VERTEX
  8
Layer 0
 10
1.411914
 20
2.560036
 30
0.000000
  0
SEQEND
  0
POLYLINE
  8
Layer 0
 66
     1
 10
0.000000
 20
0.000000
 30
0.000000
  0
VERTEX
  8
Layer 0
 10
1.411914
 20
2.560036
 30
0.000000
  0
VERTEX
  8
Layer 0
 10
1.408965
 20
2.561312
 30
0.000000
  0
VERTEX
  8
Layer 0
 10
1.406016
 20
2.562588
 30
0.000000
  0
SEQEND
  0
POLYLINE
  8
Layer 0
 66
     1
 10
0.000000
 20
0.000000
 30
0.000000
  0
VERTEX
  8
Layer 0
 10
1.406016
 20
2.562588
 30
0.000000
  0
VERTEX
  8
Layer 0
 10
1.400268
 20
2.560902
 30
0.000000
  0
VERTEX
  8
Layer 0
 10
1.394516
 20
2.559216
 30
0.000000
  0
SEQEND
  0
POLYLINE
  8
Layer 0
 66
     1
 10
0.000000
 20
0.000000
 30
0.000000
  0
VERTEX
  8
Layer 0
 10
1.394516
 20
2.559216
 30
0.000000
  0
VERTEX
  8
Layer 0
 10
1.389816
 20
2.555513
 30
0.000000
  0
VERTEX
  8
Layer 0
 10
1.385115
 20
2.551808
 30
0.000000
  0
SEQEND
  0
POLYLINE
  8
Layer 0
 66
     1
 10
0.000000
 20
0.000000
 30
0.000000
  0
VERTEX
  8
Layer 0
 10
1.385115
 20
2.551808
 30
0.000000
  0
VERTEX
  8
Layer 0
 10
1.375115
 20
2.541528
 30
0.000000
  0
VERTEX
  8
Layer 0
 10
1.365115
 20
2.531249
 30
0.000000
  0
SEQEND
  0
POLYLINE
  8
Layer 0
 66
     1
 10
0.000000
 20
0.000000
 30
0.000000
  0
VERTEX
  8
Layer 0
 10
1.365115
 20
2.531249
 30
0.000000
  0
VERTEX
  8
Layer 0
 10
1.355867
 20
2.520288
 30
0.000000
  0
VERTEX
  8
Layer 0
 10
1.346615
 20
2.509328
 30
0.000000
  0
SEQEND
  0
POLYLINE
  8
Layer 0
 66
     1
 10
0.000000
 20
0.000000
 30
0.000000
  0
VERTEX
  8
Layer 0
 10
1.346615
 20
2.509328
 30
0.000000
  0
VERTEX
  8
Layer 0
 10
1.314544
 20
2.469336
 30
0.000000
  0
VERTEX
  8
Layer 0
 10
1.282473
 20
2.429347
 30
0.000000
  0
VERTEX
  8
Layer 0
 10
1.265654
 20
2.408371
 30
0.000000
  0
VERTEX
  8
Layer 0
 10
1.248831
 20
2.387399
 30
0.000000
  0
VERTEX
  8
Layer 0
 10
1.218725
 20
2.349859
 30
0.000000
  0
VERTEX
  8
Layer 0
 10
1.188615
 20
2.312320
 30
0.000000
  0
SEQEND
  0
POLYLINE
  8
Layer 0
 66
     1
 10
0.000000
 20
0.000000
 30
0.000000
  0
VERTEX
  8
Layer 0
 10
1.188615
 20
2.312320
 30
0.000000
  0
VERTEX
  8
Layer 0
 10
1.172914
 20
2.293895
 30
0.000000
  0
VERTEX
  8
Layer 0
 10
1.157209
 20
2.275473
 30
0.000000
  0
VERTEX
  8
Layer 0
 10
1.135595
 20
2.250115
 30
0.000000
  0
VERTEX
  8
Layer 0
 10
1.113981
 20
2.224757
 30
0.000000
  0
VERTEX
  8
Layer 0
 10
1.090398
 20
2.197095
 30
0.000000
  0
VERTEX
  8
Layer 0
 10
1.066816
 20
2.169438
 30
0.000000
  0
SEQEND
  0
POLYLINE
  8
Layer 0
 66
     1
 10
0.000000
 20
0.000000
 30
0.000000
  0
VERTEX
  8
Layer 0
 10
1.066816
 20
2.169438
 30
0.000000
  0
VERTEX
  8
Layer 0
 10
1.043737
 20
2.144481
 30
0.000000
  0
VERTEX
  8
Layer 0
 10
1.020658
 20
2.119528
 30
0.000000
  0
VERTEX
  8
Layer 0
 10
1.003690
 20
2.101178
 30
0.000000
  0
VERTEX
  8
Layer 0
 10
0.986721
 20
2.082828
 30
0.000000
  0
VERTEX
  8
Layer 0
 10
0.963020
 20
2.057202
 30
0.000000
  0
VERTEX
  8
Layer 0
 10
0.939316
 20
2.031580
 30
0.000000
  0
SEQEND
  0
POLYLINE
  8
Layer 0
 66
     1
 10
0.000000
 20
0.000000
 30
0.000000
  0
VERTEX
  8
Layer 0
 10
0.939316
 20
2.031580
 30
0.000000
  0
VERTEX
  8
Layer 0
 10
0.913146
 20
2.005320
 30
0.000000
  0
VERTEX
  8
Layer 0
 10
0.886973
 20
1.979060
 30
0.000000
  0
VERTEX
  8
Layer 0
 10
0.865497
 20
1.957513
 30
0.000000
  0
VERTEX
  8
Layer 0
 10
0.844016
 20
1.935962
 30
0.000000
  0
SEQEND
  0
POLYLINE
  8
Layer 0
 66
     1
 10
0.000000
 20
0.000000
 30
0.000000
  0
VERTEX
  8
Layer 0
 10
0.844016
 20
1.935962
 30
0.000000
  0
VERTEX
  8
Layer 0
 10
0.820823
 20
1.913950
 30
0.000000
  0
VERTEX
  8
Layer 0
 10
0.797631
 20
1.891938
 30
0.000000
  0
VERTEX
  8
Layer 0
 10
0.771875
 20
1.867489
 30
0.000000
  0
VERTEX
  8
Layer 0
 10
0.746115
 20
1.843040
 30
0.000000
  0
SEQEND
  0
POLYLINE
  8
Layer 0
 66
     1
 10
0.000000
 20
0.000000
 30
0.000000
  0
VERTEX
  8
Layer 0
 10
0.746115
 20
1.843040
 30
0.000000
  0
VERTEX
  8
Layer 0
 10
0.722099
 20
1.821501
 30
0.000000
  0
VERTEX
  8
Layer 0
 10
0.698079
 20
1.799962
 30
0.000000
  0
VERTEX
  8
Layer 0
 10
0.671847
 20
1.776438
 30
0.000000
  0
VERTEX
  8
Layer 0
 10
0.645615
 20
1.752910
 30
0.000000
  0
SEQEND
  0
POLYLINE
  8
Layer 0
 66
     1
 10
0.000000
 20
0.000000
 30
0.000000
  0
VERTEX
  8
Layer 0
 10
0.645615
 20
1.752910
 30
0.000000
  0
VERTEX
  8
Layer 0
 10
0.611965
 20
1.724631
 30
0.000000
  0
VERTEX
  8
Layer 0
 10
0.578316
 20
1.696351
 30
0.000000
  0
SEQEND
  0
POLYLINE
  8
Layer 0
 66
     1
 10
0.000000
 20
0.000000
 30
0.000000
  0
VERTEX
  8
Layer 0
 10
0.578316
 20
1.696351
 30
0.000000
  0
VERTEX
  8
Layer 0
 10
0.543367
 20
1.669619
 30
0.000000
  0
VERTEX
  8
Layer 0
 10
0.508414
 20
1.642883
 30
0.000000
  0
SEQEND
  0
POLYLINE
  8
Layer 0
 66
     1
 10
0.000000
 20
0.000000
 30
0.000000
  0
VERTEX
  8
Layer 0
 10
0.508414
 20
1.642883
 30
0.000000
  0
VERTEX
  8
Layer 0
 10
0.472367
 20
1.617753
 30
0.000000
  0
VERTEX
  8
Layer 0
 10
0.436316
 20
1.592623
 30
0.000000
  0
SEQEND
  0
POLYLINE
  8
Layer 0
 66
     1
 10
0.000000
 20
0.000000
 30
0.000000
  0
VERTEX
  8
Layer 0
 10
0.436316
 20
1.592623
 30
0.000000
  0
VERTEX
  8
Layer 0
 10
0.393166
 20
1.565658
 30
0.000000
  0
VERTEX
  8
Layer 0
 10
0.350016
 20
1.538694
 30
0.000000
  0
SEQEND
  0
POLYLINE
  8
Layer 0
 66
     1
 10
0.000000
 20
0.000000
 30
0.000000
  0
VERTEX
  8
Layer 0
 10
0.350016
 20
1.538694
 30
0.000000
  0
VERTEX
  8
Layer 0
 10
0.305418
 20
1.514253
 30
0.000000
  0
VERTEX
  8
Layer 0
 10
0.260816
 20
1.489812
 30
0.000000
  0
SEQEND
  0
POLYLINE
  8
Layer 0
 66
     1
 10
0.000000
 20
0.000000
 30
0.000000
  0
VERTEX
  8
Layer 0
 10
0.260816
 20
1.489812
 30
0.000000
  0
VERTEX
  8
Layer 0
 10
0.258418
 20
1.535552
 30
0.000000
  0
VERTEX
  8
Layer 0
 10
0.256016
 20
1.581292
 30
0.000000
  0
SEQEND
  0
POLYLINE
  8
Layer 0
 66
     1
 10
0.000000
 20
0.000000
 30
0.000000
  0
VERTEX
  8
Layer 0
 10
0.256016
 20
1.581292
 30
0.000000
  0
VERTEX
  8
Layer 0
 10
0.257768
 20
1.619347
 30
0.000000
  0
VERTEX
  8
Layer 0
 10
0.259516
 20
1.657402
 30
0.000000
  0
SEQEND
  0
POLYLINE
  8
Layer 0
 66
     1
 10
0.000000
 20
0.000000
 30
0.000000
  0
VERTEX
  8
Layer 0
 10
0.259516
 20
1.657402
 30
0.000000
  0
VERTEX
  8
Layer 0
 10
0.273918
 20
1.674599
 30
0.000000
  0
VERTEX
  8
Layer 0
 10
0.288316
 20
1.691792
 30
0.000000
  0
SEQEND
  0
POLYLINE
  8
Layer 0
 66
     1
 10
0.000000
 20
0.000000
 30
0.000000
  0
VERTEX
  8
Layer 0
 10
0.288316
 20
1.691792
 30
0.000000
  0
VERTEX
  8
Layer 0
 10
0.304016
 20
1.707769
 30
0.000000
  0
VERTEX
  8
Layer 0
 10
0.319717
 20
1.723741
 30
0.000000
  0
SEQEND
  0
POLYLINE
  8
Layer 0
 66
     1
 10
0.000000
 20
0.000000
 30
0.000000
  0
VERTEX
  8
Layer 0
 10
0.319717
 20
1.723741
 30
0.000000
  0
VERTEX
  8
Layer 0
 10
0.360418
 20
1.765017
 30
0.000000
  0
VERTEX
  8
Layer 0
 10
0.401119
 20
1.806288
 30
0.000000
  0
VERTEX
  8
Layer 0
 10
0.430320
 20
1.835899
 30
0.000000
  0
VERTEX
  8
Layer 0
 10
0.459516
 20
1.865509
 30
0.000000
  0
VERTEX
  8
Layer 0
 10
0.482843
 20
1.889166
 30
0.000000
  0
VERTEX
  8
Layer 0
 10
0.506170
 20
1.912820
 30
0.000000
  0
VERTEX
  8
Layer 0
 10
0.536343
 20
1.943422
 30
0.000000
  0
VERTEX
  8
Layer 0
 10
0.566516
 20
1.974021
 30
0.000000
  0
SEQEND
  0
POLYLINE
  8
Layer 0
 66
     1
 10
0.000000
 20
0.000000
 30
0.000000
  0
VERTEX
  8
Layer 0
 10
0.566516
 20
1.974021
 30
0.000000
  0
VERTEX
  8
Layer 0
 10
0.606835
 20
2.013800
 30
0.000000
  0
VERTEX
  8
Layer 0
 10
0.647154
 20
2.053580
 30
0.000000
  0
VERTEX
  8
Layer 0
 10
0.690634
 20
2.096481
 30
0.000000
  0
VERTEX
  8
Layer 0
 10
0.734115
 20
2.139387
 30
0.000000
  0
SEQEND
  0
POLYLINE
  8
Layer 0
 66
     1
 10
0.000000
 20
0.000000
 30
0.000000
  0
VERTEX
  8
Layer 0
 10
0.734115
 20
2.139387
 30
0.000000
  0
VERTEX
  8
Layer 0
 10
0.763942
 20
2.168111
 30
0.000000
  0
VERTEX
  8
Layer 0
 10
0.793764
 20
2.196839
 30
0.000000
  0
VERTEX
  8
Layer 0
 10
0.817690
 20
2.219883
 30
0.000000
  0
VERTEX
  8
Layer 0
 10
0.841615
 20
2.242930
 30
0.000000
  0
VERTEX
  8
Layer 0
 10
0.872666
 20
2.272843
 30
0.000000
  0
VERTEX
  8
Layer 0
 10
0.903717
 20
2.302757
 30
0.000000
  0
SEQEND
  0
POLYLINE
  8
Layer 0
 66
     1
 10
0.000000
 20
0.000000
 30
0.000000
  0
VERTEX
  8
Layer 0
 10
0.903717
 20
2.302757
 30
0.000000
  0
VERTEX
  8
Layer 0
 10
0.936894
 20
2.333784
 30
0.000000
  0
VERTEX
  8
Layer 0
 10
0.970071
 20
2.364812
 30
0.000000
  0
VERTEX
  8
Layer 0
 10
0.996894
 20
2.389899
 30
0.000000
  0
VERTEX
  8
Layer 0
 10
1.023717
 20
2.414989
 30
0.000000
  0
SEQEND
  0
POLYLINE
  8
Layer 0
 66
     1
 10
0.000000
 20
0.000000
 30
0.000000
  0
VERTEX
  8
Layer 0
 10
1.023717
 20
2.414989
 30
0.000000
  0
VERTEX
  8
Layer 0
 10
1.054682
 20
2.441721
 30
0.000000
  0
VERTEX
  8
Layer 0
 10
1.085642
 20
2.468458
 30
0.000000
  0
VERTEX
  8
Layer 0
 10
1.116879
 20
2.495430
 30
0.000000
  0
VERTEX
  8
Layer 0
 10
1.148115
 20
2.522406
 30
0.000000
  0
SEQEND
  0
POLYLINE
  8
Layer 0
 66
     1
 10
0.000000
 20
0.000000
 30
0.000000
  0
VERTEX
  8
Layer 0
 10
1.148115
 20
2.522406
 30
0.000000
  0
VERTEX
  8
Layer 0
 10
1.161264
 20
2.532225
 30
0.000000
  0
VERTEX
  8
Layer 0
 10
1.174414
 20
2.542048
 30
0.000000
  0
SEQEND
  0
POLYLINE
  8
Layer 0
 66
     1
 10
0.000000
 20
0.000000
 30
0.000000
  0
VERTEX
  8
Layer 0
 10
1.174414
 20
2.542048
 30
0.000000
  0
VERTEX
  8
Layer 0
 10
1.188666
 20
2.550304
 30
0.000000
  0
VERTEX
  8
Layer 0
 10
1.202914
 20
2.558560
 30
0.000000
  0
SEQEND
  0
POLYLINE
  8
Layer 0
 66
     1
 10
0.000000
 20
0.000000
 30
0.000000
  0
VERTEX
  8
Layer 0
 10
1.202914
 20
2.558560
 30
0.000000
  0
VERTEX
  8
Layer 0
 10
1.209965
 20
2.561080
 30
0.000000
  0
VERTEX
  8
Layer 0
 10
1.217016
 20
2.563599
 30
0.000000
  0
SEQEND
  0
POLYLINE
  8
Layer 0
 66
     1
 10
0.000000
 20
0.000000
 30
0.000000
  0
VERTEX
  8
Layer 0
 10
1.217016
 20
2.563599
 30
0.000000
  0
VERTEX
  8
Layer 0
 10
1.224418
 20
2.564839
 30
0.000000
  0
VERTEX
  8
Layer 0
 10
1.231816
 20
2.566080
 30
0.000000
  0
SEQEND
  0
POLYLINE
  8
Layer 0
 66
     1
 10
0.000000
 20
0.000000
 30
0.000000
  0
VERTEX
  8
Layer 0
 10
1.231816
 20
2.566080
 30
0.000000
  0
VERTEX
  8
Layer 0
 10
1.244217
 20
2.568619
 30
0.000000
  0
VERTEX
  8
Layer 0
 10
1.256615
 20
2.571158
 30
0.000000
  0
SEQEND
  0
POLYLINE
  8
Layer 0
 66
     1
 10
0.000000
 20
0.000000
 30
0.000000
  0
VERTEX
  8
Layer 0
 10
1.256615
 20
2.571158
 30
0.000000
  0
VERTEX
  8
Layer 0
 10
1.268264
 20
2.576056
 30
0.000000
  0
VERTEX
  8
Layer 0
 10
1.279914
 20
2.580958
 30
0.000000
  0
SEQEND
  0
POLYLINE
  8
Layer 0
 66
     1
 10
0.000000
 20
0.000000
 30
0.000000
  0
VERTEX
  8
Layer 0
 10
1.279914
 20
2.580958
 30
0.000000
  0
VERTEX
  8
Layer 0
 10
1.290414
 20
2.588040
 30
0.000000
  0
VERTEX
  8
Layer 0
 10
1.300914
 20
2.595127
 30
0.000000
  0
SEQEND
  0
POLYLINE
  8
Layer 0
 66
     1
 10
0.000000
 20
0.000000
 30
0.000000
  0
VERTEX
  8
Layer 0
 10
1.300914
 20
2.595127
 30
0.000000
  0
VERTEX
  8
Layer 0
 10
1.335264
 20
2.623717
 30
0.000000
  0
VERTEX
  8
Layer 0
 10
1.369615
 20
2.652308
 30
0.000000
  0
SEQEND
  0
POLYLINE
  8
Layer 0
 66
     1
 10
0.000000
 20
0.000000
 30
0.000000
  0
VERTEX
  8
Layer 0
 10
1.369615
 20
2.652308
 30
0.000000
  0
VERTEX
  8
Layer 0
 10
1.403016
 20
2.682032
 30
0.000000
  0
VERTEX
  8
Layer 0
 10
1.436414
 20
2.711757
 30
0.000000
  0
SEQEND
  0
POLYLINE
  8
Layer 0
 66
     1
 10
0.000000
 20
0.000000
 30
0.000000
  0
VERTEX
  8
Layer 0
 10
1.436414
 20
2.711757
 30
0.000000
  0
VERTEX
  8
Layer 0
 10
1.476615
 20
2.745682
 30
0.000000
  0
VERTEX
  8
Layer 0
 10
1.516816
 20
2.779611
 30
0.000000
  0
VERTEX
  8
Layer 0
 10
1.552268
 20
2.809532
 30
0.000000
  0
VERTEX
  8
Layer 0
 10
1.587717
 20
2.839458
 30
0.000000
  0
SEQEND
  0
POLYLINE
  8
Layer 0
 66
     1
 10
0.000000
 20
0.000000
 30
0.000000
  0
VERTEX
  8
Layer 0
 10
1.587717
 20
2.839458
 30
0.000000
  0
VERTEX
  8
Layer 0
 10
1.608516
 20
2.858568
 30
0.000000
  0
VERTEX
  8
Layer 0
 10
1.629316
 20
2.877678
 30
0.000000
  0
SEQEND
  0
POLYLINE
  8
Layer 0
 66
     1
 10
0.000000
 20
0.000000
 30
0.000000
  0
VERTEX
  8
Layer 0
 10
1.629316
 20
2.877678
 30
0.000000
  0
VERTEX
  8
Layer 0
 10
1.634568
 20
2.884032
 30
0.000000
  0
VERTEX
  8
Layer 0
 10
1.639816
 20
2.890387
 30
0.000000
  0
SEQEND
  0
POLYLINE
  8
Layer 0
 66
     1
 10
0.000000
 20
0.000000
 30
0.000000
  0
VERTEX
  8
Layer 0
 10
1.639816
 20
2.890387
 30
0.000000
  0
VERTEX
  8
Layer 0
 10
1.643717
 20
2.897651
 30
0.000000
  0
VERTEX
  8
Layer 0
 10
1.647615
 20
2.904918
 30
0.000000
  0
SEQEND
  0
POLYLINE
  8
Layer 0
 66
     1
 10
0.000000
 20
0.000000
 30
0.000000
  0
VERTEX
  8
Layer 0
 10
1.647615
 20
2.904918
 30
0.000000
  0
VERTEX
  8
Layer 0
 10
1.650516
 20
2.918355
 30
0.000000
  0
VERTEX
  8
Layer 0
 10
1.653414
 20
2.931796
 30
0.000000
  0
SEQEND
  0
POLYLINE
  8
Layer 0
 66
     1
 10
0.000000
 20
0.000000
 30
0.000000
  0
VERTEX
  8
Layer 0
 10
1.653414
 20
2.931796
 30
0.000000
  0
VERTEX
  8
Layer 0
 10
1.654615
 20
2.938241
 30
0.000000
  0
VERTEX
  8
Layer 0
 10
1.655816
 20
2.944690
 30
0.000000
  0
SEQEND
  0
POLYLINE
  8
Layer 0
 66
     1
 10
0.000000
 20
0.000000
 30
0.000000
  0
VERTEX
  8
Layer 0
 10
1.655816
 20
2.944690
 30
0.000000
  0
VERTEX
  8
Layer 0
 10
1.658217
 20
2.950804
 30
0.000000
  0
VERTEX
  8
Layer 0
 10
1.660615
 20
2.956918
 30
0.000000
  0
SEQEND
  0
POLYLINE
  8
Layer 0
 66
     1
 10
0.000000
 20
0.000000
 30
0.000000
  0
VERTEX
  8
Layer 0
 10
1.660615
 20
2.956918
 30
0.000000
  0
VERTEX
  8
Layer 0
 10
1.669816
 20
2.966934
 30
0.000000
  0
VERTEX
  8
Layer 0
 10
1.679016
 20
2.976950
 30
0.000000
  0
SEQEND
  0
POLYLINE
  8
Layer 0
 66
     1
 10
0.000000
 20
0.000000
 30
0.000000
  0
VERTEX
  8
Layer 0
 10
1.679016
 20
2.976950
 30
0.000000
  0
VERTEX
  8
Layer 0
 10
1.689316
 20
2.985843
 30
0.000000
  0
VERTEX
  8
Layer 0
 10
1.699615
 20
2.994737
 30
0.000000
  0
SEQEND
  0
POLYLINE
  8
Layer 0
 66
     1
 10
0.000000
 20
0.000000
 30
0.000000
  0
VERTEX
  8
Layer 0
 10
1.699615
 20
2.994737
 30
0.000000
  0
VERTEX
  8
Layer 0
 10
1.702615
 20
2.998615
 30
0.000000
  0
VERTEX
  8
Layer 0
 10
1.705615
 20
3.002497
 30
0.000000
  0
SEQEND
  0
POLYLINE
  8
Layer 0
 66
     1
 10
0.000000
 20
0.000000
 30
0.000000
  0
VERTEX
  8
Layer 0
 10
1.705615
 20
3.002497
 30
0.000000
  0
VERTEX
  8
Layer 0
 10
1.707367
 20
3.007056
 30
0.000000
  0
VERTEX
  8
Layer 0
 10
1.709115
 20
3.011619
 30
0.000000
  0
SEQEND
  0
POLYLINE
  8
Layer 0
 66
     1
 10
0.000000
 20
0.000000
 30
0.000000
  0
VERTEX
  8
Layer 0
 10
1.709115
 20
3.011619
 30
0.000000
  0
VERTEX
  8
Layer 0
 10
1.708918
 20
3.015119
 30
0.000000
  0
VERTEX
  8
Layer 0
 10
1.708717
 20
3.018619
 30
0.000000
  0
SEQEND
  0
POLYLINE
  8
Layer 0
 66
     1
 10
0.000000
 20
0.000000
 30
0.000000
  0
VERTEX
  8
Layer 0
 10
1.708717
 20
3.018619
 30
0.000000
  0
VERTEX
  8
Layer 0
 10
1.706619
 20
3.021414
 30
0.000000
  0
VERTEX
  8
Layer 0
 10
1.704516
 20
3.024209
 30
0.000000
  0
SEQEND
  0
POLYLINE
  8
Layer 0
 66
     1
 10
0.000000
 20
0.000000
 30
0.000000
  0
VERTEX
  8
Layer 0
 10
1.704516
 20
3.024209
 30
0.000000
  0
VERTEX
  8
Layer 0
 10
1.697717
 20
3.026107
 30
0.000000
  0
VERTEX
  8
Layer 0
 10
1.690914
 20
3.028008
 30
0.000000
  0
SEQEND
  0
POLYLINE
  8
Layer 0
 66
     1
 10
0.000000
 20
0.000000
 30
0.000000
  0
VERTEX
  8
Layer 0
 10
1.690914
 20
3.028008
 30
0.000000
  0
VERTEX
  8
Layer 0
 10
1.683914
 20
3.027847
 30
0.000000
  0
VERTEX
  8
Layer 0
 10
1.676914
 20
3.027689
 30
0.000000
  0
SEQEND
  0
POLYLINE
  8
Layer 0
 66
     1
 10
0.000000
 20
0.000000
 30
0.000000
  0
VERTEX
  8
Layer 0
 10
1.676914
 20
3.027689
 30
0.000000
  0
VERTEX
  8
Layer 0
 10
1.670217
 20
3.025489
 30
0.000000
  0
VERTEX
  8
Layer 0
 10
1.663516
 20
3.023288
 30
0.000000
  0
SEQEND
  0
POLYLINE
  8
Layer 0
 66
     1
 10
0.000000
 20
0.000000
 30
0.000000
  0
VERTEX
  8
Layer 0
 10
1.663516
 20
3.023288
 30
0.000000
  0
VERTEX
  8
Layer 0
 10
1.644516
 20
3.011402
 30
0.000000
  0
VERTEX
  8
Layer 0
 10
1.625516
 20
2.999516
 30
0.000000
  0
SEQEND
  0
POLYLINE
  8
Layer 0
 66
     1
 10
0.000000
 20
0.000000
 30
0.000000
  0
VERTEX
  8
Layer 0
 10
1.625516
 20
2.999516
 30
0.000000
  0
VERTEX
  8
Layer 0
 10
1.601666
 20
2.996776
 30
0.000000
  0
VERTEX
  8
Layer 0
 10
1.577816
 20
2.994036
 30
0.000000
  0
SEQEND
  0
POLYLINE
  8
Layer 0
 66
     1
 10
0.000000
 20
0.000000
 30
0.000000
  0
VERTEX
  8
Layer 0
 10
1.577816
 20
2.994036
 30
0.000000
  0
VERTEX
  8
Layer 0
 10
1.561918
 20
2.987300
 30
0.000000
  0
VERTEX
  8
Layer 0
 10
1.546016
 20
2.980568
 30
0.000000
  0
SEQEND
  0
POLYLINE
  8
Layer 0
 66
     1
 10
0.000000
 20
0.000000
 30
0.000000
  0
VERTEX
  8
Layer 0
 10
1.546016
 20
2.980568
 30
0.000000
  0
VERTEX
  8
Layer 0
 10
1.531568
 20
2.971032
 30
0.000000
  0
VERTEX
  8
Layer 0
 10
1.517115
 20
2.961497
 30
0.000000
  0
SEQEND
  0
POLYLINE
  8
Layer 0
 66
     1
 10
0.000000
 20
0.000000
 30
0.000000
  0
VERTEX
  8
Layer 0
 10
1.517115
 20
2.961497
 30
0.000000
  0
VERTEX
  8
Layer 0
 10
1.485816
 20
2.938816
 30
0.000000
  0
VERTEX
  8
Layer 0
 10
1.454516
 20
2.916139
 30
0.000000
  0
SEQEND
  0
POLYLINE
  8
Layer 0
 66
     1
 10
0.000000
 20
0.000000
 30
0.000000
  0
VERTEX
  8
Layer 0
 10
1.454516
 20
2.916139
 30
0.000000
  0
VERTEX
  8
Layer 0
 10
1.424068
 20
2.892253
 30
0.000000
  0
VERTEX
  8
Layer 0
 10
1.393615
 20
2.868367
 30
0.000000
  0
SEQEND
  0
POLYLINE
  8
Layer 0
 66
     1
 10
0.000000
 20
0.000000
 30
0.000000
  0
VERTEX
  8
Layer 0
 10
1.393615
 20
2.868367
 30
0.000000
  0
VERTEX
  8
Layer 0
 10
1.345694
 20
2.828477
 30
0.000000
  0
VERTEX
  8
Layer 0
 10
1.297772
 20
2.788588
 30
0.000000
  0
VERTEX
  8
Layer 0
 10
1.246544
 20
2.745946
 30
0.000000
  0
VERTEX
  8
Layer 0
 10
1.195316
 20
2.703308
 30
0.000000
  0
SEQEND
  0
POLYLINE
  8
Layer 0
 66
     1
 10
0.000000
 20
0.000000
 30
0.000000
  0
VERTEX
  8
Layer 0
 10
1.195316
 20
2.703308
 30
0.000000
  0
VERTEX
  8
Layer 0
 10
1.171166
 20
2.681347
 30
0.000000
  0
VERTEX
  8
Layer 0
 10
1.147016
 20
2.659387
 30
0.000000
  0
SEQEND
  0
POLYLINE
  8
Layer 0
 66
     1
 10
0.000000
 20
0.000000
 30
0.000000
  0
VERTEX
  8
Layer 0
 10
1.147016
 20
2.659387
 30
0.000000
  0
VERTEX
  8
Layer 0
 10
1.142816
 20
2.654540
 30
0.000000
  0
VERTEX
  8
Layer 0
 10
1.138615
 20
2.649698
 30
0.000000
  0
SEQEND
  0
POLYLINE
  8
Layer 0
 66
     1
 10
0.000000
 20
0.000000
 30
0.000000
  0
VERTEX
  8
Layer 0
 10
1.138615
 20
2.649698
 30
0.000000
  0
VERTEX
  8
Layer 0
 10
1.135816
 20
2.643930
 30
0.000000
  0
VERTEX
  8
Layer 0
 10
1.133016
 20
2.638166
 30
0.000000
  0
SEQEND
  0
POLYLINE
  8
Layer 0
 66
     1
 10
0.000000
 20
0.000000
 30
0.000000
  0
VERTEX
  8
Layer 0
 10
1.133016
 20
2.638166
 30
0.000000
  0
VERTEX
  8
Layer 0
 10
1.130568
 20
2.627072
 30
0.000000
  0
VERTEX
  8
Layer 0
 10
1.128115
 20
2.615977
 30
0.000000
  0
SEQEND
  0
POLYLINE
  8
Layer 0
 66
     1
 10
0.000000
 20
0.000000
 30
0.000000
  0
VERTEX
  8
Layer 0
 10
1.128115
 20
2.615977
 30
0.000000
  0
VERTEX
  8
Layer 0
 10
1.123217
 20
2.605725
 30
0.000000
  0
VERTEX
  8
Layer 0
 10
1.118316
 20
2.595477
 30
0.000000
  0
SEQEND
  0
POLYLINE
  8
Layer 0
 66
     1
 10
0.000000
 20
0.000000
 30
0.000000
  0
VERTEX
  8
Layer 0
 10
1.118316
 20
2.595477
 30
0.000000
  0
VERTEX
  8
Layer 0
 10
1.111217
 20
2.586591
 30
0.000000
  0
VERTEX
  8
Layer 0
 10
1.104115
 20
2.577710
 30
0.000000
  0
SEQEND
  0
POLYLINE
  8
Layer 0
 66
     1
 10
0.000000
 20
0.000000
 30
0.000000
  0
VERTEX
  8
Layer 0
 10
1.104115
 20
2.577710
 30
0.000000
  0
VERTEX
  8
Layer 0
 10
1.058918
 20
2.531674
 30
0.000000
  0
VERTEX
  8
Layer 0
 10
1.013717
 20
2.485639
 30
0.000000
  0
SEQEND
  0
POLYLINE
  8
Layer 0
 66
     1
 10
0.000000
 20
0.000000
 30
0.000000
  0
VERTEX
  8
Layer 0
 10
1.013717
 20
2.485639
 30
0.000000
  0
VERTEX
  8
Layer 0
 10
0.965867
 20
2.442383
 30
0.000000
  0
VERTEX
  8
Layer 0
 10
0.918016
 20
2.399127
 30
0.000000
  0
SEQEND
  0
POLYLINE
  8
Layer 0
 66
     1
 10
0.000000
 20
0.000000
 30
0.000000
  0
VERTEX
  8
Layer 0
 10
0.918016
 20
2.399127
 30
0.000000
  0
VERTEX
  8
Layer 0
 10
0.866969
 20
2.353552
 30
0.000000
  0
VERTEX
  8
Layer 0
 10
0.815922
 20
2.307981
 30
0.000000
  0
VERTEX
  8
Layer 0
 10
0.783820
 20
2.279324
 30
0.000000
  0
VERTEX
  8
Layer 0
 10
0.751717
 20
2.250666
 30
0.000000
  0
SEQEND
  0
POLYLINE
  8
Layer 0
 66
     1
 10
0.000000
 20
0.000000
 30
0.000000
  0
VERTEX
  8
Layer 0
 10
0.751717
 20
2.250666
 30
0.000000
  0
VERTEX
  8
Layer 0
 10
0.726146
 20
2.227249
 30
0.000000
  0
VERTEX
  8
Layer 0
 10
0.700575
 20
2.203832
 30
0.000000
  0
VERTEX
  8
Layer 0
 10
0.678229
 20
2.183363
 30
0.000000
  0
VERTEX
  8
Layer 0
 10
0.655879
 20
2.162899
 30
0.000000
  0
VERTEX
  8
Layer 0
 10
0.621599
 20
2.131509
 30
0.000000
  0
VERTEX
  8
Layer 0
 10
0.587316
 20
2.100119
 30
0.000000
  0
SEQEND
  0
POLYLINE
  8
Layer 0
 66
     1
 10
0.000000
 20
0.000000
 30
0.000000
  0
VERTEX
  8
Layer 0
 10
0.587316
 20
2.100119
 30
0.000000
  0
VERTEX
  8
Layer 0
 10
0.568867
 20
2.082225
 30
0.000000
  0
VERTEX
  8
Layer 0
 10
0.550418
 20
2.064332
 30
0.000000
  0
VERTEX
  8
Layer 0
 10
0.503867
 20
2.019186
 30
0.000000
  0
VERTEX
  8
Layer 0
 10
0.457316
 20
1.974040
 30
0.000000
  0
SEQEND
  0
POLYLINE
  8
Layer 0
 66
     1
 10
0.000000
 20
0.000000
 30
0.000000
  0
VERTEX
  8
Layer 0
 10
0.457316
 20
1.974040
 30
0.000000
  0
VERTEX
  8
Layer 0
 10
0.432642
 20
1.949442
 30
0.000000
  0
VERTEX
  8
Layer 0
 10
0.407969
 20
1.924839
 30
0.000000
  0
VERTEX
  8
Layer 0
 10
0.368544
 20
1.885528
 30
0.000000
  0
VERTEX
  8
Layer 0
 10
0.329115
 20
1.846214
 30
0.000000
  0
SEQEND
  0
POLYLINE
  8
Layer 0
 66
     1
 10
0.000000
 20
0.000000
 30
0.000000
  0
VERTEX
  8
Layer 0
 10
0.329115
 20
1.846214
 30
0.000000
  0
VERTEX
  8
Layer 0
 10
0.304367
 20
1.823473
 30
0.000000
  0
VERTEX
  8
Layer 0
 10
0.279615
 20
1.800733
 30
0.000000
  0
SEQEND
  0
POLYLINE
  8
Layer 0
 66
     1
 10
0.000000
 20
0.000000
 30
0.000000
  0
VERTEX
  8
Layer 0
 10
0.279615
 20
1.800733
 30
0.000000
  0
VERTEX
  8
Layer 0
 10
0.275867
 20
1.798107
 30
0.000000
  0
VERTEX
  8
Layer 0
 10
0.272115
 20
1.795481
 30
0.000000
  0
SEQEND
  0
POLYLINE
  8
Layer 0
 66
     1
 10
0.000000
 20
0.000000
 30
0.000000
  0
VERTEX
  8
Layer 0
 10
0.272115
 20
1.795481
 30
0.000000
  0
VERTEX
  8
Layer 0
 10
0.267615
 20
1.794532
 30
0.000000
  0
VERTEX
  8
Layer 0
 10
0.263115
 20
1.793584
 30
0.000000
  0
SEQEND
  0
POLYLINE
  8
Layer 0
 66
     1
 10
0.000000
 20
0.000000
 30
0.000000
  0
VERTEX
  8
Layer 0
 10
0.263115
 20
1.793584
 30
0.000000
  0
VERTEX
  8
Layer 0
 10
0.263615
 20
1.816269
 30
0.000000
  0
VERTEX
  8
Layer 0
 10
0.264115
 20
1.838954
 30
0.000000
  0
SEQEND
  0
POLYLINE
  8
Layer 0
 66
     1
 10
0.000000
 20
0.000000
 30
0.000000
  0
VERTEX
  8
Layer 0
 10
0.264115
 20
1.838954
 30
0.000000
  0
VERTEX
  8
Layer 0
 10
0.266568
 20
1.861509
 30
0.000000
  0
VERTEX
  8
Layer 0
 10
0.269016
 20
1.884064
 30
0.000000
  0
SEQEND
  0
POLYLINE
  8
Layer 0
 66
     1
 10
0.000000
 20
0.000000
 30
0.000000
  0
VERTEX
  8
Layer 0
 10
0.269016
 20
1.884064
 30
0.000000
  0
VERTEX
  8
Layer 0
 10
0.272316
 20
1.896997
 30
0.000000
  0
VERTEX
  8
Layer 0
 10
0.275615
 20
1.909930
 30
0.000000
  0
SEQEND
  0
POLYLINE
  8
Layer 0
 66
     1
 10
0.000000
 20
0.000000
 30
0.000000
  0
VERTEX
  8
Layer 0
 10
0.275615
 20
1.909930
 30
0.000000
  0
VERTEX
  8
Layer 0
 10
0.281316
 20
1.922009
 30
0.000000
  0
VERTEX
  8
Layer 0
 10
0.287016
 20
1.934084
 30
0.000000
  0
SEQEND
  0
POLYLINE
  8
Layer 0
 66
     1
 10
0.000000
 20
0.000000
 30
0.000000
  0
VERTEX
  8
Layer 0
 10
0.287016
 20
1.934084
 30
0.000000
  0
VERTEX
  8
Layer 0
 10
0.301166
 20
1.955843
 30
0.000000
  0
VERTEX
  8
Layer 0
 10
0.315316
 20
1.977603
 30
0.000000
  0
SEQEND
  0
POLYLINE
  8
Layer 0
 66
     1
 10
0.000000
 20
0.000000
 30
0.000000
  0
VERTEX
  8
Layer 0
 10
0.315316
 20
1.977603
 30
0.000000
  0
VERTEX
  8
Layer 0
 10
0.331768
 20
1.997678
 30
0.000000
  0
VERTEX
  8
Layer 0
 10
0.348217
 20
2.017757
 30
0.000000
  0
SEQEND
  0
POLYLINE
  8
Layer 0
 66
     1
 10
0.000000
 20
0.000000
 30
0.000000
  0
VERTEX
  8
Layer 0
 10
0.348217
 20
2.017757
 30
0.000000
  0
VERTEX
  8
Layer 0
 10
0.376993
 20
2.050044
 30
0.000000
  0
VERTEX
  8
Layer 0
 10
0.405768
 20
2.082332
 30
0.000000
  0
VERTEX
  8
Layer 0
 10
0.420690
 20
2.099076
 30
0.000000
  0
VERTEX
  8
Layer 0
 10
0.435611
 20
2.115824
 30
0.000000
  0
VERTEX
  8
Layer 0
 10
0.455945
 20
2.138639
 30
0.000000
  0
VERTEX
  8
Layer 0
 10
0.476280
 20
2.161458
 30
0.000000
  0
VERTEX
  8
Layer 0
 10
0.505398
 20
2.194139
 30
0.000000
  0
VERTEX
  8
Layer 0
 10
0.534516
 20
2.226820
 30
0.000000
  0
SEQEND
  0
POLYLINE
  8
Layer 0
 66
     1
 10
0.000000
 20
0.000000
 30
0.000000
  0
VERTEX
  8
Layer 0
 10
0.534516
 20
2.226820
 30
0.000000
  0
VERTEX
  8
Layer 0
 10
0.575217
 20
2.271788
 30
0.000000
  0
VERTEX
  8
Layer 0
 10
0.615914
 20
2.316757
 30
0.000000
  0
SEQEND
  0
POLYLINE
  8
Layer 0
 66
     1
 10
0.000000
 20
0.000000
 30
0.000000
  0
VERTEX
  8
Layer 0
 10
0.615914
 20
2.316757
 30
0.000000
  0
VERTEX
  8
Layer 0
 10
0.658465
 20
2.360052
 30
0.000000
  0
VERTEX
  8
Layer 0
 10
0.701016
 20
2.403347
 30
0.000000
  0
SEQEND
  0
POLYLINE
  8
Layer 0
 66
     1
 10
0.000000
 20
0.000000
 30
0.000000
  0
VERTEX
  8
Layer 0
 10
1.481115
 20
1.518402
 30
0.000000
  0
VERTEX
  8
Layer 0
 10
1.475068
 20
1.511812
 30
0.000000
  0
VERTEX
  8
Layer 0
 10
1.469016
 20
1.505221
 30
0.000000
  0
SEQEND
  0
POLYLINE
  8
Layer 0
 66
     1
 10
0.000000
 20
0.000000
 30
0.000000
  0
VERTEX
  8
Layer 0
 10
1.469016
 20
1.505221
 30
0.000000
  0
VERTEX
  8
Layer 0
 10
1.462068
 20
1.499623
 30
0.000000
  0
VERTEX
  8
Layer 0
 10
1.455115
 20
1.494021
 30
0.000000
  0
SEQEND
  0
POLYLINE
  8
Layer 0
 66
     1
 10
0.000000
 20
0.000000
 30
0.000000
  0
VERTEX
  8
Layer 0
 10
1.455115
 20
1.494021
 30
0.000000
  0
VERTEX
  8
Layer 0
 10
1.426965
 20
1.472422
 30
0.000000
  0
VERTEX
  8
Layer 0
 10
1.398816
 20
1.450824
 30
0.000000
  0
SEQEND
  0
POLYLINE
  8
Layer 0
 66
     1
 10
0.000000
 20
0.000000
 30
0.000000
  0
VERTEX
  8
Layer 0
 10
1.398816
 20
1.450824
 30
0.000000
  0
VERTEX
  8
Layer 0
 10
1.375481
 20
1.431312
 30
0.000000
  0
VERTEX
  8
Layer 0
 10
1.352146
 20
1.411800
 30
0.000000
  0
VERTEX
  8
Layer 0
 10
1.323320
 20
1.387694
 30
0.000000
  0
VERTEX
  8
Layer 0
 10
1.294489
 20
1.363588
 30
0.000000
  0
VERTEX
  8
Layer 0
 10
1.267965
 20
1.341410
 30
0.000000
  0
VERTEX
  8
Layer 0
 10
1.241442
 20
1.319229
 30
0.000000
  0
VERTEX
  8
Layer 0
 10
1.207229
 20
1.290623
 30
0.000000
  0
VERTEX
  8
Layer 0
 10
1.173016
 20
1.262013
 30
0.000000
  0
SEQEND
  0
POLYLINE
  8
Layer 0
 66
     1
 10
0.000000
 20
0.000000
 30
0.000000
  0
VERTEX
  8
Layer 0
 10
1.173016
 20
1.262013
 30
0.000000
  0
VERTEX
  8
Layer 0
 10
1.148485
 20
1.241391
 30
0.000000
  0
VERTEX
  8
Layer 0
 10
1.123949
 20
1.220765
 30
0.000000
  0
VERTEX
  8
Layer 0
 10
1.094591
 20
1.196084
 30
0.000000
  0
VERTEX
  8
Layer 0
 10
1.065229
 20
1.171399
 30
0.000000
  0
VERTEX
  8
Layer 0
 10
1.049131
 20
1.157863
 30
0.000000
  0
VERTEX
  8
Layer 0
 10
1.033028
 20
1.144328
 30
0.000000
  0
VERTEX
  8
Layer 0
 10
1.011560
 20
1.126280
 30
0.000000
  0
VERTEX
  8
Layer 0
 10
0.990091
 20
1.108233
 30
0.000000
  0
VERTEX
  8
Layer 0
 10
0.957205
 20
1.080588
 30
0.000000
  0
VERTEX
  8
Layer 0
 10
0.924316
 20
1.052942
 30
0.000000
  0
SEQEND
  0
POLYLINE
  8
Layer 0
 66
     1
 10
0.000000
 20
0.000000
 30
0.000000
  0
VERTEX
  8
Layer 0
 10
0.924316
 20
1.052942
 30
0.000000
  0
VERTEX
  8
Layer 0
 10
0.897016
 20
1.027564
 30
0.000000
  0
VERTEX
  8
Layer 0
 10
0.869717
 20
1.002182
 30
0.000000
  0
SEQEND
  0
POLYLINE
  8
Layer 0
 66
     1
 10
0.000000
 20
0.000000
 30
0.000000
  0
VERTEX
  8
Layer 0
 10
0.869717
 20
1.002182
 30
0.000000
  0
VERTEX
  8
Layer 0
 10
0.864568
 20
0.996147
 30
0.000000
  0
VERTEX
  8
Layer 0
 10
0.859414
 20
0.990111
 30
0.000000
  0
SEQEND
  0
POLYLINE
  8
Layer 0
 66
     1
 10
0.000000
 20
0.000000
 30
0.000000
  0
VERTEX
  8
Layer 0
 10
0.859414
 20
0.990111
 30
0.000000
  0
VERTEX
  8
Layer 0
 10
0.855264
 20
0.983347
 30
0.000000
  0
VERTEX
  8
Layer 0
 10
0.851115
 20
0.976584
 30
0.000000
  0
SEQEND
  0
POLYLINE
  8
Layer 0
 66
     1
 10
0.000000
 20
0.000000
 30
0.000000
  0
VERTEX
  8
Layer 0
 10
0.851115
 20
0.976584
 30
0.000000
  0
VERTEX
  8
Layer 0
 10
0.769615
 20
0.976584
 30
0.000000
  0
VERTEX
  8
Layer 0
 10
0.688115
 20
0.976584
 30
0.000000
  0
SEQEND
  0
POLYLINE
  8
Layer 0
 66
     1
 10
0.000000
 20
0.000000
 30
0.000000
  0
VERTEX
  8
Layer 0
 10
0.688115
 20
0.976584
 30
0.000000
  0
VERTEX
  8
Layer 0
 10
0.701764
 20
0.982265
 30
0.000000
  0
VERTEX
  8
Layer 0
 10
0.715414
 20
0.987942
 30
0.000000
  0
SEQEND
  0
POLYLINE
  8
Layer 0
 66
     1
 10
0.000000
 20
0.000000
 30
0.000000
  0
VERTEX
  8
Layer 0
 10
0.715414
 20
0.987942
 30
0.000000
  0
VERTEX
  8
Layer 0
 10
0.727965
 20
0.995737
 30
0.000000
  0
VERTEX
  8
Layer 0
 10
0.740516
 20
1.003532
 30
0.000000
  0
SEQEND
  0
POLYLINE
  8
Layer 0
 66
     1
 10
0.000000
 20
0.000000
 30
0.000000
  0
VERTEX
  8
Layer 0
 10
0.740516
 20
1.003532
 30
0.000000
  0
VERTEX
  8
Layer 0
 10
0.784166
 20
1.039158
 30
0.000000
  0
VERTEX
  8
Layer 0
 10
0.827816
 20
1.074780
 30
0.000000
  0
SEQEND
  0
POLYLINE
  8
Layer 0
 66
     1
 10
0.000000
 20
0.000000
 30
0.000000
  0
VERTEX
  8
Layer 0
 10
0.827816
 20
1.074780
 30
0.000000
  0
VERTEX
  8
Layer 0
 10
0.871918
 20
1.110769
 30
0.000000
  0
VERTEX
  8
Layer 0
 10
0.916016
 20
1.146753
 30
0.000000
  0
SEQEND
  0
POLYLINE
  8
Layer 0
 66
     1
 10
0.000000
 20
0.000000
 30
0.000000
  0
VERTEX
  8
Layer 0
 10
0.916016
 20
1.146753
 30
0.000000
  0
VERTEX
  8
Layer 0
 10
0.959217
 20
1.183765
 30
0.000000
  0
VERTEX
  8
Layer 0
 10
1.002414
 20
1.220773
 30
0.000000
  0
SEQEND
  0
POLYLINE
  8
Layer 0
 66
     1
 10
0.000000
 20
0.000000
 30
0.000000
  0
VERTEX
  8
Layer 0
 10
1.002414
 20
1.220773
 30
0.000000
  0
VERTEX
  8
Layer 0
 10
1.018516
 20
1.235509
 30
0.000000
  0
VERTEX
  8
Layer 0
 10
1.034615
 20
1.250241
 30
0.000000
  0
SEQEND
  0
POLYLINE
  8
Layer 0
 66
     1
 10
0.000000
 20
0.000000
 30
0.000000
  0
VERTEX
  8
Layer 0
 10
1.034615
 20
1.250241
 30
0.000000
  0
VERTEX
  8
Layer 0
 10
1.048918
 20
1.266769
 30
0.000000
  0
VERTEX
  8
Layer 0
 10
1.063217
 20
1.283292
 30
0.000000
  0
SEQEND
  0
POLYLINE
  8
Layer 0
 66
     1
 10
0.000000
 20
0.000000
 30
0.000000
  0
VERTEX
  8
Layer 0
 10
1.063217
 20
1.283292
 30
0.000000
  0
VERTEX
  8
Layer 0
 10
1.075418
 20
1.301375
 30
0.000000
  0
VERTEX
  8
Layer 0
 10
1.087615
 20
1.319454
 30
0.000000
  0
SEQEND
  0
POLYLINE
  8
Layer 0
 66
     1
 10
0.000000
 20
0.000000
 30
0.000000
  0
VERTEX
  8
Layer 0
 10
1.087615
 20
1.319454
 30
0.000000
  0
VERTEX
  8
Layer 0
 10
1.094367
 20
1.343076
 30
0.000000
  0
VERTEX
  8
Layer 0
 10
1.101115
 20
1.366694
 30
0.000000
  0
SEQEND
  0
POLYLINE
  8
Layer 0
 66
     1
 10
0.000000
 20
0.000000
 30
0.000000
  0
VERTEX
  8
Layer 0
 10
1.101115
 20
1.366694
 30
0.000000
  0
VERTEX
  8
Layer 0
 10
1.115816
 20
1.386099
 30
0.000000
  0
VERTEX
  8
Layer 0
 10
1.130516
 20
1.405501
 30
0.000000
  0
SEQEND
  0
POLYLINE
  8
Layer 0
 66
     1
 10
0.000000
 20
0.000000
 30
0.000000
  0
VERTEX
  8
Layer 0
 10
1.130516
 20
1.405501
 30
0.000000
  0
VERTEX
  8
Layer 0
 10
1.132816
 20
1.410418
 30
0.000000
  0
VERTEX
  8
Layer 0
 10
1.135115
 20
1.415332
 30
0.000000
  0
SEQEND
  0
POLYLINE
  8
Layer 0
 66
     1
 10
0.000000
 20
0.000000
 30
0.000000
  0
VERTEX
  8
Layer 0
 10
1.135115
 20
1.415332
 30
0.000000
  0
VERTEX
  8
Layer 0
 10
1.134764
 20
1.420737
 30
0.000000
  0
VERTEX
  8
Layer 0
 10
1.134414
 20
1.426143
 30
0.000000
  0
SEQEND
  0
POLYLINE
  8
Layer 0
 66
     1
 10
0.000000
 20
0.000000
 30
0.000000
  0
VERTEX
  8
Layer 0
 10
1.134414
 20
1.426143
 30
0.000000
  0
VERTEX
  8
Layer 0
 10
1.131516
 20
1.430729
 30
0.000000
  0
VERTEX
  8
Layer 0
 10
1.128615
 20
1.435312
 30
0.000000
  0
SEQEND
  0
POLYLINE
  8
Layer 0
 66
     1
 10
0.000000
 20
0.000000
 30
0.000000
  0
VERTEX
  8
Layer 0
 10
1.128615
 20
1.435312
 30
0.000000
  0
VERTEX
  8
Layer 0
 10
1.123068
 20
1.436450
 30
0.000000
  0
VERTEX
  8
Layer 0
 10
1.117516
 20
1.437584
 30
0.000000
  0
SEQEND
  0
POLYLINE
  8
Layer 0
 66
     1
 10
0.000000
 20
0.000000
 30
0.000000
  0
VERTEX
  8
Layer 0
 10
1.117516
 20
1.437584
 30
0.000000
  0
VERTEX
  8
Layer 0
 10
1.111918
 20
1.436584
 30
0.000000
  0
VERTEX
  8
Layer 0
 10
1.106316
 20
1.435584
 30
0.000000
  0
SEQEND
  0
POLYLINE
  8
Layer 0
 66
     1
 10
0.000000
 20
0.000000
 30
0.000000
  0
VERTEX
  8
Layer 0
 10
1.106316
 20
1.435584
 30
0.000000
  0
VERTEX
  8
Layer 0
 10
1.101465
 20
1.432588
 30
0.000000
  0
VERTEX
  8
Layer 0
 10
1.096615
 20
1.429591
 30
0.000000
  0
SEQEND
  0
POLYLINE
  8
Layer 0
 66
     1
 10
0.000000
 20
0.000000
 30
0.000000
  0
VERTEX
  8
Layer 0
 10
1.096615
 20
1.429591
 30
0.000000
  0
VERTEX
  8
Layer 0
 10
1.081316
 20
1.414997
 30
0.000000
  0
VERTEX
  8
Layer 0
 10
1.066016
 20
1.400402
 30
0.000000
  0
SEQEND
  0
POLYLINE
  8
Layer 0
 66
     1
 10
0.000000
 20
0.000000
 30
0.000000
  0
VERTEX
  8
Layer 0
 10
1.066016
 20
1.400402
 30
0.000000
  0
VERTEX
  8
Layer 0
 10
1.055016
 20
1.397418
 30
0.000000
  0
VERTEX
  8
Layer 0
 10
1.044016
 20
1.394430
 30
0.000000
  0
SEQEND
  0
POLYLINE
  8
Layer 0
 66
     1
 10
0.000000
 20
0.000000
 30
0.000000
  0
VERTEX
  8
Layer 0
 10
1.044016
 20
1.394430
 30
0.000000
  0
VERTEX
  8
Layer 0
 10
1.032768
 20
1.393036
 30
0.000000
  0
VERTEX
  8
Layer 0
 10
1.021516
 20
1.391643
 30
0.000000
  0
SEQEND
  0
POLYLINE
  8
Layer 0
 66
     1
 10
0.000000
 20
0.000000
 30
0.000000
  0
VERTEX
  8
Layer 0
 10
1.021516
 20
1.391643
 30
0.000000
  0
VERTEX
  8
Layer 0
 10
1.008918
 20
1.387670
 30
0.000000
  0
VERTEX
  8
Layer 0
 10
0.996316
 20
1.383694
 30
0.000000
  0
SEQEND
  0
POLYLINE
  8
Layer 0
 66
     1
 10
0.000000
 20
0.000000
 30
0.000000
  0
VERTEX
  8
Layer 0
 10
0.996316
 20
1.383694
 30
0.000000
  0
VERTEX
  8
Layer 0
 10
0.984418
 20
1.378064
 30
0.000000
  0
VERTEX
  8
Layer 0
 10
0.972516
 20
1.372430
 30
0.000000
  0
SEQEND
  0
POLYLINE
  8
Layer 0
 66
     1
 10
0.000000
 20
0.000000
 30
0.000000
  0
VERTEX
  8
Layer 0
 10
0.972516
 20
1.372430
 30
0.000000
  0
VERTEX
  8
Layer 0
 10
0.961465
 20
1.365253
 30
0.000000
  0
VERTEX
  8
Layer 0
 10
0.950414
 20
1.358072
 30
0.000000
  0
SEQEND
  0
POLYLINE
  8
Layer 0
 66
     1
 10
0.000000
 20
0.000000
 30
0.000000
  0
VERTEX
  8
Layer 0
 10
0.950414
 20
1.358072
 30
0.000000
  0
VERTEX
  8
Layer 0
 10
0.916717
 20
1.333969
 30
0.000000
  0
VERTEX
  8
Layer 0
 10
0.883016
 20
1.309863
 30
0.000000
  0
SEQEND
  0
POLYLINE
  8
Layer 0
 66
     1
 10
0.000000
 20
0.000000
 30
0.000000
  0
VERTEX
  8
Layer 0
 10
0.883016
 20
1.309863
 30
0.000000
  0
VERTEX
  8
Layer 0
 10
0.850418
 20
1.284339
 30
0.000000
  0
VERTEX
  8
Layer 0
 10
0.817816
 20
1.258812
 30
0.000000
  0
SEQEND
  0
POLYLINE
  8
Layer 0
 66
     1
 10
0.000000
 20
0.000000
 30
0.000000
  0
VERTEX
  8
Layer 0
 10
0.817816
 20
1.258812
 30
0.000000
  0
VERTEX
  8
Layer 0
 10
0.752268
 20
1.203690
 30
0.000000
  0
VERTEX
  8
Layer 0
 10
0.686717
 20
1.148564
 30
0.000000
  0
SEQEND
  0
POLYLINE
  8
Layer 0
 66
     1
 10
0.000000
 20
0.000000
 30
0.000000
  0
VERTEX
  8
Layer 0
 10
0.686717
 20
1.148564
 30
0.000000
  0
VERTEX
  8
Layer 0
 10
0.670717
 20
1.134123
 30
0.000000
  0
VERTEX
  8
Layer 0
 10
0.654717
 20
1.119682
 30
0.000000
  0
SEQEND
  0
POLYLINE
  8
Layer 0
 66
     1
 10
0.000000
 20
0.000000
 30
0.000000
  0
VERTEX
  8
Layer 0
 10
0.654717
 20
1.119682
 30
0.000000
  0
VERTEX
  8
Layer 0
 10
0.639918
 20
1.104052
 30
0.000000
  0
VERTEX
  8
Layer 0
 10
0.625115
 20
1.088422
 30
0.000000
  0
SEQEND
  0
POLYLINE
  8
Layer 0
 66
     1
 10
0.000000
 20
0.000000
 30
0.000000
  0
VERTEX
  8
Layer 0
 10
0.625115
 20
1.088422
 30
0.000000
  0
VERTEX
  8
Layer 0
 10
0.616816
 20
1.077387
 30
0.000000
  0
VERTEX
  8
Layer 0
 10
0.608516
 20
1.066351
 30
0.000000
  0
SEQEND
  0
POLYLINE
  8
Layer 0
 66
     1
 10
0.000000
 20
0.000000
 30
0.000000
  0
VERTEX
  8
Layer 0
 10
0.608516
 20
1.066351
 30
0.000000
  0
VERTEX
  8
Layer 0
 10
0.601119
 20
1.054717
 30
0.000000
  0
VERTEX
  8
Layer 0
 10
0.593717
 20
1.043084
 30
0.000000
  0
SEQEND
  0
POLYLINE
  8
Layer 0
 66
     1
 10
0.000000
 20
0.000000
 30
0.000000
  0
VERTEX
  8
Layer 0
 10
0.593717
 20
1.043084
 30
0.000000
  0
VERTEX
  8
Layer 0
 10
0.580816
 20
1.021694
 30
0.000000
  0
VERTEX
  8
Layer 0
 10
0.567914
 20
1.000300
 30
0.000000
  0
SEQEND
  0
POLYLINE
  8
Layer 0
 66
     1
 10
0.000000
 20
0.000000
 30
0.000000
  0
VERTEX
  8
Layer 0
 10
0.567914
 20
1.000300
 30
0.000000
  0
VERTEX
  8
Layer 0
 10
0.559914
 20
0.988442
 30
0.000000
  0
VERTEX
  8
Layer 0
 10
0.551914
 20
0.976584
 30
0.000000
  0
SEQEND
  0
POLYLINE
  8
Layer 0
 66
     1
 10
0.000000
 20
0.000000
 30
0.000000
  0
VERTEX
  8
Layer 0
 10
0.551914
 20
0.976584
 30
0.000000
  0
VERTEX
  8
Layer 0
 10
0.537016
 20
0.975379
 30
0.000000
  0
VERTEX
  8
Layer 0
 10
0.522115
 20
0.974170
 30
0.000000
  0
SEQEND
  0
POLYLINE
  8
Layer 0
 66
     1
 10
0.000000
 20
0.000000
 30
0.000000
  0
VERTEX
  8
Layer 0
 10
0.522115
 20
0.974170
 30
0.000000
  0
VERTEX
  8
Layer 0
 10
0.507217
 20
0.974588
 30
0.000000
  0
VERTEX
  8
Layer 0
 10
0.492316
 20
0.975001
 30
0.000000
  0
SEQEND
  0
POLYLINE
  8
Layer 0
 66
     1
 10
0.000000
 20
0.000000
 30
0.000000
  0
VERTEX
  8
Layer 0
 10
0.492316
 20
0.975001
 30
0.000000
  0
VERTEX
  8
Layer 0
 10
0.489016
 20
0.976536
 30
0.000000
  0
VERTEX
  8
Layer 0
 10
0.485717
 20
0.978072
 30
0.000000
  0
SEQEND
  0
POLYLINE
  8
Layer 0
 66
     1
 10
0.000000
 20
0.000000
 30
0.000000
  0
VERTEX
  8
Layer 0
 10
0.485717
 20
0.978072
 30
0.000000
  0
VERTEX
  8
Layer 0
 10
0.484166
 20
0.981308
 30
0.000000
  0
VERTEX
  8
Layer 0
 10
0.482615
 20
0.984540
 30
0.000000
  0
SEQEND
  0
POLYLINE
  8
Layer 0
 66
     1
 10
0.000000
 20
0.000000
 30
0.000000
  0
VERTEX
  8
Layer 0
 10
0.482615
 20
0.984540
 30
0.000000
  0
VERTEX
  8
Layer 0
 10
0.483367
 20
0.988064
 30
0.000000
  0
VERTEX
  8
Layer 0
 10
0.484115
 20
0.991584
 30
0.000000
  0
SEQEND
  0
POLYLINE
  8
Layer 0
 66
     1
 10
0.000000
 20
0.000000
 30
0.000000
  0
VERTEX
  8
Layer 0
 10
0.484115
 20
0.991584
 30
0.000000
  0
VERTEX
  8
Layer 0
 10
0.487115
 20
1.004273
 30
0.000000
  0
VERTEX
  8
Layer 0
 10
0.490115
 20
1.016962
 30
0.000000
  0
SEQEND
  0
POLYLINE
  8
Layer 0
 66
     1
 10
0.000000
 20
0.000000
 30
0.000000
  0
VERTEX
  8
Layer 0
 10
0.490115
 20
1.016962
 30
0.000000
  0
VERTEX
  8
Layer 0
 10
0.495717
 20
1.028737
 30
0.000000
  0
VERTEX
  8
Layer 0
 10
0.501316
 20
1.040513
 30
0.000000
  0
SEQEND
  0
POLYLINE
  8
Layer 0
 66
     1
 10
0.000000
 20
0.000000
 30
0.000000
  0
VERTEX
  8
Layer 0
 10
0.501316
 20
1.040513
 30
0.000000
  0
VERTEX
  8
Layer 0
 10
0.509268
 20
1.050832
 30
0.000000
  0
VERTEX
  8
Layer 0
 10
0.517217
 20
1.061151
 30
0.000000
  0
SEQEND
  0
POLYLINE
  8
Layer 0
 66
     1
 10
0.000000
 20
0.000000
 30
0.000000
  0
VERTEX
  8
Layer 0
 10
0.517217
 20
1.061151
 30
0.000000
  0
VERTEX
  8
Layer 0
 10
0.551016
 20
1.100288
 30
0.000000
  0
VERTEX
  8
Layer 0
 10
0.584816
 20
1.139422
 30
0.000000
  0
SEQEND
  0
POLYLINE
  8
Layer 0
 66
     1
 10
0.000000
 20
0.000000
 30
0.000000
  0
VERTEX
  8
Layer 0
 10
0.584816
 20
1.139422
 30
0.000000
  0
VERTEX
  8
Layer 0
 10
0.620166
 20
1.177198
 30
0.000000
  0
VERTEX
  8
Layer 0
 10
0.655516
 20
1.214973
 30
0.000000
  0
SEQEND
  0
POLYLINE
  8
Layer 0
 66
     1
 10
0.000000
 20
0.000000
 30
0.000000
  0
VERTEX
  8
Layer 0
 10
0.655516
 20
1.214973
 30
0.000000
  0
VERTEX
  8
Layer 0
 10
0.698717
 20
1.260615
 30
0.000000
  0
VERTEX
  8
Layer 0
 10
0.741914
 20
1.306253
 30
0.000000
  0
SEQEND
  0
POLYLINE
  8
Layer 0
 66
     1
 10
0.000000
 20
0.000000
 30
0.000000
  0
VERTEX
  8
Layer 0
 10
0.741914
 20
1.306253
 30
0.000000
  0
VERTEX
  8
Layer 0
 10
0.786615
 20
1.350430
 30
0.000000
  0
VERTEX
  8
Layer 0
 10
0.831316
 20
1.394603
 30
0.000000
  0
SEQEND
  0
POLYLINE
  8
Layer 0
 66
     1
 10
0.000000
 20
0.000000
 30
0.000000
  0
VERTEX
  8
Layer 0
 10
0.831316
 20
1.394603
 30
0.000000
  0
VERTEX
  8
Layer 0
 10
0.877465
 20
1.437257
 30
0.000000
  0
VERTEX
  8
Layer 0
 10
0.923615
 20
1.479910
 30
0.000000
  0
SEQEND
  0
POLYLINE
  8
Layer 0
 66
     1
 10
0.000000
 20
0.000000
 30
0.000000
  0
VERTEX
  8
Layer 0
 10
0.923615
 20
1.479910
 30
0.000000
  0
VERTEX
  8
Layer 0
 10
0.972217
 20
1.520072
 30
0.000000
  0
VERTEX
  8
Layer 0
 10
1.020816
 20
1.560233
 30
0.000000
  0
SEQEND
  0
POLYLINE
  8
Layer 0
 66
     1
 10
0.000000
 20
0.000000
 30
0.000000
  0
VERTEX
  8
Layer 0
 10
1.020816
 20
1.560233
 30
0.000000
  0
VERTEX
  8
Layer 0
 10
1.071016
 20
1.598347
 30
0.000000
  0
VERTEX
  8
Layer 0
 10
1.121217
 20
1.636462
 30
0.000000
  0
SEQEND
  0
POLYLINE
  8
Layer 0
 66
     1
 10
0.000000
 20
0.000000
 30
0.000000
  0
VERTEX
  8
Layer 0
 10
1.121217
 20
1.636462
 30
0.000000
  0
VERTEX
  8
Layer 0
 10
1.172969
 20
1.672469
 30
0.000000
  0
VERTEX
  8
Layer 0
 10
1.224717
 20
1.708473
 30
0.000000
  0
SEQEND
  0
POLYLINE
  8
Layer 0
 66
     1
 10
0.000000
 20
0.000000
 30
0.000000
  0
VERTEX
  8
Layer 0
 10
1.224717
 20
1.708473
 30
0.000000
  0
VERTEX
  8
Layer 0
 10
1.270666
 20
1.737662
 30
0.000000
  0
VERTEX
  8
Layer 0
 10
1.316615
 20
1.766851
 30
0.000000
  0
SEQEND
  0
POLYLINE
  8
Layer 0
 66
     1
 10
0.000000
 20
0.000000
 30
0.000000
  0
VERTEX
  8
Layer 0
 10
1.316615
 20
1.766851
 30
0.000000
  0
VERTEX
  8
Layer 0
 10
1.328115
 20
1.774107
 30
0.000000
  0
VERTEX
  8
Layer 0
 10
1.339615
 20
1.781363
 30
0.000000
  0
SEQEND
  0
POLYLINE
  8
Layer 0
 66
     1
 10
0.000000
 20
0.000000
 30
0.000000
  0
VERTEX
  8
Layer 0
 10
1.339615
 20
1.781363
 30
0.000000
  0
VERTEX
  8
Layer 0
 10
1.350264
 20
1.789832
 30
0.000000
  0
VERTEX
  8
Layer 0
 10
1.360914
 20
1.798300
 30
0.000000
  0
SEQEND
  0
POLYLINE
  8
Layer 0
 66
     1
 10
0.000000
 20
0.000000
 30
0.000000
  0
VERTEX
  8
Layer 0
 10
1.360914
 20
1.798300
 30
0.000000
  0
VERTEX
  8
Layer 0
 10
1.363568
 20
1.800910
 30
0.000000
  0
VERTEX
  8
Layer 0
 10
1.366217
 20
1.803521
 30
0.000000
  0
SEQEND
  0
POLYLINE
  8
Layer 0
 66
     1
 10
0.000000
 20
0.000000
 30
0.000000
  0
VERTEX
  8
Layer 0
 10
1.366217
 20
1.803521
 30
0.000000
  0
VERTEX
  8
Layer 0
 10
1.367016
 20
1.807158
 30
0.000000
  0
VERTEX
  8
Layer 0
 10
1.367816
 20
1.810792
 30
0.000000
  0
SEQEND
  0
POLYLINE
  8
Layer 0
 66
     1
 10
0.000000
 20
0.000000
 30
0.000000
  0
VERTEX
  8
Layer 0
 10
1.367816
 20
1.810792
 30
0.000000
  0
VERTEX
  8
Layer 0
 10
1.366465
 20
1.814269
 30
0.000000
  0
VERTEX
  8
Layer 0
 10
1.365115
 20
1.817741
 30
0.000000
  0
SEQEND
  0
POLYLINE
  8
Layer 0
 66
     1
 10
0.000000
 20
0.000000
 30
0.000000
  0
VERTEX
  8
Layer 0
 10
1.365115
 20
1.817741
 30
0.000000
  0
VERTEX
  8
Layer 0
 10
1.356615
 20
1.819391
 30
0.000000
  0
VERTEX
  8
Layer 0
 10
1.348115
 20
1.821040
 30
0.000000
  0
SEQEND
  0
POLYLINE
  8
Layer 0
 66
     1
 10
0.000000
 20
0.000000
 30
0.000000
  0
VERTEX
  8
Layer 0
 10
1.348115
 20
1.821040
 30
0.000000
  0
VERTEX
  8
Layer 0
 10
1.339666
 20
1.819151
 30
0.000000
  0
VERTEX
  8
Layer 0
 10
1.331217
 20
1.817261
 30
0.000000
  0
SEQEND
  0
POLYLINE
  8
Layer 0
 66
     1
 10
0.000000
 20
0.000000
 30
0.000000
  0
VERTEX
  8
Layer 0
 10
1.331217
 20
1.817261
 30
0.000000
  0
VERTEX
  8
Layer 0
 10
1.313068
 20
1.810332
 30
0.000000
  0
VERTEX
  8
Layer 0
 10
1.294914
 20
1.803402
 30
0.000000
  0
SEQEND
  0
POLYLINE
  8
Layer 0
 66
     1
 10
0.000000
 20
0.000000
 30
0.000000
  0
VERTEX
  8
Layer 0
 10
1.294914
 20
1.803402
 30
0.000000
  0
VERTEX
  8
Layer 0
 10
1.277568
 20
1.794721
 30
0.000000
  0
VERTEX
  8
Layer 0
 10
1.260217
 20
1.786040
 30
0.000000
  0
SEQEND
  0
POLYLINE
  8
Layer 0
 66
     1
 10
0.000000
 20
0.000000
 30
0.000000
  0
VERTEX
  8
Layer 0
 10
1.260217
 20
1.786040
 30
0.000000
  0
VERTEX
  8
Layer 0
 10
1.233969
 20
1.771162
 30
0.000000
  0
VERTEX
  8
Layer 0
 10
1.207717
 20
1.756280
 30
0.000000
  0
SEQEND
  0
POLYLINE
  8
Layer 0
 66
     1
 10
0.000000
 20
0.000000
 30
0.000000
  0
VERTEX
  8
Layer 0
 10
1.207717
 20
1.756280
 30
0.000000
  0
VERTEX
  8
Layer 0
 10
1.182068
 20
1.740410
 30
0.000000
  0
VERTEX
  8
Layer 0
 10
1.156414
 20
1.724540
 30
0.000000
  0
SEQEND
  0
POLYLINE
  8
Layer 0
 66
     1
 10
0.000000
 20
0.000000
 30
0.000000
  0
VERTEX
  8
Layer 0
 10
1.156414
 20
1.724540
 30
0.000000
  0
VERTEX
  8
Layer 0
 10
1.107264
 20
1.691733
 30
0.000000
  0
VERTEX
  8
Layer 0
 10
1.058115
 20
1.658922
 30
0.000000
  0
SEQEND
  0
POLYLINE
  8
Layer 0
 66
     1
 10
0.000000
 20
0.000000
 30
0.000000
  0
VERTEX
  8
Layer 0
 10
1.058115
 20
1.658922
 30
0.000000
  0
VERTEX
  8
Layer 0
 10
1.010166
 20
1.624351
 30
0.000000
  0
VERTEX
  8
Layer 0
 10
0.962217
 20
1.589780
 30
0.000000
  0
SEQEND
  0
POLYLINE
  8
Layer 0
 66
     1
 10
0.000000
 20
0.000000
 30
0.000000
  0
VERTEX
  8
Layer 0
 10
0.962217
 20
1.589780
 30
0.000000
  0
VERTEX
  8
Layer 0
 10
0.915568
 20
1.553509
 30
0.000000
  0
VERTEX
  8
Layer 0
 10
0.868914
 20
1.517233
 30
0.000000
  0
SEQEND
  0
POLYLINE
  8
Layer 0
 66
     1
 10
0.000000
 20
0.000000
 30
0.000000
  0
VERTEX
  8
Layer 0
 10
0.868914
 20
1.517233
 30
0.000000
  0
VERTEX
  8
Layer 0
 10
0.813717
 20
1.471430
 30
0.000000
  0
VERTEX
  8
Layer 0
 10
0.758516
 20
1.425623
 30
0.000000
  0
SEQEND
  0
POLYLINE
  8
Layer 0
 66
     1
 10
0.000000
 20
0.000000
 30
0.000000
  0
VERTEX
  8
Layer 0
 10
0.758516
 20
1.425623
 30
0.000000
  0
VERTEX
  8
Layer 0
 10
0.704568
 20
1.378347
 30
0.000000
  0
VERTEX
  8
Layer 0
 10
0.650615
 20
1.331072
 30
0.000000
  0
SEQEND
  0
POLYLINE
  8
Layer 0
 66
     1
 10
0.000000
 20
0.000000
 30
0.000000
  0
VERTEX
  8
Layer 0
 10
0.650615
 20
1.331072
 30
0.000000
  0
VERTEX
  8
Layer 0
 10
0.597965
 20
1.282359
 30
0.000000
  0
VERTEX
  8
Layer 0
 10
0.545316
 20
1.233643
 30
0.000000
  0
SEQEND
  0
POLYLINE
  8
Layer 0
 66
     1
 10
0.000000
 20
0.000000
 30
0.000000
  0
VERTEX
  8
Layer 0
 10
0.545316
 20
1.233643
 30
0.000000
  0
VERTEX
  8
Layer 0
 10
0.510068
 20
1.199072
 30
0.000000
  0
VERTEX
  8
Layer 0
 10
0.474816
 20
1.164501
 30
0.000000
  0
SEQEND
  0
POLYLINE
  8
Layer 0
 66
     1
 10
0.000000
 20
0.000000
 30
0.000000
  0
VERTEX
  8
Layer 0
 10
0.474816
 20
1.164501
 30
0.000000
  0
VERTEX
  8
Layer 0
 10
0.441418
 20
1.128127
 30
0.000000
  0
VERTEX
  8
Layer 0
 10
0.408016
 20
1.091753
 30
0.000000
  0
SEQEND
  0
POLYLINE
  8
Layer 0
 66
     1
 10
0.000000
 20
0.000000
 30
0.000000
  0
VERTEX
  8
Layer 0
 10
0.408016
 20
1.091753
 30
0.000000
  0
VERTEX
  8
Layer 0
 10
0.376568
 20
1.053670
 30
0.000000
  0
VERTEX
  8
Layer 0
 10
0.345115
 20
1.015584
 30
0.000000
  0
SEQEND
  0
POLYLINE
  8
Layer 0
 66
     1
 10
0.000000
 20
0.000000
 30
0.000000
  0
VERTEX
  8
Layer 0
 10
0.345115
 20
1.015584
 30
0.000000
  0
VERTEX
  8
Layer 0
 10
0.332068
 20
1.066540
 30
0.000000
  0
VERTEX
  8
Layer 0
 10
0.319016
 20
1.117493
 30
0.000000
  0
SEQEND
  0
POLYLINE
  8
Layer 0
 66
     1
 10
0.000000
 20
0.000000
 30
0.000000
  0
VERTEX
  8
Layer 0
 10
0.319016
 20
1.117493
 30
0.000000
  0
VERTEX
  8
Layer 0
 10
0.309568
 20
1.159540
 30
0.000000
  0
VERTEX
  8
Layer 0
 10
0.300115
 20
1.201584
 30
0.000000
  0
SEQEND
  0
POLYLINE
  8
Layer 0
 66
     1
 10
0.000000
 20
0.000000
 30
0.000000
  0
VERTEX
  8
Layer 0
 10
0.300115
 20
1.201584
 30
0.000000
  0
VERTEX
  8
Layer 0
 10
0.343867
 20
1.242930
 30
0.000000
  0
VERTEX
  8
Layer 0
 10
0.387615
 20
1.284273
 30
0.000000
  0
SEQEND
  0
POLYLINE
  8
Layer 0
 66
     1
 10
0.000000
 20
0.000000
 30
0.000000
  0
VERTEX
  8
Layer 0
 10
0.387615
 20
1.284273
 30
0.000000
  0
VERTEX
  8
Layer 0
 10
0.432465
 20
1.324379
 30
0.000000
  0
VERTEX
  8
Layer 0
 10
0.477316
 20
1.364481
 30
0.000000
  0
SEQEND
  0
POLYLINE
  8
Layer 0
 66
     1
 10
0.000000
 20
0.000000
 30
0.000000
  0
VERTEX
  8
Layer 0
 10
0.477316
 20
1.364481
 30
0.000000
  0
VERTEX
  8
Layer 0
 10
0.550615
 20
1.427339
 30
0.000000
  0
VERTEX
  8
Layer 0
 10
0.623914
 20
1.490194
 30
0.000000
  0
SEQEND
  0
POLYLINE
  8
Layer 0
 66
     1
 10
0.000000
 20
0.000000
 30
0.000000
  0
VERTEX
  8
Layer 0
 10
0.623914
 20
1.490194
 30
0.000000
  0
VERTEX
  8
Layer 0
 10
0.699414
 20
1.550312
 30
0.000000
  0
VERTEX
  8
Layer 0
 10
0.774914
 20
1.610430
 30
0.000000
  0
SEQEND
  0
POLYLINE
  8
Layer 0
 66
     1
 10
0.000000
 20
0.000000
 30
0.000000
  0
VERTEX
  8
Layer 0
 10
0.774914
 20
1.610430
 30
0.000000
  0
VERTEX
  8
Layer 0
 10
0.831615
 20
1.651678
 30
0.000000
  0
VERTEX
  8
Layer 0
 10
0.888316
 20
1.692922
 30
0.000000
  0
SEQEND
  0
POLYLINE
  8
Layer 0
 66
     1
 10
0.000000
 20
0.000000
 30
0.000000
  0
VERTEX
  8
Layer 0
 10
0.888316
 20
1.692922
 30
0.000000
  0
VERTEX
  8
Layer 0
 10
0.946918
 20
1.731422
 30
0.000000
  0
VERTEX
  8
Layer 0
 10
1.005516
 20
1.769922
 30
0.000000
  0
SEQEND
  0
POLYLINE
  8
Layer 0
 66
     1
 10
0.000000
 20
0.000000
 30
0.000000
  0
VERTEX
  8
Layer 0
 10
1.005516
 20
1.769922
 30
0.000000
  0
VERTEX
  8
Layer 0
 10
1.065867
 20
1.805599
 30
0.000000
  0
VERTEX
  8
Layer 0
 10
1.126217
 20
1.841273
 30
0.000000
  0
SEQEND
  0
POLYLINE
  8
Layer 0
 66
     1
 10
0.000000
 20
0.000000
 30
0.000000
  0
VERTEX
  8
Layer 0
 10
1.126217
 20
1.841273
 30
0.000000
  0
VERTEX
  8
Layer 0
 10
1.165768
 20
1.861887
 30
0.000000
  0
VERTEX
  8
Layer 0
 10
1.205316
 20
1.882501
 30
0.000000
  0
SEQEND
  0
POLYLINE
  8
Layer 0
 66
     1
 10
0.000000
 20
0.000000
 30
0.000000
  0
VERTEX
  8
Layer 0
 10
1.205316
 20
1.882501
 30
0.000000
  0
VERTEX
  8
Layer 0
 10
1.245465
 20
1.901922
 30
0.000000
  0
VERTEX
  8
Layer 0
 10
1.285615
 20
1.921343
 30
0.000000
  0
SEQEND
  0
POLYLINE
  8
Layer 0
 66
     1
 10
0.000000
 20
0.000000
 30
0.000000
  0
VERTEX
  8
Layer 0
 10
1.285615
 20
1.921343
 30
0.000000
  0
VERTEX
  8
Layer 0
 10
1.341217
 20
1.948568
 30
0.000000
  0
VERTEX
  8
Layer 0
 10
1.396816
 20
1.975792
 30
0.000000
  0
SEQEND
  0
POLYLINE
  8
Layer 0
 66
     1
 10
0.000000
 20
0.000000
 30
0.000000
  0
VERTEX
  8
Layer 0
 10
1.396816
 20
1.975792
 30
0.000000
  0
VERTEX
  8
Layer 0
 10
1.407816
 20
1.982485
 30
0.000000
  0
VERTEX
  8
Layer 0
 10
1.418816
 20
1.989178
 30
0.000000
  0
SEQEND
  0
POLYLINE
  8
Layer 0
 66
     1
 10
0.000000
 20
0.000000
 30
0.000000
  0
VERTEX
  8
Layer 0
 10
1.418816
 20
1.989178
 30
0.000000
  0
VERTEX
  8
Layer 0
 10
1.427516
 20
1.998678
 30
0.000000
  0
VERTEX
  8
Layer 0
 10
1.436217
 20
2.008178
 30
0.000000
  0
SEQEND
  0
POLYLINE
  8
Layer 0
 66
     1
 10
0.000000
 20
0.000000
 30
0.000000
  0
VERTEX
  8
Layer 0
 10
1.436217
 20
2.008178
 30
0.000000
  0
VERTEX
  8
Layer 0
 10
1.436568
 20
2.011367
 30
0.000000
  0
VERTEX
  8
Layer 0
 10
1.436914
 20
2.014560
 30
0.000000
  0
SEQEND
  0
POLYLINE
  8
Layer 0
 66
     1
 10
0.000000
 20
0.000000
 30
0.000000
  0
VERTEX
  8
Layer 0
 10
1.436914
 20
2.014560
 30
0.000000
  0
VERTEX
  8
Layer 0
 10
1.435516
 20
2.017434
 30
0.000000
  0
VERTEX
  8
Layer 0
 10
1.434115
 20
2.020308
 30
0.000000
  0
SEQEND
  0
POLYLINE
  8
Layer 0
 66
     1
 10
0.000000
 20
0.000000
 30
0.000000
  0
VERTEX
  8
Layer 0
 10
1.434115
 20
2.020308
 30
0.000000
  0
VERTEX
  8
Layer 0
 10
1.431316
 20
2.021902
 30
0.000000
  0
VERTEX
  8
Layer 0
 10
1.428516
 20
2.023497
 30
0.000000
  0
SEQEND
  0
POLYLINE
  8
Layer 0
 66
     1
 10
0.000000
 20
0.000000
 30
0.000000
  0
VERTEX
  8
Layer 0
 10
1.428516
 20
2.023497
 30
0.000000
  0
VERTEX
  8
Layer 0
 10
1.421418
 20
2.024847
 30
0.000000
  0
VERTEX
  8
Layer 0
 10
1.414316
 20
2.026198
 30
0.000000
  0
SEQEND
  0
POLYLINE
  8
Layer 0
 66
     1
 10
0.000000
 20
0.000000
 30
0.000000
  0
VERTEX
  8
Layer 0
 10
1.414316
 20
2.026198
 30
0.000000
  0
VERTEX
  8
Layer 0
 10
1.407166
 20
2.025107
 30
0.000000
  0
VERTEX
  8
Layer 0
 10
1.400016
 20
2.024017
 30
0.000000
  0
SEQEND
  0
POLYLINE
  8
Layer 0
 66
     1
 10
0.000000
 20
0.000000
 30
0.000000
  0
VERTEX
  8
Layer 0
 10
1.400016
 20
2.024017
 30
0.000000
  0
VERTEX
  8
Layer 0
 10
1.383666
 20
2.018666
 30
0.000000
  0
VERTEX
  8
Layer 0
 10
1.367316
 20
2.013320
 30
0.000000
  0
SEQEND
  0
POLYLINE
  8
Layer 0
 66
     1
 10
0.000000
 20
0.000000
 30
0.000000
  0
VERTEX
  8
Layer 0
 10
1.367316
 20
2.013320
 30
0.000000
  0
VERTEX
  8
Layer 0
 10
1.351465
 20
2.006481
 30
0.000000
  0
VERTEX
  8
Layer 0
 10
1.335615
 20
1.999647
 30
0.000000
  0
SEQEND
  0
POLYLINE
  8
Layer 0
 66
     1
 10
0.000000
 20
0.000000
 30
0.000000
  0
VERTEX
  8
Layer 0
 10
1.335615
 20
1.999647
 30
0.000000
  0
VERTEX
  8
Layer 0
 10
1.270367
 20
1.967540
 30
0.000000
  0
VERTEX
  8
Layer 0
 10
1.205115
 20
1.935430
 30
0.000000
  0
SEQEND
  0
POLYLINE
  8
Layer 0
 66
     1
 10
0.000000
 20
0.000000
 30
0.000000
  0
VERTEX
  8
Layer 0
 10
2.540012
 20
1.900402
 30
0.000000
  0
VERTEX
  8
Layer 0
 10
2.531111
 20
1.897765
 30
0.000000
  0
VERTEX
  8
Layer 0
 10
2.522213
 20
1.895123
 30
0.000000
  0
SEQEND
  0
POLYLINE
  8
Layer 0
 66
     1
 10
0.000000
 20
0.000000
 30
0.000000
  0
VERTEX
  8
Layer 0
 10
2.522213
 20
1.895123
 30
0.000000
  0
VERTEX
  8
Layer 0
 10
2.514111
 20
1.890528
 30
0.000000
  0
VERTEX
  8
Layer 0
 10
2.506012
 20
1.885930
 30
0.000000
  0
SEQEND
  0
POLYLINE
  8
Layer 0
 66
     1
 10
0.000000
 20
0.000000
 30
0.000000
  0
VERTEX
  8
Layer 0
 10
2.506012
 20
1.885930
 30
0.000000
  0
VERTEX
  8
Layer 0
 10
2.469812
 20
1.861253
 30
0.000000
  0
VERTEX
  8
Layer 0
 10
2.433611
 20
1.836572
 30
0.000000
  0
SEQEND
  0
POLYLINE
  8
Layer 0
 66
     1
 10
0.000000
 20
0.000000
 30
0.000000
  0
VERTEX
  8
Layer 0
 10
2.433611
 20
1.836572
 30
0.000000
  0
VERTEX
  8
Layer 0
 10
2.402666
 20
1.814284
 30
0.000000
  0
VERTEX
  8
Layer 0
 10
2.371725
 20
1.791993
 30
0.000000
  0
VERTEX
  8
Layer 0
 10
2.329568
 20
1.761623
 30
0.000000
  0
VERTEX
  8
Layer 0
 10
2.287414
 20
1.731253
 30
0.000000
  0
SEQEND
  0
POLYLINE
  8
Layer 0
 66
     1
 10
0.000000
 20
0.000000
 30
0.000000
  0
VERTEX
  8
Layer 0
 10
2.287414
 20
1.731253
 30
0.000000
  0
VERTEX
  8
Layer 0
 10
2.257520
 20
1.709013
 30
0.000000
  0
VERTEX
  8
Layer 0
 10
2.227627
 20
1.686769
 30
0.000000
  0
VERTEX
  8
Layer 0
 10
2.185272
 20
1.655257
 30
0.000000
  0
VERTEX
  8
Layer 0
 10
2.142914
 20
1.623741
 30
0.000000
  0
SEQEND
  0
POLYLINE
  8
Layer 0
 66
     1
 10
0.000000
 20
0.000000
 30
0.000000
  0
VERTEX
  8
Layer 0
 10
2.142914
 20
1.623741
 30
0.000000
  0
VERTEX
  8
Layer 0
 10
2.104823
 20
1.594253
 30
0.000000
  0
VERTEX
  8
Layer 0
 10
2.066729
 20
1.564761
 30
0.000000
  0
VERTEX
  8
Layer 0
 10
2.022422
 20
1.530462
 30
0.000000
  0
VERTEX
  8
Layer 0
 10
1.978115
 20
1.496162
 30
0.000000
  0
SEQEND
  0
POLYLINE
  8
Layer 0
 66
     1
 10
0.000000
 20
0.000000
 30
0.000000
  0
VERTEX
  8
Layer 0
 10
1.978115
 20
1.496162
 30
0.000000
  0
VERTEX
  8
Layer 0
 10
1.939556
 20
1.464824
 30
0.000000
  0
VERTEX
  8
Layer 0
 10
1.900997
 20
1.433481
 30
0.000000
  0
VERTEX
  8
Layer 0
 10
1.858658
 20
1.399068
 30
0.000000
  0
VERTEX
  8
Layer 0
 10
1.816316
 20
1.364651
 30
0.000000
  0
SEQEND
  0
POLYLINE
  8
Layer 0
 66
     1
 10
0.000000
 20
0.000000
 30
0.000000
  0
VERTEX
  8
Layer 0
 10
1.816316
 20
1.364651
 30
0.000000
  0
VERTEX
  8
Layer 0
 10
1.776615
 20
1.330851
 30
0.000000
  0
VERTEX
  8
Layer 0
 10
1.736914
 20
1.297052
 30
0.000000
  0
SEQEND
  0
POLYLINE
  8
Layer 0
 66
     1
 10
0.000000
 20
0.000000
 30
0.000000
  0
VERTEX
  8
Layer 0
 10
1.736914
 20
1.297052
 30
0.000000
  0
VERTEX
  8
Layer 0
 10
1.698568
 20
1.261647
 30
0.000000
  0
VERTEX
  8
Layer 0
 10
1.660217
 20
1.226241
 30
0.000000
  0
SEQEND
  0
POLYLINE
  8
Layer 0
 66
     1
 10
0.000000
 20
0.000000
 30
0.000000
  0
VERTEX
  8
Layer 0
 10
1.660217
 20
1.226241
 30
0.000000
  0
VERTEX
  8
Layer 0
 10
1.623418
 20
1.189288
 30
0.000000
  0
VERTEX
  8
Layer 0
 10
1.586615
 20
1.152332
 30
0.000000
  0
SEQEND
  0
POLYLINE
  8
Layer 0
 66
     1
 10
0.000000
 20
0.000000
 30
0.000000
  0
VERTEX
  8
Layer 0
 10
1.586615
 20
1.152332
 30
0.000000
  0
VERTEX
  8
Layer 0
 10
1.562816
 20
1.124962
 30
0.000000
  0
VERTEX
  8
Layer 0
 10
1.539016
 20
1.097591
 30
0.000000
  0
SEQEND
  0
POLYLINE
  8
Layer 0
 66
     1
 10
0.000000
 20
0.000000
 30
0.000000
  0
VERTEX
  8
Layer 0
 10
1.539016
 20
1.097591
 30
0.000000
  0
VERTEX
  8
Layer 0
 10
1.517768
 20
1.068221
 30
0.000000
  0
VERTEX
  8
Layer 0
 10
1.496516
 20
1.038851
 30
0.000000
  0
SEQEND
  0
POLYLINE
  8
Layer 0
 66
     1
 10
0.000000
 20
0.000000
 30
0.000000
  0
VERTEX
  8
Layer 0
 10
1.496516
 20
1.038851
 30
0.000000
  0
VERTEX
  8
Layer 0
 10
1.477965
 20
1.007717
 30
0.000000
  0
VERTEX
  8
Layer 0
 10
1.459414
 20
0.976584
 30
0.000000
  0
SEQEND
  0
POLYLINE
  8
Layer 0
 66
     1
 10
0.000000
 20
0.000000
 30
0.000000
  0
VERTEX
  8
Layer 0
 10
1.459414
 20
0.976584
 30
0.000000
  0
VERTEX
  8
Layer 0
 10
1.428154
 20
0.976584
 30
0.000000
  0
VERTEX
  8
Layer 0
 10
1.396890
 20
0.976584
 30
0.000000
  0
VERTEX
  8
Layer 0
 10
1.365571
 20
0.976584
 30
0.000000
  0
VERTEX
  8
Layer 0
 10
1.334249
 20
0.976584
 30
0.000000
  0
VERTEX
  8
Layer 0
 10
1.287682
 20
0.976584
 30
0.000000
  0
VERTEX
  8
Layer 0
 10
1.241115
 20
0.976584
 30
0.000000
  0
SEQEND
  0
POLYLINE
  8
Layer 0
 66
     1
 10
0.000000
 20
0.000000
 30
0.000000
  0
VERTEX
  8
Layer 0
 10
1.241115
 20
0.976584
 30
0.000000
  0
VERTEX
  8
Layer 0
 10
1.288115
 20
1.029584
 30
0.000000
  0
VERTEX
  8
Layer 0
 10
1.335115
 20
1.082584
 30
0.000000
  0
SEQEND
  0
POLYLINE
  8
Layer 0
 66
     1
 10
0.000000
 20
0.000000
 30
0.000000
  0
VERTEX
  8
Layer 0
 10
1.335115
 20
1.082584
 30
0.000000
  0
VERTEX
  8
Layer 0
 10
1.349068
 20
1.083032
 30
0.000000
  0
VERTEX
  8
Layer 0
 10
1.363016
 20
1.083481
 30
0.000000
  0
SEQEND
  0
POLYLINE
  8
Layer 0
 66
     1
 10
0.000000
 20
0.000000
 30
0.000000
  0
VERTEX
  8
Layer 0
 10
1.363016
 20
1.083481
 30
0.000000
  0
VERTEX
  8
Layer 0
 10
1.376666
 20
1.086296
 30
0.000000
  0
VERTEX
  8
Layer 0
 10
1.390316
 20
1.089111
 30
0.000000
  0
SEQEND
  0
POLYLINE
  8
Layer 0
 66
     1
 10
0.000000
 20
0.000000
 30
0.000000
  0
VERTEX
  8
Layer 0
 10
1.390316
 20
1.089111
 30
0.000000
  0
VERTEX
  8
Layer 0
 10
1.403268
 20
1.094206
 30
0.000000
  0
VERTEX
  8
Layer 0
 10
1.416217
 20
1.099300
 30
0.000000
  0
SEQEND
  0
POLYLINE
  8
Layer 0
 66
     1
 10
0.000000
 20
0.000000
 30
0.000000
  0
VERTEX
  8
Layer 0
 10
1.416217
 20
1.099300
 30
0.000000
  0
VERTEX
  8
Layer 0
 10
1.442717
 20
1.115485
 30
0.000000
  0
VERTEX
  8
Layer 0
 10
1.469217
 20
1.131670
 30
0.000000
  0
SEQEND
  0
POLYLINE
  8
Layer 0
 66
     1
 10
0.000000
 20
0.000000
 30
0.000000
  0
VERTEX
  8
Layer 0
 10
1.469217
 20
1.131670
 30
0.000000
  0
VERTEX
  8
Layer 0
 10
1.493666
 20
1.150776
 30
0.000000
  0
VERTEX
  8
Layer 0
 10
1.518115
 20
1.169883
 30
0.000000
  0
SEQEND
  0
POLYLINE
  8
Layer 0
 66
     1
 10
0.000000
 20
0.000000
 30
0.000000
  0
VERTEX
  8
Layer 0
 10
1.518115
 20
1.169883
 30
0.000000
  0
VERTEX
  8
Layer 0
 10
1.596016
 20
1.234678
 30
0.000000
  0
VERTEX
  8
Layer 0
 10
1.673914
 20
1.299473
 30
0.000000
  0
SEQEND
  0
POLYLINE
  8
Layer 0
 66
     1
 10
0.000000
 20
0.000000
 30
0.000000
  0
VERTEX
  8
Layer 0
 10
1.673914
 20
1.299473
 30
0.000000
  0
VERTEX
  8
Layer 0
 10
1.708568
 20
1.328280
 30
0.000000
  0
VERTEX
  8
Layer 0
 10
1.743217
 20
1.357084
 30
0.000000
  0
SEQEND
  0
POLYLINE
  8
Layer 0
 66
     1
 10
0.000000
 20
0.000000
 30
0.000000
  0
VERTEX
  8
Layer 0
 10
1.743217
 20
1.357084
 30
0.000000
  0
VERTEX
  8
Layer 0
 10
1.775816
 20
1.388233
 30
0.000000
  0
VERTEX
  8
Layer 0
 10
1.808414
 20
1.419383
 30
0.000000
  0
SEQEND
  0
POLYLINE
  8
Layer 0
 66
     1
 10
0.000000
 20
0.000000
 30
0.000000
  0
VERTEX
  8
Layer 0
 10
1.808414
 20
1.419383
 30
0.000000
  0
VERTEX
  8
Layer 0
 10
1.815068
 20
1.428588
 30
0.000000
  0
VERTEX
  8
Layer 0
 10
1.821717
 20
1.437792
 30
0.000000
  0
SEQEND
  0
POLYLINE
  8
Layer 0
 66
     1
 10
0.000000
 20
0.000000
 30
0.000000
  0
VERTEX
  8
Layer 0
 10
1.821717
 20
1.437792
 30
0.000000
  0
VERTEX
  8
Layer 0
 10
1.826268
 20
1.448194
 30
0.000000
  0
VERTEX
  8
Layer 0
 10
1.830816
 20
1.458591
 30
0.000000
  0
SEQEND
  0
POLYLINE
  8
Layer 0
 66
     1
 10
0.000000
 20
0.000000
 30
0.000000
  0
VERTEX
  8
Layer 0
 10
1.830816
 20
1.458591
 30
0.000000
  0
VERTEX
  8
Layer 0
 10
1.833068
 20
1.469717
 30
0.000000
  0
VERTEX
  8
Layer 0
 10
1.835316
 20
1.480843
 30
0.000000
  0
SEQEND
  0
POLYLINE
  8
Layer 0
 66
     1
 10
0.000000
 20
0.000000
 30
0.000000
  0
VERTEX
  8
Layer 0
 10
1.835316
 20
1.480843
 30
0.000000
  0
VERTEX
  8
Layer 0
 10
1.840568
 20
1.490682
 30
0.000000
  0
VERTEX
  8
Layer 0
 10
1.845816
 20
1.500521
 30
0.000000
  0
SEQEND
  0
POLYLINE
  8
Layer 0
 66
     1
 10
0.000000
 20
0.000000
 30
0.000000
  0
VERTEX
  8
Layer 0
 10
1.845816
 20
1.500521
 30
0.000000
  0
VERTEX
  8
Layer 0
 10
1.853217
 20
1.508891
 30
0.000000
  0
VERTEX
  8
Layer 0
 10
1.860615
 20
1.517261
 30
0.000000
  0
SEQEND
  0
POLYLINE
  8
Layer 0
 66
     1
 10
0.000000
 20
0.000000
 30
0.000000
  0
VERTEX
  8
Layer 0
 10
1.860615
 20
1.517261
 30
0.000000
  0
VERTEX
  8
Layer 0
 10
1.869717
 20
1.528658
 30
0.000000
  0
VERTEX
  8
Layer 0
 10
1.878816
 20
1.540052
 30
0.000000
  0
SEQEND
  0
POLYLINE
  8
Layer 0
 66
     1
 10
0.000000
 20
0.000000
 30
0.000000
  0
VERTEX
  8
Layer 0
 10
1.878816
 20
1.540052
 30
0.000000
  0
VERTEX
  8
Layer 0
 10
1.881367
 20
1.544088
 30
0.000000
  0
VERTEX
  8
Layer 0
 10
1.883918
 20
1.548123
 30
0.000000
  0
SEQEND
  0
POLYLINE
  8
Layer 0
 66
     1
 10
0.000000
 20
0.000000
 30
0.000000
  0
VERTEX
  8
Layer 0
 10
1.883918
 20
1.548123
 30
0.000000
  0
VERTEX
  8
Layer 0
 10
1.884768
 20
1.552820
 30
0.000000
  0
VERTEX
  8
Layer 0
 10
1.885615
 20
1.557513
 30
0.000000
  0
SEQEND
  0
POLYLINE
  8
Layer 0
 66
     1
 10
0.000000
 20
0.000000
 30
0.000000
  0
VERTEX
  8
Layer 0
 10
1.885615
 20
1.557513
 30
0.000000
  0
VERTEX
  8
Layer 0
 10
1.881965
 20
1.559284
 30
0.000000
  0
VERTEX
  8
Layer 0
 10
1.878316
 20
1.561052
 30
0.000000
  0
SEQEND
  0
POLYLINE
  8
Layer 0
 66
     1
 10
0.000000
 20
0.000000
 30
0.000000
  0
VERTEX
  8
Layer 0
 10
1.878316
 20
1.561052
 30
0.000000
  0
VERTEX
  8
Layer 0
 10
1.874367
 20
1.560434
 30
0.000000
  0
VERTEX
  8
Layer 0
 10
1.870418
 20
1.559812
 30
0.000000
  0
SEQEND
  0
POLYLINE
  8
Layer 0
 66
     1
 10
0.000000
 20
0.000000
 30
0.000000
  0
VERTEX
  8
Layer 0
 10
1.870418
 20
1.559812
 30
0.000000
  0
VERTEX
  8
Layer 0
 10
1.863717
 20
1.557753
 30
0.000000
  0
VERTEX
  8
Layer 0
 10
1.857016
 20
1.555694
 30
0.000000
  0
SEQEND
  0
POLYLINE
  8
Layer 0
 66
     1
 10
0.000000
 20
0.000000
 30
0.000000
  0
VERTEX
  8
Layer 0
 10
1.857016
 20
1.555694
 30
0.000000
  0
VERTEX
  8
Layer 0
 10
1.850717
 20
1.552706
 30
0.000000
  0
VERTEX
  8
Layer 0
 10
1.844418
 20
1.549714
 30
0.000000
  0
SEQEND
  0
POLYLINE
  8
Layer 0
 66
     1
 10
0.000000
 20
0.000000
 30
0.000000
  0
VERTEX
  8
Layer 0
 10
1.844418
 20
1.549714
 30
0.000000
  0
VERTEX
  8
Layer 0
 10
1.822867
 20
1.535729
 30
0.000000
  0
VERTEX
  8
Layer 0
 10
1.801316
 20
1.521741
 30
0.000000
  0
SEQEND
  0
POLYLINE
  8
Layer 0
 66
     1
 10
0.000000
 20
0.000000
 30
0.000000
  0
VERTEX
  8
Layer 0
 10
1.801316
 20
1.521741
 30
0.000000
  0
VERTEX
  8
Layer 0
 10
1.781367
 20
1.520599
 30
0.000000
  0
VERTEX
  8
Layer 0
 10
1.761414
 20
1.519454
 30
0.000000
  0
SEQEND
  0
POLYLINE
  8
Layer 0
 66
     1
 10
0.000000
 20
0.000000
 30
0.000000
  0
VERTEX
  8
Layer 0
 10
1.761414
 20
1.519454
 30
0.000000
  0
VERTEX
  8
Layer 0
 10
1.753764
 20
1.517162
 30
0.000000
  0
VERTEX
  8
Layer 0
 10
1.746115
 20
1.514871
 30
0.000000
  0
SEQEND
  0
POLYLINE
  8
Layer 0
 66
     1
 10
0.000000
 20
0.000000
 30
0.000000
  0
VERTEX
  8
Layer 0
 10
1.746115
 20
1.514871
 30
0.000000
  0
VERTEX
  8
Layer 0
 10
1.738965
 20
1.511288
 30
0.000000
  0
VERTEX
  8
Layer 0
 10
1.731816
 20
1.507702
 30
0.000000
  0
SEQEND
  0
POLYLINE
  8
Layer 0
 66
     1
 10
0.000000
 20
0.000000
 30
0.000000
  0
VERTEX
  8
Layer 0
 10
1.731816
 20
1.507702
 30
0.000000
  0
VERTEX
  8
Layer 0
 10
1.704965
 20
1.489741
 30
0.000000
  0
VERTEX
  8
Layer 0
 10
1.678115
 20
1.471780
 30
0.000000
  0
SEQEND
  0
POLYLINE
  8
Layer 0
 66
     1
 10
0.000000
 20
0.000000
 30
0.000000
  0
VERTEX
  8
Layer 0
 10
1.678115
 20
1.471780
 30
0.000000
  0
VERTEX
  8
Layer 0
 10
1.631068
 20
1.436040
 30
0.000000
  0
VERTEX
  8
Layer 0
 10
1.584016
 20
1.400300
 30
0.000000
  0
SEQEND
  0
POLYLINE
  8
Layer 0
 66
     1
 10
0.000000
 20
0.000000
 30
0.000000
  0
VERTEX
  8
Layer 0
 10
1.584016
 20
1.400300
 30
0.000000
  0
VERTEX
  8
Layer 0
 10
1.537666
 20
1.363662
 30
0.000000
  0
VERTEX
  8
Layer 0
 10
1.491316
 20
1.327021
 30
0.000000
  0
SEQEND
  0
POLYLINE
  8
Layer 0
 66
     1
 10
0.000000
 20
0.000000
 30
0.000000
  0
VERTEX
  8
Layer 0
 10
1.491316
 20
1.327021
 30
0.000000
  0
VERTEX
  8
Layer 0
 10
1.455516
 20
1.298072
 30
0.000000
  0
VERTEX
  8
Layer 0
 10
1.419717
 20
1.269123
 30
0.000000
  0
SEQEND
  0
POLYLINE
  8
Layer 0
 66
     1
 10
0.000000
 20
0.000000
 30
0.000000
  0
VERTEX
  8
Layer 0
 10
1.419717
 20
1.269123
 30
0.000000
  0
VERTEX
  8
Layer 0
 10
1.384717
 20
1.239214
 30
0.000000
  0
VERTEX
  8
Layer 0
 10
1.349717
 20
1.209300
 30
0.000000
  0
SEQEND
  0
POLYLINE
  8
Layer 0
 66
     1
 10
0.000000
 20
0.000000
 30
0.000000
  0
VERTEX
  8
Layer 0
 10
1.349717
 20
1.209300
 30
0.000000
  0
VERTEX
  8
Layer 0
 10
1.334717
 20
1.194084
 30
0.000000
  0
VERTEX
  8
Layer 0
 10
1.319717
 20
1.178863
 30
0.000000
  0
SEQEND
  0
POLYLINE
  8
Layer 0
 66
     1
 10
0.000000
 20
0.000000
 30
0.000000
  0
VERTEX
  8
Layer 0
 10
1.319717
 20
1.178863
 30
0.000000
  0
VERTEX
  8
Layer 0
 10
1.316418
 20
1.174084
 30
0.000000
  0
VERTEX
  8
Layer 0
 10
1.313115
 20
1.169300
 30
0.000000
  0
SEQEND
  0
POLYLINE
  8
Layer 0
 66
     1
 10
0.000000
 20
0.000000
 30
0.000000
  0
VERTEX
  8
Layer 0
 10
1.313115
 20
1.169300
 30
0.000000
  0
VERTEX
  8
Layer 0
 10
1.310867
 20
1.163965
 30
0.000000
  0
VERTEX
  8
Layer 0
 10
1.308615
 20
1.158631
 30
0.000000
  0
SEQEND
  0
POLYLINE
  8
Layer 0
 66
     1
 10
0.000000
 20
0.000000
 30
0.000000
  0
VERTEX
  8
Layer 0
 10
1.308615
 20
1.158631
 30
0.000000
  0
VERTEX
  8
Layer 0
 10
1.306867
 20
1.149076
 30
0.000000
  0
VERTEX
  8
Layer 0
 10
1.305115
 20
1.139521
 30
0.000000
  0
SEQEND
  0
POLYLINE
  8
Layer 0
 66
     1
 10
0.000000
 20
0.000000
 30
0.000000
  0
VERTEX
  8
Layer 0
 10
1.305115
 20
1.139521
 30
0.000000
  0
VERTEX
  8
Layer 0
 10
1.302316
 20
1.130217
 30
0.000000
  0
VERTEX
  8
Layer 0
 10
1.299516
 20
1.120910
 30
0.000000
  0
SEQEND
  0
POLYLINE
  8
Layer 0
 66
     1
 10
0.000000
 20
0.000000
 30
0.000000
  0
VERTEX
  8
Layer 0
 10
1.299516
 20
1.120910
 30
0.000000
  0
VERTEX
  8
Layer 0
 10
1.289316
 20
1.109651
 30
0.000000
  0
VERTEX
  8
Layer 0
 10
1.279115
 20
1.098391
 30
0.000000
  0
SEQEND
  0
POLYLINE
  8
Layer 0
 66
     1
 10
0.000000
 20
0.000000
 30
0.000000
  0
VERTEX
  8
Layer 0
 10
1.279115
 20
1.098391
 30
0.000000
  0
VERTEX
  8
Layer 0
 10
1.267965
 20
1.088119
 30
0.000000
  0
VERTEX
  8
Layer 0
 10
1.256816
 20
1.077843
 30
0.000000
  0
SEQEND
  0
POLYLINE
  8
Layer 0
 66
     1
 10
0.000000
 20
0.000000
 30
0.000000
  0
VERTEX
  8
Layer 0
 10
1.256816
 20
1.077843
 30
0.000000
  0
VERTEX
  8
Layer 0
 10
1.234068
 20
1.053025
 30
0.000000
  0
VERTEX
  8
Layer 0
 10
1.211316
 20
1.028202
 30
0.000000
  0
SEQEND
  0
POLYLINE
  8
Layer 0
 66
     1
 10
0.000000
 20
0.000000
 30
0.000000
  0
VERTEX
  8
Layer 0
 10
1.211316
 20
1.028202
 30
0.000000
  0
VERTEX
  8
Layer 0
 10
1.189717
 20
1.002395
 30
0.000000
  0
VERTEX
  8
Layer 0
 10
1.168115
 20
0.976584
 30
0.000000
  0
SEQEND
  0
POLYLINE
  8
Layer 0
 66
     1
 10
0.000000
 20
0.000000
 30
0.000000
  0
VERTEX
  8
Layer 0
 10
1.168115
 20
0.976584
 30
0.000000
  0
VERTEX
  8
Layer 0
 10
1.129804
 20
0.976584
 30
0.000000
  0
VERTEX
  8
Layer 0
 10
1.091493
 20
0.976584
 30
0.000000
  0
VERTEX
  8
Layer 0
 10
1.056257
 20
0.976584
 30
0.000000
  0
VERTEX
  8
Layer 0
 10
1.021016
 20
0.976584
 30
0.000000
  0
VERTEX
  8
Layer 0
 10
0.959115
 20
0.976584
 30
0.000000
  0
SEQEND
  0
POLYLINE
  8
Layer 0
 66
     1
 10
0.000000
 20
0.000000
 30
0.000000
  0
VERTEX
  8
Layer 0
 10
0.959115
 20
0.976584
 30
0.000000
  0
VERTEX
  8
Layer 0
 10
0.975316
 20
0.998300
 30
0.000000
  0
SEQEND
  0
POLYLINE
  8
Layer 0
 66
     1
 10
0.000000
 20
0.000000
 30
0.000000
  0
VERTEX
  8
Layer 0
 10
0.975316
 20
0.998300
 30
0.000000
  0
VERTEX
  8
Layer 0
 10
0.996867
 20
1.019040
 30
0.000000
  0
VERTEX
  8
Layer 0
 10
1.018414
 20
1.039780
 30
0.000000
  0
SEQEND
  0
POLYLINE
  8
Layer 0
 66
     1
 10
0.000000
 20
0.000000
 30
0.000000
  0
VERTEX
  8
Layer 0
 10
1.018414
 20
1.039780
 30
0.000000
  0
VERTEX
  8
Layer 0
 10
1.043863
 20
1.062088
 30
0.000000
  0
VERTEX
  8
Layer 0
 10
1.069312
 20
1.084395
 30
0.000000
  0
VERTEX
  8
Layer 0
 10
1.091182
 20
1.103564
 30
0.000000
  0
VERTEX
  8
Layer 0
 10
1.113052
 20
1.122733
 30
0.000000
  0
VERTEX
  8
Layer 0
 10
1.144473
 20
1.150276
 30
0.000000
  0
VERTEX
  8
Layer 0
 10
1.175894
 20
1.177816
 30
0.000000
  0
VERTEX
  8
Layer 0
 10
1.202957
 20
1.201536
 30
0.000000
  0
VERTEX
  8
Layer 0
 10
1.230016
 20
1.225253
 30
0.000000
  0
SEQEND
  0
POLYLINE
  8
Layer 0
 66
     1
 10
0.000000
 20
0.000000
 30
0.000000
  0
VERTEX
  8
Layer 0
 10
1.230016
 20
1.225253
 30
0.000000
  0
VERTEX
  8
Layer 0
 10
1.258426
 20
1.249969
 30
0.000000
  0
VERTEX
  8
Layer 0
 10
1.286835
 20
1.274686
 30
0.000000
  0
VERTEX
  8
Layer 0
 10
1.306402
 20
1.291710
 30
0.000000
  0
VERTEX
  8
Layer 0
 10
1.325969
 20
1.308733
 30
0.000000
  0
VERTEX
  8
Layer 0
 10
1.341745
 20
1.322458
 30
0.000000
  0
VERTEX
  8
Layer 0
 10
1.357516
 20
1.336182
 30
0.000000
  0
SEQEND
  0
POLYLINE
  8
Layer 0
 66
     1
 10
0.000000
 20
0.000000
 30
0.000000
  0
VERTEX
  8
Layer 0
 10
1.357516
 20
1.336182
 30
0.000000
  0
VERTEX
  8
Layer 0
 10
1.377670
 20
1.352820
 30
0.000000
  0
VERTEX
  8
Layer 0
 10
1.397820
 20
1.369458
 30
0.000000
  0
VERTEX
  8
Layer 0
 10
1.419670
 20
1.387501
 30
0.000000
  0
VERTEX
  8
Layer 0
 10
1.441520
 20
1.405540
 30
0.000000
  0
VERTEX
  8
Layer 0
 10
1.464670
 20
1.424651
 30
0.000000
  0
VERTEX
  8
Layer 0
 10
1.487816
 20
1.443761
 30
0.000000
  0
SEQEND
  0
POLYLINE
  8
Layer 0
 66
     1
 10
0.000000
 20
0.000000
 30
0.000000
  0
VERTEX
  8
Layer 0
 10
1.487816
 20
1.443761
 30
0.000000
  0
VERTEX
  8
Layer 0
 10
1.502965
 20
1.454717
 30
0.000000
  0
VERTEX
  8
Layer 0
 10
1.518115
 20
1.465670
 30
0.000000
  0
SEQEND
  0
POLYLINE
  8
Layer 0
 66
     1
 10
0.000000
 20
0.000000
 30
0.000000
  0
VERTEX
  8
Layer 0
 10
1.518115
 20
1.465670
 30
0.000000
  0
VERTEX
  8
Layer 0
 10
1.534516
 20
1.474658
 30
0.000000
  0
VERTEX
  8
Layer 0
 10
1.550914
 20
1.483643
 30
0.000000
  0
SEQEND
  0
POLYLINE
  8
Layer 0
 66
     1
 10
0.000000
 20
0.000000
 30
0.000000
  0
VERTEX
  8
Layer 0
 10
1.550914
 20
1.483643
 30
0.000000
  0
VERTEX
  8
Layer 0
 10
1.558615
 20
1.485883
 30
0.000000
  0
VERTEX
  8
Layer 0
 10
1.566316
 20
1.488123
 30
0.000000
  0
SEQEND
  0
POLYLINE
  8
Layer 0
 66
     1
 10
0.000000
 20
0.000000
 30
0.000000
  0
VERTEX
  8
Layer 0
 10
1.566316
 20
1.488123
 30
0.000000
  0
VERTEX
  8
Layer 0
 10
1.574367
 20
1.488603
 30
0.000000
  0
VERTEX
  8
Layer 0
 10
1.582414
 20
1.489084
 30
0.000000
  0
SEQEND
  0
POLYLINE
  8
Layer 0
 66
     1
 10
0.000000
 20
0.000000
 30
0.000000
  0
VERTEX
  8
Layer 0
 10
1.582414
 20
1.489084
 30
0.000000
  0
VERTEX
  8
Layer 0
 10
1.595115
 20
1.490044
 30
0.000000
  0
VERTEX
  8
Layer 0
 10
1.607816
 20
1.491001
 30
0.000000
  0
SEQEND
  0
POLYLINE
  8
Layer 0
 66
     1
 10
0.000000
 20
0.000000
 30
0.000000
  0
VERTEX
  8
Layer 0
 10
1.607816
 20
1.491001
 30
0.000000
  0
VERTEX
  8
Layer 0
 10
1.620016
 20
1.494603
 30
0.000000
  0
VERTEX
  8
Layer 0
 10
1.632217
 20
1.498202
 30
0.000000
  0
SEQEND
  0
POLYLINE
  8
Layer 0
 66
     1
 10
0.000000
 20
0.000000
 30
0.000000
  0
VERTEX
  8
Layer 0
 10
1.632217
 20
1.498202
 30
0.000000
  0
VERTEX
  8
Layer 0
 10
1.643418
 20
1.504292
 30
0.000000
  0
VERTEX
  8
Layer 0
 10
1.654615
 20
1.510383
 30
0.000000
  0
SEQEND
  0
POLYLINE
  8
Layer 0
 66
     1
 10
0.000000
 20
0.000000
 30
0.000000
  0
VERTEX
  8
Layer 0
 10
1.654615
 20
1.510383
 30
0.000000
  0
VERTEX
  8
Layer 0
 10
1.685166
 20
1.534170
 30
0.000000
  0
VERTEX
  8
Layer 0
 10
1.715717
 20
1.557954
 30
0.000000
  0
SEQEND
  0
POLYLINE
  8
Layer 0
 66
     1
 10
0.000000
 20
0.000000
 30
0.000000
  0
VERTEX
  8
Layer 0
 10
1.715717
 20
1.557954
 30
0.000000
  0
VERTEX
  8
Layer 0
 10
1.745068
 20
1.583249
 30
0.000000
  0
VERTEX
  8
Layer 0
 10
1.774414
 20
1.608540
 30
0.000000
  0
SEQEND
  0
POLYLINE
  8
Layer 0
 66
     1
 10
0.000000
 20
0.000000
 30
0.000000
  0
VERTEX
  8
Layer 0
 10
1.774414
 20
1.608540
 30
0.000000
  0
VERTEX
  8
Layer 0
 10
1.844367
 20
1.664072
 30
0.000000
  0
VERTEX
  8
Layer 0
 10
1.914316
 20
1.719603
 30
0.000000
  0
SEQEND
  0
POLYLINE
  8
Layer 0
 66
     1
 10
0.000000
 20
0.000000
 30
0.000000
  0
VERTEX
  8
Layer 0
 10
1.914316
 20
1.719603
 30
0.000000
  0
VERTEX
  8
Layer 0
 10
1.941268
 20
1.741958
 30
0.000000
  0
VERTEX
  8
Layer 0
 10
1.968217
 20
1.764312
 30
0.000000
  0
SEQEND
  0
POLYLINE
  8
Layer 0
 66
     1
 10
0.000000
 20
0.000000
 30
0.000000
  0
VERTEX
  8
Layer 0
 10
1.968217
 20
1.764312
 30
0.000000
  0
VERTEX
  8
Layer 0
 10
1.993268
 20
1.788741
 30
0.000000
  0
VERTEX
  8
Layer 0
 10
2.018316
 20
1.813170
 30
0.000000
  0
SEQEND
  0
POLYLINE
  8
Layer 0
 66
     1
 10
0.000000
 20
0.000000
 30
0.000000
  0
VERTEX
  8
Layer 0
 10
2.018316
 20
1.813170
 30
0.000000
  0
VERTEX
  8
Layer 0
 10
2.025568
 20
1.822064
 30
0.000000
  0
VERTEX
  8
Layer 0
 10
2.032816
 20
1.830954
 30
0.000000
  0
SEQEND
  0
POLYLINE
  8
Layer 0
 66
     1
 10
0.000000
 20
0.000000
 30
0.000000
  0
VERTEX
  8
Layer 0
 10
2.032816
 20
1.830954
 30
0.000000
  0
VERTEX
  8
Layer 0
 10
2.038367
 20
1.840973
 30
0.000000
  0
VERTEX
  8
Layer 0
 10
2.043918
 20
1.850993
 30
0.000000
  0
SEQEND
  0
POLYLINE
  8
Layer 0
 66
     1
 10
0.000000
 20
0.000000
 30
0.000000
  0
VERTEX
  8
Layer 0
 10
2.043918
 20
1.850993
 30
0.000000
  0
VERTEX
  8
Layer 0
 10
2.047619
 20
1.861828
 30
0.000000
  0
VERTEX
  8
Layer 0
 10
2.051316
 20
1.872662
 30
0.000000
  0
SEQEND
  0
POLYLINE
  8
Layer 0
 66
     1
 10
0.000000
 20
0.000000
 30
0.000000
  0
VERTEX
  8
Layer 0
 10
2.051316
 20
1.872662
 30
0.000000
  0
VERTEX
  8
Layer 0
 10
2.053166
 20
1.882843
 30
0.000000
  0
VERTEX
  8
Layer 0
 10
2.055016
 20
1.893021
 30
0.000000
  0
SEQEND
  0
POLYLINE
  8
Layer 0
 66
     1
 10
0.000000
 20
0.000000
 30
0.000000
  0
VERTEX
  8
Layer 0
 10
2.055016
 20
1.893021
 30
0.000000
  0
VERTEX
  8
Layer 0
 10
2.058918
 20
1.902603
 30
0.000000
  0
VERTEX
  8
Layer 0
 10
2.062816
 20
1.912182
 30
0.000000
  0
SEQEND
  0
POLYLINE
  8
Layer 0
 66
     1
 10
0.000000
 20
0.000000
 30
0.000000
  0
VERTEX
  8
Layer 0
 10
2.062816
 20
1.912182
 30
0.000000
  0
VERTEX
  8
Layer 0
 10
2.080068
 20
1.931399
 30
0.000000
  0
VERTEX
  8
Layer 0
 10
2.097316
 20
1.950611
 30
0.000000
  0
SEQEND
  0
POLYLINE
  8
Layer 0
 66
     1
 10
0.000000
 20
0.000000
 30
0.000000
  0
VERTEX
  8
Layer 0
 10
2.097316
 20
1.950611
 30
0.000000
  0
VERTEX
  8
Layer 0
 10
2.099666
 20
1.954926
 30
0.000000
  0
VERTEX
  8
Layer 0
 10
2.102016
 20
1.959241
 30
0.000000
  0
SEQEND
  0
POLYLINE
  8
Layer 0
 66
     1
 10
0.000000
 20
0.000000
 30
0.000000
  0
VERTEX
  8
Layer 0
 10
2.102016
 20
1.959241
 30
0.000000
  0
VERTEX
  8
Layer 0
 10
2.103068
 20
1.964032
 30
0.000000
  0
VERTEX
  8
Layer 0
 10
2.104115
 20
1.968824
 30
0.000000
  0
SEQEND
  0
POLYLINE
  8
Layer 0
 66
     1
 10
0.000000
 20
0.000000
 30
0.000000
  0
VERTEX
  8
Layer 0
 10
2.104115
 20
1.968824
 30
0.000000
  0
VERTEX
  8
Layer 0
 10
2.103418
 20
1.972115
 30
0.000000
  0
VERTEX
  8
Layer 0
 10
2.102717
 20
1.975402
 30
0.000000
  0
SEQEND
  0
POLYLINE
  8
Layer 0
 66
     1
 10
0.000000
 20
0.000000
 30
0.000000
  0
VERTEX
  8
Layer 0
 10
2.102717
 20
1.975402
 30
0.000000
  0
VERTEX
  8
Layer 0
 10
2.100166
 20
1.977580
 30
0.000000
  0
VERTEX
  8
Layer 0
 10
2.097615
 20
1.979753
 30
0.000000
  0
SEQEND
  0
POLYLINE
  8
Layer 0
 66
     1
 10
0.000000
 20
0.000000
 30
0.000000
  0
VERTEX
  8
Layer 0
 10
2.097615
 20
1.979753
 30
0.000000
  0
VERTEX
  8
Layer 0
 10
2.090068
 20
1.979383
 30
0.000000
  0
VERTEX
  8
Layer 0
 10
2.082516
 20
1.979013
 30
0.000000
  0
SEQEND
  0
POLYLINE
  8
Layer 0
 66
     1
 10
0.000000
 20
0.000000
 30
0.000000
  0
VERTEX
  8
Layer 0
 10
2.082516
 20
1.979013
 30
0.000000
  0
VERTEX
  8
Layer 0
 10
2.075268
 20
1.976887
 30
0.000000
  0
VERTEX
  8
Layer 0
 10
2.068016
 20
1.974761
 30
0.000000
  0
SEQEND
  0
POLYLINE
  8
Layer 0
 66
     1
 10
0.000000
 20
0.000000
 30
0.000000
  0
VERTEX
  8
Layer 0
 10
2.068016
 20
1.974761
 30
0.000000
  0
VERTEX
  8
Layer 0
 10
2.061465
 20
1.971009
 30
0.000000
  0
VERTEX
  8
Layer 0
 10
2.054914
 20
1.967253
 30
0.000000
  0
SEQEND
  0
POLYLINE
  8
Layer 0
 66
     1
 10
0.000000
 20
0.000000
 30
0.000000
  0
VERTEX
  8
Layer 0
 10
2.054914
 20
1.967253
 30
0.000000
  0
VERTEX
  8
Layer 0
 10
2.045264
 20
1.960383
 30
0.000000
  0
VERTEX
  8
Layer 0
 10
2.035615
 20
1.953513
 30
0.000000
  0
SEQEND
  0
POLYLINE
  8
Layer 0
 66
     1
 10
0.000000
 20
0.000000
 30
0.000000
  0
VERTEX
  8
Layer 0
 10
2.035615
 20
1.953513
 30
0.000000
  0
VERTEX
  8
Layer 0
 10
2.025217
 20
1.947717
 30
0.000000
  0
VERTEX
  8
Layer 0
 10
2.014816
 20
1.941922
 30
0.000000
  0
SEQEND
  0
POLYLINE
  8
Layer 0
 66
     1
 10
0.000000
 20
0.000000
 30
0.000000
  0
VERTEX
  8
Layer 0
 10
2.014816
 20
1.941922
 30
0.000000
  0
VERTEX
  8
Layer 0
 10
1.994068
 20
1.941564
 30
0.000000
  0
VERTEX
  8
Layer 0
 10
1.973316
 20
1.941202
 30
0.000000
  0
SEQEND
  0
POLYLINE
  8
Layer 0
 66
     1
 10
0.000000
 20
0.000000
 30
0.000000
  0
VERTEX
  8
Layer 0
 10
1.973316
 20
1.941202
 30
0.000000
  0
VERTEX
  8
Layer 0
 10
1.965918
 20
1.939383
 30
0.000000
  0
VERTEX
  8
Layer 0
 10
1.958516
 20
1.937564
 30
0.000000
  0
SEQEND
  0
POLYLINE
  8
Layer 0
 66
     1
 10
0.000000
 20
0.000000
 30
0.000000
  0
VERTEX
  8
Layer 0
 10
1.958516
 20
1.937564
 30
0.000000
  0
VERTEX
  8
Layer 0
 10
1.951666
 20
1.934316
 30
0.000000
  0
VERTEX
  8
Layer 0
 10
1.944816
 20
1.931064
 30
0.000000
  0
SEQEND
  0
POLYLINE
  8
Layer 0
 66
     1
 10
0.000000
 20
0.000000
 30
0.000000
  0
VERTEX
  8
Layer 0
 10
1.944816
 20
1.931064
 30
0.000000
  0
VERTEX
  8
Layer 0
 10
1.931418
 20
1.922706
 30
0.000000
  0
VERTEX
  8
Layer 0
 10
1.918016
 20
1.914343
 30
0.000000
  0
SEQEND
  0
POLYLINE
  8
Layer 0
 66
     1
 10
0.000000
 20
0.000000
 30
0.000000
  0
VERTEX
  8
Layer 0
 10
1.918016
 20
1.914343
 30
0.000000
  0
VERTEX
  8
Layer 0
 10
1.905166
 20
1.905135
 30
0.000000
  0
VERTEX
  8
Layer 0
 10
1.892316
 20
1.895922
 30
0.000000
  0
SEQEND
  0
POLYLINE
  8
Layer 0
 66
     1
 10
0.000000
 20
0.000000
 30
0.000000
  0
VERTEX
  8
Layer 0
 10
1.892316
 20
1.895922
 30
0.000000
  0
VERTEX
  8
Layer 0
 10
1.863304
 20
1.873584
 30
0.000000
  0
VERTEX
  8
Layer 0
 10
1.834288
 20
1.851245
 30
0.000000
  0
VERTEX
  8
Layer 0
 10
1.799485
 20
1.824446
 30
0.000000
  0
VERTEX
  8
Layer 0
 10
1.764678
 20
1.797647
 30
0.000000
  0
VERTEX
  8
Layer 0
 10
1.731847
 20
1.772371
 30
0.000000
  0
VERTEX
  8
Layer 0
 10
1.699016
 20
1.747091
 30
0.000000
  0
SEQEND
  0
POLYLINE
  8
Layer 0
 66
     1
 10
0.000000
 20
0.000000
 30
0.000000
  0
VERTEX
  8
Layer 0
 10
1.699016
 20
1.747091
 30
0.000000
  0
VERTEX
  8
Layer 0
 10
1.660312
 20
1.717710
 30
0.000000
  0
VERTEX
  8
Layer 0
 10
1.621607
 20
1.688328
 30
0.000000
  0
VERTEX
  8
Layer 0
 10
1.580863
 20
1.657395
 30
0.000000
  0
VERTEX
  8
Layer 0
 10
1.540115
 20
1.626462
 30
0.000000
  0
SEQEND
  0
POLYLINE
  8
Layer 0
 66
     1
 10
0.000000
 20
0.000000
 30
0.000000
  0
VERTEX
  8
Layer 0
 10
1.540115
 20
1.626462
 30
0.000000
  0
VERTEX
  8
Layer 0
 10
1.531717
 20
1.619036
 30
0.000000
  0
VERTEX
  8
Layer 0
 10
1.523316
 20
1.611611
 30
0.000000
  0
SEQEND
  0
POLYLINE
  8
Layer 0
 66
     1
 10
0.000000
 20
0.000000
 30
0.000000
  0
VERTEX
  8
Layer 0
 10
1.523316
 20
1.611611
 30
0.000000
  0
VERTEX
  8
Layer 0
 10
1.515867
 20
1.603202
 30
0.000000
  0
VERTEX
  8
Layer 0
 10
1.508414
 20
1.594792
 30
0.000000
  0
SEQEND
  0
POLYLINE
  8
Layer 0
 66
     1
 10
0.000000
 20
0.000000
 30
0.000000
  0
VERTEX
  8
Layer 0
 10
1.508414
 20
1.594792
 30
0.000000
  0
VERTEX
  8
Layer 0
 10
1.505217
 20
1.589139
 30
0.000000
  0
VERTEX
  8
Layer 0
 10
1.502016
 20
1.583481
 30
0.000000
  0
SEQEND
  0
POLYLINE
  8
Layer 0
 66
     1
 10
0.000000
 20
0.000000
 30
0.000000
  0
VERTEX
  8
Layer 0
 10
1.502016
 20
1.583481
 30
0.000000
  0
VERTEX
  8
Layer 0
 10
1.500016
 20
1.577288
 30
0.000000
  0
VERTEX
  8
Layer 0
 10
1.498016
 20
1.571091
 30
0.000000
  0
SEQEND
  0
POLYLINE
  8
Layer 0
 66
     1
 10
0.000000
 20
0.000000
 30
0.000000
  0
VERTEX
  8
Layer 0
 10
1.498016
 20
1.571091
 30
0.000000
  0
VERTEX
  8
Layer 0
 10
1.495016
 20
1.557525
 30
0.000000
  0
VERTEX
  8
Layer 0
 10
1.492016
 20
1.543954
 30
0.000000
  0
SEQEND
  0
POLYLINE
  8
Layer 0
 66
     1
 10
0.000000
 20
0.000000
 30
0.000000
  0
VERTEX
  8
Layer 0
 10
1.492016
 20
1.543954
 30
0.000000
  0
VERTEX
  8
Layer 0
 10
1.486568
 20
1.531178
 30
0.000000
  0
VERTEX
  8
Layer 0
 10
1.481115
 20
1.518402
 30
0.000000
  0
SEQEND
  0
POLYLINE
  8
Layer 0
 66
     1
 10
0.000000
 20
0.000000
 30
0.000000
  0
VERTEX
  8
Layer 0
 10
2.400312
 20
3.490417
 30
0.000000
  0
VERTEX
  8
Layer 0
 10
2.385961
 20
3.481922
 30
0.000000
  0
VERTEX
  8
Layer 0
 10
2.371611
 20
3.473426
 30
0.000000
  0
SEQEND
  0
POLYLINE
  8
Layer 0
 66
     1
 10
0.000000
 20
0.000000
 30
0.000000
  0
VERTEX
  8
Layer 0
 10
2.371611
 20
3.473426
 30
0.000000
  0
VERTEX
  8
Layer 0
 10
2.352662
 20
3.459206
 30
0.000000
  0
VERTEX
  8
Layer 0
 10
2.333713
 20
3.444989
 30
0.000000
  0
SEQEND
  0
POLYLINE
  8
Layer 0
 66
     1
 10
0.000000
 20
0.000000
 30
0.000000
  0
VERTEX
  8
Layer 0
 10
2.333713
 20
3.444989
 30
0.000000
  0
VERTEX
  8
Layer 0
 10
2.315564
 20
3.429760
 30
0.000000
  0
VERTEX
  8
Layer 0
 10
2.297414
 20
3.414536
 30
0.000000
  0
SEQEND
  0
POLYLINE
  8
Layer 0
 66
     1
 10
0.000000
 20
0.000000
 30
0.000000
  0
VERTEX
  8
Layer 0
 10
2.297414
 20
3.414536
 30
0.000000
  0
VERTEX
  8
Layer 0
 10
2.273666
 20
3.397902
 30
0.000000
  0
VERTEX
  8
Layer 0
 10
2.249918
 20
3.381269
 30
0.000000
  0
SEQEND
  0
POLYLINE
  8
Layer 0
 66
     1
 10
0.000000
 20
0.000000
 30
0.000000
  0
VERTEX
  8
Layer 0
 10
2.249918
 20
3.381269
 30
0.000000
  0
VERTEX
  8
Layer 0
 10
2.224516
 20
3.367198
 30
0.000000
  0
VERTEX
  8
Layer 0
 10
2.199115
 20
3.353127
 30
0.000000
  0
SEQEND
  0
POLYLINE
  8
Layer 0
 66
     1
 10
0.000000
 20
0.000000
 30
0.000000
  0
VERTEX
  8
Layer 0
 10
2.199115
 20
3.353127
 30
0.000000
  0
VERTEX
  8
Layer 0
 10
2.171910
 20
3.340233
 30
0.000000
  0
VERTEX
  8
Layer 0
 10
2.144701
 20
3.327339
 30
0.000000
  0
VERTEX
  8
Layer 0
 10
2.121910
 20
3.316535
 30
0.000000
  0
VERTEX
  8
Layer 0
 10
2.099115
 20
3.305733
 30
0.000000
  0
VERTEX
  8
Layer 0
 10
2.068717
 20
3.291327
 30
0.000000
  0
VERTEX
  8
Layer 0
 10
2.038316
 20
3.276926
 30
0.000000
  0
SEQEND
  0
POLYLINE
  8
Layer 0
 66
     1
 10
0.000000
 20
0.000000
 30
0.000000
  0
VERTEX
  8
Layer 0
 10
2.038316
 20
3.276926
 30
0.000000
  0
VERTEX
  8
Layer 0
 10
2.009367
 20
3.263072
 30
0.000000
  0
VERTEX
  8
Layer 0
 10
1.980414
 20
3.249217
 30
0.000000
  0
SEQEND
  0
POLYLINE
  8
Layer 0
 66
     1
 10
0.000000
 20
0.000000
 30
0.000000
  0
VERTEX
  8
Layer 0
 10
1.980414
 20
3.249217
 30
0.000000
  0
VERTEX
  8
Layer 0
 10
1.952516
 20
3.233375
 30
0.000000
  0
VERTEX
  8
Layer 0
 10
1.924615
 20
3.217535
 30
0.000000
  0
SEQEND
  0
POLYLINE
  8
Layer 0
 66
     1
 10
0.000000
 20
0.000000
 30
0.000000
  0
VERTEX
  8
Layer 0
 10
1.924615
 20
3.217535
 30
0.000000
  0
VERTEX
  8
Layer 0
 10
1.920268
 20
3.213485
 30
0.000000
  0
VERTEX
  8
Layer 0
 10
1.915918
 20
3.209438
 30
0.000000
  0
SEQEND
  0
POLYLINE
  8
Layer 0
 66
     1
 10
0.000000
 20
0.000000
 30
0.000000
  0
VERTEX
  8
Layer 0
 10
1.915918
 20
3.209438
 30
0.000000
  0
VERTEX
  8
Layer 0
 10
1.915320
 20
3.207465
 30
0.000000
  0
VERTEX
  8
Layer 0
 10
1.914717
 20
3.205497
 30
0.000000
  0
SEQEND
  0
POLYLINE
  8
Layer 0
 66
     1
 10
0.000000
 20
0.000000
 30
0.000000
  0
VERTEX
  8
Layer 0
 10
1.914717
 20
3.205497
 30
0.000000
  0
VERTEX
  8
Layer 0
 10
1.916217
 20
3.204080
 30
0.000000
  0
VERTEX
  8
Layer 0
 10
1.917717
 20
3.202666
 30
0.000000
  0
SEQEND
  0
POLYLINE
  8
Layer 0
 66
     1
 10
0.000000
 20
0.000000
 30
0.000000
  0
VERTEX
  8
Layer 0
 10
1.917717
 20
3.202666
 30
0.000000
  0
VERTEX
  8
Layer 0
 10
1.925469
 20
3.202017
 30
0.000000
  0
VERTEX
  8
Layer 0
 10
1.933217
 20
3.201367
 30
0.000000
  0
SEQEND
  0
POLYLINE
  8
Layer 0
 66
     1
 10
0.000000
 20
0.000000
 30
0.000000
  0
VERTEX
  8
Layer 0
 10
1.933217
 20
3.201367
 30
0.000000
  0
VERTEX
  8
Layer 0
 10
1.954867
 20
3.204370
 30
0.000000
  0
VERTEX
  8
Layer 0
 10
1.976516
 20
3.207379
 30
0.000000
  0
SEQEND
  0
POLYLINE
  8
Layer 0
 66
     1
 10
0.000000
 20
0.000000
 30
0.000000
  0
VERTEX
  8
Layer 0
 10
1.976516
 20
3.207379
 30
0.000000
  0
VERTEX
  8
Layer 0
 10
1.997918
 20
3.211572
 30
0.000000
  0
VERTEX
  8
Layer 0
 10
2.019316
 20
3.215769
 30
0.000000
  0
SEQEND
  0
POLYLINE
  8
Layer 0
 66
     1
 10
0.000000
 20
0.000000
 30
0.000000
  0
VERTEX
  8
Layer 0
 10
2.019316
 20
3.215769
 30
0.000000
  0
VERTEX
  8
Layer 0
 10
2.081867
 20
3.227312
 30
0.000000
  0
VERTEX
  8
Layer 0
 10
2.144414
 20
3.238859
 30
0.000000
  0
SEQEND
  0
POLYLINE
  8
Layer 0
 66
     1
 10
0.000000
 20
0.000000
 30
0.000000
  0
VERTEX
  8
Layer 0
 10
2.144414
 20
3.238859
 30
0.000000
  0
VERTEX
  8
Layer 0
 10
2.191867
 20
3.247434
 30
0.000000
  0
VERTEX
  8
Layer 0
 10
2.239316
 20
3.256009
 30
0.000000
  0
SEQEND
  0
POLYLINE
  8
Layer 0
 66
     1
 10
0.000000
 20
0.000000
 30
0.000000
  0
VERTEX
  8
Layer 0
 10
2.239316
 20
3.256009
 30
0.000000
  0
VERTEX
  8
Layer 0
 10
2.271016
 20
3.262863
 30
0.000000
  0
VERTEX
  8
Layer 0
 10
2.302717
 20
3.269717
 30
0.000000
  0
SEQEND
  0
POLYLINE
  8
Layer 0
 66
     1
 10
0.000000
 20
0.000000
 30
0.000000
  0
VERTEX
  8
Layer 0
 10
2.302717
 20
3.269717
 30
0.000000
  0
VERTEX
  8
Layer 0
 10
2.313867
 20
3.271572
 30
0.000000
  0
VERTEX
  8
Layer 0
 10
2.325012
 20
3.273426
 30
0.000000
  0
SEQEND
  0
POLYLINE
  8
Layer 0
 66
     1
 10
0.000000
 20
0.000000
 30
0.000000
  0
VERTEX
  8
Layer 0
 10
2.325012
 20
3.273426
 30
0.000000
  0
VERTEX
  8
Layer 0
 10
2.336312
 20
3.274280
 30
0.000000
  0
VERTEX
  8
Layer 0
 10
2.347611
 20
3.275139
 30
0.000000
  0
SEQEND
  0
POLYLINE
  8
Layer 0
 66
     1
 10
0.000000
 20
0.000000
 30
0.000000
  0
VERTEX
  8
Layer 0
 10
2.347611
 20
3.275139
 30
0.000000
  0
VERTEX
  8
Layer 0
 10
2.370910
 20
3.275123
 30
0.000000
  0
VERTEX
  8
Layer 0
 10
2.394213
 20
3.275107
 30
0.000000
  0
SEQEND
  0
POLYLINE
  8
Layer 0
 66
     1
 10
0.000000
 20
0.000000
 30
0.000000
  0
VERTEX
  8
Layer 0
 10
2.394213
 20
3.275107
 30
0.000000
  0
VERTEX
  8
Layer 0
 10
2.412961
 20
3.276985
 30
0.000000
  0
VERTEX
  8
Layer 0
 10
2.431713
 20
3.278867
 30
0.000000
  0
SEQEND
  0
POLYLINE
  8
Layer 0
 66
     1
 10
0.000000
 20
0.000000
 30
0.000000
  0
VERTEX
  8
Layer 0
 10
2.431713
 20
3.278867
 30
0.000000
  0
VERTEX
  8
Layer 0
 10
2.450060
 20
3.283328
 30
0.000000
  0
VERTEX
  8
Layer 0
 10
2.468410
 20
3.287788
 30
0.000000
  0
SEQEND
  0
POLYLINE
  8
Layer 0
 66
     1
 10
0.000000
 20
0.000000
 30
0.000000
  0
VERTEX
  8
Layer 0
 10
2.468410
 20
3.287788
 30
0.000000
  0
VERTEX
  8
Layer 0
 10
2.507312
 20
3.305001
 30
0.000000
  0
VERTEX
  8
Layer 0
 10
2.546213
 20
3.322217
 30
0.000000
  0
SEQEND
  0
POLYLINE
  8
Layer 0
 66
     1
 10
0.000000
 20
0.000000
 30
0.000000
  0
VERTEX
  8
Layer 0
 10
2.546213
 20
3.322217
 30
0.000000
  0
VERTEX
  8
Layer 0
 10
2.555363
 20
3.326084
 30
0.000000
  0
VERTEX
  8
Layer 0
 10
2.564512
 20
3.329950
 30
0.000000
  0
SEQEND
  0
POLYLINE
  8
Layer 0
 66
     1
 10
0.000000
 20
0.000000
 30
0.000000
  0
VERTEX
  8
Layer 0
 10
2.564512
 20
3.329950
 30
0.000000
  0
VERTEX
  8
Layer 0
 10
2.574363
 20
3.331320
 30
0.000000
  0
VERTEX
  8
Layer 0
 10
2.584213
 20
3.332690
 30
0.000000
  0
SEQEND
  0
POLYLINE
  8
Layer 0
 66
     1
 10
0.000000
 20
0.000000
 30
0.000000
  0
VERTEX
  8
Layer 0
 10
2.584213
 20
3.332690
 30
0.000000
  0
VERTEX
  8
Layer 0
 10
2.594060
 20
3.331489
 30
0.000000
  0
VERTEX
  8
Layer 0
 10
2.603910
 20
3.330287
 30
0.000000
  0
SEQEND
  0
POLYLINE
  8
Layer 0
 66
     1
 10
0.000000
 20
0.000000
 30
0.000000
  0
VERTEX
  8
Layer 0
 10
2.603910
 20
3.330287
 30
0.000000
  0
VERTEX
  8
Layer 0
 10
2.610709
 20
3.325351
 30
0.000000
  0
VERTEX
  8
Layer 0
 10
2.617512
 20
3.320418
 30
0.000000
  0
SEQEND
  0
POLYLINE
  8
Layer 0
 66
     1
 10
0.000000
 20
0.000000
 30
0.000000
  0
VERTEX
  8
Layer 0
 10
2.617512
 20
3.320418
 30
0.000000
  0
VERTEX
  8
Layer 0
 10
2.621961
 20
3.313261
 30
0.000000
  0
VERTEX
  8
Layer 0
 10
2.626414
 20
3.306107
 30
0.000000
  0
SEQEND
  0
POLYLINE
  8
Layer 0
 66
     1
 10
0.000000
 20
0.000000
 30
0.000000
  0
VERTEX
  8
Layer 0
 10
2.626414
 20
3.306107
 30
0.000000
  0
VERTEX
  8
Layer 0
 10
2.627760
 20
3.297808
 30
0.000000
  0
VERTEX
  8
Layer 0
 10
2.629111
 20
3.289509
 30
0.000000
  0
SEQEND
  0
POLYLINE
  8
Layer 0
 66
     1
 10
0.000000
 20
0.000000
 30
0.000000
  0
VERTEX
  8
Layer 0
 10
2.629111
 20
3.289509
 30
0.000000
  0
VERTEX
  8
Layer 0
 10
2.626359
 20
3.280832
 30
0.000000
  0
VERTEX
  8
Layer 0
 10
2.623611
 20
3.272158
 30
0.000000
  0
SEQEND
  0
POLYLINE
  8
Layer 0
 66
     1
 10
0.000000
 20
0.000000
 30
0.000000
  0
VERTEX
  8
Layer 0
 10
2.623611
 20
3.272158
 30
0.000000
  0
VERTEX
  8
Layer 0
 10
2.617910
 20
3.265084
 30
0.000000
  0
VERTEX
  8
Layer 0
 10
2.612213
 20
3.258008
 30
0.000000
  0
SEQEND
  0
POLYLINE
  8
Layer 0
 66
     1
 10
0.000000
 20
0.000000
 30
0.000000
  0
VERTEX
  8
Layer 0
 10
2.612213
 20
3.258008
 30
0.000000
  0
VERTEX
  8
Layer 0
 10
2.604312
 20
3.253528
 30
0.000000
  0
VERTEX
  8
Layer 0
 10
2.596410
 20
3.249048
 30
0.000000
  0
SEQEND
  0
POLYLINE
  8
Layer 0
 66
     1
 10
0.000000
 20
0.000000
 30
0.000000
  0
VERTEX
  8
Layer 0
 10
2.596410
 20
3.249048
 30
0.000000
  0
VERTEX
  8
Layer 0
 10
2.561410
 20
3.243202
 30
0.000000
  0
VERTEX
  8
Layer 0
 10
2.526410
 20
3.237359
 30
0.000000
  0
SEQEND
  0
POLYLINE
  8
Layer 0
 66
     1
 10
0.000000
 20
0.000000
 30
0.000000
  0
VERTEX
  8
Layer 0
 10
2.526410
 20
3.237359
 30
0.000000
  0
VERTEX
  8
Layer 0
 10
2.509812
 20
3.230268
 30
0.000000
  0
VERTEX
  8
Layer 0
 10
2.493213
 20
3.223178
 30
0.000000
  0
SEQEND
  0
POLYLINE
  8
Layer 0
 66
     1
 10
0.000000
 20
0.000000
 30
0.000000
  0
VERTEX
  8
Layer 0
 10
2.493213
 20
3.223178
 30
0.000000
  0
VERTEX
  8
Layer 0
 10
2.477863
 20
3.213607
 30
0.000000
  0
VERTEX
  8
Layer 0
 10
2.462512
 20
3.204036
 30
0.000000
  0
SEQEND
  0
POLYLINE
  8
Layer 0
 66
     1
 10
0.000000
 20
0.000000
 30
0.000000
  0
VERTEX
  8
Layer 0
 10
2.462512
 20
3.204036
 30
0.000000
  0
VERTEX
  8
Layer 0
 10
2.448863
 20
3.192217
 30
0.000000
  0
VERTEX
  8
Layer 0
 10
2.435213
 20
3.180398
 30
0.000000
  0
SEQEND
  0
POLYLINE
  8
Layer 0
 66
     1
 10
0.000000
 20
0.000000
 30
0.000000
  0
VERTEX
  8
Layer 0
 10
2.435213
 20
3.180398
 30
0.000000
  0
VERTEX
  8
Layer 0
 10
2.420713
 20
3.166193
 30
0.000000
  0
VERTEX
  8
Layer 0
 10
2.406213
 20
3.151989
 30
0.000000
  0
SEQEND
  0
POLYLINE
  8
Layer 0
 66
     1
 10
0.000000
 20
0.000000
 30
0.000000
  0
VERTEX
  8
Layer 0
 10
2.406213
 20
3.151989
 30
0.000000
  0
VERTEX
  8
Layer 0
 10
2.393512
 20
3.136139
 30
0.000000
  0
VERTEX
  8
Layer 0
 10
2.380812
 20
3.120288
 30
0.000000
  0
SEQEND
  0
POLYLINE
  8
Layer 0
 66
     1
 10
0.000000
 20
0.000000
 30
0.000000
  0
VERTEX
  8
Layer 0
 10
2.380812
 20
3.120288
 30
0.000000
  0
VERTEX
  8
Layer 0
 10
2.370162
 20
3.103021
 30
0.000000
  0
VERTEX
  8
Layer 0
 10
2.359512
 20
3.085757
 30
0.000000
  0
SEQEND
  0
POLYLINE
  8
Layer 0
 66
     1
 10
0.000000
 20
0.000000
 30
0.000000
  0
VERTEX
  8
Layer 0
 10
2.359512
 20
3.085757
 30
0.000000
  0
VERTEX
  8
Layer 0
 10
2.351012
 20
3.067332
 30
0.000000
  0
VERTEX
  8
Layer 0
 10
2.342512
 20
3.048906
 30
0.000000
  0
SEQEND
  0
POLYLINE
  8
Layer 0
 66
     1
 10
0.000000
 20
0.000000
 30
0.000000
  0
VERTEX
  8
Layer 0
 10
2.342512
 20
3.048906
 30
0.000000
  0
VERTEX
  8
Layer 0
 10
2.337209
 20
3.027202
 30
0.000000
  0
VERTEX
  8
Layer 0
 10
2.331910
 20
3.005497
 30
0.000000
  0
SEQEND
  0
POLYLINE
  8
Layer 0
 66
     1
 10
0.000000
 20
0.000000
 30
0.000000
  0
VERTEX
  8
Layer 0
 10
2.331910
 20
3.005497
 30
0.000000
  0
VERTEX
  8
Layer 0
 10
2.329859
 20
2.983245
 30
0.000000
  0
VERTEX
  8
Layer 0
 10
2.327812
 20
2.960997
 30
0.000000
  0
SEQEND
  0
POLYLINE
  8
Layer 0
 66
     1
 10
0.000000
 20
0.000000
 30
0.000000
  0
VERTEX
  8
Layer 0
 10
2.327812
 20
2.960997
 30
0.000000
  0
VERTEX
  8
Layer 0
 10
2.328012
 20
2.936052
 30
0.000000
  0
VERTEX
  8
Layer 0
 10
2.328213
 20
2.911107
 30
0.000000
  0
SEQEND
  0
POLYLINE
  8
Layer 0
 66
     1
 10
0.000000
 20
0.000000
 30
0.000000
  0
VERTEX
  8
Layer 0
 10
2.328213
 20
2.911107
 30
0.000000
  0
VERTEX
  8
Layer 0
 10
2.329910
 20
2.886214
 30
0.000000
  0
VERTEX
  8
Layer 0
 10
2.331611
 20
2.861320
 30
0.000000
  0
SEQEND
  0
POLYLINE
  8
Layer 0
 66
     1
 10
0.000000
 20
0.000000
 30
0.000000
  0
VERTEX
  8
Layer 0
 10
2.331611
 20
2.861320
 30
0.000000
  0
VERTEX
  8
Layer 0
 10
2.335611
 20
2.822863
 30
0.000000
  0
VERTEX
  8
Layer 0
 10
2.339611
 20
2.784406
 30
0.000000
  0
SEQEND
  0
POLYLINE
  8
Layer 0
 66
     1
 10
0.000000
 20
0.000000
 30
0.000000
  0
VERTEX
  8
Layer 0
 10
2.339611
 20
2.784406
 30
0.000000
  0
VERTEX
  8
Layer 0
 10
2.347060
 20
2.746462
 30
0.000000
  0
VERTEX
  8
Layer 0
 10
2.354512
 20
2.708517
 30
0.000000
  0
SEQEND
  0
POLYLINE
  8
Layer 0
 66
     1
 10
0.000000
 20
0.000000
 30
0.000000
  0
VERTEX
  8
Layer 0
 10
2.354512
 20
2.708517
 30
0.000000
  0
VERTEX
  8
Layer 0
 10
2.365312
 20
2.671391
 30
0.000000
  0
VERTEX
  8
Layer 0
 10
2.376111
 20
2.634269
 30
0.000000
  0
SEQEND
  0
POLYLINE
  8
Layer 0
 66
     1
 10
0.000000
 20
0.000000
 30
0.000000
  0
VERTEX
  8
Layer 0
 10
2.376111
 20
2.634269
 30
0.000000
  0
VERTEX
  8
Layer 0
 10
2.389560
 20
2.602513
 30
0.000000
  0
VERTEX
  8
Layer 0
 10
2.403012
 20
2.570757
 30
0.000000
  0
SEQEND
  0
POLYLINE
  8
Layer 0
 66
     1
 10
0.000000
 20
0.000000
 30
0.000000
  0
VERTEX
  8
Layer 0
 10
2.403012
 20
2.570757
 30
0.000000
  0
VERTEX
  8
Layer 0
 10
2.419060
 20
2.540217
 30
0.000000
  0
VERTEX
  8
Layer 0
 10
2.435111
 20
2.509678
 30
0.000000
  0
SEQEND
  0
POLYLINE
  8
Layer 0
 66
     1
 10
0.000000
 20
0.000000
 30
0.000000
  0
VERTEX
  8
Layer 0
 10
2.435111
 20
2.509678
 30
0.000000
  0
VERTEX
  8
Layer 0
 10
2.453560
 20
2.480548
 30
0.000000
  0
VERTEX
  8
Layer 0
 10
2.472012
 20
2.451418
 30
0.000000
  0
SEQEND
  0
POLYLINE
  8
Layer 0
 66
     1
 10
0.000000
 20
0.000000
 30
0.000000
  0
VERTEX
  8
Layer 0
 10
2.472012
 20
2.451418
 30
0.000000
  0
VERTEX
  8
Layer 0
 10
2.492812
 20
2.423906
 30
0.000000
  0
VERTEX
  8
Layer 0
 10
2.513611
 20
2.396399
 30
0.000000
  0
SEQEND
  0
POLYLINE
  8
Layer 0
 66
     1
 10
0.000000
 20
0.000000
 30
0.000000
  0
VERTEX
  8
Layer 0
 10
2.513611
 20
2.396399
 30
0.000000
  0
VERTEX
  8
Layer 0
 10
2.541859
 20
2.364611
 30
0.000000
  0
VERTEX
  8
Layer 0
 10
2.570111
 20
2.332828
 30
0.000000
  0
SEQEND
  0
POLYLINE
  8
Layer 0
 66
     1
 10
0.000000
 20
0.000000
 30
0.000000
  0
VERTEX
  8
Layer 0
 10
2.570111
 20
2.332828
 30
0.000000
  0
VERTEX
  8
Layer 0
 10
2.600512
 20
2.303013
 30
0.000000
  0
VERTEX
  8
Layer 0
 10
2.630914
 20
2.273198
 30
0.000000
  0
SEQEND
  0
POLYLINE
  8
Layer 0
 66
     1
 10
0.000000
 20
0.000000
 30
0.000000
  0
VERTEX
  8
Layer 0
 10
2.630914
 20
2.273198
 30
0.000000
  0
VERTEX
  8
Layer 0
 10
2.663213
 20
2.245485
 30
0.000000
  0
VERTEX
  8
Layer 0
 10
2.695512
 20
2.217776
 30
0.000000
  0
SEQEND
  0
POLYLINE
  8
Layer 0
 66
     1
 10
0.000000
 20
0.000000
 30
0.000000
  0
VERTEX
  8
Layer 0
 10
2.695512
 20
2.217776
 30
0.000000
  0
VERTEX
  8
Layer 0
 10
2.724260
 20
2.196048
 30
0.000000
  0
VERTEX
  8
Layer 0
 10
2.753012
 20
2.174320
 30
0.000000
  0
SEQEND
  0
POLYLINE
  8
Layer 0
 66
     1
 10
0.000000
 20
0.000000
 30
0.000000
  0
VERTEX
  8
Layer 0
 10
2.753012
 20
2.174320
 30
0.000000
  0
VERTEX
  8
Layer 0
 10
2.761461
 20
2.167938
 30
0.000000
  0
VERTEX
  8
Layer 0
 10
2.769914
 20
2.161560
 30
0.000000
  0
SEQEND
  0
POLYLINE
  8
Layer 0
 66
     1
 10
0.000000
 20
0.000000
 30
0.000000
  0
VERTEX
  8
Layer 0
 10
2.769914
 20
2.161560
 30
0.000000
  0
VERTEX
  8
Layer 0
 10
2.777611
 20
2.154276
 30
0.000000
  0
VERTEX
  8
Layer 0
 10
2.785312
 20
2.146997
 30
0.000000
  0
SEQEND
  0
POLYLINE
  8
Layer 0
 66
     1
 10
0.000000
 20
0.000000
 30
0.000000
  0
VERTEX
  8
Layer 0
 10
2.785312
 20
2.146997
 30
0.000000
  0
VERTEX
  8
Layer 0
 10
2.790512
 20
2.139060
 30
0.000000
  0
VERTEX
  8
Layer 0
 10
2.795713
 20
2.131127
 30
0.000000
  0
SEQEND
  0
POLYLINE
  8
Layer 0
 66
     1
 10
0.000000
 20
0.000000
 30
0.000000
  0
VERTEX
  8
Layer 0
 10
2.795713
 20
2.131127
 30
0.000000
  0
VERTEX
  8
Layer 0
 10
2.799012
 20
2.122233
 30
0.000000
  0
VERTEX
  8
Layer 0
 10
2.802312
 20
2.113339
 30
0.000000
  0
SEQEND
  0
POLYLINE
  8
Layer 0
 66
     1
 10
0.000000
 20
0.000000
 30
0.000000
  0
VERTEX
  8
Layer 0
 10
2.802312
 20
2.113339
 30
0.000000
  0
VERTEX
  8
Layer 0
 10
2.808461
 20
2.081973
 30
0.000000
  0
VERTEX
  8
Layer 0
 10
2.814611
 20
2.050607
 30
0.000000
  0
SEQEND
  0
POLYLINE
  8
Layer 0
 66
     1
 10
0.000000
 20
0.000000
 30
0.000000
  0
VERTEX
  8
Layer 0
 10
2.814611
 20
2.050607
 30
0.000000
  0
VERTEX
  8
Layer 0
 10
2.820343
 20
2.009828
 30
0.000000
  0
VERTEX
  8
Layer 0
 10
2.826075
 20
1.969048
 30
0.000000
  0
VERTEX
  8
Layer 0
 10
2.836292
 20
1.896371
 30
0.000000
  0
VERTEX
  8
Layer 0
 10
2.846512
 20
1.823694
 30
0.000000
  0
SEQEND
  0
POLYLINE
  8
Layer 0
 66
     1
 10
0.000000
 20
0.000000
 30
0.000000
  0
VERTEX
  8
Layer 0
 10
2.846512
 20
1.823694
 30
0.000000
  0
VERTEX
  8
Layer 0
 10
2.852312
 20
1.776658
 30
0.000000
  0
VERTEX
  8
Layer 0
 10
2.858111
 20
1.729623
 30
0.000000
  0
SEQEND
  0
POLYLINE
  8
Layer 0
 66
     1
 10
0.000000
 20
0.000000
 30
0.000000
  0
VERTEX
  8
Layer 0
 10
2.858111
 20
1.729623
 30
0.000000
  0
VERTEX
  8
Layer 0
 10
2.860859
 20
1.682320
 30
0.000000
  0
VERTEX
  8
Layer 0
 10
2.863611
 20
1.635013
 30
0.000000
  0
SEQEND
  0
POLYLINE
  8
Layer 0
 66
     1
 10
0.000000
 20
0.000000
 30
0.000000
  0
VERTEX
  8
Layer 0
 10
2.863611
 20
1.635013
 30
0.000000
  0
VERTEX
  8
Layer 0
 10
2.861260
 20
1.614954
 30
0.000000
  0
VERTEX
  8
Layer 0
 10
2.858910
 20
1.594891
 30
0.000000
  0
SEQEND
  0
POLYLINE
  8
Layer 0
 66
     1
 10
0.000000
 20
0.000000
 30
0.000000
  0
VERTEX
  8
Layer 0
 10
2.858910
 20
1.594891
 30
0.000000
  0
VERTEX
  8
Layer 0
 10
2.854508
 20
1.575174
 30
0.000000
  0
VERTEX
  8
Layer 0
 10
2.850111
 20
1.555454
 30
0.000000
  0
SEQEND
  0
POLYLINE
  8
Layer 0
 66
     1
 10
0.000000
 20
0.000000
 30
0.000000
  0
VERTEX
  8
Layer 0
 10
2.850111
 20
1.555454
 30
0.000000
  0
VERTEX
  8
Layer 0
 10
2.849162
 20
1.530808
 30
0.000000
  0
VERTEX
  8
Layer 0
 10
2.848213
 20
1.506162
 30
0.000000
  0
SEQEND
  0
POLYLINE
  8
Layer 0
 66
     1
 10
0.000000
 20
0.000000
 30
0.000000
  0
VERTEX
  8
Layer 0
 10
2.848213
 20
1.506162
 30
0.000000
  0
VERTEX
  8
Layer 0
 10
2.845961
 20
1.481607
 30
0.000000
  0
VERTEX
  8
Layer 0
 10
2.843713
 20
1.457052
 30
0.000000
  0
SEQEND
  0
POLYLINE
  8
Layer 0
 66
     1
 10
0.000000
 20
0.000000
 30
0.000000
  0
VERTEX
  8
Layer 0
 10
2.843713
 20
1.457052
 30
0.000000
  0
VERTEX
  8
Layer 0
 10
2.832961
 20
1.403749
 30
0.000000
  0
VERTEX
  8
Layer 0
 10
2.822213
 20
1.350442
 30
0.000000
  0
SEQEND
  0
POLYLINE
  8
Layer 0
 66
     1
 10
0.000000
 20
0.000000
 30
0.000000
  0
VERTEX
  8
Layer 0
 10
2.822213
 20
1.350442
 30
0.000000
  0
VERTEX
  8
Layer 0
 10
2.810060
 20
1.297450
 30
0.000000
  0
VERTEX
  8
Layer 0
 10
2.797910
 20
1.244454
 30
0.000000
  0
SEQEND
  0
POLYLINE
  8
Layer 0
 66
     1
 10
0.000000
 20
0.000000
 30
0.000000
  0
VERTEX
  8
Layer 0
 10
2.797910
 20
1.244454
 30
0.000000
  0
VERTEX
  8
Layer 0
 10
2.787910
 20
1.197824
 30
0.000000
  0
VERTEX
  8
Layer 0
 10
2.777910
 20
1.151194
 30
0.000000
  0
SEQEND
  0
POLYLINE
  8
Layer 0
 66
     1
 10
0.000000
 20
0.000000
 30
0.000000
  0
VERTEX
  8
Layer 0
 10
2.777910
 20
1.151194
 30
0.000000
  0
VERTEX
  8
Layer 0
 10
2.765560
 20
1.105119
 30
0.000000
  0
VERTEX
  8
Layer 0
 10
2.753213
 20
1.059040
 30
0.000000
  0
SEQEND
  0
POLYLINE
  8
Layer 0
 66
     1
 10
0.000000
 20
0.000000
 30
0.000000
  0
VERTEX
  8
Layer 0
 10
2.753213
 20
1.059040
 30
0.000000
  0
VERTEX
  8
Layer 0
 10
2.748760
 20
1.049131
 30
0.000000
  0
VERTEX
  8
Layer 0
 10
2.744312
 20
1.039221
 30
0.000000
  0
SEQEND
  0
POLYLINE
  8
Layer 0
 66
     1
 10
0.000000
 20
0.000000
 30
0.000000
  0
VERTEX
  8
Layer 0
 10
2.744312
 20
1.039221
 30
0.000000
  0
VERTEX
  8
Layer 0
 10
2.737312
 20
1.030922
 30
0.000000
  0
VERTEX
  8
Layer 0
 10
2.730312
 20
1.022623
 30
0.000000
  0
SEQEND
  0
POLYLINE
  8
Layer 0
 66
     1
 10
0.000000
 20
0.000000
 30
0.000000
  0
VERTEX
  8
Layer 0
 10
2.730312
 20
1.022623
 30
0.000000
  0
VERTEX
  8
Layer 0
 10
2.723162
 20
1.019013
 30
0.000000
  0
VERTEX
  8
Layer 0
 10
2.716012
 20
1.015402
 30
0.000000
  0
SEQEND
  0
POLYLINE
  8
Layer 0
 66
     1
 10
0.000000
 20
0.000000
 30
0.000000
  0
VERTEX
  8
Layer 0
 10
2.716012
 20
1.015402
 30
0.000000
  0
VERTEX
  8
Layer 0
 10
2.708162
 20
1.013808
 30
0.000000
  0
VERTEX
  8
Layer 0
 10
2.700312
 20
1.012214
 30
0.000000
  0
SEQEND
  0
POLYLINE
  8
Layer 0
 66
     1
 10
0.000000
 20
0.000000
 30
0.000000
  0
VERTEX
  8
Layer 0
 10
2.700312
 20
1.012214
 30
0.000000
  0
VERTEX
  8
Layer 0
 10
2.661209
 20
1.008249
 30
0.000000
  0
VERTEX
  8
Layer 0
 10
2.622111
 20
1.004280
 30
0.000000
  0
SEQEND
  0
POLYLINE
  8
Layer 0
 66
     1
 10
0.000000
 20
0.000000
 30
0.000000
  0
VERTEX
  8
Layer 0
 10
2.622111
 20
1.004280
 30
0.000000
  0
VERTEX
  8
Layer 0
 10
2.611662
 20
1.002186
 30
0.000000
  0
VERTEX
  8
Layer 0
 10
2.601213
 20
1.000091
 30
0.000000
  0
SEQEND
  0
POLYLINE
  8
Layer 0
 66
     1
 10
0.000000
 20
0.000000
 30
0.000000
  0
VERTEX
  8
Layer 0
 10
2.601213
 20
1.000091
 30
0.000000
  0
VERTEX
  8
Layer 0
 10
2.591512
 20
0.995710
 30
0.000000
  0
VERTEX
  8
Layer 0
 10
2.581812
 20
0.991324
 30
0.000000
  0
SEQEND
  0
POLYLINE
  8
Layer 0
 66
     1
 10
0.000000
 20
0.000000
 30
0.000000
  0
VERTEX
  8
Layer 0
 10
2.581812
 20
0.991324
 30
0.000000
  0
VERTEX
  8
Layer 0
 10
2.578162
 20
0.988229
 30
0.000000
  0
VERTEX
  8
Layer 0
 10
2.574512
 20
0.985131
 30
0.000000
  0
SEQEND
  0
POLYLINE
  8
Layer 0
 66
     1
 10
0.000000
 20
0.000000
 30
0.000000
  0
VERTEX
  8
Layer 0
 10
2.574512
 20
0.985131
 30
0.000000
  0
VERTEX
  8
Layer 0
 10
2.573410
 20
0.982997
 30
0.000000
  0
VERTEX
  8
Layer 0
 10
2.572312
 20
0.980859
 30
0.000000
  0
VERTEX
  8
Layer 0
 10
2.571209
 20
0.978721
 30
0.000000
  0
VERTEX
  8
Layer 0
 10
2.570111
 20
0.976584
 30
0.000000
  0
SEQEND
  0
POLYLINE
  8
Layer 0
 66
     1
 10
0.000000
 20
0.000000
 30
0.000000
  0
VERTEX
  8
Layer 0
 10
2.570111
 20
0.976584
 30
0.000000
  0
VERTEX
  8
Layer 0
 10
2.540091
 20
0.976525
 30
0.000000
  0
VERTEX
  8
Layer 0
 10
2.510075
 20
0.976462
 30
0.000000
  0
VERTEX
  8
Layer 0
 10
2.480060
 20
0.976402
 30
0.000000
  0
VERTEX
  8
Layer 0
 10
2.450044
 20
0.976339
 30
0.000000
  0
VERTEX
  8
Layer 0
 10
2.423631
 20
0.976284
 30
0.000000
  0
VERTEX
  8
Layer 0
 10
2.397217
 20
0.976229
 30
0.000000
  0
VERTEX
  8
Layer 0
 10
2.370804
 20
0.976174
 30
0.000000
  0
VERTEX
  8
Layer 0
 10
2.344390
 20
0.976119
 30
0.000000
  0
VERTEX
  8
Layer 0
 10
2.313091
 20
0.976056
 30
0.000000
  0
VERTEX
  8
Layer 0
 10
2.281788
 20
0.975989
 30
0.000000
  0
VERTEX
  8
Layer 0
 10
2.250485
 20
0.975926
 30
0.000000
  0
VERTEX
  8
Layer 0
 10
2.219182
 20
0.975859
 30
0.000000
  0
VERTEX
  8
Layer 0
 10
2.186890
 20
0.975792
 30
0.000000
  0
VERTEX
  8
Layer 0
 10
2.154599
 20
0.975725
 30
0.000000
  0
VERTEX
  8
Layer 0
 10
2.122308
 20
0.975658
 30
0.000000
  0
VERTEX
  8
Layer 0
 10
2.090016
 20
0.975588
 30
0.000000
  0
VERTEX
  8
Layer 0
 10
2.053823
 20
0.975513
 30
0.000000
  0
VERTEX
  8
Layer 0
 10
2.017631
 20
0.975438
 30
0.000000
  0
VERTEX
  8
Layer 0
 10
1.981438
 20
0.975363
 30
0.000000
  0
VERTEX
  8
Layer 0
 10
1.945241
 20
0.975284
 30
0.000000
  0
VERTEX
  8
Layer 0
 10
1.912949
 20
0.975217
 30
0.000000
  0
VERTEX
  8
Layer 0
 10
1.880658
 20
0.975151
 30
0.000000
  0
VERTEX
  8
Layer 0
 10
1.848367
 20
0.975084
 30
0.000000
  0
VERTEX
  8
Layer 0
 10
1.816075
 20
0.975013
 30
0.000000
  0
VERTEX
  8
Layer 0
 10
1.789587
 20
0.974958
 30
0.000000
  0
VERTEX
  8
Layer 0
 10
1.763099
 20
0.974902
 30
0.000000
  0
VERTEX
  8
Layer 0
 10
1.736611
 20
0.974847
 30
0.000000
  0
VERTEX
  8
Layer 0
 10
1.710123
 20
0.974792
 30
0.000000
  0
VERTEX
  8
Layer 0
 10
1.660619
 20
0.974690
 30
0.000000
  0
VERTEX
  8
Layer 0
 10
1.611115
 20
0.974584
 30
0.000000
  0
SEQEND
  0
POLYLINE
  8
Layer 0
 66
     1
 10
0.000000
 20
0.000000
 30
0.000000
  0
VERTEX
  8
Layer 0
 10
1.611115
 20
0.974584
 30
0.000000
  0
VERTEX
  8
Layer 0
 10
1.612764
 20
0.980489
 30
0.000000
  0
VERTEX
  8
Layer 0
 10
1.614414
 20
0.986391
 30
0.000000
  0
SEQEND
  0
POLYLINE
  8
Layer 0
 66
     1
 10
0.000000
 20
0.000000
 30
0.000000
  0
VERTEX
  8
Layer 0
 10
1.614414
 20
0.986391
 30
0.000000
  0
VERTEX
  8
Layer 0
 10
1.617115
 20
0.991879
 30
0.000000
  0
VERTEX
  8
Layer 0
 10
1.619816
 20
0.997363
 30
0.000000
  0
SEQEND
  0
POLYLINE
  8
Layer 0
 66
     1
 10
0.000000
 20
0.000000
 30
0.000000
  0
VERTEX
  8
Layer 0
 10
1.619816
 20
0.997363
 30
0.000000
  0
VERTEX
  8
Layer 0
 10
1.635418
 20
1.019064
 30
0.000000
  0
VERTEX
  8
Layer 0
 10
1.651016
 20
1.040761
 30
0.000000
  0
SEQEND
  0
POLYLINE
  8
Layer 0
 66
     1
 10
0.000000
 20
0.000000
 30
0.000000
  0
VERTEX
  8
Layer 0
 10
1.651016
 20
1.040761
 30
0.000000
  0
VERTEX
  8
Layer 0
 10
1.694217
 20
1.091977
 30
0.000000
  0
VERTEX
  8
Layer 0
 10
1.737414
 20
1.143194
 30
0.000000
  0
SEQEND
  0
POLYLINE
  8
Layer 0
 66
     1
 10
0.000000
 20
0.000000
 30
0.000000
  0
VERTEX
  8
Layer 0
 10
1.737414
 20
1.143194
 30
0.000000
  0
VERTEX
  8
Layer 0
 10
1.782516
 20
1.192710
 30
0.000000
  0
VERTEX
  8
Layer 0
 10
1.827615
 20
1.242221
 30
0.000000
  0
SEQEND
  0
POLYLINE
  8
Layer 0
 66
     1
 10
0.000000
 20
0.000000
 30
0.000000
  0
VERTEX
  8
Layer 0
 10
1.827615
 20
1.242221
 30
0.000000
  0
VERTEX
  8
Layer 0
 10
1.877068
 20
1.293993
 30
0.000000
  0
VERTEX
  8
Layer 0
 10
1.926516
 20
1.345761
 30
0.000000
  0
SEQEND
  0
POLYLINE
  8
Layer 0
 66
     1
 10
0.000000
 20
0.000000
 30
0.000000
  0
VERTEX
  8
Layer 0
 10
1.926516
 20
1.345761
 30
0.000000
  0
VERTEX
  8
Layer 0
 10
1.977619
 20
1.395962
 30
0.000000
  0
VERTEX
  8
Layer 0
 10
2.028717
 20
1.446162
 30
0.000000
  0
SEQEND
  0
POLYLINE
  8
Layer 0
 66
     1
 10
0.000000
 20
0.000000
 30
0.000000
  0
VERTEX
  8
Layer 0
 10
2.028717
 20
1.446162
 30
0.000000
  0
VERTEX
  8
Layer 0
 10
2.081320
 20
1.494745
 30
0.000000
  0
VERTEX
  8
Layer 0
 10
2.133918
 20
1.543324
 30
0.000000
  0
SEQEND
  0
POLYLINE
  8
Layer 0
 66
     1
 10
0.000000
 20
0.000000
 30
0.000000
  0
VERTEX
  8
Layer 0
 10
2.133918
 20
1.543324
 30
0.000000
  0
VERTEX
  8
Layer 0
 10
2.180119
 20
1.582044
 30
0.000000
  0
VERTEX
  8
Layer 0
 10
2.226316
 20
1.620761
 30
0.000000
  0
SEQEND
  0
POLYLINE
  8
Layer 0
 66
     1
 10
0.000000
 20
0.000000
 30
0.000000
  0
VERTEX
  8
Layer 0
 10
2.226316
 20
1.620761
 30
0.000000
  0
VERTEX
  8
Layer 0
 10
2.273713
 20
1.657954
 30
0.000000
  0
VERTEX
  8
Layer 0
 10
2.321111
 20
1.695143
 30
0.000000
  0
SEQEND
  0
POLYLINE
  8
Layer 0
 66
     1
 10
0.000000
 20
0.000000
 30
0.000000
  0
VERTEX
  8
Layer 0
 10
2.321111
 20
1.695143
 30
0.000000
  0
VERTEX
  8
Layer 0
 10
2.369760
 20
1.730753
 30
0.000000
  0
VERTEX
  8
Layer 0
 10
2.418410
 20
1.766363
 30
0.000000
  0
SEQEND
  0
POLYLINE
  8
Layer 0
 66
     1
 10
0.000000
 20
0.000000
 30
0.000000
  0
VERTEX
  8
Layer 0
 10
2.418410
 20
1.766363
 30
0.000000
  0
VERTEX
  8
Layer 0
 10
2.461008
 20
1.797395
 30
0.000000
  0
VERTEX
  8
Layer 0
 10
2.503611
 20
1.828422
 30
0.000000
  0
SEQEND
  0
POLYLINE
  8
Layer 0
 66
     1
 10
0.000000
 20
0.000000
 30
0.000000
  0
VERTEX
  8
Layer 0
 10
2.503611
 20
1.828422
 30
0.000000
  0
VERTEX
  8
Layer 0
 10
2.515060
 20
1.837454
 30
0.000000
  0
VERTEX
  8
Layer 0
 10
2.526512
 20
1.846481
 30
0.000000
  0
SEQEND
  0
POLYLINE
  8
Layer 0
 66
     1
 10
0.000000
 20
0.000000
 30
0.000000
  0
VERTEX
  8
Layer 0
 10
2.526512
 20
1.846481
 30
0.000000
  0
VERTEX
  8
Layer 0
 10
2.536760
 20
1.856776
 30
0.000000
  0
VERTEX
  8
Layer 0
 10
2.547012
 20
1.867072
 30
0.000000
  0
SEQEND
  0
POLYLINE
  8
Layer 0
 66
     1
 10
0.000000
 20
0.000000
 30
0.000000
  0
VERTEX
  8
Layer 0
 10
2.547012
 20
1.867072
 30
0.000000
  0
VERTEX
  8
Layer 0
 10
2.550611
 20
1.872769
 30
0.000000
  0
VERTEX
  8
Layer 0
 10
2.554213
 20
1.878462
 30
0.000000
  0
SEQEND
  0
POLYLINE
  8
Layer 0
 66
     1
 10
0.000000
 20
0.000000
 30
0.000000
  0
VERTEX
  8
Layer 0
 10
2.554213
 20
1.878462
 30
0.000000
  0
VERTEX
  8
Layer 0
 10
2.554863
 20
1.885166
 30
0.000000
  0
VERTEX
  8
Layer 0
 10
2.555512
 20
1.891871
 30
0.000000
  0
SEQEND
  0
POLYLINE
  8
Layer 0
 66
     1
 10
0.000000
 20
0.000000
 30
0.000000
  0
VERTEX
  8
Layer 0
 10
2.555512
 20
1.891871
 30
0.000000
  0
VERTEX
  8
Layer 0
 10
2.552410
 20
1.895406
 30
0.000000
  0
VERTEX
  8
Layer 0
 10
2.549312
 20
1.898942
 30
0.000000
  0
SEQEND
  0
POLYLINE
  8
Layer 0
 66
     1
 10
0.000000
 20
0.000000
 30
0.000000
  0
VERTEX
  8
Layer 0
 10
2.549312
 20
1.898942
 30
0.000000
  0
VERTEX
  8
Layer 0
 10
2.544662
 20
1.899674
 30
0.000000
  0
VERTEX
  8
Layer 0
 10
2.540012
 20
1.900402
 30
0.000000
  0
SEQEND
  0
POLYLINE
  8
Layer 0
 66
     1
 10
0.000000
 20
0.000000
 30
0.000000
  0
VERTEX
  8
Layer 0
 10
3.589713
 20
2.136367
 30
0.000000
  0
VERTEX
  8
Layer 0
 10
3.595512
 20
2.143217
 30
0.000000
  0
SEQEND
  0
POLYLINE
  8
Layer 0
 66
     1
 10
0.000000
 20
0.000000
 30
0.000000
  0
VERTEX
  8
Layer 0
 10
3.595512
 20
2.143217
 30
0.000000
  0
VERTEX
  8
Layer 0
 10
3.604312
 20
2.144548
 30
0.000000
  0
SEQEND
  0
POLYLINE
  8
Layer 0
 66
     1
 10
0.000000
 20
0.000000
 30
0.000000
  0
VERTEX
  8
Layer 0
 10
3.604312
 20
2.144548
 30
0.000000
  0
VERTEX
  8
Layer 0
 10
3.617213
 20
2.141450
 30
0.000000
  0
SEQEND
  0
POLYLINE
  8
Layer 0
 66
     1
 10
0.000000
 20
0.000000
 30
0.000000
  0
VERTEX
  8
Layer 0
 10
3.617213
 20
2.141450
 30
0.000000
  0
VERTEX
  8
Layer 0
 10
3.629111
 20
2.135788
 30
0.000000
  0
SEQEND
  0
POLYLINE
  8
Layer 0
 66
     1
 10
0.000000
 20
0.000000
 30
0.000000
  0
VERTEX
  8
Layer 0
 10
3.629111
 20
2.135788
 30
0.000000
  0
VERTEX
  8
Layer 0
 10
3.695312
 20
2.086517
 30
0.000000
  0
SEQEND
  0
POLYLINE
  8
Layer 0
 66
     1
 10
0.000000
 20
0.000000
 30
0.000000
  0
VERTEX
  8
Layer 0
 10
3.695312
 20
2.086517
 30
0.000000
  0
VERTEX
  8
Layer 0
 10
3.705312
 20
2.081119
 30
0.000000
  0
SEQEND
  0
POLYLINE
  8
Layer 0
 66
     1
 10
0.000000
 20
0.000000
 30
0.000000
  0
VERTEX
  8
Layer 0
 10
3.705312
 20
2.081119
 30
0.000000
  0
VERTEX
  8
Layer 0
 10
3.716512
 20
2.079379
 30
0.000000
  0
SEQEND
  0
POLYLINE
  8
Layer 0
 66
     1
 10
0.000000
 20
0.000000
 30
0.000000
  0
VERTEX
  8
Layer 0
 10
3.716512
 20
2.079379
 30
0.000000
  0
VERTEX
  8
Layer 0
 10
3.722812
 20
2.083899
 30
0.000000
  0
SEQEND
  0
POLYLINE
  8
Layer 0
 66
     1
 10
0.000000
 20
0.000000
 30
0.000000
  0
VERTEX
  8
Layer 0
 10
3.722812
 20
2.083899
 30
0.000000
  0
VERTEX
  8
Layer 0
 10
3.723914
 20
2.091509
 30
0.000000
  0
SEQEND
  0
POLYLINE
  8
Layer 0
 66
     1
 10
0.000000
 20
0.000000
 30
0.000000
  0
VERTEX
  8
Layer 0
 10
3.723914
 20
2.091509
 30
0.000000
  0
VERTEX
  8
Layer 0
 10
3.719812
 20
2.108249
 30
0.000000
  0
SEQEND
  0
POLYLINE
  8
Layer 0
 66
     1
 10
0.000000
 20
0.000000
 30
0.000000
  0
VERTEX
  8
Layer 0
 10
3.719812
 20
2.108249
 30
0.000000
  0
VERTEX
  8
Layer 0
 10
3.712012
 20
2.123619
 30
0.000000
  0
SEQEND
  0
POLYLINE
  8
Layer 0
 66
     1
 10
0.000000
 20
0.000000
 30
0.000000
  0
VERTEX
  8
Layer 0
 10
3.712012
 20
2.123619
 30
0.000000
  0
VERTEX
  8
Layer 0
 10
3.691914
 20
2.153926
 30
0.000000
  0
SEQEND
  0
POLYLINE
  8
Layer 0
 66
     1
 10
0.000000
 20
0.000000
 30
0.000000
  0
VERTEX
  8
Layer 0
 10
3.691914
 20
2.153926
 30
0.000000
  0
VERTEX
  8
Layer 0
 10
3.669312
 20
2.182438
 30
0.000000
  0
SEQEND
  0
POLYLINE
  8
Layer 0
 66
     1
 10
0.000000
 20
0.000000
 30
0.000000
  0
VERTEX
  8
Layer 0
 10
3.669312
 20
2.182438
 30
0.000000
  0
VERTEX
  8
Layer 0
 10
3.606103
 20
2.252422
 30
0.000000
  0
VERTEX
  8
Layer 0
 10
3.539048
 20
2.326674
 30
0.000000
  0
VERTEX
  8
Layer 0
 10
3.468910
 20
2.404339
 30
0.000000
  0
SEQEND
  0
POLYLINE
  8
Layer 0
 66
     1
 10
0.000000
 20
0.000000
 30
0.000000
  0
VERTEX
  8
Layer 0
 10
3.468910
 20
2.404339
 30
0.000000
  0
VERTEX
  8
Layer 0
 10
3.420465
 20
2.459119
 30
0.000000
  0
VERTEX
  8
Layer 0
 10
3.382383
 20
2.502194
 30
0.000000
  0
VERTEX
  8
Layer 0
 10
3.326012
 20
2.565950
 30
0.000000
  0
SEQEND
  0
POLYLINE
  8
Layer 0
 66
     1
 10
0.000000
 20
0.000000
 30
0.000000
  0
VERTEX
  8
Layer 0
 10
3.326012
 20
2.565950
 30
0.000000
  0
VERTEX
  8
Layer 0
 10
3.270599
 20
2.626186
 30
0.000000
  0
VERTEX
  8
Layer 0
 10
3.231528
 20
2.668666
 30
0.000000
  0
VERTEX
  8
Layer 0
 10
3.180012
 20
2.724678
 30
0.000000
  0
SEQEND
  0
POLYLINE
  8
Layer 0
 66
     1
 10
0.000000
 20
0.000000
 30
0.000000
  0
VERTEX
  8
Layer 0
 10
3.180012
 20
2.724678
 30
0.000000
  0
VERTEX
  8
Layer 0
 10
3.114512
 20
2.789387
 30
0.000000
  0
SEQEND
  0
POLYLINE
  8
Layer 0
 66
     1
 10
0.000000
 20
0.000000
 30
0.000000
  0
VERTEX
  8
Layer 0
 10
3.114512
 20
2.789387
 30
0.000000
  0
VERTEX
  8
Layer 0
 10
3.080812
 20
2.819580
 30
0.000000
  0
VERTEX
  8
Layer 0
 10
3.046012
 20
2.850769
 30
0.000000
  0
SEQEND
  0
POLYLINE
  8
Layer 0
 66
     1
 10
0.000000
 20
0.000000
 30
0.000000
  0
VERTEX
  8
Layer 0
 10
3.046012
 20
2.850769
 30
0.000000
  0
VERTEX
  8
Layer 0
 10
2.990312
 20
2.894666
 30
0.000000
  0
SEQEND
  0
POLYLINE
  8
Layer 0
 66
     1
 10
0.000000
 20
0.000000
 30
0.000000
  0
VERTEX
  8
Layer 0
 10
2.990312
 20
2.894666
 30
0.000000
  0
VERTEX
  8
Layer 0
 10
2.930910
 20
2.933477
 30
0.000000
  0
SEQEND
  0
POLYLINE
  8
Layer 0
 66
     1
 10
0.000000
 20
0.000000
 30
0.000000
  0
VERTEX
  8
Layer 0
 10
2.930910
 20
2.933477
 30
0.000000
  0
VERTEX
  8
Layer 0
 10
2.893213
 20
2.953359
 30
0.000000
  0
SEQEND
  0
POLYLINE
  8
Layer 0
 66
     1
 10
0.000000
 20
0.000000
 30
0.000000
  0
VERTEX
  8
Layer 0
 10
2.893213
 20
2.953359
 30
0.000000
  0
VERTEX
  8
Layer 0
 10
2.853312
 20
2.968257
 30
0.000000
  0
SEQEND
  0
POLYLINE
  8
Layer 0
 66
     1
 10
0.000000
 20
0.000000
 30
0.000000
  0
VERTEX
  8
Layer 0
 10
2.853312
 20
2.968257
 30
0.000000
  0
VERTEX
  8
Layer 0
 10
2.811812
 20
2.977958
 30
0.000000
  0
SEQEND
  0
POLYLINE
  8
Layer 0
 66
     1
 10
0.000000
 20
0.000000
 30
0.000000
  0
VERTEX
  8
Layer 0
 10
2.811812
 20
2.977958
 30
0.000000
  0
VERTEX
  8
Layer 0
 10
2.769512
 20
2.982275
 30
0.000000
  0
SEQEND
  0
POLYLINE
  8
Layer 0
 66
     1
 10
0.000000
 20
0.000000
 30
0.000000
  0
VERTEX
  8
Layer 0
 10
2.769512
 20
2.982275
 30
0.000000
  0
VERTEX
  8
Layer 0
 10
2.748312
 20
2.981627
 30
0.000000
  0
SEQEND
  0
POLYLINE
  8
Layer 0
 66
     1
 10
0.000000
 20
0.000000
 30
0.000000
  0
VERTEX
  8
Layer 0
 10
2.748312
 20
2.981627
 30
0.000000
  0
VERTEX
  8
Layer 0
 10
2.727512
 20
2.977489
 30
0.000000
  0
SEQEND
  0
POLYLINE
  8
Layer 0
 66
     1
 10
0.000000
 20
0.000000
 30
0.000000
  0
VERTEX
  8
Layer 0
 10
2.727512
 20
2.977489
 30
0.000000
  0
VERTEX
  8
Layer 0
 10
2.714213
 20
2.971276
 30
0.000000
  0
SEQEND
  0
POLYLINE
  8
Layer 0
 66
     1
 10
0.000000
 20
0.000000
 30
0.000000
  0
VERTEX
  8
Layer 0
 10
2.714213
 20
2.971276
 30
0.000000
  0
VERTEX
  8
Layer 0
 10
2.703111
 20
2.961820
 30
0.000000
  0
SEQEND
  0
POLYLINE
  8
Layer 0
 66
     1
 10
0.000000
 20
0.000000
 30
0.000000
  0
VERTEX
  8
Layer 0
 10
2.703111
 20
2.961820
 30
0.000000
  0
VERTEX
  8
Layer 0
 10
2.685611
 20
2.934229
 30
0.000000
  0
SEQEND
  0
POLYLINE
  8
Layer 0
 66
     1
 10
0.000000
 20
0.000000
 30
0.000000
  0
VERTEX
  8
Layer 0
 10
2.685611
 20
2.934229
 30
0.000000
  0
VERTEX
  8
Layer 0
 10
2.673410
 20
2.903926
 30
0.000000
  0
SEQEND
  0
POLYLINE
  8
Layer 0
 66
     1
 10
0.000000
 20
0.000000
 30
0.000000
  0
VERTEX
  8
Layer 0
 10
2.673410
 20
2.903926
 30
0.000000
  0
VERTEX
  8
Layer 0
 10
2.661111
 20
2.872536
 30
0.000000
  0
SEQEND
  0
POLYLINE
  8
Layer 0
 66
     1
 10
0.000000
 20
0.000000
 30
0.000000
  0
VERTEX
  8
Layer 0
 10
2.661111
 20
2.872536
 30
0.000000
  0
VERTEX
  8
Layer 0
 10
2.642111
 20
2.844748
 30
0.000000
  0
SEQEND
  0
POLYLINE
  8
Layer 0
 66
     1
 10
0.000000
 20
0.000000
 30
0.000000
  0
VERTEX
  8
Layer 0
 10
2.642111
 20
2.844748
 30
0.000000
  0
VERTEX
  8
Layer 0
 10
2.631512
 20
2.840399
 30
0.000000
  0
SEQEND
  0
POLYLINE
  8
Layer 0
 66
     1
 10
0.000000
 20
0.000000
 30
0.000000
  0
VERTEX
  8
Layer 0
 10
2.631512
 20
2.840399
 30
0.000000
  0
VERTEX
  8
Layer 0
 10
2.620213
 20
2.841678
 30
0.000000
  0
SEQEND
  0
POLYLINE
  8
Layer 0
 66
     1
 10
0.000000
 20
0.000000
 30
0.000000
  0
VERTEX
  8
Layer 0
 10
2.620213
 20
2.841678
 30
0.000000
  0
VERTEX
  8
Layer 0
 10
2.607111
 20
2.848847
 30
0.000000
  0
SEQEND
  0
POLYLINE
  8
Layer 0
 66
     1
 10
0.000000
 20
0.000000
 30
0.000000
  0
VERTEX
  8
Layer 0
 10
2.607111
 20
2.848847
 30
0.000000
  0
VERTEX
  8
Layer 0
 10
2.596012
 20
2.858969
 30
0.000000
  0
SEQEND
  0
POLYLINE
  8
Layer 0
 66
     1
 10
0.000000
 20
0.000000
 30
0.000000
  0
VERTEX
  8
Layer 0
 10
2.596012
 20
2.858969
 30
0.000000
  0
VERTEX
  8
Layer 0
 10
2.579512
 20
2.880737
 30
0.000000
  0
SEQEND
  0
POLYLINE
  8
Layer 0
 66
     1
 10
0.000000
 20
0.000000
 30
0.000000
  0
VERTEX
  8
Layer 0
 10
2.579512
 20
2.880737
 30
0.000000
  0
VERTEX
  8
Layer 0
 10
2.566312
 20
2.904639
 30
0.000000
  0
SEQEND
  0
POLYLINE
  8
Layer 0
 66
     1
 10
0.000000
 20
0.000000
 30
0.000000
  0
VERTEX
  8
Layer 0
 10
2.566312
 20
2.904639
 30
0.000000
  0
VERTEX
  8
Layer 0
 10
2.556611
 20
2.930178
 30
0.000000
  0
SEQEND
  0
POLYLINE
  8
Layer 0
 66
     1
 10
0.000000
 20
0.000000
 30
0.000000
  0
VERTEX
  8
Layer 0
 10
2.556611
 20
2.930178
 30
0.000000
  0
VERTEX
  8
Layer 0
 10
2.550111
 20
2.958899
 30
0.000000
  0
SEQEND
  0
POLYLINE
  8
Layer 0
 66
     1
 10
0.000000
 20
0.000000
 30
0.000000
  0
VERTEX
  8
Layer 0
 10
2.550111
 20
2.958899
 30
0.000000
  0
VERTEX
  8
Layer 0
 10
2.550111
 20
2.988338
 30
0.000000
  0
SEQEND
  0
POLYLINE
  8
Layer 0
 66
     1
 10
0.000000
 20
0.000000
 30
0.000000
  0
VERTEX
  8
Layer 0
 10
2.550111
 20
2.988338
 30
0.000000
  0
VERTEX
  8
Layer 0
 10
2.556611
 20
3.017060
 30
0.000000
  0
SEQEND
  0
POLYLINE
  8
Layer 0
 66
     1
 10
0.000000
 20
0.000000
 30
0.000000
  0
VERTEX
  8
Layer 0
 10
2.556611
 20
3.017060
 30
0.000000
  0
VERTEX
  8
Layer 0
 10
2.570812
 20
3.043118
 30
0.000000
  0
SEQEND
  0
POLYLINE
  8
Layer 0
 66
     1
 10
0.000000
 20
0.000000
 30
0.000000
  0
VERTEX
  8
Layer 0
 10
2.570812
 20
3.043118
 30
0.000000
  0
VERTEX
  8
Layer 0
 10
2.590410
 20
3.065418
 30
0.000000
  0
SEQEND
  0
POLYLINE
  8
Layer 0
 66
     1
 10
0.000000
 20
0.000000
 30
0.000000
  0
VERTEX
  8
Layer 0
 10
2.590410
 20
3.065418
 30
0.000000
  0
VERTEX
  8
Layer 0
 10
2.614414
 20
3.082859
 30
0.000000
  0
SEQEND
  0
POLYLINE
  8
Layer 0
 66
     1
 10
0.000000
 20
0.000000
 30
0.000000
  0
VERTEX
  8
Layer 0
 10
2.614414
 20
3.082859
 30
0.000000
  0
VERTEX
  8
Layer 0
 10
2.660213
 20
3.103997
 30
0.000000
  0
SEQEND
  0
POLYLINE
  8
Layer 0
 66
     1
 10
0.000000
 20
0.000000
 30
0.000000
  0
VERTEX
  8
Layer 0
 10
2.660213
 20
3.103997
 30
0.000000
  0
VERTEX
  8
Layer 0
 10
2.707012
 20
3.122769
 30
0.000000
  0
SEQEND
  0
POLYLINE
  8
Layer 0
 66
     1
 10
0.000000
 20
0.000000
 30
0.000000
  0
VERTEX
  8
Layer 0
 10
2.707012
 20
3.122769
 30
0.000000
  0
VERTEX
  8
Layer 0
 10
2.737312
 20
3.138749
 30
0.000000
  0
SEQEND
  0
POLYLINE
  8
Layer 0
 66
     1
 10
0.000000
 20
0.000000
 30
0.000000
  0
VERTEX
  8
Layer 0
 10
2.737312
 20
3.138749
 30
0.000000
  0
VERTEX
  8
Layer 0
 10
2.765312
 20
3.158489
 30
0.000000
  0
SEQEND
  0
POLYLINE
  8
Layer 0
 66
     1
 10
0.000000
 20
0.000000
 30
0.000000
  0
VERTEX
  8
Layer 0
 10
2.765312
 20
3.158489
 30
0.000000
  0
VERTEX
  8
Layer 0
 10
2.790512
 20
3.181666
 30
0.000000
  0
SEQEND
  0
POLYLINE
  8
Layer 0
 66
     1
 10
0.000000
 20
0.000000
 30
0.000000
  0
VERTEX
  8
Layer 0
 10
2.790512
 20
3.181666
 30
0.000000
  0
VERTEX
  8
Layer 0
 10
2.813012
 20
3.208166
 30
0.000000
  0
SEQEND
  0
POLYLINE
  8
Layer 0
 66
     1
 10
0.000000
 20
0.000000
 30
0.000000
  0
VERTEX
  8
Layer 0
 10
2.813012
 20
3.208166
 30
0.000000
  0
VERTEX
  8
Layer 0
 10
2.831012
 20
3.237879
 30
0.000000
  0
SEQEND
  0
POLYLINE
  8
Layer 0
 66
     1
 10
0.000000
 20
0.000000
 30
0.000000
  0
VERTEX
  8
Layer 0
 10
2.831012
 20
3.237879
 30
0.000000
  0
VERTEX
  8
Layer 0
 10
2.844012
 20
3.270068
 30
0.000000
  0
SEQEND
  0
POLYLINE
  8
Layer 0
 66
     1
 10
0.000000
 20
0.000000
 30
0.000000
  0
VERTEX
  8
Layer 0
 10
2.844012
 20
3.270068
 30
0.000000
  0
VERTEX
  8
Layer 0
 10
2.851012
 20
3.341296
 30
0.000000
  0
SEQEND
  0
POLYLINE
  8
Layer 0
 66
     1
 10
0.000000
 20
0.000000
 30
0.000000
  0
VERTEX
  8
Layer 0
 10
2.851012
 20
3.341296
 30
0.000000
  0
VERTEX
  8
Layer 0
 10
2.855312
 20
3.348119
 30
0.000000
  0
SEQEND
  0
POLYLINE
  8
Layer 0
 66
     1
 10
0.000000
 20
0.000000
 30
0.000000
  0
VERTEX
  8
Layer 0
 10
2.855312
 20
3.348119
 30
0.000000
  0
VERTEX
  8
Layer 0
 10
2.862914
 20
3.350710
 30
0.000000
  0
SEQEND
  0
POLYLINE
  8
Layer 0
 66
     1
 10
0.000000
 20
0.000000
 30
0.000000
  0
VERTEX
  8
Layer 0
 10
2.862914
 20
3.350710
 30
0.000000
  0
VERTEX
  8
Layer 0
 10
2.873213
 20
3.348989
 30
0.000000
  0
SEQEND
  0
POLYLINE
  8
Layer 0
 66
     1
 10
0.000000
 20
0.000000
 30
0.000000
  0
VERTEX
  8
Layer 0
 10
2.873213
 20
3.348989
 30
0.000000
  0
VERTEX
  8
Layer 0
 10
2.882713
 20
3.344926
 30
0.000000
  0
SEQEND
  0
POLYLINE
  8
Layer 0
 66
     1
 10
0.000000
 20
0.000000
 30
0.000000
  0
VERTEX
  8
Layer 0
 10
2.882713
 20
3.344926
 30
0.000000
  0
VERTEX
  8
Layer 0
 10
2.910611
 20
3.326828
 30
0.000000
  0
SEQEND
  0
POLYLINE
  8
Layer 0
 66
     1
 10
0.000000
 20
0.000000
 30
0.000000
  0
VERTEX
  8
Layer 0
 10
2.910611
 20
3.326828
 30
0.000000
  0
VERTEX
  8
Layer 0
 10
2.936512
 20
3.306017
 30
0.000000
  0
SEQEND
  0
POLYLINE
  8
Layer 0
 66
     1
 10
0.000000
 20
0.000000
 30
0.000000
  0
VERTEX
  8
Layer 0
 10
2.936512
 20
3.306017
 30
0.000000
  0
VERTEX
  8
Layer 0
 10
2.977312
 20
3.270737
 30
0.000000
  0
SEQEND
  0
POLYLINE
  8
Layer 0
 66
     1
 10
0.000000
 20
0.000000
 30
0.000000
  0
VERTEX
  8
Layer 0
 10
2.977312
 20
3.270737
 30
0.000000
  0
VERTEX
  8
Layer 0
 10
3.013414
 20
3.230658
 30
0.000000
  0
SEQEND
  0
POLYLINE
  8
Layer 0
 66
     1
 10
0.000000
 20
0.000000
 30
0.000000
  0
VERTEX
  8
Layer 0
 10
3.013414
 20
3.230658
 30
0.000000
  0
VERTEX
  8
Layer 0
 10
3.059012
 20
3.155457
 30
0.000000
  0
SEQEND
  0
POLYLINE
  8
Layer 0
 66
     1
 10
0.000000
 20
0.000000
 30
0.000000
  0
VERTEX
  8
Layer 0
 10
3.059012
 20
3.155457
 30
0.000000
  0
VERTEX
  8
Layer 0
 10
3.063111
 20
3.152887
 30
0.000000
  0
SEQEND
  0
POLYLINE
  8
Layer 0
 66
     1
 10
0.000000
 20
0.000000
 30
0.000000
  0
VERTEX
  8
Layer 0
 10
3.063111
 20
3.152887
 30
0.000000
  0
VERTEX
  8
Layer 0
 10
3.067812
 20
3.153769
 30
0.000000
  0
SEQEND
  0
POLYLINE
  8
Layer 0
 66
     1
 10
0.000000
 20
0.000000
 30
0.000000
  0
VERTEX
  8
Layer 0
 10
3.067812
 20
3.153769
 30
0.000000
  0
VERTEX
  8
Layer 0
 10
3.070611
 20
3.157627
 30
0.000000
  0
SEQEND
  0
POLYLINE
  8
Layer 0
 66
     1
 10
0.000000
 20
0.000000
 30
0.000000
  0
VERTEX
  8
Layer 0
 10
3.070611
 20
3.157627
 30
0.000000
  0
VERTEX
  8
Layer 0
 10
3.074012
 20
3.168118
 30
0.000000
  0
SEQEND
  0
POLYLINE
  8
Layer 0
 66
     1
 10
0.000000
 20
0.000000
 30
0.000000
  0
VERTEX
  8
Layer 0
 10
3.074012
 20
3.168118
 30
0.000000
  0
VERTEX
  8
Layer 0
 10
3.075111
 20
3.179099
 30
0.000000
  0
SEQEND
  0
POLYLINE
  8
Layer 0
 66
     1
 10
0.000000
 20
0.000000
 30
0.000000
  0
VERTEX
  8
Layer 0
 10
3.075111
 20
3.179099
 30
0.000000
  0
VERTEX
  8
Layer 0
 10
3.072312
 20
3.199147
 30
0.000000
  0
SEQEND
  0
POLYLINE
  8
Layer 0
 66
     1
 10
0.000000
 20
0.000000
 30
0.000000
  0
VERTEX
  8
Layer 0
 10
3.072312
 20
3.199147
 30
0.000000
  0
VERTEX
  8
Layer 0
 10
3.065812
 20
3.218296
 30
0.000000
  0
SEQEND
  0
POLYLINE
  8
Layer 0
 66
     1
 10
0.000000
 20
0.000000
 30
0.000000
  0
VERTEX
  8
Layer 0
 10
3.065812
 20
3.218296
 30
0.000000
  0
VERTEX
  8
Layer 0
 10
3.055713
 20
3.235859
 30
0.000000
  0
SEQEND
  0
POLYLINE
  8
Layer 0
 66
     1
 10
0.000000
 20
0.000000
 30
0.000000
  0
VERTEX
  8
Layer 0
 10
3.055713
 20
3.235859
 30
0.000000
  0
VERTEX
  8
Layer 0
 10
3.033812
 20
3.270269
 30
0.000000
  0
SEQEND
  0
POLYLINE
  8
Layer 0
 66
     1
 10
0.000000
 20
0.000000
 30
0.000000
  0
VERTEX
  8
Layer 0
 10
3.033812
 20
3.270269
 30
0.000000
  0
VERTEX
  8
Layer 0
 10
3.014611
 20
3.306217
 30
0.000000
  0
SEQEND
  0
POLYLINE
  8
Layer 0
 66
     1
 10
0.000000
 20
0.000000
 30
0.000000
  0
VERTEX
  8
Layer 0
 10
3.014611
 20
3.306217
 30
0.000000
  0
VERTEX
  8
Layer 0
 10
3.014012
 20
3.310938
 30
0.000000
  0
SEQEND
  0
POLYLINE
  8
Layer 0
 66
     1
 10
0.000000
 20
0.000000
 30
0.000000
  0
VERTEX
  8
Layer 0
 10
3.014012
 20
3.310938
 30
0.000000
  0
VERTEX
  8
Layer 0
 10
3.017111
 20
3.314599
 30
0.000000
  0
SEQEND
  0
POLYLINE
  8
Layer 0
 66
     1
 10
0.000000
 20
0.000000
 30
0.000000
  0
VERTEX
  8
Layer 0
 10
3.017111
 20
3.314599
 30
0.000000
  0
VERTEX
  8
Layer 0
 10
3.021812
 20
3.314938
 30
0.000000
  0
SEQEND
  0
POLYLINE
  8
Layer 0
 66
     1
 10
0.000000
 20
0.000000
 30
0.000000
  0
VERTEX
  8
Layer 0
 10
3.021812
 20
3.314938
 30
0.000000
  0
VERTEX
  8
Layer 0
 10
3.045012
 20
3.308496
 30
0.000000
  0
SEQEND
  0
POLYLINE
  8
Layer 0
 66
     1
 10
0.000000
 20
0.000000
 30
0.000000
  0
VERTEX
  8
Layer 0
 10
3.045012
 20
3.308496
 30
0.000000
  0
VERTEX
  8
Layer 0
 10
3.075611
 20
3.295887
 30
0.000000
  0
SEQEND
  0
POLYLINE
  8
Layer 0
 66
     1
 10
0.000000
 20
0.000000
 30
0.000000
  0
VERTEX
  8
Layer 0
 10
3.075611
 20
3.295887
 30
0.000000
  0
VERTEX
  8
Layer 0
 10
3.104914
 20
3.280560
 30
0.000000
  0
SEQEND
  0
POLYLINE
  8
Layer 0
 66
     1
 10
0.000000
 20
0.000000
 30
0.000000
  0
VERTEX
  8
Layer 0
 10
3.104914
 20
3.280560
 30
0.000000
  0
VERTEX
  8
Layer 0
 10
3.137910
 20
3.260477
 30
0.000000
  0
SEQEND
  0
POLYLINE
  8
Layer 0
 66
     1
 10
0.000000
 20
0.000000
 30
0.000000
  0
VERTEX
  8
Layer 0
 10
3.137910
 20
3.260477
 30
0.000000
  0
VERTEX
  8
Layer 0
 10
3.172611
 20
3.243528
 30
0.000000
  0
SEQEND
  0
POLYLINE
  8
Layer 0
 66
     1
 10
0.000000
 20
0.000000
 30
0.000000
  0
VERTEX
  8
Layer 0
 10
3.172611
 20
3.243528
 30
0.000000
  0
VERTEX
  8
Layer 0
 10
3.181611
 20
3.242157
 30
0.000000
  0
SEQEND
  0
POLYLINE
  8
Layer 0
 66
     1
 10
0.000000
 20
0.000000
 30
0.000000
  0
VERTEX
  8
Layer 0
 10
3.181611
 20
3.242157
 30
0.000000
  0
VERTEX
  8
Layer 0
 10
3.190012
 20
3.245658
 30
0.000000
  0
SEQEND
  0
POLYLINE
  8
Layer 0
 66
     1
 10
0.000000
 20
0.000000
 30
0.000000
  0
VERTEX
  8
Layer 0
 10
3.190012
 20
3.245658
 30
0.000000
  0
VERTEX
  8
Layer 0
 10
3.192111
 20
3.253198
 30
0.000000
  0
SEQEND
  0
POLYLINE
  8
Layer 0
 66
     1
 10
0.000000
 20
0.000000
 30
0.000000
  0
VERTEX
  8
Layer 0
 10
3.192111
 20
3.253198
 30
0.000000
  0
VERTEX
  8
Layer 0
 10
3.189213
 20
3.260477
 30
0.000000
  0
SEQEND
  0
POLYLINE
  8
Layer 0
 66
     1
 10
0.000000
 20
0.000000
 30
0.000000
  0
VERTEX
  8
Layer 0
 10
3.189213
 20
3.260477
 30
0.000000
  0
VERTEX
  8
Layer 0
 10
3.159312
 20
3.288198
 30
0.000000
  0
SEQEND
  0
POLYLINE
  8
Layer 0
 66
     1
 10
0.000000
 20
0.000000
 30
0.000000
  0
VERTEX
  8
Layer 0
 10
3.159312
 20
3.288198
 30
0.000000
  0
VERTEX
  8
Layer 0
 10
3.124611
 20
3.309749
 30
0.000000
  0
SEQEND
  0
POLYLINE
  8
Layer 0
 66
     1
 10
0.000000
 20
0.000000
 30
0.000000
  0
VERTEX
  8
Layer 0
 10
3.124611
 20
3.309749
 30
0.000000
  0
VERTEX
  8
Layer 0
 10
3.050111
 20
3.353147
 30
0.000000
  0
SEQEND
  0
POLYLINE
  8
Layer 0
 66
     1
 10
0.000000
 20
0.000000
 30
0.000000
  0
VERTEX
  8
Layer 0
 10
3.050111
 20
3.353147
 30
0.000000
  0
VERTEX
  8
Layer 0
 10
2.974012
 20
3.393737
 30
0.000000
  0
SEQEND
  0
POLYLINE
  8
Layer 0
 66
     1
 10
0.000000
 20
0.000000
 30
0.000000
  0
VERTEX
  8
Layer 0
 10
2.974012
 20
3.393737
 30
0.000000
  0
VERTEX
  8
Layer 0
 10
2.872512
 20
3.442899
 30
0.000000
  0
SEQEND
  0
POLYLINE
  8
Layer 0
 66
     1
 10
0.000000
 20
0.000000
 30
0.000000
  0
VERTEX
  8
Layer 0
 10
2.872512
 20
3.442899
 30
0.000000
  0
VERTEX
  8
Layer 0
 10
2.768111
 20
3.485489
 30
0.000000
  0
SEQEND
  0
POLYLINE
  8
Layer 0
 66
     1
 10
0.000000
 20
0.000000
 30
0.000000
  0
VERTEX
  8
Layer 0
 10
2.768111
 20
3.485489
 30
0.000000
  0
VERTEX
  8
Layer 0
 10
2.711611
 20
3.503320
 30
0.000000
  0
SEQEND
  0
POLYLINE
  8
Layer 0
 66
     1
 10
0.000000
 20
0.000000
 30
0.000000
  0
VERTEX
  8
Layer 0
 10
2.711611
 20
3.503320
 30
0.000000
  0
VERTEX
  8
Layer 0
 10
2.653611
 20
3.515839
 30
0.000000
  0
SEQEND
  0
POLYLINE
  8
Layer 0
 66
     1
 10
0.000000
 20
0.000000
 30
0.000000
  0
VERTEX
  8
Layer 0
 10
2.653611
 20
3.515839
 30
0.000000
  0
VERTEX
  8
Layer 0
 10
2.594713
 20
3.522938
 30
0.000000
  0
SEQEND
  0
POLYLINE
  8
Layer 0
 66
     1
 10
0.000000
 20
0.000000
 30
0.000000
  0
VERTEX
  8
Layer 0
 10
2.594713
 20
3.522938
 30
0.000000
  0
VERTEX
  8
Layer 0
 10
2.550512
 20
3.523938
 30
0.000000
  0
SEQEND
  0
POLYLINE
  8
Layer 0
 66
     1
 10
0.000000
 20
0.000000
 30
0.000000
  0
VERTEX
  8
Layer 0
 10
2.550512
 20
3.523938
 30
0.000000
  0
VERTEX
  8
Layer 0
 10
2.506512
 20
3.520560
 30
0.000000
  0
SEQEND
  0
POLYLINE
  8
Layer 0
 66
     1
 10
0.000000
 20
0.000000
 30
0.000000
  0
VERTEX
  8
Layer 0
 10
2.506512
 20
3.520560
 30
0.000000
  0
VERTEX
  8
Layer 0
 10
2.463012
 20
3.512828
 30
0.000000
  0
SEQEND
  0
POLYLINE
  8
Layer 0
 66
     1
 10
0.000000
 20
0.000000
 30
0.000000
  0
VERTEX
  8
Layer 0
 10
2.463012
 20
3.512828
 30
0.000000
  0
VERTEX
  8
Layer 0
 10
2.430910
 20
3.503619
 30
0.000000
  0
SEQEND
  0
POLYLINE
  8
Layer 0
 66
     1
 10
0.000000
 20
0.000000
 30
0.000000
  0
VERTEX
  8
Layer 0
 10
2.430910
 20
3.503619
 30
0.000000
  0
VERTEX
  8
Layer 0
 10
2.400312
 20
3.490417
 30
0.000000
  0
SEQEND
  0
POLYLINE
  8
Layer 0
 66
     1
 10
0.000000
 20
0.000000
 30
0.000000
  0
VERTEX
  8
Layer 0
 10
1.007217
 20
3.235509
 30
0.000000
  0
VERTEX
  8
Layer 0
 10
1.089717
 20
3.300347
 30
0.000000
  0
SEQEND
  0
POLYLINE
  8
Layer 0
 66
     1
 10
0.000000
 20
0.000000
 30
0.000000
  0
VERTEX
  8
Layer 0
 10
1.089717
 20
3.300347
 30
0.000000
  0
VERTEX
  8
Layer 0
 10
1.175316
 20
3.360938
 30
0.000000
  0
SEQEND
  0
POLYLINE
  8
Layer 0
 66
     1
 10
0.000000
 20
0.000000
 30
0.000000
  0
VERTEX
  8
Layer 0
 10
1.175316
 20
3.360938
 30
0.000000
  0
VERTEX
  8
Layer 0
 10
1.264016
 20
3.417107
 30
0.000000
  0
SEQEND
  0
POLYLINE
  8
Layer 0
 66
     1
 10
0.000000
 20
0.000000
 30
0.000000
  0
VERTEX
  8
Layer 0
 10
1.264016
 20
3.417107
 30
0.000000
  0
VERTEX
  8
Layer 0
 10
1.354816
 20
3.468426
 30
0.000000
  0
SEQEND
  0
POLYLINE
  8
Layer 0
 66
     1
 10
0.000000
 20
0.000000
 30
0.000000
  0
VERTEX
  8
Layer 0
 10
1.354816
 20
3.468426
 30
0.000000
  0
VERTEX
  8
Layer 0
 10
1.448217
 20
3.515099
 30
0.000000
  0
SEQEND
  0
POLYLINE
  8
Layer 0
 66
     1
 10
0.000000
 20
0.000000
 30
0.000000
  0
VERTEX
  8
Layer 0
 10
1.448217
 20
3.515099
 30
0.000000
  0
VERTEX
  8
Layer 0
 10
1.543816
 20
3.556989
 30
0.000000
  0
SEQEND
  0
POLYLINE
  8
Layer 0
 66
     1
 10
0.000000
 20
0.000000
 30
0.000000
  0
VERTEX
  8
Layer 0
 10
1.543816
 20
3.556989
 30
0.000000
  0
VERTEX
  8
Layer 0
 10
1.640914
 20
3.593839
 30
0.000000
  0
SEQEND
  0
POLYLINE
  8
Layer 0
 66
     1
 10
0.000000
 20
0.000000
 30
0.000000
  0
VERTEX
  8
Layer 0
 10
1.640914
 20
3.593839
 30
0.000000
  0
VERTEX
  8
Layer 0
 10
1.739717
 20
3.625749
 30
0.000000
  0
SEQEND
  0
POLYLINE
  8
Layer 0
 66
     1
 10
0.000000
 20
0.000000
 30
0.000000
  0
VERTEX
  8
Layer 0
 10
1.739717
 20
3.625749
 30
0.000000
  0
VERTEX
  8
Layer 0
 10
1.840016
 20
3.652619
 30
0.000000
  0
SEQEND
  0
POLYLINE
  8
Layer 0
 66
     1
 10
0.000000
 20
0.000000
 30
0.000000
  0
VERTEX
  8
Layer 0
 10
1.840016
 20
3.652619
 30
0.000000
  0
VERTEX
  8
Layer 0
 10
1.953816
 20
3.676619
 30
0.000000
  0
SEQEND
  0
POLYLINE
  8
Layer 0
 66
     1
 10
0.000000
 20
0.000000
 30
0.000000
  0
VERTEX
  8
Layer 0
 10
1.953816
 20
3.676619
 30
0.000000
  0
VERTEX
  8
Layer 0
 10
2.068816
 20
3.694147
 30
0.000000
  0
SEQEND
  0
POLYLINE
  8
Layer 0
 66
     1
 10
0.000000
 20
0.000000
 30
0.000000
  0
VERTEX
  8
Layer 0
 10
2.068816
 20
3.694147
 30
0.000000
  0
VERTEX
  8
Layer 0
 10
2.184717
 20
3.705147
 30
0.000000
  0
SEQEND
  0
POLYLINE
  8
Layer 0
 66
     1
 10
0.000000
 20
0.000000
 30
0.000000
  0
VERTEX
  8
Layer 0
 10
2.184717
 20
3.705147
 30
0.000000
  0
VERTEX
  8
Layer 0
 10
2.300914
 20
3.709579
 30
0.000000
  0
SEQEND
  0
POLYLINE
  8
Layer 0
 66
     1
 10
0.000000
 20
0.000000
 30
0.000000
  0
VERTEX
  8
Layer 0
 10
2.300914
 20
3.709579
 30
0.000000
  0
VERTEX
  8
Layer 0
 10
2.417213
 20
3.707426
 30
0.000000
  0
SEQEND
  0
POLYLINE
  8
Layer 0
 66
     1
 10
0.000000
 20
0.000000
 30
0.000000
  0
VERTEX
  8
Layer 0
 10
2.417213
 20
3.707426
 30
0.000000
  0
VERTEX
  8
Layer 0
 10
2.533213
 20
3.698709
 30
0.000000
  0
SEQEND
  0
POLYLINE
  8
Layer 0
 66
     1
 10
0.000000
 20
0.000000
 30
0.000000
  0
VERTEX
  8
Layer 0
 10
2.533213
 20
3.698709
 30
0.000000
  0
VERTEX
  8
Layer 0
 10
2.648512
 20
3.683438
 30
0.000000
  0
SEQEND
  0
POLYLINE
  8
Layer 0
 66
     1
 10
0.000000
 20
0.000000
 30
0.000000
  0
VERTEX
  8
Layer 0
 10
2.648512
 20
3.683438
 30
0.000000
  0
VERTEX
  8
Layer 0
 10
2.762812
 20
3.661666
 30
0.000000
  0
SEQEND
  0
POLYLINE
  8
Layer 0
 66
     1
 10
0.000000
 20
0.000000
 30
0.000000
  0
VERTEX
  8
Layer 0
 10
2.762812
 20
3.661666
 30
0.000000
  0
VERTEX
  8
Layer 0
 10
2.863611
 20
3.636820
 30
0.000000
  0
SEQEND
  0
POLYLINE
  8
Layer 0
 66
     1
 10
0.000000
 20
0.000000
 30
0.000000
  0
VERTEX
  8
Layer 0
 10
2.863611
 20
3.636820
 30
0.000000
  0
VERTEX
  8
Layer 0
 10
2.962910
 20
3.606905
 30
0.000000
  0
SEQEND
  0
POLYLINE
  8
Layer 0
 66
     1
 10
0.000000
 20
0.000000
 30
0.000000
  0
VERTEX
  8
Layer 0
 10
2.962910
 20
3.606905
 30
0.000000
  0
VERTEX
  8
Layer 0
 10
3.060611
 20
3.572009
 30
0.000000
  0
SEQEND
  0
POLYLINE
  8
Layer 0
 66
     1
 10
0.000000
 20
0.000000
 30
0.000000
  0
VERTEX
  8
Layer 0
 10
3.060611
 20
3.572009
 30
0.000000
  0
VERTEX
  8
Layer 0
 10
3.157012
 20
3.532017
 30
0.000000
  0
SEQEND
  0
POLYLINE
  8
Layer 0
 66
     1
 10
0.000000
 20
0.000000
 30
0.000000
  0
VERTEX
  8
Layer 0
 10
3.157012
 20
3.532017
 30
0.000000
  0
VERTEX
  8
Layer 0
 10
3.251213
 20
3.487229
 30
0.000000
  0
SEQEND
  0
POLYLINE
  8
Layer 0
 66
     1
 10
0.000000
 20
0.000000
 30
0.000000
  0
VERTEX
  8
Layer 0
 10
3.251213
 20
3.487229
 30
0.000000
  0
VERTEX
  8
Layer 0
 10
3.343012
 20
3.437737
 30
0.000000
  0
SEQEND
  0
POLYLINE
  8
Layer 0
 66
     1
 10
0.000000
 20
0.000000
 30
0.000000
  0
VERTEX
  8
Layer 0
 10
3.343012
 20
3.437737
 30
0.000000
  0
VERTEX
  8
Layer 0
 10
3.432611
 20
3.383406
 30
0.000000
  0
SEQEND
  0
POLYLINE
  8
Layer 0
 66
     1
 10
0.000000
 20
0.000000
 30
0.000000
  0
VERTEX
  8
Layer 0
 10
3.432611
 20
3.383406
 30
0.000000
  0
VERTEX
  8
Layer 0
 10
3.519410
 20
3.324607
 30
0.000000
  0
SEQEND
  0
POLYLINE
  8
Layer 0
 66
     1
 10
0.000000
 20
0.000000
 30
0.000000
  0
VERTEX
  8
Layer 0
 10
3.519410
 20
3.324607
 30
0.000000
  0
VERTEX
  8
Layer 0
 10
3.603012
 20
3.261489
 30
0.000000
  0
SEQEND
  0
POLYLINE
  8
Layer 0
 66
     1
 10
0.000000
 20
0.000000
 30
0.000000
  0
VERTEX
  8
Layer 0
 10
3.603012
 20
3.261489
 30
0.000000
  0
VERTEX
  8
Layer 0
 10
3.683910
 20
3.193796
 30
0.000000
  0
SEQEND
  0
POLYLINE
  8
Layer 0
 66
     1
 10
0.000000
 20
0.000000
 30
0.000000
  0
VERTEX
  8
Layer 0
 10
3.683910
 20
3.193796
 30
0.000000
  0
VERTEX
  8
Layer 0
 10
3.761312
 20
3.122118
 30
0.000000
  0
SEQEND
  0
POLYLINE
  8
Layer 0
 66
     1
 10
0.000000
 20
0.000000
 30
0.000000
  0
VERTEX
  8
Layer 0
 10
3.761312
 20
3.122118
 30
0.000000
  0
VERTEX
  8
Layer 0
 10
3.834910
 20
3.046647
 30
0.000000
  0
SEQEND
  0
POLYLINE
  8
Layer 0
 66
     1
 10
0.000000
 20
0.000000
 30
0.000000
  0
VERTEX
  8
Layer 0
 10
3.834910
 20
3.046647
 30
0.000000
  0
VERTEX
  8
Layer 0
 10
3.904611
 20
2.967737
 30
0.000000
  0
SEQEND
  0
POLYLINE
  8
Layer 0
 66
     1
 10
0.000000
 20
0.000000
 30
0.000000
  0
VERTEX
  8
Layer 0
 10
3.904611
 20
2.967737
 30
0.000000
  0
VERTEX
  8
Layer 0
 10
3.970111
 20
2.885406
 30
0.000000
  0
SEQEND
  0
POLYLINE
  8
Layer 0
 66
     1
 10
0.000000
 20
0.000000
 30
0.000000
  0
VERTEX
  8
Layer 0
 10
3.970111
 20
2.885406
 30
0.000000
  0
VERTEX
  8
Layer 0
 10
4.031512
 20
2.799879
 30
0.000000
  0
SEQEND
  0
POLYLINE
  8
Layer 0
 66
     1
 10
0.000000
 20
0.000000
 30
0.000000
  0
VERTEX
  8
Layer 0
 10
4.031512
 20
2.799879
 30
0.000000
  0
VERTEX
  8
Layer 0
 10
4.087910
 20
2.711977
 30
0.000000
  0
SEQEND
  0
POLYLINE
  8
Layer 0
 66
     1
 10
0.000000
 20
0.000000
 30
0.000000
  0
VERTEX
  8
Layer 0
 10
4.087910
 20
2.711977
 30
0.000000
  0
VERTEX
  8
Layer 0
 10
4.139910
 20
2.621339
 30
0.000000
  0
SEQEND
  0
POLYLINE
  8
Layer 0
 66
     1
 10
0.000000
 20
0.000000
 30
0.000000
  0
VERTEX
  8
Layer 0
 10
4.139910
 20
2.621339
 30
0.000000
  0
VERTEX
  8
Layer 0
 10
4.187111
 20
2.528178
 30
0.000000
  0
SEQEND
  0
POLYLINE
  8
Layer 0
 66
     1
 10
0.000000
 20
0.000000
 30
0.000000
  0
VERTEX
  8
Layer 0
 10
4.187111
 20
2.528178
 30
0.000000
  0
VERTEX
  8
Layer 0
 10
4.229512
 20
2.433139
 30
0.000000
  0
SEQEND
  0
POLYLINE
  8
Layer 0
 66
     1
 10
0.000000
 20
0.000000
 30
0.000000
  0
VERTEX
  8
Layer 0
 10
4.229512
 20
2.433139
 30
0.000000
  0
VERTEX
  8
Layer 0
 10
4.267111
 20
2.336088
 30
0.000000
  0
SEQEND
  0
POLYLINE
  8
Layer 0
 66
     1
 10
0.000000
 20
0.000000
 30
0.000000
  0
VERTEX
  8
Layer 0
 10
4.267111
 20
2.336088
 30
0.000000
  0
VERTEX
  8
Layer 0
 10
4.299713
 20
2.237269
 30
0.000000
  0
SEQEND
  0
POLYLINE
  8
Layer 0
 66
     1
 10
0.000000
 20
0.000000
 30
0.000000
  0
VERTEX
  8
Layer 0
 10
4.299713
 20
2.237269
 30
0.000000
  0
VERTEX
  8
Layer 0
 10
4.331910
 20
2.117450
 30
0.000000
  0
SEQEND
  0
POLYLINE
  8
Layer 0
 66
     1
 10
0.000000
 20
0.000000
 30
0.000000
  0
VERTEX
  8
Layer 0
 10
4.331910
 20
2.117450
 30
0.000000
  0
VERTEX
  8
Layer 0
 10
4.356812
 20
1.995906
 30
0.000000
  0
SEQEND
  0
POLYLINE
  8
Layer 0
 66
     1
 10
0.000000
 20
0.000000
 30
0.000000
  0
VERTEX
  8
Layer 0
 10
4.356812
 20
1.995906
 30
0.000000
  0
VERTEX
  8
Layer 0
 10
4.374312
 20
1.873091
 30
0.000000
  0
SEQEND
  0
POLYLINE
  8
Layer 0
 66
     1
 10
0.000000
 20
0.000000
 30
0.000000
  0
VERTEX
  8
Layer 0
 10
4.374312
 20
1.873091
 30
0.000000
  0
VERTEX
  8
Layer 0
 10
4.384312
 20
1.749430
 30
0.000000
  0
SEQEND
  0
POLYLINE
  8
Layer 0
 66
     1
 10
0.000000
 20
0.000000
 30
0.000000
  0
VERTEX
  8
Layer 0
 10
4.384312
 20
1.749430
 30
0.000000
  0
VERTEX
  8
Layer 0
 10
4.387012
 20
1.625402
 30
0.000000
  0
SEQEND
  0
POLYLINE
  8
Layer 0
 66
     1
 10
0.000000
 20
0.000000
 30
0.000000
  0
VERTEX
  8
Layer 0
 10
4.387012
 20
1.625402
 30
0.000000
  0
VERTEX
  8
Layer 0
 10
4.383914
 20
1.522111
 30
0.000000
  0
SEQEND
  0
POLYLINE
  8
Layer 0
 66
     1
 10
0.000000
 20
0.000000
 30
0.000000
  0
VERTEX
  8
Layer 0
 10
4.383914
 20
1.522111
 30
0.000000
  0
VERTEX
  8
Layer 0
 10
4.375214
 20
1.419143
 30
0.000000
  0
SEQEND
  0
POLYLINE
  8
Layer 0
 66
     1
 10
0.000000
 20
0.000000
 30
0.000000
  0
VERTEX
  8
Layer 0
 10
4.375214
 20
1.419143
 30
0.000000
  0
VERTEX
  8
Layer 0
 10
4.361012
 20
1.316800
 30
0.000000
  0
SEQEND
  0
POLYLINE
  8
Layer 0
 66
     1
 10
0.000000
 20
0.000000
 30
0.000000
  0
VERTEX
  8
Layer 0
 10
4.361012
 20
1.316800
 30
0.000000
  0
VERTEX
  8
Layer 0
 10
4.334611
 20
1.188584
 30
0.000000
  0
SEQEND
  0
POLYLINE
  8
Layer 0
 66
     1
 10
0.000000
 20
0.000000
 30
0.000000
  0
VERTEX
  8
Layer 0
 10
4.334611
 20
1.188584
 30
0.000000
  0
VERTEX
  8
Layer 0
 10
4.302012
 20
1.061800
 30
0.000000
  0
SEQEND
  0
POLYLINE
  8
Layer 0
 66
     1
 10
0.000000
 20
0.000000
 30
0.000000
  0
VERTEX
  8
Layer 0
 10
4.302012
 20
1.061800
 30
0.000000
  0
VERTEX
  8
Layer 0
 10
4.292260
 20
1.028843
 30
0.000000
  0
VERTEX
  8
Layer 0
 10
4.282512
 20
0.995883
 30
0.000000
  0
SEQEND
  0
POLYLINE
  8
Layer 0
 66
     1
 10
0.000000
 20
0.000000
 30
0.000000
  0
VERTEX
  8
Layer 0
 10
4.282512
 20
0.995883
 30
0.000000
  0
VERTEX
  8
Layer 0
 10
4.279213
 20
0.986233
 30
0.000000
  0
VERTEX
  8
Layer 0
 10
4.275914
 20
0.976584
 30
0.000000
  0
SEQEND
  0
POLYLINE
  8
Layer 0
 66
     1
 10
0.000000
 20
0.000000
 30
0.000000
  0
VERTEX
  8
Layer 0
 10
4.275914
 20
0.976584
 30
0.000000
  0
VERTEX
  8
Layer 0
 10
4.239583
 20
0.976658
 30
0.000000
  0
VERTEX
  8
Layer 0
 10
4.203253
 20
0.976729
 30
0.000000
  0
VERTEX
  8
Layer 0
 10
4.164111
 20
0.976808
 30
0.000000
  0
VERTEX
  8
Layer 0
 10
4.124969
 20
0.976883
 30
0.000000
  0
VERTEX
  8
Layer 0
 10
4.076056
 20
0.976981
 30
0.000000
  0
VERTEX
  8
Layer 0
 10
4.027143
 20
0.977080
 30
0.000000
  0
VERTEX
  8
Layer 0
 10
3.958666
 20
0.977214
 30
0.000000
  0
VERTEX
  8
Layer 0
 10
3.890190
 20
0.977347
 30
0.000000
  0
VERTEX
  8
Layer 0
 10
3.835402
 20
0.977458
 30
0.000000
  0
VERTEX
  8
Layer 0
 10
3.780615
 20
0.977564
 30
0.000000
  0
VERTEX
  8
Layer 0
 10
3.747697
 20
0.977631
 30
0.000000
  0
VERTEX
  8
Layer 0
 10
3.714784
 20
0.977698
 30
0.000000
  0
VERTEX
  8
Layer 0
 10
3.679205
 20
0.977769
 30
0.000000
  0
VERTEX
  8
Layer 0
 10
3.643627
 20
0.977836
 30
0.000000
  0
VERTEX
  8
Layer 0
 10
3.608410
 20
0.977906
 30
0.000000
  0
VERTEX
  8
Layer 0
 10
3.573194
 20
0.977973
 30
0.000000
  0
VERTEX
  8
Layer 0
 10
3.534060
 20
0.978052
 30
0.000000
  0
VERTEX
  8
Layer 0
 10
3.494926
 20
0.978131
 30
0.000000
  0
VERTEX
  8
Layer 0
 10
3.459701
 20
0.978202
 30
0.000000
  0
VERTEX
  8
Layer 0
 10
3.424477
 20
0.978269
 30
0.000000
  0
VERTEX
  8
Layer 0
 10
3.395127
 20
0.978328
 30
0.000000
  0
VERTEX
  8
Layer 0
 10
3.365776
 20
0.978383
 30
0.000000
  0
VERTEX
  8
Layer 0
 10
3.314442
 20
0.978485
 30
0.000000
  0
VERTEX
  8
Layer 0
 10
3.263111
 20
0.978584
 30
0.000000
  0
SEQEND
  0
POLYLINE
  8
Layer 0
 66
     1
 10
0.000000
 20
0.000000
 30
0.000000
  0
VERTEX
  8
Layer 0
 10
3.263111
 20
0.978584
 30
0.000000
  0
VERTEX
  8
Layer 0
 10
3.257060
 20
0.984654
 30
0.000000
  0
VERTEX
  8
Layer 0
 10
3.251012
 20
0.990721
 30
0.000000
  0
SEQEND
  0
POLYLINE
  8
Layer 0
 66
     1
 10
0.000000
 20
0.000000
 30
0.000000
  0
VERTEX
  8
Layer 0
 10
3.251012
 20
0.990721
 30
0.000000
  0
VERTEX
  8
Layer 0
 10
3.235410
 20
0.997832
 30
0.000000
  0
SEQEND
  0
POLYLINE
  8
Layer 0
 66
     1
 10
0.000000
 20
0.000000
 30
0.000000
  0
VERTEX
  8
Layer 0
 10
3.235410
 20
0.997832
 30
0.000000
  0
VERTEX
  8
Layer 0
 10
3.186812
 20
1.006332
 30
0.000000
  0
SEQEND
  0
POLYLINE
  8
Layer 0
 66
     1
 10
0.000000
 20
0.000000
 30
0.000000
  0
VERTEX
  8
Layer 0
 10
3.186812
 20
1.006332
 30
0.000000
  0
VERTEX
  8
Layer 0
 10
3.170213
 20
1.010442
 30
0.000000
  0
SEQEND
  0
POLYLINE
  8
Layer 0
 66
     1
 10
0.000000
 20
0.000000
 30
0.000000
  0
VERTEX
  8
Layer 0
 10
3.170213
 20
1.010442
 30
0.000000
  0
VERTEX
  8
Layer 0
 10
3.156611
 20
1.020922
 30
0.000000
  0
SEQEND
  0
POLYLINE
  8
Layer 0
 66
     1
 10
0.000000
 20
0.000000
 30
0.000000
  0
VERTEX
  8
Layer 0
 10
3.156611
 20
1.020922
 30
0.000000
  0
VERTEX
  8
Layer 0
 10
3.148410
 20
1.035993
 30
0.000000
  0
SEQEND
  0
POLYLINE
  8
Layer 0
 66
     1
 10
0.000000
 20
0.000000
 30
0.000000
  0
VERTEX
  8
Layer 0
 10
3.148410
 20
1.035993
 30
0.000000
  0
VERTEX
  8
Layer 0
 10
3.145111
 20
1.058651
 30
0.000000
  0
SEQEND
  0
POLYLINE
  8
Layer 0
 66
     1
 10
0.000000
 20
0.000000
 30
0.000000
  0
VERTEX
  8
Layer 0
 10
3.145111
 20
1.058651
 30
0.000000
  0
VERTEX
  8
Layer 0
 10
3.144611
 20
1.081564
 30
0.000000
  0
SEQEND
  0
POLYLINE
  8
Layer 0
 66
     1
 10
0.000000
 20
0.000000
 30
0.000000
  0
VERTEX
  8
Layer 0
 10
3.144611
 20
1.081564
 30
0.000000
  0
VERTEX
  8
Layer 0
 10
3.144111
 20
1.161741
 30
0.000000
  0
SEQEND
  0
POLYLINE
  8
Layer 0
 66
     1
 10
0.000000
 20
0.000000
 30
0.000000
  0
VERTEX
  8
Layer 0
 10
3.144111
 20
1.161741
 30
0.000000
  0
VERTEX
  8
Layer 0
 10
3.140213
 20
1.274343
 30
0.000000
  0
SEQEND
  0
POLYLINE
  8
Layer 0
 66
     1
 10
0.000000
 20
0.000000
 30
0.000000
  0
VERTEX
  8
Layer 0
 10
3.140213
 20
1.274343
 30
0.000000
  0
VERTEX
  8
Layer 0
 10
3.140343
 20
1.323891
 30
0.000000
  0
VERTEX
  8
Layer 0
 10
3.140512
 20
1.387001
 30
0.000000
  0
SEQEND
  0
POLYLINE
  8
Layer 0
 66
     1
 10
0.000000
 20
0.000000
 30
0.000000
  0
VERTEX
  8
Layer 0
 10
3.140512
 20
1.387001
 30
0.000000
  0
VERTEX
  8
Layer 0
 10
3.144512
 20
1.420993
 30
0.000000
  0
SEQEND
  0
POLYLINE
  8
Layer 0
 66
     1
 10
0.000000
 20
0.000000
 30
0.000000
  0
VERTEX
  8
Layer 0
 10
3.144512
 20
1.420993
 30
0.000000
  0
VERTEX
  8
Layer 0
 10
3.152213
 20
1.454343
 30
0.000000
  0
SEQEND
  0
POLYLINE
  8
Layer 0
 66
     1
 10
0.000000
 20
0.000000
 30
0.000000
  0
VERTEX
  8
Layer 0
 10
3.152213
 20
1.454343
 30
0.000000
  0
VERTEX
  8
Layer 0
 10
3.162713
 20
1.492871
 30
0.000000
  0
SEQEND
  0
POLYLINE
  8
Layer 0
 66
     1
 10
0.000000
 20
0.000000
 30
0.000000
  0
VERTEX
  8
Layer 0
 10
3.162713
 20
1.492871
 30
0.000000
  0
VERTEX
  8
Layer 0
 10
3.162512
 20
1.510741
 30
0.000000
  0
SEQEND
  0
POLYLINE
  8
Layer 0
 66
     1
 10
0.000000
 20
0.000000
 30
0.000000
  0
VERTEX
  8
Layer 0
 10
3.162512
 20
1.510741
 30
0.000000
  0
VERTEX
  8
Layer 0
 10
3.158910
 20
1.528253
 30
0.000000
  0
SEQEND
  0
POLYLINE
  8
Layer 0
 66
     1
 10
0.000000
 20
0.000000
 30
0.000000
  0
VERTEX
  8
Layer 0
 10
3.158910
 20
1.528253
 30
0.000000
  0
VERTEX
  8
Layer 0
 10
3.144213
 20
1.581891
 30
0.000000
  0
SEQEND
  0
POLYLINE
  8
Layer 0
 66
     1
 10
0.000000
 20
0.000000
 30
0.000000
  0
VERTEX
  8
Layer 0
 10
3.144213
 20
1.581891
 30
0.000000
  0
VERTEX
  8
Layer 0
 10
3.129020
 20
1.652186
 30
0.000000
  0
VERTEX
  8
Layer 0
 10
3.121052
 20
1.689068
 30
0.000000
  0
VERTEX
  8
Layer 0
 10
3.106312
 20
1.757280
 30
0.000000
  0
SEQEND
  0
POLYLINE
  8
Layer 0
 66
     1
 10
0.000000
 20
0.000000
 30
0.000000
  0
VERTEX
  8
Layer 0
 10
3.106312
 20
1.757280
 30
0.000000
  0
VERTEX
  8
Layer 0
 10
3.091512
 20
1.830973
 30
0.000000
  0
SEQEND
  0
POLYLINE
  8
Layer 0
 66
     1
 10
0.000000
 20
0.000000
 30
0.000000
  0
VERTEX
  8
Layer 0
 10
3.091512
 20
1.830973
 30
0.000000
  0
VERTEX
  8
Layer 0
 10
3.088012
 20
1.855162
 30
0.000000
  0
SEQEND
  0
POLYLINE
  8
Layer 0
 66
     1
 10
0.000000
 20
0.000000
 30
0.000000
  0
VERTEX
  8
Layer 0
 10
3.088012
 20
1.855162
 30
0.000000
  0
VERTEX
  8
Layer 0
 10
3.088012
 20
1.879603
 30
0.000000
  0
SEQEND
  0
POLYLINE
  8
Layer 0
 66
     1
 10
0.000000
 20
0.000000
 30
0.000000
  0
VERTEX
  8
Layer 0
 10
3.088012
 20
1.879603
 30
0.000000
  0
VERTEX
  8
Layer 0
 10
3.090213
 20
1.889151
 30
0.000000
  0
SEQEND
  0
POLYLINE
  8
Layer 0
 66
     1
 10
0.000000
 20
0.000000
 30
0.000000
  0
VERTEX
  8
Layer 0
 10
3.090213
 20
1.889151
 30
0.000000
  0
VERTEX
  8
Layer 0
 10
3.096012
 20
1.897084
 30
0.000000
  0
SEQEND
  0
POLYLINE
  8
Layer 0
 66
     1
 10
0.000000
 20
0.000000
 30
0.000000
  0
VERTEX
  8
Layer 0
 10
3.096012
 20
1.897084
 30
0.000000
  0
VERTEX
  8
Layer 0
 10
3.104410
 20
1.902131
 30
0.000000
  0
SEQEND
  0
POLYLINE
  8
Layer 0
 66
     1
 10
0.000000
 20
0.000000
 30
0.000000
  0
VERTEX
  8
Layer 0
 10
3.104410
 20
1.902131
 30
0.000000
  0
VERTEX
  8
Layer 0
 10
3.127512
 20
1.905052
 30
0.000000
  0
SEQEND
  0
POLYLINE
  8
Layer 0
 66
     1
 10
0.000000
 20
0.000000
 30
0.000000
  0
VERTEX
  8
Layer 0
 10
3.127512
 20
1.905052
 30
0.000000
  0
VERTEX
  8
Layer 0
 10
3.150812
 20
1.902910
 30
0.000000
  0
SEQEND
  0
POLYLINE
  8
Layer 0
 66
     1
 10
0.000000
 20
0.000000
 30
0.000000
  0
VERTEX
  8
Layer 0
 10
3.150812
 20
1.902910
 30
0.000000
  0
VERTEX
  8
Layer 0
 10
3.220012
 20
1.888930
 30
0.000000
  0
SEQEND
  0
POLYLINE
  8
Layer 0
 66
     1
 10
0.000000
 20
0.000000
 30
0.000000
  0
VERTEX
  8
Layer 0
 10
3.220012
 20
1.888930
 30
0.000000
  0
VERTEX
  8
Layer 0
 10
3.287611
 20
1.868221
 30
0.000000
  0
SEQEND
  0
POLYLINE
  8
Layer 0
 66
     1
 10
0.000000
 20
0.000000
 30
0.000000
  0
VERTEX
  8
Layer 0
 10
3.287611
 20
1.868221
 30
0.000000
  0
VERTEX
  8
Layer 0
 10
3.352812
 20
1.840981
 30
0.000000
  0
SEQEND
  0
POLYLINE
  8
Layer 0
 66
     1
 10
0.000000
 20
0.000000
 30
0.000000
  0
VERTEX
  8
Layer 0
 10
3.352812
 20
1.840981
 30
0.000000
  0
VERTEX
  8
Layer 0
 10
3.445611
 20
1.793591
 30
0.000000
  0
SEQEND
  0
POLYLINE
  8
Layer 0
 66
     1
 10
0.000000
 20
0.000000
 30
0.000000
  0
VERTEX
  8
Layer 0
 10
3.445611
 20
1.793591
 30
0.000000
  0
VERTEX
  8
Layer 0
 10
3.535410
 20
1.740832
 30
0.000000
  0
SEQEND
  0
POLYLINE
  8
Layer 0
 66
     1
 10
0.000000
 20
0.000000
 30
0.000000
  0
VERTEX
  8
Layer 0
 10
3.535410
 20
1.740832
 30
0.000000
  0
VERTEX
  8
Layer 0
 10
3.622012
 20
1.682902
 30
0.000000
  0
SEQEND
  0
POLYLINE
  8
Layer 0
 66
     1
 10
0.000000
 20
0.000000
 30
0.000000
  0
VERTEX
  8
Layer 0
 10
3.622012
 20
1.682902
 30
0.000000
  0
VERTEX
  8
Layer 0
 10
3.685418
 20
1.633210
 30
0.000000
  0
VERTEX
  8
Layer 0
 10
3.759611
 20
1.575064
 30
0.000000
  0
SEQEND
  0
POLYLINE
  8
Layer 0
 66
     1
 10
0.000000
 20
0.000000
 30
0.000000
  0
VERTEX
  8
Layer 0
 10
3.759611
 20
1.575064
 30
0.000000
  0
VERTEX
  8
Layer 0
 10
3.765012
 20
1.572292
 30
0.000000
  0
SEQEND
  0
POLYLINE
  8
Layer 0
 66
     1
 10
0.000000
 20
0.000000
 30
0.000000
  0
VERTEX
  8
Layer 0
 10
3.765012
 20
1.572292
 30
0.000000
  0
VERTEX
  8
Layer 0
 10
3.771012
 20
1.571513
 30
0.000000
  0
SEQEND
  0
POLYLINE
  8
Layer 0
 66
     1
 10
0.000000
 20
0.000000
 30
0.000000
  0
VERTEX
  8
Layer 0
 10
3.771012
 20
1.571513
 30
0.000000
  0
VERTEX
  8
Layer 0
 10
3.775914
 20
1.577123
 30
0.000000
  0
SEQEND
  0
POLYLINE
  8
Layer 0
 66
     1
 10
0.000000
 20
0.000000
 30
0.000000
  0
VERTEX
  8
Layer 0
 10
3.775914
 20
1.577123
 30
0.000000
  0
VERTEX
  8
Layer 0
 10
3.776213
 20
1.584572
 30
0.000000
  0
SEQEND
  0
POLYLINE
  8
Layer 0
 66
     1
 10
0.000000
 20
0.000000
 30
0.000000
  0
VERTEX
  8
Layer 0
 10
3.776213
 20
1.584572
 30
0.000000
  0
VERTEX
  8
Layer 0
 10
3.772713
 20
1.615584
 30
0.000000
  0
SEQEND
  0
POLYLINE
  8
Layer 0
 66
     1
 10
0.000000
 20
0.000000
 30
0.000000
  0
VERTEX
  8
Layer 0
 10
3.772713
 20
1.615584
 30
0.000000
  0
VERTEX
  8
Layer 0
 10
3.759910
 20
1.687442
 30
0.000000
  0
SEQEND
  0
POLYLINE
  8
Layer 0
 66
     1
 10
0.000000
 20
0.000000
 30
0.000000
  0
VERTEX
  8
Layer 0
 10
3.759910
 20
1.687442
 30
0.000000
  0
VERTEX
  8
Layer 0
 10
3.742713
 20
1.758383
 30
0.000000
  0
SEQEND
  0
POLYLINE
  8
Layer 0
 66
     1
 10
0.000000
 20
0.000000
 30
0.000000
  0
VERTEX
  8
Layer 0
 10
3.742713
 20
1.758383
 30
0.000000
  0
VERTEX
  8
Layer 0
 10
3.722312
 20
1.823981
 30
0.000000
  0
SEQEND
  0
POLYLINE
  8
Layer 0
 66
     1
 10
0.000000
 20
0.000000
 30
0.000000
  0
VERTEX
  8
Layer 0
 10
3.722312
 20
1.823981
 30
0.000000
  0
VERTEX
  8
Layer 0
 10
3.698111
 20
1.888324
 30
0.000000
  0
SEQEND
  0
POLYLINE
  8
Layer 0
 66
     1
 10
0.000000
 20
0.000000
 30
0.000000
  0
VERTEX
  8
Layer 0
 10
3.698111
 20
1.888324
 30
0.000000
  0
VERTEX
  8
Layer 0
 10
3.670410
 20
1.951202
 30
0.000000
  0
SEQEND
  0
POLYLINE
  8
Layer 0
 66
     1
 10
0.000000
 20
0.000000
 30
0.000000
  0
VERTEX
  8
Layer 0
 10
3.670410
 20
1.951202
 30
0.000000
  0
VERTEX
  8
Layer 0
 10
3.621611
 20
2.047469
 30
0.000000
  0
SEQEND
  0
POLYLINE
  8
Layer 0
 66
     1
 10
0.000000
 20
0.000000
 30
0.000000
  0
VERTEX
  8
Layer 0
 10
3.621611
 20
2.047469
 30
0.000000
  0
VERTEX
  8
Layer 0
 10
3.604410
 20
2.081977
 30
0.000000
  0
SEQEND
  0
POLYLINE
  8
Layer 0
 66
     1
 10
0.000000
 20
0.000000
 30
0.000000
  0
VERTEX
  8
Layer 0
 10
3.604410
 20
2.081977
 30
0.000000
  0
VERTEX
  8
Layer 0
 10
3.590512
 20
2.117938
 30
0.000000
  0
SEQEND
  0
POLYLINE
  8
Layer 0
 66
     1
 10
0.000000
 20
0.000000
 30
0.000000
  0
VERTEX
  8
Layer 0
 10
3.590512
 20
2.117938
 30
0.000000
  0
VERTEX
  8
Layer 0
 10
3.588910
 20
2.127099
 30
0.000000
  0
SEQEND
  0
POLYLINE
  8
Layer 0
 66
     1
 10
0.000000
 20
0.000000
 30
0.000000
  0
VERTEX
  8
Layer 0
 10
3.588910
 20
2.127099
 30
0.000000
  0
VERTEX
  8
Layer 0
 10
3.589713
 20
2.136367
 30
0.000000
  0
SEQEND
  0
POLYLINE
  8
Layer 0
 66
     1
 10
0.000000
 20
0.000000
 30
0.000000
  0
VERTEX
  8
Layer 0
 10
3.948910
 20
0.041584
 30
0.000000
  0
VERTEX
  8
Layer 0
 10
4.028713
 20
0.126812
 30
0.000000
  0
SEQEND
  0
POLYLINE
  8
Layer 0
 66
     1
 10
0.000000
 20
0.000000
 30
0.000000
  0
VERTEX
  8
Layer 0
 10
4.028713
 20
0.126812
 30
0.000000
  0
VERTEX
  8
Layer 0
 10
4.104111
 20
0.215973
 30
0.000000
  0
SEQEND
  0
POLYLINE
  8
Layer 0
 66
     1
 10
0.000000
 20
0.000000
 30
0.000000
  0
VERTEX
  8
Layer 0
 10
4.104111
 20
0.215973
 30
0.000000
  0
VERTEX
  8
Layer 0
 10
4.174911
 20
0.308832
 30
0.000000
  0
SEQEND
  0
POLYLINE
  8
Layer 0
 66
     1
 10
0.000000
 20
0.000000
 30
0.000000
  0
VERTEX
  8
Layer 0
 10
4.174911
 20
0.308832
 30
0.000000
  0
VERTEX
  8
Layer 0
 10
4.240410
 20
0.404454
 30
0.000000
  0
SEQEND
  0
POLYLINE
  8
Layer 0
 66
     1
 10
0.000000
 20
0.000000
 30
0.000000
  0
VERTEX
  8
Layer 0
 10
4.240410
 20
0.404454
 30
0.000000
  0
VERTEX
  8
Layer 0
 10
4.300910
 20
0.503280
 30
0.000000
  0
SEQEND
  0
POLYLINE
  8
Layer 0
 66
     1
 10
0.000000
 20
0.000000
 30
0.000000
  0
VERTEX
  8
Layer 0
 10
4.300910
 20
0.503280
 30
0.000000
  0
VERTEX
  8
Layer 0
 10
4.356312
 20
0.605052
 30
0.000000
  0
SEQEND
  0
POLYLINE
  8
Layer 0
 66
     1
 10
0.000000
 20
0.000000
 30
0.000000
  0
VERTEX
  8
Layer 0
 10
4.356312
 20
0.605052
 30
0.000000
  0
VERTEX
  8
Layer 0
 10
4.406312
 20
0.709103
 30
0.000000
  0
SEQEND
  0
POLYLINE
  8
Layer 0
 66
     1
 10
0.000000
 20
0.000000
 30
0.000000
  0
VERTEX
  8
Layer 0
 10
4.406312
 20
0.709103
 30
0.000000
  0
VERTEX
  8
Layer 0
 10
4.451111
 20
0.815532
 30
0.000000
  0
SEQEND
  0
POLYLINE
  8
Layer 0
 66
     1
 10
0.000000
 20
0.000000
 30
0.000000
  0
VERTEX
  8
Layer 0
 10
4.451111
 20
0.815532
 30
0.000000
  0
VERTEX
  8
Layer 0
 10
4.490410
 20
0.924084
 30
0.000000
  0
SEQEND
  0
POLYLINE
  8
Layer 0
 66
     1
 10
0.000000
 20
0.000000
 30
0.000000
  0
VERTEX
  8
Layer 0
 10
4.490410
 20
0.924084
 30
0.000000
  0
VERTEX
  8
Layer 0
 10
4.527713
 20
1.047363
 30
0.000000
  0
SEQEND
  0
POLYLINE
  8
Layer 0
 66
     1
 10
0.000000
 20
0.000000
 30
0.000000
  0
VERTEX
  8
Layer 0
 10
4.527713
 20
1.047363
 30
0.000000
  0
VERTEX
  8
Layer 0
 10
4.557914
 20
1.172552
 30
0.000000
  0
SEQEND
  0
POLYLINE
  8
Layer 0
 66
     1
 10
0.000000
 20
0.000000
 30
0.000000
  0
VERTEX
  8
Layer 0
 10
4.557914
 20
1.172552
 30
0.000000
  0
VERTEX
  8
Layer 0
 10
4.581012
 20
1.299261
 30
0.000000
  0
SEQEND
  0
POLYLINE
  8
Layer 0
 66
     1
 10
0.000000
 20
0.000000
 30
0.000000
  0
VERTEX
  8
Layer 0
 10
4.581012
 20
1.299261
 30
0.000000
  0
VERTEX
  8
Layer 0
 10
4.596910
 20
1.427064
 30
0.000000
  0
SEQEND
  0
POLYLINE
  8
Layer 0
 66
     1
 10
0.000000
 20
0.000000
 30
0.000000
  0
VERTEX
  8
Layer 0
 10
4.596910
 20
1.427064
 30
0.000000
  0
VERTEX
  8
Layer 0
 10
4.605513
 20
1.555572
 30
0.000000
  0
SEQEND
  0
POLYLINE
  8
Layer 0
 66
     1
 10
0.000000
 20
0.000000
 30
0.000000
  0
VERTEX
  8
Layer 0
 10
4.605513
 20
1.555572
 30
0.000000
  0
VERTEX
  8
Layer 0
 10
4.606910
 20
1.684351
 30
0.000000
  0
SEQEND
  0
POLYLINE
  8
Layer 0
 66
     1
 10
0.000000
 20
0.000000
 30
0.000000
  0
VERTEX
  8
Layer 0
 10
4.606910
 20
1.684351
 30
0.000000
  0
VERTEX
  8
Layer 0
 10
4.600910
 20
1.813013
 30
0.000000
  0
SEQEND
  0
POLYLINE
  8
Layer 0
 66
     1
 10
0.000000
 20
0.000000
 30
0.000000
  0
VERTEX
  8
Layer 0
 10
4.600910
 20
1.813013
 30
0.000000
  0
VERTEX
  8
Layer 0
 10
4.587713
 20
1.941123
 30
0.000000
  0
SEQEND
  0
POLYLINE
  8
Layer 0
 66
     1
 10
0.000000
 20
0.000000
 30
0.000000
  0
VERTEX
  8
Layer 0
 10
4.587713
 20
1.941123
 30
0.000000
  0
VERTEX
  8
Layer 0
 10
4.570012
 20
2.054210
 30
0.000000
  0
SEQEND
  0
POLYLINE
  8
Layer 0
 66
     1
 10
0.000000
 20
0.000000
 30
0.000000
  0
VERTEX
  8
Layer 0
 10
4.570012
 20
2.054210
 30
0.000000
  0
VERTEX
  8
Layer 0
 10
4.546513
 20
2.166257
 30
0.000000
  0
SEQEND
  0
POLYLINE
  8
Layer 0
 66
     1
 10
0.000000
 20
0.000000
 30
0.000000
  0
VERTEX
  8
Layer 0
 10
4.546513
 20
2.166257
 30
0.000000
  0
VERTEX
  8
Layer 0
 10
4.517410
 20
2.276969
 30
0.000000
  0
SEQEND
  0
POLYLINE
  8
Layer 0
 66
     1
 10
0.000000
 20
0.000000
 30
0.000000
  0
VERTEX
  8
Layer 0
 10
4.517410
 20
2.276969
 30
0.000000
  0
VERTEX
  8
Layer 0
 10
4.482512
 20
2.386776
 30
0.000000
  0
SEQEND
  0
POLYLINE
  8
Layer 0
 66
     1
 10
0.000000
 20
0.000000
 30
0.000000
  0
VERTEX
  8
Layer 0
 10
4.482512
 20
2.386776
 30
0.000000
  0
VERTEX
  8
Layer 0
 10
4.442012
 20
2.494698
 30
0.000000
  0
SEQEND
  0
POLYLINE
  8
Layer 0
 66
     1
 10
0.000000
 20
0.000000
 30
0.000000
  0
VERTEX
  8
Layer 0
 10
4.442012
 20
2.494698
 30
0.000000
  0
VERTEX
  8
Layer 0
 10
4.396214
 20
2.600438
 30
0.000000
  0
SEQEND
  0
POLYLINE
  8
Layer 0
 66
     1
 10
0.000000
 20
0.000000
 30
0.000000
  0
VERTEX
  8
Layer 0
 10
4.396214
 20
2.600438
 30
0.000000
  0
VERTEX
  8
Layer 0
 10
4.345012
 20
2.704210
 30
0.000000
  0
SEQEND
  0
POLYLINE
  8
Layer 0
 66
     1
 10
0.000000
 20
0.000000
 30
0.000000
  0
VERTEX
  8
Layer 0
 10
4.345012
 20
2.704210
 30
0.000000
  0
VERTEX
  8
Layer 0
 10
4.288512
 20
2.805237
 30
0.000000
  0
SEQEND
  0
POLYLINE
  8
Layer 0
 66
     1
 10
0.000000
 20
0.000000
 30
0.000000
  0
VERTEX
  8
Layer 0
 10
4.288512
 20
2.805237
 30
0.000000
  0
VERTEX
  8
Layer 0
 10
4.227012
 20
2.903275
 30
0.000000
  0
SEQEND
  0
POLYLINE
  8
Layer 0
 66
     1
 10
0.000000
 20
0.000000
 30
0.000000
  0
VERTEX
  8
Layer 0
 10
4.227012
 20
2.903275
 30
0.000000
  0
VERTEX
  8
Layer 0
 10
4.160111
 20
2.998690
 30
0.000000
  0
SEQEND
  0
POLYLINE
  8
Layer 0
 66
     1
 10
0.000000
 20
0.000000
 30
0.000000
  0
VERTEX
  8
Layer 0
 10
4.160111
 20
2.998690
 30
0.000000
  0
VERTEX
  8
Layer 0
 10
4.088414
 20
3.090599
 30
0.000000
  0
SEQEND
  0
POLYLINE
  8
Layer 0
 66
     1
 10
0.000000
 20
0.000000
 30
0.000000
  0
VERTEX
  8
Layer 0
 10
4.088414
 20
3.090599
 30
0.000000
  0
VERTEX
  8
Layer 0
 10
4.012213
 20
3.178757
 30
0.000000
  0
SEQEND
  0
POLYLINE
  8
Layer 0
 66
     1
 10
0.000000
 20
0.000000
 30
0.000000
  0
VERTEX
  8
Layer 0
 10
4.012213
 20
3.178757
 30
0.000000
  0
VERTEX
  8
Layer 0
 10
3.931512
 20
3.263178
 30
0.000000
  0
SEQEND
  0
POLYLINE
  8
Layer 0
 66
     1
 10
0.000000
 20
0.000000
 30
0.000000
  0
VERTEX
  8
Layer 0
 10
3.931512
 20
3.263178
 30
0.000000
  0
VERTEX
  8
Layer 0
 10
3.846611
 20
3.343426
 30
0.000000
  0
SEQEND
  0
POLYLINE
  8
Layer 0
 66
     1
 10
0.000000
 20
0.000000
 30
0.000000
  0
VERTEX
  8
Layer 0
 10
3.846611
 20
3.343426
 30
0.000000
  0
VERTEX
  8
Layer 0
 10
3.757812
 20
3.419308
 30
0.000000
  0
SEQEND
  0
POLYLINE
  8
Layer 0
 66
     1
 10
0.000000
 20
0.000000
 30
0.000000
  0
VERTEX
  8
Layer 0
 10
3.757812
 20
3.419308
 30
0.000000
  0
VERTEX
  8
Layer 0
 10
3.665812
 20
3.490210
 30
0.000000
  0
SEQEND
  0
POLYLINE
  8
Layer 0
 66
     1
 10
0.000000
 20
0.000000
 30
0.000000
  0
VERTEX
  8
Layer 0
 10
3.665812
 20
3.490210
 30
0.000000
  0
VERTEX
  8
Layer 0
 10
3.570213
 20
3.556339
 30
0.000000
  0
SEQEND
  0
POLYLINE
  8
Layer 0
 66
     1
 10
0.000000
 20
0.000000
 30
0.000000
  0
VERTEX
  8
Layer 0
 10
3.570213
 20
3.556339
 30
0.000000
  0
VERTEX
  8
Layer 0
 10
3.471410
 20
3.617548
 30
0.000000
  0
SEQEND
  0
POLYLINE
  8
Layer 0
 66
     1
 10
0.000000
 20
0.000000
 30
0.000000
  0
VERTEX
  8
Layer 0
 10
3.471410
 20
3.617548
 30
0.000000
  0
VERTEX
  8
Layer 0
 10
3.370213
 20
3.673378
 30
0.000000
  0
SEQEND
  0
POLYLINE
  8
Layer 0
 66
     1
 10
0.000000
 20
0.000000
 30
0.000000
  0
VERTEX
  8
Layer 0
 10
3.370213
 20
3.673378
 30
0.000000
  0
VERTEX
  8
Layer 0
 10
3.266312
 20
3.724028
 30
0.000000
  0
SEQEND
  0
POLYLINE
  8
Layer 0
 66
     1
 10
0.000000
 20
0.000000
 30
0.000000
  0
VERTEX
  8
Layer 0
 10
3.266312
 20
3.724028
 30
0.000000
  0
VERTEX
  8
Layer 0
 10
3.160012
 20
3.769367
 30
0.000000
  0
SEQEND
  0
POLYLINE
  8
Layer 0
 66
     1
 10
0.000000
 20
0.000000
 30
0.000000
  0
VERTEX
  8
Layer 0
 10
3.160012
 20
3.769367
 30
0.000000
  0
VERTEX
  8
Layer 0
 10
3.052111
 20
3.809068
 30
0.000000
  0
SEQEND
  0
POLYLINE
  8
Layer 0
 66
     1
 10
0.000000
 20
0.000000
 30
0.000000
  0
VERTEX
  8
Layer 0
 10
3.052111
 20
3.809068
 30
0.000000
  0
VERTEX
  8
Layer 0
 10
2.942312
 20
3.843269
 30
0.000000
  0
SEQEND
  0
POLYLINE
  8
Layer 0
 66
     1
 10
0.000000
 20
0.000000
 30
0.000000
  0
VERTEX
  8
Layer 0
 10
2.942312
 20
3.843269
 30
0.000000
  0
VERTEX
  8
Layer 0
 10
2.831012
 20
3.871867
 30
0.000000
  0
SEQEND
  0
POLYLINE
  8
Layer 0
 66
     1
 10
0.000000
 20
0.000000
 30
0.000000
  0
VERTEX
  8
Layer 0
 10
2.831012
 20
3.871867
 30
0.000000
  0
VERTEX
  8
Layer 0
 10
2.718910
 20
3.894647
 30
0.000000
  0
SEQEND
  0
POLYLINE
  8
Layer 0
 66
     1
 10
0.000000
 20
0.000000
 30
0.000000
  0
VERTEX
  8
Layer 0
 10
2.718910
 20
3.894647
 30
0.000000
  0
VERTEX
  8
Layer 0
 10
2.605713
 20
3.911769
 30
0.000000
  0
SEQEND
  0
POLYLINE
  8
Layer 0
 66
     1
 10
0.000000
 20
0.000000
 30
0.000000
  0
VERTEX
  8
Layer 0
 10
2.605713
 20
3.911769
 30
0.000000
  0
VERTEX
  8
Layer 0
 10
2.491910
 20
3.923198
 30
0.000000
  0
SEQEND
  0
POLYLINE
  8
Layer 0
 66
     1
 10
0.000000
 20
0.000000
 30
0.000000
  0
VERTEX
  8
Layer 0
 10
2.491910
 20
3.923198
 30
0.000000
  0
VERTEX
  8
Layer 0
 10
2.377611
 20
3.928905
 30
0.000000
  0
SEQEND
  0
POLYLINE
  8
Layer 0
 66
     1
 10
0.000000
 20
0.000000
 30
0.000000
  0
VERTEX
  8
Layer 0
 10
2.377611
 20
3.928905
 30
0.000000
  0
VERTEX
  8
Layer 0
 10
2.263217
 20
3.928867
 30
0.000000
  0
SEQEND
  0
POLYLINE
  8
Layer 0
 66
     1
 10
0.000000
 20
0.000000
 30
0.000000
  0
VERTEX
  8
Layer 0
 10
2.263217
 20
3.928867
 30
0.000000
  0
VERTEX
  8
Layer 0
 10
2.149016
 20
3.923099
 30
0.000000
  0
SEQEND
  0
POLYLINE
  8
Layer 0
 66
     1
 10
0.000000
 20
0.000000
 30
0.000000
  0
VERTEX
  8
Layer 0
 10
2.149016
 20
3.923099
 30
0.000000
  0
VERTEX
  8
Layer 0
 10
2.035115
 20
3.911619
 30
0.000000
  0
SEQEND
  0
POLYLINE
  8
Layer 0
 66
     1
 10
0.000000
 20
0.000000
 30
0.000000
  0
VERTEX
  8
Layer 0
 10
2.035115
 20
3.911619
 30
0.000000
  0
VERTEX
  8
Layer 0
 10
1.921914
 20
3.894418
 30
0.000000
  0
SEQEND
  0
POLYLINE
  8
Layer 0
 66
     1
 10
0.000000
 20
0.000000
 30
0.000000
  0
VERTEX
  8
Layer 0
 10
1.921914
 20
3.894418
 30
0.000000
  0
VERTEX
  8
Layer 0
 10
1.809816
 20
3.871536
 30
0.000000
  0
SEQEND
  0
POLYLINE
  8
Layer 0
 66
     1
 10
0.000000
 20
0.000000
 30
0.000000
  0
VERTEX
  8
Layer 0
 10
1.809816
 20
3.871536
 30
0.000000
  0
VERTEX
  8
Layer 0
 10
1.698414
 20
3.842847
 30
0.000000
  0
SEQEND
  0
POLYLINE
  8
Layer 0
 66
     1
 10
0.000000
 20
0.000000
 30
0.000000
  0
VERTEX
  8
Layer 0
 10
1.698414
 20
3.842847
 30
0.000000
  0
VERTEX
  8
Layer 0
 10
1.588717
 20
3.808580
 30
0.000000
  0
SEQEND
  0
POLYLINE
  8
Layer 0
 66
     1
 10
0.000000
 20
0.000000
 30
0.000000
  0
VERTEX
  8
Layer 0
 10
1.588717
 20
3.808580
 30
0.000000
  0
VERTEX
  8
Layer 0
 10
1.480816
 20
3.768795
 30
0.000000
  0
SEQEND
  0
POLYLINE
  8
Layer 0
 66
     1
 10
0.000000
 20
0.000000
 30
0.000000
  0
VERTEX
  8
Layer 0
 10
1.480816
 20
3.768795
 30
0.000000
  0
VERTEX
  8
Layer 0
 10
1.374516
 20
3.723387
 30
0.000000
  0
SEQEND
  0
POLYLINE
  8
Layer 0
 66
     1
 10
0.000000
 20
0.000000
 30
0.000000
  0
VERTEX
  8
Layer 0
 10
1.374516
 20
3.723387
 30
0.000000
  0
VERTEX
  8
Layer 0
 10
1.270615
 20
3.672657
 30
0.000000
  0
SEQEND
  0
POLYLINE
  8
Layer 0
 66
     1
 10
0.000000
 20
0.000000
 30
0.000000
  0
VERTEX
  8
Layer 0
 10
1.270615
 20
3.672657
 30
0.000000
  0
VERTEX
  8
Layer 0
 10
1.169414
 20
3.616757
 30
0.000000
  0
SEQEND
  0
POLYLINE
  8
Layer 0
 66
     1
 10
0.000000
 20
0.000000
 30
0.000000
  0
VERTEX
  8
Layer 0
 10
1.169414
 20
3.616757
 30
0.000000
  0
VERTEX
  8
Layer 0
 10
1.070717
 20
3.555489
 30
0.000000
  0
SEQEND
  0
POLYLINE
  8
Layer 0
 66
     1
 10
0.000000
 20
0.000000
 30
0.000000
  0
VERTEX
  8
Layer 0
 10
1.070717
 20
3.555489
 30
0.000000
  0
VERTEX
  8
Layer 0
 10
0.975217
 20
3.489275
 30
0.000000
  0
SEQEND
  0
POLYLINE
  8
Layer 0
 66
     1
 10
0.000000
 20
0.000000
 30
0.000000
  0
VERTEX
  8
Layer 0
 10
0.975217
 20
3.489275
 30
0.000000
  0
VERTEX
  8
Layer 0
 10
0.883217
 20
3.418308
 30
0.000000
  0
SEQEND
  0
POLYLINE
  8
Layer 0
 66
     1
 10
0.000000
 20
0.000000
 30
0.000000
  0
VERTEX
  8
Layer 0
 10
0.883217
 20
3.418308
 30
0.000000
  0
VERTEX
  8
Layer 0
 10
0.794414
 20
3.342379
 30
0.000000
  0
SEQEND
  0
POLYLINE
  8
Layer 0
 66
     1
 10
0.000000
 20
0.000000
 30
0.000000
  0
VERTEX
  8
Layer 0
 10
0.794414
 20
3.342379
 30
0.000000
  0
VERTEX
  8
Layer 0
 10
0.709615
 20
3.262068
 30
0.000000
  0
SEQEND
  0
POLYLINE
  8
Layer 0
 66
     1
 10
0.000000
 20
0.000000
 30
0.000000
  0
VERTEX
  8
Layer 0
 10
0.709615
 20
3.262068
 30
0.000000
  0
VERTEX
  8
Layer 0
 10
0.628914
 20
3.177598
 30
0.000000
  0
SEQEND
  0
POLYLINE
  8
Layer 0
 66
     1
 10
0.000000
 20
0.000000
 30
0.000000
  0
VERTEX
  8
Layer 0
 10
0.628914
 20
3.177598
 30
0.000000
  0
VERTEX
  8
Layer 0
 10
0.552816
 20
3.089386
 30
0.000000
  0
SEQEND
  0
POLYLINE
  8
Layer 0
 66
     1
 10
0.000000
 20
0.000000
 30
0.000000
  0
VERTEX
  8
Layer 0
 10
0.552816
 20
3.089386
 30
0.000000
  0
VERTEX
  8
Layer 0
 10
0.481217
 20
2.997450
 30
0.000000
  0
SEQEND
  0
POLYLINE
  8
Layer 0
 66
     1
 10
0.000000
 20
0.000000
 30
0.000000
  0
VERTEX
  8
Layer 0
 10
0.481217
 20
2.997450
 30
0.000000
  0
VERTEX
  8
Layer 0
 10
0.414418
 20
2.901997
 30
0.000000
  0
SEQEND
  0
POLYLINE
  8
Layer 0
 66
     1
 10
0.000000
 20
0.000000
 30
0.000000
  0
VERTEX
  8
Layer 0
 10
0.414418
 20
2.901997
 30
0.000000
  0
VERTEX
  8
Layer 0
 10
0.352914
 20
2.803918
 30
0.000000
  0
SEQEND
  0
POLYLINE
  8
Layer 0
 66
     1
 10
0.000000
 20
0.000000
 30
0.000000
  0
VERTEX
  8
Layer 0
 10
0.352914
 20
2.803918
 30
0.000000
  0
VERTEX
  8
Layer 0
 10
0.296516
 20
2.702859
 30
0.000000
  0
SEQEND
  0
POLYLINE
  8
Layer 0
 66
     1
 10
0.000000
 20
0.000000
 30
0.000000
  0
VERTEX
  8
Layer 0
 10
0.296516
 20
2.702859
 30
0.000000
  0
VERTEX
  8
Layer 0
 10
0.245316
 20
2.599060
 30
0.000000
  0
SEQEND
  0
POLYLINE
  8
Layer 0
 66
     1
 10
0.000000
 20
0.000000
 30
0.000000
  0
VERTEX
  8
Layer 0
 10
0.245316
 20
2.599060
 30
0.000000
  0
VERTEX
  8
Layer 0
 10
0.199615
 20
2.493296
 30
0.000000
  0
SEQEND
  0
POLYLINE
  8
Layer 0
 66
     1
 10
0.000000
 20
0.000000
 30
0.000000
  0
VERTEX
  8
Layer 0
 10
0.199615
 20
2.493296
 30
0.000000
  0
VERTEX
  8
Layer 0
 10
0.159217
 20
2.385367
 30
0.000000
  0
SEQEND
  0
POLYLINE
  8
Layer 0
 66
     1
 10
0.000000
 20
0.000000
 30
0.000000
  0
VERTEX
  8
Layer 0
 10
0.159217
 20
2.385367
 30
0.000000
  0
VERTEX
  8
Layer 0
 10
0.124414
 20
2.275548
 30
0.000000
  0
SEQEND
  0
POLYLINE
  8
Layer 0
 66
     1
 10
0.000000
 20
0.000000
 30
0.000000
  0
VERTEX
  8
Layer 0
 10
0.124414
 20
2.275548
 30
0.000000
  0
VERTEX
  8
Layer 0
 10
0.092217
 20
2.150926
 30
0.000000
  0
SEQEND
  0
POLYLINE
  8
Layer 0
 66
     1
 10
0.000000
 20
0.000000
 30
0.000000
  0
VERTEX
  8
Layer 0
 10
0.092217
 20
2.150926
 30
0.000000
  0
VERTEX
  8
Layer 0
 10
0.067016
 20
2.024698
 30
0.000000
  0
SEQEND
  0
POLYLINE
  8
Layer 0
 66
     1
 10
0.000000
 20
0.000000
 30
0.000000
  0
VERTEX
  8
Layer 0
 10
0.067016
 20
2.024698
 30
0.000000
  0
VERTEX
  8
Layer 0
 10
0.049115
 20
1.897241
 30
0.000000
  0
SEQEND
  0
POLYLINE
  8
Layer 0
 66
     1
 10
0.000000
 20
0.000000
 30
0.000000
  0
VERTEX
  8
Layer 0
 10
0.049115
 20
1.897241
 30
0.000000
  0
VERTEX
  8
Layer 0
 10
0.038414
 20
1.768981
 30
0.000000
  0
SEQEND
  0
POLYLINE
  8
Layer 0
 66
     1
 10
0.000000
 20
0.000000
 30
0.000000
  0
VERTEX
  8
Layer 0
 10
0.038414
 20
1.768981
 30
0.000000
  0
VERTEX
  8
Layer 0
 10
0.034918
 20
1.640312
 30
0.000000
  0
SEQEND
  0
POLYLINE
  8
Layer 0
 66
     1
 10
0.000000
 20
0.000000
 30
0.000000
  0
VERTEX
  8
Layer 0
 10
0.034918
 20
1.640312
 30
0.000000
  0
VERTEX
  8
Layer 0
 10
0.038816
 20
1.511662
 30
0.000000
  0
SEQEND
  0
POLYLINE
  8
Layer 0
 66
     1
 10
0.000000
 20
0.000000
 30
0.000000
  0
VERTEX
  8
Layer 0
 10
0.038816
 20
1.511662
 30
0.000000
  0
VERTEX
  8
Layer 0
 10
0.049914
 20
1.383430
 30
0.000000
  0
SEQEND
  0
POLYLINE
  8
Layer 0
 66
     1
 10
0.000000
 20
0.000000
 30
0.000000
  0
VERTEX
  8
Layer 0
 10
0.049914
 20
1.383430
 30
0.000000
  0
VERTEX
  8
Layer 0
 10
0.068316
 20
1.256032
 30
0.000000
  0
SEQEND
  0
POLYLINE
  8
Layer 0
 66
     1
 10
0.000000
 20
0.000000
 30
0.000000
  0
VERTEX
  8
Layer 0
 10
0.068316
 20
1.256032
 30
0.000000
  0
VERTEX
  8
Layer 0
 10
0.090717
 20
1.143540
 30
0.000000
  0
SEQEND
  0
POLYLINE
  8
Layer 0
 66
     1
 10
0.000000
 20
0.000000
 30
0.000000
  0
VERTEX
  8
Layer 0
 10
0.090717
 20
1.143540
 30
0.000000
  0
VERTEX
  8
Layer 0
 10
0.118717
 20
1.032324
 30
0.000000
  0
SEQEND
  0
POLYLINE
  8
Layer 0
 66
     1
 10
0.000000
 20
0.000000
 30
0.000000
  0
VERTEX
  8
Layer 0
 10
0.118717
 20
1.032324
 30
0.000000
  0
VERTEX
  8
Layer 0
 10
0.152316
 20
0.922643
 30
0.000000
  0
SEQEND
  0
POLYLINE
  8
Layer 0
 66
     1
 10
0.000000
 20
0.000000
 30
0.000000
  0
VERTEX
  8
Layer 0
 10
0.152316
 20
0.922643
 30
0.000000
  0
VERTEX
  8
Layer 0
 10
0.191414
 20
0.814052
 30
0.000000
  0
SEQEND
  0
POLYLINE
  8
Layer 0
 66
     1
 10
0.000000
 20
0.000000
 30
0.000000
  0
VERTEX
  8
Layer 0
 10
0.191414
 20
0.814052
 30
0.000000
  0
VERTEX
  8
Layer 0
 10
0.236316
 20
0.707670
 30
0.000000
  0
SEQEND
  0
POLYLINE
  8
Layer 0
 66
     1
 10
0.000000
 20
0.000000
 30
0.000000
  0
VERTEX
  8
Layer 0
 10
0.236316
 20
0.707670
 30
0.000000
  0
VERTEX
  8
Layer 0
 10
0.286615
 20
0.603800
 30
0.000000
  0
SEQEND
  0
POLYLINE
  8
Layer 0
 66
     1
 10
0.000000
 20
0.000000
 30
0.000000
  0
VERTEX
  8
Layer 0
 10
0.286615
 20
0.603800
 30
0.000000
  0
VERTEX
  8
Layer 0
 10
0.337914
 20
0.510930
 30
0.000000
  0
SEQEND
  0
POLYLINE
  8
Layer 0
 66
     1
 10
0.000000
 20
0.000000
 30
0.000000
  0
VERTEX
  8
Layer 0
 10
0.337914
 20
0.510930
 30
0.000000
  0
VERTEX
  8
Layer 0
 10
0.392816
 20
0.420194
 30
0.000000
  0
SEQEND
  0
POLYLINE
  8
Layer 0
 66
     1
 10
0.000000
 20
0.000000
 30
0.000000
  0
VERTEX
  8
Layer 0
 10
0.392816
 20
0.420194
 30
0.000000
  0
VERTEX
  8
Layer 0
 10
0.451316
 20
0.331721
 30
0.000000
  0
SEQEND
  0
POLYLINE
  8
Layer 0
 66
     1
 10
0.000000
 20
0.000000
 30
0.000000
  0
VERTEX
  8
Layer 0
 10
0.451316
 20
0.331721
 30
0.000000
  0
VERTEX
  8
Layer 0
 10
0.511115
 20
0.249402
 30
0.000000
  0
SEQEND
  0
POLYLINE
  8
Layer 0
 66
     1
 10
0.000000
 20
0.000000
 30
0.000000
  0
VERTEX
  8
Layer 0
 10
0.511115
 20
0.249402
 30
0.000000
  0
VERTEX
  8
Layer 0
 10
0.575516
 20
0.170651
 30
0.000000
  0
SEQEND
  0
POLYLINE
  8
Layer 0
 66
     1
 10
0.000000
 20
0.000000
 30
0.000000
  0
VERTEX
  8
Layer 0
 10
0.575516
 20
0.170651
 30
0.000000
  0
VERTEX
  8
Layer 0
 10
0.633414
 20
0.105202
 30
0.000000
  0
SEQEND
  0
POLYLINE
  8
Layer 0
 66
     1
 10
0.000000
 20
0.000000
 30
0.000000
  0
VERTEX
  8
Layer 0
 10
0.633414
 20
0.105202
 30
0.000000
  0
VERTEX
  8
Layer 0
 10
0.693316
 20
0.041584
 30
0.000000
  0
SEQEND
  0
POLYLINE
  8
Layer 0
 66
     1
 10
0.000000
 20
0.000000
 30
0.000000
  0
VERTEX
  8
Layer 0
 10
0.693316
 20
0.041584
 30
0.000000
  0
VERTEX
  8
Layer 0
 10
0.708414
 20
0.041584
 30
0.000000
  0
VERTEX
  8
Layer 0
 10
0.723512
 20
0.041584
 30
0.000000
  0
VERTEX
  8
Layer 0
 10
0.738611
 20
0.041584
 30
0.000000
  0
VERTEX
  8
Layer 0
 10
0.753709
 20
0.041584
 30
0.000000
  0
VERTEX
  8
Layer 0
 10
0.768808
 20
0.041584
 30
0.000000
  0
VERTEX
  8
Layer 0
 10
0.783906
 20
0.041584
 30
0.000000
  0
VERTEX
  8
Layer 0
 10
0.799005
 20
0.041584
 30
0.000000
  0
VERTEX
  8
Layer 0
 10
0.814099
 20
0.041584
 30
0.000000
  0
VERTEX
  8
Layer 0
 10
0.829197
 20
0.041584
 30
0.000000
  0
VERTEX
  8
Layer 0
 10
0.844296
 20
0.041584
 30
0.000000
  0
VERTEX
  8
Layer 0
 10
0.859394
 20
0.041584
 30
0.000000
  0
VERTEX
  8
Layer 0
 10
0.874489
 20
0.041584
 30
0.000000
  0
VERTEX
  8
Layer 0
 10
0.889587
 20
0.041584
 30
0.000000
  0
VERTEX
  8
Layer 0
 10
0.904686
 20
0.041584
 30
0.000000
  0
VERTEX
  8
Layer 0
 10
0.919784
 20
0.041584
 30
0.000000
  0
VERTEX
  8
Layer 0
 10
0.934879
 20
0.041584
 30
0.000000
  0
VERTEX
  8
Layer 0
 10
0.952501
 20
0.041584
 30
0.000000
  0
VERTEX
  8
Layer 0
 10
0.970119
 20
0.041584
 30
0.000000
  0
VERTEX
  8
Layer 0
 10
0.987737
 20
0.041584
 30
0.000000
  0
VERTEX
  8
Layer 0
 10
1.005355
 20
0.041584
 30
0.000000
  0
VERTEX
  8
Layer 0
 10
1.022977
 20
0.041584
 30
0.000000
  0
VERTEX
  8
Layer 0
 10
1.040595
 20
0.041584
 30
0.000000
  0
VERTEX
  8
Layer 0
 10
1.058213
 20
0.041584
 30
0.000000
  0
VERTEX
  8
Layer 0
 10
1.075831
 20
0.041584
 30
0.000000
  0
VERTEX
  8
Layer 0
 10
1.093453
 20
0.041584
 30
0.000000
  0
VERTEX
  8
Layer 0
 10
1.111071
 20
0.041584
 30
0.000000
  0
VERTEX
  8
Layer 0
 10
1.128690
 20
0.041584
 30
0.000000
  0
VERTEX
  8
Layer 0
 10
1.146308
 20
0.041584
 30
0.000000
  0
VERTEX
  8
Layer 0
 10
1.163930
 20
0.041584
 30
0.000000
  0
VERTEX
  8
Layer 0
 10
1.181548
 20
0.041584
 30
0.000000
  0
VERTEX
  8
Layer 0
 10
1.199166
 20
0.041584
 30
0.000000
  0
VERTEX
  8
Layer 0
 10
1.216784
 20
0.041584
 30
0.000000
  0
VERTEX
  8
Layer 0
 10
1.234406
 20
0.041584
 30
0.000000
  0
VERTEX
  8
Layer 0
 10
1.252024
 20
0.041584
 30
0.000000
  0
VERTEX
  8
Layer 0
 10
1.269642
 20
0.041584
 30
0.000000
  0
VERTEX
  8
Layer 0
 10
1.287260
 20
0.041584
 30
0.000000
  0
VERTEX
  8
Layer 0
 10
1.304883
 20
0.041584
 30
0.000000
  0
VERTEX
  8
Layer 0
 10
1.322501
 20
0.041584
 30
0.000000
  0
VERTEX
  8
Layer 0
 10
1.340119
 20
0.041584
 30
0.000000
  0
VERTEX
  8
Layer 0
 10
1.357737
 20
0.041584
 30
0.000000
  0
VERTEX
  8
Layer 0
 10
1.375359
 20
0.041584
 30
0.000000
  0
VERTEX
  8
Layer 0
 10
1.392977
 20
0.041584
 30
0.000000
  0
VERTEX
  8
Layer 0
 10
1.410595
 20
0.041584
 30
0.000000
  0
VERTEX
  8
Layer 0
 10
1.428213
 20
0.041584
 30
0.000000
  0
VERTEX
  8
Layer 0
 10
1.445835
 20
0.041584
 30
0.000000
  0
VERTEX
  8
Layer 0
 10
1.463453
 20
0.041584
 30
0.000000
  0
VERTEX
  8
Layer 0
 10
1.481071
 20
0.041584
 30
0.000000
  0
VERTEX
  8
Layer 0
 10
1.498690
 20
0.041584
 30
0.000000
  0
VERTEX
  8
Layer 0
 10
1.513863
 20
0.041584
 30
0.000000
  0
VERTEX
  8
Layer 0
 10
1.529036
 20
0.041584
 30
0.000000
  0
VERTEX
  8
Layer 0
 10
1.544209
 20
0.041584
 30
0.000000
  0
VERTEX
  8
Layer 0
 10
1.559379
 20
0.041584
 30
0.000000
  0
VERTEX
  8
Layer 0
 10
1.574552
 20
0.041584
 30
0.000000
  0
VERTEX
  8
Layer 0
 10
1.589725
 20
0.041584
 30
0.000000
  0
VERTEX
  8
Layer 0
 10
1.604898
 20
0.041584
 30
0.000000
  0
VERTEX
  8
Layer 0
 10
1.620068
 20
0.041584
 30
0.000000
  0
VERTEX
  8
Layer 0
 10
1.635241
 20
0.041584
 30
0.000000
  0
VERTEX
  8
Layer 0
 10
1.650414
 20
0.041584
 30
0.000000
  0
VERTEX
  8
Layer 0
 10
1.665587
 20
0.041584
 30
0.000000
  0
VERTEX
  8
Layer 0
 10
1.680757
 20
0.041584
 30
0.000000
  0
VERTEX
  8
Layer 0
 10
1.695930
 20
0.041584
 30
0.000000
  0
VERTEX
  8
Layer 0
 10
1.711099
 20
0.041584
 30
0.000000
  0
VERTEX
  8
Layer 0
 10
1.726272
 20
0.041584
 30
0.000000
  0
VERTEX
  8
Layer 0
 10
1.741442
 20
0.041584
 30
0.000000
  0
VERTEX
  8
Layer 0
 10
1.751233
 20
0.041584
 30
0.000000
  0
VERTEX
  8
Layer 0
 10
1.761020
 20
0.041584
 30
0.000000
  0
VERTEX
  8
Layer 0
 10
1.770808
 20
0.041584
 30
0.000000
  0
VERTEX
  8
Layer 0
 10
1.780595
 20
0.041584
 30
0.000000
  0
VERTEX
  8
Layer 0
 10
1.790386
 20
0.041584
 30
0.000000
  0
VERTEX
  8
Layer 0
 10
1.800174
 20
0.041584
 30
0.000000
  0
VERTEX
  8
Layer 0
 10
1.809961
 20
0.041584
 30
0.000000
  0
VERTEX
  8
Layer 0
 10
1.819749
 20
0.041584
 30
0.000000
  0
VERTEX
  8
Layer 0
 10
1.829540
 20
0.041584
 30
0.000000
  0
VERTEX
  8
Layer 0
 10
1.839327
 20
0.041584
 30
0.000000
  0
VERTEX
  8
Layer 0
 10
1.849115
 20
0.041584
 30
0.000000
  0
VERTEX
  8
Layer 0
 10
1.858902
 20
0.041584
 30
0.000000
  0
VERTEX
  8
Layer 0
 10
1.868694
 20
0.041584
 30
0.000000
  0
VERTEX
  8
Layer 0
 10
1.878481
 20
0.041584
 30
0.000000
  0
VERTEX
  8
Layer 0
 10
1.888268
 20
0.041584
 30
0.000000
  0
VERTEX
  8
Layer 0
 10
1.898056
 20
0.041584
 30
0.000000
  0
VERTEX
  8
Layer 0
 10
1.913229
 20
0.041584
 30
0.000000
  0
VERTEX
  8
Layer 0
 10
1.928402
 20
0.041584
 30
0.000000
  0
VERTEX
  8
Layer 0
 10
1.943575
 20
0.041584
 30
0.000000
  0
VERTEX
  8
Layer 0
 10
1.958745
 20
0.041584
 30
0.000000
  0
VERTEX
  8
Layer 0
 10
1.973918
 20
0.041584
 30
0.000000
  0
VERTEX
  8
Layer 0
 10
1.989091
 20
0.041584
 30
0.000000
  0
VERTEX
  8
Layer 0
 10
2.004264
 20
0.041584
 30
0.000000
  0
VERTEX
  8
Layer 0
 10
2.019434
 20
0.041584
 30
0.000000
  0
VERTEX
  8
Layer 0
 10
2.034607
 20
0.041584
 30
0.000000
  0
VERTEX
  8
Layer 0
 10
2.049780
 20
0.041584
 30
0.000000
  0
VERTEX
  8
Layer 0
 10
2.064953
 20
0.041584
 30
0.000000
  0
VERTEX
  8
Layer 0
 10
2.080123
 20
0.041584
 30
0.000000
  0
VERTEX
  8
Layer 0
 10
2.095296
 20
0.041584
 30
0.000000
  0
VERTEX
  8
Layer 0
 10
2.110465
 20
0.041584
 30
0.000000
  0
VERTEX
  8
Layer 0
 10
2.125638
 20
0.041584
 30
0.000000
  0
VERTEX
  8
Layer 0
 10
2.140808
 20
0.041584
 30
0.000000
  0
VERTEX
  8
Layer 0
 10
2.153044
 20
0.041584
 30
0.000000
  0
VERTEX
  8
Layer 0
 10
2.165280
 20
0.041584
 30
0.000000
  0
VERTEX
  8
Layer 0
 10
2.177516
 20
0.041584
 30
0.000000
  0
VERTEX
  8
Layer 0
 10
2.189753
 20
0.041584
 30
0.000000
  0
VERTEX
  8
Layer 0
 10
2.201989
 20
0.041584
 30
0.000000
  0
VERTEX
  8
Layer 0
 10
2.214225
 20
0.041584
 30
0.000000
  0
VERTEX
  8
Layer 0
 10
2.226461
 20
0.041584
 30
0.000000
  0
VERTEX
  8
Layer 0
 10
2.238694
 20
0.041584
 30
0.000000
  0
VERTEX
  8
Layer 0
 10
2.250930
 20
0.041584
 30
0.000000
  0
VERTEX
  8
Layer 0
 10
2.263166
 20
0.041584
 30
0.000000
  0
VERTEX
  8
Layer 0
 10
2.275402
 20
0.041584
 30
0.000000
  0
VERTEX
  8
Layer 0
 10
2.287634
 20
0.041584
 30
0.000000
  0
VERTEX
  8
Layer 0
 10
2.299871
 20
0.041584
 30
0.000000
  0
VERTEX
  8
Layer 0
 10
2.312107
 20
0.041584
 30
0.000000
  0
VERTEX
  8
Layer 0
 10
2.324339
 20
0.041584
 30
0.000000
  0
VERTEX
  8
Layer 0
 10
2.336575
 20
0.041584
 30
0.000000
  0
VERTEX
  8
Layer 0
 10
2.350276
 20
0.041584
 30
0.000000
  0
VERTEX
  8
Layer 0
 10
2.363981
 20
0.041584
 30
0.000000
  0
VERTEX
  8
Layer 0
 10
2.377686
 20
0.041584
 30
0.000000
  0
VERTEX
  8
Layer 0
 10
2.391390
 20
0.041584
 30
0.000000
  0
VERTEX
  8
Layer 0
 10
2.405091
 20
0.041584
 30
0.000000
  0
VERTEX
  8
Layer 0
 10
2.418796
 20
0.041584
 30
0.000000
  0
VERTEX
  8
Layer 0
 10
2.432501
 20
0.041584
 30
0.000000
  0
VERTEX
  8
Layer 0
 10
2.446205
 20
0.041584
 30
0.000000
  0
VERTEX
  8
Layer 0
 10
2.459906
 20
0.041584
 30
0.000000
  0
VERTEX
  8
Layer 0
 10
2.473611
 20
0.041584
 30
0.000000
  0
VERTEX
  8
Layer 0
 10
2.487316
 20
0.041584
 30
0.000000
  0
VERTEX
  8
Layer 0
 10
2.501020
 20
0.041584
 30
0.000000
  0
VERTEX
  8
Layer 0
 10
2.514721
 20
0.041584
 30
0.000000
  0
VERTEX
  8
Layer 0
 10
2.528426
 20
0.041584
 30
0.000000
  0
VERTEX
  8
Layer 0
 10
2.542131
 20
0.041584
 30
0.000000
  0
VERTEX
  8
Layer 0
 10
2.555835
 20
0.041584
 30
0.000000
  0
VERTEX
  8
Layer 0
 10
2.570028
 20
0.041584
 30
0.000000
  0
VERTEX
  8
Layer 0
 10
2.584221
 20
0.041584
 30
0.000000
  0
VERTEX
  8
Layer 0
 10
2.598414
 20
0.041584
 30
0.000000
  0
VERTEX
  8
Layer 0
 10
2.612607
 20
0.041584
 30
0.000000
  0
VERTEX
  8
Layer 0
 10
2.626800
 20
0.041584
 30
0.000000
  0
VERTEX
  8
Layer 0
 10
2.640993
 20
0.041584
 30
0.000000
  0
VERTEX
  8
Layer 0
 10
2.655186
 20
0.041584
 30
0.000000
  0
VERTEX
  8
Layer 0
 10
2.669379
 20
0.041584
 30
0.000000
  0
VERTEX
  8
Layer 0
 10
2.683571
 20
0.041584
 30
0.000000
  0
VERTEX
  8
Layer 0
 10
2.697764
 20
0.041584
 30
0.000000
  0
VERTEX
  8
Layer 0
 10
2.711957
 20
0.041584
 30
0.000000
  0
VERTEX
  8
Layer 0
 10
2.726150
 20
0.041584
 30
0.000000
  0
VERTEX
  8
Layer 0
 10
2.740343
 20
0.041584
 30
0.000000
  0
VERTEX
  8
Layer 0
 10
2.754536
 20
0.041584
 30
0.000000
  0
VERTEX
  8
Layer 0
 10
2.768729
 20
0.041584
 30
0.000000
  0
VERTEX
  8
Layer 0
 10
2.782926
 20
0.041584
 30
0.000000
  0
VERTEX
  8
Layer 0
 10
2.797119
 20
0.041584
 30
0.000000
  0
VERTEX
  8
Layer 0
 10
2.811312
 20
0.041584
 30
0.000000
  0
VERTEX
  8
Layer 0
 10
2.825505
 20
0.041584
 30
0.000000
  0
VERTEX
  8
Layer 0
 10
2.839697
 20
0.041584
 30
0.000000
  0
VERTEX
  8
Layer 0
 10
2.853890
 20
0.041584
 30
0.000000
  0
VERTEX
  8
Layer 0
 10
2.868083
 20
0.041584
 30
0.000000
  0
VERTEX
  8
Layer 0
 10
2.882276
 20
0.041584
 30
0.000000
  0
VERTEX
  8
Layer 0
 10
2.896469
 20
0.041584
 30
0.000000
  0
VERTEX
  8
Layer 0
 10
2.910662
 20
0.041584
 30
0.000000
  0
VERTEX
  8
Layer 0
 10
2.924855
 20
0.041584
 30
0.000000
  0
VERTEX
  8
Layer 0
 10
2.939048
 20
0.041584
 30
0.000000
  0
VERTEX
  8
Layer 0
 10
2.953241
 20
0.041584
 30
0.000000
  0
VERTEX
  8
Layer 0
 10
2.967434
 20
0.041584
 30
0.000000
  0
VERTEX
  8
Layer 0
 10
2.981627
 20
0.041584
 30
0.000000
  0
VERTEX
  8
Layer 0
 10
2.995820
 20
0.041584
 30
0.000000
  0
VERTEX
  8
Layer 0
 10
3.010016
 20
0.041584
 30
0.000000
  0
VERTEX
  8
Layer 0
 10
3.025678
 20
0.041584
 30
0.000000
  0
VERTEX
  8
Layer 0
 10
3.041339
 20
0.041584
 30
0.000000
  0
VERTEX
  8
Layer 0
 10
3.057001
 20
0.041584
 30
0.000000
  0
VERTEX
  8
Layer 0
 10
3.072662
 20
0.041584
 30
0.000000
  0
VERTEX
  8
Layer 0
 10
3.088323
 20
0.041584
 30
0.000000
  0
VERTEX
  8
Layer 0
 10
3.103985
 20
0.041584
 30
0.000000
  0
VERTEX
  8
Layer 0
 10
3.119646
 20
0.041584
 30
0.000000
  0
VERTEX
  8
Layer 0
 10
3.135308
 20
0.041584
 30
0.000000
  0
VERTEX
  8
Layer 0
 10
3.150969
 20
0.041584
 30
0.000000
  0
VERTEX
  8
Layer 0
 10
3.166631
 20
0.041584
 30
0.000000
  0
VERTEX
  8
Layer 0
 10
3.182292
 20
0.041584
 30
0.000000
  0
VERTEX
  8
Layer 0
 10
3.197953
 20
0.041584
 30
0.000000
  0
VERTEX
  8
Layer 0
 10
3.213615
 20
0.041584
 30
0.000000
  0
VERTEX
  8
Layer 0
 10
3.229276
 20
0.041584
 30
0.000000
  0
VERTEX
  8
Layer 0
 10
3.244938
 20
0.041584
 30
0.000000
  0
VERTEX
  8
Layer 0
 10
3.260599
 20
0.041584
 30
0.000000
  0
VERTEX
  8
Layer 0
 10
3.275280
 20
0.041584
 30
0.000000
  0
VERTEX
  8
Layer 0
 10
3.289961
 20
0.041584
 30
0.000000
  0
VERTEX
  8
Layer 0
 10
3.304642
 20
0.041584
 30
0.000000
  0
VERTEX
  8
Layer 0
 10
3.319327
 20
0.041584
 30
0.000000
  0
VERTEX
  8
Layer 0
 10
3.334008
 20
0.041584
 30
0.000000
  0
VERTEX
  8
Layer 0
 10
3.348694
 20
0.041584
 30
0.000000
  0
VERTEX
  8
Layer 0
 10
3.363375
 20
0.041584
 30
0.000000
  0
VERTEX
  8
Layer 0
 10
3.378060
 20
0.041584
 30
0.000000
  0
VERTEX
  8
Layer 0
 10
3.392741
 20
0.041584
 30
0.000000
  0
VERTEX
  8
Layer 0
 10
3.407422
 20
0.041584
 30
0.000000
  0
VERTEX
  8
Layer 0
 10
3.422103
 20
0.041584
 30
0.000000
  0
VERTEX
  8
Layer 0
 10
3.436788
 20
0.041584
 30
0.000000
  0
VERTEX
  8
Layer 0
 10
3.451469
 20
0.041584
 30
0.000000
  0
VERTEX
  8
Layer 0
 10
3.466154
 20
0.041584
 30
0.000000
  0
VERTEX
  8
Layer 0
 10
3.480835
 20
0.041584
 30
0.000000
  0
VERTEX
  8
Layer 0
 10
3.495520
 20
0.041584
 30
0.000000
  0
VERTEX
  8
Layer 0
 10
3.505796
 20
0.041584
 30
0.000000
  0
VERTEX
  8
Layer 0
 10
3.516075
 20
0.041584
 30
0.000000
  0
VERTEX
  8
Layer 0
 10
3.526351
 20
0.041584
 30
0.000000
  0
VERTEX
  8
Layer 0
 10
3.536631
 20
0.041584
 30
0.000000
  0
VERTEX
  8
Layer 0
 10
3.546906
 20
0.041584
 30
0.000000
  0
VERTEX
  8
Layer 0
 10
3.557186
 20
0.041584
 30
0.000000
  0
VERTEX
  8
Layer 0
 10
3.567461
 20
0.041584
 30
0.000000
  0
VERTEX
  8
Layer 0
 10
3.577741
 20
0.041584
 30
0.000000
  0
VERTEX
  8
Layer 0
 10
3.588016
 20
0.041584
 30
0.000000
  0
VERTEX
  8
Layer 0
 10
3.598296
 20
0.041584
 30
0.000000
  0
VERTEX
  8
Layer 0
 10
3.608571
 20
0.041584
 30
0.000000
  0
VERTEX
  8
Layer 0
 10
3.618851
 20
0.041584
 30
0.000000
  0
VERTEX
  8
Layer 0
 10
3.629127
 20
0.041584
 30
0.000000
  0
VERTEX
  8
Layer 0
 10
3.639406
 20
0.041584
 30
0.000000
  0
VERTEX
  8
Layer 0
 10
3.649686
 20
0.041584
 30
0.000000
  0
VERTEX
  8
Layer 0
 10
3.659965
 20
0.041584
 30
0.000000
  0
VERTEX
  8
Layer 0
 10
3.714780
 20
0.041584
 30
0.000000
  0
VERTEX
  8
Layer 0
 10
3.793087
 20
0.041584
 30
0.000000
  0
VERTEX
  8
Layer 0
 10
3.863564
 20
0.041584
 30
0.000000
  0
VERTEX
  8
Layer 0
 10
3.948910
 20
0.041584
 30
0.000000
  0
SEQEND
  0
POLYLINE
  8
Layer 0
 66
     1
 10
0.000000
 20
0.000000
 30
0.000000
  0
VERTEX
  8
Layer 0
 10
0.588115
 20
2.765847
 30
0.000000
  0
VERTEX
  8
Layer 0
 10
0.647717
 20
2.852477
 30
0.000000
  0
SEQEND
  0
POLYLINE
  8
Layer 0
 66
     1
 10
0.000000
 20
0.000000
 30
0.000000
  0
VERTEX
  8
Layer 0
 10
0.647717
 20
2.852477
 30
0.000000
  0
VERTEX
  8
Layer 0
 10
0.711516
 20
2.935989
 30
0.000000
  0
SEQEND
  0
POLYLINE
  8
Layer 0
 66
     1
 10
0.000000
 20
0.000000
 30
0.000000
  0
VERTEX
  8
Layer 0
 10
0.711516
 20
2.935989
 30
0.000000
  0
VERTEX
  8
Layer 0
 10
0.779516
 20
3.016158
 30
0.000000
  0
SEQEND
  0
POLYLINE
  8
Layer 0
 66
     1
 10
0.000000
 20
0.000000
 30
0.000000
  0
VERTEX
  8
Layer 0
 10
0.779516
 20
3.016158
 30
0.000000
  0
VERTEX
  8
Layer 0
 10
0.851717
 20
3.093060
 30
0.000000
  0
SEQEND
  0
POLYLINE
  8
Layer 0
 66
     1
 10
0.000000
 20
0.000000
 30
0.000000
  0
VERTEX
  8
Layer 0
 10
0.851717
 20
3.093060
 30
0.000000
  0
VERTEX
  8
Layer 0
 10
0.927615
 20
3.166237
 30
0.000000
  0
SEQEND
  0
POLYLINE
  8
Layer 0
 66
     1
 10
0.000000
 20
0.000000
 30
0.000000
  0
VERTEX
  8
Layer 0
 10
0.927615
 20
3.166237
 30
0.000000
  0
VERTEX
  8
Layer 0
 10
1.007217
 20
3.235509
 30
0.000000
  0
SEQEND
  0
POLYLINE
  8
Layer 0
 66
     1
 10
0.000000
 20
0.000000
 30
0.000000
  0
VERTEX
  8
Layer 0
 10
2.496469
 20
3.428623
 30
0.000000
  0
VERTEX
  8
Layer 0
 10
2.496280
 20
3.425618
 30
0.000000
  0
VERTEX
  8
Layer 0
 10
2.495716
 20
3.422660
 30
0.000000
  0
VERTEX
  8
Layer 0
 10
2.494786
 20
3.419797
 30
0.000000
  0
VERTEX
  8
Layer 0
 10
2.493504
 20
3.417072
 30
0.000000
  0
VERTEX
  8
Layer 0
 10
2.491890
 20
3.414530
 30
0.000000
  0
VERTEX
  8
Layer 0
 10
2.489971
 20
3.412210
 30
0.000000
  0
VERTEX
  8
Layer 0
 10
2.487776
 20
3.410149
 30
0.000000
  0
VERTEX
  8
Layer 0
 10
2.485340
 20
3.408379
 30
0.000000
  0
VERTEX
  8
Layer 0
 10
2.482702
 20
3.406929
 30
0.000000
  0
VERTEX
  8
Layer 0
 10
2.479902
 20
3.405820
 30
0.000000
  0
VERTEX
  8
Layer 0
 10
2.476986
 20
3.405071
 30
0.000000
  0
VERTEX
  8
Layer 0
 10
2.473999
 20
3.404694
 30
0.000000
  0
VERTEX
  8
Layer 0
 10
2.470988
 20
3.404694
 30
0.000000
  0
VERTEX
  8
Layer 0
 10
2.468000
 20
3.405071
 30
0.000000
  0
VERTEX
  8
Layer 0
 10
2.465084
 20
3.405820
 30
0.000000
  0
VERTEX
  8
Layer 0
 10
2.462284
 20
3.406929
 30
0.000000
  0
VERTEX
  8
Layer 0
 10
2.459646
 20
3.408379
 30
0.000000
  0
VERTEX
  8
Layer 0
 10
2.457210
 20
3.410149
 30
0.000000
  0
VERTEX
  8
Layer 0
 10
2.455015
 20
3.412210
 30
0.000000
  0
VERTEX
  8
Layer 0
 10
2.453096
 20
3.414530
 30
0.000000
  0
VERTEX
  8
Layer 0
 10
2.451482
 20
3.417072
 30
0.000000
  0
VERTEX
  8
Layer 0
 10
2.450200
 20
3.419797
 30
0.000000
  0
VERTEX
  8
Layer 0
 10
2.449270
 20
3.422660
 30
0.000000
  0
VERTEX
  8
Layer 0
 10
2.448706
 20
3.425618
 30
0.000000
  0
VERTEX
  8
Layer 0
 10
2.448517
 20
3.428623
 30
0.000000
  0
VERTEX
  8
Layer 0
 10
2.448706
 20
3.431628
 30
0.000000
  0
VERTEX
  8
Layer 0
 10
2.449270
 20
3.434586
 30
0.000000
  0
VERTEX
  8
Layer 0
 10
2.450200
 20
3.437449
 30
0.000000
  0
VERTEX
  8
Layer 0
 10
2.451482
 20
3.440174
 30
0.000000
  0
VERTEX
  8
Layer 0
 10
2.453096
 20
3.442716
 30
0.000000
  0
VERTEX
  8
Layer 0
 10
2.455015
 20
3.445036
 30
0.000000
  0
VERTEX
  8
Layer 0
 10
2.457210
 20
3.447097
 30
0.000000
  0
VERTEX
  8
Layer 0
 10
2.459646
 20
3.448867
 30
0.000000
  0
VERTEX
  8
Layer 0
 10
2.462284
 20
3.450318
 30
0.000000
  0
VERTEX
  8
Layer 0
 10
2.465084
 20
3.451426
 30
0.000000
  0
VERTEX
  8
Layer 0
 10
2.468000
 20
3.452175
 30
0.000000
  0
VERTEX
  8
Layer 0
 10
2.470988
 20
3.452552
 30
0.000000
  0
VERTEX
  8
Layer 0
 10
2.473999
 20
3.452552
 30
0.000000
  0
VERTEX
  8
Layer 0
 10
2.476986
 20
3.452175
 30
0.000000
  0
VERTEX
  8
Layer 0
 10
2.479902
 20
3.451426
 30
0.000000
  0
VERTEX
  8
Layer 0
 10
2.482702
 20
3.450317
 30
0.000000
  0
VERTEX
  8
Layer 0
 10
2.485340
 20
3.448867
 30
0.000000
  0
VERTEX
  8
Layer 0
 10
2.487776
 20
3.447097
 30
0.000000
  0
VERTEX
  8
Layer 0
 10
2.489971
 20
3.445036
 30
0.000000
  0
VERTEX
  8
Layer 0
 10
2.491890
 20
3.442716
 30
0.000000
  0
VERTEX
  8
Layer 0
 10
2.493504
 20
3.440174
 30
0.000000
  0
VERTEX
  8
Layer 0
 10
2.494786
 20
3.437449
 30
0.000000
  0
VERTEX
  8
Layer 0
 10
2.495716
 20
3.434586
 30
0.000000
  0
VERTEX
  8
Layer 0
 10
2.496280
 20
3.431628
 30
0.000000
  0
VERTEX
  8
Layer 0
 10
2.496469
 20
3.428623
 30
0.000000
  0
SEQEND
  0
ENDSEC
  0
EOF
