  0
SECTION
  2
HEADER
  9
$ACADVER
  1
AC1014
  9
$ACADMAINTVER
 70
     0
  9
$DWGCODEPAGE
  3
ANSI_1252
  9
$INSBASE
 10
0.0
 20
0.0
 30
0.0
  9
$EXTMIN
 10
-0.5
 20
-0.5
 30
0.0
  9
$EXTMAX
 10
0.5
 20
0.5
 30
2.0
  9
$LIMMIN
 10
0.0
 20
0.0
  9
$LIMMAX
 10
12.0
 20
9.0
  9
$ORTHOMODE
 70
     0
  9
$REGENMODE
 70
     1
  9
$FILLMODE
 70
     1
  9
$QTEXTMODE
 70
     0
  9
$MIRRTEXT
 70
     1
  9
$DRAGMODE
 70
     2
  9
$LTSCALE
 40
1.0
  9
$OSMODE
 70
     0
  9
$ATTMODE
 70
     1
  9
$TEXTSIZE
 40
0.2
  9
$TRACEWID
 40
0.05
  9
$TEXTSTYLE
  7
STANDARD
  9
$CLAYER
  8
0
  9
$CELTYPE
  6
BYLAYER
  9
$CECOLOR
 62
   256
  9
$CELTSCALE
 40
1.0
  9
$DELOBJ
 70
     1
  9
$DISPSILH
 70
     0
  9
$DIMSCALE
 40
1.0
  9
$DIMASZ
 40
0.18
  9
$DIMEXO
 40
0.0625
  9
$DIMDLI
 40
0.38
  9
$DIMRND
 40
0.0
  9
$DIMDLE
 40
0.0
  9
$DIMEXE
 40
0.18
  9
$DIMTP
 40
0.0
  9
$DIMTM
 40
0.0
  9
$DIMTXT
 40
0.18
  9
$DIMCEN
 40
0.09
  9
$DIMTSZ
 40
0.0
  9
$DIMTOL
 70
     0
  9
$DIMLIM
 70
     0
  9
$DIMTIH
 70
     1
  9
$DIMTOH
 70
     1
  9
$DIMSE1
 70
     0
  9
$DIMSE2
 70
     0
  9
$DIMTAD
 70
     0
  9
$DIMZIN
 70
     0
  9
$DIMBLK
  1

  9
$DIMASO
 70
     1
  9
$DIMSHO
 70
     1
  9
$DIMPOST
  1

  9
$DIMAPOST
  1

  9
$DIMALT
 70
     0
  9
$DIMALTD
 70
     2
  9
$DIMALTF
 40
25.4
  9
$DIMLFAC
 40
1.0
  9
$DIMTOFL
 70
     0
  9
$DIMTVP
 40
0.0
  9
$DIMTIX
 70
     0
  9
$DIMSOXD
 70
     0
  9
$DIMSAH
 70
     0
  9
$DIMBLK1
  1

  9
$DIMBLK2
  1

  9
$DIMSTYLE
  2

  9
$DIMCLRD
 70
     0
  9
$DIMCLRE
 70
     0
  9
$DIMCLRT
 70
     0
  9
$DIMTFAC
 40
1.0
  9
$DIMGAP
 40
0.09
  9
$DIMJUST
 70
     0
  9
$DIMSD1
 70
     0
  9
$DIMSD2
 70
     0
  9
$DIMTOLJ
 70
     1
  9
$DIMTZIN
 70
     0
  9
$DIMALTZ
 70
     0
  9
$DIMALTTZ
 70
     0
  9
$DIMFIT
 70
     3
  9
$DIMUPT
 70
     0
  9
$DIMUNIT
 70
     2
  9
$DIMDEC
 70
     4
  9
$DIMTDEC
 70
     4
  9
$DIMALTU
 70
     2
  9
$DIMALTTD
 70
     2
  9
$DIMTXSTY
  7
STANDARD
  9
$DIMAUNIT
 70
     0
  9
$LUNITS
 70
     2
  9
$LUPREC
 70
     4
  9
$SKETCHINC
 40
0.1
  9
$FILLETRAD
 40
0.5
  9
$AUNITS
 70
     0
  9
$AUPREC
 70
     0
  9
$MENU
  1
.
  9
$ELEVATION
 40
0.0
  9
$PELEVATION
 40
0.0
  9
$THICKNESS
 40
0.0
  9
$LIMCHECK
 70
     0
  9
$BLIPMODE
 70
     1
  9
$CHAMFERA
 40
0.0
  9
$CHAMFERB
 40
0.0
  9
$CHAMFERC
 40
0.0
  9
$CHAMFERD
 40
0.0
  9
$SKPOLY
 70
     0
  9
$TDCREATE
 40
0.000000000
  9
$TDUPDATE
 40
0.000000000
  9
$TDINDWG
 40
0.0000000000
  9
$TDUSRTIMER
 40
0.0000000000
  9
$USRTIMER
 70
     1
  9
$ANGBASE
 50
0.0
  9
$ANGDIR
 70
     0
  9
$PDMODE
 70
     0
  9
$PDSIZE
 40
0.0
  9
$PLINEWID
 40
0.0
  9
$COORDS
 70
     0
  9
$SPLFRAME
 70
     0
  9
$SPLINETYPE
 70
     6
  9
$SPLINESEGS
 70
     8
  9
$ATTDIA
 70
     0
  9
$ATTREQ
 70
     1
  9
$HANDLING
 70
     1
  9
$HANDSEED
  5
147
  9
$SURFTAB1
 70
     6
  9
$SURFTAB2
 70
     6
  9
$SURFTYPE
 70
     6
  9
$SURFU
 70
     6
  9
$SURFV
 70
     6
  9
$UCSNAME
  2

  9
$UCSORG
 10
0.0
 20
0.0
 30
0.0
  9
$UCSXDIR
 10
1.0
 20
0.0
 30
0.0
  9
$UCSYDIR
 10
0.0
 20
1.0
 30
0.0
  9
$PUCSNAME
  2

  9
$PUCSORG
 10
0.0
 20
0.0
 30
0.0
  9
$PUCSXDIR
 10
1.0
 20
0.0
 30
0.0
  9
$PUCSYDIR
 10
0.0
 20
1.0
 30
0.0
  9
$USERI1
 70
     0
  9
$USERI2
 70
     0
  9
$USERI3
 70
     0
  9
$USERI4
 70
     0
  9
$USERI5
 70
     0
  9
$USERR1
 40
0.0
  9
$USERR2
 40
0.0
  9
$USERR3
 40
0.0
  9
$USERR4
 40
0.0
  9
$USERR5
 40
0.0
  9
$WORLDVIEW
 70
     1
  9
$SHADEDGE
 70
     3
  9
$SHADEDIF
 70
    70
  9
$TILEMODE
 70
     1
  9
$MAXACTVP
 70
    48
  9
$PINSBASE
 10
0.0
 20
0.0
 30
0.0
  9
$PLIMCHECK
 70
     0
  9
$PEXTMIN
 10
-0.5
 20
-0.5
 30
0.0
  9
$PEXTMAX
 10
0.5
 20
0.5
 30
2.0
  9
$PLIMMIN
 10
0.0
 20
0.0
  9
$PLIMMAX
 10
12.0
 20
9.0
  9
$UNITMODE
 70
     0
  9
$VISRETAIN
 70
     0
  9
$PLINEGEN
 70
     0
  9
$PSLTSCALE
 70
     1
  9
$TREEDEPTH
 70
  3020
  9
$PICKSTYLE
 70
     1
  9
$CMLSTYLE
  2
STANDARD
  9
$CMLJUST
 70
     0
  9
$CMLSCALE
 40
1.0
  9
$PROXYGRAPHICS
 70
     1
  9
$MEASUREMENT
 70
     0
  0
ENDSEC
  0
SECTION
  2
CLASSES
  0
CLASS
  1
LWPOLYLINE
  2
AcDbPolyline
  3
\"AutoCAD\"
 90
        0
280
     0
281
     1
  0
CLASS
  1
IMAGE
  2
AcDbRasterImage
  3
ISM
 90
      127
280
     0
281
     1
  0
CLASS
  1
OLE2FRAME
  2
AcDbOle2Frame
  3
\"\"
 90
        0
280
     0
281
     1
  0
CLASS
  1
HATCH
  2
AcDbHatch
  3
\"ACAD_SEDONA\"
 90
        0
280
     0
281
     1
  0
CLASS
  1
DICTIONARYVAR
  2
AcDbDictionaryVar
  3
\"AutoCAD\"
 90
        0
280
     0
281
     0
  0
CLASS
  1
RASTERVARIABLES
  2
AcDbRasterVariables
  3
ISM
 90
        0
280
     0
281
     0
  0
CLASS
  1
IMAGEDEF
  2
AcDbRasterImageDef
  3
ISM
 90
        0
280
     0
281
     0
  0
CLASS
  1
IMAGEDEF_REACTOR
  2
AcDbRasterImageDefReactor
  3
ISM
 90
        1
280
     0
281
     0
  0
CLASS
  1
IDBUFFER
  2
AcDbIdBuffer
  3
\"Acad\"
 90
        0
280
     0
281
     0
  0
CLASS
  1
SPATIAL_FILTER
  2
AcDbSpatialFilter
  3
\"Acad\"
 90
        0
280
     0
281
     0
  0
CLASS
  1
XRECORD
  2
AcDbXrecord
  3
\"<Built In>\"
 90
        0
280
     0
281
     0
  0
CLASS
  1
SORTENTSTABLE
  2
AcDbSortentsTable
  3
\"AutoCAD\"
 90
        0
280
     0
281
     0
  0
CLASS
  1
LAYER_INDEX
  2
AcDbLayerIndex
  3
\"Acad\"
 90
        0
280
     0
281
     0
  0
CLASS
  1
SPATIAL_INDEX
  2
AcDbSpatialIndex
  3
\"Acad\"
 90
        0
280
     0
281
     0
  0
CLASS
  1
OBJECT_PTR
  2
CAseDLPNTableRecord
  3
\"ASE-LPNTableRecord\"
 90
        1
280
     0
281
     0
  0
CLASS
  1
LAYOUT
  2
AcDbLayout
  3
\"AutoCAD 2000\"
 90
        1
280
     0
281
     0
  0
CLASS
  1
PLOTSETTINGS
  2
AcDbPlotSettings
  3
\"AutoCAD 2000\"
 90
        1
280
     0
281
     0
  0
CLASS
  1
ACDBDICTIONARYWDFLT
  2
AcDbDictionaryWithDefault
  3
\"AutoCAD 2000\"
 90
        1
280
     0
281
     0
  0
CLASS
  1
ACDBPLACEHOLDER
  2
AcDbPlaceHolder
  3
\"AutoCAD 2000\"
 90
        1
280
     0
281
     0
  0
CLASS
  1
VBA_PROJECT
  2
AcDbVbaProject
  3
\"acadvba\"
 90
        1
280
     0
281
     0
  0
CLASS
  1
WIPEOUT
  2
AcDbWipeout
  3
WipeOut|AutoCAD Express Tool|expresstools@autodesk.com
 90
      127
280
     0
281
     1
  0
CLASS
  1
WIPEOUTVARIABLES
  2
AcDbWipeoutVariables
  3
WipeOut|AutoCAD Express Tool|expresstools@autodesk.com
 90
        0
280
     0
281
     0
  0
CLASS
  1
RTEXT
  2
RText
  3
RText|AutoCAD Express Tool|expresstools@autodesk.com
 90
        0
280
     0
281
     1
  0
CLASS
  1
ARCALIGNEDTEXT
  2
AcDbArcAlignedText
  3
ATEXT|AutoCAD Express Tool|expresstools@autodesk.com
 90
        0
280
     0
281
     1
  0
ENDSEC
  0
SECTION
  2
TABLES
  0
TABLE
  2
VPORT
  5
7
100
AcDbSymbolTable
 70
     1
  0
VPORT
  5
15
100
AcDbSymbolTableRecord
100
AcDbViewportTableRecord
  2
*ACTIVE
 70
     0
 10
0.0
 20
0.0
 11
1.0
 21
1.0
 12
6.591288
 22
4.579184
 13
0.0
 23
0.0
 14
1.0
 24
1.0
 15
0.0
 25
0.0
 16
0.0
 26
0.0
 36
1.0
 17
0.0
 27
0.0
 37
0.0
 40
9.158369
 41
0.688564
 42
50.0
 43
0.0
 44
0.0
 50
0.0
 51
0.0
 71
     0
 72
   100
 73
     1
 74
     1
 75
     0
 76
     0
 77
     0
 78
     0
  0
ENDTAB
  0
TABLE
  2
LTYPE
  5
4
100
AcDbSymbolTable
 70
    10
  0
LTYPE
  5
11
100
AcDbSymbolTableRecord
100
AcDbLinetypeTableRecord
  2
BYBLOCK
 70
    64
  3

 72
    65
 73
     0
 40
0.0
  0
LTYPE
  5
12
100
AcDbSymbolTableRecord
100
AcDbLinetypeTableRecord
  2
BYLAYER
 70
    64
  3

 72
    65
 73
     0
 40
0.0
  0
LTYPE
  5
13
100
AcDbSymbolTableRecord
100
AcDbLinetypeTableRecord
  2
CONTINUOUS
 70
    64
  3
Solid line
 72
    65
 73
     0
 40
0.0
  0
LTYPE
  5
1D
100
AcDbSymbolTableRecord
100
AcDbLinetypeTableRecord
  2
DASHED
 70
     0
  3
__ __ __ __ __ __ __ __ __ __ __ __ __ __ __ __
 72
    65
 73
     2
 40
15.0
 49
12.0
 74
     0
 49
-3.0
 74
     0
  0
LTYPE
  5
1E
100
AcDbSymbolTableRecord
100
AcDbLinetypeTableRecord
  2
DASHDOT
 70
     0
  3
 __ . __ . __ . __ . __ . __ . __ . 
 72
    65
 73
     4
 40
18.5
 49
12.0
 74
     0
 49
-3.0
 74
     0
 49
0.5
 74
     0
 49
-3.0
 74
     0
  0
LTYPE
  5
1F
100
AcDbSymbolTableRecord
100
AcDbLinetypeTableRecord
  2
DOT
 70
     0
  3
 . . . . . . . . . . . . . . . .
 72
    65
 73
     2
 40
3.5
 49
0.5
 74
     0
 49
-3.0
 74
     0
  0
LTYPE
  5
20
100
AcDbSymbolTableRecord
100
AcDbLinetypeTableRecord
  2
DASHSPACE
 70
     0
  3
__    __    __    __    __   
 72
    65
 73
     2
 40
30.0
 49
12.0
 74
     0
 49
-18.0
 74
     0
  0
LTYPE
  5
21
100
AcDbSymbolTableRecord
100
AcDbLinetypeTableRecord
  2
DASHDOT2
 70
     0
  3
__ . . __ . . __ . . __ 
 72
    65
 73
     6
 40
22.0
 49
12.0
 74
     0
 49
-3.0
 74
     0
 49
0.5
 74
     0
 49
-3.0
 74
     0
 49
0.5
 74
     0
 49
-3.0
 74
     0
  0
LTYPE
  5
22
100
AcDbSymbolTableRecord
100
AcDbLinetypeTableRecord
  2
PHANTOM
 70
     0
  3
____________    ____    ____   _
 72
    65
 73
     6
 40
20.0
 49
10.0
 74
     0
 49
-2.0
 74
     0
 49
2.0
 74
     0
 49
-2.0
 74
     0
 49
2.0
 74
     0
 49
-2.0
 74
     0
  0
LTYPE
  5
23
100
AcDbSymbolTableRecord
100
AcDbLinetypeTableRecord
  2
AXES
 70
     0
  3
________  __  ________  __  _____
 72
    65
 73
     4
 40
24.0
 49
15.0
 74
     0
 49
-3.0
 74
     0
 49
3.0
 74
     0
 49
-3.0
 74
     0
  0
ENDTAB
  0
TABLE
  2
LAYER
  5
2
100
AcDbSymbolTable
 70
     1
  0
LAYER
  5
14
100
AcDbSymbolTableRecord
100
AcDbLayerTableRecord
  2
0
 70
     0
 62
     7
  6
CONTINUOUS
  0
ENDTAB
  0
TABLE
  2
STYLE
  5
3
100
AcDbSymbolTable
 70
     1
  0
STYLE
  5
17
100
AcDbSymbolTableRecord
100
AcDbTextStyleTableRecord
  2
STANDARD
 70
     0
 40
0.0
 41
1.0
 50
0.0
 71
     0
 42
0.0
  3
txt
  4

  0
ENDTAB
  0
TABLE
  2
VIEW
  5
5
100
AcDbSymbolTable
 70
     0
  0
ENDTAB
  0
TABLE
  2
UCS
  5
6
100
AcDbSymbolTable
 70
     0
  0
ENDTAB
  0
TABLE
  2
APPID
  5
8
100
AcDbSymbolTable
 70
     1
  0
APPID
  5
16
100
AcDbSymbolTableRecord
100
AcDbRegAppTableRecord
  2
ACAD
 70
     0
  0
ENDTAB
  0
TABLE
  2
DIMSTYLE
  5
9
100
AcDbSymbolTable
 70
     1
  0
DIMSTYLE
105
18
100
AcDbSymbolTableRecord
100
AcDbDimStyleTableRecord
  2
STANDARD
 70
     0
  3

  4

  5

  6

  7

 40
1.0
 41
0.18
 42
0.0625
 43
0.38
 44
0.18
 45
0.0
 46
0.0
 47
0.0
 48
0.0
 71
     0
 72
     0
 73
     1
 74
     1
 75
     0
 76
     0
 77
     0
 78
     0
140
0.18
141
0.09
142
0.0
143
25.4
144
1.0
145
0.0
146
1.0
147
0.09
170
     0
171
     2
172
     0
173
     0
174
     0
175
     0
176
     0
177
     0
178
     0
270
     2
271
     4
272
     4
273
     2
274
     2
275
     0
280
     0
281
     0
282
     0
283
     1
284
     0
285
     0
286
     0
287
     0
288
     0
340
17
  0
ENDTAB
  0
TABLE
  2
BLOCK_RECORD
  5
1
100
AcDbSymbolTable
 70
     0
  0
BLOCK_RECORD
  5
A
100
AcDbSymbolTableRecord
100
AcDbBlockTableRecord
  2
*MODEL_SPACE
  0
BLOCK_RECORD
  5
B
100
AcDbSymbolTableRecord
100
AcDbBlockTableRecord
  2
*PAPER_SPACE
  0
ENDTAB
  0
ENDSEC
  0
SECTION
  2
BLOCKS
  0
BLOCK
  5
D
100
AcDbEntity
  8
0
100
AcDbBlockBegin
  2
*MODEL_SPACE
 70
     0
 10
0.0
 20
0.0
 30
0.0
  3
*MODEL_SPACE
  1

  0
ENDBLK
  5
E
100
AcDbEntity
  8
0
100
AcDbBlockEnd
  0
BLOCK
  5
F
100
AcDbEntity
 67
     1
  8
0
100
AcDbBlockBegin
  2
*PAPER_SPACE
 70
     0
 10
0.0
 20
0.0
 30
0.0
  3
*PAPER_SPACE
  1

  0
ENDBLK
  5
10
100
AcDbEntity
 67
     1
  8
0
100
AcDbBlockEnd
  0
ENDSEC
  0
SECTION
  2
ENTITIES
  0
VIEWPORT
  5
146
100
AcDbEntity
 67
     1
  8
0
 62
     0
 48
0.0
100
AcDbViewport
 10
0.0
 20
0.0
 30
0.0
 40
1000.0
 41
1000.0
 68
     1
 69
     1
1001
ACAD
1000
MVIEW
1002
{
1070
    16
1010
0.0
1020
0.0
1030
0.0
1010
0.0
1020
0.0
1030
1.0
1040
0.0
1040
1000.0
1040
0.0
1040
0.0
1040
50.0
1040
0.0
1040
0.0
1070
     0
1070
   100
1070
     1
1070
     1
1070
     0
1070
     0
1070
     0
1070
     0
1040
0.0
1040
0.0
1040
0.0
1040
1.0
1040
1.0
1040
1.0
1040
1.0
1070
     0
1002
{
1002
}
1002
}
  0
LINE
  5
24
100
AcDbEntity
  8
0
 62
     7
 48
0.077488
100
AcDbLine
 10
49.381428
 20
98.747025
 30
0.0
 11
47.66013
 21
96.169395
 31
0.0
210
0.0
220
0.0
230
1.0
  0
LINE
  5
25
100
AcDbEntity
  8
0
 62
     7
 48
0.20427
100
AcDbLine
 10
47.66013
 20
96.169395
 30
0.0
 11
43.432964
 21
89.177025
 31
0.0
210
0.0
220
0.0
230
1.0
  0
LINE
  5
26
100
AcDbEntity
  8
0
 62
     7
 48
0.138438
100
AcDbLine
 10
43.432964
 20
89.177025
 30
0.0
 11
40.791344
 21
84.310204
 31
0.0
210
0.0
220
0.0
230
1.0
  0
LINE
  5
27
100
AcDbEntity
  8
0
 62
     7
 48
0.156878
100
AcDbLine
 10
40.791344
 20
84.310204
 30
0.0
 11
38.017254
 21
78.68158
 31
0.0
210
0.0
220
0.0
230
1.0
  0
LINE
  5
28
100
AcDbEntity
  8
0
 62
     7
 48
0.171231
100
AcDbLine
 10
38.017254
 20
78.68158
 30
0.0
 11
35.275356
 21
72.405098
 31
0.0
210
0.0
220
0.0
230
1.0
  0
LINE
  5
29
100
AcDbEntity
  8
0
 62
     7
 48
0.181759
100
AcDbLine
 10
35.275356
 20
72.405098
 30
0.0
 11
32.730316
 21
65.594734
 31
0.0
210
0.0
220
0.0
230
1.0
  0
LINE
  5
2A
100
AcDbEntity
  8
0
 62
     7
 48
0.055368
100
AcDbLine
 10
32.730316
 20
65.594734
 30
0.0
 11
34.804451
 21
64.818237
 31
0.0
210
0.0
220
0.0
230
1.0
  0
LINE
  5
2B
100
AcDbEntity
  8
0
 62
     7
 48
0.051488
100
AcDbLine
 10
34.804451
 20
64.818237
 30
0.0
 11
36.663448
 21
63.931816
 31
0.0
210
0.0
220
0.0
230
1.0
  0
LINE
  5
2C
100
AcDbEntity
  8
0
 62
     7
 48
0.048202
100
AcDbLine
 10
36.663448
 20
63.931816
 30
0.0
 11
38.319988
 21
62.945236
 31
0.0
210
0.0
220
0.0
230
1.0
  0
LINE
  5
2D
100
AcDbEntity
  8
0
 62
     7
 48
0.045492
100
AcDbLine
 10
38.319988
 20
62.945236
 30
0.0
 11
39.786758
 21
61.868267
 31
0.0
210
0.0
220
0.0
230
1.0
  0
LINE
  5
2E
100
AcDbEntity
  8
0
 62
     7
 48
0.043325
100
AcDbLine
 10
39.786758
 20
61.868267
 30
0.0
 11
41.076443
 21
60.710682
 31
0.0
210
0.0
220
0.0
230
1.0
  0
LINE
  5
2F
100
AcDbEntity
  8
0
 62
     7
 48
0.041648
100
AcDbLine
 10
41.076443
 20
60.710682
 30
0.0
 11
42.201725
 21
59.482254
 31
0.0
210
0.0
220
0.0
230
1.0
  0
LINE
  5
30
100
AcDbEntity
  8
0
 62
     7
 48
0.079796
100
AcDbLine
 10
42.201725
 20
59.482254
 30
0.0
 11
44.009827
 21
56.851948
 31
0.0
210
0.0
220
0.0
230
1.0
  0
LINE
  5
31
100
AcDbEntity
  8
0
 62
     7
 48
0.077124
100
AcDbLine
 10
44.009827
 20
56.851948
 30
0.0
 11
45.312531
 21
54.055511
 31
0.0
210
0.0
220
0.0
230
1.0
  0
LINE
  5
32
100
AcDbEntity
  8
0
 62
     7
 48
0.07553
100
AcDbLine
 10
45.312531
 20
54.055511
 30
0.0
 11
46.211315
 21
51.171116
 31
0.0
210
0.0
220
0.0
230
1.0
  0
LINE
  5
33
100
AcDbEntity
  8
0
 62
     7
 48
0.073875
100
AcDbLine
 10
46.211315
 20
51.171116
 30
0.0
 11
46.807655
 21
48.276932
 31
0.0
210
0.0
220
0.0
230
1.0
  0
LINE
  5
34
100
AcDbEntity
  8
0
 62
     7
 48
0.071333
100
AcDbLine
 10
46.807655
 20
48.276932
 30
0.0
 11
47.203026
 21
45.451122
 31
0.0
210
0.0
220
0.0
230
1.0
  0
LINE
  5
35
100
AcDbEntity
  8
0
 62
     7
 48
0.06768
100
AcDbLine
 10
47.203026
 20
45.451122
 30
0.0
 11
46.388618
 21
48.032906
 31
0.0
210
0.0
220
0.0
230
1.0
  0
LINE
  5
36
100
AcDbEntity
  8
0
 62
     7
 48
0.063415
100
AcDbLine
 10
46.388618
 20
48.032906
 30
0.0
 11
45.422066
 21
50.37812
 31
0.0
210
0.0
220
0.0
230
1.0
  0
LINE
  5
37
100
AcDbEntity
  8
0
 62
     7
 48
0.059656
100
AcDbLine
 10
45.422066
 20
50.37812
 30
0.0
 11
44.316204
 21
52.492634
 31
0.0
210
0.0
220
0.0
230
1.0
  0
LINE
  5
38
100
AcDbEntity
  8
0
 62
     7
 48
0.0564
100
AcDbLine
 10
44.316204
 20
52.492634
 30
0.0
 11
43.083878
 21
54.382313
 31
0.0
210
0.0
220
0.0
230
1.0
  0
LINE
  5
39
100
AcDbEntity
  8
0
 62
     7
 48
0.053636
100
AcDbLine
 10
43.083878
 20
54.382313
 30
0.0
 11
41.737923
 21
56.053032
 31
0.0
210
0.0
220
0.0
230
1.0
  0
LINE
  5
3A
100
AcDbEntity
  8
0
 62
     7
 48
0.051343
100
AcDbLine
 10
41.737923
 20
56.053032
 30
0.0
 11
40.291187
 21
57.510654
 31
0.0
210
0.0
220
0.0
230
1.0
  0
LINE
  5
3B
100
AcDbEntity
  8
0
 62
     7
 48
0.049489
100
AcDbLine
 10
40.291187
 20
57.510654
 30
0.0
 11
38.756512
 21
58.761055
 31
0.0
210
0.0
220
0.0
230
1.0
  0
LINE
  5
3C
100
AcDbEntity
  8
0
 62
     7
 48
0.048036
100
AcDbLine
 10
38.756512
 20
58.761055
 30
0.0
 11
37.146729
 21
59.810104
 31
0.0
210
0.0
220
0.0
230
1.0
  0
LINE
  5
3D
100
AcDbEntity
  8
0
 62
     7
 48
0.046933
100
AcDbLine
 10
37.146729
 20
59.810104
 30
0.0
 11
35.474686
 21
60.663666
 31
0.0
210
0.0
220
0.0
230
1.0
  0
LINE
  5
3E
100
AcDbEntity
  8
0
 62
     7
 48
0.046127
100
AcDbLine
 10
35.474686
 20
60.663666
 30
0.0
 11
33.753223
 21
61.327614
 31
0.0
210
0.0
220
0.0
230
1.0
  0
LINE
  5
3F
100
AcDbEntity
  8
0
 62
     7
 48
0.045561
100
AcDbLine
 10
33.753223
 20
61.327614
 30
0.0
 11
31.99518
 21
61.807816
 31
0.0
210
0.0
220
0.0
230
1.0
  0
LINE
  5
40
100
AcDbEntity
  8
0
 62
     7
 48
0.045181
100
AcDbLine
 10
31.99518
 20
61.807816
 30
0.0
 11
30.2134
 21
62.110146
 31
0.0
210
0.0
220
0.0
230
1.0
  0
LINE
  5
41
100
AcDbEntity
  8
0
 62
     7
 48
0.044935
100
AcDbLine
 10
30.2134
 20
62.110146
 30
0.0
 11
28.420721
 21
62.240467
 31
0.0
210
0.0
220
0.0
230
1.0
  0
LINE
  5
42
100
AcDbEntity
  8
0
 62
     7
 48
0.044777
100
AcDbLine
 10
28.420721
 20
62.240467
 30
0.0
 11
26.629986
 21
62.204651
 31
0.0
210
0.0
220
0.0
230
1.0
  0
LINE
  5
43
100
AcDbEntity
  8
0
 62
     7
 48
0.044669
100
AcDbLine
 10
26.629986
 20
62.204651
 30
0.0
 11
24.854033
 21
62.008568
 31
0.0
210
0.0
220
0.0
230
1.0
  0
LINE
  5
44
100
AcDbEntity
  8
0
 62
     7
 48
0.044578
100
AcDbLine
 10
24.854033
 20
62.008568
 30
0.0
 11
23.105705
 21
61.658089
 31
0.0
210
0.0
220
0.0
230
1.0
  0
LINE
  5
45
100
AcDbEntity
  8
0
 62
     7
 48
0.044482
100
AcDbLine
 10
23.105705
 20
61.658089
 30
0.0
 11
21.397844
 21
61.159084
 31
0.0
210
0.0
220
0.0
230
1.0
  0
LINE
  5
46
100
AcDbEntity
  8
0
 62
     7
 48
0.044366
100
AcDbLine
 10
21.397844
 20
61.159084
 30
0.0
 11
19.74329
 21
60.517418
 31
0.0
210
0.0
220
0.0
230
1.0
  0
LINE
  5
47
100
AcDbEntity
  8
0
 62
     7
 48
0.044223
100
AcDbLine
 10
19.74329
 20
60.517418
 30
0.0
 11
18.154882
 21
59.738964
 31
0.0
210
0.0
220
0.0
230
1.0
  0
LINE
  5
48
100
AcDbEntity
  8
0
 62
     7
 48
0.044055
100
AcDbLine
 10
18.154882
 20
59.738964
 30
0.0
 11
16.645464
 21
58.82959
 31
0.0
210
0.0
220
0.0
230
1.0
  0
LINE
  5
49
100
AcDbEntity
  8
0
 62
     7
 48
0.043872
100
AcDbLine
 10
16.645464
 20
58.82959
 30
0.0
 11
15.227874
 21
57.795166
 31
0.0
210
0.0
220
0.0
230
1.0
  0
LINE
  5
4A
100
AcDbEntity
  8
0
 62
     7
 48
0.043693
100
AcDbLine
 10
15.227874
 20
57.795166
 30
0.0
 11
13.914954
 21
56.641567
 31
0.0
210
0.0
220
0.0
230
1.0
  0
LINE
  5
4B
100
AcDbEntity
  8
0
 62
     7
 48
0.043546
100
AcDbLine
 10
13.914954
 20
56.641567
 30
0.0
 11
12.719546
 21
55.374653
 31
0.0
210
0.0
220
0.0
230
1.0
  0
LINE
  5
4C
100
AcDbEntity
  8
0
 62
     7
 48
0.043468
100
AcDbLine
 10
12.719546
 20
55.374653
 30
0.0
 11
11.654489
 21
54.000301
 31
0.0
210
0.0
220
0.0
230
1.0
  0
LINE
  5
4D
100
AcDbEntity
  8
0
 62
     7
 48
0.043504
100
AcDbLine
 10
11.654489
 20
54.000301
 30
0.0
 11
10.732625
 21
52.524376
 31
0.0
210
0.0
220
0.0
230
1.0
  0
LINE
  5
4E
100
AcDbEntity
  8
0
 62
     7
 48
0.043707
100
AcDbLine
 10
10.732625
 20
52.524376
 30
0.0
 11
9.966795
 21
50.952751
 31
0.0
210
0.0
220
0.0
230
1.0
  0
LINE
  5
4F
100
AcDbEntity
  8
0
 62
     7
 48
0.044136
100
AcDbLine
 10
9.966795
 20
50.952751
 30
0.0
 11
9.369839
 21
49.29129
 31
0.0
210
0.0
220
0.0
230
1.0
  0
LINE
  5
50
100
AcDbEntity
  8
0
 62
     7
 48
0.044853
100
AcDbLine
 10
9.369839
 20
49.29129
 30
0.0
 11
8.954597
 21
47.545872
 31
0.0
210
0.0
220
0.0
230
1.0
  0
LINE
  5
51
100
AcDbEntity
  8
0
 62
     7
 48
0.04592
100
AcDbLine
 10
8.954597
 20
47.545872
 30
0.0
 11
8.733914
 21
45.722359
 31
0.0
210
0.0
220
0.0
230
1.0
  0
LINE
  5
52
100
AcDbEntity
  8
0
 62
     7
 48
0.047395
100
AcDbLine
 10
8.733914
 20
45.722359
 30
0.0
 11
8.720627
 21
43.826622
 31
0.0
210
0.0
220
0.0
230
1.0
  0
LINE
  5
53
100
AcDbEntity
  8
0
 62
     7
 48
0.049324
100
AcDbLine
 10
8.720627
 20
43.826622
 30
0.0
 11
8.927578
 21
41.864529
 31
0.0
210
0.0
220
0.0
230
1.0
  0
LINE
  5
54
100
AcDbEntity
  8
0
 62
     7
 48
0.051747
100
AcDbLine
 10
8.927578
 20
41.864529
 30
0.0
 11
9.367608
 21
39.841957
 31
0.0
210
0.0
220
0.0
230
1.0
  0
LINE
  5
55
100
AcDbEntity
  8
0
 62
     7
 48
0.055801
100
AcDbLine
 10
9.367608
 20
39.841957
 30
0.0
 11
10.246463
 21
37.790222
 31
0.0
210
0.0
220
0.0
230
1.0
  0
LINE
  5
56
100
AcDbEntity
  8
0
 62
     7
 48
0.068943
100
AcDbLine
 10
10.246463
 20
37.790222
 30
0.0
 11
11.80409
 21
35.51453
 31
0.0
210
0.0
220
0.0
230
1.0
  0
LINE
  5
57
100
AcDbEntity
  8
0
 62
     7
 48
0.078885
100
AcDbLine
 10
11.80409
 20
35.51453
 30
0.0
 11
13.959987
 21
33.210499
 31
0.0
210
0.0
220
0.0
230
1.0
  0
LINE
  5
58
100
AcDbEntity
  8
0
 62
     7
 48
0.085565
100
AcDbLine
 10
13.959987
 20
33.210499
 30
0.0
 11
16.63365
 21
31.073755
 31
0.0
210
0.0
220
0.0
230
1.0
  0
LINE
  5
59
100
AcDbEntity
  8
0
 62
     7
 48
0.044438
100
AcDbLine
 10
16.63365
 20
31.073755
 30
0.0
 11
18.139484
 21
30.129248
 31
0.0
210
0.0
220
0.0
230
1.0
  0
LINE
  5
5A
100
AcDbEntity
  8
0
 62
     7
 48
0.045167
100
AcDbLine
 10
18.139484
 20
30.129248
 30
0.0
 11
19.744574
 21
29.299921
 31
0.0
210
0.0
220
0.0
230
1.0
  0
LINE
  5
5B
100
AcDbEntity
  8
0
 62
     7
 48
0.045732
100
AcDbLine
 10
19.744574
 20
29.299921
 30
0.0
 11
21.43885
 21
28.610226
 31
0.0
210
0.0
220
0.0
230
1.0
  0
LINE
  5
5C
100
AcDbEntity
  8
0
 62
     7
 48
0.046241
100
AcDbLine
 10
21.43885
 20
28.610226
 30
0.0
 11
23.212254
 21
28.084618
 31
0.0
210
0.0
220
0.0
230
1.0
  0
LINE
  5
5D
100
AcDbEntity
  8
0
 62
     7
 48
0.046826
100
AcDbLine
 10
23.212254
 20
28.084618
 30
0.0
 11
25.054722
 21
27.747547
 31
0.0
210
0.0
220
0.0
230
1.0
  0
LINE
  5
5E
100
AcDbEntity
  8
0
 62
     7
 48
0.047638
100
AcDbLine
 10
25.054722
 20
27.747547
 30
0.0
 11
26.956188
 21
27.623468
 31
0.0
210
0.0
220
0.0
230
1.0
  0
LINE
  5
5F
100
AcDbEntity
  8
0
 62
     7
 48
0.048842
100
AcDbLine
 10
26.956188
 20
27.623468
 30
0.0
 11
28.906593
 21
27.736832
 31
0.0
210
0.0
220
0.0
230
1.0
  0
LINE
  5
60
100
AcDbEntity
  8
0
 62
     7
 48
0.050609
100
AcDbLine
 10
28.906593
 20
27.736832
 30
0.0
 11
30.895872
 21
28.112093
 31
0.0
210
0.0
220
0.0
230
1.0
  0
LINE
  5
61
100
AcDbEntity
  8
0
 62
     7
 48
0.052099
100
AcDbLine
 10
30.895872
 20
28.112093
 30
0.0
 11
32.860195
 21
28.808018
 31
0.0
210
0.0
220
0.0
230
1.0
  0
LINE
  5
62
100
AcDbEntity
  8
0
 62
     7
 48
0.047159
100
AcDbLine
 10
32.860195
 20
28.808018
 30
0.0
 11
34.484119
 21
29.767803
 31
0.0
210
0.0
220
0.0
230
1.0
  0
LINE
  5
63
100
AcDbEntity
  8
0
 62
     7
 48
0.043798
100
AcDbLine
 10
34.484119
 20
29.767803
 30
0.0
 11
35.781235
 21
30.945417
 31
0.0
210
0.0
220
0.0
230
1.0
  0
LINE
  5
64
100
AcDbEntity
  8
0
 62
     7
 48
0.041751
100
AcDbLine
 10
35.781235
 20
30.945417
 30
0.0
 11
36.765133
 21
32.294834
 31
0.0
210
0.0
220
0.0
230
1.0
  0
LINE
  5
65
100
AcDbEntity
  8
0
 62
     7
 48
0.040654
100
AcDbLine
 10
36.765133
 20
32.294834
 30
0.0
 11
37.449402
 21
33.77002
 31
0.0
210
0.0
220
0.0
230
1.0
  0
LINE
  5
66
100
AcDbEntity
  8
0
 62
     7
 48
0.040128
100
AcDbLine
 10
37.449402
 20
33.77002
 30
0.0
 11
37.847633
 21
35.324951
 31
0.0
210
0.0
220
0.0
230
1.0
  0
LINE
  5
67
100
AcDbEntity
  8
0
 62
     7
 48
0.03984
100
AcDbLine
 10
37.847633
 20
35.324951
 30
0.0
 11
37.973419
 21
36.913593
 31
0.0
210
0.0
220
0.0
230
1.0
  0
LINE
  5
68
100
AcDbEntity
  8
0
 62
     7
 48
0.039548
100
AcDbLine
 10
37.973419
 20
36.913593
 30
0.0
 11
37.840347
 21
38.489918
 31
0.0
210
0.0
220
0.0
230
1.0
  0
LINE
  5
69
100
AcDbEntity
  8
0
 62
     7
 48
0.03911
100
AcDbLine
 10
37.840347
 20
38.489918
 30
0.0
 11
37.462013
 21
40.0079
 31
0.0
210
0.0
220
0.0
230
1.0
  0
LINE
  5
6A
100
AcDbEntity
  8
0
 62
     7
 48
0.03849
100
AcDbLine
 10
37.462013
 20
40.0079
 30
0.0
 11
36.852005
 21
41.421505
 31
0.0
210
0.0
220
0.0
230
1.0
  0
LINE
  5
6B
100
AcDbEntity
  8
0
 62
     7
 48
0.037761
100
AcDbLine
 10
36.852005
 20
41.421505
 30
0.0
 11
36.023914
 21
42.684708
 31
0.0
210
0.0
220
0.0
230
1.0
  0
LINE
  5
6C
100
AcDbEntity
  8
0
 62
     7
 48
0.037117
100
AcDbLine
 10
36.023914
 20
42.684708
 30
0.0
 11
34.991329
 21
43.751476
 31
0.0
210
0.0
220
0.0
230
1.0
  0
LINE
  5
6D
100
AcDbEntity
  8
0
 62
     7
 48
0.036881
100
AcDbLine
 10
34.991329
 20
43.751476
 30
0.0
 11
33.767845
 21
44.575779
 31
0.0
210
0.0
220
0.0
230
1.0
  0
LINE
  5
6E
100
AcDbEntity
  8
0
 62
     7
 48
0.037494
100
AcDbLine
 10
33.767845
 20
44.575779
 30
0.0
 11
32.367046
 21
45.111591
 31
0.0
210
0.0
220
0.0
230
1.0
  0
LINE
  5
6F
100
AcDbEntity
  8
0
 62
     7
 48
0.039435
100
AcDbLine
 10
32.367046
 20
45.111591
 30
0.0
 11
30.802532
 21
45.312881
 31
0.0
210
0.0
220
0.0
230
1.0
  0
LINE
  5
70
100
AcDbEntity
  8
0
 62
     7
 48
0.0431
100
AcDbLine
 10
30.802532
 20
45.312881
 30
0.0
 11
29.087887
 21
45.133621
 31
0.0
210
0.0
220
0.0
230
1.0
  0
LINE
  5
71
100
AcDbEntity
  8
0
 62
     7
 48
0.028359
100
AcDbLine
 10
29.087887
 20
45.133621
 30
0.0
 11
28.00263
 21
44.803467
 31
0.0
210
0.0
220
0.0
230
1.0
  0
LINE
  5
72
100
AcDbEntity
  8
0
 62
     7
 48
0.026475
100
AcDbLine
 10
28.00263
 20
44.803467
 30
0.0
 11
27.057835
 21
44.325085
 31
0.0
210
0.0
220
0.0
230
1.0
  0
LINE
  5
73
100
AcDbEntity
  8
0
 62
     7
 48
0.025168
100
AcDbLine
 10
27.057835
 20
44.325085
 30
0.0
 11
26.253773
 21
43.719307
 31
0.0
210
0.0
220
0.0
230
1.0
  0
LINE
  5
74
100
AcDbEntity
  8
0
 62
     7
 48
0.024329
100
AcDbLine
 10
26.253773
 20
43.719307
 30
0.0
 11
25.590729
 21
43.006969
 31
0.0
210
0.0
220
0.0
230
1.0
  0
LINE
  5
75
100
AcDbEntity
  8
0
 62
     7
 48
0.023837
100
AcDbLine
 10
25.590729
 20
43.006969
 30
0.0
 11
25.068979
 21
42.2089
 31
0.0
210
0.0
220
0.0
230
1.0
  0
LINE
  5
76
100
AcDbEntity
  8
0
 62
     7
 48
0.023575
100
AcDbLine
 10
25.068979
 20
42.2089
 30
0.0
 11
24.688805
 21
41.345936
 31
0.0
210
0.0
220
0.0
230
1.0
  0
LINE
  5
77
100
AcDbEntity
  8
0
 62
     7
 48
0.046687
100
AcDbLine
 10
24.688805
 20
41.345936
 30
0.0
 11
24.354296
 21
39.50864
 31
0.0
210
0.0
220
0.0
230
1.0
  0
LINE
  5
78
100
AcDbEntity
  8
0
 62
     7
 48
0.046545
100
AcDbLine
 10
24.354296
 20
39.50864
 30
0.0
 11
24.589437
 21
37.661751
 31
0.0
210
0.0
220
0.0
230
1.0
  0
LINE
  5
79
100
AcDbEntity
  8
0
 62
     7
 48
0.023395
100
AcDbLine
 10
24.589437
 20
37.661751
 30
0.0
 11
24.921326
 21
36.786785
 31
0.0
210
0.0
220
0.0
230
1.0
  0
LINE
  5
7A
100
AcDbEntity
  8
0
 62
     7
 48
0.023582
100
AcDbLine
 10
24.921326
 20
36.786785
 30
0.0
 11
25.396463
 21
35.97192
 31
0.0
210
0.0
220
0.0
230
1.0
  0
LINE
  5
7B
100
AcDbEntity
  8
0
 62
     7
 48
0.023998
100
AcDbLine
 10
25.396463
 20
35.97192
 30
0.0
 11
26.015131
 21
35.237984
 31
0.0
210
0.0
220
0.0
230
1.0
  0
LINE
  5
7C
100
AcDbEntity
  8
0
 62
     7
 48
0.024762
100
AcDbLine
 10
26.015131
 20
35.237984
 30
0.0
 11
26.777609
 21
34.605808
 31
0.0
210
0.0
220
0.0
230
1.0
  0
LINE
  5
7D
100
AcDbEntity
  8
0
 62
     7
 48
0.025999
100
AcDbLine
 10
26.777609
 20
34.605808
 30
0.0
 11
27.684175
 21
34.096233
 31
0.0
210
0.0
220
0.0
230
1.0
  0
LINE
  5
7E
100
AcDbEntity
  8
0
 62
     7
 48
0.027822
100
AcDbLine
 10
27.684175
 20
34.096233
 30
0.0
 11
28.735107
 21
33.73008
 31
0.0
210
0.0
220
0.0
230
1.0
  0
LINE
  5
7F
100
AcDbEntity
  8
0
 62
     7
 48
0.023202
100
AcDbLine
 10
28.735107
 20
33.73008
 30
0.0
 11
27.813725
 21
33.618927
 31
0.0
210
0.0
220
0.0
230
1.0
  0
LINE
  5
80
100
AcDbEntity
  8
0
 62
     7
 48
0.022709
100
AcDbLine
 10
27.813725
 20
33.618927
 30
0.0
 11
26.917814
 21
33.768715
 31
0.0
210
0.0
220
0.0
230
1.0
  0
LINE
  5
81
100
AcDbEntity
  8
0
 62
     7
 48
0.023333
100
AcDbLine
 10
26.917814
 20
33.768715
 30
0.0
 11
26.06665
 21
34.151585
 31
0.0
210
0.0
220
0.0
230
1.0
  0
LINE
  5
82
100
AcDbEntity
  8
0
 62
     7
 48
0.024564
100
AcDbLine
 10
26.06665
 20
34.151585
 30
0.0
 11
25.279512
 21
34.739685
 31
0.0
210
0.0
220
0.0
230
1.0
  0
LINE
  5
83
100
AcDbEntity
  8
0
 62
     7
 48
0.025997
100
AcDbLine
 10
25.279512
 20
34.739685
 30
0.0
 11
24.575674
 21
35.505157
 31
0.0
210
0.0
220
0.0
230
1.0
  0
LINE
  5
84
100
AcDbEntity
  8
0
 62
     7
 48
0.027371
100
AcDbLine
 10
24.575674
 20
35.505157
 30
0.0
 11
23.974415
 21
36.420143
 31
0.0
210
0.0
220
0.0
230
1.0
  0
LINE
  5
85
100
AcDbEntity
  8
0
 62
     7
 48
0.028553
100
AcDbLine
 10
23.974415
 20
36.420143
 30
0.0
 11
23.495008
 21
37.456787
 31
0.0
210
0.0
220
0.0
230
1.0
  0
LINE
  5
86
100
AcDbEntity
  8
0
 62
     7
 48
0.029499
100
AcDbLine
 10
23.495008
 20
37.456787
 30
0.0
 11
23.156731
 21
38.587234
 31
0.0
210
0.0
220
0.0
230
1.0
  0
LINE
  5
87
100
AcDbEntity
  8
0
 62
     7
 48
0.030238
100
AcDbLine
 10
23.156731
 20
38.587234
 30
0.0
 11
22.978861
 21
39.783623
 31
0.0
210
0.0
220
0.0
230
1.0
  0
LINE
  5
88
100
AcDbEntity
  8
0
 62
     7
 48
0.030862
100
AcDbLine
 10
22.978861
 20
39.783623
 30
0.0
 11
22.980673
 21
41.018097
 31
0.0
210
0.0
220
0.0
230
1.0
  0
LINE
  5
89
100
AcDbEntity
  8
0
 62
     7
 48
0.03152
100
AcDbLine
 10
22.980673
 20
41.018097
 30
0.0
 11
23.181442
 21
42.262806
 31
0.0
210
0.0
220
0.0
230
1.0
  0
LINE
  5
8A
100
AcDbEntity
  8
0
 62
     7
 48
0.032416
100
AcDbLine
 10
23.181442
 20
42.262806
 30
0.0
 11
23.600449
 21
43.489883
 31
0.0
210
0.0
220
0.0
230
1.0
  0
LINE
  5
8B
100
AcDbEntity
  8
0
 62
     7
 48
0.033793
100
AcDbLine
 10
23.600449
 20
43.489883
 30
0.0
 11
24.256964
 21
44.671482
 31
0.0
210
0.0
220
0.0
230
1.0
  0
LINE
  5
8C
100
AcDbEntity
  8
0
 62
     7
 48
0.035902
100
AcDbLine
 10
24.256964
 20
44.671482
 30
0.0
 11
25.170267
 21
45.779739
 31
0.0
210
0.0
220
0.0
230
1.0
  0
LINE
  5
8D
100
AcDbEntity
  8
0
 62
     7
 48
0.038961
100
AcDbLine
 10
25.170267
 20
45.779739
 30
0.0
 11
26.359636
 21
46.786797
 31
0.0
210
0.0
220
0.0
230
1.0
  0
LINE
  5
8E
100
AcDbEntity
  8
0
 62
     7
 48
0.043122
100
AcDbLine
 10
26.359636
 20
46.786797
 30
0.0
 11
27.844345
 21
47.664803
 31
0.0
210
0.0
220
0.0
230
1.0
  0
LINE
  5
8F
100
AcDbEntity
  8
0
 62
     7
 48
0.031465
100
AcDbLine
 10
27.844345
 20
47.664803
 30
0.0
 11
29.008905
 21
48.142189
 31
0.0
210
0.0
220
0.0
230
1.0
  0
LINE
  5
90
100
AcDbEntity
  8
0
 62
     7
 48
0.03166
100
AcDbLine
 10
29.008905
 20
48.142189
 30
0.0
 11
30.233044
 21
48.466579
 31
0.0
210
0.0
220
0.0
230
1.0
  0
LINE
  5
91
100
AcDbEntity
  8
0
 62
     7
 48
0.031988
100
AcDbLine
 10
30.233044
 20
48.466579
 30
0.0
 11
31.500874
 21
48.639103
 31
0.0
210
0.0
220
0.0
230
1.0
  0
LINE
  5
92
100
AcDbEntity
  8
0
 62
     7
 48
0.032396
100
AcDbLine
 10
31.500874
 20
48.639103
 30
0.0
 11
32.79652
 21
48.660889
 31
0.0
210
0.0
220
0.0
230
1.0
  0
LINE
  5
93
100
AcDbEntity
  8
0
 62
     7
 48
0.066058
100
AcDbLine
 10
32.79652
 20
48.660889
 30
0.0
 11
35.407738
 21
48.25676
 31
0.0
210
0.0
220
0.0
230
1.0
  0
LINE
  5
94
100
AcDbEntity
  8
0
 62
     7
 48
0.033798
100
AcDbLine
 10
35.407738
 20
48.25676
 30
0.0
 11
36.691551
 21
47.833099
 31
0.0
210
0.0
220
0.0
230
1.0
  0
LINE
  5
95
100
AcDbEntity
  8
0
 62
     7
 48
0.034301
100
AcDbLine
 10
36.691551
 20
47.833099
 30
0.0
 11
37.939655
 21
47.263214
 31
0.0
210
0.0
220
0.0
230
1.0
  0
LINE
  5
96
100
AcDbEntity
  8
0
 62
     7
 48
0.034847
100
AcDbLine
 10
37.939655
 20
47.263214
 30
0.0
 11
39.136181
 21
46.548229
 31
0.0
210
0.0
220
0.0
230
1.0
  0
LINE
  5
97
100
AcDbEntity
  8
0
 62
     7
 48
0.035466
100
AcDbLine
 10
39.136181
 20
46.548229
 30
0.0
 11
40.26524
 21
45.689274
 31
0.0
210
0.0
220
0.0
230
1.0
  0
LINE
  5
98
100
AcDbEntity
  8
0
 62
     7
 48
0.036204
100
AcDbLine
 10
40.26524
 20
45.689274
 30
0.0
 11
41.310955
 21
44.687481
 31
0.0
210
0.0
220
0.0
230
1.0
  0
LINE
  5
99
100
AcDbEntity
  8
0
 62
     7
 48
0.03711
100
AcDbLine
 10
41.310955
 20
44.687481
 30
0.0
 11
42.257446
 21
43.543972
 31
0.0
210
0.0
220
0.0
230
1.0
  0
LINE
  5
9A
100
AcDbEntity
  8
0
 62
     7
 48
0.038244
100
AcDbLine
 10
42.257446
 20
43.543972
 30
0.0
 11
43.088837
 21
42.259876
 31
0.0
210
0.0
220
0.0
230
1.0
  0
LINE
  5
9B
100
AcDbEntity
  8
0
 62
     7
 48
0.039663
100
AcDbLine
 10
43.088837
 20
42.259876
 30
0.0
 11
43.789242
 21
40.836323
 31
0.0
210
0.0
220
0.0
230
1.0
  0
LINE
  5
9C
100
AcDbEntity
  8
0
 62
     7
 48
0.041427
100
AcDbLine
 10
43.789242
 20
40.836323
 30
0.0
 11
44.342781
 21
39.274441
 31
0.0
210
0.0
220
0.0
230
1.0
  0
LINE
  5
9D
100
AcDbEntity
  8
0
 62
     7
 48
0.043586
100
AcDbLine
 10
44.342781
 20
39.274441
 30
0.0
 11
44.733582
 21
37.575359
 31
0.0
210
0.0
220
0.0
230
1.0
  0
LINE
  5
9E
100
AcDbEntity
  8
0
 62
     7
 48
0.116196
100
AcDbLine
 10
44.733582
 20
37.575359
 30
0.0
 11
49.381428
 21
37.575359
 31
0.0
210
0.0
220
0.0
230
1.0
  0
LINE
  5
9F
100
AcDbEntity
  8
0
 62
     7
 48
0.00022
100
AcDbLine
 10
49.381428
 20
37.575359
 30
0.0
 11
49.390247
 21
37.575359
 31
0.0
210
0.0
220
0.0
230
1.0
  0
LINE
  5
A0
100
AcDbEntity
  8
0
 62
     7
 48
0.116196
100
AcDbLine
 10
49.390247
 20
37.575359
 30
0.0
 11
54.038094
 21
37.575359
 31
0.0
210
0.0
220
0.0
230
1.0
  0
LINE
  5
A1
100
AcDbEntity
  8
0
 62
     7
 48
0.043586
100
AcDbLine
 10
54.038094
 20
37.575359
 30
0.0
 11
54.428894
 21
39.274441
 31
0.0
210
0.0
220
0.0
230
1.0
  0
LINE
  5
A2
100
AcDbEntity
  8
0
 62
     7
 48
0.041427
100
AcDbLine
 10
54.428894
 20
39.274441
 30
0.0
 11
54.982433
 21
40.836323
 31
0.0
210
0.0
220
0.0
230
1.0
  0
LINE
  5
A3
100
AcDbEntity
  8
0
 62
     7
 48
0.039663
100
AcDbLine
 10
54.982433
 20
40.836323
 30
0.0
 11
55.682838
 21
42.259876
 31
0.0
210
0.0
220
0.0
230
1.0
  0
LINE
  5
A4
100
AcDbEntity
  8
0
 62
     7
 48
0.038244
100
AcDbLine
 10
55.682838
 20
42.259876
 30
0.0
 11
56.514229
 21
43.543972
 31
0.0
210
0.0
220
0.0
230
1.0
  0
LINE
  5
A5
100
AcDbEntity
  8
0
 62
     7
 48
0.03711
100
AcDbLine
 10
56.514229
 20
43.543972
 30
0.0
 11
57.46072
 21
44.687481
 31
0.0
210
0.0
220
0.0
230
1.0
  0
LINE
  5
A6
100
AcDbEntity
  8
0
 62
     7
 48
0.036204
100
AcDbLine
 10
57.46072
 20
44.687481
 30
0.0
 11
58.506435
 21
45.689274
 31
0.0
210
0.0
220
0.0
230
1.0
  0
LINE
  5
A7
100
AcDbEntity
  8
0
 62
     7
 48
0.035466
100
AcDbLine
 10
58.506435
 20
45.689274
 30
0.0
 11
59.635494
 21
46.548229
 31
0.0
210
0.0
220
0.0
230
1.0
  0
LINE
  5
A8
100
AcDbEntity
  8
0
 62
     7
 48
0.034847
100
AcDbLine
 10
59.635494
 20
46.548229
 30
0.0
 11
60.83202
 21
47.263214
 31
0.0
210
0.0
220
0.0
230
1.0
  0
LINE
  5
A9
100
AcDbEntity
  8
0
 62
     7
 48
0.034301
100
AcDbLine
 10
60.83202
 20
47.263214
 30
0.0
 11
62.080128
 21
47.833099
 31
0.0
210
0.0
220
0.0
230
1.0
  0
LINE
  5
AA
100
AcDbEntity
  8
0
 62
     7
 48
0.033798
100
AcDbLine
 10
62.080128
 20
47.833099
 30
0.0
 11
63.363937
 21
48.25676
 31
0.0
210
0.0
220
0.0
230
1.0
  0
LINE
  5
AB
100
AcDbEntity
  8
0
 62
     7
 48
0.066058
100
AcDbLine
 10
63.363937
 20
48.25676
 30
0.0
 11
65.975159
 21
48.660889
 31
0.0
210
0.0
220
0.0
230
1.0
  0
LINE
  5
AC
100
AcDbEntity
  8
0
 62
     7
 48
0.032396
100
AcDbLine
 10
65.975159
 20
48.660889
 30
0.0
 11
67.270805
 21
48.639103
 31
0.0
210
0.0
220
0.0
230
1.0
  0
LINE
  5
AD
100
AcDbEntity
  8
0
 62
     7
 48
0.031988
100
AcDbLine
 10
67.270805
 20
48.639103
 30
0.0
 11
68.538635
 21
48.466579
 31
0.0
210
0.0
220
0.0
230
1.0
  0
LINE
  5
AE
100
AcDbEntity
  8
0
 62
     7
 48
0.03166
100
AcDbLine
 10
68.538635
 20
48.466579
 30
0.0
 11
69.762772
 21
48.142189
 31
0.0
210
0.0
220
0.0
230
1.0
  0
LINE
  5
AF
100
AcDbEntity
  8
0
 62
     7
 48
0.031465
100
AcDbLine
 10
69.762772
 20
48.142189
 30
0.0
 11
70.92733
 21
47.664803
 31
0.0
210
0.0
220
0.0
230
1.0
  0
LINE
  5
B0
100
AcDbEntity
  8
0
 62
     7
 48
0.043122
100
AcDbLine
 10
70.92733
 20
47.664803
 30
0.0
 11
72.412041
 21
46.786797
 31
0.0
210
0.0
220
0.0
230
1.0
  0
LINE
  5
B1
100
AcDbEntity
  8
0
 62
     7
 48
0.038961
100
AcDbLine
 10
72.412041
 20
46.786797
 30
0.0
 11
73.60141
 21
45.779739
 31
0.0
210
0.0
220
0.0
230
1.0
  0
LINE
  5
B2
100
AcDbEntity
  8
0
 62
     7
 48
0.035902
100
AcDbLine
 10
73.60141
 20
45.779739
 30
0.0
 11
74.514709
 21
44.671482
 31
0.0
210
0.0
220
0.0
230
1.0
  0
LINE
  5
B3
100
AcDbEntity
  8
0
 62
     7
 48
0.033793
100
AcDbLine
 10
74.514709
 20
44.671482
 30
0.0
 11
75.171227
 21
43.489883
 31
0.0
210
0.0
220
0.0
230
1.0
  0
LINE
  5
B4
100
AcDbEntity
  8
0
 62
     7
 48
0.032416
100
AcDbLine
 10
75.171227
 20
43.489883
 30
0.0
 11
75.590233
 21
42.262806
 31
0.0
210
0.0
220
0.0
230
1.0
  0
LINE
  5
B5
100
AcDbEntity
  8
0
 62
     7
 48
0.03152
100
AcDbLine
 10
75.590233
 20
42.262806
 30
0.0
 11
75.791
 21
41.018097
 31
0.0
210
0.0
220
0.0
230
1.0
  0
LINE
  5
B6
100
AcDbEntity
  8
0
 62
     7
 48
0.030862
100
AcDbLine
 10
75.791
 20
41.018097
 30
0.0
 11
75.792816
 21
39.783623
 31
0.0
210
0.0
220
0.0
230
1.0
  0
LINE
  5
B7
100
AcDbEntity
  8
0
 62
     7
 48
0.030238
100
AcDbLine
 10
75.792816
 20
39.783623
 30
0.0
 11
75.614944
 21
38.587234
 31
0.0
210
0.0
220
0.0
230
1.0
  0
LINE
  5
B8
100
AcDbEntity
  8
0
 62
     7
 48
0.029499
100
AcDbLine
 10
75.614944
 20
38.587234
 30
0.0
 11
75.276672
 21
37.456787
 31
0.0
210
0.0
220
0.0
230
1.0
  0
LINE
  5
B9
100
AcDbEntity
  8
0
 62
     7
 48
0.028553
100
AcDbLine
 10
75.276672
 20
37.456787
 30
0.0
 11
74.797264
 21
36.420143
 31
0.0
210
0.0
220
0.0
230
1.0
  0
LINE
  5
BA
100
AcDbEntity
  8
0
 62
     7
 48
0.027371
100
AcDbLine
 10
74.797264
 20
36.420143
 30
0.0
 11
74.195999
 21
35.505157
 31
0.0
210
0.0
220
0.0
230
1.0
  0
LINE
  5
BB
100
AcDbEntity
  8
0
 62
     7
 48
0.025997
100
AcDbLine
 10
74.195999
 20
35.505157
 30
0.0
 11
73.492165
 21
34.739685
 31
0.0
210
0.0
220
0.0
230
1.0
  0
LINE
  5
BC
100
AcDbEntity
  8
0
 62
     7
 48
0.024564
100
AcDbLine
 10
73.492165
 20
34.739685
 30
0.0
 11
72.705025
 21
34.151585
 31
0.0
210
0.0
220
0.0
230
1.0
  0
LINE
  5
BD
100
AcDbEntity
  8
0
 62
     7
 48
0.023333
100
AcDbLine
 10
72.705025
 20
34.151585
 30
0.0
 11
71.853867
 21
33.768715
 31
0.0
210
0.0
220
0.0
230
1.0
  0
LINE
  5
BE
100
AcDbEntity
  8
0
 62
     7
 48
0.022709
100
AcDbLine
 10
71.853867
 20
33.768715
 30
0.0
 11
70.957954
 21
33.618927
 31
0.0
210
0.0
220
0.0
230
1.0
  0
LINE
  5
BF
100
AcDbEntity
  8
0
 62
     7
 48
0.023202
100
AcDbLine
 10
70.957954
 20
33.618927
 30
0.0
 11
70.036568
 21
33.73008
 31
0.0
210
0.0
220
0.0
230
1.0
  0
LINE
  5
C0
100
AcDbEntity
  8
0
 62
     7
 48
0.027822
100
AcDbLine
 10
70.036568
 20
33.73008
 30
0.0
 11
71.087502
 21
34.096233
 31
0.0
210
0.0
220
0.0
230
1.0
  0
LINE
  5
C1
100
AcDbEntity
  8
0
 62
     7
 48
0.025999
100
AcDbLine
 10
71.087502
 20
34.096233
 30
0.0
 11
71.994064
 21
34.605808
 31
0.0
210
0.0
220
0.0
230
1.0
  0
LINE
  5
C2
100
AcDbEntity
  8
0
 62
     7
 48
0.024762
100
AcDbLine
 10
71.994064
 20
34.605808
 30
0.0
 11
72.756546
 21
35.237984
 31
0.0
210
0.0
220
0.0
230
1.0
  0
LINE
  5
C3
100
AcDbEntity
  8
0
 62
     7
 48
0.023998
100
AcDbLine
 10
72.756546
 20
35.237984
 30
0.0
 11
73.375214
 21
35.97192
 31
0.0
210
0.0
220
0.0
230
1.0
  0
LINE
  5
C4
100
AcDbEntity
  8
0
 62
     7
 48
0.023582
100
AcDbLine
 10
73.375214
 20
35.97192
 30
0.0
 11
73.850349
 21
36.786785
 31
0.0
210
0.0
220
0.0
230
1.0
  0
LINE
  5
C5
100
AcDbEntity
  8
0
 62
     7
 48
0.023395
100
AcDbLine
 10
73.850349
 20
36.786785
 30
0.0
 11
74.182243
 21
37.661751
 31
0.0
210
0.0
220
0.0
230
1.0
  0
LINE
  5
C6
100
AcDbEntity
  8
0
 62
     7
 48
0.046545
100
AcDbLine
 10
74.182243
 20
37.661751
 30
0.0
 11
74.417381
 21
39.50864
 31
0.0
210
0.0
220
0.0
230
1.0
  0
LINE
  5
C7
100
AcDbEntity
  8
0
 62
     7
 48
0.046687
100
AcDbLine
 10
74.417381
 20
39.50864
 30
0.0
 11
74.08287
 21
41.345936
 31
0.0
210
0.0
220
0.0
230
1.0
  0
LINE
  5
C8
100
AcDbEntity
  8
0
 62
     7
 48
0.023575
100
AcDbLine
 10
74.08287
 20
41.345936
 30
0.0
 11
73.702698
 21
42.2089
 31
0.0
210
0.0
220
0.0
230
1.0
  0
LINE
  5
C9
100
AcDbEntity
  8
0
 62
     7
 48
0.023837
100
AcDbLine
 10
73.702698
 20
42.2089
 30
0.0
 11
73.180946
 21
43.006969
 31
0.0
210
0.0
220
0.0
230
1.0
  0
LINE
  5
CA
100
AcDbEntity
  8
0
 62
     7
 48
0.024329
100
AcDbLine
 10
73.180946
 20
43.006969
 30
0.0
 11
72.517906
 21
43.719307
 31
0.0
210
0.0
220
0.0
230
1.0
  0
LINE
  5
CB
100
AcDbEntity
  8
0
 62
     7
 48
0.025168
100
AcDbLine
 10
72.517906
 20
43.719307
 30
0.0
 11
71.713844
 21
44.325085
 31
0.0
210
0.0
220
0.0
230
1.0
  0
LINE
  5
CC
100
AcDbEntity
  8
0
 62
     7
 48
0.026475
100
AcDbLine
 10
71.713844
 20
44.325085
 30
0.0
 11
70.769043
 21
44.803467
 31
0.0
210
0.0
220
0.0
230
1.0
  0
LINE
  5
CD
100
AcDbEntity
  8
0
 62
     7
 48
0.028359
100
AcDbLine
 10
70.769043
 20
44.803467
 30
0.0
 11
69.683792
 21
45.133621
 31
0.0
210
0.0
220
0.0
230
1.0
  0
LINE
  5
CE
100
AcDbEntity
  8
0
 62
     7
 48
0.0431
100
AcDbLine
 10
69.683792
 20
45.133621
 30
0.0
 11
67.969147
 21
45.312881
 31
0.0
210
0.0
220
0.0
230
1.0
  0
LINE
  5
CF
100
AcDbEntity
  8
0
 62
     7
 48
0.039435
100
AcDbLine
 10
67.969147
 20
45.312881
 30
0.0
 11
66.404625
 21
45.111591
 31
0.0
210
0.0
220
0.0
230
1.0
  0
LINE
  5
D0
100
AcDbEntity
  8
0
 62
     7
 48
0.037494
100
AcDbLine
 10
66.404625
 20
45.111591
 30
0.0
 11
65.00383
 21
44.575779
 31
0.0
210
0.0
220
0.0
230
1.0
  0
LINE
  5
D1
100
AcDbEntity
  8
0
 62
     7
 48
0.036881
100
AcDbLine
 10
65.00383
 20
44.575779
 30
0.0
 11
63.780346
 21
43.751476
 31
0.0
210
0.0
220
0.0
230
1.0
  0
LINE
  5
D2
100
AcDbEntity
  8
0
 62
     7
 48
0.037117
100
AcDbLine
 10
63.780346
 20
43.751476
 30
0.0
 11
62.747761
 21
42.684708
 31
0.0
210
0.0
220
0.0
230
1.0
  0
LINE
  5
D3
100
AcDbEntity
  8
0
 62
     7
 48
0.037761
100
AcDbLine
 10
62.747761
 20
42.684708
 30
0.0
 11
61.91967
 21
41.421505
 31
0.0
210
0.0
220
0.0
230
1.0
  0
LINE
  5
D4
100
AcDbEntity
  8
0
 62
     7
 48
0.03849
100
AcDbLine
 10
61.91967
 20
41.421505
 30
0.0
 11
61.309662
 21
40.0079
 31
0.0
210
0.0
220
0.0
230
1.0
  0
LINE
  5
D5
100
AcDbEntity
  8
0
 62
     7
 48
0.03911
100
AcDbLine
 10
61.309662
 20
40.0079
 30
0.0
 11
60.931328
 21
38.489918
 31
0.0
210
0.0
220
0.0
230
1.0
  0
LINE
  5
D6
100
AcDbEntity
  8
0
 62
     7
 48
0.039548
100
AcDbLine
 10
60.931328
 20
38.489918
 30
0.0
 11
60.79826
 21
36.913593
 31
0.0
210
0.0
220
0.0
230
1.0
  0
LINE
  5
D7
100
AcDbEntity
  8
0
 62
     7
 48
0.03984
100
AcDbLine
 10
60.79826
 20
36.913593
 30
0.0
 11
60.924046
 21
35.324951
 31
0.0
210
0.0
220
0.0
230
1.0
  0
LINE
  5
D8
100
AcDbEntity
  8
0
 62
     7
 48
0.040128
100
AcDbLine
 10
60.924046
 20
35.324951
 30
0.0
 11
61.322277
 21
33.77002
 31
0.0
210
0.0
220
0.0
230
1.0
  0
LINE
  5
D9
100
AcDbEntity
  8
0
 62
     7
 48
0.040654
100
AcDbLine
 10
61.322277
 20
33.77002
 30
0.0
 11
62.006542
 21
32.294834
 31
0.0
210
0.0
220
0.0
230
1.0
  0
LINE
  5
DA
100
AcDbEntity
  8
0
 62
     7
 48
0.041751
100
AcDbLine
 10
62.006542
 20
32.294834
 30
0.0
 11
62.99044
 21
30.945417
 31
0.0
210
0.0
220
0.0
230
1.0
  0
LINE
  5
DB
100
AcDbEntity
  8
0
 62
     7
 48
0.043798
100
AcDbLine
 10
62.99044
 20
30.945417
 30
0.0
 11
64.287552
 21
29.767803
 31
0.0
210
0.0
220
0.0
230
1.0
  0
LINE
  5
DC
100
AcDbEntity
  8
0
 62
     7
 48
0.047159
100
AcDbLine
 10
64.287552
 20
29.767803
 30
0.0
 11
65.911476
 21
28.808018
 31
0.0
210
0.0
220
0.0
230
1.0
  0
LINE
  5
DD
100
AcDbEntity
  8
0
 62
     7
 48
0.052099
100
AcDbLine
 10
65.911476
 20
28.808018
 30
0.0
 11
67.875801
 21
28.112093
 31
0.0
210
0.0
220
0.0
230
1.0
  0
LINE
  5
DE
100
AcDbEntity
  8
0
 62
     7
 48
0.050609
100
AcDbLine
 10
67.875801
 20
28.112093
 30
0.0
 11
69.865082
 21
27.736832
 31
0.0
210
0.0
220
0.0
230
1.0
  0
LINE
  5
DF
100
AcDbEntity
  8
0
 62
     7
 48
0.048843
100
AcDbLine
 10
69.865082
 20
27.736832
 30
0.0
 11
71.815491
 21
27.623468
 31
0.0
210
0.0
220
0.0
230
1.0
  0
LINE
  5
E0
100
AcDbEntity
  8
0
 62
     7
 48
0.047638
100
AcDbLine
 10
71.815491
 20
27.623468
 30
0.0
 11
73.716957
 21
27.747547
 31
0.0
210
0.0
220
0.0
230
1.0
  0
LINE
  5
E1
100
AcDbEntity
  8
0
 62
     7
 48
0.046826
100
AcDbLine
 10
73.716957
 20
27.747547
 30
0.0
 11
75.559425
 21
28.084618
 31
0.0
210
0.0
220
0.0
230
1.0
  0
LINE
  5
E2
100
AcDbEntity
  8
0
 62
     7
 48
0.046241
100
AcDbLine
 10
75.559425
 20
28.084618
 30
0.0
 11
77.332825
 21
28.610226
 31
0.0
210
0.0
220
0.0
230
1.0
  0
LINE
  5
E3
100
AcDbEntity
  8
0
 62
     7
 48
0.045732
100
AcDbLine
 10
77.332825
 20
28.610226
 30
0.0
 11
79.0271
 21
29.299921
 31
0.0
210
0.0
220
0.0
230
1.0
  0
LINE
  5
E4
100
AcDbEntity
  8
0
 62
     7
 48
0.045167
100
AcDbLine
 10
79.0271
 20
29.299921
 30
0.0
 11
80.632195
 21
30.129248
 31
0.0
210
0.0
220
0.0
230
1.0
  0
LINE
  5
E5
100
AcDbEntity
  8
0
 62
     7
 48
0.044438
100
AcDbLine
 10
80.632195
 20
30.129248
 30
0.0
 11
82.138023
 21
31.073755
 31
0.0
210
0.0
220
0.0
230
1.0
  0
LINE
  5
E6
100
AcDbEntity
  8
0
 62
     7
 48
0.085565
100
AcDbLine
 10
82.138023
 20
31.073755
 30
0.0
 11
84.811691
 21
33.210499
 31
0.0
210
0.0
220
0.0
230
1.0
  0
LINE
  5
E7
100
AcDbEntity
  8
0
 62
     7
 48
0.078885
100
AcDbLine
 10
84.811691
 20
33.210499
 30
0.0
 11
86.967583
 21
35.51453
 31
0.0
210
0.0
220
0.0
230
1.0
  0
LINE
  5
E8
100
AcDbEntity
  8
0
 62
     7
 48
0.068943
100
AcDbLine
 10
86.967583
 20
35.51453
 30
0.0
 11
88.525215
 21
37.790222
 31
0.0
210
0.0
220
0.0
230
1.0
  0
LINE
  5
E9
100
AcDbEntity
  8
0
 62
     7
 48
0.055801
100
AcDbLine
 10
88.525215
 20
37.790222
 30
0.0
 11
89.404068
 21
39.841957
 31
0.0
210
0.0
220
0.0
230
1.0
  0
LINE
  5
EA
100
AcDbEntity
  8
0
 62
     7
 48
0.051747
100
AcDbLine
 10
89.404068
 20
39.841957
 30
0.0
 11
89.844093
 21
41.864529
 31
0.0
210
0.0
220
0.0
230
1.0
  0
LINE
  5
EB
100
AcDbEntity
  8
0
 62
     7
 48
0.049324
100
AcDbLine
 10
89.844093
 20
41.864529
 30
0.0
 11
90.051048
 21
43.826622
 31
0.0
210
0.0
220
0.0
230
1.0
  0
LINE
  5
EC
100
AcDbEntity
  8
0
 62
     7
 48
0.047395
100
AcDbLine
 10
90.051048
 20
43.826622
 30
0.0
 11
90.037758
 21
45.722359
 31
0.0
210
0.0
220
0.0
230
1.0
  0
LINE
  5
ED
100
AcDbEntity
  8
0
 62
     7
 48
0.04592
100
AcDbLine
 10
90.037758
 20
45.722359
 30
0.0
 11
89.817078
 21
47.545872
 31
0.0
210
0.0
220
0.0
230
1.0
  0
LINE
  5
EE
100
AcDbEntity
  8
0
 62
     7
 48
0.044853
100
AcDbLine
 10
89.817078
 20
47.545872
 30
0.0
 11
89.40184
 21
49.29129
 31
0.0
210
0.0
220
0.0
230
1.0
  0
LINE
  5
EF
100
AcDbEntity
  8
0
 62
     7
 48
0.044136
100
AcDbLine
 10
89.40184
 20
49.29129
 30
0.0
 11
88.804878
 21
50.952751
 31
0.0
210
0.0
220
0.0
230
1.0
  0
LINE
  5
F0
100
AcDbEntity
  8
0
 62
     7
 48
0.043707
100
AcDbLine
 10
88.804878
 20
50.952751
 30
0.0
 11
88.039047
 21
52.524376
 31
0.0
210
0.0
220
0.0
230
1.0
  0
LINE
  5
F1
100
AcDbEntity
  8
0
 62
     7
 48
0.043504
100
AcDbLine
 10
88.039047
 20
52.524376
 30
0.0
 11
87.117188
 21
54.000301
 31
0.0
210
0.0
220
0.0
230
1.0
  0
LINE
  5
F2
100
AcDbEntity
  8
0
 62
     7
 48
0.043468
100
AcDbLine
 10
87.117188
 20
54.000301
 30
0.0
 11
86.052132
 21
55.374653
 31
0.0
210
0.0
220
0.0
230
1.0
  0
LINE
  5
F3
100
AcDbEntity
  8
0
 62
     7
 48
0.043547
100
AcDbLine
 10
86.052132
 20
55.374653
 30
0.0
 11
84.85672
 21
56.641567
 31
0.0
210
0.0
220
0.0
230
1.0
  0
LINE
  5
F4
100
AcDbEntity
  8
0
 62
     7
 48
0.043693
100
AcDbLine
 10
84.85672
 20
56.641567
 30
0.0
 11
83.5438
 21
57.795166
 31
0.0
210
0.0
220
0.0
230
1.0
  0
LINE
  5
F5
100
AcDbEntity
  8
0
 62
     7
 48
0.043872
100
AcDbLine
 10
83.5438
 20
57.795166
 30
0.0
 11
82.126213
 21
58.82959
 31
0.0
210
0.0
220
0.0
230
1.0
  0
LINE
  5
F6
100
AcDbEntity
  8
0
 62
     7
 48
0.044055
100
AcDbLine
 10
82.126213
 20
58.82959
 30
0.0
 11
80.616791
 21
59.738964
 31
0.0
210
0.0
220
0.0
230
1.0
  0
LINE
  5
F7
100
AcDbEntity
  8
0
 62
     7
 48
0.044223
100
AcDbLine
 10
80.616791
 20
59.738964
 30
0.0
 11
79.028389
 21
60.517418
 31
0.0
210
0.0
220
0.0
230
1.0
  0
LINE
  5
F8
100
AcDbEntity
  8
0
 62
     7
 48
0.044366
100
AcDbLine
 10
79.028389
 20
60.517418
 30
0.0
 11
77.373833
 21
61.159084
 31
0.0
210
0.0
220
0.0
230
1.0
  0
LINE
  5
F9
100
AcDbEntity
  8
0
 62
     7
 48
0.044482
100
AcDbLine
 10
77.373833
 20
61.159084
 30
0.0
 11
75.66597
 21
61.658089
 31
0.0
210
0.0
220
0.0
230
1.0
  0
LINE
  5
FA
100
AcDbEntity
  8
0
 62
     7
 48
0.044578
100
AcDbLine
 10
75.66597
 20
61.658089
 30
0.0
 11
73.917641
 21
62.008568
 31
0.0
210
0.0
220
0.0
230
1.0
  0
LINE
  5
FB
100
AcDbEntity
  8
0
 62
     7
 48
0.044668
100
AcDbLine
 10
73.917641
 20
62.008568
 30
0.0
 11
72.141693
 21
62.204651
 31
0.0
210
0.0
220
0.0
230
1.0
  0
LINE
  5
FC
100
AcDbEntity
  8
0
 62
     7
 48
0.044777
100
AcDbLine
 10
72.141693
 20
62.204651
 30
0.0
 11
70.350952
 21
62.240467
 31
0.0
210
0.0
220
0.0
230
1.0
  0
LINE
  5
FD
100
AcDbEntity
  8
0
 62
     7
 48
0.044935
100
AcDbLine
 10
70.350952
 20
62.240467
 30
0.0
 11
68.558273
 21
62.110146
 31
0.0
210
0.0
220
0.0
230
1.0
  0
LINE
  5
FE
100
AcDbEntity
  8
0
 62
     7
 48
0.045181
100
AcDbLine
 10
68.558273
 20
62.110146
 30
0.0
 11
66.776497
 21
61.807816
 31
0.0
210
0.0
220
0.0
230
1.0
  0
LINE
  5
FF
100
AcDbEntity
  8
0
 62
     7
 48
0.045561
100
AcDbLine
 10
66.776497
 20
61.807816
 30
0.0
 11
65.018456
 21
61.327614
 31
0.0
210
0.0
220
0.0
230
1.0
  0
LINE
  5
100
100
AcDbEntity
  8
0
 62
     7
 48
0.046127
100
AcDbLine
 10
65.018456
 20
61.327614
 30
0.0
 11
63.296989
 21
60.663666
 31
0.0
210
0.0
220
0.0
230
1.0
  0
LINE
  5
101
100
AcDbEntity
  8
0
 62
     7
 48
0.046933
100
AcDbLine
 10
63.296989
 20
60.663666
 30
0.0
 11
61.624947
 21
59.810104
 31
0.0
210
0.0
220
0.0
230
1.0
  0
LINE
  5
102
100
AcDbEntity
  8
0
 62
     7
 48
0.048036
100
AcDbLine
 10
61.624947
 20
59.810104
 30
0.0
 11
60.015167
 21
58.761055
 31
0.0
210
0.0
220
0.0
230
1.0
  0
LINE
  5
103
100
AcDbEntity
  8
0
 62
     7
 48
0.04949
100
AcDbLine
 10
60.015167
 20
58.761055
 30
0.0
 11
58.480488
 21
57.510654
 31
0.0
210
0.0
220
0.0
230
1.0
  0
LINE
  5
104
100
AcDbEntity
  8
0
 62
     7
 48
0.051343
100
AcDbLine
 10
58.480488
 20
57.510654
 30
0.0
 11
57.033752
 21
56.053032
 31
0.0
210
0.0
220
0.0
230
1.0
  0
LINE
  5
105
100
AcDbEntity
  8
0
 62
     7
 48
0.053636
100
AcDbLine
 10
57.033752
 20
56.053032
 30
0.0
 11
55.687801
 21
54.382313
 31
0.0
210
0.0
220
0.0
230
1.0
  0
LINE
  5
106
100
AcDbEntity
  8
0
 62
     7
 48
0.0564
100
AcDbLine
 10
55.687801
 20
54.382313
 30
0.0
 11
54.455471
 21
52.492634
 31
0.0
210
0.0
220
0.0
230
1.0
  0
LINE
  5
107
100
AcDbEntity
  8
0
 62
     7
 48
0.059656
100
AcDbLine
 10
54.455471
 20
52.492634
 30
0.0
 11
53.349613
 21
50.37812
 31
0.0
210
0.0
220
0.0
230
1.0
  0
LINE
  5
108
100
AcDbEntity
  8
0
 62
     7
 48
0.063415
100
AcDbLine
 10
53.349613
 20
50.37812
 30
0.0
 11
52.383057
 21
48.032906
 31
0.0
210
0.0
220
0.0
230
1.0
  0
LINE
  5
109
100
AcDbEntity
  8
0
 62
     7
 48
0.06768
100
AcDbLine
 10
52.383057
 20
48.032906
 30
0.0
 11
51.568649
 21
45.451122
 31
0.0
210
0.0
220
0.0
230
1.0
  0
LINE
  5
10A
100
AcDbEntity
  8
0
 62
     7
 48
0.071333
100
AcDbLine
 10
51.568649
 20
45.451122
 30
0.0
 11
51.96402
 21
48.276932
 31
0.0
210
0.0
220
0.0
230
1.0
  0
LINE
  5
10B
100
AcDbEntity
  8
0
 62
     7
 48
0.073875
100
AcDbLine
 10
51.96402
 20
48.276932
 30
0.0
 11
52.56036
 21
51.171116
 31
0.0
210
0.0
220
0.0
230
1.0
  0
LINE
  5
10C
100
AcDbEntity
  8
0
 62
     7
 48
0.07553
100
AcDbLine
 10
52.56036
 20
51.171116
 30
0.0
 11
53.459145
 21
54.055511
 31
0.0
210
0.0
220
0.0
230
1.0
  0
LINE
  5
10D
100
AcDbEntity
  8
0
 62
     7
 48
0.077124
100
AcDbLine
 10
53.459145
 20
54.055511
 30
0.0
 11
54.761848
 21
56.851948
 31
0.0
210
0.0
220
0.0
230
1.0
  0
LINE
  5
10E
100
AcDbEntity
  8
0
 62
     7
 48
0.079796
100
AcDbLine
 10
54.761848
 20
56.851948
 30
0.0
 11
56.569946
 21
59.482254
 31
0.0
210
0.0
220
0.0
230
1.0
  0
LINE
  5
10F
100
AcDbEntity
  8
0
 62
     7
 48
0.041648
100
AcDbLine
 10
56.569946
 20
59.482254
 30
0.0
 11
57.695232
 21
60.710682
 31
0.0
210
0.0
220
0.0
230
1.0
  0
LINE
  5
110
100
AcDbEntity
  8
0
 62
     7
 48
0.043325
100
AcDbLine
 10
57.695232
 20
60.710682
 30
0.0
 11
58.984917
 21
61.868267
 31
0.0
210
0.0
220
0.0
230
1.0
  0
LINE
  5
111
100
AcDbEntity
  8
0
 62
     7
 48
0.045492
100
AcDbLine
 10
58.984917
 20
61.868267
 30
0.0
 11
60.451687
 21
62.945236
 31
0.0
210
0.0
220
0.0
230
1.0
  0
LINE
  5
112
100
AcDbEntity
  8
0
 62
     7
 48
0.048202
100
AcDbLine
 10
60.451687
 20
62.945236
 30
0.0
 11
62.108227
 21
63.931816
 31
0.0
210
0.0
220
0.0
230
1.0
  0
LINE
  5
113
100
AcDbEntity
  8
0
 62
     7
 48
0.051488
100
AcDbLine
 10
62.108227
 20
63.931816
 30
0.0
 11
63.967224
 21
64.818237
 31
0.0
210
0.0
220
0.0
230
1.0
  0
LINE
  5
114
100
AcDbEntity
  8
0
 62
     7
 48
0.055368
100
AcDbLine
 10
63.967224
 20
64.818237
 30
0.0
 11
66.041359
 21
65.594734
 31
0.0
210
0.0
220
0.0
230
1.0
  0
LINE
  5
115
100
AcDbEntity
  8
0
 62
     7
 48
0.181759
100
AcDbLine
 10
66.041359
 20
65.594734
 30
0.0
 11
63.496319
 21
72.405098
 31
0.0
210
0.0
220
0.0
230
1.0
  0
LINE
  5
116
100
AcDbEntity
  8
0
 62
     7
 48
0.171231
100
AcDbLine
 10
63.496319
 20
72.405098
 30
0.0
 11
60.754421
 21
78.68158
 31
0.0
210
0.0
220
0.0
230
1.0
  0
LINE
  5
117
100
AcDbEntity
  8
0
 62
     7
 48
0.156878
100
AcDbLine
 10
60.754421
 20
78.68158
 30
0.0
 11
57.980331
 21
84.310204
 31
0.0
210
0.0
220
0.0
230
1.0
  0
LINE
  5
118
100
AcDbEntity
  8
0
 62
     7
 48
0.138438
100
AcDbLine
 10
57.980331
 20
84.310204
 30
0.0
 11
55.338711
 21
89.177025
 31
0.0
210
0.0
220
0.0
230
1.0
  0
LINE
  5
119
100
AcDbEntity
  8
0
 62
     7
 48
0.20427
100
AcDbLine
 10
55.338711
 20
89.177025
 30
0.0
 11
51.111549
 21
96.169395
 31
0.0
210
0.0
220
0.0
230
1.0
  0
LINE
  5
11A
100
AcDbEntity
  8
0
 62
     7
 48
0.077488
100
AcDbLine
 10
51.111549
 20
96.169395
 30
0.0
 11
49.390247
 21
98.747025
 31
0.0
210
0.0
220
0.0
230
1.0
  0
LINE
  5
11B
100
AcDbEntity
  8
0
 62
     7
 48
0.00022
100
AcDbLine
 10
49.390247
 20
98.747025
 30
0.0
 11
49.381428
 21
98.747025
 31
0.0
210
0.0
220
0.0
230
1.0
  0
LINE
  5
11C
100
AcDbEntity
  8
0
 62
     7
 48
0.036964
100
AcDbLine
 10
44.689484
 20
30.08765
 30
0.0
 11
44.327713
 21
28.654013
 31
0.0
210
0.0
220
0.0
230
1.0
  0
LINE
  5
11D
100
AcDbEntity
  8
0
 62
     7
 48
0.036822
100
AcDbLine
 10
44.327713
 20
28.654013
 30
0.0
 11
43.820938
 21
27.271082
 31
0.0
210
0.0
220
0.0
230
1.0
  0
LINE
  5
11E
100
AcDbEntity
  8
0
 62
     7
 48
0.037076
100
AcDbLine
 10
43.820938
 20
27.271082
 30
0.0
 11
43.157742
 21
25.944595
 31
0.0
210
0.0
220
0.0
230
1.0
  0
LINE
  5
11F
100
AcDbEntity
  8
0
 62
     7
 48
0.037824
100
AcDbLine
 10
43.157742
 20
25.944595
 30
0.0
 11
42.32671
 21
24.680298
 31
0.0
210
0.0
220
0.0
230
1.0
  0
LINE
  5
120
100
AcDbEntity
  8
0
 62
     7
 48
0.039147
100
AcDbLine
 10
42.32671
 20
24.680298
 30
0.0
 11
41.316429
 21
23.483927
 31
0.0
210
0.0
220
0.0
230
1.0
  0
LINE
  5
121
100
AcDbEntity
  8
0
 62
     7
 48
0.0411
100
AcDbLine
 10
41.316429
 20
23.483927
 30
0.0
 11
40.115482
 21
22.361227
 31
0.0
210
0.0
220
0.0
230
1.0
  0
LINE
  5
122
100
AcDbEntity
  8
0
 62
     7
 48
0.04371
100
AcDbLine
 10
40.115482
 20
22.361227
 30
0.0
 11
38.71246
 21
21.317938
 31
0.0
210
0.0
220
0.0
230
1.0
  0
LINE
  5
123
100
AcDbEntity
  8
0
 62
     7
 48
0.046978
100
AcDbLine
 10
38.71246
 20
21.317938
 30
0.0
 11
37.095943
 21
20.359802
 31
0.0
210
0.0
220
0.0
230
1.0
  0
LINE
  5
124
100
AcDbEntity
  8
0
 62
     7
 48
0.041999
100
AcDbLine
 10
37.095943
 20
20.359802
 30
0.0
 11
38.764038
 21
20.160412
 31
0.0
210
0.0
220
0.0
230
1.0
  0
LINE
  5
125
100
AcDbEntity
  8
0
 62
     7
 48
0.039408
100
AcDbLine
 10
38.764038
 20
20.160412
 30
0.0
 11
40.288742
 21
19.760326
 31
0.0
210
0.0
220
0.0
230
1.0
  0
LINE
  5
126
100
AcDbEntity
  8
0
 62
     7
 48
0.037489
100
AcDbLine
 10
40.288742
 20
19.760326
 30
0.0
 11
41.675056
 21
19.188688
 31
0.0
210
0.0
220
0.0
230
1.0
  0
LINE
  5
127
100
AcDbEntity
  8
0
 62
     7
 48
0.036053
100
AcDbLine
 10
41.675056
 20
19.188688
 30
0.0
 11
42.927986
 21
18.474638
 31
0.0
210
0.0
220
0.0
230
1.0
  0
LINE
  5
128
100
AcDbEntity
  8
0
 62
     7
 48
0.034902
100
AcDbLine
 10
42.927986
 20
18.474638
 30
0.0
 11
44.052544
 21
17.64732
 31
0.0
210
0.0
220
0.0
230
1.0
  0
LINE
  5
129
100
AcDbEntity
  8
0
 62
     7
 48
0.033848
100
AcDbLine
 10
44.052544
 20
17.64732
 30
0.0
 11
45.053722
 21
16.735878
 31
0.0
210
0.0
220
0.0
230
1.0
  0
LINE
  5
12A
100
AcDbEntity
  8
0
 62
     7
 48
0.064063
100
AcDbLine
 10
45.053722
 20
16.735878
 30
0.0
 11
46.706001
 21
14.777192
 31
0.0
210
0.0
220
0.0
230
1.0
  0
LINE
  5
12B
100
AcDbEntity
  8
0
 62
     7
 48
0.057394
100
AcDbLine
 10
46.706001
 20
14.777192
 30
0.0
 11
47.924862
 21
12.831723
 31
0.0
210
0.0
220
0.0
230
1.0
  0
LINE
  5
12C
100
AcDbEntity
  8
0
 62
     7
 48
0.047226
100
AcDbLine
 10
47.924862
 20
12.831723
 30
0.0
 11
48.750355
 21
11.132614
 31
0.0
210
0.0
220
0.0
230
1.0
  0
LINE
  5
12D
100
AcDbEntity
  8
0
 62
     7
 48
0.045957
100
AcDbLine
 10
48.750355
 20
11.132614
 30
0.0
 11
49.381428
 21
9.406053
 31
0.0
210
0.0
220
0.0
230
1.0
  0
LINE
  5
12E
100
AcDbEntity
  8
0
 62
     7
 48
0.000661
100
AcDbLine
 10
49.381428
 20
9.406053
 30
0.0
 11
49.381428
 21
9.379594
 31
0.0
210
0.0
220
0.0
230
1.0
  0
LINE
  5
12F
100
AcDbEntity
  8
0
 62
     7
 48
0.000493
100
AcDbLine
 10
49.381428
 20
9.379594
 30
0.0
 11
49.390247
 21
9.397233
 31
0.0
210
0.0
220
0.0
230
1.0
  0
LINE
  5
130
100
AcDbEntity
  8
0
 62
     7
 48
0.00022
100
AcDbLine
 10
49.390247
 20
9.397233
 30
0.0
 11
49.390247
 21
9.406053
 31
0.0
210
0.0
220
0.0
230
1.0
  0
LINE
  5
131
100
AcDbEntity
  8
0
 62
     7
 48
0.045957
100
AcDbLine
 10
49.390247
 20
9.406053
 30
0.0
 11
50.02132
 21
11.132614
 31
0.0
210
0.0
220
0.0
230
1.0
  0
LINE
  5
132
100
AcDbEntity
  8
0
 62
     7
 48
0.047226
100
AcDbLine
 10
50.02132
 20
11.132614
 30
0.0
 11
50.846813
 21
12.831723
 31
0.0
210
0.0
220
0.0
230
1.0
  0
LINE
  5
133
100
AcDbEntity
  8
0
 62
     7
 48
0.057394
100
AcDbLine
 10
50.846813
 20
12.831723
 30
0.0
 11
52.065678
 21
14.777192
 31
0.0
210
0.0
220
0.0
230
1.0
  0
LINE
  5
134
100
AcDbEntity
  8
0
 62
     7
 48
0.064063
100
AcDbLine
 10
52.065678
 20
14.777192
 30
0.0
 11
53.717953
 21
16.735878
 31
0.0
210
0.0
220
0.0
230
1.0
  0
LINE
  5
135
100
AcDbEntity
  8
0
 62
     7
 48
0.033848
100
AcDbLine
 10
53.717953
 20
16.735878
 30
0.0
 11
54.719135
 21
17.64732
 31
0.0
210
0.0
220
0.0
230
1.0
  0
LINE
  5
136
100
AcDbEntity
  8
0
 62
     7
 48
0.034902
100
AcDbLine
 10
54.719135
 20
17.64732
 30
0.0
 11
55.843689
 21
18.474638
 31
0.0
210
0.0
220
0.0
230
1.0
  0
LINE
  5
137
100
AcDbEntity
  8
0
 62
     7
 48
0.036053
100
AcDbLine
 10
55.843689
 20
18.474638
 30
0.0
 11
57.096619
 21
19.188688
 31
0.0
210
0.0
220
0.0
230
1.0
  0
LINE
  5
138
100
AcDbEntity
  8
0
 62
     7
 48
0.037489
100
AcDbLine
 10
57.096619
 20
19.188688
 30
0.0
 11
58.482933
 21
19.760326
 31
0.0
210
0.0
220
0.0
230
1.0
  0
LINE
  5
139
100
AcDbEntity
  8
0
 62
     7
 48
0.039408
100
AcDbLine
 10
58.482933
 20
19.760326
 30
0.0
 11
60.007637
 21
20.160412
 31
0.0
210
0.0
220
0.0
230
1.0
  0
LINE
  5
13A
100
AcDbEntity
  8
0
 62
     7
 48
0.041999
100
AcDbLine
 10
60.007637
 20
20.160412
 30
0.0
 11
61.675732
 21
20.359802
 31
0.0
210
0.0
220
0.0
230
1.0
  0
LINE
  5
13B
100
AcDbEntity
  8
0
 62
     7
 48
0.046978
100
AcDbLine
 10
61.675732
 20
20.359802
 30
0.0
 11
60.059216
 21
21.317938
 31
0.0
210
0.0
220
0.0
230
1.0
  0
LINE
  5
13C
100
AcDbEntity
  8
0
 62
     7
 48
0.04371
100
AcDbLine
 10
60.059216
 20
21.317938
 30
0.0
 11
58.656193
 21
22.361227
 31
0.0
210
0.0
220
0.0
230
1.0
  0
LINE
  5
13D
100
AcDbEntity
  8
0
 62
     7
 48
0.0411
100
AcDbLine
 10
58.656193
 20
22.361227
 30
0.0
 11
57.45525
 21
23.483927
 31
0.0
210
0.0
220
0.0
230
1.0
  0
LINE
  5
13E
100
AcDbEntity
  8
0
 62
     7
 48
0.039147
100
AcDbLine
 10
57.45525
 20
23.483927
 30
0.0
 11
56.444965
 21
24.680298
 31
0.0
210
0.0
220
0.0
230
1.0
  0
LINE
  5
13F
100
AcDbEntity
  8
0
 62
     7
 48
0.037824
100
AcDbLine
 10
56.444965
 20
24.680298
 30
0.0
 11
55.613934
 21
25.944595
 31
0.0
210
0.0
220
0.0
230
1.0
  0
LINE
  5
140
100
AcDbEntity
  8
0
 62
     7
 48
0.037076
100
AcDbLine
 10
55.613934
 20
25.944595
 30
0.0
 11
54.950737
 21
27.271082
 31
0.0
210
0.0
220
0.0
230
1.0
  0
LINE
  5
141
100
AcDbEntity
  8
0
 62
     7
 48
0.036822
100
AcDbLine
 10
54.950737
 20
27.271082
 30
0.0
 11
54.443962
 21
28.654013
 31
0.0
210
0.0
220
0.0
230
1.0
  0
LINE
  5
142
100
AcDbEntity
  8
0
 62
     7
 48
0.036964
100
AcDbLine
 10
54.443962
 20
28.654013
 30
0.0
 11
54.082191
 21
30.08765
 31
0.0
210
0.0
220
0.0
230
1.0
  0
LINE
  5
143
100
AcDbEntity
  8
0
 62
     7
 48
0.117299
100
AcDbLine
 10
54.082191
 20
30.08765
 30
0.0
 11
49.390247
 21
30.08765
 31
0.0
210
0.0
220
0.0
230
1.0
  0
LINE
  5
144
100
AcDbEntity
  8
0
 62
     7
 48
0.00022
100
AcDbLine
 10
49.390247
 20
30.08765
 30
0.0
 11
49.381428
 21
30.08765
 31
0.0
210
0.0
220
0.0
230
1.0
  0
LINE
  5
145
100
AcDbEntity
  8
0
 62
     7
 48
0.117299
100
AcDbLine
 10
49.381428
 20
30.08765
 30
0.0
 11
44.689484
 21
30.08765
 31
0.0
210
0.0
220
0.0
230
1.0
  0
ENDSEC
  0
SECTION
  2
OBJECTS
  0
DICTIONARY
  5
19
100
AcDbDictionary
  3
ACAD_GROUP
350
1A
  3
ACAD_MLINESTYLE
350
1B
  0
DICTIONARY
  5
1A
102
{ACAD_REACTORS
330
19
102
}
100
AcDbDictionary
  0
DICTIONARY
  5
1B
102
{ACAD_REACTORS
330
19
102
}
100
AcDbDictionary
  3
STANDARD
350
1C
  0
MLINESTYLE
  5
1C
102
{ACAD_REACTORS
330
1B
102
}
100
AcDbMlineStyle
  2
STANDARD
 70
     0
  3

 62
     0
 51
90.0
 52
90.0
 71
     2
 49
0.5
 62
   256
  6
BYLAYER
 49
-0.5
 62
   256
  6
BYLAYER
  0
ENDSEC
  0
EOF
