  0
SECTION
  2
HEADER
  9
$ACADVER
  1
AC1024
  9
$ACADMAINTVER
 70
     6
  9
$DWGCODEPAGE
  3
ANSI_1254
  9
$INSBASE
 10
0.0
 20
0.0
 30
0.0
  9
$EXTMIN
 10
1.000000000000000E+20
 20
1.000000000000000E+20
 30
1.000000000000000E+20
  9
$EXTMAX
 10
-1.000000000000000E+20
 20
-1.000000000000000E+20
 30
-1.000000000000000E+20
  9
$LIMMIN
 10
0.0
 20
0.0
  9
$LIMMAX
 10
12.0
 20
9.0
  9
$ORTHOMODE
 70
     0
  9
$REGENMODE
 70
     1
  9
$FILLMODE
 70
     1
  9
$QTEXTMODE
 70
     0
  9
$MIRRTEXT
 70
     1
  9
$LTSCALE
 40
1.0
  9
$ATTMODE
 70
     1
  9
$TEXTSIZE
 40
0.2
  9
$TRACEWID
 40
0.05
  9
$TEXTSTYLE
  7
Standard
  9
$CLAYER
  8
0
  9
$CELTYPE
  6
ByLayer
  9
$CECOLOR
 62
   256
  9
$CELTSCALE
 40
1.0
  9
$DISPSILH
 70
     0
  9
$DIMSCALE
 40
1.0
  9
$DIMASZ
 40
0.18
  9
$DIMEXO
 40
0.0625
  9
$DIMDLI
 40
0.38
  9
$DIMRND
 40
0.0
  9
$DIMDLE
 40
0.0
  9
$DIMEXE
 40
0.18
  9
$DIMTP
 40
0.0
  9
$DIMTM
 40
0.0
  9
$DIMTXT
 40
0.18
  9
$DIMCEN
 40
0.09
  9
$DIMTSZ
 40
0.0
  9
$DIMTOL
 70
     0
  9
$DIMLIM
 70
     0
  9
$DIMTIH
 70
     1
  9
$DIMTOH
 70
     1
  9
$DIMSE1
 70
     0
  9
$DIMSE2
 70
     0
  9
$DIMTAD
 70
     0
  9
$DIMZIN
 70
     0
  9
$DIMBLK
  1

  9
$DIMASO
 70
     1
  9
$DIMSHO
 70
     1
  9
$DIMPOST
  1

  9
$DIMAPOST
  1

  9
$DIMALT
 70
     0
  9
$DIMALTD
 70
     2
  9
$DIMALTF
 40
25.4
  9
$DIMLFAC
 40
1.0
  9
$DIMTOFL
 70
     0
  9
$DIMTVP
 40
0.0
  9
$DIMTIX
 70
     0
  9
$DIMSOXD
 70
     0
  9
$DIMSAH
 70
     0
  9
$DIMBLK1
  1

  9
$DIMBLK2
  1

  9
$DIMSTYLE
  2
Standard
  9
$DIMCLRD
 70
     0
  9
$DIMCLRE
 70
     0
  9
$DIMCLRT
 70
     0
  9
$DIMTFAC
 40
1.0
  9
$DIMGAP
 40
0.09
  9
$DIMJUST
 70
     0
  9
$DIMSD1
 70
     0
  9
$DIMSD2
 70
     0
  9
$DIMTOLJ
 70
     1
  9
$DIMTZIN
 70
     0
  9
$DIMALTZ
 70
     0
  9
$DIMALTTZ
 70
     0
  9
$DIMUPT
 70
     0
  9
$DIMDEC
 70
     4
  9
$DIMTDEC
 70
     4
  9
$DIMALTU
 70
     2
  9
$DIMALTTD
 70
     2
  9
$DIMTXSTY
  7
Standard
  9
$DIMAUNIT
 70
     0
  9
$DIMADEC
 70
     0
  9
$DIMALTRND
 40
0.0
  9
$DIMAZIN
 70
     0
  9
$DIMDSEP
 70
    46
  9
$DIMATFIT
 70
     3
  9
$DIMFRAC
 70
     0
  9
$DIMLDRBLK
  1

  9
$DIMLUNIT
 70
     2
  9
$DIMLWD
 70
    -2
  9
$DIMLWE
 70
    -2
  9
$DIMTMOVE
 70
     0
  9
$DIMFXL
 40
1.0
  9
$DIMFXLON
 70
     0
  9
$DIMJOGANG
 40
0.7853981633974483
  9
$DIMTFILL
 70
     0
  9
$DIMTFILLCLR
 70
     0
  9
$DIMARCSYM
 70
     0
  9
$DIMLTYPE
  6

  9
$DIMLTEX1
  6

  9
$DIMLTEX2
  6

  9
$DIMTXTDIRECTION
 70
     0
  9
$LUNITS
 70
     2
  9
$LUPREC
 70
     4
  9
$SKETCHINC
 40
0.1
  9
$FILLETRAD
 40
0.5
  9
$AUNITS
 70
     0
  9
$AUPREC
 70
     0
  9
$MENU
  1
.
  9
$ELEVATION
 40
0.0
  9
$PELEVATION
 40
0.0
  9
$THICKNESS
 40
0.0
  9
$LIMCHECK
 70
     0
  9
$CHAMFERA
 40
0.5
  9
$CHAMFERB
 40
0.5
  9
$CHAMFERC
 40
1.0
  9
$CHAMFERD
 40
0.0
  9
$SKPOLY
 70
     0
  9
$TDCREATE
 40
2457410.878470579
  9
$TDUCREATE
 40
2457410.795137245
  9
$TDUPDATE
 40
2457410.878471296
  9
$TDUUPDATE
 40
2457410.795137963
  9
$TDINDWG
 40
0.0000000116
  9
$TDUSRTIMER
 40
0.0000000116
  9
$USRTIMER
 70
     1
  9
$ANGBASE
 50
0.0
  9
$ANGDIR
 70
     0
  9
$PDMODE
 70
     0
  9
$PDSIZE
 40
0.0
  9
$PLINEWID
 40
0.0
  9
$SPLFRAME
 70
     0
  9
$SPLINETYPE
 70
     6
  9
$SPLINESEGS
 70
     8
  9
$HANDSEED
  5
436
  9
$SURFTAB1
 70
     6
  9
$SURFTAB2
 70
     6
  9
$SURFTYPE
 70
     6
  9
$SURFU
 70
     6
  9
$SURFV
 70
     6
  9
$UCSBASE
  2

  9
$UCSNAME
  2

  9
$UCSORG
 10
0.0
 20
0.0
 30
0.0
  9
$UCSXDIR
 10
1.0
 20
0.0
 30
0.0
  9
$UCSYDIR
 10
0.0
 20
1.0
 30
0.0
  9
$UCSORTHOREF
  2

  9
$UCSORTHOVIEW
 70
     0
  9
$UCSORGTOP
 10
0.0
 20
0.0
 30
0.0
  9
$UCSORGBOTTOM
 10
0.0
 20
0.0
 30
0.0
  9
$UCSORGLEFT
 10
0.0
 20
0.0
 30
0.0
  9
$UCSORGRIGHT
 10
0.0
 20
0.0
 30
0.0
  9
$UCSORGFRONT
 10
0.0
 20
0.0
 30
0.0
  9
$UCSORGBACK
 10
0.0
 20
0.0
 30
0.0
  9
$PUCSBASE
  2

  9
$PUCSNAME
  2

  9
$PUCSORG
 10
0.0
 20
0.0
 30
0.0
  9
$PUCSXDIR
 10
1.0
 20
0.0
 30
0.0
  9
$PUCSYDIR
 10
0.0
 20
1.0
 30
0.0
  9
$PUCSORTHOREF
  2

  9
$PUCSORTHOVIEW
 70
     0
  9
$PUCSORGTOP
 10
0.0
 20
0.0
 30
0.0
  9
$PUCSORGBOTTOM
 10
0.0
 20
0.0
 30
0.0
  9
$PUCSORGLEFT
 10
0.0
 20
0.0
 30
0.0
  9
$PUCSORGRIGHT
 10
0.0
 20
0.0
 30
0.0
  9
$PUCSORGFRONT
 10
0.0
 20
0.0
 30
0.0
  9
$PUCSORGBACK
 10
0.0
 20
0.0
 30
0.0
  9
$USERI1
 70
     0
  9
$USERI2
 70
     0
  9
$USERI3
 70
     0
  9
$USERI4
 70
     0
  9
$USERI5
 70
     0
  9
$USERR1
 40
0.0
  9
$USERR2
 40
0.0
  9
$USERR3
 40
0.0
  9
$USERR4
 40
0.0
  9
$USERR5
 40
0.0
  9
$WORLDVIEW
 70
     1
  9
$SHADEDGE
 70
     3
  9
$SHADEDIF
 70
    70
  9
$TILEMODE
 70
     1
  9
$MAXACTVP
 70
    64
  9
$PINSBASE
 10
0.0
 20
0.0
 30
0.0
  9
$PLIMCHECK
 70
     0
  9
$PEXTMIN
 10
1.000000000000000E+20
 20
1.000000000000000E+20
 30
1.000000000000000E+20
  9
$PEXTMAX
 10
-1.000000000000000E+20
 20
-1.000000000000000E+20
 30
-1.000000000000000E+20
  9
$PLIMMIN
 10
0.0
 20
0.0
  9
$PLIMMAX
 10
12.0
 20
9.0
  9
$UNITMODE
 70
     0
  9
$VISRETAIN
 70
     1
  9
$PLINEGEN
 70
     0
  9
$PSLTSCALE
 70
     1
  9
$TREEDEPTH
 70
  3020
  9
$CMLSTYLE
  2
Standard
  9
$CMLJUST
 70
     0
  9
$CMLSCALE
 40
1.0
  9
$PROXYGRAPHICS
 70
     1
  9
$MEASUREMENT
 70
     0
  9
$CELWEIGHT
370
    -1
  9
$ENDCAPS
280
     0
  9
$JOINSTYLE
280
     0
  9
$LWDISPLAY
290
     1
  9
$INSUNITS
 70
     1
  9
$HYPERLINKBASE
  1

  9
$STYLESHEET
  1

  9
$XEDIT
290
     1
  9
$CEPSNTYPE
380
     0
  9
$PSTYLEMODE
290
     1
  9
$FINGERPRINTGUID
  2
{D082DC3C-4701-4101-99BB-6EF8A043994C}
  9
$VERSIONGUID
  2
{FAEB1C32-E019-11D5-929B-00C0DF256EC4}
  9
$EXTNAMES
290
     1
  9
$PSVPSCALE
 40
0.0
  9
$OLESTARTUP
290
     0
  9
$SORTENTS
280
   127
  9
$INDEXCTL
280
     0
  9
$HIDETEXT
280
     1
  9
$XCLIPFRAME
280
     2
  9
$HALOGAP
280
     0
  9
$OBSCOLOR
 70
   257
  9
$OBSLTYPE
280
     0
  9
$INTERSECTIONDISPLAY
280
     0
  9
$INTERSECTIONCOLOR
 70
   257
  9
$DIMASSOC
280
     2
  9
$PROJECTNAME
  1

  9
$CAMERADISPLAY
290
     0
  9
$LENSLENGTH
 40
50.0
  9
$CAMERAHEIGHT
 40
0.0
  9
$STEPSPERSEC
 40
2.0
  9
$STEPSIZE
 40
6.0
  9
$3DDWFPREC
 40
2.0
  9
$PSOLWIDTH
 40
0.25
  9
$PSOLHEIGHT
 40
4.0
  9
$LOFTANG1
 40
1.570796326794897
  9
$LOFTANG2
 40
1.570796326794897
  9
$LOFTMAG1
 40
0.0
  9
$LOFTMAG2
 40
0.0
  9
$LOFTPARAM
 70
     7
  9
$LOFTNORMALS
280
     1
  9
$LATITUDE
 40
37.795
  9
$LONGITUDE
 40
-122.394
  9
$NORTHDIRECTION
 40
0.0
  9
$TIMEZONE
 70
 -8000
  9
$LIGHTGLYPHDISPLAY
280
     1
  9
$TILEMODELIGHTSYNCH
280
     1
  9
$CMATERIAL
347
3C
  9
$SOLIDHIST
280
     1
  9
$SHOWHIST
280
     1
  9
$DWFFRAME
280
     2
  9
$DGNFRAME
280
     2
  9
$REALWORLDSCALE
290
     1
  9
$INTERFERECOLOR
 62
   256
  9
$CSHADOW
280
     0
  9
$SHADOWPLANELOCATION
 40
0.0
  0
ENDSEC
  0
SECTION
  2
CLASSES
  0
CLASS
  1
ACDBDICTIONARYWDFLT
  2
AcDbDictionaryWithDefault
  3
ObjectDBX Classes
 90
        0
 91
        4
280
     0
281
     0
  0
CLASS
  1
VISUALSTYLE
  2
AcDbVisualStyle
  3
ObjectDBX Classes
 90
     4095
 91
        4
280
     0
281
     0
  0
CLASS
  1
MATERIAL
  2
AcDbMaterial
  3
ObjectDBX Classes
 90
     1153
 91
        4
280
     0
281
     0
  0
CLASS
  1
SUN
  2
AcDbSun
  3
SCENEOE
 90
     1024
 91
        4
280
     0
281
     0
  0
ENDSEC
  0
SECTION
  2
TABLES
  0
TABLE
  2
VPORT
  5
8
330
0
100
AcDbSymbolTable
 70
     1
  0
VPORT
  5
29
330
8
100
AcDbSymbolTableRecord
100
AcDbViewportTableRecord
  2
*Active
 70
     0
 10
0.0
 20
0.0
 11
1.0
 21
1.0
 12
0.0
 22
0.0
 13
0.0
 23
0.0
 14
0.5
 24
0.5
 15
0.5
 25
0.5
 16
0.0
 26
0.0
 36
1.0
 17
306.0
 27
396.0
 37
0.0
 40
792.0
 41
0.7727272727272727
 42
50.0
 43
0.0
 44
0.0
 50
0.0
 51
0.0
 71
     0
 72
   100
 73
     1
 74
     3
 75
     0
 76
     0
 77
     0
 78
     0
281
     0
 65
     1
110
0.0
120
0.0
130
0.0
111
1.0
121
0.0
131
0.0
112
0.0
122
1.0
132
0.0
 79
     0
146
0.0
 60
     3
 61
     5
292
     1
282
     1
141
0.0
142
0.0
 63
   250
361
3F
  0
ENDTAB
  0
TABLE
  2
LTYPE
  5
5
330
0
100
AcDbSymbolTable
 70
     1
  0
LTYPE
  5
14
330
5
100
AcDbSymbolTableRecord
100
AcDbLinetypeTableRecord
  2
ByBlock
 70
     0
  3

 72
    65
 73
     0
 40
0.0
  0
LTYPE
  5
15
330
5
100
AcDbSymbolTableRecord
100
AcDbLinetypeTableRecord
  2
ByLayer
 70
     0
  3

 72
    65
 73
     0
 40
0.0
  0
LTYPE
  5
16
330
5
100
AcDbSymbolTableRecord
100
AcDbLinetypeTableRecord
  2
Continuous
 70
     0
  3
Solid line
 72
    65
 73
     0
 40
0.0
  0
ENDTAB
  0
TABLE
  2
LAYER
  5
2
330
0
100
AcDbSymbolTable
 70
     2
  0
LAYER
  5
10
330
2
100
AcDbSymbolTableRecord
100
AcDbLayerTableRecord
  2
0
 70
     0
 62
     7
  6
Continuous
370
    -3
390
F
347
3E
  0
LAYER
  5
353
330
2
100
AcDbSymbolTableRecord
100
AcDbLayerTableRecord
  2
Defpoints
 70
     0
 62
     7
  6
Continuous
290
     0
370
    -3
390
F
347
3E
  0
ENDTAB
  0
TABLE
  2
STYLE
  5
3
330
0
100
AcDbSymbolTable
 70
     1
  0
STYLE
  5
11
330
3
100
AcDbSymbolTableRecord
100
AcDbTextStyleTableRecord
  2
Standard
 70
     0
 40
0.0
 41
1.0
 50
0.0
 71
     0
 42
0.2
  3
txt
  4

  0
ENDTAB
  0
TABLE
  2
VIEW
  5
6
330
0
100
AcDbSymbolTable
 70
     0
  0
ENDTAB
  0
TABLE
  2
UCS
  5
7
330
0
100
AcDbSymbolTable
 70
     0
  0
ENDTAB
  0
TABLE
  2
APPID
  5
9
330
0
100
AcDbSymbolTable
 70
     1
  0
APPID
  5
12
330
9
100
AcDbSymbolTableRecord
100
AcDbRegAppTableRecord
  2
ACAD
 70
     0
  0
ENDTAB
  0
TABLE
  2
DIMSTYLE
  5
A
330
0
100
AcDbSymbolTable
 70
     1
100
AcDbDimStyleTable
  0
DIMSTYLE
105
27
330
A
100
AcDbSymbolTableRecord
100
AcDbDimStyleTableRecord
  2
Standard
 70
     0
178
     0
340
11
  0
ENDTAB
  0
TABLE
  2
BLOCK_RECORD
  5
1
330
0
100
AcDbSymbolTable
 70
   137
  0
BLOCK_RECORD
  5
1F
330
1
100
AcDbSymbolTableRecord
100
AcDbBlockTableRecord
  2
*Model_Space
340
22
 70
     0
280
     1
281
     0
  0
BLOCK_RECORD
  5
1B
330
1
100
AcDbSymbolTableRecord
100
AcDbBlockTableRecord
  2
*Paper_Space
340
1E
 70
     0
280
     1
281
     0
  0
BLOCK_RECORD
  5
23
330
1
100
AcDbSymbolTableRecord
100
AcDbBlockTableRecord
  2
*Paper_Space0
340
26
 70
     0
280
     1
281
     0
  0
BLOCK_RECORD
  5
40
330
1
100
AcDbSymbolTableRecord
100
AcDbBlockTableRecord
  2
block 2
340
0
102
{BLKREFS
331
41
102
}
 70
     0
280
     1
281
     0
  0
BLOCK_RECORD
  5
45
330
1
100
AcDbSymbolTableRecord
100
AcDbBlockTableRecord
  2
block 3
340
0
102
{BLKREFS
331
46
102
}
 70
     0
280
     1
281
     0
  0
BLOCK_RECORD
  5
4A
330
1
100
AcDbSymbolTableRecord
100
AcDbBlockTableRecord
  2
block 4
340
0
102
{BLKREFS
331
4B
102
}
 70
     0
280
     1
281
     0
  0
BLOCK_RECORD
  5
4F
330
1
100
AcDbSymbolTableRecord
100
AcDbBlockTableRecord
  2
block 5
340
0
102
{BLKREFS
331
50
102
}
 70
     0
280
     1
281
     0
  0
BLOCK_RECORD
  5
54
330
1
100
AcDbSymbolTableRecord
100
AcDbBlockTableRecord
  2
block 6
340
0
102
{BLKREFS
331
55
102
}
 70
     0
280
     1
281
     0
  0
BLOCK_RECORD
  5
59
330
1
100
AcDbSymbolTableRecord
100
AcDbBlockTableRecord
  2
block 7
340
0
102
{BLKREFS
331
5A
102
}
 70
     0
280
     1
281
     0
  0
BLOCK_RECORD
  5
5E
330
1
100
AcDbSymbolTableRecord
100
AcDbBlockTableRecord
  2
block 8
340
0
102
{BLKREFS
331
5F
102
}
 70
     0
280
     1
281
     0
  0
BLOCK_RECORD
  5
63
330
1
100
AcDbSymbolTableRecord
100
AcDbBlockTableRecord
  2
block 9
340
0
102
{BLKREFS
331
64
102
}
 70
     0
280
     1
281
     0
  0
BLOCK_RECORD
  5
68
330
1
100
AcDbSymbolTableRecord
100
AcDbBlockTableRecord
  2
block 10
340
0
102
{BLKREFS
331
69
102
}
 70
     0
280
     1
281
     0
  0
BLOCK_RECORD
  5
6D
330
1
100
AcDbSymbolTableRecord
100
AcDbBlockTableRecord
  2
block 11
340
0
102
{BLKREFS
331
6E
102
}
 70
     0
280
     1
281
     0
  0
BLOCK_RECORD
  5
72
330
1
100
AcDbSymbolTableRecord
100
AcDbBlockTableRecord
  2
block 12
340
0
102
{BLKREFS
331
73
102
}
 70
     0
280
     1
281
     0
  0
BLOCK_RECORD
  5
77
330
1
100
AcDbSymbolTableRecord
100
AcDbBlockTableRecord
  2
block 13
340
0
102
{BLKREFS
331
78
102
}
 70
     0
280
     1
281
     0
  0
BLOCK_RECORD
  5
7C
330
1
100
AcDbSymbolTableRecord
100
AcDbBlockTableRecord
  2
block 14
340
0
102
{BLKREFS
331
7D
102
}
 70
     0
280
     1
281
     0
  0
BLOCK_RECORD
  5
84
330
1
100
AcDbSymbolTableRecord
100
AcDbBlockTableRecord
  2
block 15
340
0
102
{BLKREFS
331
85
102
}
 70
     0
280
     1
281
     0
  0
BLOCK_RECORD
  5
8C
330
1
100
AcDbSymbolTableRecord
100
AcDbBlockTableRecord
  2
block 16
340
0
102
{BLKREFS
331
8D
102
}
 70
     0
280
     1
281
     0
  0
BLOCK_RECORD
  5
94
330
1
100
AcDbSymbolTableRecord
100
AcDbBlockTableRecord
  2
block 17
340
0
102
{BLKREFS
331
95
102
}
 70
     0
280
     1
281
     0
  0
BLOCK_RECORD
  5
9C
330
1
100
AcDbSymbolTableRecord
100
AcDbBlockTableRecord
  2
block 18
340
0
102
{BLKREFS
331
9D
102
}
 70
     0
280
     1
281
     0
  0
BLOCK_RECORD
  5
A1
330
1
100
AcDbSymbolTableRecord
100
AcDbBlockTableRecord
  2
block 19
340
0
102
{BLKREFS
331
A2
102
}
 70
     0
280
     1
281
     0
  0
BLOCK_RECORD
  5
A6
330
1
100
AcDbSymbolTableRecord
100
AcDbBlockTableRecord
  2
block 20
340
0
102
{BLKREFS
331
A7
102
}
 70
     0
280
     1
281
     0
  0
BLOCK_RECORD
  5
AB
330
1
100
AcDbSymbolTableRecord
100
AcDbBlockTableRecord
  2
block 21
340
0
102
{BLKREFS
331
AC
102
}
 70
     0
280
     1
281
     0
  0
BLOCK_RECORD
  5
B0
330
1
100
AcDbSymbolTableRecord
100
AcDbBlockTableRecord
  2
block 22
340
0
102
{BLKREFS
331
B1
102
}
 70
     0
280
     1
281
     0
  0
BLOCK_RECORD
  5
B8
330
1
100
AcDbSymbolTableRecord
100
AcDbBlockTableRecord
  2
block 23
340
0
102
{BLKREFS
331
B9
102
}
 70
     0
280
     1
281
     0
  0
BLOCK_RECORD
  5
C0
330
1
100
AcDbSymbolTableRecord
100
AcDbBlockTableRecord
  2
block 24
340
0
102
{BLKREFS
331
C1
102
}
 70
     0
280
     1
281
     0
  0
BLOCK_RECORD
  5
C8
330
1
100
AcDbSymbolTableRecord
100
AcDbBlockTableRecord
  2
block 25
340
0
102
{BLKREFS
331
C9
102
}
 70
     0
280
     1
281
     0
  0
BLOCK_RECORD
  5
D0
330
1
100
AcDbSymbolTableRecord
100
AcDbBlockTableRecord
  2
block 26
340
0
102
{BLKREFS
331
D1
102
}
 70
     0
280
     1
281
     0
  0
BLOCK_RECORD
  5
D5
330
1
100
AcDbSymbolTableRecord
100
AcDbBlockTableRecord
  2
block 27
340
0
102
{BLKREFS
331
D6
102
}
 70
     0
280
     1
281
     0
  0
BLOCK_RECORD
  5
DA
330
1
100
AcDbSymbolTableRecord
100
AcDbBlockTableRecord
  2
block 28
340
0
102
{BLKREFS
331
DB
102
}
 70
     0
280
     1
281
     0
  0
BLOCK_RECORD
  5
DF
330
1
100
AcDbSymbolTableRecord
100
AcDbBlockTableRecord
  2
block 29
340
0
102
{BLKREFS
331
E0
102
}
 70
     0
280
     1
281
     0
  0
BLOCK_RECORD
  5
E4
330
1
100
AcDbSymbolTableRecord
100
AcDbBlockTableRecord
  2
block 30
340
0
102
{BLKREFS
331
E5
102
}
 70
     0
280
     1
281
     0
  0
BLOCK_RECORD
  5
E9
330
1
100
AcDbSymbolTableRecord
100
AcDbBlockTableRecord
  2
block 31
340
0
102
{BLKREFS
331
EA
102
}
 70
     0
280
     1
281
     0
  0
BLOCK_RECORD
  5
F1
330
1
100
AcDbSymbolTableRecord
100
AcDbBlockTableRecord
  2
block 32
340
0
102
{BLKREFS
331
F2
102
}
 70
     0
280
     1
281
     0
  0
BLOCK_RECORD
  5
F9
330
1
100
AcDbSymbolTableRecord
100
AcDbBlockTableRecord
  2
block 33
340
0
102
{BLKREFS
331
FA
102
}
 70
     0
280
     1
281
     0
  0
BLOCK_RECORD
  5
101
330
1
100
AcDbSymbolTableRecord
100
AcDbBlockTableRecord
  2
block 34
340
0
102
{BLKREFS
331
102
102
}
 70
     0
280
     1
281
     0
  0
BLOCK_RECORD
  5
109
330
1
100
AcDbSymbolTableRecord
100
AcDbBlockTableRecord
  2
block 35
340
0
102
{BLKREFS
331
10A
102
}
 70
     0
280
     1
281
     0
  0
BLOCK_RECORD
  5
10E
330
1
100
AcDbSymbolTableRecord
100
AcDbBlockTableRecord
  2
block 36
340
0
102
{BLKREFS
331
10F
102
}
 70
     0
280
     1
281
     0
  0
BLOCK_RECORD
  5
113
330
1
100
AcDbSymbolTableRecord
100
AcDbBlockTableRecord
  2
block 37
340
0
102
{BLKREFS
331
114
102
}
 70
     0
280
     1
281
     0
  0
BLOCK_RECORD
  5
118
330
1
100
AcDbSymbolTableRecord
100
AcDbBlockTableRecord
  2
block 38
340
0
102
{BLKREFS
331
119
102
}
 70
     0
280
     1
281
     0
  0
BLOCK_RECORD
  5
11D
330
1
100
AcDbSymbolTableRecord
100
AcDbBlockTableRecord
  2
block 39
340
0
102
{BLKREFS
331
11E
102
}
 70
     0
280
     1
281
     0
  0
BLOCK_RECORD
  5
122
330
1
100
AcDbSymbolTableRecord
100
AcDbBlockTableRecord
  2
block 40
340
0
102
{BLKREFS
331
123
102
}
 70
     0
280
     1
281
     0
  0
BLOCK_RECORD
  5
127
330
1
100
AcDbSymbolTableRecord
100
AcDbBlockTableRecord
  2
block 41
340
0
102
{BLKREFS
331
128
102
}
 70
     0
280
     1
281
     0
  0
BLOCK_RECORD
  5
12C
330
1
100
AcDbSymbolTableRecord
100
AcDbBlockTableRecord
  2
block 42
340
0
102
{BLKREFS
331
12D
102
}
 70
     0
280
     1
281
     0
  0
BLOCK_RECORD
  5
131
330
1
100
AcDbSymbolTableRecord
100
AcDbBlockTableRecord
  2
block 43
340
0
102
{BLKREFS
331
132
102
}
 70
     0
280
     1
281
     0
  0
BLOCK_RECORD
  5
139
330
1
100
AcDbSymbolTableRecord
100
AcDbBlockTableRecord
  2
block 44
340
0
102
{BLKREFS
331
13A
102
}
 70
     0
280
     1
281
     0
  0
BLOCK_RECORD
  5
141
330
1
100
AcDbSymbolTableRecord
100
AcDbBlockTableRecord
  2
block 45
340
0
102
{BLKREFS
331
142
102
}
 70
     0
280
     1
281
     0
  0
BLOCK_RECORD
  5
146
330
1
100
AcDbSymbolTableRecord
100
AcDbBlockTableRecord
  2
block 46
340
0
102
{BLKREFS
331
147
102
}
 70
     0
280
     1
281
     0
  0
BLOCK_RECORD
  5
14E
330
1
100
AcDbSymbolTableRecord
100
AcDbBlockTableRecord
  2
block 47
340
0
102
{BLKREFS
331
14F
102
}
 70
     0
280
     1
281
     0
  0
BLOCK_RECORD
  5
159
330
1
100
AcDbSymbolTableRecord
100
AcDbBlockTableRecord
  2
block 48
340
0
102
{BLKREFS
331
15A
102
}
 70
     0
280
     1
281
     0
  0
BLOCK_RECORD
  5
164
330
1
100
AcDbSymbolTableRecord
100
AcDbBlockTableRecord
  2
block 49
340
0
102
{BLKREFS
331
165
102
}
 70
     0
280
     1
281
     0
  0
BLOCK_RECORD
  5
16C
330
1
100
AcDbSymbolTableRecord
100
AcDbBlockTableRecord
  2
block 50
340
0
102
{BLKREFS
331
16D
102
}
 70
     0
280
     1
281
     0
  0
BLOCK_RECORD
  5
174
330
1
100
AcDbSymbolTableRecord
100
AcDbBlockTableRecord
  2
block 51
340
0
102
{BLKREFS
331
175
102
}
 70
     0
280
     1
281
     0
  0
BLOCK_RECORD
  5
17C
330
1
100
AcDbSymbolTableRecord
100
AcDbBlockTableRecord
  2
block 52
340
0
102
{BLKREFS
331
17D
102
}
 70
     0
280
     1
281
     0
  0
BLOCK_RECORD
  5
187
330
1
100
AcDbSymbolTableRecord
100
AcDbBlockTableRecord
  2
block 53
340
0
102
{BLKREFS
331
188
102
}
 70
     0
280
     1
281
     0
  0
BLOCK_RECORD
  5
192
330
1
100
AcDbSymbolTableRecord
100
AcDbBlockTableRecord
  2
block 54
340
0
102
{BLKREFS
331
193
102
}
 70
     0
280
     1
281
     0
  0
BLOCK_RECORD
  5
197
330
1
100
AcDbSymbolTableRecord
100
AcDbBlockTableRecord
  2
block 55
340
0
102
{BLKREFS
331
198
102
}
 70
     0
280
     1
281
     0
  0
BLOCK_RECORD
  5
19F
330
1
100
AcDbSymbolTableRecord
100
AcDbBlockTableRecord
  2
block 56
340
0
102
{BLKREFS
331
1A0
102
}
 70
     0
280
     1
281
     0
  0
BLOCK_RECORD
  5
1A7
330
1
100
AcDbSymbolTableRecord
100
AcDbBlockTableRecord
  2
block 57
340
0
102
{BLKREFS
331
1A8
102
}
 70
     0
280
     1
281
     0
  0
BLOCK_RECORD
  5
1AF
330
1
100
AcDbSymbolTableRecord
100
AcDbBlockTableRecord
  2
block 58
340
0
102
{BLKREFS
331
1B0
102
}
 70
     0
280
     1
281
     0
  0
BLOCK_RECORD
  5
1BA
330
1
100
AcDbSymbolTableRecord
100
AcDbBlockTableRecord
  2
block 59
340
0
102
{BLKREFS
331
1BB
102
}
 70
     0
280
     1
281
     0
  0
BLOCK_RECORD
  5
1C5
330
1
100
AcDbSymbolTableRecord
100
AcDbBlockTableRecord
  2
block 60
340
0
102
{BLKREFS
331
1C6
102
}
 70
     0
280
     1
281
     0
  0
BLOCK_RECORD
  5
1CA
330
1
100
AcDbSymbolTableRecord
100
AcDbBlockTableRecord
  2
block 61
340
0
102
{BLKREFS
331
1CB
102
}
 70
     0
280
     1
281
     0
  0
BLOCK_RECORD
  5
1D2
330
1
100
AcDbSymbolTableRecord
100
AcDbBlockTableRecord
  2
block 62
340
0
102
{BLKREFS
331
1D3
102
}
 70
     0
280
     1
281
     0
  0
BLOCK_RECORD
  5
1DA
330
1
100
AcDbSymbolTableRecord
100
AcDbBlockTableRecord
  2
block 63
340
0
102
{BLKREFS
331
1DB
102
}
 70
     0
280
     1
281
     0
  0
BLOCK_RECORD
  5
1E2
330
1
100
AcDbSymbolTableRecord
100
AcDbBlockTableRecord
  2
block 64
340
0
102
{BLKREFS
331
1E3
102
}
 70
     0
280
     1
281
     0
  0
BLOCK_RECORD
  5
1ED
330
1
100
AcDbSymbolTableRecord
100
AcDbBlockTableRecord
  2
block 65
340
0
102
{BLKREFS
331
1EE
102
}
 70
     0
280
     1
281
     0
  0
BLOCK_RECORD
  5
1F8
330
1
100
AcDbSymbolTableRecord
100
AcDbBlockTableRecord
  2
block 66
340
0
102
{BLKREFS
331
1F9
102
}
 70
     0
280
     1
281
     0
  0
BLOCK_RECORD
  5
1FD
330
1
100
AcDbSymbolTableRecord
100
AcDbBlockTableRecord
  2
block 67
340
0
102
{BLKREFS
331
1FE
102
}
 70
     0
280
     1
281
     0
  0
BLOCK_RECORD
  5
202
330
1
100
AcDbSymbolTableRecord
100
AcDbBlockTableRecord
  2
block 68
340
0
102
{BLKREFS
331
203
102
}
 70
     0
280
     1
281
     0
  0
BLOCK_RECORD
  5
20A
330
1
100
AcDbSymbolTableRecord
100
AcDbBlockTableRecord
  2
block 69
340
0
102
{BLKREFS
331
20B
102
}
 70
     0
280
     1
281
     0
  0
BLOCK_RECORD
  5
212
330
1
100
AcDbSymbolTableRecord
100
AcDbBlockTableRecord
  2
block 70
340
0
102
{BLKREFS
331
213
102
}
 70
     0
280
     1
281
     0
  0
BLOCK_RECORD
  5
21A
330
1
100
AcDbSymbolTableRecord
100
AcDbBlockTableRecord
  2
block 71
340
0
102
{BLKREFS
331
21B
102
}
 70
     0
280
     1
281
     0
  0
BLOCK_RECORD
  5
225
330
1
100
AcDbSymbolTableRecord
100
AcDbBlockTableRecord
  2
block 72
340
0
102
{BLKREFS
331
226
102
}
 70
     0
280
     1
281
     0
  0
BLOCK_RECORD
  5
230
330
1
100
AcDbSymbolTableRecord
100
AcDbBlockTableRecord
  2
block 73
340
0
102
{BLKREFS
331
231
102
}
 70
     0
280
     1
281
     0
  0
BLOCK_RECORD
  5
235
330
1
100
AcDbSymbolTableRecord
100
AcDbBlockTableRecord
  2
block 74
340
0
102
{BLKREFS
331
236
102
}
 70
     0
280
     1
281
     0
  0
BLOCK_RECORD
  5
23A
330
1
100
AcDbSymbolTableRecord
100
AcDbBlockTableRecord
  2
block 75
340
0
102
{BLKREFS
331
23B
102
}
 70
     0
280
     1
281
     0
  0
BLOCK_RECORD
  5
242
330
1
100
AcDbSymbolTableRecord
100
AcDbBlockTableRecord
  2
block 76
340
0
102
{BLKREFS
331
243
102
}
 70
     0
280
     1
281
     0
  0
BLOCK_RECORD
  5
24A
330
1
100
AcDbSymbolTableRecord
100
AcDbBlockTableRecord
  2
block 77
340
0
102
{BLKREFS
331
24B
102
}
 70
     0
280
     1
281
     0
  0
BLOCK_RECORD
  5
252
330
1
100
AcDbSymbolTableRecord
100
AcDbBlockTableRecord
  2
block 78
340
0
102
{BLKREFS
331
253
102
}
 70
     0
280
     1
281
     0
  0
BLOCK_RECORD
  5
25D
330
1
100
AcDbSymbolTableRecord
100
AcDbBlockTableRecord
  2
block 79
340
0
102
{BLKREFS
331
25E
102
}
 70
     0
280
     1
281
     0
  0
BLOCK_RECORD
  5
268
330
1
100
AcDbSymbolTableRecord
100
AcDbBlockTableRecord
  2
block 80
340
0
102
{BLKREFS
331
269
102
}
 70
     0
280
     1
281
     0
  0
BLOCK_RECORD
  5
26D
330
1
100
AcDbSymbolTableRecord
100
AcDbBlockTableRecord
  2
block 81
340
0
102
{BLKREFS
331
26E
102
}
 70
     0
280
     1
281
     0
  0
BLOCK_RECORD
  5
275
330
1
100
AcDbSymbolTableRecord
100
AcDbBlockTableRecord
  2
block 82
340
0
102
{BLKREFS
331
276
102
}
 70
     0
280
     1
281
     0
  0
BLOCK_RECORD
  5
27D
330
1
100
AcDbSymbolTableRecord
100
AcDbBlockTableRecord
  2
block 83
340
0
102
{BLKREFS
331
27E
102
}
 70
     0
280
     1
281
     0
  0
BLOCK_RECORD
  5
282
330
1
100
AcDbSymbolTableRecord
100
AcDbBlockTableRecord
  2
block 84
340
0
102
{BLKREFS
331
283
102
}
 70
     0
280
     1
281
     0
  0
BLOCK_RECORD
  5
28A
330
1
100
AcDbSymbolTableRecord
100
AcDbBlockTableRecord
  2
block 85
340
0
102
{BLKREFS
331
28B
102
}
 70
     0
280
     1
281
     0
  0
BLOCK_RECORD
  5
295
330
1
100
AcDbSymbolTableRecord
100
AcDbBlockTableRecord
  2
block 86
340
0
102
{BLKREFS
331
296
102
}
 70
     0
280
     1
281
     0
  0
BLOCK_RECORD
  5
2A0
330
1
100
AcDbSymbolTableRecord
100
AcDbBlockTableRecord
  2
block 87
340
0
102
{BLKREFS
331
2A1
102
}
 70
     0
280
     1
281
     0
  0
BLOCK_RECORD
  5
2A8
330
1
100
AcDbSymbolTableRecord
100
AcDbBlockTableRecord
  2
block 88
340
0
102
{BLKREFS
331
2A9
102
}
 70
     0
280
     1
281
     0
  0
BLOCK_RECORD
  5
2B0
330
1
100
AcDbSymbolTableRecord
100
AcDbBlockTableRecord
  2
block 89
340
0
102
{BLKREFS
331
2B1
102
}
 70
     0
280
     1
281
     0
  0
BLOCK_RECORD
  5
2B8
330
1
100
AcDbSymbolTableRecord
100
AcDbBlockTableRecord
  2
block 90
340
0
102
{BLKREFS
331
2B9
102
}
 70
     0
280
     1
281
     0
  0
BLOCK_RECORD
  5
2C3
330
1
100
AcDbSymbolTableRecord
100
AcDbBlockTableRecord
  2
block 91
340
0
102
{BLKREFS
331
2C4
102
}
 70
     0
280
     1
281
     0
  0
BLOCK_RECORD
  5
2CE
330
1
100
AcDbSymbolTableRecord
100
AcDbBlockTableRecord
  2
block 92
340
0
102
{BLKREFS
331
2CF
102
}
 70
     0
280
     1
281
     0
  0
BLOCK_RECORD
  5
2D3
330
1
100
AcDbSymbolTableRecord
100
AcDbBlockTableRecord
  2
block 93
340
0
102
{BLKREFS
331
2D4
102
}
 70
     0
280
     1
281
     0
  0
BLOCK_RECORD
  5
2DB
330
1
100
AcDbSymbolTableRecord
100
AcDbBlockTableRecord
  2
block 94
340
0
102
{BLKREFS
331
2DC
102
}
 70
     0
280
     1
281
     0
  0
BLOCK_RECORD
  5
2E3
330
1
100
AcDbSymbolTableRecord
100
AcDbBlockTableRecord
  2
block 95
340
0
102
{BLKREFS
331
2E4
102
}
 70
     0
280
     1
281
     0
  0
BLOCK_RECORD
  5
2EB
330
1
100
AcDbSymbolTableRecord
100
AcDbBlockTableRecord
  2
block 96
340
0
102
{BLKREFS
331
2EC
102
}
 70
     0
280
     1
281
     0
  0
BLOCK_RECORD
  5
2F6
330
1
100
AcDbSymbolTableRecord
100
AcDbBlockTableRecord
  2
block 97
340
0
102
{BLKREFS
331
2F7
102
}
 70
     0
280
     1
281
     0
  0
BLOCK_RECORD
  5
301
330
1
100
AcDbSymbolTableRecord
100
AcDbBlockTableRecord
  2
block 98
340
0
102
{BLKREFS
331
302
102
}
 70
     0
280
     1
281
     0
  0
BLOCK_RECORD
  5
306
330
1
100
AcDbSymbolTableRecord
100
AcDbBlockTableRecord
  2
block 99
340
0
102
{BLKREFS
331
307
102
}
 70
     0
280
     1
281
     0
  0
BLOCK_RECORD
  5
30E
330
1
100
AcDbSymbolTableRecord
100
AcDbBlockTableRecord
  2
block 100
340
0
102
{BLKREFS
331
30F
102
}
 70
     0
280
     1
281
     0
  0
BLOCK_RECORD
  5
316
330
1
100
AcDbSymbolTableRecord
100
AcDbBlockTableRecord
  2
block 101
340
0
102
{BLKREFS
331
317
102
}
 70
     0
280
     1
281
     0
  0
BLOCK_RECORD
  5
31E
330
1
100
AcDbSymbolTableRecord
100
AcDbBlockTableRecord
  2
block 102
340
0
102
{BLKREFS
331
31F
102
}
 70
     0
280
     1
281
     0
  0
BLOCK_RECORD
  5
329
330
1
100
AcDbSymbolTableRecord
100
AcDbBlockTableRecord
  2
block 103
340
0
102
{BLKREFS
331
32A
102
}
 70
     0
280
     1
281
     0
  0
BLOCK_RECORD
  5
334
330
1
100
AcDbSymbolTableRecord
100
AcDbBlockTableRecord
  2
block 104
340
0
102
{BLKREFS
331
335
102
}
 70
     0
280
     1
281
     0
  0
BLOCK_RECORD
  5
339
330
1
100
AcDbSymbolTableRecord
100
AcDbBlockTableRecord
  2
block 105
340
0
102
{BLKREFS
331
33A
102
}
 70
     0
280
     1
281
     0
  0
BLOCK_RECORD
  5
33F
330
1
100
AcDbSymbolTableRecord
100
AcDbBlockTableRecord
  2
block 106
340
0
102
{BLKREFS
331
340
102
}
 70
     0
280
     1
281
     0
  0
BLOCK_RECORD
  5
344
330
1
100
AcDbSymbolTableRecord
100
AcDbBlockTableRecord
  2
block 107
340
0
102
{BLKREFS
331
345
102
}
 70
     0
280
     1
281
     0
  0
BLOCK_RECORD
  5
349
330
1
100
AcDbSymbolTableRecord
100
AcDbBlockTableRecord
  2
block 108
340
0
102
{BLKREFS
331
34A
102
}
 70
     0
280
     1
281
     0
  0
BLOCK_RECORD
  5
34E
330
1
100
AcDbSymbolTableRecord
100
AcDbBlockTableRecord
  2
block 109
340
0
102
{BLKREFS
331
34F
102
}
 70
     0
280
     1
281
     0
  0
BLOCK_RECORD
  5
354
330
1
100
AcDbSymbolTableRecord
100
AcDbBlockTableRecord
  2
block 110
340
0
102
{BLKREFS
331
355
102
}
 70
     0
280
     1
281
     0
  0
BLOCK_RECORD
  5
35C
330
1
100
AcDbSymbolTableRecord
100
AcDbBlockTableRecord
  2
block 111
340
0
102
{BLKREFS
331
35D
102
}
 70
     0
280
     1
281
     0
  0
BLOCK_RECORD
  5
364
330
1
100
AcDbSymbolTableRecord
100
AcDbBlockTableRecord
  2
block 112
340
0
102
{BLKREFS
331
365
102
}
 70
     0
280
     1
281
     0
  0
BLOCK_RECORD
  5
36C
330
1
100
AcDbSymbolTableRecord
100
AcDbBlockTableRecord
  2
block 113
340
0
102
{BLKREFS
331
36D
102
}
 70
     0
280
     1
281
     0
  0
BLOCK_RECORD
  5
374
330
1
100
AcDbSymbolTableRecord
100
AcDbBlockTableRecord
  2
block 114
340
0
102
{BLKREFS
331
375
102
}
 70
     0
280
     1
281
     0
  0
BLOCK_RECORD
  5
37C
330
1
100
AcDbSymbolTableRecord
100
AcDbBlockTableRecord
  2
block 115
340
0
102
{BLKREFS
331
37D
102
}
 70
     0
280
     1
281
     0
  0
BLOCK_RECORD
  5
384
330
1
100
AcDbSymbolTableRecord
100
AcDbBlockTableRecord
  2
block 116
340
0
102
{BLKREFS
331
385
102
}
 70
     0
280
     1
281
     0
  0
BLOCK_RECORD
  5
38C
330
1
100
AcDbSymbolTableRecord
100
AcDbBlockTableRecord
  2
block 117
340
0
102
{BLKREFS
331
38D
102
}
 70
     0
280
     1
281
     0
  0
BLOCK_RECORD
  5
394
330
1
100
AcDbSymbolTableRecord
100
AcDbBlockTableRecord
  2
block 118
340
0
102
{BLKREFS
331
395
102
}
 70
     0
280
     1
281
     0
  0
BLOCK_RECORD
  5
39C
330
1
100
AcDbSymbolTableRecord
100
AcDbBlockTableRecord
  2
block 119
340
0
102
{BLKREFS
331
39D
102
}
 70
     0
280
     1
281
     0
  0
BLOCK_RECORD
  5
3A4
330
1
100
AcDbSymbolTableRecord
100
AcDbBlockTableRecord
  2
block 120
340
0
102
{BLKREFS
331
3A5
102
}
 70
     0
280
     1
281
     0
  0
BLOCK_RECORD
  5
3AC
330
1
100
AcDbSymbolTableRecord
100
AcDbBlockTableRecord
  2
block 121
340
0
102
{BLKREFS
331
3AD
102
}
 70
     0
280
     1
281
     0
  0
BLOCK_RECORD
  5
3B4
330
1
100
AcDbSymbolTableRecord
100
AcDbBlockTableRecord
  2
block 122
340
0
102
{BLKREFS
331
3B5
102
}
 70
     0
280
     1
281
     0
  0
BLOCK_RECORD
  5
3BC
330
1
100
AcDbSymbolTableRecord
100
AcDbBlockTableRecord
  2
block 123
340
0
102
{BLKREFS
331
3BD
102
}
 70
     0
280
     1
281
     0
  0
BLOCK_RECORD
  5
3C4
330
1
100
AcDbSymbolTableRecord
100
AcDbBlockTableRecord
  2
block 124
340
0
102
{BLKREFS
331
3C5
102
}
 70
     0
280
     1
281
     0
  0
BLOCK_RECORD
  5
3CC
330
1
100
AcDbSymbolTableRecord
100
AcDbBlockTableRecord
  2
block 125
340
0
102
{BLKREFS
331
3CD
102
}
 70
     0
280
     1
281
     0
  0
BLOCK_RECORD
  5
3D4
330
1
100
AcDbSymbolTableRecord
100
AcDbBlockTableRecord
  2
block 126
340
0
102
{BLKREFS
331
3D5
102
}
 70
     0
280
     1
281
     0
  0
BLOCK_RECORD
  5
3DC
330
1
100
AcDbSymbolTableRecord
100
AcDbBlockTableRecord
  2
block 127
340
0
102
{BLKREFS
331
3DD
102
}
 70
     0
280
     1
281
     0
  0
BLOCK_RECORD
  5
3E4
330
1
100
AcDbSymbolTableRecord
100
AcDbBlockTableRecord
  2
block 128
340
0
102
{BLKREFS
331
3E5
102
}
 70
     0
280
     1
281
     0
  0
BLOCK_RECORD
  5
3EC
330
1
100
AcDbSymbolTableRecord
100
AcDbBlockTableRecord
  2
block 129
340
0
102
{BLKREFS
331
3ED
102
}
 70
     0
280
     1
281
     0
  0
BLOCK_RECORD
  5
3F4
330
1
100
AcDbSymbolTableRecord
100
AcDbBlockTableRecord
  2
block 130
340
0
102
{BLKREFS
331
3F5
102
}
 70
     0
280
     1
281
     0
  0
BLOCK_RECORD
  5
3FC
330
1
100
AcDbSymbolTableRecord
100
AcDbBlockTableRecord
  2
block 131
340
0
102
{BLKREFS
331
3FD
102
}
 70
     0
280
     1
281
     0
  0
BLOCK_RECORD
  5
404
330
1
100
AcDbSymbolTableRecord
100
AcDbBlockTableRecord
  2
block 132
340
0
102
{BLKREFS
331
405
102
}
 70
     0
280
     1
281
     0
  0
BLOCK_RECORD
  5
40C
330
1
100
AcDbSymbolTableRecord
100
AcDbBlockTableRecord
  2
block 133
340
0
102
{BLKREFS
331
40D
102
}
 70
     0
280
     1
281
     0
  0
BLOCK_RECORD
  5
414
330
1
100
AcDbSymbolTableRecord
100
AcDbBlockTableRecord
  2
block 134
340
0
102
{BLKREFS
331
415
102
}
 70
     0
280
     1
281
     0
  0
BLOCK_RECORD
  5
41C
330
1
100
AcDbSymbolTableRecord
100
AcDbBlockTableRecord
  2
block 135
340
0
102
{BLKREFS
331
41D
102
}
 70
     0
280
     1
281
     0
  0
BLOCK_RECORD
  5
424
330
1
100
AcDbSymbolTableRecord
100
AcDbBlockTableRecord
  2
block 136
340
0
102
{BLKREFS
331
425
102
}
 70
     0
280
     1
281
     0
  0
BLOCK_RECORD
  5
42C
330
1
100
AcDbSymbolTableRecord
100
AcDbBlockTableRecord
  2
block 137
340
0
102
{BLKREFS
331
42D
102
}
 70
     0
280
     1
281
     0
  0
ENDTAB
  0
ENDSEC
  0
SECTION
  2
BLOCKS
  0
BLOCK
  5
20
330
1F
100
AcDbEntity
  8
0
100
AcDbBlockBegin
  2
*Model_Space
 70
     0
 10
0.0
 20
0.0
 30
0.0
  3
*Model_Space
  1

  0
ENDBLK
  5
21
330
1F
100
AcDbEntity
  8
0
100
AcDbBlockEnd
  0
BLOCK
  5
1C
330
1B
100
AcDbEntity
 67
     1
  8
0
100
AcDbBlockBegin
  2
*Paper_Space
 70
     0
 10
0.0
 20
0.0
 30
0.0
  3
*Paper_Space
  1

  0
ENDBLK
  5
1D
330
1B
100
AcDbEntity
 67
     1
  8
0
100
AcDbBlockEnd
  0
BLOCK
  5
24
330
23
100
AcDbEntity
  8
0
100
AcDbBlockBegin
  2
*Paper_Space0
 70
     0
 10
0.0
 20
0.0
 30
0.0
  3
*Paper_Space0
  1

  0
ENDBLK
  5
25
330
23
100
AcDbEntity
  8
0
100
AcDbBlockEnd
  0
BLOCK
  5
42
330
40
100
AcDbEntity
  8
0
100
AcDbBlockBegin
  2
block 2
 70
     0
 10
0.0
 20
0.0
 30
0.0
  3
block 2
  1

  0
MTEXT
  5
44
330
40
100
AcDbEntity
  8
0
 62
     7
420
 16777215
100
AcDbMText
 10
-6433.96484375
 20
-4361.244140625
 30
0.0
 40
16.97288639831543
 41
0.0
 46
0.0
 71
     7
 72
     1
  1
\fMyriad Pro|b0|i0|c0|p34;\W1; 
 73
     1
 44
1.0
  0
ENDBLK
  5
43
330
40
100
AcDbEntity
  8
0
100
AcDbBlockEnd
  0
BLOCK
  5
47
330
45
100
AcDbEntity
  8
0
100
AcDbBlockBegin
  2
block 3
 70
     0
 10
0.0
 20
0.0
 30
0.0
  3
block 3
  1

  0
SPLINE
  5
49
330
45
100
AcDbEntity
  8
0
 62
     7
420
 16777215
370
    25
100
AcDbSpline
210
0.0
220
0.0
230
1.0
 70
    11
 71
     3
 72
    20
 73
    16
 74
     0
 42
0.0000000001
 43
0.0000000001
 12
1.0
 22
0.0
 32
0.0
 13
1.0
 23
0.0
 33
0.0
 40
0.0
 40
0.0
 40
0.0
 40
0.0
 40
1.0
 40
1.0
 40
1.0
 40
2.0
 40
2.0
 40
2.0
 40
3.0
 40
3.0
 40
3.0
 40
4.0
 40
4.0
 40
4.0
 40
5.0
 40
5.0
 40
5.0
 40
5.0
 10
200.359167407888
 20
429.2394121927482
 30
0.0
 10
200.359167407888
 20
466.7348785406348
 30
0.0
 10
230.7552485984297
 20
497.1309597311765
 30
0.0
 10
268.2507149463163
 20
497.1309597311765
 30
0.0
 10
305.7461812942029
 20
497.1309597311765
 30
0.0
 10
336.1422624847437
 20
466.7348785406348
 30
0.0
 10
336.1422624847437
 20
429.2394121927482
 30
0.0
 10
336.1422624847437
 20
391.7439458448625
 30
0.0
 10
305.7461812942029
 20
361.347864654319
 30
0.0
 10
268.2507149463163
 20
361.347864654319
 30
0.0
 10
230.7552485984297
 20
361.347864654319
 30
0.0
 10
200.359167407888
 20
391.7439458448625
 30
0.0
 10
200.359167407888
 20
429.2394121927482
 30
0.0
 10
200.359167407888
 20
429.2394121927482
 30
0.0
 10
200.359167407888
 20
429.2394121927482
 30
0.0
 10
200.359167407888
 20
429.2394121927482
 30
0.0
  0
ENDBLK
  5
48
330
45
100
AcDbEntity
  8
0
100
AcDbBlockEnd
  0
BLOCK
  5
4C
330
4A
100
AcDbEntity
  8
0
100
AcDbBlockBegin
  2
block 4
 70
     0
 10
0.0
 20
0.0
 30
0.0
  3
block 4
  1

  0
SPLINE
  5
4E
330
4A
100
AcDbEntity
  8
0
 62
     7
420
 16777215
370
    25
100
AcDbSpline
210
0.0
220
0.0
230
1.0
 70
    11
 71
     3
 72
    53
 73
    49
 74
     0
 42
0.0000000001
 43
0.0000000001
 12
1.0
 22
0.0
 32
0.0
 13
1.0
 23
0.0
 33
0.0
 40
0.0
 40
0.0
 40
0.0
 40
0.0
 40
1.0
 40
1.0
 40
1.0
 40
2.0
 40
2.0
 40
2.0
 40
3.0
 40
3.0
 40
3.0
 40
4.0
 40
4.0
 40
4.0
 40
5.0
 40
5.0
 40
5.0
 40
6.0
 40
6.0
 40
6.0
 40
7.0
 40
7.0
 40
7.0
 40
8.0
 40
8.0
 40
8.0
 40
9.0
 40
9.0
 40
9.0
 40
10.0
 40
10.0
 40
10.0
 40
11.0
 40
11.0
 40
11.0
 40
12.0
 40
12.0
 40
12.0
 40
13.0
 40
13.0
 40
13.0
 40
14.0
 40
14.0
 40
14.0
 40
15.0
 40
15.0
 40
15.0
 40
16.0
 40
16.0
 40
16.0
 40
16.0
 10
216.0677936832672
 20
432.2945318319771
 30
0.0
 10
216.0677936832672
 20
432.2945318319771
 30
0.0
 10
218.5963149017261
 20
432.2945318319762
 30
0.0
 10
218.5963149017261
 20
432.2945318319762
 30
0.0
 10
218.6258552205936
 20
432.3273292251924
 30
0.0
 10
218.6570878500479
 20
432.3585618546467
 30
0.0
 10
218.6898852432641
 20
432.3881021735142
 30
0.0
 10
219.2102560452804
 20
432.856795502863
 30
0.0
 10
220.0120509439139
 20
432.8149026339934
 30
0.0
 10
220.4807442732626
 20
432.2945318319771
 30
0.0
 10
220.9494376026114
 20
431.7741610299609
 30
0.0
 10
220.9075447337418
 20
430.9723661313274
 30
0.0
 10
220.3871739317256
 20
430.5036728019786
 30
0.0
 10
220.3871739317237
 20
430.5036728019786
 30
0.0
 10
220.3871739317237
 20
427.975151583516
 30
0.0
 10
220.3871739317237
 20
427.975151583516
 30
0.0
 10
220.4199713385406
 20
427.9456112515145
 30
0.0
 10
220.4512039675292
 20
427.9143786215955
 30
0.0
 10
220.4807442859064
 20
427.881581227939
 30
0.0
 10
220.9494376075008
 20
427.3612104189397
 30
0.0
 10
220.9075447266841
 20
426.5594155209319
 30
0.0
 10
220.3871739176848
 20
426.0907221993375
 30
0.0
 10
219.8668031086854
 20
425.6220288777431
 30
0.0
 10
219.0650082106777
 20
425.6639217585598
 30
0.0
 10
218.5963148890833
 20
426.1842925675592
 30
0.0
 10
218.596314901728
 20
426.1842925535184
 30
0.0
 10
216.0677936832672
 20
426.1842925535184
 30
0.0
 10
216.0677936832672
 20
426.1842925535184
 30
0.0
 10
216.0382533644006
 20
426.1514951603021
 30
0.0
 10
216.0070207349463
 20
426.1202625308479
 30
0.0
 10
215.9742233417301
 20
426.0907222119804
 30
0.0
 10
215.4538525397147
 20
425.6220288826316
 30
0.0
 10
214.6520576410803
 20
425.6639217515003
 30
0.0
 10
214.1833643117307
 20
426.1842925535166
 30
0.0
 10
213.7146709823819
 20
426.7046633555319
 30
0.0
 10
213.7565638512506
 20
427.5064582541663
 30
0.0
 10
214.2769346532668
 20
427.975151583516
 30
0.0
 10
214.2769346532659
 20
427.975151583516
 30
0.0
 10
214.2769346532659
 20
430.5036728019786
 30
0.0
 10
214.2769346532659
 20
430.5036728019786
 30
0.0
 10
214.24413724645
 20
430.5332131339801
 30
0.0
 10
214.2129046174614
 20
430.5644457638991
 30
0.0
 10
214.1833642990832
 20
430.5972431575556
 30
0.0
 10
213.7146709774888
 20
431.1176139665567
 30
0.0
 10
213.7565638583073
 20
431.9194088645672
 30
0.0
 10
214.2769346673085
 20
432.3881021861616
 30
0.0
 10
214.7973054763088
 20
432.856795507756
 30
0.0
 10
215.5991003743193
 20
432.8149026269375
 30
0.0
 10
216.0677936832672
 20
432.2945318319771
 30
0.0
  0
ENDBLK
  5
4D
330
4A
100
AcDbEntity
  8
0
100
AcDbBlockEnd
  0
BLOCK
  5
51
330
4F
100
AcDbEntity
  8
0
100
AcDbBlockBegin
  2
block 5
 70
     0
 10
0.0
 20
0.0
 30
0.0
  3
block 5
  1

  0
SPLINE
  5
53
330
4F
100
AcDbEntity
  8
0
 62
     7
420
 16777215
370
    25
100
AcDbSpline
210
0.0
220
0.0
230
1.0
 70
    11
 71
     3
 72
    53
 73
    49
 74
     0
 42
0.0000000001
 43
0.0000000001
 12
1.0
 22
0.0
 32
0.0
 13
1.0
 23
0.0
 33
0.0
 40
0.0
 40
0.0
 40
0.0
 40
0.0
 40
1.0
 40
1.0
 40
1.0
 40
2.0
 40
2.0
 40
2.0
 40
3.0
 40
3.0
 40
3.0
 40
4.0
 40
4.0
 40
4.0
 40
5.0
 40
5.0
 40
5.0
 40
6.0
 40
6.0
 40
6.0
 40
7.0
 40
7.0
 40
7.0
 40
8.0
 40
8.0
 40
8.0
 40
9.0
 40
9.0
 40
9.0
 40
10.0
 40
10.0
 40
10.0
 40
11.0
 40
11.0
 40
11.0
 40
12.0
 40
12.0
 40
12.0
 40
13.0
 40
13.0
 40
13.0
 40
14.0
 40
14.0
 40
14.0
 40
15.0
 40
15.0
 40
15.0
 40
16.0
 40
16.0
 40
16.0
 40
16.0
 10
296.3324868974378
 20
475.3499467601914
 30
0.0
 10
296.3324868974378
 20
475.3499467601914
 30
0.0
 10
294.1427232882425
 20
476.6142073694218
 30
0.0
 10
294.1427232882425
 20
476.6142073694218
 30
0.0
 10
293.9970083594517
 20
477.299208368031
 30
0.0
 10
293.3235800430448
 20
477.7363861060267
 30
0.0
 10
292.6385790444365
 20
477.5906711772341
 30
0.0
 10
291.9535780458282
 20
477.4449562484415
 30
0.0
 10
291.5164003078326
 20
476.7715279320346
 30
0.0
 10
291.6621152366251
 20
476.0865269334263
 30
0.0
 10
291.6712992065914
 20
476.0433533982905
 30
0.0
 10
291.6827311423986
 20
476.000688833029
 30
0.0
 10
291.6963643586687
 20
475.9587074698466
 30
0.0
 10
291.6963643586678
 20
475.9587074698466
 30
0.0
 10
290.4321037494419
 20
473.7689438606512
 30
0.0
 10
290.4321037494419
 20
473.7689438606512
 30
0.0
 10
289.7471027508327
 20
473.6232289318623
 30
0.0
 10
289.3099250128344
 20
472.9498006154572
 30
0.0
 10
289.4556399416242
 20
472.2647996168489
 30
0.0
 10
289.6013548704132
 20
471.5797986182406
 30
0.0
 10
290.2747831868182
 20
471.1426208802422
 30
0.0
 10
290.9597841854265
 20
471.2883358090321
 30
0.0
 10
291.0029577205651
 20
471.2975197789983
 30
0.0
 10
291.0456222858284
 20
471.3089517148064
 30
0.0
 10
291.0876036490135
 20
471.3225849310766
 30
0.0
 10
291.0876036490135
 20
471.3225849310766
 30
0.0
 10
293.2773672582089
 20
470.0583243218407
 30
0.0
 10
293.2773672582089
 20
470.0583243218407
 30
0.0
 10
293.4230821870033
 20
469.3733233232324
 30
0.0
 10
294.0965105034129
 20
468.9361455852404
 30
0.0
 10
294.7815115020203
 20
469.0818605140357
 30
0.0
 10
295.4665125006286
 20
469.227575442831
 30
0.0
 10
295.9036902386206
 20
469.9010037592407
 30
0.0
 10
295.7579753098253
 20
470.5860047578481
 30
0.0
 10
295.7487913398591
 20
470.629178292982
 30
0.0
 10
295.7373594040528
 20
470.6718428582408
 30
0.0
 10
295.7237261877835
 20
470.7138242214214
 30
0.0
 10
295.7237261877854
 20
470.7138242214214
 30
0.0
 10
296.9879867970139
 20
472.9035878306167
 30
0.0
 10
296.9879867970139
 20
472.9035878306167
 30
0.0
 10
297.6729877956204
 20
473.0493027594093
 30
0.0
 10
298.1101655336151
 20
473.7227310758162
 30
0.0
 10
297.9644506048226
 20
474.4077320744236
 30
0.0
 10
297.81873567603
 20
475.0927330730319
 30
0.0
 10
297.1453073596231
 20
475.5299108110266
 30
0.0
 10
296.4603063610157
 20
475.3841958822341
 30
0.0
 10
296.4171328258799
 20
475.3750119122678
 30
0.0
 10
296.3744682606193
 20
475.3635799764606
 30
0.0
 10
296.3324868974378
 20
475.3499467601914
 30
0.0
  0
ENDBLK
  5
52
330
4F
100
AcDbEntity
  8
0
100
AcDbBlockEnd
  0
BLOCK
  5
56
330
54
100
AcDbEntity
  8
0
100
AcDbBlockBegin
  2
block 6
 70
     0
 10
0.0
 20
0.0
 30
0.0
  3
block 6
  1

  0
SPLINE
  5
58
330
54
100
AcDbEntity
  8
0
 62
     7
420
 16777215
370
    25
100
AcDbSpline
210
0.0
220
0.0
230
1.0
 70
    11
 71
     3
 72
    53
 73
    49
 74
     0
 42
0.0000000001
 43
0.0000000001
 12
1.0
 22
0.0
 32
0.0
 13
1.0
 23
0.0
 33
0.0
 40
0.0
 40
0.0
 40
0.0
 40
0.0
 40
1.0
 40
1.0
 40
1.0
 40
2.0
 40
2.0
 40
2.0
 40
3.0
 40
3.0
 40
3.0
 40
4.0
 40
4.0
 40
4.0
 40
5.0
 40
5.0
 40
5.0
 40
6.0
 40
6.0
 40
6.0
 40
7.0
 40
7.0
 40
7.0
 40
8.0
 40
8.0
 40
8.0
 40
9.0
 40
9.0
 40
9.0
 40
10.0
 40
10.0
 40
10.0
 40
11.0
 40
11.0
 40
11.0
 40
12.0
 40
12.0
 40
12.0
 40
13.0
 40
13.0
 40
13.0
 40
14.0
 40
14.0
 40
14.0
 40
15.0
 40
15.0
 40
15.0
 40
16.0
 40
16.0
 40
16.0
 40
16.0
 10
294.1427232882397
 20
381.86461701607
 30
0.0
 10
294.1427232882397
 20
381.86461701607
 30
0.0
 10
296.3324868974378
 20
383.1288776253004
 30
0.0
 10
296.3324868974378
 20
383.1288776253004
 30
0.0
 10
296.9985726282466
 20
382.9125699560409
 30
0.0
 10
297.713893813524
 20
383.2771871166769
 30
0.0
 10
297.9302014827845
 20
383.9432728474858
 30
0.0
 10
298.1465091520458
 20
384.6093585782946
 30
0.0
 10
297.7818919914089
 20
385.3246797635711
 30
0.0
 10
297.1158062606
 20
385.5409874328325
 30
0.0
 10
297.0738248974158
 20
385.5546206491017
 30
0.0
 10
297.0311603321516
 20
385.5660525849107
 30
0.0
 10
296.987986797013
 20
385.575236554876
 30
0.0
 10
296.9879867970121
 20
385.575236554876
 30
0.0
 10
295.7237261877817
 20
387.7650001640704
 30
0.0
 10
295.7237261877817
 20
387.7650001640704
 30
0.0
 10
295.9400338570413
 20
388.4310858948793
 30
0.0
 10
295.5754166964052
 20
389.1464070801558
 30
0.0
 10
294.9093309655973
 20
389.3627147494171
 30
0.0
 10
294.2432452347894
 20
389.5790224186767
 30
0.0
 10
293.5279240495129
 20
389.2144052580406
 30
0.0
 10
293.3116163802524
 20
388.5483195272336
 30
0.0
 10
293.2979831639823
 20
388.5063381640484
 30
0.0
 10
293.2865512281742
 20
388.463673598786
 30
0.0
 10
293.277367258208
 20
388.4205000636484
 30
0.0
 10
293.2773672582098
 20
388.4205000636484
 30
0.0
 10
291.0876036490145
 20
387.156239454418
 30
0.0
 10
291.0876036490145
 20
387.156239454418
 30
0.0
 10
290.4215179182047
 20
387.3725471236758
 30
0.0
 10
289.7061967329282
 20
387.0079299630379
 30
0.0
 10
289.4898890636696
 20
386.3418442322291
 30
0.0
 10
289.2735813944109
 20
385.6757585014202
 30
0.0
 10
289.6381985550497
 20
384.9604373161437
 30
0.0
 10
290.3042842858576
 20
384.7441296468842
 30
0.0
 10
290.3462656490401
 20
384.7304964306149
 30
0.0
 10
290.3889302143007
 20
384.7190644948078
 30
0.0
 10
290.4321037494365
 20
384.7098805248424
 30
0.0
 10
290.4321037494374
 20
384.7098805248424
 30
0.0
 10
291.6963643586678
 20
382.520116915648
 30
0.0
 10
291.6963643586678
 20
382.520116915648
 30
0.0
 10
291.4800566894082
 20
381.8540311848392
 30
0.0
 10
291.8446738500443
 20
381.1387099995627
 30
0.0
 10
292.5107595808522
 20
380.9224023303013
 30
0.0
 10
293.1768453116601
 20
380.7060946610418
 30
0.0
 10
293.8921664969366
 20
381.0707118216778
 30
0.0
 10
294.1084741661971
 20
381.7367975524867
 30
0.0
 10
294.1221073824672
 20
381.77877891567
 30
0.0
 10
294.1335393182753
 20
381.8214434809324
 30
0.0
 10
294.1427232882397
 20
381.86461701607
 30
0.0
  0
ENDBLK
  5
57
330
54
100
AcDbEntity
  8
0
100
AcDbBlockEnd
  0
BLOCK
  5
5B
330
59
100
AcDbEntity
  8
0
100
AcDbBlockBegin
  2
block 7
 70
     0
 10
0.0
 20
0.0
 30
0.0
  3
block 7
  1

  0
SPLINE
  5
5D
330
59
100
AcDbEntity
  8
0
 62
     7
420
 16777215
370
    25
100
AcDbSpline
210
0.0
220
0.0
230
1.0
 70
    11
 71
     3
 72
    53
 73
    49
 74
     0
 42
0.0000000001
 43
0.0000000001
 12
1.0
 22
0.0
 32
0.0
 13
1.0
 23
0.0
 33
0.0
 40
0.0
 40
0.0
 40
0.0
 40
0.0
 40
1.0
 40
1.0
 40
1.0
 40
2.0
 40
2.0
 40
2.0
 40
3.0
 40
3.0
 40
3.0
 40
4.0
 40
4.0
 40
4.0
 40
5.0
 40
5.0
 40
5.0
 40
6.0
 40
6.0
 40
6.0
 40
7.0
 40
7.0
 40
7.0
 40
8.0
 40
8.0
 40
8.0
 40
9.0
 40
9.0
 40
9.0
 40
10.0
 40
10.0
 40
10.0
 40
11.0
 40
11.0
 40
11.0
 40
12.0
 40
12.0
 40
12.0
 40
13.0
 40
13.0
 40
13.0
 40
14.0
 40
14.0
 40
14.0
 40
15.0
 40
15.0
 40
15.0
 40
16.0
 40
16.0
 40
16.0
 40
16.0
 10
474.28526189896
 20
427.975151583516
 30
0.0
 10
474.28526189896
 20
427.975151583516
 30
0.0
 10
474.28526189896
 20
430.5036728019786
 30
0.0
 10
474.28526189896
 20
430.5036728019786
 30
0.0
 10
474.2524645057456
 20
430.5332131208452
 30
0.0
 10
474.2212318762922
 20
430.5644457502995
 30
0.0
 10
474.1916915574257
 20
430.5972431435166
 30
0.0
 10
473.7229982280769
 20
431.1176139455329
 30
0.0
 10
473.7648910969474
 20
431.9194088441673
 30
0.0
 10
474.2852618989637
 20
432.388102173516
 30
0.0
 10
474.8056327009817
 20
432.8567955028639
 30
0.0
 10
475.6074275996143
 20
432.8149026339934
 30
0.0
 10
476.0761209289631
 20
432.2945318319762
 30
0.0
 10
476.0761209289612
 20
432.2945318319762
 30
0.0
 10
478.6046421474202
 20
432.2945318319753
 30
0.0
 10
478.6046421474202
 20
432.2945318319753
 30
0.0
 10
478.6341824662886
 20
432.3273292251915
 30
0.0
 10
478.665415095742
 20
432.3585618546458
 30
0.0
 10
478.6982124889582
 20
432.3881021735124
 30
0.0
 10
479.2185832909745
 20
432.8567955028611
 30
0.0
 10
480.0203781896071
 20
432.8149026339916
 30
0.0
 10
480.4890715189558
 20
432.2945318319762
 30
0.0
 10
480.9577648483046
 20
431.7741610299599
 30
0.0
 10
480.9158719794359
 20
430.9723661313274
 30
0.0
 10
480.3955011774196
 20
430.5036728019786
 30
0.0
 10
480.3955011774196
 20
430.5036728019786
 30
0.0
 10
480.3955011774196
 20
427.9751515835151
 30
0.0
 10
480.3955011774196
 20
427.9751515835151
 30
0.0
 10
480.4282985842347
 20
427.9456112515127
 30
0.0
 10
480.4595312132224
 20
427.9143786215936
 30
0.0
 10
480.4890715316014
 20
427.8815812279372
 30
0.0
 10
480.9577648531958
 20
427.3612104189369
 30
0.0
 10
480.9158719723782
 20
426.5594155209283
 30
0.0
 10
480.3955011633789
 20
426.0907221993348
 30
0.0
 10
479.8751303543795
 20
425.6220288777404
 30
0.0
 10
479.0733354563708
 20
425.663921758558
 30
0.0
 10
478.6046421347764
 20
426.1842925675573
 30
0.0
 10
478.6046421474239
 20
426.1842925535184
 30
0.0
 10
476.0761209289631
 20
426.1842925535184
 30
0.0
 10
476.0761209289631
 20
426.1842925535184
 30
0.0
 10
476.0465806100965
 20
426.1514951603012
 30
0.0
 10
476.0153479806431
 20
426.120262530847
 30
0.0
 10
475.9825505874269
 20
426.0907222119804
 30
0.0
 10
475.4621797854106
 20
425.6220288826307
 30
0.0
 10
474.6603848867762
 20
425.6639217515003
 30
0.0
 10
474.1916915574257
 20
426.1842925535166
 30
0.0
 10
473.7229982280769
 20
426.7046633555328
 30
0.0
 10
473.7648910969456
 20
427.5064582541663
 30
0.0
 10
474.28526189896
 20
427.975151583516
 30
0.0
  0
ENDBLK
  5
5C
330
59
100
AcDbEntity
  8
0
100
AcDbBlockEnd
  0
BLOCK
  5
60
330
5E
100
AcDbEntity
  8
0
100
AcDbBlockBegin
  2
block 8
 70
     0
 10
0.0
 20
0.0
 30
0.0
  3
block 8
  1

  0
SPLINE
  5
62
330
5E
100
AcDbEntity
  8
0
 62
     7
420
 16777215
370
    25
100
AcDbSpline
210
0.0
220
0.0
230
1.0
 70
    11
 71
     3
 72
    53
 73
    49
 74
     0
 42
0.0000000001
 43
0.0000000001
 12
1.0
 22
0.0
 32
0.0
 13
1.0
 23
0.0
 33
0.0
 40
0.0
 40
0.0
 40
0.0
 40
0.0
 40
1.0
 40
1.0
 40
1.0
 40
2.0
 40
2.0
 40
2.0
 40
3.0
 40
3.0
 40
3.0
 40
4.0
 40
4.0
 40
4.0
 40
5.0
 40
5.0
 40
5.0
 40
6.0
 40
6.0
 40
6.0
 40
7.0
 40
7.0
 40
7.0
 40
8.0
 40
8.0
 40
8.0
 40
9.0
 40
9.0
 40
9.0
 40
10.0
 40
10.0
 40
10.0
 40
11.0
 40
11.0
 40
11.0
 40
12.0
 40
12.0
 40
12.0
 40
13.0
 40
13.0
 40
13.0
 40
14.0
 40
14.0
 40
14.0
 40
15.0
 40
15.0
 40
15.0
 40
16.0
 40
16.0
 40
16.0
 40
16.0
 10
556.3408141431337
 20
475.3499467601914
 30
0.0
 10
556.3408141431337
 20
475.3499467601914
 30
0.0
 10
554.1510505339393
 20
476.6142073694218
 30
0.0
 10
554.1510505339393
 20
476.6142073694218
 30
0.0
 10
554.0053356051467
 20
477.299208368031
 30
0.0
 10
553.3319072887389
 20
477.7363861060267
 30
0.0
 10
552.6469062901306
 20
477.5906711772341
 30
0.0
 10
551.9619052915223
 20
477.4449562484415
 30
0.0
 10
551.5247275535276
 20
476.7715279320346
 30
0.0
 10
551.6704424823201
 20
476.0865269334263
 30
0.0
 10
551.6796264522854
 20
476.0433533982905
 30
0.0
 10
551.6910583880926
 20
476.000688833029
 30
0.0
 10
551.7046916043619
 20
475.9587074698466
 30
0.0
 10
551.7046916043619
 20
475.9587074698466
 30
0.0
 10
550.4404309951369
 20
473.7689438606512
 30
0.0
 10
550.4404309951369
 20
473.7689438606512
 30
0.0
 10
549.7554299965268
 20
473.6232289318623
 30
0.0
 10
549.3182522585284
 20
472.9498006154572
 30
0.0
 10
549.4639671873174
 20
472.2647996168489
 30
0.0
 10
549.6096821161082
 20
471.5797986182406
 30
0.0
 10
550.2831104325123
 20
471.1426208802422
 30
0.0
 10
550.9681114311206
 20
471.2883358090321
 30
0.0
 10
551.0112849662601
 20
471.2975197789983
 30
0.0
 10
551.0539495315224
 20
471.3089517148064
 30
0.0
 10
551.0959308947076
 20
471.3225849310766
 30
0.0
 10
551.0959308947076
 20
471.3225849310766
 30
0.0
 10
553.285694503902
 20
470.0583243218407
 30
0.0
 10
553.285694503902
 20
470.0583243218407
 30
0.0
 10
553.4314094327019
 20
469.3733233232333
 30
0.0
 10
554.1048377491115
 20
468.9361455852422
 30
0.0
 10
554.789838747718
 20
469.0818605140394
 30
0.0
 10
555.4748397463263
 20
469.2275754428356
 30
0.0
 10
555.9120174843174
 20
469.9010037592461
 30
0.0
 10
555.7663025555212
 20
470.5860047578535
 30
0.0
 10
555.757118585554
 20
470.6291782929857
 30
0.0
 10
555.7456866497487
 20
470.6718428582426
 30
0.0
 10
555.7320534334795
 20
470.7138242214214
 30
0.0
 10
555.7320534334795
 20
470.7138242214214
 30
0.0
 10
556.996314042708
 20
472.9035878306167
 30
0.0
 10
556.996314042708
 20
472.9035878306167
 30
0.0
 10
557.6813150413145
 20
473.0493027594093
 30
0.0
 10
558.1184927793092
 20
473.7227310758162
 30
0.0
 10
557.9727778505166
 20
474.4077320744236
 30
0.0
 10
557.8270629217241
 20
475.0927330730319
 30
0.0
 10
557.1536346053181
 20
475.5299108110266
 30
0.0
 10
556.4686336067098
 20
475.3841958822341
 30
0.0
 10
556.425460071574
 20
475.3750119122678
 30
0.0
 10
556.3827955063134
 20
475.3635799764606
 30
0.0
 10
556.3408141431337
 20
475.3499467601914
 30
0.0
  0
ENDBLK
  5
61
330
5E
100
AcDbEntity
  8
0
100
AcDbBlockEnd
  0
BLOCK
  5
65
330
63
100
AcDbEntity
  8
0
100
AcDbBlockBegin
  2
block 9
 70
     0
 10
0.0
 20
0.0
 30
0.0
  3
block 9
  1

  0
SPLINE
  5
67
330
63
100
AcDbEntity
  8
0
 62
     7
420
 16777215
370
    25
100
AcDbSpline
210
0.0
220
0.0
230
1.0
 70
    11
 71
     3
 72
    53
 73
    49
 74
     0
 42
0.0000000001
 43
0.0000000001
 12
1.0
 22
0.0
 32
0.0
 13
1.0
 23
0.0
 33
0.0
 40
0.0
 40
0.0
 40
0.0
 40
0.0
 40
1.0
 40
1.0
 40
1.0
 40
2.0
 40
2.0
 40
2.0
 40
3.0
 40
3.0
 40
3.0
 40
4.0
 40
4.0
 40
4.0
 40
5.0
 40
5.0
 40
5.0
 40
6.0
 40
6.0
 40
6.0
 40
7.0
 40
7.0
 40
7.0
 40
8.0
 40
8.0
 40
8.0
 40
9.0
 40
9.0
 40
9.0
 40
10.0
 40
10.0
 40
10.0
 40
11.0
 40
11.0
 40
11.0
 40
12.0
 40
12.0
 40
12.0
 40
13.0
 40
13.0
 40
13.0
 40
14.0
 40
14.0
 40
14.0
 40
15.0
 40
15.0
 40
15.0
 40
16.0
 40
16.0
 40
16.0
 40
16.0
 10
554.1510505339356
 20
381.86461701607
 30
0.0
 10
554.1510505339356
 20
381.86461701607
 30
0.0
 10
556.3408141431337
 20
383.1288776253004
 30
0.0
 10
556.3408141431337
 20
383.1288776253004
 30
0.0
 10
557.0068998739407
 20
382.9125699560409
 30
0.0
 10
557.722221059219
 20
383.2771871166769
 30
0.0
 10
557.9385287284786
 20
383.9432728474858
 30
0.0
 10
558.1548363977399
 20
384.6093585782946
 30
0.0
 10
557.7902192371021
 20
385.3246797635711
 30
0.0
 10
557.124133506295
 20
385.5409874328325
 30
0.0
 10
557.0821521431099
 20
385.5546206491017
 30
0.0
 10
557.0394875778456
 20
385.5660525849107
 30
0.0
 10
556.9963140427062
 20
385.575236554876
 30
0.0
 10
556.996314042708
 20
385.575236554876
 30
0.0
 10
555.7320534334776
 20
387.7650001640704
 30
0.0
 10
555.7320534334776
 20
387.7650001640704
 30
0.0
 10
555.9483611027372
 20
388.4310858948793
 30
0.0
 10
555.5837439421011
 20
389.1464070801558
 30
0.0
 10
554.9176582112941
 20
389.3627147494171
 30
0.0
 10
554.2515724804853
 20
389.5790224186767
 30
0.0
 10
553.5362512952088
 20
389.2144052580406
 30
0.0
 10
553.3199436259474
 20
388.5483195272318
 30
0.0
 10
553.3063104096782
 20
388.5063381640484
 30
0.0
 10
553.294878473871
 20
388.463673598786
 30
0.0
 10
553.2856945039039
 20
388.4205000636484
 30
0.0
 10
553.2856945039039
 20
388.4205000636484
 30
0.0
 10
551.0959308947095
 20
387.156239454418
 30
0.0
 10
551.0959308947095
 20
387.156239454418
 30
0.0
 10
550.4298451638988
 20
387.3725471236758
 30
0.0
 10
549.7145239786223
 20
387.0079299630379
 30
0.0
 10
549.4982163093628
 20
386.3418442322291
 30
0.0
 10
549.281908640105
 20
385.6757585014202
 30
0.0
 10
549.6465258007429
 20
384.9604373161437
 30
0.0
 10
550.3126115315517
 20
384.7441296468842
 30
0.0
 10
550.3545928947333
 20
384.7304964306149
 30
0.0
 10
550.3972574599939
 20
384.7190644948078
 30
0.0
 10
550.4404309951296
 20
384.7098805248424
 30
0.0
 10
550.4404309951315
 20
384.7098805248424
 30
0.0
 10
551.7046916043619
 20
382.520116915648
 30
0.0
 10
551.7046916043619
 20
382.520116915648
 30
0.0
 10
551.4883839351023
 20
381.8540311848392
 30
0.0
 10
551.8530010957384
 20
381.1387099995627
 30
0.0
 10
552.5190868265472
 20
380.9224023303013
 30
0.0
 10
553.1851725573542
 20
380.7060946610418
 30
0.0
 10
553.9004937426307
 20
381.0707118216778
 30
0.0
 10
554.1168014118921
 20
381.7367975524867
 30
0.0
 10
554.1304346281613
 20
381.77877891567
 30
0.0
 10
554.1418665639685
 20
381.8214434809324
 30
0.0
 10
554.1510505339356
 20
381.86461701607
 30
0.0
  0
ENDBLK
  5
66
330
63
100
AcDbEntity
  8
0
100
AcDbBlockEnd
  0
BLOCK
  5
6A
330
68
100
AcDbEntity
  8
0
100
AcDbBlockBegin
  2
block 10
 70
     0
 10
0.0
 20
0.0
 30
0.0
  3
block 10
  1

  0
SPLINE
  5
6C
330
68
100
AcDbEntity
  8
0
 62
     7
420
 16777215
370
    25
100
AcDbSpline
210
0.0
220
0.0
230
1.0
 70
    11
 71
     3
 72
    53
 73
    49
 74
     0
 42
0.0000000001
 43
0.0000000001
 12
1.0
 22
0.0
 32
0.0
 13
1.0
 23
0.0
 33
0.0
 40
0.0
 40
0.0
 40
0.0
 40
0.0
 40
1.0
 40
1.0
 40
1.0
 40
2.0
 40
2.0
 40
2.0
 40
3.0
 40
3.0
 40
3.0
 40
4.0
 40
4.0
 40
4.0
 40
5.0
 40
5.0
 40
5.0
 40
6.0
 40
6.0
 40
6.0
 40
7.0
 40
7.0
 40
7.0
 40
8.0
 40
8.0
 40
8.0
 40
9.0
 40
9.0
 40
9.0
 40
10.0
 40
10.0
 40
10.0
 40
11.0
 40
11.0
 40
11.0
 40
12.0
 40
12.0
 40
12.0
 40
13.0
 40
13.0
 40
13.0
 40
14.0
 40
14.0
 40
14.0
 40
15.0
 40
15.0
 40
15.0
 40
16.0
 40
16.0
 40
16.0
 40
16.0
 10
226.0269708106389
 20
234.9125935328339
 30
0.0
 10
226.0269708106389
 20
234.9125935328339
 30
0.0
 10
228.5554920290997
 20
234.9125935328339
 30
0.0
 10
228.5554920290997
 20
234.9125935328339
 30
0.0
 10
228.5850323479672
 20
234.9453909260501
 30
0.0
 10
228.6162649774215
 20
234.9766235555035
 30
0.0
 10
228.6490623706377
 20
235.0061638743719
 30
0.0
 10
229.169433172654
 20
235.4748572037206
 30
0.0
 10
229.9712280712865
 20
235.4329643348501
 30
0.0
 10
230.4399214006353
 20
234.9125935328339
 30
0.0
 10
230.908614729984
 20
234.3922227308194
 30
0.0
 10
230.8667218611145
 20
233.590427832185
 30
0.0
 10
230.3463510590991
 20
233.1217345028363
 30
0.0
 10
230.3463510590991
 20
233.1217345028381
 30
0.0
 10
230.3463510590991
 20
230.5932132843755
 30
0.0
 10
230.3463510590991
 20
230.5932132843755
 30
0.0
 10
230.3791484523144
 20
230.5636729655089
 30
0.0
 10
230.4103810817669
 20
230.5324403360555
 30
0.0
 10
230.4399214006326
 20
230.4996429428411
 30
0.0
 10
230.9086147299822
 20
229.9792721408248
 30
0.0
 10
230.8667218611135
 20
229.1774772421923
 30
0.0
 10
230.3463510590982
 20
228.7087839128417
 30
0.0
 10
229.8259802570828
 20
228.2400905834929
 30
0.0
 10
229.0241853584494
 20
228.2819834523616
 30
0.0
 10
228.5554920291006
 20
228.802354254376
 30
0.0
 10
228.5554920290997
 20
228.8023542543779
 30
0.0
 10
226.0269708106389
 20
228.8023542543779
 30
0.0
 10
226.0269708106389
 20
228.8023542543779
 30
0.0
 10
225.9974304917714
 20
228.7695568611598
 30
0.0
 10
225.9661978623171
 20
228.7383242317064
 30
0.0
 10
225.9334004691009
 20
228.7087839128399
 30
0.0
 10
225.4130296670846
 20
228.2400905834911
 30
0.0
 10
224.6112347684511
 20
228.2819834523598
 30
0.0
 10
224.1425414391024
 20
228.802354254376
 30
0.0
 10
223.6738481097536
 20
229.3227250563923
 30
0.0
 10
223.7157409786232
 20
230.1245199550267
 30
0.0
 10
224.2361117806395
 20
230.5932132843736
 30
0.0
 10
224.2361117806413
 20
230.5932132843736
 30
0.0
 10
224.2361117806413
 20
233.1217345028363
 30
0.0
 10
224.2361117806413
 20
233.1217345028363
 30
0.0
 10
224.2033143874232
 20
233.1512748217046
 30
0.0
 10
224.172081757969
 20
233.182507451158
 30
0.0
 10
224.1425414391024
 20
233.2153048443743
 30
0.0
 10
223.6738481097536
 20
233.7356756463905
 30
0.0
 10
223.7157409786232
 20
234.5374705450249
 30
0.0
 10
224.2361117806395
 20
235.0061638743737
 30
0.0
 10
224.7564825826566
 20
235.4748572037224
 30
0.0
 10
225.5582774812901
 20
235.4329643348519
 30
0.0
 10
226.0269708106389
 20
234.9125935328339
 30
0.0
  0
ENDBLK
  5
6B
330
68
100
AcDbEntity
  8
0
100
AcDbBlockEnd
  0
BLOCK
  5
6F
330
6D
100
AcDbEntity
  8
0
100
AcDbBlockBegin
  2
block 11
 70
     0
 10
0.0
 20
0.0
 30
0.0
  3
block 11
  1

  0
SPLINE
  5
71
330
6D
100
AcDbEntity
  8
0
 62
     7
420
 16777215
370
    25
100
AcDbSpline
210
0.0
220
0.0
230
1.0
 70
    11
 71
     3
 72
   104
 73
   100
 74
     0
 42
0.0000000001
 43
0.0000000001
 12
1.0
 22
0.0
 32
0.0
 13
1.0
 23
0.0
 33
0.0
 40
0.0
 40
0.0
 40
0.0
 40
0.0
 40
1.0
 40
1.0
 40
1.0
 40
2.0
 40
2.0
 40
2.0
 40
3.0
 40
3.0
 40
3.0
 40
4.0
 40
4.0
 40
4.0
 40
5.0
 40
5.0
 40
5.0
 40
6.0
 40
6.0
 40
6.0
 40
7.0
 40
7.0
 40
7.0
 40
8.0
 40
8.0
 40
8.0
 40
9.0
 40
9.0
 40
9.0
 40
10.0
 40
10.0
 40
10.0
 40
11.0
 40
11.0
 40
11.0
 40
12.0
 40
12.0
 40
12.0
 40
13.0
 40
13.0
 40
13.0
 40
14.0
 40
14.0
 40
14.0
 40
15.0
 40
15.0
 40
15.0
 40
16.0
 40
16.0
 40
16.0
 40
17.0
 40
17.0
 40
17.0
 40
18.0
 40
18.0
 40
18.0
 40
19.0
 40
19.0
 40
19.0
 40
20.0
 40
20.0
 40
20.0
 40
21.0
 40
21.0
 40
21.0
 40
22.0
 40
22.0
 40
22.0
 40
23.0
 40
23.0
 40
23.0
 40
24.0
 40
24.0
 40
24.0
 40
25.0
 40
25.0
 40
25.0
 40
26.0
 40
26.0
 40
26.0
 40
27.0
 40
27.0
 40
27.0
 40
28.0
 40
28.0
 40
28.0
 40
29.0
 40
29.0
 40
29.0
 40
30.0
 40
30.0
 40
30.0
 40
31.0
 40
31.0
 40
31.0
 40
32.0
 40
32.0
 40
32.0
 40
33.0
 40
33.0
 40
33.0
 40
33.0
 10
269.9524520037885
 20
199.7695879832645
 30
0.0
 10
269.9524520037885
 20
199.7695879832645
 30
0.0
 10
272.1422156129865
 20
201.0338485924985
 30
0.0
 10
272.1422156129865
 20
201.0338485924985
 30
0.0
 10
272.1513995829537
 20
201.0770221276362
 30
0.0
 10
272.1628315187609
 20
201.1196866928949
 30
0.0
 10
272.1764647350301
 20
201.1616680560783
 30
0.0
 10
272.3927724042906
 20
201.8277537868853
 30
0.0
 10
273.108093589567
 20
202.1923709475232
 30
0.0
 10
273.774179320375
 20
201.9760632782618
 30
0.0
 10
274.4402650511838
 20
201.7597556090022
 30
0.0
 10
274.8048822118208
 20
201.0444344237258
 30
0.0
 10
274.5885745425603
 20
200.3783486929169
 30
0.0
 10
274.5885745425603
 20
200.3783486929169
 30
0.0
 10
281.7957447780154
 20
187.8951636663114
 30
0.0
 10
281.7957447780154
 20
187.8951636663114
 30
0.0
 10
306.0754582838799
 20
203.8613843778094
 30
0.0
 10
312.8148757806521
 20
236.4871603238971
 30
0.0
 10
296.8486550691532
 20
260.7668738297616
 30
0.0
 10
292.9090842568312
 20
266.7577499668041
 30
0.0
 10
287.7866209150552
 20
271.8802133085792
 30
0.0
 10
281.7957447780145
 20
275.8197841209003
 30
0.0
 10
281.7957447780136
 20
275.8197841209003
 30
0.0
 10
274.5885745425585
 20
263.336599094293
 30
0.0
 10
274.5885745425585
 20
263.336599094293
 30
0.0
 10
274.6022077588295
 20
263.2946177311114
 30
0.0
 10
274.6136396946367
 20
263.2519531658509
 30
0.0
 10
274.6228236646029
 20
263.2087796307151
 30
0.0
 10
274.7685385933955
 20
262.5237786321086
 30
0.0
 10
274.3313608554008
 20
261.8503503157008
 30
0.0
 10
273.6463598567934
 20
261.7046353869082
 30
0.0
 10
272.961358858186
 20
261.5589204581156
 30
0.0
 10
272.28793054178
 20
261.9960981961103
 30
0.0
 10
272.1422156129875
 20
262.6810991947186
 30
0.0
 10
272.1422156129865
 20
262.6810991947186
 30
0.0
 10
269.9524520037885
 20
263.9453598039509
 30
0.0
 10
269.9524520037885
 20
263.9453598039509
 30
0.0
 10
269.9104706406051
 20
263.9317265876816
 30
0.0
 10
269.8678060753455
 20
263.9202946518744
 30
0.0
 10
269.8246325402097
 20
263.9111106819091
 30
0.0
 10
269.1396315416014
 20
263.7653957531165
 30
0.0
 10
268.4662032251954
 20
264.2025734911131
 30
0.0
 10
268.3204882964037
 20
264.8875744897214
 30
0.0
 10
268.174773367612
 20
265.5725754883279
 30
0.0
 10
268.6119511056077
 20
266.2460038047338
 30
0.0
 10
269.2969521042151
 20
266.3917187335264
 30
0.0
 10
269.296952104216
 20
266.3917187335264
 30
0.0
 10
276.5041223396684
 20
278.8749037601301
 30
0.0
 10
276.5041223396684
 20
278.8749037601301
 30
0.0
 10
250.5371128481511
 20
291.9186420970691
 30
0.0
 10
218.9126533122735
 20
281.4422608829409
 30
0.0
 10
205.8689149753345
 20
255.4752513914209
 30
0.0
 10
202.6504494558912
 20
249.0680449194224
 30
0.0
 10
200.7754977428467
 20
242.0706298646001
 30
0.0
 10
200.3591674078889
 20
234.9125935328357
 30
0.0
 10
200.3591674078889
 20
234.9125935328357
 30
0.0
 10
214.773507878801
 20
234.9125935328357
 30
0.0
 10
214.773507878801
 20
234.9125935328357
 30
0.0
 10
214.8030481976666
 20
234.9453909260519
 30
0.0
 10
214.8342808271209
 20
234.9766235555053
 30
0.0
 10
214.8670782203371
 20
235.0061638743737
 30
0.0
 10
215.3874490223534
 20
235.4748572037206
 30
0.0
 10
216.1892439209869
 20
235.4329643348519
 30
0.0
 10
216.6579372503356
 20
234.9125935328357
 30
0.0
 10
217.1266305796844
 20
234.3922227308194
 30
0.0
 10
217.0847377108148
 20
233.590427832185
 30
0.0
 10
216.5643669087985
 20
233.1217345028381
 30
0.0
 10
216.5643669087985
 20
233.1217345028381
 30
0.0
 10
216.5643669087985
 20
230.5932132843755
 30
0.0
 10
216.5643669087985
 20
230.5932132843755
 30
0.0
 10
216.5971643020139
 20
230.5636729655089
 30
0.0
 10
216.6283969314663
 20
230.5324403360573
 30
0.0
 10
216.657937250332
 20
230.4996429428411
 30
0.0
 10
217.1266305796817
 20
229.9792721408267
 30
0.0
 10
217.084737710813
 20
229.1774772421923
 30
0.0
 10
216.5643669087976
 20
228.7087839128435
 30
0.0
 10
216.0439961067823
 20
228.2400905834929
 30
0.0
 10
215.2422012081488
 20
228.2819834523616
 30
0.0
 10
214.7735078788
 20
228.8023542543779
 30
0.0
 10
214.7735078787991
 20
228.8023542543779
 30
0.0
 10
200.3591674078871
 20
228.8023542543779
 30
0.0
 10
200.3591674078871
 20
228.8023542543779
 30
0.0
 10
202.0464633935426
 20
199.7923952059409
 30
0.0
 10
226.9315054326462
 20
177.6430004739832
 30
0.0
 10
255.9414644810831
 20
179.3302964596369
 30
0.0
 10
263.0995008128484
 20
179.7466267945947
 30
0.0
 10
270.0969158676698
 20
181.6215785076402
 30
0.0
 10
276.5041223396693
 20
184.8400440270834
 30
0.0
 10
276.5041223396693
 20
184.8400440270816
 30
0.0
 10
269.2969521042123
 20
197.3232290536907
 30
0.0
 10
269.2969521042123
 20
197.3232290536907
 30
0.0
 10
269.2537785690756
 20
197.3324130236579
 30
0.0
 10
269.2111140038141
 20
197.3438449594651
 30
0.0
 10
269.1691326406317
 20
197.3574781757343
 30
0.0
 10
268.5030469098238
 20
197.5737858449938
 30
0.0
 10
268.1384297491859
 20
198.2891070302703
 30
0.0
 10
268.3547374184454
 20
198.9551927610792
 30
0.0
 10
268.571045087705
 20
199.621278491888
 30
0.0
 10
269.2863662729815
 20
199.9858956525259
 30
0.0
 10
269.9524520037885
 20
199.7695879832645
 30
0.0
  0
ENDBLK
  5
70
330
6D
100
AcDbEntity
  8
0
100
AcDbBlockEnd
  0
BLOCK
  5
74
330
72
100
AcDbEntity
  8
0
100
AcDbBlockBegin
  2
block 12
 70
     0
 10
0.0
 20
0.0
 30
0.0
  3
block 12
  1

  0
SPLINE
  5
76
330
72
100
AcDbEntity
  8
0
 62
     7
420
 16777215
370
    25
100
AcDbSpline
210
0.0
220
0.0
230
1.0
 70
    11
 71
     3
 72
    53
 73
    49
 74
     0
 42
0.0000000001
 43
0.0000000001
 12
1.0
 22
0.0
 32
0.0
 13
1.0
 23
0.0
 33
0.0
 40
0.0
 40
0.0
 40
0.0
 40
0.0
 40
1.0
 40
1.0
 40
1.0
 40
2.0
 40
2.0
 40
2.0
 40
3.0
 40
3.0
 40
3.0
 40
4.0
 40
4.0
 40
4.0
 40
5.0
 40
5.0
 40
5.0
 40
6.0
 40
6.0
 40
6.0
 40
7.0
 40
7.0
 40
7.0
 40
8.0
 40
8.0
 40
8.0
 40
9.0
 40
9.0
 40
9.0
 40
10.0
 40
10.0
 40
10.0
 40
11.0
 40
11.0
 40
11.0
 40
12.0
 40
12.0
 40
12.0
 40
13.0
 40
13.0
 40
13.0
 40
14.0
 40
14.0
 40
14.0
 40
15.0
 40
15.0
 40
15.0
 40
16.0
 40
16.0
 40
16.0
 40
16.0
 10
267.69758246741
 20
251.4010507055809
 30
0.0
 10
267.69758246741
 20
251.4010507055809
 30
0.0
 10
268.9618430766404
 20
253.5908143147772
 30
0.0
 10
268.9618430766404
 20
253.5908143147772
 30
0.0
 10
269.6468440752478
 20
253.7365292435697
 30
0.0
 10
270.0840218132425
 20
254.4099575599757
 30
0.0
 10
269.9383068844518
 20
255.0949585585822
 30
0.0
 10
269.7925919556601
 20
255.7799595571887
 30
0.0
 10
269.119163639255
 20
256.2171372951852
 30
0.0
 10
268.4341626406476
 20
256.0714223663927
 30
0.0
 10
268.3909891055109
 20
256.0622383964273
 30
0.0
 10
268.3483245402485
 20
256.0508064606202
 30
0.0
 10
268.3063431770661
 20
256.0371732443491
 30
0.0
 10
268.3063431770661
 20
256.0371732443491
 30
0.0
 10
266.116579567868
 20
257.3014338535831
 30
0.0
 10
266.116579567868
 20
257.3014338535831
 30
0.0
 10
265.9708646249364
 20
257.9864348685023
 30
0.0
 10
265.2974363020157
 20
258.4236125964635
 30
0.0
 10
264.6124353055784
 20
258.2778976574646
 30
0.0
 10
263.9274343091411
 20
258.1321827184656
 30
0.0
 10
263.4902565811799
 20
257.458754395544
 30
0.0
 10
263.6359715201788
 20
256.7737533991076
 30
0.0
 10
263.645155490789
 20
256.7305798641064
 30
0.0
 10
263.6565874272319
 20
256.687915299015
 30
0.0
 10
263.6702206441278
 20
256.6459339360335
 30
0.0
 10
263.6702206382924
 20
256.6459339540052
 30
0.0
 10
262.4059600290639
 20
254.4561703448107
 30
0.0
 10
262.4059600290639
 20
254.4561703448107
 30
0.0
 10
261.7209590304574
 20
254.3104554160182
 30
0.0
 10
261.2837812924627
 20
253.6370270996122
 30
0.0
 10
261.4294962212543
 20
252.9520261010039
 30
0.0
 10
261.5752111500469
 20
252.2670251023956
 30
0.0
 10
262.2486394664538
 20
251.8298473644008
 30
0.0
 10
262.9336404650621
 20
251.9755622931934
 30
0.0
 10
262.9768140001979
 20
251.9847462631587
 30
0.0
 10
263.0194785654585
 20
251.9961781989659
 30
0.0
 10
263.06145992864
 20
252.0098114152352
 30
0.0
 10
263.06145992864
 20
252.0098114152352
 30
0.0
 10
265.2512235378381
 20
250.7455508060048
 30
0.0
 10
265.2512235378381
 20
250.7455508060048
 30
0.0
 10
265.3969384666307
 20
250.0605498073965
 30
0.0
 10
266.0703667830376
 20
249.6233720694017
 30
0.0
 10
266.755367781645
 20
249.7690869981961
 30
0.0
 10
267.4403687802524
 20
249.9148019269887
 30
0.0
 10
267.8775465182462
 20
250.5882302433965
 30
0.0
 10
267.7318315894527
 20
251.273231242003
 30
0.0
 10
267.7226476194865
 20
251.3164047771388
 30
0.0
 10
267.7112156836802
 20
251.3590693423994
 30
0.0
 10
267.69758246741
 20
251.4010507055809
 30
0.0
  0
ENDBLK
  5
75
330
72
100
AcDbEntity
  8
0
100
AcDbBlockEnd
  0
BLOCK
  5
79
330
77
100
AcDbEntity
  8
0
100
AcDbBlockBegin
  2
block 13
 70
     0
 10
0.0
 20
0.0
 30
0.0
  3
block 13
  1

  0
SPLINE
  5
7B
330
77
100
AcDbEntity
  8
0
 62
     7
420
 16777215
370
    25
100
AcDbSpline
210
0.0
220
0.0
230
1.0
 70
    11
 71
     3
 72
    53
 73
    49
 74
     0
 42
0.0000000001
 43
0.0000000001
 12
1.0
 22
0.0
 32
0.0
 13
1.0
 23
0.0
 33
0.0
 40
0.0
 40
0.0
 40
0.0
 40
0.0
 40
1.0
 40
1.0
 40
1.0
 40
2.0
 40
2.0
 40
2.0
 40
3.0
 40
3.0
 40
3.0
 40
4.0
 40
4.0
 40
4.0
 40
5.0
 40
5.0
 40
5.0
 40
6.0
 40
6.0
 40
6.0
 40
7.0
 40
7.0
 40
7.0
 40
8.0
 40
8.0
 40
8.0
 40
9.0
 40
9.0
 40
9.0
 40
10.0
 40
10.0
 40
10.0
 40
11.0
 40
11.0
 40
11.0
 40
12.0
 40
12.0
 40
12.0
 40
13.0
 40
13.0
 40
13.0
 40
14.0
 40
14.0
 40
14.0
 40
15.0
 40
15.0
 40
15.0
 40
16.0
 40
16.0
 40
16.0
 40
16.0
 10
268.9618430766404
 20
210.1241334724364
 30
0.0
 10
268.9618430766404
 20
210.1241334724364
 30
0.0
 10
267.6975824674073
 20
212.3138970816308
 30
0.0
 10
267.6975824674073
 20
212.3138970816308
 30
0.0
 10
267.9138901366678
 20
212.9799828124396
 30
0.0
 10
267.5492729760299
 20
213.6953039977161
 30
0.0
 10
266.8831872452211
 20
213.9116116669757
 30
0.0
 10
266.2171015144131
 20
214.1279193362334
 30
0.0
 10
265.5017803291375
 20
213.7633021755955
 30
0.0
 10
265.285472659878
 20
213.0972164447885
 30
0.0
 10
265.2718394436088
 20
213.0552350816051
 30
0.0
 10
265.2604075078016
 20
213.0125705163464
 30
0.0
 10
265.2512235378354
 20
212.9693969812106
 30
0.0
 10
265.2512235378344
 20
212.9693969812106
 30
0.0
 10
263.0614599286364
 20
211.7051363719784
 30
0.0
 10
263.0614599286364
 20
211.7051363719784
 30
0.0
 10
262.3953741978276
 20
211.9214440412361
 30
0.0
 10
261.680053012552
 20
211.5568268805982
 30
0.0
 10
261.4637453432924
 20
210.8907411497894
 30
0.0
 10
261.2474376740338
 20
210.2246554189805
 30
0.0
 10
261.6120548346726
 20
209.5093342337059
 30
0.0
 10
262.2781405654805
 20
209.2930265644463
 30
0.0
 10
262.3201219286639
 20
209.2793933481771
 30
0.0
 10
262.3627864939244
 20
209.2679614123699
 30
0.0
 10
262.4059600290611
 20
209.2587774424028
 30
0.0
 10
262.405960029062
 20
209.2587774424028
 30
0.0
 10
263.6702206382924
 20
207.0690138332084
 30
0.0
 10
263.6702206382924
 20
207.0690138332084
 30
0.0
 10
263.4539129690311
 20
206.4029281023995
 30
0.0
 10
263.818530129668
 20
205.687606917123
 30
0.0
 10
264.484615860476
 20
205.4712992478617
 30
0.0
 10
265.1507015912839
 20
205.2549915786003
 30
0.0
 10
265.8660227765622
 20
205.6196087392364
 30
0.0
 10
266.0823304458227
 20
206.2856944700452
 30
0.0
 10
266.0959636620937
 20
206.3276758332304
 30
0.0
 10
266.1073955979009
 20
206.3703403984928
 30
0.0
 10
266.116579567868
 20
206.4135139336322
 30
0.0
 10
266.116579567868
 20
206.4135139336322
 30
0.0
 10
268.3063431770634
 20
207.6777745428626
 30
0.0
 10
268.3063431770634
 20
207.6777745428626
 30
0.0
 10
268.9724289078722
 20
207.4614668736031
 30
0.0
 10
269.6877500931487
 20
207.8260840342391
 30
0.0
 10
269.9040577624091
 20
208.4921697650479
 30
0.0
 10
270.1203654316696
 20
209.158255495855
 30
0.0
 10
269.7557482710326
 20
209.8735766811333
 30
0.0
 10
269.0896625402238
 20
210.0898843503928
 30
0.0
 10
269.0476811770404
 20
210.1035175666639
 30
0.0
 10
269.005016611778
 20
210.1149495024711
 30
0.0
 10
268.9618430766404
 20
210.1241334724364
 30
0.0
  0
ENDBLK
  5
7A
330
77
100
AcDbEntity
  8
0
100
AcDbBlockEnd
  0
BLOCK
  5
7E
330
7C
100
AcDbEntity
  8
0
100
AcDbBlockBegin
  2
block 14
 70
     0
 10
0.0
 20
0.0
 30
0.0
  3
block 14
  1

  0
POLYLINE
  5
80
330
7C
100
AcDbEntity
  8
0
 62
     7
420
 16777215
370
    25
100
AcDb2dPolyline
 66
     1
 10
0.0
 20
0.0
 30
0.0
  0
VERTEX
  5
81
330
80
100
AcDbEntity
  8
0
 62
     7
420
 16777215
370
    25
100
AcDbVertex
100
AcDb2dVertex
 10
372.6642535024748
 20
234.9125935328339
 30
0.0
  0
VERTEX
  5
82
330
80
100
AcDbEntity
  8
0
 62
     7
420
 16777215
370
    25
100
AcDbVertex
100
AcDb2dVertex
 10
375.1927747209356
 20
234.9125935328339
 30
0.0
  0
SEQEND
  5
83
330
80
100
AcDbEntity
  8
0
 62
     7
420
 16777215
370
    25
  0
ENDBLK
  5
7F
330
7C
100
AcDbEntity
  8
0
100
AcDbBlockEnd
  0
BLOCK
  5
86
330
84
100
AcDbEntity
  8
0
100
AcDbBlockBegin
  2
block 15
 70
     0
 10
0.0
 20
0.0
 30
0.0
  3
block 15
  1

  0
POLYLINE
  5
88
330
84
100
AcDbEntity
  8
0
 62
     7
420
 16777215
370
    25
100
AcDb2dPolyline
 66
     1
 10
0.0
 20
0.0
 30
0.0
  0
VERTEX
  5
89
330
88
100
AcDbEntity
  8
0
 62
     7
420
 16777215
370
    25
100
AcDbVertex
100
AcDb2dVertex
 10
376.983633750935
 20
233.1217345028363
 30
0.0
  0
VERTEX
  5
8A
330
88
100
AcDbEntity
  8
0
 62
     7
420
 16777215
370
    25
100
AcDbVertex
100
AcDb2dVertex
 10
376.983633750935
 20
230.5932132843736
 30
0.0
  0
SEQEND
  5
8B
330
88
100
AcDbEntity
  8
0
 62
     7
420
 16777215
370
    25
  0
ENDBLK
  5
87
330
84
100
AcDbEntity
  8
0
100
AcDbBlockEnd
  0
BLOCK
  5
8E
330
8C
100
AcDbEntity
  8
0
100
AcDbBlockBegin
  2
block 16
 70
     0
 10
0.0
 20
0.0
 30
0.0
  3
block 16
  1

  0
POLYLINE
  5
90
330
8C
100
AcDbEntity
  8
0
 62
     7
420
 16777215
370
    25
100
AcDb2dPolyline
 66
     1
 10
0.0
 20
0.0
 30
0.0
  0
VERTEX
  5
91
330
90
100
AcDbEntity
  8
0
 62
     7
420
 16777215
370
    25
100
AcDbVertex
100
AcDb2dVertex
 10
375.1927747209356
 20
228.8023542543742
 30
0.0
  0
VERTEX
  5
92
330
90
100
AcDbEntity
  8
0
 62
     7
420
 16777215
370
    25
100
AcDbVertex
100
AcDb2dVertex
 10
372.6642535024748
 20
228.8023542543742
 30
0.0
  0
SEQEND
  5
93
330
90
100
AcDbEntity
  8
0
 62
     7
420
 16777215
370
    25
  0
ENDBLK
  5
8F
330
8C
100
AcDbEntity
  8
0
100
AcDbBlockEnd
  0
BLOCK
  5
96
330
94
100
AcDbEntity
  8
0
100
AcDbBlockBegin
  2
block 17
 70
     0
 10
0.0
 20
0.0
 30
0.0
  3
block 17
  1

  0
POLYLINE
  5
98
330
94
100
AcDbEntity
  8
0
 62
     7
420
 16777215
370
    25
100
AcDb2dPolyline
 66
     1
 10
0.0
 20
0.0
 30
0.0
  0
VERTEX
  5
99
330
98
100
AcDbEntity
  8
0
 62
     7
420
 16777215
370
    25
100
AcDbVertex
100
AcDb2dVertex
 10
370.8733944724754
 20
230.5932132843736
 30
0.0
  0
VERTEX
  5
9A
330
98
100
AcDbEntity
  8
0
 62
     7
420
 16777215
370
    25
100
AcDbVertex
100
AcDb2dVertex
 10
370.8733944724754
 20
233.1217345028363
 30
0.0
  0
SEQEND
  5
9B
330
98
100
AcDbEntity
  8
0
 62
     7
420
 16777215
370
    25
  0
ENDBLK
  5
97
330
94
100
AcDbEntity
  8
0
100
AcDbBlockEnd
  0
BLOCK
  5
9E
330
9C
100
AcDbEntity
  8
0
100
AcDbBlockBegin
  2
block 18
 70
     0
 10
0.0
 20
0.0
 30
0.0
  3
block 18
  1

  0
SPLINE
  5
A0
330
9C
100
AcDbEntity
  8
0
 62
     7
420
 16777215
370
    25
100
AcDbSpline
210
0.0
220
0.0
230
1.0
 70
     8
 71
     3
 72
    14
 73
    10
 74
     0
 42
0.0000000001
 43
0.0000000001
 12
1.0
 22
0.0
 32
0.0
 13
1.0
 23
0.0
 33
0.0
 40
0.0
 40
0.0
 40
0.0
 40
0.0
 40
1.0
 40
1.0
 40
1.0
 40
2.0
 40
2.0
 40
2.0
 40
3.0
 40
3.0
 40
3.0
 40
3.0
 10
372.6642535024748
 20
234.912593532832
 30
0.0
 10
372.1955601731261
 20
235.4329643348483
 30
0.0
 10
371.3937652744935
 20
235.4748572037188
 30
0.0
 10
370.8733944724772
 20
235.0061638743719
 30
0.0
 10
370.353023670461
 20
234.5374705450231
 30
0.0
 10
370.3111308015887
 20
233.7356756463905
 30
0.0
 10
370.7798241309374
 20
233.2153048443743
 30
0.0
 10
370.809364449804
 20
233.182507451158
 30
0.0
 10
370.8405970792573
 20
233.1512748217028
 30
0.0
 10
370.8733944724736
 20
233.1217345028363
 30
0.0
  0
ENDBLK
  5
9F
330
9C
100
AcDbEntity
  8
0
100
AcDbBlockEnd
  0
BLOCK
  5
A3
330
A1
100
AcDbEntity
  8
0
100
AcDbBlockBegin
  2
block 19
 70
     0
 10
0.0
 20
0.0
 30
0.0
  3
block 19
  1

  0
SPLINE
  5
A5
330
A1
100
AcDbEntity
  8
0
 62
     7
420
 16777215
370
    25
100
AcDbSpline
210
0.0
220
0.0
230
1.0
 70
     8
 71
     3
 72
    14
 73
    10
 74
     0
 42
0.0000000001
 43
0.0000000001
 12
1.0
 22
0.0
 32
0.0
 13
1.0
 23
0.0
 33
0.0
 40
0.0
 40
0.0
 40
0.0
 40
0.0
 40
1.0
 40
1.0
 40
1.0
 40
2.0
 40
2.0
 40
2.0
 40
3.0
 40
3.0
 40
3.0
 40
3.0
 10
376.983633750935
 20
233.1217345028363
 30
0.0
 10
377.5040045529513
 20
233.5904278321868
 30
0.0
 10
377.54589742182
 20
234.3922227308194
 30
0.0
 10
377.0772040924712
 20
234.9125935328339
 30
0.0
 10
376.6085107631206
 20
235.4329643348501
 30
0.0
 10
375.8067158644881
 20
235.4748572037188
 30
0.0
 10
375.2863450624718
 20
235.00616387437
 30
0.0
 10
375.2535476692556
 20
234.9766235555035
 30
0.0
 10
375.2223150398022
 20
234.9453909260483
 30
0.0
 10
375.1927747209356
 20
234.912593532832
 30
0.0
  0
ENDBLK
  5
A4
330
A1
100
AcDbEntity
  8
0
100
AcDbBlockEnd
  0
BLOCK
  5
A8
330
A6
100
AcDbEntity
  8
0
100
AcDbBlockBegin
  2
block 20
 70
     0
 10
0.0
 20
0.0
 30
0.0
  3
block 20
  1

  0
SPLINE
  5
AA
330
A6
100
AcDbEntity
  8
0
 62
     7
420
 16777215
370
    25
100
AcDbSpline
210
0.0
220
0.0
230
1.0
 70
     8
 71
     3
 72
    14
 73
    10
 74
     0
 42
0.0000000001
 43
0.0000000001
 12
1.0
 22
0.0
 32
0.0
 13
1.0
 23
0.0
 33
0.0
 40
0.0
 40
0.0
 40
0.0
 40
0.0
 40
1.0
 40
1.0
 40
1.0
 40
2.0
 40
2.0
 40
2.0
 40
3.0
 40
3.0
 40
3.0
 40
3.0
 10
370.873394472479
 20
230.5932132843755
 30
0.0
 10
370.353023670461
 20
230.1245199550285
 30
0.0
 10
370.3111308015887
 20
229.3227250563959
 30
0.0
 10
370.7798241309356
 20
228.8023542543779
 30
0.0
 10
371.2485174602825
 20
228.2819834523616
 30
0.0
 10
372.0503123589169
 20
228.2400905834893
 30
0.0
 10
372.5706831609332
 20
228.7087839128362
 30
0.0
 10
372.6034805541512
 20
228.7383242317028
 30
0.0
 10
372.6347131836046
 20
228.7695568611562
 30
0.0
 10
372.6642535024712
 20
228.8023542543742
 30
0.0
  0
ENDBLK
  5
A9
330
A6
100
AcDbEntity
  8
0
100
AcDbBlockEnd
  0
BLOCK
  5
AD
330
AB
100
AcDbEntity
  8
0
100
AcDbBlockBegin
  2
block 21
 70
     0
 10
0.0
 20
0.0
 30
0.0
  3
block 21
  1

  0
SPLINE
  5
AF
330
AB
100
AcDbEntity
  8
0
 62
     7
420
 16777215
370
    25
100
AcDbSpline
210
0.0
220
0.0
230
1.0
 70
     8
 71
     3
 72
    14
 73
    10
 74
     0
 42
0.0000000001
 43
0.0000000001
 12
1.0
 22
0.0
 32
0.0
 13
1.0
 23
0.0
 33
0.0
 40
0.0
 40
0.0
 40
0.0
 40
0.0
 40
1.0
 40
1.0
 40
1.0
 40
2.0
 40
2.0
 40
2.0
 40
3.0
 40
3.0
 40
3.0
 40
3.0
 10
375.1927747209393
 20
228.8023542543742
 30
0.0
 10
375.661468050288
 20
228.281983452358
 30
0.0
 10
376.4632629489224
 20
228.2400905834911
 30
0.0
 10
376.9836337509369
 20
228.7087839128399
 30
0.0
 10
377.5040045529513
 20
229.1774772421904
 30
0.0
 10
377.54589742182
 20
229.979272140823
 30
0.0
 10
377.0772040924694
 20
230.4996429428375
 30
0.0
 10
377.0476637736047
 20
230.5324403360537
 30
0.0
 10
377.0164311441513
 20
230.5636729655071
 30
0.0
 10
376.983633750935
 20
230.5932132843718
 30
0.0
  0
ENDBLK
  5
AE
330
AB
100
AcDbEntity
  8
0
100
AcDbBlockEnd
  0
BLOCK
  5
B2
330
B0
100
AcDbEntity
  8
0
100
AcDbBlockBegin
  2
block 22
 70
     0
 10
0.0
 20
0.0
 30
0.0
  3
block 22
  1

  0
POLYLINE
  5
B4
330
B0
100
AcDbEntity
  8
0
 62
     7
420
 16777215
370
    25
100
AcDb2dPolyline
 66
     1
 10
0.0
 20
0.0
 30
0.0
  0
VERTEX
  5
B5
330
B4
100
AcDbEntity
  8
0
 62
     7
420
 16777215
370
    25
100
AcDbVertex
100
AcDb2dVertex
 10
410.3075033301284
 20
256.6459339540052
 30
0.0
  0
VERTEX
  5
B6
330
B4
100
AcDbEntity
  8
0
 62
     7
420
 16777215
370
    25
100
AcDbVertex
100
AcDb2dVertex
 10
409.0432427208998
 20
254.4561703448089
 30
0.0
  0
SEQEND
  5
B7
330
B4
100
AcDbEntity
  8
0
 62
     7
420
 16777215
370
    25
  0
ENDBLK
  5
B3
330
B0
100
AcDbEntity
  8
0
100
AcDbBlockEnd
  0
BLOCK
  5
BA
330
B8
100
AcDbEntity
  8
0
100
AcDbBlockBegin
  2
block 23
 70
     0
 10
0.0
 20
0.0
 30
0.0
  3
block 23
  1

  0
POLYLINE
  5
BC
330
B8
100
AcDbEntity
  8
0
 62
     7
420
 16777215
370
    25
100
AcDb2dPolyline
 66
     1
 10
0.0
 20
0.0
 30
0.0
  0
VERTEX
  5
BD
330
BC
100
AcDbEntity
  8
0
 62
     7
420
 16777215
370
    25
100
AcDbVertex
100
AcDb2dVertex
 10
409.6987426204741
 20
252.0098114152333
 30
0.0
  0
VERTEX
  5
BE
330
BC
100
AcDbEntity
  8
0
 62
     7
420
 16777215
370
    25
100
AcDbVertex
100
AcDb2dVertex
 10
411.8885062296722
 20
250.7455508060029
 30
0.0
  0
SEQEND
  5
BF
330
BC
100
AcDbEntity
  8
0
 62
     7
420
 16777215
370
    25
  0
ENDBLK
  5
BB
330
B8
100
AcDbEntity
  8
0
100
AcDbBlockEnd
  0
BLOCK
  5
C2
330
C0
100
AcDbEntity
  8
0
100
AcDbBlockBegin
  2
block 24
 70
     0
 10
0.0
 20
0.0
 30
0.0
  3
block 24
  1

  0
POLYLINE
  5
C4
330
C0
100
AcDbEntity
  8
0
 62
     7
420
 16777215
370
    25
100
AcDb2dPolyline
 66
     1
 10
0.0
 20
0.0
 30
0.0
  0
VERTEX
  5
C5
330
C4
100
AcDbEntity
  8
0
 62
     7
420
 16777215
370
    25
100
AcDbVertex
100
AcDb2dVertex
 10
414.334865159246
 20
251.4010507055791
 30
0.0
  0
VERTEX
  5
C6
330
C4
100
AcDbEntity
  8
0
 62
     7
420
 16777215
370
    25
100
AcDbVertex
100
AcDb2dVertex
 10
415.5991257684764
 20
253.5908143147753
 30
0.0
  0
SEQEND
  5
C7
330
C4
100
AcDbEntity
  8
0
 62
     7
420
 16777215
370
    25
  0
ENDBLK
  5
C3
330
C0
100
AcDbEntity
  8
0
100
AcDbBlockEnd
  0
BLOCK
  5
CA
330
C8
100
AcDbEntity
  8
0
100
AcDbBlockBegin
  2
block 25
 70
     0
 10
0.0
 20
0.0
 30
0.0
  3
block 25
  1

  0
POLYLINE
  5
CC
330
C8
100
AcDbEntity
  8
0
 62
     7
420
 16777215
370
    25
100
AcDb2dPolyline
 66
     1
 10
0.0
 20
0.0
 30
0.0
  0
VERTEX
  5
CD
330
CC
100
AcDbEntity
  8
0
 62
     7
420
 16777215
370
    25
100
AcDbVertex
100
AcDb2dVertex
 10
414.943625868902
 20
256.0371732443491
 30
0.0
  0
VERTEX
  5
CE
330
CC
100
AcDbEntity
  8
0
 62
     7
420
 16777215
370
    25
100
AcDbVertex
100
AcDb2dVertex
 10
412.753862259704
 20
257.3014338535813
 30
0.0
  0
SEQEND
  5
CF
330
CC
100
AcDbEntity
  8
0
 62
     7
420
 16777215
370
    25
  0
ENDBLK
  5
CB
330
C8
100
AcDbEntity
  8
0
100
AcDbBlockEnd
  0
BLOCK
  5
D2
330
D0
100
AcDbEntity
  8
0
100
AcDbBlockBegin
  2
block 26
 70
     0
 10
0.0
 20
0.0
 30
0.0
  3
block 26
  1

  0
SPLINE
  5
D4
330
D0
100
AcDbEntity
  8
0
 62
     7
420
 16777215
370
    25
100
AcDbSpline
210
0.0
220
0.0
230
1.0
 70
     8
 71
     3
 72
    14
 73
    10
 74
     0
 42
0.0000000001
 43
0.0000000001
 12
1.0
 22
0.0
 32
0.0
 13
1.0
 23
0.0
 33
0.0
 40
0.0
 40
0.0
 40
0.0
 40
0.0
 40
1.0
 40
1.0
 40
1.0
 40
2.0
 40
2.0
 40
2.0
 40
3.0
 40
3.0
 40
3.0
 40
3.0
 10
412.753862259704
 20
257.3014338535831
 30
0.0
 10
412.6081473309114
 20
257.9864348521915
 30
0.0
 10
411.9347190145054
 20
258.4236125901862
 30
0.0
 10
411.2497180158971
 20
258.2778976613936
 30
0.0
 10
410.5647170172888
 20
258.132182732601
 30
0.0
 10
410.1275392792941
 20
257.458754416195
 30
0.0
 10
410.2732542080867
 20
256.7737534175867
 30
0.0
 10
410.2824381780538
 20
256.7305798824491
 30
0.0
 10
410.293870113861
 20
256.6879153171867
 30
0.0
 10
410.3075033301302
 20
256.6459339540033
 30
0.0
  0
ENDBLK
  5
D3
330
D0
100
AcDbEntity
  8
0
100
AcDbBlockEnd
  0
BLOCK
  5
D7
330
D5
100
AcDbEntity
  8
0
100
AcDbBlockBegin
  2
block 27
 70
     0
 10
0.0
 20
0.0
 30
0.0
  3
block 27
  1

  0
SPLINE
  5
D9
330
D5
100
AcDbEntity
  8
0
 62
     7
420
 16777215
370
    25
100
AcDbSpline
210
0.0
220
0.0
230
1.0
 70
     8
 71
     3
 72
    14
 73
    10
 74
     0
 42
0.0000000001
 43
0.0000000001
 12
1.0
 22
0.0
 32
0.0
 13
1.0
 23
0.0
 33
0.0
 40
0.0
 40
0.0
 40
0.0
 40
0.0
 40
1.0
 40
1.0
 40
1.0
 40
2.0
 40
2.0
 40
2.0
 40
3.0
 40
3.0
 40
3.0
 40
3.0
 10
409.043242720898
 20
254.4561703448089
 30
0.0
 10
408.3582417222897
 20
254.3104554160182
 30
0.0
 10
407.921063984295
 20
253.6370270996103
 30
0.0
 10
408.0667789130875
 20
252.9520261010039
 30
0.0
 10
408.2124938418801
 20
252.2670251023956
 30
0.0
 10
408.8859221582861
 20
251.8298473644008
 30
0.0
 10
409.5709231568944
 20
251.9755622931934
 30
0.0
 10
409.6140966920302
 20
251.9847462631587
 30
0.0
 10
409.6567612572908
 20
251.9961781989659
 30
0.0
 10
409.6987426204723
 20
252.0098114152352
 30
0.0
  0
ENDBLK
  5
D8
330
D5
100
AcDbEntity
  8
0
100
AcDbBlockEnd
  0
BLOCK
  5
DC
330
DA
100
AcDbEntity
  8
0
100
AcDbBlockBegin
  2
block 28
 70
     0
 10
0.0
 20
0.0
 30
0.0
  3
block 28
  1

  0
SPLINE
  5
DE
330
DA
100
AcDbEntity
  8
0
 62
     7
420
 16777215
370
    25
100
AcDbSpline
210
0.0
220
0.0
230
1.0
 70
     8
 71
     3
 72
    14
 73
    10
 74
     0
 42
0.0000000001
 43
0.0000000001
 12
1.0
 22
0.0
 32
0.0
 13
1.0
 23
0.0
 33
0.0
 40
0.0
 40
0.0
 40
0.0
 40
0.0
 40
1.0
 40
1.0
 40
1.0
 40
2.0
 40
2.0
 40
2.0
 40
3.0
 40
3.0
 40
3.0
 40
3.0
 10
415.5991257684782
 20
253.5908143147772
 30
0.0
 10
416.2841267670847
 20
253.7365292435697
 30
0.0
 10
416.7213045050812
 20
254.4099575599757
 30
0.0
 10
416.5755895762886
 20
255.094958558584
 30
0.0
 10
416.429874647496
 20
255.7799595571905
 30
0.0
 10
415.75644633109
 20
256.2171372951871
 30
0.0
 10
415.0714453324817
 20
256.0714223663945
 30
0.0
 10
415.0282717973441
 20
256.0622383964273
 30
0.0
 10
414.9856072320836
 20
256.0508064606202
 30
0.0
 10
414.9436258689002
 20
256.0371732443509
 30
0.0
  0
ENDBLK
  5
DD
330
DA
100
AcDbEntity
  8
0
100
AcDbBlockEnd
  0
BLOCK
  5
E1
330
DF
100
AcDbEntity
  8
0
100
AcDbBlockBegin
  2
block 29
 70
     0
 10
0.0
 20
0.0
 30
0.0
  3
block 29
  1

  0
SPLINE
  5
E3
330
DF
100
AcDbEntity
  8
0
 62
     7
420
 16777215
370
    25
100
AcDbSpline
210
0.0
220
0.0
230
1.0
 70
     8
 71
     3
 72
    14
 73
    10
 74
     0
 42
0.0000000001
 43
0.0000000001
 12
1.0
 22
0.0
 32
0.0
 13
1.0
 23
0.0
 33
0.0
 40
0.0
 40
0.0
 40
0.0
 40
0.0
 40
1.0
 40
1.0
 40
1.0
 40
2.0
 40
2.0
 40
2.0
 40
3.0
 40
3.0
 40
3.0
 40
3.0
 10
411.8885062296722
 20
250.7455508060048
 30
0.0
 10
412.0342211584648
 20
250.0605498073965
 30
0.0
 10
412.7076494748708
 20
249.6233720694017
 30
0.0
 10
413.3926504734791
 20
249.7690869981943
 30
0.0
 10
414.0776514720874
 20
249.9148019269851
 30
0.0
 10
414.5148292100821
 20
250.5882302433929
 30
0.0
 10
414.3691142812895
 20
251.2732312419994
 30
0.0
 10
414.3599303113242
 20
251.3164047771352
 30
0.0
 10
414.348498375517
 20
251.3590693423957
 30
0.0
 10
414.3348651592478
 20
251.4010507055773
 30
0.0
  0
ENDBLK
  5
E2
330
DF
100
AcDbEntity
  8
0
100
AcDbBlockEnd
  0
BLOCK
  5
E6
330
E4
100
AcDbEntity
  8
0
100
AcDbBlockBegin
  2
block 30
 70
     0
 10
0.0
 20
0.0
 30
0.0
  3
block 30
  1

  0
SPLINE
  5
E8
330
E4
100
AcDbEntity
  8
0
 62
     7
420
 16777215
370
    25
100
AcDbSpline
210
0.0
220
0.0
230
1.0
 70
    11
 71
     3
 72
   113
 73
   109
 74
     0
 42
0.0000000001
 43
0.0000000001
 12
1.0
 22
0.0
 32
0.0
 13
1.0
 23
0.0
 33
0.0
 40
0.0
 40
0.0
 40
0.0
 40
0.0
 40
1.0
 40
1.0
 40
1.0
 40
2.0
 40
2.0
 40
2.0
 40
3.0
 40
3.0
 40
3.0
 40
4.0
 40
4.0
 40
4.0
 40
5.0
 40
5.0
 40
5.0
 40
6.0
 40
6.0
 40
6.0
 40
7.0
 40
7.0
 40
7.0
 40
8.0
 40
8.0
 40
8.0
 40
9.0
 40
9.0
 40
9.0
 40
10.0
 40
10.0
 40
10.0
 40
11.0
 40
11.0
 40
11.0
 40
12.0
 40
12.0
 40
12.0
 40
13.0
 40
13.0
 40
13.0
 40
14.0
 40
14.0
 40
14.0
 40
15.0
 40
15.0
 40
15.0
 40
16.0
 40
16.0
 40
16.0
 40
17.0
 40
17.0
 40
17.0
 40
18.0
 40
18.0
 40
18.0
 40
19.0
 40
19.0
 40
19.0
 40
20.0
 40
20.0
 40
20.0
 40
21.0
 40
21.0
 40
21.0
 40
22.0
 40
22.0
 40
22.0
 40
23.0
 40
23.0
 40
23.0
 40
24.0
 40
24.0
 40
24.0
 40
25.0
 40
25.0
 40
25.0
 40
26.0
 40
26.0
 40
26.0
 40
27.0
 40
27.0
 40
27.0
 40
28.0
 40
28.0
 40
28.0
 40
29.0
 40
29.0
 40
29.0
 40
30.0
 40
30.0
 40
30.0
 40
31.0
 40
31.0
 40
31.0
 40
32.0
 40
32.0
 40
32.0
 40
33.0
 40
33.0
 40
33.0
 40
34.0
 40
34.0
 40
34.0
 40
35.0
 40
35.0
 40
35.0
 40
36.0
 40
36.0
 40
36.0
 40
36.0
 10
415.9342347960519
 20
266.3917187335246
 30
0.0
 10
415.9342347960519
 20
266.3917187335246
 30
0.0
 10
422.2869504663631
 20
277.3949450405453
 30
0.0
 10
422.2869504663631
 20
277.3949450405453
 30
0.0
 10
414.9358301415014
 20
280.5295189813169
 30
0.0
 10
406.5382983462878
 20
280.0228010264364
 30
0.0
 10
399.617431864006
 20
276.0270368998645
 30
0.0
 10
399.617431864006
 20
276.0270368998645
 30
0.0
 10
361.2247617310404
 20
253.8610184636818
 30
0.0
 10
361.2247617310404
 20
253.8610184636818
 30
0.0
 10
354.3038952487659
 20
249.8652543371136
 30
0.0
 10
349.6662987296841
 20
242.846137450817
 30
0.0
 10
348.7053592299981
 20
234.9125935328339
 30
0.0
 10
348.7053592299981
 20
234.9125935328339
 30
0.0
 10
361.4107905706351
 20
234.9125935328339
 30
0.0
 10
361.4107905706351
 20
234.9125935328339
 30
0.0
 10
361.4403308895035
 20
234.9453909260501
 30
0.0
 10
361.4715635189568
 20
234.9766235555035
 30
0.0
 10
361.5043609121731
 20
235.00616387437
 30
0.0
 10
362.0247317141893
 20
235.4748572037188
 30
0.0
 10
362.8265266128219
 20
235.4329643348501
 30
0.0
 10
363.2952199421707
 20
234.9125935328339
 30
0.0
 10
363.7639132715194
 20
234.3922227308176
 30
0.0
 10
363.7220204026507
 20
233.590427832185
 30
0.0
 10
363.2016496006345
 20
233.1217345028363
 30
0.0
 10
363.2016496006345
 20
233.1217345028363
 30
0.0
 10
363.2016496006363
 20
230.5932132843718
 30
0.0
 10
363.2016496006363
 20
230.5932132843718
 30
0.0
 10
363.2344469938525
 20
230.5636729655071
 30
0.0
 10
363.2656796233059
 20
230.5324403360537
 30
0.0
 10
363.2952199421707
 20
230.4996429428375
 30
0.0
 10
363.7639132715212
 20
229.9792721408212
 30
0.0
 10
363.7220204026507
 20
229.1774772421886
 30
0.0
 10
363.2016496006345
 20
228.7087839128399
 30
0.0
 10
362.6812787986182
 20
228.2400905834893
 30
0.0
 10
361.8794838999856
 20
228.2819834523598
 30
0.0
 10
361.4107905706369
 20
228.802354254376
 30
0.0
 10
361.4107905706351
 20
228.802354254376
 30
0.0
 10
348.7053592299981
 20
228.802354254376
 30
0.0
 10
348.7053592299981
 20
228.802354254376
 30
0.0
 10
349.6662987296859
 20
220.8688103363947
 30
0.0
 10
354.3038952487659
 20
213.8496934500999
 30
0.0
 10
361.2247617310368
 20
209.8539293235317
 30
0.0
 10
361.224761731035
 20
209.8539293235299
 30
0.0
 10
399.6174318640005
 20
187.6879108873418
 30
0.0
 10
399.6174318640005
 20
187.6879108873418
 30
0.0
 10
406.5382983462841
 20
183.6921467607681
 30
0.0
 10
414.9358301415014
 20
183.1854288058857
 30
0.0
 10
422.2869504663649
 20
186.3200027466592
 30
0.0
 10
422.2869504663649
 20
186.3200027466592
 30
0.0
 10
415.9342347960483
 20
197.3232290536889
 30
0.0
 10
415.9342347960483
 20
197.3232290536889
 30
0.0
 10
415.8910612609125
 20
197.3324130236542
 30
0.0
 10
415.8483966956519
 20
197.3438449594614
 30
0.0
 10
415.8064153324685
 20
197.3574781757306
 30
0.0
 10
415.1403296016597
 20
197.5737858449902
 30
0.0
 10
414.7757124410218
 20
198.2891070302667
 30
0.0
 10
414.9920201102796
 20
198.9551927610755
 30
0.0
 10
415.2083277795391
 20
199.6212784918844
 30
0.0
 10
415.9236489648156
 20
199.9858956525222
 30
0.0
 10
416.5897346956244
 20
199.7695879832627
 30
0.0
 10
416.5897346956244
 20
199.7695879832645
 30
0.0
 10
418.7794983048225
 20
201.0338485924949
 30
0.0
 10
418.7794983048225
 20
201.0338485924949
 30
0.0
 10
418.7886822747878
 20
201.0770221276307
 30
0.0
 10
418.800114210595
 20
201.1196866928913
 30
0.0
 10
418.8137474268642
 20
201.1616680560728
 30
0.0
 10
419.0300550961238
 20
201.8277537868817
 30
0.0
 10
419.7453762814002
 20
202.1923709475195
 30
0.0
 10
420.4114620122073
 20
201.97606327826
 30
0.0
 10
421.0775477430161
 20
201.7597556090004
 30
0.0
 10
421.442164903654
 20
201.0444344237239
 30
0.0
 10
421.2258572343944
 20
200.3783486929169
 30
0.0
 10
421.2258572343944
 20
200.3783486929169
 30
0.0
 10
427.5785729047093
 20
189.3751223858926
 30
0.0
 10
427.5785729047093
 20
189.3751223858926
 30
0.0
 10
433.9687537298723
 20
194.1740923631114
 30
0.0
 10
437.7286890059895
 20
201.6999272042849
 30
0.0
 10
437.7286890059913
 20
209.6914554574123
 30
0.0
 10
437.7286890059895
 20
209.6914554574123
 30
0.0
 10
437.7286890059913
 20
254.0234923297885
 30
0.0
 10
437.7286890059913
 20
254.0234923297885
 30
0.0
 10
437.7286890059931
 20
262.0150205829195
 30
0.0
 10
433.9687537298723
 20
269.540855424093
 30
0.0
 10
427.5785729047057
 20
274.3398254013136
 30
0.0
 10
427.5785729047057
 20
274.3398254013155
 30
0.0
 10
421.2258572343944
 20
263.336599094293
 30
0.0
 10
421.2258572343944
 20
263.336599094293
 30
0.0
 10
421.2394904506637
 20
263.2946177311114
 30
0.0
 10
421.2509223864708
 20
263.2519531658509
 30
0.0
 10
421.260106356438
 20
263.2087796307169
 30
0.0
 10
421.4058212852306
 20
262.5237786321086
 30
0.0
 10
420.9686435472358
 20
261.8503503157026
 30
0.0
 10
420.2836425486294
 20
261.7046353869082
 30
0.0
 10
419.5986415500211
 20
261.5589204581156
 30
0.0
 10
418.9252132336151
 20
261.9960981961103
 30
0.0
 10
418.7794983048207
 20
262.6810991947168
 30
0.0
 10
418.7794983048207
 20
262.6810991947168
 30
0.0
 10
416.5897346956226
 20
263.9453598039509
 30
0.0
 10
416.5897346956226
 20
263.9453598039509
 30
0.0
 10
416.5477533324411
 20
263.9317265876798
 30
0.0
 10
416.5050887671805
 20
263.9202946518726
 30
0.0
 10
416.4619152320447
 20
263.9111106819073
 30
0.0
 10
415.7769142334382
 20
263.7653957531147
 30
0.0
 10
415.1034859170322
 20
264.2025734911113
 30
0.0
 10
414.9577709882396
 20
264.8875744897196
 30
0.0
 10
414.8120560594471
 20
265.572575488326
 30
0.0
 10
415.2492337974436
 20
266.246003804732
 30
0.0
 10
415.9342347960519
 20
266.3917187335246
 30
0.0
  0
ENDBLK
  5
E7
330
E4
100
AcDbEntity
  8
0
100
AcDbBlockEnd
  0
BLOCK
  5
EB
330
E9
100
AcDbEntity
  8
0
100
AcDbBlockBegin
  2
block 31
 70
     0
 10
0.0
 20
0.0
 30
0.0
  3
block 31
  1

  0
POLYLINE
  5
ED
330
E9
100
AcDbEntity
  8
0
 62
     7
420
 16777215
370
    25
100
AcDb2dPolyline
 66
     1
 10
0.0
 20
0.0
 30
0.0
  0
VERTEX
  5
EE
330
ED
100
AcDbEntity
  8
0
 62
     7
420
 16777215
370
    25
100
AcDbVertex
100
AcDb2dVertex
 10
415.5991257684764
 20
210.1241334724364
 30
0.0
  0
VERTEX
  5
EF
330
ED
100
AcDbEntity
  8
0
 62
     7
420
 16777215
370
    25
100
AcDbVertex
100
AcDb2dVertex
 10
414.3348651592441
 20
212.3138970816308
 30
0.0
  0
SEQEND
  5
F0
330
ED
100
AcDbEntity
  8
0
 62
     7
420
 16777215
370
    25
  0
ENDBLK
  5
EC
330
E9
100
AcDbEntity
  8
0
100
AcDbBlockEnd
  0
BLOCK
  5
F3
330
F1
100
AcDbEntity
  8
0
100
AcDbBlockBegin
  2
block 32
 70
     0
 10
0.0
 20
0.0
 30
0.0
  3
block 32
  1

  0
POLYLINE
  5
F5
330
F1
100
AcDbEntity
  8
0
 62
     7
420
 16777215
370
    25
100
AcDb2dPolyline
 66
     1
 10
0.0
 20
0.0
 30
0.0
  0
VERTEX
  5
F6
330
F5
100
AcDbEntity
  8
0
 62
     7
420
 16777215
370
    25
100
AcDbVertex
100
AcDb2dVertex
 10
411.8885062296704
 20
212.9693969812088
 30
0.0
  0
VERTEX
  5
F7
330
F5
100
AcDbEntity
  8
0
 62
     7
420
 16777215
370
    25
100
AcDbVertex
100
AcDb2dVertex
 10
409.698742620476
 20
211.7051363719784
 30
0.0
  0
SEQEND
  5
F8
330
F5
100
AcDbEntity
  8
0
 62
     7
420
 16777215
370
    25
  0
ENDBLK
  5
F4
330
F1
100
AcDbEntity
  8
0
100
AcDbBlockEnd
  0
BLOCK
  5
FB
330
F9
100
AcDbEntity
  8
0
100
AcDbBlockBegin
  2
block 33
 70
     0
 10
0.0
 20
0.0
 30
0.0
  3
block 33
  1

  0
POLYLINE
  5
FD
330
F9
100
AcDbEntity
  8
0
 62
     7
420
 16777215
370
    25
100
AcDb2dPolyline
 66
     1
 10
0.0
 20
0.0
 30
0.0
  0
VERTEX
  5
FE
330
FD
100
AcDbEntity
  8
0
 62
     7
420
 16777215
370
    25
100
AcDbVertex
100
AcDb2dVertex
 10
409.043242720898
 20
209.2587774424028
 30
0.0
  0
VERTEX
  5
FF
330
FD
100
AcDbEntity
  8
0
 62
     7
420
 16777215
370
    25
100
AcDbVertex
100
AcDb2dVertex
 10
410.3075033301284
 20
207.0690138332084
 30
0.0
  0
SEQEND
  5
100
330
FD
100
AcDbEntity
  8
0
 62
     7
420
 16777215
370
    25
  0
ENDBLK
  5
FC
330
F9
100
AcDbEntity
  8
0
100
AcDbBlockEnd
  0
BLOCK
  5
103
330
101
100
AcDbEntity
  8
0
100
AcDbBlockBegin
  2
block 34
 70
     0
 10
0.0
 20
0.0
 30
0.0
  3
block 34
  1

  0
POLYLINE
  5
105
330
101
100
AcDbEntity
  8
0
 62
     7
420
 16777215
370
    25
100
AcDb2dPolyline
 66
     1
 10
0.0
 20
0.0
 30
0.0
  0
VERTEX
  5
106
330
105
100
AcDbEntity
  8
0
 62
     7
420
 16777215
370
    25
100
AcDbVertex
100
AcDb2dVertex
 10
412.753862259704
 20
206.4135139336322
 30
0.0
  0
VERTEX
  5
107
330
105
100
AcDbEntity
  8
0
 62
     7
420
 16777215
370
    25
100
AcDbVertex
100
AcDb2dVertex
 10
414.9436258688984
 20
207.6777745428626
 30
0.0
  0
SEQEND
  5
108
330
105
100
AcDbEntity
  8
0
 62
     7
420
 16777215
370
    25
  0
ENDBLK
  5
104
330
101
100
AcDbEntity
  8
0
100
AcDbBlockEnd
  0
BLOCK
  5
10B
330
109
100
AcDbEntity
  8
0
100
AcDbBlockBegin
  2
block 35
 70
     0
 10
0.0
 20
0.0
 30
0.0
  3
block 35
  1

  0
SPLINE
  5
10D
330
109
100
AcDbEntity
  8
0
 62
     7
420
 16777215
370
    25
100
AcDbSpline
210
0.0
220
0.0
230
1.0
 70
     8
 71
     3
 72
    14
 73
    10
 74
     0
 42
0.0000000001
 43
0.0000000001
 12
1.0
 22
0.0
 32
0.0
 13
1.0
 23
0.0
 33
0.0
 40
0.0
 40
0.0
 40
0.0
 40
0.0
 40
1.0
 40
1.0
 40
1.0
 40
2.0
 40
2.0
 40
2.0
 40
3.0
 40
3.0
 40
3.0
 40
3.0
 10
414.9436258688984
 20
207.6777745428608
 30
0.0
 10
415.6097115997072
 20
207.4614668736031
 30
0.0
 10
416.3250327849819
 20
207.8260840342409
 30
0.0
 10
416.5413404542414
 20
208.4921697650479
 30
0.0
 10
416.757648123501
 20
209.1582554958568
 30
0.0
 10
416.3930309628631
 20
209.8735766811333
 30
0.0
 10
415.7269452320543
 20
210.0898843503928
 30
0.0
 10
415.6849638688709
 20
210.103517566662
 30
0.0
 10
415.6422993036085
 20
210.1149495024692
 30
0.0
 10
415.5991257684709
 20
210.1241334724364
 30
0.0
  0
ENDBLK
  5
10C
330
109
100
AcDbEntity
  8
0
100
AcDbBlockEnd
  0
BLOCK
  5
110
330
10E
100
AcDbEntity
  8
0
100
AcDbBlockBegin
  2
block 36
 70
     0
 10
0.0
 20
0.0
 30
0.0
  3
block 36
  1

  0
SPLINE
  5
112
330
10E
100
AcDbEntity
  8
0
 62
     7
420
 16777215
370
    25
100
AcDbSpline
210
0.0
220
0.0
230
1.0
 70
     8
 71
     3
 72
    14
 73
    10
 74
     0
 42
0.0000000001
 43
0.0000000001
 12
1.0
 22
0.0
 32
0.0
 13
1.0
 23
0.0
 33
0.0
 40
0.0
 40
0.0
 40
0.0
 40
0.0
 40
1.0
 40
1.0
 40
1.0
 40
2.0
 40
2.0
 40
2.0
 40
3.0
 40
3.0
 40
3.0
 40
3.0
 10
414.3348651592423
 20
212.3138970816308
 30
0.0
 10
414.5511728285019
 20
212.9799828124378
 30
0.0
 10
414.1865556678658
 20
213.6953039977143
 30
0.0
 10
413.520469937057
 20
213.9116116669757
 30
0.0
 10
412.85438420625
 20
214.1279193362352
 30
0.0
 10
412.1390630209735
 20
213.7633021755992
 30
0.0
 10
411.9227553517121
 20
213.0972164447903
 30
0.0
 10
411.9091221354429
 20
213.0552350816088
 30
0.0
 10
411.8976901996357
 20
213.0125705163482
 30
0.0
 10
411.8885062296704
 20
212.9693969812124
 30
0.0
  0
ENDBLK
  5
111
330
10E
100
AcDbEntity
  8
0
100
AcDbBlockEnd
  0
BLOCK
  5
115
330
113
100
AcDbEntity
  8
0
100
AcDbBlockBegin
  2
block 37
 70
     0
 10
0.0
 20
0.0
 30
0.0
  3
block 37
  1

  0
SPLINE
  5
117
330
113
100
AcDbEntity
  8
0
 62
     7
420
 16777215
370
    25
100
AcDbSpline
210
0.0
220
0.0
230
1.0
 70
     8
 71
     3
 72
    14
 73
    10
 74
     0
 42
0.0000000001
 43
0.0000000001
 12
1.0
 22
0.0
 32
0.0
 13
1.0
 23
0.0
 33
0.0
 40
0.0
 40
0.0
 40
0.0
 40
0.0
 40
1.0
 40
1.0
 40
1.0
 40
2.0
 40
2.0
 40
2.0
 40
3.0
 40
3.0
 40
3.0
 40
3.0
 10
410.3075033301284
 20
207.0690138332084
 30
0.0
 10
410.0911956608688
 20
206.4029281023995
 30
0.0
 10
410.4558128215049
 20
205.687606917123
 30
0.0
 10
411.1218985523137
 20
205.4712992478635
 30
0.0
 10
411.7879842831207
 20
205.2549915786021
 30
0.0
 10
412.5033054683972
 20
205.61960873924
 30
0.0
 10
412.7196131376586
 20
206.285694470047
 30
0.0
 10
412.7332463539278
 20
206.3276758332322
 30
0.0
 10
412.7446782897368
 20
206.3703403984964
 30
0.0
 10
412.7538622597021
 20
206.413513933634
 30
0.0
  0
ENDBLK
  5
116
330
113
100
AcDbEntity
  8
0
100
AcDbBlockEnd
  0
BLOCK
  5
11A
330
118
100
AcDbEntity
  8
0
100
AcDbBlockBegin
  2
block 38
 70
     0
 10
0.0
 20
0.0
 30
0.0
  3
block 38
  1

  0
SPLINE
  5
11C
330
118
100
AcDbEntity
  8
0
 62
     7
420
 16777215
370
    25
100
AcDbSpline
210
0.0
220
0.0
230
1.0
 70
     8
 71
     3
 72
    14
 73
    10
 74
     0
 42
0.0000000001
 43
0.0000000001
 12
1.0
 22
0.0
 32
0.0
 13
1.0
 23
0.0
 33
0.0
 40
0.0
 40
0.0
 40
0.0
 40
0.0
 40
1.0
 40
1.0
 40
1.0
 40
2.0
 40
2.0
 40
2.0
 40
3.0
 40
3.0
 40
3.0
 40
3.0
 10
409.6987426204723
 20
211.7051363719766
 30
0.0
 10
409.0326568896635
 20
211.9214440412361
 30
0.0
 10
408.3173357043888
 20
211.5568268805982
 30
0.0
 10
408.1010280351293
 20
210.8907411497894
 30
0.0
 10
407.8847203658697
 20
210.2246554189805
 30
0.0
 10
408.2493375265076
 20
209.5093342337059
 30
0.0
 10
408.9154232573164
 20
209.2930265644463
 30
0.0
 10
408.957404620498
 20
209.2793933481771
 30
0.0
 10
409.0000691857604
 20
209.2679614123699
 30
0.0
 10
409.0432427208962
 20
209.2587774424028
 30
0.0
  0
ENDBLK
  5
11B
330
118
100
AcDbEntity
  8
0
100
AcDbBlockEnd
  0
BLOCK
  5
11F
330
11D
100
AcDbEntity
  8
0
100
AcDbBlockBegin
  2
block 39
 70
     0
 10
0.0
 20
0.0
 30
0.0
  3
block 39
  1

  0
SPLINE
  5
121
330
11D
100
AcDbEntity
  8
0
 62
     7
420
 16777215
370
    25
100
AcDbSpline
210
0.0
220
0.0
230
1.0
 70
    11
 71
     3
 72
   149
 73
   145
 74
     0
 42
0.0000000001
 43
0.0000000001
 12
1.0
 22
0.0
 32
0.0
 13
1.0
 23
0.0
 33
0.0
 40
0.0
 40
0.0
 40
0.0
 40
0.0
 40
1.0
 40
1.0
 40
1.0
 40
2.0
 40
2.0
 40
2.0
 40
3.0
 40
3.0
 40
3.0
 40
4.0
 40
4.0
 40
4.0
 40
5.0
 40
5.0
 40
5.0
 40
6.0
 40
6.0
 40
6.0
 40
7.0
 40
7.0
 40
7.0
 40
8.0
 40
8.0
 40
8.0
 40
9.0
 40
9.0
 40
9.0
 40
10.0
 40
10.0
 40
10.0
 40
11.0
 40
11.0
 40
11.0
 40
12.0
 40
12.0
 40
12.0
 40
13.0
 40
13.0
 40
13.0
 40
14.0
 40
14.0
 40
14.0
 40
15.0
 40
15.0
 40
15.0
 40
16.0
 40
16.0
 40
16.0
 40
17.0
 40
17.0
 40
17.0
 40
18.0
 40
18.0
 40
18.0
 40
19.0
 40
19.0
 40
19.0
 40
20.0
 40
20.0
 40
20.0
 40
21.0
 40
21.0
 40
21.0
 40
22.0
 40
22.0
 40
22.0
 40
23.0
 40
23.0
 40
23.0
 40
24.0
 40
24.0
 40
24.0
 40
25.0
 40
25.0
 40
25.0
 40
26.0
 40
26.0
 40
26.0
 40
27.0
 40
27.0
 40
27.0
 40
28.0
 40
28.0
 40
28.0
 40
29.0
 40
29.0
 40
29.0
 40
30.0
 40
30.0
 40
30.0
 40
31.0
 40
31.0
 40
31.0
 40
32.0
 40
32.0
 40
32.0
 40
33.0
 40
33.0
 40
33.0
 40
34.0
 40
34.0
 40
34.0
 40
35.0
 40
35.0
 40
35.0
 40
36.0
 40
36.0
 40
36.0
 40
37.0
 40
37.0
 40
37.0
 40
38.0
 40
38.0
 40
38.0
 40
39.0
 40
39.0
 40
39.0
 40
40.0
 40
40.0
 40
40.0
 40
41.0
 40
41.0
 40
41.0
 40
42.0
 40
42.0
 40
42.0
 40
43.0
 40
43.0
 40
43.0
 40
44.0
 40
44.0
 40
44.0
 40
45.0
 40
45.0
 40
45.0
 40
46.0
 40
46.0
 40
46.0
 40
47.0
 40
47.0
 40
47.0
 40
48.0
 40
48.0
 40
48.0
 40
48.0
 10
568.107275186092
 20
201.0338485924949
 30
0.0
 10
568.107275186092
 20
201.0338485924949
 30
0.0
 10
565.917511576894
 20
199.7695879832627
 30
0.0
 10
565.917511576894
 20
199.7695879832627
 30
0.0
 10
565.2514258248902
 20
199.9858956484313
 30
0.0
 10
564.5361046450471
 20
199.6212784771342
 30
0.0
 10
564.3197969857138
 20
198.9551927431021
 30
0.0
 10
564.1034893263804
 20
198.28910700907
 30
0.0
 10
564.4681064976794
 20
197.5737858292287
 30
0.0
 10
565.1341922317097
 20
197.3574781698953
 30
0.0
 10
565.1761735950968
 20
197.34384495425
 30
0.0
 10
565.2188381605265
 20
197.3324130190795
 30
0.0
 10
565.2620116958005
 20
197.3232290497563
 30
0.0
 10
565.2620116773196
 20
197.3232290536871
 30
0.0
 10
572.4691819127747
 20
184.8400440270816
 30
0.0
 10
572.4691819127747
 20
184.8400440270816
 30
0.0
 10
571.4943898908441
 20
184.3503868691732
 30
0.0
 10
570.5046058416156
 20
183.8911630412513
 30
0.0
 10
569.5012649584896
 20
183.463038420894
 30
0.0
 10
564.7629242776275
 20
181.4411928654754
 30
0.0
 10
559.2609833880815
 20
183.2763578345202
 30
0.0
 10
556.6851470259498
 20
187.7378372857129
 30
0.0
 10
556.685147025948
 20
187.7378372857129
 30
0.0
 10
544.4417190496879
 20
208.9440765993932
 30
0.0
 10
544.4417190496879
 20
208.9440765993932
 30
0.0
 10
541.7129962493127
 20
213.6703631294076
 30
0.0
 10
536.6701085545683
 20
216.5818756974604
 30
0.0
 10
531.2126629538252
 20
216.5818756974586
 30
0.0
 10
531.2126629538252
 20
216.5818756974586
 30
0.0
 10
506.7258070013031
 20
216.5818756974586
 30
0.0
 10
506.7258070013031
 20
216.5818756974586
 30
0.0
 10
501.574134277038
 20
216.5818756974622
 30
0.0
 10
497.2338643489384
 20
220.4291137934142
 30
0.0
 10
496.6156636220294
 20
225.5435599725406
 30
0.0
 10
496.4847599776804
 20
226.6265409761654
 30
0.0
 10
496.3875674540686
 20
227.7133310210211
 30
0.0
 10
496.3242269809962
 20
228.802354254376
 30
0.0
 10
496.3242269809962
 20
228.8023542543779
 30
0.0
 10
510.7385674519082
 20
228.8023542543742
 30
0.0
 10
510.7385674519082
 20
228.8023542543742
 30
0.0
 10
511.2072607812588
 20
228.2819834523598
 30
0.0
 10
512.0090556798914
 20
228.2400905834929
 30
0.0
 10
512.5294264819058
 20
228.7087839128417
 30
0.0
 10
513.0497972839203
 20
229.1774772421923
 30
0.0
 10
513.0916901527889
 20
229.9792721408267
 30
0.0
 10
512.6229968234384
 20
230.4996429428411
 30
0.0
 10
512.5934565045718
 20
230.5324403360555
 30
0.0
 10
512.5622238751203
 20
230.5636729655089
 30
0.0
 10
512.529426481904
 20
230.5932132843736
 30
0.0
 10
512.529426481904
 20
230.5932132843736
 30
0.0
 10
512.5294264819058
 20
233.1217345028381
 30
0.0
 10
512.5294264819058
 20
233.1217345028381
 30
0.0
 10
513.0497972839221
 20
233.5904278321868
 30
0.0
 10
513.0916901527889
 20
234.3922227308212
 30
0.0
 10
512.6229968234402
 20
234.9125935328375
 30
0.0
 10
512.1543034940914
 20
235.4329643348519
 30
0.0
 10
511.352508595457
 20
235.4748572037206
 30
0.0
 10
510.8321377934408
 20
235.0061638743719
 30
0.0
 10
510.7993404002245
 20
234.9766235555053
 30
0.0
 10
510.7681077707712
 20
234.9453909260519
 30
0.0
 10
510.7385674519046
 20
234.9125935328339
 30
0.0
 10
510.7385674519046
 20
234.9125935328339
 30
0.0
 10
496.3242269809962
 20
234.9125935328339
 30
0.0
 10
496.3242269809962
 20
234.9125935328339
 30
0.0
 10
496.3875674540668
 20
236.0016167661925
 30
0.0
 10
496.4847599776786
 20
237.0884068110499
 30
0.0
 10
496.6156636220276
 20
238.1713878146766
 30
0.0
 10
497.2338643489402
 20
243.2858339938011
 30
0.0
 10
501.5741342770398
 20
247.1330720897513
 30
0.0
 10
506.7258070013049
 20
247.1330720897531
 30
0.0
 10
506.7258070013031
 20
247.1330720897531
 30
0.0
 10
531.2126629537979
 20
247.1330720897531
 30
0.0
 10
531.2126629537979
 20
247.1330720897531
 30
0.0
 10
536.6701085545446
 20
247.1330720897513
 30
0.0
 10
541.7129962492927
 20
250.0445846578077
 30
0.0
 10
544.4417190496661
 20
254.7708711878258
 30
0.0
 10
544.4417190496661
 20
254.7708711878258
 30
0.0
 10
556.6851470259171
 20
275.9771105015061
 30
0.0
 10
556.6851470259171
 20
275.9771105015061
 30
0.0
 10
559.2609835304029
 20
280.4385900457382
 30
0.0
 10
564.7629244472955
 20
282.2737549327976
 30
0.0
 10
569.5012650980352
 20
280.2519093067731
 30
0.0
 10
570.5046058415992
 20
279.8237847459695
 30
0.0
 10
571.494389890835
 20
279.3645609180421
 30
0.0
 10
572.4691819127729
 20
278.8749037601301
 30
0.0
 10
572.4691819127729
 20
278.8749037601301
 30
0.0
 10
565.2620116773178
 20
266.3917187335246
 30
0.0
 10
565.2620116773178
 20
266.3917187335246
 30
0.0
 10
564.5770106787113
 20
266.246003804732
 30
0.0
 10
564.1398329407166
 20
265.572575488326
 30
0.0
 10
564.2855478695074
 20
264.8875744897196
 30
0.0
 10
564.4312627982999
 20
264.2025734911113
 30
0.0
 10
565.1046911147059
 20
263.7653957531147
 30
0.0
 10
565.7896921133124
 20
263.9111106819073
 30
0.0
 10
565.8328656484482
 20
263.9202946518744
 30
0.0
 10
565.8755302137088
 20
263.9317265876798
 30
0.0
 10
565.9175115768903
 20
263.9453598039509
 30
0.0
 10
565.9175115768903
 20
263.9453598039509
 30
0.0
 10
568.1072751860902
 20
262.6810991947186
 30
0.0
 10
568.1072751860902
 20
262.6810991947186
 30
0.0
 10
568.2529901148828
 20
261.9960981961103
 30
0.0
 10
568.9264184312906
 20
261.5589204581156
 30
0.0
 10
569.6114194298971
 20
261.7046353869082
 30
0.0
 10
570.2964204285054
 20
261.8503503157008
 30
0.0
 10
570.7335981665001
 20
262.5237786321086
 30
0.0
 10
570.5878832377057
 20
263.2087796307151
 30
0.0
 10
570.5786992677404
 20
263.2519531658509
 30
0.0
 10
570.5672673319332
 20
263.2946177311114
 30
0.0
 10
570.553634115664
 20
263.336599094293
 30
0.0
 10
570.553634115664
 20
263.336599094293
 30
0.0
 10
577.7608043511154
 20
275.8197841209021
 30
0.0
 10
577.7608043511154
 20
275.8197841209021
 30
0.0
 10
578.6722558999754
 20
275.2204180454555
 30
0.0
 10
579.5648474255959
 20
274.5928518285236
 30
0.0
 10
580.4372846643782
 20
273.9379954452579
 30
0.0
 10
584.5574246183351
 20
270.8453948215501
 30
0.0
 10
585.7190955797814
 20
265.1629917565588
 30
0.0
 10
583.1432592176498
 20
260.7015123053625
 30
0.0
 10
583.1432592176498
 20
260.7015123053643
 30
0.0
 10
570.8998312414078
 20
239.4952729916895
 30
0.0
 10
570.8998312414078
 20
239.4952729916895
 30
0.0
 10
568.1711084410344
 20
234.7689864616696
 30
0.0
 10
568.1711084410363
 20
228.9459613255567
 30
0.0
 10
570.8998312414133
 20
224.2196747955386
 30
0.0
 10
570.8998312414133
 20
224.2196747955386
 30
0.0
 10
583.1432592176716
 20
203.0134354818711
 30
0.0
 10
583.1432592176716
 20
203.0134354818711
 30
0.0
 10
585.7190955798069
 20
198.551956030673
 30
0.0
 10
584.5574246183605
 20
192.8695529656798
 30
0.0
 10
580.4372846644037
 20
189.776952341972
 30
0.0
 10
579.5648474256159
 20
189.122095958699
 30
0.0
 10
578.6722558999882
 20
188.4945297417617
 30
0.0
 10
577.7608043511209
 20
187.8951636663114
 30
0.0
 10
577.7608043511209
 20
187.8951636663114
 30
0.0
 10
570.553634115664
 20
200.3783486929206
 30
0.0
 10
570.553634115664
 20
200.3783486929206
 30
0.0
 10
570.7699417849217
 20
201.0444344237276
 30
0.0
 10
570.4053246242838
 20
201.7597556090041
 30
0.0
 10
569.739238893475
 20
201.9760632782618
 30
0.0
 10
569.073153162668
 20
202.1923709475195
 30
0.0
 10
568.3578319773915
 20
201.8277537868817
 30
0.0
 10
568.1415243081337
 20
201.1616680560728
 30
0.0
 10
568.1278910918645
 20
201.1196866928913
 30
0.0
 10
568.1164591560573
 20
201.0770221276307
 30
0.0
 10
568.107275186092
 20
201.0338485924949
 30
0.0
  0
ENDBLK
  5
120
330
11D
100
AcDbEntity
  8
0
100
AcDbBlockEnd
  0
BLOCK
  5
124
330
122
100
AcDbEntity
  8
0
100
AcDbBlockBegin
  2
block 40
 70
     0
 10
0.0
 20
0.0
 30
0.0
  3
block 40
  1

  0
SPLINE
  5
126
330
122
100
AcDbEntity
  8
0
 62
     7
420
 16777215
370
    25
100
AcDbSpline
210
0.0
220
0.0
230
1.0
 70
    11
 71
     3
 72
    53
 73
    49
 74
     0
 42
0.0000000001
 43
0.0000000001
 12
1.0
 22
0.0
 32
0.0
 13
1.0
 23
0.0
 33
0.0
 40
0.0
 40
0.0
 40
0.0
 40
0.0
 40
1.0
 40
1.0
 40
1.0
 40
2.0
 40
2.0
 40
2.0
 40
3.0
 40
3.0
 40
3.0
 40
4.0
 40
4.0
 40
4.0
 40
5.0
 40
5.0
 40
5.0
 40
6.0
 40
6.0
 40
6.0
 40
7.0
 40
7.0
 40
7.0
 40
8.0
 40
8.0
 40
8.0
 40
9.0
 40
9.0
 40
9.0
 40
10.0
 40
10.0
 40
10.0
 40
11.0
 40
11.0
 40
11.0
 40
12.0
 40
12.0
 40
12.0
 40
13.0
 40
13.0
 40
13.0
 40
14.0
 40
14.0
 40
14.0
 40
15.0
 40
15.0
 40
15.0
 40
16.0
 40
16.0
 40
16.0
 40
16.0
 10
520.2011713537449
 20
230.5932132843736
 30
0.0
 10
520.2011713537449
 20
230.5932132843736
 30
0.0
 10
520.2011713537449
 20
233.1217345028363
 30
0.0
 10
520.2011713537449
 20
233.1217345028363
 30
0.0
 10
520.1683739605287
 20
233.1512748217028
 30
0.0
 10
520.1371413310735
 20
233.182507451158
 30
0.0
 10
520.1076010122069
 20
233.2153048443743
 30
0.0
 10
519.63890768286
 20
233.7356756463905
 30
0.0
 10
519.6808005517287
 20
234.5374705450231
 30
0.0
 10
520.2011713537449
 20
235.0061638743719
 30
0.0
 10
520.7215421557612
 20
235.4748572037206
 30
0.0
 10
521.5233370543956
 20
235.4329643348501
 30
0.0
 10
521.9920303837443
 20
234.9125935328339
 30
0.0
 10
521.9920303837443
 20
234.9125935328339
 30
0.0
 10
524.5205516022052
 20
234.912593532832
 30
0.0
 10
524.5205516022052
 20
234.912593532832
 30
0.0
 10
524.5500919210717
 20
234.9453909260483
 30
0.0
 10
524.5813245505269
 20
234.9766235555035
 30
0.0
 10
524.6141219437432
 20
235.00616387437
 30
0.0
 10
525.1344927457594
 20
235.4748572037188
 30
0.0
 10
525.936287644392
 20
235.4329643348501
 30
0.0
 10
526.4049809737407
 20
234.9125935328339
 30
0.0
 10
526.8736743030895
 20
234.3922227308176
 30
0.0
 10
526.8317814342208
 20
233.590427832185
 30
0.0
 10
526.3114106322046
 20
233.1217345028363
 30
0.0
 10
526.3114106322046
 20
233.1217345028363
 30
0.0
 10
526.3114106322046
 20
230.5932132843718
 30
0.0
 10
526.3114106322046
 20
230.5932132843718
 30
0.0
 10
526.344208025419
 20
230.5636729655071
 30
0.0
 10
526.3754406548724
 20
230.5324403360537
 30
0.0
 10
526.4049809737389
 20
230.4996429428375
 30
0.0
 10
526.8736743030877
 20
229.979272140823
 30
0.0
 10
526.831781434219
 20
229.1774772421904
 30
0.0
 10
526.3114106322028
 20
228.7087839128399
 30
0.0
 10
525.7910398301883
 20
228.2400905834911
 30
0.0
 10
524.9892449315557
 20
228.2819834523598
 30
0.0
 10
524.5205516022052
 20
228.802354254376
 30
0.0
 10
524.5205516022052
 20
228.8023542543742
 30
0.0
 10
521.9920303837443
 20
228.8023542543742
 30
0.0
 10
521.9920303837443
 20
228.8023542543742
 30
0.0
 10
521.9624900648778
 20
228.769556861158
 30
0.0
 10
521.9312574354226
 20
228.7383242317046
 30
0.0
 10
521.8984600422064
 20
228.708783912838
 30
0.0
 10
521.3780892401901
 20
228.2400905834893
 30
0.0
 10
520.5762943415575
 20
228.281983452358
 30
0.0
 10
520.1076010122088
 20
228.8023542543742
 30
0.0
 10
519.63890768286
 20
229.3227250563905
 30
0.0
 10
519.6808005517287
 20
230.1245199550231
 30
0.0
 10
520.2011713537449
 20
230.5932132843736
 30
0.0
  0
ENDBLK
  5
125
330
122
100
AcDbEntity
  8
0
100
AcDbBlockEnd
  0
BLOCK
  5
129
330
127
100
AcDbEntity
  8
0
100
AcDbBlockBegin
  2
block 41
 70
     0
 10
0.0
 20
0.0
 30
0.0
  3
block 41
  1

  0
SPLINE
  5
12B
330
127
100
AcDbEntity
  8
0
 62
     7
420
 16777215
370
    25
100
AcDbSpline
210
0.0
220
0.0
230
1.0
 70
    11
 71
     3
 72
    53
 73
    49
 74
     0
 42
0.0000000001
 43
0.0000000001
 12
1.0
 22
0.0
 32
0.0
 13
1.0
 23
0.0
 33
0.0
 40
0.0
 40
0.0
 40
0.0
 40
0.0
 40
1.0
 40
1.0
 40
1.0
 40
2.0
 40
2.0
 40
2.0
 40
3.0
 40
3.0
 40
3.0
 40
4.0
 40
4.0
 40
4.0
 40
5.0
 40
5.0
 40
5.0
 40
6.0
 40
6.0
 40
6.0
 40
7.0
 40
7.0
 40
7.0
 40
8.0
 40
8.0
 40
8.0
 40
9.0
 40
9.0
 40
9.0
 40
10.0
 40
10.0
 40
10.0
 40
11.0
 40
11.0
 40
11.0
 40
12.0
 40
12.0
 40
12.0
 40
13.0
 40
13.0
 40
13.0
 40
14.0
 40
14.0
 40
14.0
 40
15.0
 40
15.0
 40
15.0
 40
16.0
 40
16.0
 40
16.0
 40
16.0
 10
564.2714027501697
 20
256.0371732443491
 30
0.0
 10
564.2714027501697
 20
256.0371732443491
 30
0.0
 10
562.0816391409753
 20
257.3014338535813
 30
0.0
 10
562.0816391409753
 20
257.3014338535813
 30
0.0
 10
561.9359241980437
 20
257.9864348685005
 30
0.0
 10
561.2624958751221
 20
258.4236125964617
 30
0.0
 10
560.5774948786857
 20
258.2778976574627
 30
0.0
 10
559.8924938822493
 20
258.1321827184638
 30
0.0
 10
559.4553161542881
 20
257.4587543955422
 30
0.0
 10
559.601031093287
 20
256.7737533991058
 30
0.0
 10
559.6102150638981
 20
256.7305798641046
 30
0.0
 10
559.6216470003401
 20
256.6879152990132
 30
0.0
 10
559.6352802172369
 20
256.6459339360335
 30
0.0
 10
559.6352802113997
 20
256.6459339540052
 30
0.0
 10
558.3710196021693
 20
254.4561703448089
 30
0.0
 10
558.3710196021693
 20
254.4561703448089
 30
0.0
 10
557.6860186035628
 20
254.3104554160163
 30
0.0
 10
557.2488408655681
 20
253.6370270996103
 30
0.0
 10
557.3945557943607
 20
252.952026101002
 30
0.0
 10
557.5402707231515
 20
252.2670251023937
 30
0.0
 10
558.2136990395593
 20
251.829847364399
 30
0.0
 10
558.8987000381676
 20
251.9755622931916
 30
0.0
 10
558.9418735733034
 20
251.9847462631569
 30
0.0
 10
558.984538138564
 20
251.9961781989641
 30
0.0
 10
559.0265195017455
 20
252.0098114152333
 30
0.0
 10
559.0265195017437
 20
252.0098114152333
 30
0.0
 10
561.2162831109417
 20
250.7455508060048
 30
0.0
 10
561.2162831109417
 20
250.7455508060048
 30
0.0
 10
561.3619980397343
 20
250.0605498073965
 30
0.0
 10
562.0354263561421
 20
249.6233720694017
 30
0.0
 10
562.7204273547486
 20
249.7690869981943
 30
0.0
 10
563.4054283533569
 20
249.9148019269887
 30
0.0
 10
563.8426060913516
 20
250.5882302433947
 30
0.0
 10
563.696891162559
 20
251.2732312420012
 30
0.0
 10
563.6877071925919
 20
251.316404777137
 30
0.0
 10
563.6762752567847
 20
251.3590693423976
 30
0.0
 10
563.6626420405155
 20
251.4010507055791
 30
0.0
 10
563.6626420405155
 20
251.4010507055791
 30
0.0
 10
564.9269026497459
 20
253.5908143147753
 30
0.0
 10
564.9269026497459
 20
253.5908143147753
 30
0.0
 10
565.6119036483542
 20
253.7365292435679
 30
0.0
 10
566.0490813863507
 20
254.4099575599739
 30
0.0
 10
565.9033664575581
 20
255.0949585585822
 30
0.0
 10
565.7576515287656
 20
255.7799595571887
 30
0.0
 10
565.0842232123596
 20
256.2171372951852
 30
0.0
 10
564.3992222137513
 20
256.0714223663927
 30
0.0
 10
564.3560486786155
 20
256.0622383964255
 30
0.0
 10
564.3133841133531
 20
256.0508064606183
 30
0.0
 10
564.2714027501697
 20
256.0371732443491
 30
0.0
  0
ENDBLK
  5
12A
330
127
100
AcDbEntity
  8
0
100
AcDbBlockEnd
  0
BLOCK
  5
12E
330
12C
100
AcDbEntity
  8
0
100
AcDbBlockBegin
  2
block 42
 70
     0
 10
0.0
 20
0.0
 30
0.0
  3
block 42
  1

  0
SPLINE
  5
130
330
12C
100
AcDbEntity
  8
0
 62
     7
420
 16777215
370
    25
100
AcDbSpline
210
0.0
220
0.0
230
1.0
 70
    11
 71
     3
 72
    53
 73
    49
 74
     0
 42
0.0000000001
 43
0.0000000001
 12
1.0
 22
0.0
 32
0.0
 13
1.0
 23
0.0
 33
0.0
 40
0.0
 40
0.0
 40
0.0
 40
0.0
 40
1.0
 40
1.0
 40
1.0
 40
2.0
 40
2.0
 40
2.0
 40
3.0
 40
3.0
 40
3.0
 40
4.0
 40
4.0
 40
4.0
 40
5.0
 40
5.0
 40
5.0
 40
6.0
 40
6.0
 40
6.0
 40
7.0
 40
7.0
 40
7.0
 40
8.0
 40
8.0
 40
8.0
 40
9.0
 40
9.0
 40
9.0
 40
10.0
 40
10.0
 40
10.0
 40
11.0
 40
11.0
 40
11.0
 40
12.0
 40
12.0
 40
12.0
 40
13.0
 40
13.0
 40
13.0
 40
14.0
 40
14.0
 40
14.0
 40
15.0
 40
15.0
 40
15.0
 40
16.0
 40
16.0
 40
16.0
 40
16.0
 10
558.3710196021675
 20
209.2587774424028
 30
0.0
 10
558.3710196021675
 20
209.2587774424028
 30
0.0
 10
559.6352802113979
 20
207.0690138332084
 30
0.0
 10
559.6352802113979
 20
207.0690138332084
 30
0.0
 10
559.4189725421384
 20
206.4029281023995
 30
0.0
 10
559.7835897027726
 20
205.687606917123
 30
0.0
 10
560.4496754335814
 20
205.4712992478617
 30
0.0
 10
561.1157611643885
 20
205.2549915786003
 30
0.0
 10
561.8310823496649
 20
205.6196087392364
 30
0.0
 10
562.0473900189263
 20
206.2856944700434
 30
0.0
 10
562.0610232351974
 20
206.3276758332286
 30
0.0
 10
562.0724551710045
 20
206.3703403984928
 30
0.0
 10
562.0816391409717
 20
206.4135139336304
 30
0.0
 10
562.0816391409717
 20
206.4135139336322
 30
0.0
 10
564.2714027501697
 20
207.6777745428626
 30
0.0
 10
564.2714027501697
 20
207.6777745428626
 30
0.0
 10
564.9374884809768
 20
207.4614668736012
 30
0.0
 10
565.6528096662532
 20
207.8260840342391
 30
0.0
 10
565.8691173355128
 20
208.4921697650479
 30
0.0
 10
566.0854250047723
 20
209.1582554958568
 30
0.0
 10
565.7208078441345
 20
209.8735766811333
 30
0.0
 10
565.0547221133274
 20
210.0898843503928
 30
0.0
 10
565.0127407501423
 20
210.103517566662
 30
0.0
 10
564.9700761848817
 20
210.1149495024692
 30
0.0
 10
564.9269026497441
 20
210.1241334724364
 30
0.0
 10
564.9269026497441
 20
210.1241334724364
 30
0.0
 10
563.6626420405155
 20
212.3138970816308
 30
0.0
 10
563.6626420405155
 20
212.3138970816308
 30
0.0
 10
563.8789497097732
 20
212.9799828124414
 30
0.0
 10
563.5143325491354
 20
213.6953039977179
 30
0.0
 10
562.8482468183265
 20
213.9116116669757
 30
0.0
 10
562.1821610875177
 20
214.1279193362352
 30
0.0
 10
561.4668399022412
 20
213.7633021755955
 30
0.0
 10
561.2505322329816
 20
213.0972164447867
 30
0.0
 10
561.2368990167124
 20
213.0552350816051
 30
0.0
 10
561.2254670809052
 20
213.0125705163446
 30
0.0
 10
561.2162831109399
 20
212.9693969812088
 30
0.0
 10
561.2162831109399
 20
212.9693969812088
 30
0.0
 10
559.0265195017419
 20
211.7051363719784
 30
0.0
 10
559.0265195017419
 20
211.7051363719784
 30
0.0
 10
558.360433770933
 20
211.9214440412361
 30
0.0
 10
557.6451125856565
 20
211.5568268805982
 30
0.0
 10
557.428804916397
 20
210.8907411497894
 30
0.0
 10
557.2124972471393
 20
210.2246554189805
 30
0.0
 10
557.5771144077771
 20
209.5093342337041
 30
0.0
 10
558.243200138586
 20
209.2930265644445
 30
0.0
 10
558.2851815017693
 20
209.2793933481753
 30
0.0
 10
558.3278460670299
 20
209.2679614123681
 30
0.0
 10
558.3710196021675
 20
209.2587774424028
 30
0.0
  0
ENDBLK
  5
12F
330
12C
100
AcDbEntity
  8
0
100
AcDbBlockEnd
  0
BLOCK
  5
133
330
131
100
AcDbEntity
  8
0
100
AcDbBlockBegin
  2
block 43
 70
     0
 10
0.0
 20
0.0
 30
0.0
  3
block 43
  1

  0
POLYLINE
  5
135
330
131
100
AcDbEntity
  8
0
 62
     7
420
 16777215
370
    25
100
AcDb2dPolyline
 66
     1
 10
0.0
 20
0.0
 30
0.0
  0
VERTEX
  5
136
330
135
100
AcDbEntity
  8
0
 62
     7
420
 16777215
370
    25
100
AcDbVertex
100
AcDb2dVertex
 10
378.0287225320444
 20
482.9311123569096
 30
0.0
  0
VERTEX
  5
137
330
135
100
AcDbEntity
  8
0
 62
     7
420
 16777215
370
    25
100
AcDbVertex
100
AcDb2dVertex
 10
335.337275137601
 20
462.0510067375099
 30
0.0
  0
SEQEND
  5
138
330
135
100
AcDbEntity
  8
0
 62
     7
420
 16777215
370
    25
  0
ENDBLK
  5
134
330
131
100
AcDbEntity
  8
0
100
AcDbBlockEnd
  0
BLOCK
  5
13B
330
139
100
AcDbEntity
  8
0
100
AcDbBlockBegin
  2
block 44
 70
     0
 10
0.0
 20
0.0
 30
0.0
  3
block 44
  1

  0
POLYLINE
  5
13D
330
139
100
AcDbEntity
  8
0
 62
     7
420
 16777215
370
    25
100
AcDb2dPolyline
 66
     1
 10
0.0
 20
0.0
 30
0.0
  0
VERTEX
  5
13E
330
13D
100
AcDbEntity
  8
0
 62
     7
420
 16777215
370
    25
100
AcDbVertex
100
AcDb2dVertex
 10
201.1641547550716
 20
396.4278176479675
 30
0.0
  0
VERTEX
  5
13F
330
13D
100
AcDbEntity
  8
0
 62
     7
420
 16777215
370
    25
100
AcDbVertex
100
AcDb2dVertex
 10
195.0653765558673
 20
393.4449454166243
 30
0.0
  0
SEQEND
  5
140
330
13D
100
AcDbEntity
  8
0
 62
     7
420
 16777215
370
    25
  0
ENDBLK
  5
13C
330
139
100
AcDbEntity
  8
0
100
AcDbBlockEnd
  0
BLOCK
  5
143
330
141
100
AcDbEntity
  8
0
100
AcDbBlockBegin
  2
block 45
 70
     0
 10
0.0
 20
0.0
 30
0.0
  3
block 45
  1

  0
MTEXT
  5
145
330
141
100
AcDbEntity
  8
0
 62
     7
420
 16777215
100
AcDbMText
 10
341.033656835556
 20
468.6158472299576
 30
0.0
 40
10.18373211539133
 41
0.0
 46
0.0
 71
     7
 72
     1
  1
\fMyriad Pro|b0|i0|c0|p34;\W1;Ă400
 11
0.8983118528511899
 21
0.4393584129467218
 31
0.0
 73
     1
 44
1.0
  0
ENDBLK
  5
144
330
141
100
AcDbEntity
  8
0
100
AcDbBlockEnd
  0
BLOCK
  5
148
330
146
100
AcDbEntity
  8
0
100
AcDbBlockBegin
  2
block 46
 70
     0
 10
0.0
 20
0.0
 30
0.0
  3
block 46
  1

  0
POLYLINE
  5
14A
330
146
100
AcDbEntity
  8
0
 62
     7
420
 16777215
370
    25
100
AcDb2dPolyline
 66
     1
 10
0.0
 20
0.0
 30
0.0
  0
VERTEX
  5
14B
330
14A
100
AcDbEntity
  8
0
 62
     7
420
 16777215
370
    25
100
AcDbVertex
100
AcDb2dVertex
 10
207.2629329542779
 20
399.4106898793098
 30
0.0
  0
VERTEX
  5
14C
330
14A
100
AcDbEntity
  8
0
 62
     7
420
 16777215
370
    25
100
AcDbVertex
100
AcDb2dVertex
 10
329.2384969383966
 20
459.0681345061666
 30
0.0
  0
SEQEND
  5
14D
330
14A
100
AcDbEntity
  8
0
 62
     7
420
 16777215
370
    25
  0
ENDBLK
  5
149
330
146
100
AcDbEntity
  8
0
100
AcDbBlockEnd
  0
BLOCK
  5
150
330
14E
100
AcDbEntity
  8
0
100
AcDbBlockBegin
  2
block 47
 70
     0
 10
0.0
 20
0.0
 30
0.0
  3
block 47
  1

  0
POLYLINE
  5
152
330
14E
100
AcDbEntity
  8
0
370
     0
100
AcDb2dPolyline
 66
     1
 10
0.0
 20
0.0
 30
0.0
  0
VERTEX
  5
153
330
152
100
AcDbEntity
  8
0
370
     0
100
AcDbVertex
100
AcDb2dVertex
 10
200.6670093831799
 20
397.4442806811685
 30
0.0
  0
VERTEX
  5
154
330
152
100
AcDbEntity
  8
0
370
     0
100
AcDbVertex
100
AcDb2dVertex
 10
207.2629329542779
 20
399.4106898793098
 30
0.0
  0
VERTEX
  5
155
330
152
100
AcDbEntity
  8
0
370
     0
100
AcDbVertex
100
AcDb2dVertex
 10
201.6613001269616
 20
395.4113546147673
 30
0.0
  0
VERTEX
  5
156
330
152
100
AcDbEntity
  8
0
370
     0
100
AcDbVertex
100
AcDb2dVertex
 10
200.6670093831799
 20
397.4442806811685
 30
0.0
  0
SEQEND
  5
158
330
152
100
AcDbEntity
  8
0
370
     0
  0
HATCH
  5
157
330
14E
100
AcDbEntity
  8
0
 62
     7
420
 16777215
100
AcDbHatch
 10
0.0
 20
0.0
 30
0.0
210
0.0
220
0.0
230
1.0
  2
SOLID
 70
     1
 71
     0
 91
        1
 92
        1
 93
        3
 72
     1
 10
200.6670093831799
 20
397.4442806811685
 11
207.2629329542779
 21
399.4106898793098
 72
     1
 10
207.2629329542779
 20
399.4106898793098
 11
201.6613001269616
 21
395.4113546147673
 72
     1
 10
201.6613001269616
 20
395.4113546147673
 11
200.6670093831799
 21
397.4442806811685
 97
        0
 75
     2
 76
     1
 98
        0
  0
ENDBLK
  5
151
330
14E
100
AcDbEntity
  8
0
100
AcDbBlockEnd
  0
BLOCK
  5
15B
330
159
100
AcDbEntity
  8
0
100
AcDbBlockBegin
  2
block 48
 70
     0
 10
0.0
 20
0.0
 30
0.0
  3
block 48
  1

  0
POLYLINE
  5
15D
330
159
100
AcDbEntity
  8
0
370
     0
100
AcDb2dPolyline
 66
     1
 10
0.0
 20
0.0
 30
0.0
  0
VERTEX
  5
15E
330
15D
100
AcDbEntity
  8
0
370
     0
100
AcDbVertex
100
AcDb2dVertex
 10
334.840129765711
 20
463.0674697707109
 30
0.0
  0
VERTEX
  5
15F
330
15D
100
AcDbEntity
  8
0
370
     0
100
AcDbVertex
100
AcDb2dVertex
 10
329.2384969383966
 20
459.0681345061666
 30
0.0
  0
VERTEX
  5
160
330
15D
100
AcDbEntity
  8
0
370
     0
100
AcDbVertex
100
AcDb2dVertex
 10
335.8344205094927
 20
461.0345437043088
 30
0.0
  0
VERTEX
  5
161
330
15D
100
AcDbEntity
  8
0
370
     0
100
AcDbVertex
100
AcDb2dVertex
 10
334.840129765711
 20
463.0674697707109
 30
0.0
  0
SEQEND
  5
163
330
15D
100
AcDbEntity
  8
0
370
     0
  0
HATCH
  5
162
330
159
100
AcDbEntity
  8
0
 62
     7
420
 16777215
100
AcDbHatch
 10
0.0
 20
0.0
 30
0.0
210
0.0
220
0.0
230
1.0
  2
SOLID
 70
     1
 71
     0
 91
        1
 92
        1
 93
        3
 72
     1
 10
334.840129765711
 20
463.0674697707109
 11
329.2384969383966
 21
459.0681345061666
 72
     1
 10
329.2384969383966
 20
459.0681345061666
 11
335.8344205094927
 21
461.0345437043088
 72
     1
 10
335.8344205094927
 20
461.0345437043088
 11
334.840129765711
 21
463.0674697707109
 97
        0
 75
     2
 76
     1
 98
        0
  0
ENDBLK
  5
15C
330
159
100
AcDbEntity
  8
0
100
AcDbBlockEnd
  0
BLOCK
  5
166
330
164
100
AcDbEntity
  8
0
100
AcDbBlockBegin
  2
block 49
 70
     0
 10
0.0
 20
0.0
 30
0.0
  3
block 49
  1

  0
POLYLINE
  5
168
330
164
100
AcDbEntity
  8
0
 62
     7
420
 16777215
370
    25
100
AcDb2dPolyline
 66
     1
 10
0.0
 20
0.0
 30
0.0
  0
VERTEX
  5
169
330
168
100
AcDbEntity
  8
0
 62
     7
420
 16777215
370
    25
100
AcDbVertex
100
AcDb2dVertex
 10
451.8810512112796
 20
446.878505187975
 30
0.0
  0
VERTEX
  5
16A
330
168
100
AcDbEntity
  8
0
 62
     7
420
 16777215
370
    25
100
AcDbVertex
100
AcDb2dVertex
 10
451.8810512112796
 20
520.9067867846707
 30
0.0
  0
SEQEND
  5
16B
330
168
100
AcDbEntity
  8
0
 62
     7
420
 16777215
370
    25
  0
ENDBLK
  5
167
330
164
100
AcDbEntity
  8
0
100
AcDbBlockEnd
  0
BLOCK
  5
16E
330
16C
100
AcDbEntity
  8
0
100
AcDbBlockBegin
  2
block 50
 70
     0
 10
0.0
 20
0.0
 30
0.0
  3
block 50
  1

  0
POLYLINE
  5
170
330
16C
100
AcDbEntity
  8
0
 62
     7
420
 16777215
370
    25
100
AcDb2dPolyline
 66
     1
 10
0.0
 20
0.0
 30
0.0
  0
VERTEX
  5
171
330
170
100
AcDbEntity
  8
0
 62
     7
420
 16777215
370
    25
100
AcDbVertex
100
AcDb2dVertex
 10
579.1777028458328
 20
490.9753588408639
 30
0.0
  0
VERTEX
  5
172
330
170
100
AcDbEntity
  8
0
 62
     7
420
 16777215
370
    25
100
AcDbVertex
100
AcDb2dVertex
 10
579.1777028458328
 20
520.9067867846707
 30
0.0
  0
SEQEND
  5
173
330
170
100
AcDbEntity
  8
0
 62
     7
420
 16777215
370
    25
  0
ENDBLK
  5
16F
330
16C
100
AcDbEntity
  8
0
100
AcDbBlockEnd
  0
BLOCK
  5
176
330
174
100
AcDbEntity
  8
0
100
AcDbBlockBegin
  2
block 51
 70
     0
 10
0.0
 20
0.0
 30
0.0
  3
block 51
  1

  0
POLYLINE
  5
178
330
174
100
AcDbEntity
  8
0
 62
     7
420
 16777215
370
    25
100
AcDb2dPolyline
 66
     1
 10
0.0
 20
0.0
 30
0.0
  0
VERTEX
  5
179
330
178
100
AcDbEntity
  8
0
 62
     7
420
 16777215
370
    25
100
AcDbVertex
100
AcDb2dVertex
 10
458.6702059651216
 20
520.4824646125553
 30
0.0
  0
VERTEX
  5
17A
330
178
100
AcDbEntity
  8
0
 62
     7
420
 16777215
370
    25
100
AcDbVertex
100
AcDb2dVertex
 10
572.3885480919889
 20
520.4824646125553
 30
0.0
  0
SEQEND
  5
17B
330
178
100
AcDbEntity
  8
0
 62
     7
420
 16777215
370
    25
  0
ENDBLK
  5
177
330
174
100
AcDbEntity
  8
0
100
AcDbBlockEnd
  0
BLOCK
  5
17E
330
17C
100
AcDbEntity
  8
0
100
AcDbBlockBegin
  2
block 52
 70
     0
 10
0.0
 20
0.0
 30
0.0
  3
block 52
  1

  0
POLYLINE
  5
180
330
17C
100
AcDbEntity
  8
0
370
     0
100
AcDb2dPolyline
 66
     1
 10
0.0
 20
0.0
 30
0.0
  0
VERTEX
  5
181
330
180
100
AcDbEntity
  8
0
370
     0
100
AcDbVertex
100
AcDb2dVertex
 10
458.6702059651216
 20
521.6139904048623
 30
0.0
  0
VERTEX
  5
182
330
180
100
AcDbEntity
  8
0
370
     0
100
AcDbVertex
100
AcDb2dVertex
 10
451.8810512112796
 20
520.4824646125553
 30
0.0
  0
VERTEX
  5
183
330
180
100
AcDbEntity
  8
0
370
     0
100
AcDbVertex
100
AcDb2dVertex
 10
458.6702059651216
 20
519.3509388202474
 30
0.0
  0
VERTEX
  5
184
330
180
100
AcDbEntity
  8
0
370
     0
100
AcDbVertex
100
AcDb2dVertex
 10
458.6702059651216
 20
521.6139904048623
 30
0.0
  0
SEQEND
  5
186
330
180
100
AcDbEntity
  8
0
370
     0
  0
HATCH
  5
185
330
17C
100
AcDbEntity
  8
0
 62
     7
420
 16777215
100
AcDbHatch
 10
0.0
 20
0.0
 30
0.0
210
0.0
220
0.0
230
1.0
  2
SOLID
 70
     1
 71
     0
 91
        1
 92
        1
 93
        3
 72
     1
 10
458.6702059651216
 20
521.6139904048623
 11
451.8810512112796
 21
520.4824646125553
 72
     1
 10
451.8810512112796
 20
520.4824646125553
 11
458.6702059651216
 21
519.3509388202474
 72
     1
 10
458.6702059651216
 20
519.3509388202474
 11
458.6702059651216
 21
521.6139904048623
 97
        0
 75
     2
 76
     1
 98
        0
  0
ENDBLK
  5
17F
330
17C
100
AcDbEntity
  8
0
100
AcDbBlockEnd
  0
BLOCK
  5
189
330
187
100
AcDbEntity
  8
0
100
AcDbBlockBegin
  2
block 53
 70
     0
 10
0.0
 20
0.0
 30
0.0
  3
block 53
  1

  0
POLYLINE
  5
18B
330
187
100
AcDbEntity
  8
0
370
     0
100
AcDb2dPolyline
 66
     1
 10
0.0
 20
0.0
 30
0.0
  0
VERTEX
  5
18C
330
18B
100
AcDbEntity
  8
0
370
     0
100
AcDbVertex
100
AcDb2dVertex
 10
572.3885480919889
 20
521.6139904048623
 30
0.0
  0
VERTEX
  5
18D
330
18B
100
AcDbEntity
  8
0
370
     0
100
AcDbVertex
100
AcDb2dVertex
 10
579.1777028458328
 20
520.4824646125553
 30
0.0
  0
VERTEX
  5
18E
330
18B
100
AcDbEntity
  8
0
370
     0
100
AcDbVertex
100
AcDb2dVertex
 10
572.3885480919889
 20
519.3509388202474
 30
0.0
  0
VERTEX
  5
18F
330
18B
100
AcDbEntity
  8
0
370
     0
100
AcDbVertex
100
AcDb2dVertex
 10
572.3885480919889
 20
521.6139904048623
 30
0.0
  0
SEQEND
  5
191
330
18B
100
AcDbEntity
  8
0
370
     0
  0
HATCH
  5
190
330
187
100
AcDbEntity
  8
0
 62
     7
420
 16777215
100
AcDbHatch
 10
0.0
 20
0.0
 30
0.0
210
0.0
220
0.0
230
1.0
  2
SOLID
 70
     1
 71
     0
 91
        1
 92
        1
 93
        3
 72
     1
 10
572.3885480919889
 20
521.6139904048623
 11
579.1777028458328
 21
520.4824646125553
 72
     1
 10
579.1777028458328
 20
520.4824646125553
 11
572.3885480919889
 21
519.3509388202474
 72
     1
 10
572.3885480919889
 20
519.3509388202474
 11
572.3885480919889
 21
521.6139904048623
 97
        0
 75
     2
 76
     1
 98
        0
  0
ENDBLK
  5
18A
330
187
100
AcDbEntity
  8
0
100
AcDbBlockEnd
  0
BLOCK
  5
194
330
192
100
AcDbEntity
  8
0
100
AcDbBlockBegin
  2
block 54
 70
     0
 10
0.0
 20
0.0
 30
0.0
  3
block 54
  1

  0
MTEXT
  5
196
330
192
100
AcDbEntity
  8
0
 62
     7
420
 16777215
100
AcDbMText
 10
500.981201171875
 20
523.8770141601562
 30
0.0
 40
10.18373210906982
 41
0.0
 46
0.0
 71
     7
 72
     1
  1
\fMyriad Pro|b0|i0|c0|p34;\W1;375
 73
     1
 44
1.0
  0
ENDBLK
  5
195
330
192
100
AcDbEntity
  8
0
100
AcDbBlockEnd
  0
BLOCK
  5
199
330
197
100
AcDbEntity
  8
0
100
AcDbBlockBegin
  2
block 55
 70
     0
 10
0.0
 20
0.0
 30
0.0
  3
block 55
  1

  0
POLYLINE
  5
19B
330
197
100
AcDbEntity
  8
0
 62
     7
420
 16777215
370
    25
100
AcDb2dPolyline
 66
     1
 10
0.0
 20
0.0
 30
0.0
  0
VERTEX
  5
19C
330
19B
100
AcDbEntity
  8
0
 62
     7
420
 16777215
370
    25
100
AcDbVertex
100
AcDb2dVertex
 10
568.925250802542
 20
359.6900191285586
 30
0.0
  0
VERTEX
  5
19D
330
19B
100
AcDbEntity
  8
0
 62
     7
420
 16777215
370
    25
100
AcDbVertex
100
AcDb2dVertex
 10
609.403340046636
 20
359.6900191285586
 30
0.0
  0
SEQEND
  5
19E
330
19B
100
AcDbEntity
  8
0
 62
     7
420
 16777215
370
    25
  0
ENDBLK
  5
19A
330
197
100
AcDbEntity
  8
0
100
AcDbBlockEnd
  0
BLOCK
  5
1A1
330
19F
100
AcDbEntity
  8
0
100
AcDbBlockBegin
  2
block 56
 70
     0
 10
0.0
 20
0.0
 30
0.0
  3
block 56
  1

  0
POLYLINE
  5
1A3
330
19F
100
AcDbEntity
  8
0
 62
     7
420
 16777215
370
    25
100
AcDb2dPolyline
 66
     1
 10
0.0
 20
0.0
 30
0.0
  0
VERTEX
  5
1A4
330
1A3
100
AcDbEntity
  8
0
 62
     7
420
 16777215
370
    25
100
AcDbVertex
100
AcDb2dVertex
 10
568.2055332886412
 20
498.7952554150261
 30
0.0
  0
VERTEX
  5
1A5
330
1A3
100
AcDbEntity
  8
0
 62
     7
420
 16777215
370
    25
100
AcDbVertex
100
AcDb2dVertex
 10
609.403340046636
 20
498.7952554150261
 30
0.0
  0
SEQEND
  5
1A6
330
1A3
100
AcDbEntity
  8
0
 62
     7
420
 16777215
370
    25
  0
ENDBLK
  5
1A2
330
19F
100
AcDbEntity
  8
0
100
AcDbBlockEnd
  0
BLOCK
  5
1A9
330
1A7
100
AcDbEntity
  8
0
100
AcDbBlockBegin
  2
block 57
 70
     0
 10
0.0
 20
0.0
 30
0.0
  3
block 57
  1

  0
POLYLINE
  5
1AB
330
1A7
100
AcDbEntity
  8
0
 62
     7
420
 16777215
370
    25
100
AcDb2dPolyline
 66
     1
 10
0.0
 20
0.0
 30
0.0
  0
VERTEX
  5
1AC
330
1AB
100
AcDbEntity
  8
0
 62
     7
420
 16777215
370
    25
100
AcDbVertex
100
AcDb2dVertex
 10
608.9790178745207
 20
366.4791738824024
 30
0.0
  0
VERTEX
  5
1AD
330
1AB
100
AcDbEntity
  8
0
 62
     7
420
 16777215
370
    25
100
AcDbVertex
100
AcDb2dVertex
 10
608.9790178745207
 20
492.0061006611832
 30
0.0
  0
SEQEND
  5
1AE
330
1AB
100
AcDbEntity
  8
0
 62
     7
420
 16777215
370
    25
  0
ENDBLK
  5
1AA
330
1A7
100
AcDbEntity
  8
0
100
AcDbBlockEnd
  0
BLOCK
  5
1B1
330
1AF
100
AcDbEntity
  8
0
100
AcDbBlockBegin
  2
block 58
 70
     0
 10
0.0
 20
0.0
 30
0.0
  3
block 58
  1

  0
POLYLINE
  5
1B3
330
1AF
100
AcDbEntity
  8
0
370
     0
100
AcDb2dPolyline
 66
     1
 10
0.0
 20
0.0
 30
0.0
  0
VERTEX
  5
1B4
330
1B3
100
AcDbEntity
  8
0
370
     0
100
AcDbVertex
100
AcDb2dVertex
 10
607.8474920822118
 20
366.4791738824024
 30
0.0
  0
VERTEX
  5
1B5
330
1B3
100
AcDbEntity
  8
0
370
     0
100
AcDbVertex
100
AcDb2dVertex
 10
608.9790178745207
 20
359.6900191285586
 30
0.0
  0
VERTEX
  5
1B6
330
1B3
100
AcDbEntity
  8
0
370
     0
100
AcDbVertex
100
AcDb2dVertex
 10
610.1105436668295
 20
366.4791738824024
 30
0.0
  0
VERTEX
  5
1B7
330
1B3
100
AcDbEntity
  8
0
370
     0
100
AcDbVertex
100
AcDb2dVertex
 10
607.8474920822118
 20
366.4791738824024
 30
0.0
  0
SEQEND
  5
1B9
330
1B3
100
AcDbEntity
  8
0
370
     0
  0
HATCH
  5
1B8
330
1AF
100
AcDbEntity
  8
0
 62
     7
420
 16777215
100
AcDbHatch
 10
0.0
 20
0.0
 30
0.0
210
0.0
220
0.0
230
1.0
  2
SOLID
 70
     1
 71
     0
 91
        1
 92
        1
 93
        3
 72
     1
 10
607.8474920822118
 20
366.4791738824024
 11
608.9790178745207
 21
359.6900191285586
 72
     1
 10
608.9790178745207
 20
359.6900191285586
 11
610.1105436668295
 21
366.4791738824024
 72
     1
 10
610.1105436668295
 20
366.4791738824024
 11
607.8474920822118
 21
366.4791738824024
 97
        0
 75
     2
 76
     1
 98
        0
  0
ENDBLK
  5
1B2
330
1AF
100
AcDbEntity
  8
0
100
AcDbBlockEnd
  0
BLOCK
  5
1BC
330
1BA
100
AcDbEntity
  8
0
100
AcDbBlockBegin
  2
block 59
 70
     0
 10
0.0
 20
0.0
 30
0.0
  3
block 59
  1

  0
POLYLINE
  5
1BE
330
1BA
100
AcDbEntity
  8
0
370
     0
100
AcDb2dPolyline
 66
     1
 10
0.0
 20
0.0
 30
0.0
  0
VERTEX
  5
1BF
330
1BE
100
AcDbEntity
  8
0
370
     0
100
AcDbVertex
100
AcDb2dVertex
 10
607.8474920822118
 20
492.0061006611832
 30
0.0
  0
VERTEX
  5
1C0
330
1BE
100
AcDbEntity
  8
0
370
     0
100
AcDbVertex
100
AcDb2dVertex
 10
608.9790178745207
 20
498.7952554150261
 30
0.0
  0
VERTEX
  5
1C1
330
1BE
100
AcDbEntity
  8
0
370
     0
100
AcDbVertex
100
AcDb2dVertex
 10
610.1105436668295
 20
492.0061006611832
 30
0.0
  0
VERTEX
  5
1C2
330
1BE
100
AcDbEntity
  8
0
370
     0
100
AcDbVertex
100
AcDb2dVertex
 10
607.8474920822118
 20
492.0061006611832
 30
0.0
  0
SEQEND
  5
1C4
330
1BE
100
AcDbEntity
  8
0
370
     0
  0
HATCH
  5
1C3
330
1BA
100
AcDbEntity
  8
0
 62
     7
420
 16777215
100
AcDbHatch
 10
0.0
 20
0.0
 30
0.0
210
0.0
220
0.0
230
1.0
  2
SOLID
 70
     1
 71
     0
 91
        1
 92
        1
 93
        3
 72
     1
 10
607.8474920822118
 20
492.0061006611832
 11
608.9790178745207
 21
498.7952554150261
 72
     1
 10
608.9790178745207
 20
498.7952554150261
 11
610.1105436668295
 21
492.0061006611832
 72
     1
 10
610.1105436668295
 20
492.0061006611832
 11
607.8474920822118
 21
492.0061006611832
 97
        0
 75
     2
 76
     1
 98
        0
  0
ENDBLK
  5
1BD
330
1BA
100
AcDbEntity
  8
0
100
AcDbBlockEnd
  0
BLOCK
  5
1C7
330
1C5
100
AcDbEntity
  8
0
100
AcDbBlockBegin
  2
block 60
 70
     0
 10
0.0
 20
0.0
 30
0.0
  3
block 60
  1

  0
MTEXT
  5
1C9
330
1C5
100
AcDbEntity
  8
0
 62
     7
420
 16777215
100
AcDbMText
 10
603.7659149169922
 20
407.4199218749991
 30
0.0
 40
10.18373210906982
 41
0.0
 46
0.0
 71
     7
 72
     1
  1
\fMyriad Pro|b0|i0|c0|p34;\W1;409,8
 11
6.123233995736766E-17
 21
1.0
 31
0.0
 73
     1
 44
1.0
  0
ENDBLK
  5
1C8
330
1C5
100
AcDbEntity
  8
0
100
AcDbBlockEnd
  0
BLOCK
  5
1CC
330
1CA
100
AcDbEntity
  8
0
100
AcDbBlockBegin
  2
block 61
 70
     0
 10
0.0
 20
0.0
 30
0.0
  3
block 61
  1

  0
POLYLINE
  5
1CE
330
1CA
100
AcDbEntity
  8
0
 62
     7
420
 16777215
370
    25
100
AcDb2dPolyline
 66
     1
 10
0.0
 20
0.0
 30
0.0
  0
VERTEX
  5
1CF
330
1CE
100
AcDbEntity
  8
0
 62
     7
420
 16777215
370
    25
100
AcDbVertex
100
AcDb2dVertex
 10
348.7053592299981
 20
250.8552593285422
 30
0.0
  0
VERTEX
  5
1D0
330
1CE
100
AcDbEntity
  8
0
 62
     7
420
 16777215
370
    25
100
AcDbVertex
100
AcDb2dVertex
 10
348.7053592299981
 20
296.7294163226361
 30
0.0
  0
SEQEND
  5
1D1
330
1CE
100
AcDbEntity
  8
0
 62
     7
420
 16777215
370
    25
  0
ENDBLK
  5
1CD
330
1CA
100
AcDbEntity
  8
0
100
AcDbBlockEnd
  0
BLOCK
  5
1D4
330
1D2
100
AcDbEntity
  8
0
100
AcDbBlockBegin
  2
block 62
 70
     0
 10
0.0
 20
0.0
 30
0.0
  3
block 62
  1

  0
POLYLINE
  5
1D6
330
1D2
100
AcDbEntity
  8
0
 62
     7
420
 16777215
370
    25
100
AcDb2dPolyline
 66
     1
 10
0.0
 20
0.0
 30
0.0
  0
VERTEX
  5
1D7
330
1D6
100
AcDbEntity
  8
0
 62
     7
420
 16777215
370
    25
100
AcDbVertex
100
AcDb2dVertex
 10
437.7286890059931
 20
269.9661581254968
 30
0.0
  0
VERTEX
  5
1D8
330
1D6
100
AcDbEntity
  8
0
 62
     7
420
 16777215
370
    25
100
AcDbVertex
100
AcDb2dVertex
 10
437.7286890059931
 20
296.7294163226361
 30
0.0
  0
SEQEND
  5
1D9
330
1D6
100
AcDbEntity
  8
0
 62
     7
420
 16777215
370
    25
  0
ENDBLK
  5
1D5
330
1D2
100
AcDbEntity
  8
0
100
AcDbBlockEnd
  0
BLOCK
  5
1DC
330
1DA
100
AcDbEntity
  8
0
100
AcDbBlockBegin
  2
block 63
 70
     0
 10
0.0
 20
0.0
 30
0.0
  3
block 63
  1

  0
POLYLINE
  5
1DE
330
1DA
100
AcDbEntity
  8
0
 62
     7
420
 16777215
370
    25
100
AcDb2dPolyline
 66
     1
 10
0.0
 20
0.0
 30
0.0
  0
VERTEX
  5
1DF
330
1DE
100
AcDbEntity
  8
0
 62
     7
420
 16777215
370
    25
100
AcDbVertex
100
AcDb2dVertex
 10
355.4945139838419
 20
296.3050941505207
 30
0.0
  0
VERTEX
  5
1E0
330
1DE
100
AcDbEntity
  8
0
 62
     7
420
 16777215
370
    25
100
AcDbVertex
100
AcDb2dVertex
 10
430.9395342521493
 20
296.3050941505207
 30
0.0
  0
SEQEND
  5
1E1
330
1DE
100
AcDbEntity
  8
0
 62
     7
420
 16777215
370
    25
  0
ENDBLK
  5
1DD
330
1DA
100
AcDbEntity
  8
0
100
AcDbBlockEnd
  0
BLOCK
  5
1E4
330
1E2
100
AcDbEntity
  8
0
100
AcDbBlockBegin
  2
block 64
 70
     0
 10
0.0
 20
0.0
 30
0.0
  3
block 64
  1

  0
POLYLINE
  5
1E6
330
1E2
100
AcDbEntity
  8
0
370
     0
100
AcDb2dPolyline
 66
     1
 10
0.0
 20
0.0
 30
0.0
  0
VERTEX
  5
1E7
330
1E6
100
AcDbEntity
  8
0
370
     0
100
AcDbVertex
100
AcDb2dVertex
 10
355.4945139838419
 20
297.4366199428296
 30
0.0
  0
VERTEX
  5
1E8
330
1E6
100
AcDbEntity
  8
0
370
     0
100
AcDbVertex
100
AcDb2dVertex
 10
348.7053592299981
 20
296.3050941505207
 30
0.0
  0
VERTEX
  5
1E9
330
1E6
100
AcDbEntity
  8
0
370
     0
100
AcDbVertex
100
AcDb2dVertex
 10
355.4945139838419
 20
295.1735683582156
 30
0.0
  0
VERTEX
  5
1EA
330
1E6
100
AcDbEntity
  8
0
370
     0
100
AcDbVertex
100
AcDb2dVertex
 10
355.4945139838419
 20
297.4366199428296
 30
0.0
  0
SEQEND
  5
1EC
330
1E6
100
AcDbEntity
  8
0
370
     0
  0
HATCH
  5
1EB
330
1E2
100
AcDbEntity
  8
0
 62
     7
420
 16777215
100
AcDbHatch
 10
0.0
 20
0.0
 30
0.0
210
0.0
220
0.0
230
1.0
  2
SOLID
 70
     1
 71
     0
 91
        1
 92
        1
 93
        3
 72
     1
 10
355.4945139838419
 20
297.4366199428296
 11
348.7053592299981
 21
296.3050941505207
 72
     1
 10
348.7053592299981
 20
296.3050941505207
 11
355.4945139838419
 21
295.1735683582156
 72
     1
 10
355.4945139838419
 20
295.1735683582156
 11
355.4945139838419
 21
297.4366199428296
 97
        0
 75
     2
 76
     1
 98
        0
  0
ENDBLK
  5
1E5
330
1E2
100
AcDbEntity
  8
0
100
AcDbBlockEnd
  0
BLOCK
  5
1EF
330
1ED
100
AcDbEntity
  8
0
100
AcDbBlockBegin
  2
block 65
 70
     0
 10
0.0
 20
0.0
 30
0.0
  3
block 65
  1

  0
POLYLINE
  5
1F1
330
1ED
100
AcDbEntity
  8
0
370
     0
100
AcDb2dPolyline
 66
     1
 10
0.0
 20
0.0
 30
0.0
  0
VERTEX
  5
1F2
330
1F1
100
AcDbEntity
  8
0
370
     0
100
AcDbVertex
100
AcDb2dVertex
 10
430.9395342521493
 20
297.4366199428296
 30
0.0
  0
VERTEX
  5
1F3
330
1F1
100
AcDbEntity
  8
0
370
     0
100
AcDbVertex
100
AcDb2dVertex
 10
437.7286890059931
 20
296.3050941505207
 30
0.0
  0
VERTEX
  5
1F4
330
1F1
100
AcDbEntity
  8
0
370
     0
100
AcDbVertex
100
AcDb2dVertex
 10
430.9395342521493
 20
295.1735683582156
 30
0.0
  0
VERTEX
  5
1F5
330
1F1
100
AcDbEntity
  8
0
370
     0
100
AcDbVertex
100
AcDb2dVertex
 10
430.9395342521493
 20
297.4366199428296
 30
0.0
  0
SEQEND
  5
1F7
330
1F1
100
AcDbEntity
  8
0
370
     0
  0
HATCH
  5
1F6
330
1ED
100
AcDbEntity
  8
0
 62
     7
420
 16777215
100
AcDbHatch
 10
0.0
 20
0.0
 30
0.0
210
0.0
220
0.0
230
1.0
  2
SOLID
 70
     1
 71
     0
 91
        1
 92
        1
 93
        3
 72
     1
 10
430.9395342521493
 20
297.4366199428296
 11
437.7286890059931
 21
296.3050941505207
 72
     1
 10
437.7286890059931
 20
296.3050941505207
 11
430.9395342521493
 21
295.1735683582156
 72
     1
 10
430.9395342521493
 20
295.1735683582156
 11
430.9395342521493
 21
297.4366199428296
 97
        0
 75
     2
 76
     1
 98
        0
  0
ENDBLK
  5
1F0
330
1ED
100
AcDbEntity
  8
0
100
AcDbBlockEnd
  0
BLOCK
  5
1FA
330
1F8
100
AcDbEntity
  8
0
100
AcDbBlockBegin
  2
block 66
 70
     0
 10
0.0
 20
0.0
 30
0.0
  3
block 66
  1

  0
MTEXT
  5
1FC
330
1F8
100
AcDbEntity
  8
0
 62
     7
420
 16777215
100
AcDbMText
 10
371.3947448730469
 20
301.5181884765625
 30
0.0
 40
10.18373210906982
 41
0.0
 46
0.0
 71
     7
 72
     1
  1
\fMyriad Pro|b0|i0|c0|p34;\W1;262,3
 73
     1
 44
1.0
  0
ENDBLK
  5
1FB
330
1F8
100
AcDbEntity
  8
0
100
AcDbBlockEnd
  0
BLOCK
  5
1FF
330
1FD
100
AcDbEntity
  8
0
100
AcDbBlockBegin
  2
block 67
 70
     0
 10
0.0
 20
0.0
 30
0.0
  3
block 67
  1

  0
SPLINE
  5
201
330
1FD
100
AcDbEntity
  8
0
 62
     7
420
 16777215
370
    25
100
AcDbSpline
210
0.0
220
0.0
230
1.0
 70
    11
 71
     3
 72
    32
 73
    28
 74
     0
 42
0.0000000001
 43
0.0000000001
 12
1.0
 22
0.0
 32
0.0
 13
1.0
 23
0.0
 33
0.0
 40
0.0
 40
0.0
 40
0.0
 40
0.0
 40
1.0
 40
1.0
 40
1.0
 40
2.0
 40
2.0
 40
2.0
 40
3.0
 40
3.0
 40
3.0
 40
4.0
 40
4.0
 40
4.0
 40
5.0
 40
5.0
 40
5.0
 40
6.0
 40
6.0
 40
6.0
 40
7.0
 40
7.0
 40
7.0
 40
8.0
 40
8.0
 40
8.0
 40
9.0
 40
9.0
 40
9.0
 40
9.0
 10
540.9887073554673
 20
363.0941317134166
 30
0.0
 10
540.9887073554673
 20
363.0941317134166
 30
0.0
 10
464.6107163747311
 20
407.1909853663055
 30
0.0
 10
464.6107163747311
 20
407.1909853663055
 30
0.0
 10
460.7404090953005
 20
409.4255083159323
 30
0.0
 10
457.5264776613731
 20
412.6394397498598
 30
0.0
 10
455.2919547117472
 20
416.5097470292894
 30
0.0
 10
448.2615547715177
 20
428.6867569232945
 30
0.0
 10
452.4337064807278
 20
444.2574390789614
 30
0.0
 10
464.6107163747329
 20
451.2878390191918
 30
0.0
 10
464.6107163747347
 20
451.2878390191918
 30
0.0
 10
540.9887073554619
 20
495.3846926720762
 30
0.0
 10
540.9887073554619
 20
495.3846926720762
 30
0.0
 10
544.8590149967386
 20
497.6192157537198
 30
0.0
 10
549.2493269990391
 20
498.7955962391397
 30
0.0
 10
553.7183728982945
 20
498.7955961725456
 30
0.0
 10
567.7791727787517
 20
498.7955959630244
 30
0.0
 10
579.1777030553549
 20
487.3970653467204
 30
0.0
 10
579.1777028458328
 20
473.3362654662633
 30
0.0
 10
579.1777028458328
 20
473.3362658456363
 30
0.0
 10
579.1777028458328
 20
385.1425585398611
 30
0.0
 10
579.1777028458328
 20
385.1425585398611
 30
0.0
 10
579.1777028458328
 20
380.6735126406056
 30
0.0
 10
578.0013222949929
 20
376.2832006558347
 30
0.0
 10
575.7667993453651
 20
372.4128933764023
 30
0.0
 10
568.7363994051357
 20
360.2358834823972
 30
0.0
 10
553.1657172494706
 20
356.0637317731871
 30
0.0
 10
540.9887073554673
 20
363.0941317134166
 30
0.0
  0
ENDBLK
  5
200
330
1FD
100
AcDbEntity
  8
0
100
AcDbBlockEnd
  0
BLOCK
  5
204
330
202
100
AcDbEntity
  8
0
100
AcDbBlockBegin
  2
block 68
 70
     0
 10
0.0
 20
0.0
 30
0.0
  3
block 68
  1

  0
POLYLINE
  5
206
330
202
100
AcDbEntity
  8
0
 62
     7
420
 16777215
370
    25
100
AcDb2dPolyline
 66
     1
 10
0.0
 20
0.0
 30
0.0
  0
VERTEX
  5
207
330
206
100
AcDbEntity
  8
0
 62
     7
420
 16777215
370
    25
100
AcDbVertex
100
AcDb2dVertex
 10
47.27304675404412
 20
263.5497696709444
 30
0.0
  0
VERTEX
  5
208
330
206
100
AcDbEntity
  8
0
 62
     7
420
 16777215
370
    25
100
AcDbVertex
100
AcDb2dVertex
 10
13.27163439439391
 20
263.5497696709444
 30
0.0
  0
SEQEND
  5
209
330
206
100
AcDbEntity
  8
0
 62
     7
420
 16777215
370
    25
  0
ENDBLK
  5
205
330
202
100
AcDbEntity
  8
0
100
AcDbBlockEnd
  0
BLOCK
  5
20C
330
20A
100
AcDbEntity
  8
0
100
AcDbBlockBegin
  2
block 69
 70
     0
 10
0.0
 20
0.0
 30
0.0
  3
block 69
  1

  0
POLYLINE
  5
20E
330
20A
100
AcDbEntity
  8
0
 62
     7
420
 16777215
370
    25
100
AcDb2dPolyline
 66
     1
 10
0.0
 20
0.0
 30
0.0
  0
VERTEX
  5
20F
330
20E
100
AcDbEntity
  8
0
 62
     7
420
 16777215
370
    25
100
AcDbVertex
100
AcDb2dVertex
 10
61.19081398518028
 20
417.3241248454833
 30
0.0
  0
VERTEX
  5
210
330
20E
100
AcDbEntity
  8
0
 62
     7
420
 16777215
370
    25
100
AcDbVertex
100
AcDb2dVertex
 10
13.27163439439391
 20
417.3241248454833
 30
0.0
  0
SEQEND
  5
211
330
20E
100
AcDbEntity
  8
0
 62
     7
420
 16777215
370
    25
  0
ENDBLK
  5
20D
330
20A
100
AcDbEntity
  8
0
100
AcDbBlockEnd
  0
BLOCK
  5
214
330
212
100
AcDbEntity
  8
0
100
AcDbBlockBegin
  2
block 70
 70
     0
 10
0.0
 20
0.0
 30
0.0
  3
block 70
  1

  0
POLYLINE
  5
216
330
212
100
AcDbEntity
  8
0
 62
     7
420
 16777215
370
    25
100
AcDb2dPolyline
 66
     1
 10
0.0
 20
0.0
 30
0.0
  0
VERTEX
  5
217
330
216
100
AcDbEntity
  8
0
 62
     7
420
 16777215
370
    25
100
AcDbVertex
100
AcDb2dVertex
 10
13.69595656650927
 20
270.3389244247883
 30
0.0
  0
VERTEX
  5
218
330
216
100
AcDbEntity
  8
0
 62
     7
420
 16777215
370
    25
100
AcDbVertex
100
AcDb2dVertex
 10
13.69595656650927
 20
410.5349700916404
 30
0.0
  0
SEQEND
  5
219
330
216
100
AcDbEntity
  8
0
 62
     7
420
 16777215
370
    25
  0
ENDBLK
  5
215
330
212
100
AcDbEntity
  8
0
100
AcDbBlockEnd
  0
BLOCK
  5
21C
330
21A
100
AcDbEntity
  8
0
100
AcDbBlockBegin
  2
block 71
 70
     0
 10
0.0
 20
0.0
 30
0.0
  3
block 71
  1

  0
POLYLINE
  5
21E
330
21A
100
AcDbEntity
  8
0
370
     0
100
AcDb2dPolyline
 66
     1
 10
0.0
 20
0.0
 30
0.0
  0
VERTEX
  5
21F
330
21E
100
AcDbEntity
  8
0
370
     0
100
AcDbVertex
100
AcDb2dVertex
 10
12.56443077420226
 20
270.3389244247883
 30
0.0
  0
VERTEX
  5
220
330
21E
100
AcDbEntity
  8
0
370
     0
100
AcDbVertex
100
AcDb2dVertex
 10
13.69595656650927
 20
263.5497696709444
 30
0.0
  0
VERTEX
  5
221
330
21E
100
AcDbEntity
  8
0
370
     0
100
AcDbVertex
100
AcDb2dVertex
 10
14.82748235881809
 20
270.3389244247883
 30
0.0
  0
VERTEX
  5
222
330
21E
100
AcDbEntity
  8
0
370
     0
100
AcDbVertex
100
AcDb2dVertex
 10
12.56443077420226
 20
270.3389244247883
 30
0.0
  0
SEQEND
  5
224
330
21E
100
AcDbEntity
  8
0
370
     0
  0
HATCH
  5
223
330
21A
100
AcDbEntity
  8
0
 62
     7
420
 16777215
100
AcDbHatch
 10
0.0
 20
0.0
 30
0.0
210
0.0
220
0.0
230
1.0
  2
SOLID
 70
     1
 71
     0
 91
        1
 92
        1
 93
        3
 72
     1
 10
12.56443077420226
 20
270.3389244247883
 11
13.69595656650927
 21
263.5497696709444
 72
     1
 10
13.69595656650927
 20
263.5497696709444
 11
14.82748235881809
 21
270.3389244247883
 72
     1
 10
14.82748235881809
 20
270.3389244247883
 11
12.56443077420226
 21
270.3389244247883
 97
        0
 75
     2
 76
     1
 98
        0
  0
ENDBLK
  5
21D
330
21A
100
AcDbEntity
  8
0
100
AcDbBlockEnd
  0
BLOCK
  5
227
330
225
100
AcDbEntity
  8
0
100
AcDbBlockBegin
  2
block 72
 70
     0
 10
0.0
 20
0.0
 30
0.0
  3
block 72
  1

  0
POLYLINE
  5
229
330
225
100
AcDbEntity
  8
0
370
     0
100
AcDb2dPolyline
 66
     1
 10
0.0
 20
0.0
 30
0.0
  0
VERTEX
  5
22A
330
229
100
AcDbEntity
  8
0
370
     0
100
AcDbVertex
100
AcDb2dVertex
 10
12.56443077420226
 20
410.5349700916404
 30
0.0
  0
VERTEX
  5
22B
330
229
100
AcDbEntity
  8
0
370
     0
100
AcDbVertex
100
AcDb2dVertex
 10
13.69595656650927
 20
417.3241248454833
 30
0.0
  0
VERTEX
  5
22C
330
229
100
AcDbEntity
  8
0
370
     0
100
AcDbVertex
100
AcDb2dVertex
 10
14.82748235881809
 20
410.5349700916404
 30
0.0
  0
VERTEX
  5
22D
330
229
100
AcDbEntity
  8
0
370
     0
100
AcDbVertex
100
AcDb2dVertex
 10
12.56443077420226
 20
410.5349700916404
 30
0.0
  0
SEQEND
  5
22F
330
229
100
AcDbEntity
  8
0
370
     0
  0
HATCH
  5
22E
330
225
100
AcDbEntity
  8
0
 62
     7
420
 16777215
100
AcDbHatch
 10
0.0
 20
0.0
 30
0.0
210
0.0
220
0.0
230
1.0
  2
SOLID
 70
     1
 71
     0
 91
        1
 92
        1
 93
        3
 72
     1
 10
12.56443077420226
 20
410.5349700916404
 11
13.69595656650927
 21
417.3241248454833
 72
     1
 10
13.69595656650927
 20
417.3241248454833
 11
14.82748235881809
 21
410.5349700916404
 72
     1
 10
14.82748235881809
 20
410.5349700916404
 11
12.56443077420226
 21
410.5349700916404
 97
        0
 75
     2
 76
     1
 98
        0
  0
ENDBLK
  5
228
330
225
100
AcDbEntity
  8
0
100
AcDbBlockEnd
  0
BLOCK
  5
232
330
230
100
AcDbEntity
  8
0
100
AcDbBlockBegin
  2
block 73
 70
     0
 10
0.0
 20
0.0
 30
0.0
  3
block 73
  1

  0
MTEXT
  5
234
330
230
100
AcDbEntity
  8
0
 62
     7
420
 16777215
100
AcDbMText
 10
10.3013916015625
 20
325.888671875
 30
0.0
 40
10.18373210906982
 41
0.0
 46
0.0
 71
     7
 72
     1
  1
\fMyriad Pro|b0|i0|c0|p34;\W1;453
 11
6.123233995736766E-17
 21
1.0
 31
0.0
 73
     1
 44
1.0
  0
ENDBLK
  5
233
330
230
100
AcDbEntity
  8
0
100
AcDbBlockEnd
  0
BLOCK
  5
237
330
235
100
AcDbEntity
  8
0
100
AcDbBlockBegin
  2
block 74
 70
     0
 10
0.0
 20
0.0
 30
0.0
  3
block 74
  1

  0
SPLINE
  5
239
330
235
100
AcDbEntity
  8
0
 62
     7
420
 16777215
370
    25
100
AcDbSpline
210
0.0
220
0.0
230
1.0
 70
    11
 71
     3
 72
   113
 73
   109
 74
     0
 42
0.0000000001
 43
0.0000000001
 12
1.0
 22
0.0
 32
0.0
 13
1.0
 23
0.0
 33
0.0
 40
0.0
 40
0.0
 40
0.0
 40
0.0
 40
1.0
 40
1.0
 40
1.0
 40
2.0
 40
2.0
 40
2.0
 40
3.0
 40
3.0
 40
3.0
 40
4.0
 40
4.0
 40
4.0
 40
5.0
 40
5.0
 40
5.0
 40
6.0
 40
6.0
 40
6.0
 40
7.0
 40
7.0
 40
7.0
 40
8.0
 40
8.0
 40
8.0
 40
9.0
 40
9.0
 40
9.0
 40
10.0
 40
10.0
 40
10.0
 40
11.0
 40
11.0
 40
11.0
 40
12.0
 40
12.0
 40
12.0
 40
13.0
 40
13.0
 40
13.0
 40
14.0
 40
14.0
 40
14.0
 40
15.0
 40
15.0
 40
15.0
 40
16.0
 40
16.0
 40
16.0
 40
17.0
 40
17.0
 40
17.0
 40
18.0
 40
18.0
 40
18.0
 40
19.0
 40
19.0
 40
19.0
 40
20.0
 40
20.0
 40
20.0
 40
21.0
 40
21.0
 40
21.0
 40
22.0
 40
22.0
 40
22.0
 40
23.0
 40
23.0
 40
23.0
 40
24.0
 40
24.0
 40
24.0
 40
25.0
 40
25.0
 40
25.0
 40
26.0
 40
26.0
 40
26.0
 40
27.0
 40
27.0
 40
27.0
 40
28.0
 40
28.0
 40
28.0
 40
29.0
 40
29.0
 40
29.0
 40
30.0
 40
30.0
 40
30.0
 40
31.0
 40
31.0
 40
31.0
 40
32.0
 40
32.0
 40
32.0
 40
33.0
 40
33.0
 40
33.0
 40
34.0
 40
34.0
 40
34.0
 40
35.0
 40
35.0
 40
35.0
 40
36.0
 40
36.0
 40
36.0
 40
36.0
 10
71.05162659721827
 20
411.2138855670255
 30
0.0
 10
71.05162659721827
 20
411.2138855670255
 30
0.0
 10
76.43935836750916
 20
366.495711873602
 30
0.0
 10
76.43935836750916
 20
366.495711873602
 30
0.0
 10
77.36885935841929
 20
358.7808526810077
 30
0.0
 10
77.18983569535612
 20
350.9726919295026
 30
0.0
 10
75.90772857420325
 20
343.3085411665998
 30
0.0
 10
75.90772877450581
 20
343.3085423639568
 30
0.0
 10
62.56518316915754
 20
263.5497696709444
 30
0.0
 10
62.56518316915754
 20
263.5497696709444
 30
0.0
 10
62.56518316915754
 20
263.5497696709444
 30
0.0
 10
79.53807003951079
 20
263.5497696709444
 30
0.0
 10
79.53807003951079
 20
263.5497696709444
 30
0.0
 10
79.5380700395126
 20
263.5497696709426
 30
0.0
 10
91.70897489510662
 20
315.1183443183418
 30
0.0
 10
91.70897489510662
 20
315.1183443183418
 30
0.0
 10
93.19597683321626
 20
321.4188266042584
 30
0.0
 10
96.45353655563122
 20
327.1627462291563
 30
0.0
 10
101.0975321027154
 20
331.6727969115473
 30
0.0
 10
101.0975321027145
 20
331.6727969115473
 30
0.0
 10
116.0392437940045
 20
346.1835509220055
 30
0.0
 10
116.0392437940045
 20
346.1835509220055
 30
0.0
 10
117.3556602719091
 20
347.4619985377049
 30
0.0
 10
118.0984922216248
 20
349.2188892372797
 30
0.0
 10
118.0984922216248
 20
351.0539316480681
 30
0.0
 10
118.0984922216248
 20
351.0539316480681
 30
0.0
 10
118.0984922216248
 20
351.8087814708979
 30
0.0
 10
118.0984922216248
 20
351.8087814708979
 30
0.0
 10
118.0984922216248
 20
351.8087814708997
 30
0.0
 10
109.7056191208567
 20
351.8087814708961
 30
0.0
 10
109.7056191208567
 20
351.8087814708961
 30
0.0
 10
109.676078801991
 20
351.7759840776798
 30
0.0
 10
109.6448461725367
 20
351.7447514482265
 30
0.0
 10
109.6120487793196
 20
351.7152111293599
 30
0.0
 10
109.0916779773033
 20
351.2465178000111
 30
0.0
 10
108.2898830786698
 20
351.2884106688834
 30
0.0
 10
107.821189749322
 20
351.8087814708997
 30
0.0
 10
107.3524964199742
 20
352.329152272916
 30
0.0
 10
107.3943892888446
 20
353.1309471715504
 30
0.0
 10
107.9147600908618
 20
353.5996405008973
 30
0.0
 10
107.9147600908618
 20
353.5996405008973
 30
0.0
 10
107.9147600908618
 20
357.9190207493575
 30
0.0
 10
107.9147600908618
 20
357.9190207493575
 30
0.0
 10
107.9147600908618
 20
357.9190207493575
 30
0.0
 10
101.8045208124031
 20
357.9190207493575
 30
0.0
 10
101.8045208124031
 20
357.9190207493575
 30
0.0
 10
101.8045208124022
 20
357.9190207493593
 30
0.0
 10
101.8045208124049
 20
353.5996405008973
 30
0.0
 10
101.8045208124049
 20
353.5996405008973
 30
0.0
 10
101.8373182056221
 20
353.5701001820307
 30
0.0
 10
101.8685508350763
 20
353.5388675525774
 30
0.0
 10
101.8980911539429
 20
353.5060701593611
 30
0.0
 10
102.3667844832917
 20
352.9856993573449
 30
0.0
 10
102.3248916144212
 20
352.1839044587105
 30
0.0
 10
101.8045208124049
 20
351.7152111293617
 30
0.0
 10
101.2841500103887
 20
351.2465178000148
 30
0.0
 10
100.4823551117561
 20
351.2884106688834
 30
0.0
 10
100.0136617824073
 20
351.8087814708997
 30
0.0
 10
100.0136617824064
 20
351.8087814708997
 30
0.0
 10
95.90621420526168
 20
351.8087814708961
 30
0.0
 10
95.90621420526168
 20
351.8087814708961
 30
0.0
 10
95.87667387326019
 20
351.7759840640811
 30
0.0
 10
95.84544124334116
 20
351.7447514350915
 30
0.0
 10
95.81264384968381
 20
351.7152111167143
 30
0.0
 10
95.29227304068263
 20
351.2465177951217
 30
0.0
 10
94.49047814267396
 20
351.2884106759411
 30
0.0
 10
94.02178482108138
 20
351.8087814849441
 30
0.0
 10
93.5530914994888
 20
352.3291522939453
 30
0.0
 10
93.59498438030914
 20
353.130947191954
 30
0.0
 10
94.11535518931123
 20
353.5996405135465
 30
0.0
 10
94.11535517527045
 20
353.5996405009009
 30
0.0
 10
94.11535517527045
 20
357.9190207493575
 30
0.0
 10
94.11535517527045
 20
357.9190207493575
 30
0.0
 10
94.11535517527045
 20
357.9190207493593
 30
0.0
 10
88.0245134818224
 20
411.2138855670246
 30
0.0
 10
88.0245134818224
 20
411.2138855670246
 30
0.0
 10
88.0245134818233
 20
411.2138855670246
 30
0.0
 10
84.38404870875002
 20
411.2138855670228
 30
0.0
 10
84.38404870875002
 20
411.2138855670228
 30
0.0
 10
84.35450838988436
 20
411.1810881738065
 30
0.0
 10
84.32327576043008
 20
411.1498555443522
 30
0.0
 10
84.29047836721293
 20
411.1203152254857
 30
0.0
 10
83.77010756519667
 20
410.6516218961378
 30
0.0
 10
82.96831266656318
 20
410.6935147650083
 30
0.0
 10
82.49961933721534
 20
411.2138855670255
 30
0.0
 10
82.03092600786749
 20
411.7342563690418
 30
0.0
 10
82.07281887673798
 20
412.5360512676752
 30
0.0
 10
82.59318967875515
 20
413.0047445970231
 30
0.0
 10
82.59318967875333
 20
413.0047445970231
 30
0.0
 10
82.59318967875333
 20
417.3241248454833
 30
0.0
 10
82.59318967875333
 20
417.3241248454833
 30
0.0
 10
82.59318967875333
 20
417.3241248454833
 30
0.0
 10
76.48295040029461
 20
417.3241248454833
 30
0.0
 10
76.48295040029461
 20
417.3241248454833
 30
0.0
 10
76.48295040029552
 20
417.3241248454833
 30
0.0
 10
76.48295040029552
 20
413.0047445970249
 30
0.0
 10
76.48295040029552
 20
413.0047445970249
 30
0.0
 10
76.51574780711053
 20
412.9752042650234
 30
0.0
 10
76.54698043609915
 20
412.9439716351044
 30
0.0
 10
76.57652075447731
 20
412.911174241448
 30
0.0
 10
77.04521407607263
 20
412.3908034324486
 30
0.0
 10
77.00332119525592
 20
411.589008534439
 30
0.0
 10
76.48295038625656
 20
411.1203152128437
 30
0.0
 10
75.9625795772572
 20
410.6516218912484
 30
0.0
 10
75.16078467924763
 20
410.6935147720651
 30
0.0
 10
74.69209135765232
 20
411.2138855810645
 30
0.0
 10
74.69209137029793
 20
411.2138855670246
 30
0.0
 10
71.05162659721736
 20
411.2138855670255
 30
0.0
 10
71.05162659721827
 20
411.2138855670255
 30
0.0
  0
ENDBLK
  5
238
330
235
100
AcDbEntity
  8
0
100
AcDbBlockEnd
  0
BLOCK
  5
23C
330
23A
100
AcDbEntity
  8
0
100
AcDbBlockBegin
  2
block 75
 70
     0
 10
0.0
 20
0.0
 30
0.0
  3
block 75
  1

  0
POLYLINE
  5
23E
330
23A
100
AcDbEntity
  8
0
 62
     7
420
 16777215
370
    25
100
AcDb2dPolyline
 66
     1
 10
0.0
 20
0.0
 30
0.0
  0
VERTEX
  5
23F
330
23E
100
AcDbEntity
  8
0
 62
     7
420
 16777215
370
    25
100
AcDbVertex
100
AcDb2dVertex
 10
118.0984922216248
 20
339.747810302506
 30
0.0
  0
VERTEX
  5
240
330
23E
100
AcDbEntity
  8
0
 62
     7
420
 16777215
370
    25
100
AcDbVertex
100
AcDb2dVertex
 10
118.0984922216248
 20
234.4484076809094
 30
0.0
  0
SEQEND
  5
241
330
23E
100
AcDbEntity
  8
0
 62
     7
420
 16777215
370
    25
  0
ENDBLK
  5
23D
330
23A
100
AcDbEntity
  8
0
100
AcDbBlockEnd
  0
BLOCK
  5
244
330
242
100
AcDbEntity
  8
0
100
AcDbBlockBegin
  2
block 76
 70
     0
 10
0.0
 20
0.0
 30
0.0
  3
block 76
  1

  0
POLYLINE
  5
246
330
242
100
AcDbEntity
  8
0
 62
     7
420
 16777215
370
    25
100
AcDb2dPolyline
 66
     1
 10
0.0
 20
0.0
 30
0.0
  0
VERTEX
  5
247
330
246
100
AcDbEntity
  8
0
 62
     7
420
 16777215
370
    25
100
AcDbVertex
100
AcDb2dVertex
 10
62.56518316915754
 20
251.4887985025489
 30
0.0
  0
VERTEX
  5
248
330
246
100
AcDbEntity
  8
0
 62
     7
420
 16777215
370
    25
100
AcDbVertex
100
AcDb2dVertex
 10
62.56518316915754
 20
234.4484076809094
 30
0.0
  0
SEQEND
  5
249
330
246
100
AcDbEntity
  8
0
 62
     7
420
 16777215
370
    25
  0
ENDBLK
  5
245
330
242
100
AcDbEntity
  8
0
100
AcDbBlockEnd
  0
BLOCK
  5
24C
330
24A
100
AcDbEntity
  8
0
100
AcDbBlockBegin
  2
block 77
 70
     0
 10
0.0
 20
0.0
 30
0.0
  3
block 77
  1

  0
POLYLINE
  5
24E
330
24A
100
AcDbEntity
  8
0
 62
     7
420
 16777215
370
    25
100
AcDb2dPolyline
 66
     1
 10
0.0
 20
0.0
 30
0.0
  0
VERTEX
  5
24F
330
24E
100
AcDbEntity
  8
0
 62
     7
420
 16777215
370
    25
100
AcDbVertex
100
AcDb2dVertex
 10
111.3093374677828
 20
234.8727298530248
 30
0.0
  0
VERTEX
  5
250
330
24E
100
AcDbEntity
  8
0
 62
     7
420
 16777215
370
    25
100
AcDbVertex
100
AcDb2dVertex
 10
69.35433792300137
 20
234.8727298530248
 30
0.0
  0
SEQEND
  5
251
330
24E
100
AcDbEntity
  8
0
 62
     7
420
 16777215
370
    25
  0
ENDBLK
  5
24D
330
24A
100
AcDbEntity
  8
0
100
AcDbBlockEnd
  0
BLOCK
  5
254
330
252
100
AcDbEntity
  8
0
100
AcDbBlockBegin
  2
block 78
 70
     0
 10
0.0
 20
0.0
 30
0.0
  3
block 78
  1

  0
POLYLINE
  5
256
330
252
100
AcDbEntity
  8
0
370
     0
100
AcDb2dPolyline
 66
     1
 10
0.0
 20
0.0
 30
0.0
  0
VERTEX
  5
257
330
256
100
AcDbEntity
  8
0
370
     0
100
AcDbVertex
100
AcDb2dVertex
 10
111.3093374677828
 20
236.0042556453336
 30
0.0
  0
VERTEX
  5
258
330
256
100
AcDbEntity
  8
0
370
     0
100
AcDbVertex
100
AcDb2dVertex
 10
118.0984922216248
 20
234.8727298530248
 30
0.0
  0
VERTEX
  5
259
330
256
100
AcDbEntity
  8
0
370
     0
100
AcDbVertex
100
AcDb2dVertex
 10
111.3093374677828
 20
233.7412040607178
 30
0.0
  0
VERTEX
  5
25A
330
256
100
AcDbEntity
  8
0
370
     0
100
AcDbVertex
100
AcDb2dVertex
 10
111.3093374677828
 20
236.0042556453336
 30
0.0
  0
SEQEND
  5
25C
330
256
100
AcDbEntity
  8
0
370
     0
  0
HATCH
  5
25B
330
252
100
AcDbEntity
  8
0
 62
     7
420
 16777215
100
AcDbHatch
 10
0.0
 20
0.0
 30
0.0
210
0.0
220
0.0
230
1.0
  2
SOLID
 70
     1
 71
     0
 91
        1
 92
        1
 93
        3
 72
     1
 10
111.3093374677828
 20
236.0042556453336
 11
118.0984922216248
 21
234.8727298530248
 72
     1
 10
118.0984922216248
 20
234.8727298530248
 11
111.3093374677828
 21
233.7412040607178
 72
     1
 10
111.3093374677828
 20
233.7412040607178
 11
111.3093374677828
 21
236.0042556453336
 97
        0
 75
     2
 76
     1
 98
        0
  0
ENDBLK
  5
255
330
252
100
AcDbEntity
  8
0
100
AcDbBlockEnd
  0
BLOCK
  5
25F
330
25D
100
AcDbEntity
  8
0
100
AcDbBlockBegin
  2
block 79
 70
     0
 10
0.0
 20
0.0
 30
0.0
  3
block 79
  1

  0
POLYLINE
  5
261
330
25D
100
AcDbEntity
  8
0
370
     0
100
AcDb2dPolyline
 66
     1
 10
0.0
 20
0.0
 30
0.0
  0
VERTEX
  5
262
330
261
100
AcDbEntity
  8
0
370
     0
100
AcDbVertex
100
AcDb2dVertex
 10
69.35433792300137
 20
236.0042556453336
 30
0.0
  0
VERTEX
  5
263
330
261
100
AcDbEntity
  8
0
370
     0
100
AcDbVertex
100
AcDb2dVertex
 10
62.56518316915754
 20
234.8727298530248
 30
0.0
  0
VERTEX
  5
264
330
261
100
AcDbEntity
  8
0
370
     0
100
AcDbVertex
100
AcDb2dVertex
 10
69.35433792300137
 20
233.7412040607178
 30
0.0
  0
VERTEX
  5
265
330
261
100
AcDbEntity
  8
0
370
     0
100
AcDbVertex
100
AcDb2dVertex
 10
69.35433792300137
 20
236.0042556453336
 30
0.0
  0
SEQEND
  5
267
330
261
100
AcDbEntity
  8
0
370
     0
  0
HATCH
  5
266
330
25D
100
AcDbEntity
  8
0
 62
     7
420
 16777215
100
AcDbHatch
 10
0.0
 20
0.0
 30
0.0
210
0.0
220
0.0
230
1.0
  2
SOLID
 70
     1
 71
     0
 91
        1
 92
        1
 93
        3
 72
     1
 10
69.35433792300137
 20
236.0042556453336
 11
62.56518316915754
 21
234.8727298530248
 72
     1
 10
62.56518316915754
 20
234.8727298530248
 11
69.35433792300137
 21
233.7412040607178
 72
     1
 10
69.35433792300137
 20
233.7412040607178
 11
69.35433792300137
 21
236.0042556453336
 97
        0
 75
     2
 76
     1
 98
        0
  0
ENDBLK
  5
260
330
25D
100
AcDbEntity
  8
0
100
AcDbBlockEnd
  0
BLOCK
  5
26A
330
268
100
AcDbEntity
  8
0
100
AcDbBlockBegin
  2
block 80
 70
     0
 10
0.0
 20
0.0
 30
0.0
  3
block 80
  1

  0
MTEXT
  5
26C
330
268
100
AcDbEntity
  8
0
 62
     7
420
 16777215
100
AcDbMText
 10
67.78214263916016
 20
240.0858306884766
 30
0.0
 40
10.18373210906982
 41
0.0
 46
0.0
 71
     7
 72
     1
  1
\fMyriad Pro|b0|i0|c0|p34;\W1;163,6
 73
     1
 44
1.0
  0
ENDBLK
  5
26B
330
268
100
AcDbEntity
  8
0
100
AcDbBlockEnd
  0
BLOCK
  5
26F
330
26D
100
AcDbEntity
  8
0
100
AcDbBlockBegin
  2
block 81
 70
     0
 10
0.0
 20
0.0
 30
0.0
  3
block 81
  1

  0
POLYLINE
  5
271
330
26D
100
AcDbEntity
  8
0
 62
     7
420
 16777215
370
    25
100
AcDb2dPolyline
 66
     1
 10
0.0
 20
0.0
 30
0.0
  0
VERTEX
  5
272
330
271
100
AcDbEntity
  8
0
 62
     7
420
 16777215
370
    25
100
AcDbVertex
100
AcDb2dVertex
 10
324.8936284748597
 20
308.595362870019
 30
0.0
  0
VERTEX
  5
273
330
271
100
AcDbEntity
  8
0
 62
     7
420
 16777215
370
    25
100
AcDbVertex
100
AcDb2dVertex
 10
293.5356178604889
 20
275.1772499286799
 30
0.0
  0
SEQEND
  5
274
330
271
100
AcDbEntity
  8
0
 62
     7
420
 16777215
370
    25
  0
ENDBLK
  5
270
330
26D
100
AcDbEntity
  8
0
100
AcDbBlockEnd
  0
BLOCK
  5
277
330
275
100
AcDbEntity
  8
0
100
AcDbBlockBegin
  2
block 82
 70
     0
 10
0.0
 20
0.0
 30
0.0
  3
block 82
  1

  0
POLYLINE
  5
279
330
275
100
AcDbEntity
  8
0
 62
     7
420
 16777215
370
    25
100
AcDb2dPolyline
 66
     1
 10
0.0
 20
0.0
 30
0.0
  0
VERTEX
  5
27A
330
279
100
AcDbEntity
  8
0
 62
     7
420
 16777215
370
    25
100
AcDbVertex
100
AcDb2dVertex
 10
212.237071823236
 20
188.5376978585427
 30
0.0
  0
VERTEX
  5
27B
330
279
100
AcDbEntity
  8
0
 62
     7
420
 16777215
370
    25
100
AcDbVertex
100
AcDb2dVertex
 10
207.591440621105
 20
183.586866311678
 30
0.0
  0
SEQEND
  5
27C
330
279
100
AcDbEntity
  8
0
 62
     7
420
 16777215
370
    25
  0
ENDBLK
  5
278
330
275
100
AcDbEntity
  8
0
100
AcDbBlockEnd
  0
BLOCK
  5
27F
330
27D
100
AcDbEntity
  8
0
100
AcDbBlockBegin
  2
block 83
 70
     0
 10
0.0
 20
0.0
 30
0.0
  3
block 83
  1

  0
MTEXT
  5
281
330
27D
100
AcDbEntity
  8
0
 62
     7
420
 16777215
100
AcDbMText
 10
295.9544403553009
 20
282.7158811092377
 30
0.0
 40
10.18373197440902
 41
0.0
 46
0.0
 71
     7
 72
     1
  1
\fMyriad Pro|b0|i0|c0|p34;\W1;Ă310
 11
0.6842724175336353
 21
0.7292264796362473
 31
0.0
 73
     1
 44
1.0
  0
ENDBLK
  5
280
330
27D
100
AcDbEntity
  8
0
100
AcDbBlockEnd
  0
BLOCK
  5
284
330
282
100
AcDbEntity
  8
0
100
AcDbBlockBegin
  2
block 84
 70
     0
 10
0.0
 20
0.0
 30
0.0
  3
block 84
  1

  0
POLYLINE
  5
286
330
282
100
AcDbEntity
  8
0
 62
     7
420
 16777215
370
    25
100
AcDb2dPolyline
 66
     1
 10
0.0
 20
0.0
 30
0.0
  0
VERTEX
  5
287
330
286
100
AcDbEntity
  8
0
 62
     7
420
 16777215
370
    25
100
AcDbVertex
100
AcDb2dVertex
 10
216.8827030253615
 20
193.4885294054075
 30
0.0
  0
VERTEX
  5
288
330
286
100
AcDbEntity
  8
0
 62
     7
420
 16777215
370
    25
100
AcDbVertex
100
AcDb2dVertex
 10
288.8899866583597
 20
270.2264183818152
 30
0.0
  0
SEQEND
  5
289
330
286
100
AcDbEntity
  8
0
 62
     7
420
 16777215
370
    25
  0
ENDBLK
  5
285
330
282
100
AcDbEntity
  8
0
100
AcDbBlockEnd
  0
BLOCK
  5
28C
330
28A
100
AcDbEntity
  8
0
100
AcDbBlockBegin
  2
block 85
 70
     0
 10
0.0
 20
0.0
 30
0.0
  3
block 85
  1

  0
POLYLINE
  5
28E
330
28A
100
AcDbEntity
  8
0
370
     0
100
AcDb2dPolyline
 66
     1
 10
0.0
 20
0.0
 30
0.0
  0
VERTEX
  5
28F
330
28E
100
AcDbEntity
  8
0
370
     0
100
AcDbVertex
100
AcDb2dVertex
 10
211.4119332320897
 20
189.3119697255643
 30
0.0
  0
VERTEX
  5
290
330
28E
100
AcDbEntity
  8
0
370
     0
100
AcDbVertex
100
AcDb2dVertex
 10
216.8827030253615
 20
193.4885294054075
 30
0.0
  0
VERTEX
  5
291
330
28E
100
AcDbEntity
  8
0
370
     0
100
AcDbVertex
100
AcDb2dVertex
 10
213.0622104143768
 20
187.7634259915212
 30
0.0
  0
VERTEX
  5
292
330
28E
100
AcDbEntity
  8
0
370
     0
100
AcDbVertex
100
AcDb2dVertex
 10
211.4119332320897
 20
189.3119697255643
 30
0.0
  0
SEQEND
  5
294
330
28E
100
AcDbEntity
  8
0
370
     0
  0
HATCH
  5
293
330
28A
100
AcDbEntity
  8
0
 62
     7
420
 16777215
100
AcDbHatch
 10
0.0
 20
0.0
 30
0.0
210
0.0
220
0.0
230
1.0
  2
SOLID
 70
     1
 71
     0
 91
        1
 92
        1
 93
        3
 72
     1
 10
211.4119332320897
 20
189.3119697255643
 11
216.8827030253615
 21
193.4885294054075
 72
     1
 10
216.8827030253615
 20
193.4885294054075
 11
213.0622104143768
 21
187.7634259915212
 72
     1
 10
213.0622104143768
 20
187.7634259915212
 11
211.4119332320897
 21
189.3119697255643
 97
        0
 75
     2
 76
     1
 98
        0
  0
ENDBLK
  5
28D
330
28A
100
AcDbEntity
  8
0
100
AcDbBlockEnd
  0
BLOCK
  5
297
330
295
100
AcDbEntity
  8
0
100
AcDbBlockBegin
  2
block 86
 70
     0
 10
0.0
 20
0.0
 30
0.0
  3
block 86
  1

  0
POLYLINE
  5
299
330
295
100
AcDbEntity
  8
0
370
     0
100
AcDb2dPolyline
 66
     1
 10
0.0
 20
0.0
 30
0.0
  0
VERTEX
  5
29A
330
299
100
AcDbEntity
  8
0
370
     0
100
AcDbVertex
100
AcDb2dVertex
 10
292.7104792693463
 20
275.9515217957014
 30
0.0
  0
VERTEX
  5
29B
330
299
100
AcDbEntity
  8
0
370
     0
100
AcDbVertex
100
AcDb2dVertex
 10
288.8899866583597
 20
270.2264183818152
 30
0.0
  0
VERTEX
  5
29C
330
299
100
AcDbEntity
  8
0
370
     0
100
AcDbVertex
100
AcDb2dVertex
 10
294.3607564516333
 20
274.4029780616584
 30
0.0
  0
VERTEX
  5
29D
330
299
100
AcDbEntity
  8
0
370
     0
100
AcDbVertex
100
AcDb2dVertex
 10
292.7104792693463
 20
275.9515217957014
 30
0.0
  0
SEQEND
  5
29F
330
299
100
AcDbEntity
  8
0
370
     0
  0
HATCH
  5
29E
330
295
100
AcDbEntity
  8
0
 62
     7
420
 16777215
100
AcDbHatch
 10
0.0
 20
0.0
 30
0.0
210
0.0
220
0.0
230
1.0
  2
SOLID
 70
     1
 71
     0
 91
        1
 92
        1
 93
        3
 72
     1
 10
292.7104792693463
 20
275.9515217957014
 11
288.8899866583597
 21
270.2264183818152
 72
     1
 10
288.8899866583597
 20
270.2264183818152
 11
294.3607564516333
 21
274.4029780616584
 72
     1
 10
294.3607564516333
 20
274.4029780616584
 11
292.7104792693463
 21
275.9515217957014
 97
        0
 75
     2
 76
     1
 98
        0
  0
ENDBLK
  5
298
330
295
100
AcDbEntity
  8
0
100
AcDbBlockEnd
  0
BLOCK
  5
2A2
330
2A0
100
AcDbEntity
  8
0
100
AcDbBlockBegin
  2
block 87
 70
     0
 10
0.0
 20
0.0
 30
0.0
  3
block 87
  1

  0
POLYLINE
  5
2A4
330
2A0
100
AcDbEntity
  8
0
 62
     7
420
 16777215
370
    25
100
AcDb2dPolyline
 66
     1
 10
0.0
 20
0.0
 30
0.0
  0
VERTEX
  5
2A5
330
2A4
100
AcDbEntity
  8
0
 62
     7
420
 16777215
370
    25
100
AcDbVertex
100
AcDb2dVertex
 10
496.3242269809962
 20
245.801775243106
 30
0.0
  0
VERTEX
  5
2A6
330
2A4
100
AcDbEntity
  8
0
 62
     7
420
 16777215
370
    25
100
AcDbVertex
100
AcDb2dVertex
 10
496.3242269809962
 20
295.7770581690493
 30
0.0
  0
SEQEND
  5
2A7
330
2A4
100
AcDbEntity
  8
0
 62
     7
420
 16777215
370
    25
  0
ENDBLK
  5
2A3
330
2A0
100
AcDbEntity
  8
0
100
AcDbBlockEnd
  0
BLOCK
  5
2AA
330
2A8
100
AcDbEntity
  8
0
100
AcDbBlockBegin
  2
block 88
 70
     0
 10
0.0
 20
0.0
 30
0.0
  3
block 88
  1

  0
POLYLINE
  5
2AC
330
2A8
100
AcDbEntity
  8
0
 62
     7
420
 16777215
370
    25
100
AcDb2dPolyline
 66
     1
 10
0.0
 20
0.0
 30
0.0
  0
VERTEX
  5
2AD
330
2AC
100
AcDbEntity
  8
0
 62
     7
420
 16777215
370
    25
100
AcDbVertex
100
AcDb2dVertex
 10
584.3012630595476
 20
278.7222651458906
 30
0.0
  0
VERTEX
  5
2AE
330
2AC
100
AcDbEntity
  8
0
 62
     7
420
 16777215
370
    25
100
AcDbVertex
100
AcDb2dVertex
 10
584.3012630595476
 20
295.7770581690493
 30
0.0
  0
SEQEND
  5
2AF
330
2AC
100
AcDbEntity
  8
0
 62
     7
420
 16777215
370
    25
  0
ENDBLK
  5
2AB
330
2A8
100
AcDbEntity
  8
0
100
AcDbBlockEnd
  0
BLOCK
  5
2B2
330
2B0
100
AcDbEntity
  8
0
100
AcDbBlockBegin
  2
block 89
 70
     0
 10
0.0
 20
0.0
 30
0.0
  3
block 89
  1

  0
POLYLINE
  5
2B4
330
2B0
100
AcDbEntity
  8
0
 62
     7
420
 16777215
370
    25
100
AcDb2dPolyline
 66
     1
 10
0.0
 20
0.0
 30
0.0
  0
VERTEX
  5
2B5
330
2B4
100
AcDbEntity
  8
0
 62
     7
420
 16777215
370
    25
100
AcDbVertex
100
AcDb2dVertex
 10
503.1133817348382
 20
295.3527359969339
 30
0.0
  0
VERTEX
  5
2B6
330
2B4
100
AcDbEntity
  8
0
 62
     7
420
 16777215
370
    25
100
AcDbVertex
100
AcDb2dVertex
 10
577.5121083057056
 20
295.3527359969339
 30
0.0
  0
SEQEND
  5
2B7
330
2B4
100
AcDbEntity
  8
0
 62
     7
420
 16777215
370
    25
  0
ENDBLK
  5
2B3
330
2B0
100
AcDbEntity
  8
0
100
AcDbBlockEnd
  0
BLOCK
  5
2BA
330
2B8
100
AcDbEntity
  8
0
100
AcDbBlockBegin
  2
block 90
 70
     0
 10
0.0
 20
0.0
 30
0.0
  3
block 90
  1

  0
POLYLINE
  5
2BC
330
2B8
100
AcDbEntity
  8
0
370
     0
100
AcDb2dPolyline
 66
     1
 10
0.0
 20
0.0
 30
0.0
  0
VERTEX
  5
2BD
330
2BC
100
AcDbEntity
  8
0
370
     0
100
AcDbVertex
100
AcDb2dVertex
 10
503.1133817348382
 20
296.4842617892427
 30
0.0
  0
VERTEX
  5
2BE
330
2BC
100
AcDbEntity
  8
0
370
     0
100
AcDbVertex
100
AcDb2dVertex
 10
496.3242269809962
 20
295.3527359969339
 30
0.0
  0
VERTEX
  5
2BF
330
2BC
100
AcDbEntity
  8
0
370
     0
100
AcDbVertex
100
AcDb2dVertex
 10
503.1133817348382
 20
294.2212102046269
 30
0.0
  0
VERTEX
  5
2C0
330
2BC
100
AcDbEntity
  8
0
370
     0
100
AcDbVertex
100
AcDb2dVertex
 10
503.1133817348382
 20
296.4842617892427
 30
0.0
  0
SEQEND
  5
2C2
330
2BC
100
AcDbEntity
  8
0
370
     0
  0
HATCH
  5
2C1
330
2B8
100
AcDbEntity
  8
0
 62
     7
420
 16777215
100
AcDbHatch
 10
0.0
 20
0.0
 30
0.0
210
0.0
220
0.0
230
1.0
  2
SOLID
 70
     1
 71
     0
 91
        1
 92
        1
 93
        3
 72
     1
 10
503.1133817348382
 20
296.4842617892427
 11
496.3242269809962
 21
295.3527359969339
 72
     1
 10
496.3242269809962
 20
295.3527359969339
 11
503.1133817348382
 21
294.2212102046269
 72
     1
 10
503.1133817348382
 20
294.2212102046269
 11
503.1133817348382
 21
296.4842617892427
 97
        0
 75
     2
 76
     1
 98
        0
  0
ENDBLK
  5
2BB
330
2B8
100
AcDbEntity
  8
0
100
AcDbBlockEnd
  0
BLOCK
  5
2C5
330
2C3
100
AcDbEntity
  8
0
100
AcDbBlockBegin
  2
block 91
 70
     0
 10
0.0
 20
0.0
 30
0.0
  3
block 91
  1

  0
POLYLINE
  5
2C7
330
2C3
100
AcDbEntity
  8
0
370
     0
100
AcDb2dPolyline
 66
     1
 10
0.0
 20
0.0
 30
0.0
  0
VERTEX
  5
2C8
330
2C7
100
AcDbEntity
  8
0
370
     0
100
AcDbVertex
100
AcDb2dVertex
 10
577.5121083057056
 20
296.4842617892427
 30
0.0
  0
VERTEX
  5
2C9
330
2C7
100
AcDbEntity
  8
0
370
     0
100
AcDbVertex
100
AcDb2dVertex
 10
584.3012630595476
 20
295.3527359969339
 30
0.0
  0
VERTEX
  5
2CA
330
2C7
100
AcDbEntity
  8
0
370
     0
100
AcDbVertex
100
AcDb2dVertex
 10
577.5121083057056
 20
294.2212102046269
 30
0.0
  0
VERTEX
  5
2CB
330
2C7
100
AcDbEntity
  8
0
370
     0
100
AcDbVertex
100
AcDb2dVertex
 10
577.5121083057056
 20
296.4842617892427
 30
0.0
  0
SEQEND
  5
2CD
330
2C7
100
AcDbEntity
  8
0
370
     0
  0
HATCH
  5
2CC
330
2C3
100
AcDbEntity
  8
0
 62
     7
420
 16777215
100
AcDbHatch
 10
0.0
 20
0.0
 30
0.0
210
0.0
220
0.0
230
1.0
  2
SOLID
 70
     1
 71
     0
 91
        1
 92
        1
 93
        3
 72
     1
 10
577.5121083057056
 20
296.4842617892427
 11
584.3012630595476
 21
295.3527359969339
 72
     1
 10
584.3012630595476
 20
295.3527359969339
 11
577.5121083057056
 21
294.2212102046269
 72
     1
 10
577.5121083057056
 20
294.2212102046269
 11
577.5121083057056
 21
296.4842617892427
 97
        0
 75
     2
 76
     1
 98
        0
  0
ENDBLK
  5
2C6
330
2C3
100
AcDbEntity
  8
0
100
AcDbBlockEnd
  0
BLOCK
  5
2D0
330
2CE
100
AcDbEntity
  8
0
100
AcDbBlockBegin
  2
block 92
 70
     0
 10
0.0
 20
0.0
 30
0.0
  3
block 92
  1

  0
MTEXT
  5
2D2
330
2CE
100
AcDbEntity
  8
0
 62
     7
420
 16777215
100
AcDbMText
 10
518.490478515625
 20
300.5658264160156
 30
0.0
 40
10.18373210906982
 41
0.0
 46
0.0
 71
     7
 72
     1
  1
\fMyriad Pro|b0|i0|c0|p34;\W1;259,2
 73
     1
 44
1.0
  0
ENDBLK
  5
2D1
330
2CE
100
AcDbEntity
  8
0
100
AcDbBlockEnd
  0
BLOCK
  5
2D5
330
2D3
100
AcDbEntity
  8
0
100
AcDbBlockBegin
  2
block 93
 70
     0
 10
0.0
 20
0.0
 30
0.0
  3
block 93
  1

  0
POLYLINE
  5
2D7
330
2D3
100
AcDbEntity
  8
0
 62
     7
420
 16777215
370
    25
100
AcDb2dPolyline
 66
     1
 10
0.0
 20
0.0
 30
0.0
  0
VERTEX
  5
2D8
330
2D7
100
AcDbEntity
  8
0
 62
     7
420
 16777215
370
    25
100
AcDbVertex
100
AcDb2dVertex
 10
430.130854869667
 20
279.4002353152155
 30
0.0
  0
VERTEX
  5
2D9
330
2D7
100
AcDbEntity
  8
0
 62
     7
420
 16777215
370
    25
100
AcDbVertex
100
AcDb2dVertex
 10
459.9977874531378
 20
279.4002353152155
 30
0.0
  0
SEQEND
  5
2DA
330
2D7
100
AcDbEntity
  8
0
 62
     7
420
 16777215
370
    25
  0
ENDBLK
  5
2D6
330
2D3
100
AcDbEntity
  8
0
100
AcDbBlockEnd
  0
BLOCK
  5
2DD
330
2DB
100
AcDbEntity
  8
0
100
AcDbBlockBegin
  2
block 94
 70
     0
 10
0.0
 20
0.0
 30
0.0
  3
block 94
  1

  0
POLYLINE
  5
2DF
330
2DB
100
AcDbEntity
  8
0
 62
     7
420
 16777215
370
    25
100
AcDb2dPolyline
 66
     1
 10
0.0
 20
0.0
 30
0.0
  0
VERTEX
  5
2E0
330
2DF
100
AcDbEntity
  8
0
 62
     7
420
 16777215
370
    25
100
AcDbVertex
100
AcDb2dVertex
 10
431.8362262359224
 20
184.2880338221257
 30
0.0
  0
VERTEX
  5
2E1
330
2DF
100
AcDbEntity
  8
0
 62
     7
420
 16777215
370
    25
100
AcDbVertex
100
AcDb2dVertex
 10
459.9977874531378
 20
184.2880338221257
 30
0.0
  0
SEQEND
  5
2E2
330
2DF
100
AcDbEntity
  8
0
 62
     7
420
 16777215
370
    25
  0
ENDBLK
  5
2DE
330
2DB
100
AcDbEntity
  8
0
100
AcDbBlockEnd
  0
BLOCK
  5
2E5
330
2E3
100
AcDbEntity
  8
0
100
AcDbBlockBegin
  2
block 95
 70
     0
 10
0.0
 20
0.0
 30
0.0
  3
block 95
  1

  0
POLYLINE
  5
2E7
330
2E3
100
AcDbEntity
  8
0
 62
     7
420
 16777215
370
    25
100
AcDb2dPolyline
 66
     1
 10
0.0
 20
0.0
 30
0.0
  0
VERTEX
  5
2E8
330
2E7
100
AcDbEntity
  8
0
 62
     7
420
 16777215
370
    25
100
AcDbVertex
100
AcDb2dVertex
 10
459.5734652810224
 20
272.6110805613716
 30
0.0
  0
VERTEX
  5
2E9
330
2E7
100
AcDbEntity
  8
0
 62
     7
420
 16777215
370
    25
100
AcDbVertex
100
AcDb2dVertex
 10
459.5734652810224
 20
191.0771885759677
 30
0.0
  0
SEQEND
  5
2EA
330
2E7
100
AcDbEntity
  8
0
 62
     7
420
 16777215
370
    25
  0
ENDBLK
  5
2E6
330
2E3
100
AcDbEntity
  8
0
100
AcDbBlockEnd
  0
BLOCK
  5
2ED
330
2EB
100
AcDbEntity
  8
0
100
AcDbBlockBegin
  2
block 96
 70
     0
 10
0.0
 20
0.0
 30
0.0
  3
block 96
  1

  0
POLYLINE
  5
2EF
330
2EB
100
AcDbEntity
  8
0
370
     0
100
AcDb2dPolyline
 66
     1
 10
0.0
 20
0.0
 30
0.0
  0
VERTEX
  5
2F0
330
2EF
100
AcDbEntity
  8
0
370
     0
100
AcDbVertex
100
AcDb2dVertex
 10
458.4419394887136
 20
272.6110805613716
 30
0.0
  0
VERTEX
  5
2F1
330
2EF
100
AcDbEntity
  8
0
370
     0
100
AcDbVertex
100
AcDb2dVertex
 10
459.5734652810224
 20
279.4002353152155
 30
0.0
  0
VERTEX
  5
2F2
330
2EF
100
AcDbEntity
  8
0
370
     0
100
AcDbVertex
100
AcDb2dVertex
 10
460.7049910733294
 20
272.6110805613716
 30
0.0
  0
VERTEX
  5
2F3
330
2EF
100
AcDbEntity
  8
0
370
     0
100
AcDbVertex
100
AcDb2dVertex
 10
458.4419394887136
 20
272.6110805613716
 30
0.0
  0
SEQEND
  5
2F5
330
2EF
100
AcDbEntity
  8
0
370
     0
  0
HATCH
  5
2F4
330
2EB
100
AcDbEntity
  8
0
 62
     7
420
 16777215
100
AcDbHatch
 10
0.0
 20
0.0
 30
0.0
210
0.0
220
0.0
230
1.0
  2
SOLID
 70
     1
 71
     0
 91
        1
 92
        1
 93
        3
 72
     1
 10
458.4419394887136
 20
272.6110805613716
 11
459.5734652810224
 21
279.4002353152155
 72
     1
 10
459.5734652810224
 20
279.4002353152155
 11
460.7049910733294
 21
272.6110805613716
 72
     1
 10
460.7049910733294
 20
272.6110805613716
 11
458.4419394887136
 21
272.6110805613716
 97
        0
 75
     2
 76
     1
 98
        0
  0
ENDBLK
  5
2EE
330
2EB
100
AcDbEntity
  8
0
100
AcDbBlockEnd
  0
BLOCK
  5
2F8
330
2F6
100
AcDbEntity
  8
0
100
AcDbBlockBegin
  2
block 97
 70
     0
 10
0.0
 20
0.0
 30
0.0
  3
block 97
  1

  0
POLYLINE
  5
2FA
330
2F6
100
AcDbEntity
  8
0
370
     0
100
AcDb2dPolyline
 66
     1
 10
0.0
 20
0.0
 30
0.0
  0
VERTEX
  5
2FB
330
2FA
100
AcDbEntity
  8
0
370
     0
100
AcDbVertex
100
AcDb2dVertex
 10
458.4419394887136
 20
191.0771885759677
 30
0.0
  0
VERTEX
  5
2FC
330
2FA
100
AcDbEntity
  8
0
370
     0
100
AcDbVertex
100
AcDb2dVertex
 10
459.5734652810224
 20
184.2880338221257
 30
0.0
  0
VERTEX
  5
2FD
330
2FA
100
AcDbEntity
  8
0
370
     0
100
AcDbVertex
100
AcDb2dVertex
 10
460.7049910733294
 20
191.0771885759677
 30
0.0
  0
VERTEX
  5
2FE
330
2FA
100
AcDbEntity
  8
0
370
     0
100
AcDbVertex
100
AcDb2dVertex
 10
458.4419394887136
 20
191.0771885759677
 30
0.0
  0
SEQEND
  5
300
330
2FA
100
AcDbEntity
  8
0
370
     0
  0
HATCH
  5
2FF
330
2F6
100
AcDbEntity
  8
0
 62
     7
420
 16777215
100
AcDbHatch
 10
0.0
 20
0.0
 30
0.0
210
0.0
220
0.0
230
1.0
  2
SOLID
 70
     1
 71
     0
 91
        1
 92
        1
 93
        3
 72
     1
 10
458.4419394887136
 20
191.0771885759677
 11
459.5734652810224
 21
184.2880338221257
 72
     1
 10
459.5734652810224
 20
184.2880338221257
 11
460.7049910733294
 21
191.0771885759677
 72
     1
 10
460.7049910733294
 20
191.0771885759677
 11
458.4419394887136
 21
191.0771885759677
 97
        0
 75
     2
 76
     1
 98
        0
  0
ENDBLK
  5
2F9
330
2F6
100
AcDbEntity
  8
0
100
AcDbBlockEnd
  0
BLOCK
  5
303
330
301
100
AcDbEntity
  8
0
100
AcDbBlockBegin
  2
block 98
 70
     0
 10
0.0
 20
0.0
 30
0.0
  3
block 98
  1

  0
MTEXT
  5
305
330
301
100
AcDbEntity
  8
0
 62
     7
420
 16777215
100
AcDbMText
 10
454.3603668212891
 20
210.021484375
 30
0.0
 40
10.18373210906982
 41
0.0
 46
0.0
 71
     7
 72
     1
  1
\fMyriad Pro|b0|i0|c0|p34;\W1;280,2
 11
6.123233995736766E-17
 21
1.0
 31
0.0
 73
     1
 44
1.0
  0
ENDBLK
  5
304
330
301
100
AcDbEntity
  8
0
100
AcDbBlockEnd
  0
BLOCK
  5
308
330
306
100
AcDbEntity
  8
0
100
AcDbBlockBegin
  2
block 99
 70
     0
 10
0.0
 20
0.0
 30
0.0
  3
block 99
  1

  0
POLYLINE
  5
30A
330
306
100
AcDbEntity
  8
0
 62
     7
420
 16777215
370
    25
100
AcDb2dPolyline
 66
     1
 10
0.0
 20
0.0
 30
0.0
  0
VERTEX
  5
30B
330
30A
100
AcDbEntity
  8
0
 62
     7
420
 16777215
370
    25
100
AcDbVertex
100
AcDb2dVertex
 10
577.2717859326185
 20
182.6459712220403
 30
0.0
  0
VERTEX
  5
30C
330
30A
100
AcDbEntity
  8
0
 62
     7
420
 16777215
370
    25
100
AcDbVertex
100
AcDb2dVertex
 10
611.1751493209849
 20
182.6459712220403
 30
0.0
  0
SEQEND
  5
30D
330
30A
100
AcDbEntity
  8
0
 62
     7
420
 16777215
370
    25
  0
ENDBLK
  5
309
330
306
100
AcDbEntity
  8
0
100
AcDbBlockEnd
  0
BLOCK
  5
310
330
30E
100
AcDbEntity
  8
0
100
AcDbBlockBegin
  2
block 100
 70
     0
 10
0.0
 20
0.0
 30
0.0
  3
block 100
  1

  0
POLYLINE
  5
312
330
30E
100
AcDbEntity
  8
0
 62
     7
420
 16777215
370
    25
100
AcDb2dPolyline
 66
     1
 10
0.0
 20
0.0
 30
0.0
  0
VERTEX
  5
313
330
312
100
AcDbEntity
  8
0
 62
     7
420
 16777215
370
    25
100
AcDbVertex
100
AcDb2dVertex
 10
577.2717859326185
 20
281.0689764388135
 30
0.0
  0
VERTEX
  5
314
330
312
100
AcDbEntity
  8
0
 62
     7
420
 16777215
370
    25
100
AcDbVertex
100
AcDb2dVertex
 10
611.1751493209849
 20
281.0689764388135
 30
0.0
  0
SEQEND
  5
315
330
312
100
AcDbEntity
  8
0
 62
     7
420
 16777215
370
    25
  0
ENDBLK
  5
311
330
30E
100
AcDbEntity
  8
0
100
AcDbBlockEnd
  0
BLOCK
  5
318
330
316
100
AcDbEntity
  8
0
100
AcDbBlockBegin
  2
block 101
 70
     0
 10
0.0
 20
0.0
 30
0.0
  3
block 101
  1

  0
POLYLINE
  5
31A
330
316
100
AcDbEntity
  8
0
 62
     7
420
 16777215
370
    25
100
AcDb2dPolyline
 66
     1
 10
0.0
 20
0.0
 30
0.0
  0
VERTEX
  5
31B
330
31A
100
AcDbEntity
  8
0
 62
     7
420
 16777215
370
    25
100
AcDbVertex
100
AcDb2dVertex
 10
610.7508271488696
 20
189.4351259758841
 30
0.0
  0
VERTEX
  5
31C
330
31A
100
AcDbEntity
  8
0
 62
     7
420
 16777215
370
    25
100
AcDbVertex
100
AcDb2dVertex
 10
610.7508271488696
 20
274.2798216849696
 30
0.0
  0
SEQEND
  5
31D
330
31A
100
AcDbEntity
  8
0
 62
     7
420
 16777215
370
    25
  0
ENDBLK
  5
319
330
316
100
AcDbEntity
  8
0
100
AcDbBlockEnd
  0
BLOCK
  5
320
330
31E
100
AcDbEntity
  8
0
100
AcDbBlockBegin
  2
block 102
 70
     0
 10
0.0
 20
0.0
 30
0.0
  3
block 102
  1

  0
POLYLINE
  5
322
330
31E
100
AcDbEntity
  8
0
370
     0
100
AcDb2dPolyline
 66
     1
 10
0.0
 20
0.0
 30
0.0
  0
VERTEX
  5
323
330
322
100
AcDbEntity
  8
0
370
     0
100
AcDbVertex
100
AcDb2dVertex
 10
609.6193013565608
 20
189.4351259758841
 30
0.0
  0
VERTEX
  5
324
330
322
100
AcDbEntity
  8
0
370
     0
100
AcDbVertex
100
AcDb2dVertex
 10
610.7508271488696
 20
182.6459712220403
 30
0.0
  0
VERTEX
  5
325
330
322
100
AcDbEntity
  8
0
370
     0
100
AcDbVertex
100
AcDb2dVertex
 10
611.8823529411766
 20
189.4351259758841
 30
0.0
  0
VERTEX
  5
326
330
322
100
AcDbEntity
  8
0
370
     0
100
AcDbVertex
100
AcDb2dVertex
 10
609.6193013565608
 20
189.4351259758841
 30
0.0
  0
SEQEND
  5
328
330
322
100
AcDbEntity
  8
0
370
     0
  0
HATCH
  5
327
330
31E
100
AcDbEntity
  8
0
 62
     7
420
 16777215
100
AcDbHatch
 10
0.0
 20
0.0
 30
0.0
210
0.0
220
0.0
230
1.0
  2
SOLID
 70
     1
 71
     0
 91
        1
 92
        1
 93
        3
 72
     1
 10
609.6193013565608
 20
189.4351259758841
 11
610.7508271488696
 21
182.6459712220403
 72
     1
 10
610.7508271488696
 20
182.6459712220403
 11
611.8823529411766
 21
189.4351259758841
 72
     1
 10
611.8823529411766
 20
189.4351259758841
 11
609.6193013565608
 21
189.4351259758841
 97
        0
 75
     2
 76
     1
 98
        0
  0
ENDBLK
  5
321
330
31E
100
AcDbEntity
  8
0
100
AcDbBlockEnd
  0
BLOCK
  5
32B
330
329
100
AcDbEntity
  8
0
100
AcDbBlockBegin
  2
block 103
 70
     0
 10
0.0
 20
0.0
 30
0.0
  3
block 103
  1

  0
POLYLINE
  5
32D
330
329
100
AcDbEntity
  8
0
370
     0
100
AcDb2dPolyline
 66
     1
 10
0.0
 20
0.0
 30
0.0
  0
VERTEX
  5
32E
330
32D
100
AcDbEntity
  8
0
370
     0
100
AcDbVertex
100
AcDb2dVertex
 10
609.6193013565608
 20
274.2798216849696
 30
0.0
  0
VERTEX
  5
32F
330
32D
100
AcDbEntity
  8
0
370
     0
100
AcDbVertex
100
AcDb2dVertex
 10
610.7508271488696
 20
281.0689764388135
 30
0.0
  0
VERTEX
  5
330
330
32D
100
AcDbEntity
  8
0
370
     0
100
AcDbVertex
100
AcDb2dVertex
 10
611.8823529411766
 20
274.2798216849696
 30
0.0
  0
VERTEX
  5
331
330
32D
100
AcDbEntity
  8
0
370
     0
100
AcDbVertex
100
AcDb2dVertex
 10
609.6193013565608
 20
274.2798216849696
 30
0.0
  0
SEQEND
  5
333
330
32D
100
AcDbEntity
  8
0
370
     0
  0
HATCH
  5
332
330
329
100
AcDbEntity
  8
0
 62
     7
420
 16777215
100
AcDbHatch
 10
0.0
 20
0.0
 30
0.0
210
0.0
220
0.0
230
1.0
  2
SOLID
 70
     1
 71
     0
 91
        1
 92
        1
 93
        3
 72
     1
 10
609.6193013565608
 20
274.2798216849696
 11
610.7508271488696
 21
281.0689764388135
 72
     1
 10
610.7508271488696
 20
281.0689764388135
 11
611.8823529411766
 21
274.2798216849696
 72
     1
 10
611.8823529411766
 20
274.2798216849696
 11
609.6193013565608
 21
274.2798216849696
 97
        0
 75
     2
 76
     1
 98
        0
  0
ENDBLK
  5
32C
330
329
100
AcDbEntity
  8
0
100
AcDbBlockEnd
  0
BLOCK
  5
336
330
334
100
AcDbEntity
  8
0
100
AcDbBlockBegin
  2
block 104
 70
     0
 10
0.0
 20
0.0
 30
0.0
  3
block 104
  1

  0
MTEXT
  5
338
330
334
100
AcDbEntity
  8
0
 62
     7
420
 16777215
100
AcDbMText
 10
605.537727355957
 20
210.27734375
 30
0.0
 40
10.18373210906982
 41
0.0
 46
0.0
 71
     7
 72
     1
  1
\fMyriad Pro|b0|i0|c0|p34;\W1;289,9
 11
6.123233995736766E-17
 21
1.0
 31
0.0
 73
     1
 44
1.0
  0
ENDBLK
  5
337
330
334
100
AcDbEntity
  8
0
100
AcDbBlockEnd
  0
BLOCK
  5
33B
330
339
100
AcDbEntity
  8
0
100
AcDbBlockBegin
  2
block 105
 70
     0
 10
0.0
 20
0.0
 30
0.0
  3
block 105
  1

  0
MTEXT
  5
33D
330
339
100
AcDbEntity
  8
0
 62
     7
420
 16777215
100
AcDbMText
 10
44.38452911376953
 20
463.2568359375
 30
0.0
 40
10.18373210906982
 41
0.0
 46
0.0
 71
     7
 72
     1
  1
\fMyriad Pro|b0|i0|c0|p34;\W1;íîæêà
 73
     1
 44
1.0
  0
MTEXT
  5
33E
330
339
100
AcDbEntity
  8
0
 62
     7
420
 16777215
100
AcDbMText
 10
50.44627380371094
 20
446.2839660644531
 30
0.0
 40
10.18373210906982
 41
0.0
 46
0.0
 71
     7
 72
     1
  1
\fMyriad Pro|b0|i0|c0|p34;\W1;3øò.
 73
     1
 44
1.0
  0
ENDBLK
  5
33C
330
339
100
AcDbEntity
  8
0
100
AcDbBlockEnd
  0
BLOCK
  5
341
330
33F
100
AcDbEntity
  8
0
100
AcDbBlockBegin
  2
block 106
 70
     0
 10
0.0
 20
0.0
 30
0.0
  3
block 106
  1

  0
MTEXT
  5
343
330
33F
100
AcDbEntity
  8
0
 62
     7
420
 16777215
100
AcDbMText
 10
314.2880554199219
 20
539.2155151367188
 30
0.0
 40
10.18373210906982
 41
0.0
 46
0.0
 71
     7
 72
     1
  1
\fMyriad Pro|b0|i0|c0|p34;\W1;âàðèàíòû êðûøêè
 73
     1
 44
1.0
  0
ENDBLK
  5
342
330
33F
100
AcDbEntity
  8
0
100
AcDbBlockEnd
  0
BLOCK
  5
346
330
344
100
AcDbEntity
  8
0
100
AcDbBlockBegin
  2
block 107
 70
     0
 10
0.0
 20
0.0
 30
0.0
  3
block 107
  1

  0
MTEXT
  5
348
330
344
100
AcDbEntity
  8
0
 62
     7
420
 16777215
100
AcDbMText
 10
301.1947021484375
 20
321.6063842773438
 30
0.0
 40
10.18373210906982
 41
0.0
 46
0.0
 71
     7
 72
     1
  1
\fMyriad Pro|b0|i0|c0|p34;\W1;âàðèàíòû ïåðåìû÷êè
 73
     1
 44
1.0
  0
ENDBLK
  5
347
330
344
100
AcDbEntity
  8
0
100
AcDbBlockEnd
  0
BLOCK
  5
34B
330
349
100
AcDbEntity
  8
0
100
AcDbBlockBegin
  2
block 108
 70
     0
 10
0.0
 20
0.0
 30
0.0
  3
block 108
  1

  0
MTEXT
  5
34D
330
349
100
AcDbEntity
  8
0
 62
     7
420
 16777215
100
AcDbMText
 10
246.6429748535156
 20
591.1591796875
 30
0.0
 40
16.97288639831543
 41
0.0
 46
0.0
 71
     7
 72
     1
  1
\fArial|b0|i0|c0|p34;\W1;Проект Т2
 73
     1
 44
1.0
  0
ENDBLK
  5
34C
330
349
100
AcDbEntity
  8
0
100
AcDbBlockEnd
  0
BLOCK
  5
350
330
34E
100
AcDbEntity
  8
0
100
AcDbBlockBegin
  2
block 109
 70
     0
 10
0.0
 20
0.0
 30
0.0
  3
block 109
  1

  0
MTEXT
  5
352
330
34E
100
AcDbEntity
  8
0
 62
     7
420
 16777215
100
AcDbMText
 10
229.6189117431641
 20
562.7456665039062
 30
0.0
 40
10.18373210906982
 41
0.0
 46
0.0
 71
     7
 72
     1
  1
\fMyriad Pro|b0|i0|c0|p34;\W1;mebel-sam.net.ua
 73
     1
 44
1.0
  0
ENDBLK
  5
351
330
34E
100
AcDbEntity
  8
0
100
AcDbBlockEnd
  0
BLOCK
  5
356
330
354
100
AcDbEntity
  8
0
100
AcDbBlockBegin
  2
block 110
 70
     0
 10
0.0
 20
0.0
 30
0.0
  3
block 110
  1

  0
POLYLINE
  5
358
330
354
100
AcDbEntity
  8
Defpoints
370
     0
100
AcDb2dPolyline
 66
     1
 10
0.0
 20
0.0
 30
0.0
  0
VERTEX
  5
359
330
358
100
AcDbEntity
  8
Defpoints
370
     0
100
AcDbVertex
100
AcDb2dVertex
 10
329.2384969383966
 20
459.0681345061666
 30
0.0
  0
VERTEX
  5
35A
330
358
100
AcDbEntity
  8
Defpoints
370
     0
100
AcDbVertex
100
AcDb2dVertex
 10
329.2384969383966
 20
459.0681345061666
 30
0.0
  0
SEQEND
  5
35B
330
358
100
AcDbEntity
  8
Defpoints
370
     0
  0
ENDBLK
  5
357
330
354
100
AcDbEntity
  8
0
100
AcDbBlockEnd
  0
BLOCK
  5
35E
330
35C
100
AcDbEntity
  8
0
100
AcDbBlockBegin
  2
block 111
 70
     0
 10
0.0
 20
0.0
 30
0.0
  3
block 111
  1

  0
POLYLINE
  5
360
330
35C
100
AcDbEntity
  8
Defpoints
370
     0
100
AcDb2dPolyline
 66
     1
 10
0.0
 20
0.0
 30
0.0
  0
VERTEX
  5
361
330
360
100
AcDbEntity
  8
Defpoints
370
     0
100
AcDbVertex
100
AcDb2dVertex
 10
207.2629329542779
 20
399.4106898793098
 30
0.0
  0
VERTEX
  5
362
330
360
100
AcDbEntity
  8
Defpoints
370
     0
100
AcDbVertex
100
AcDb2dVertex
 10
207.2629329542779
 20
399.4106898793098
 30
0.0
  0
SEQEND
  5
363
330
360
100
AcDbEntity
  8
Defpoints
370
     0
  0
ENDBLK
  5
35F
330
35C
100
AcDbEntity
  8
0
100
AcDbBlockEnd
  0
BLOCK
  5
366
330
364
100
AcDbEntity
  8
0
100
AcDbBlockBegin
  2
block 112
 70
     0
 10
0.0
 20
0.0
 30
0.0
  3
block 112
  1

  0
POLYLINE
  5
368
330
364
100
AcDbEntity
  8
Defpoints
370
     0
100
AcDb2dPolyline
 66
     1
 10
0.0
 20
0.0
 30
0.0
  0
VERTEX
  5
369
330
368
100
AcDbEntity
  8
Defpoints
370
     0
100
AcDbVertex
100
AcDb2dVertex
 10
451.8810512112796
 20
446.1995897125908
 30
0.0
  0
VERTEX
  5
36A
330
368
100
AcDbEntity
  8
Defpoints
370
     0
100
AcDbVertex
100
AcDb2dVertex
 10
451.8810512112796
 20
446.1995897125908
 30
0.0
  0
SEQEND
  5
36B
330
368
100
AcDbEntity
  8
Defpoints
370
     0
  0
ENDBLK
  5
367
330
364
100
AcDbEntity
  8
0
100
AcDbBlockEnd
  0
BLOCK
  5
36E
330
36C
100
AcDbEntity
  8
0
100
AcDbBlockBegin
  2
block 113
 70
     0
 10
0.0
 20
0.0
 30
0.0
  3
block 113
  1

  0
POLYLINE
  5
370
330
36C
100
AcDbEntity
  8
Defpoints
370
     0
100
AcDb2dPolyline
 66
     1
 10
0.0
 20
0.0
 30
0.0
  0
VERTEX
  5
371
330
370
100
AcDbEntity
  8
Defpoints
370
     0
100
AcDbVertex
100
AcDb2dVertex
 10
579.1777028458328
 20
490.2964433654797
 30
0.0
  0
VERTEX
  5
372
330
370
100
AcDbEntity
  8
Defpoints
370
     0
100
AcDbVertex
100
AcDb2dVertex
 10
579.1777028458328
 20
490.2964433654797
 30
0.0
  0
SEQEND
  5
373
330
370
100
AcDbEntity
  8
Defpoints
370
     0
  0
ENDBLK
  5
36F
330
36C
100
AcDbEntity
  8
0
100
AcDbBlockEnd
  0
BLOCK
  5
376
330
374
100
AcDbEntity
  8
0
100
AcDbBlockBegin
  2
block 114
 70
     0
 10
0.0
 20
0.0
 30
0.0
  3
block 114
  1

  0
POLYLINE
  5
378
330
374
100
AcDbEntity
  8
Defpoints
370
     0
100
AcDb2dPolyline
 66
     1
 10
0.0
 20
0.0
 30
0.0
  0
VERTEX
  5
379
330
378
100
AcDbEntity
  8
Defpoints
370
     0
100
AcDbVertex
100
AcDb2dVertex
 10
579.1777028458328
 20
520.4824646125553
 30
0.0
  0
VERTEX
  5
37A
330
378
100
AcDbEntity
  8
Defpoints
370
     0
100
AcDbVertex
100
AcDb2dVertex
 10
579.1777028458328
 20
520.4824646125553
 30
0.0
  0
SEQEND
  5
37B
330
378
100
AcDbEntity
  8
Defpoints
370
     0
  0
ENDBLK
  5
377
330
374
100
AcDbEntity
  8
0
100
AcDbBlockEnd
  0
BLOCK
  5
37E
330
37C
100
AcDbEntity
  8
0
100
AcDbBlockBegin
  2
block 115
 70
     0
 10
0.0
 20
0.0
 30
0.0
  3
block 115
  1

  0
POLYLINE
  5
380
330
37C
100
AcDbEntity
  8
Defpoints
370
     0
100
AcDb2dPolyline
 66
     1
 10
0.0
 20
0.0
 30
0.0
  0
VERTEX
  5
381
330
380
100
AcDbEntity
  8
Defpoints
370
     0
100
AcDbVertex
100
AcDb2dVertex
 10
568.2463353271578
 20
359.6900191285586
 30
0.0
  0
VERTEX
  5
382
330
380
100
AcDbEntity
  8
Defpoints
370
     0
100
AcDbVertex
100
AcDb2dVertex
 10
568.2463353271578
 20
359.6900191285586
 30
0.0
  0
SEQEND
  5
383
330
380
100
AcDbEntity
  8
Defpoints
370
     0
  0
ENDBLK
  5
37F
330
37C
100
AcDbEntity
  8
0
100
AcDbBlockEnd
  0
BLOCK
  5
386
330
384
100
AcDbEntity
  8
0
100
AcDbBlockBegin
  2
block 116
 70
     0
 10
0.0
 20
0.0
 30
0.0
  3
block 116
  1

  0
POLYLINE
  5
388
330
384
100
AcDbEntity
  8
Defpoints
370
     0
100
AcDb2dPolyline
 66
     1
 10
0.0
 20
0.0
 30
0.0
  0
VERTEX
  5
389
330
388
100
AcDbEntity
  8
Defpoints
370
     0
100
AcDbVertex
100
AcDb2dVertex
 10
567.526617813257
 20
498.7952554150261
 30
0.0
  0
VERTEX
  5
38A
330
388
100
AcDbEntity
  8
Defpoints
370
     0
100
AcDbVertex
100
AcDb2dVertex
 10
567.526617813257
 20
498.7952554150261
 30
0.0
  0
SEQEND
  5
38B
330
388
100
AcDbEntity
  8
Defpoints
370
     0
  0
ENDBLK
  5
387
330
384
100
AcDbEntity
  8
0
100
AcDbBlockEnd
  0
BLOCK
  5
38E
330
38C
100
AcDbEntity
  8
0
100
AcDbBlockBegin
  2
block 117
 70
     0
 10
0.0
 20
0.0
 30
0.0
  3
block 117
  1

  0
POLYLINE
  5
390
330
38C
100
AcDbEntity
  8
Defpoints
370
     0
100
AcDb2dPolyline
 66
     1
 10
0.0
 20
0.0
 30
0.0
  0
VERTEX
  5
391
330
390
100
AcDbEntity
  8
Defpoints
370
     0
100
AcDbVertex
100
AcDb2dVertex
 10
608.9790178745207
 20
498.7952554150261
 30
0.0
  0
VERTEX
  5
392
330
390
100
AcDbEntity
  8
Defpoints
370
     0
100
AcDbVertex
100
AcDb2dVertex
 10
608.9790178745207
 20
498.7952554150261
 30
0.0
  0
SEQEND
  5
393
330
390
100
AcDbEntity
  8
Defpoints
370
     0
  0
ENDBLK
  5
38F
330
38C
100
AcDbEntity
  8
0
100
AcDbBlockEnd
  0
BLOCK
  5
396
330
394
100
AcDbEntity
  8
0
100
AcDbBlockBegin
  2
block 118
 70
     0
 10
0.0
 20
0.0
 30
0.0
  3
block 118
  1

  0
POLYLINE
  5
398
330
394
100
AcDbEntity
  8
Defpoints
370
     0
100
AcDb2dPolyline
 66
     1
 10
0.0
 20
0.0
 30
0.0
  0
VERTEX
  5
399
330
398
100
AcDbEntity
  8
Defpoints
370
     0
100
AcDbVertex
100
AcDb2dVertex
 10
348.7053592299981
 20
250.1763438531598
 30
0.0
  0
VERTEX
  5
39A
330
398
100
AcDbEntity
  8
Defpoints
370
     0
100
AcDbVertex
100
AcDb2dVertex
 10
348.7053592299981
 20
250.1763438531598
 30
0.0
  0
SEQEND
  5
39B
330
398
100
AcDbEntity
  8
Defpoints
370
     0
  0
ENDBLK
  5
397
330
394
100
AcDbEntity
  8
0
100
AcDbBlockEnd
  0
BLOCK
  5
39E
330
39C
100
AcDbEntity
  8
0
100
AcDbBlockBegin
  2
block 119
 70
     0
 10
0.0
 20
0.0
 30
0.0
  3
block 119
  1

  0
POLYLINE
  5
3A0
330
39C
100
AcDbEntity
  8
Defpoints
370
     0
100
AcDb2dPolyline
 66
     1
 10
0.0
 20
0.0
 30
0.0
  0
VERTEX
  5
3A1
330
3A0
100
AcDbEntity
  8
Defpoints
370
     0
100
AcDbVertex
100
AcDb2dVertex
 10
437.7286890059931
 20
269.2872426501126
 30
0.0
  0
VERTEX
  5
3A2
330
3A0
100
AcDbEntity
  8
Defpoints
370
     0
100
AcDbVertex
100
AcDb2dVertex
 10
437.7286890059931
 20
269.2872426501126
 30
0.0
  0
SEQEND
  5
3A3
330
3A0
100
AcDbEntity
  8
Defpoints
370
     0
  0
ENDBLK
  5
39F
330
39C
100
AcDbEntity
  8
0
100
AcDbBlockEnd
  0
BLOCK
  5
3A6
330
3A4
100
AcDbEntity
  8
0
100
AcDbBlockBegin
  2
block 120
 70
     0
 10
0.0
 20
0.0
 30
0.0
  3
block 120
  1

  0
POLYLINE
  5
3A8
330
3A4
100
AcDbEntity
  8
Defpoints
370
     0
100
AcDb2dPolyline
 66
     1
 10
0.0
 20
0.0
 30
0.0
  0
VERTEX
  5
3A9
330
3A8
100
AcDbEntity
  8
Defpoints
370
     0
100
AcDbVertex
100
AcDb2dVertex
 10
437.7286890059931
 20
296.3050941505207
 30
0.0
  0
VERTEX
  5
3AA
330
3A8
100
AcDbEntity
  8
Defpoints
370
     0
100
AcDbVertex
100
AcDb2dVertex
 10
437.7286890059931
 20
296.3050941505207
 30
0.0
  0
SEQEND
  5
3AB
330
3A8
100
AcDbEntity
  8
Defpoints
370
     0
  0
ENDBLK
  5
3A7
330
3A4
100
AcDbEntity
  8
0
100
AcDbBlockEnd
  0
BLOCK
  5
3AE
330
3AC
100
AcDbEntity
  8
0
100
AcDbBlockBegin
  2
block 121
 70
     0
 10
0.0
 20
0.0
 30
0.0
  3
block 121
  1

  0
POLYLINE
  5
3B0
330
3AC
100
AcDbEntity
  8
Defpoints
370
     0
100
AcDb2dPolyline
 66
     1
 10
0.0
 20
0.0
 30
0.0
  0
VERTEX
  5
3B1
330
3B0
100
AcDbEntity
  8
Defpoints
370
     0
100
AcDbVertex
100
AcDb2dVertex
 10
47.95196222942832
 20
263.5497696709444
 30
0.0
  0
VERTEX
  5
3B2
330
3B0
100
AcDbEntity
  8
Defpoints
370
     0
100
AcDbVertex
100
AcDb2dVertex
 10
47.95196222942832
 20
263.5497696709444
 30
0.0
  0
SEQEND
  5
3B3
330
3B0
100
AcDbEntity
  8
Defpoints
370
     0
  0
ENDBLK
  5
3AF
330
3AC
100
AcDbEntity
  8
0
100
AcDbBlockEnd
  0
BLOCK
  5
3B6
330
3B4
100
AcDbEntity
  8
0
100
AcDbBlockBegin
  2
block 122
 70
     0
 10
0.0
 20
0.0
 30
0.0
  3
block 122
  1

  0
POLYLINE
  5
3B8
330
3B4
100
AcDbEntity
  8
Defpoints
370
     0
100
AcDb2dPolyline
 66
     1
 10
0.0
 20
0.0
 30
0.0
  0
VERTEX
  5
3B9
330
3B8
100
AcDbEntity
  8
Defpoints
370
     0
100
AcDbVertex
100
AcDb2dVertex
 10
61.86972946056449
 20
417.3241248454833
 30
0.0
  0
VERTEX
  5
3BA
330
3B8
100
AcDbEntity
  8
Defpoints
370
     0
100
AcDbVertex
100
AcDb2dVertex
 10
61.86972946056449
 20
417.3241248454833
 30
0.0
  0
SEQEND
  5
3BB
330
3B8
100
AcDbEntity
  8
Defpoints
370
     0
  0
ENDBLK
  5
3B7
330
3B4
100
AcDbEntity
  8
0
100
AcDbBlockEnd
  0
BLOCK
  5
3BE
330
3BC
100
AcDbEntity
  8
0
100
AcDbBlockBegin
  2
block 123
 70
     0
 10
0.0
 20
0.0
 30
0.0
  3
block 123
  1

  0
POLYLINE
  5
3C0
330
3BC
100
AcDbEntity
  8
Defpoints
370
     0
100
AcDb2dPolyline
 66
     1
 10
0.0
 20
0.0
 30
0.0
  0
VERTEX
  5
3C1
330
3C0
100
AcDbEntity
  8
Defpoints
370
     0
100
AcDbVertex
100
AcDb2dVertex
 10
13.69595656650927
 20
417.3241248454833
 30
0.0
  0
VERTEX
  5
3C2
330
3C0
100
AcDbEntity
  8
Defpoints
370
     0
100
AcDbVertex
100
AcDb2dVertex
 10
13.69595656650927
 20
417.3241248454833
 30
0.0
  0
SEQEND
  5
3C3
330
3C0
100
AcDbEntity
  8
Defpoints
370
     0
  0
ENDBLK
  5
3BF
330
3BC
100
AcDbEntity
  8
0
100
AcDbBlockEnd
  0
BLOCK
  5
3C6
330
3C4
100
AcDbEntity
  8
0
100
AcDbBlockBegin
  2
block 124
 70
     0
 10
0.0
 20
0.0
 30
0.0
  3
block 124
  1

  0
POLYLINE
  5
3C8
330
3C4
100
AcDbEntity
  8
Defpoints
370
     0
100
AcDb2dPolyline
 66
     1
 10
0.0
 20
0.0
 30
0.0
  0
VERTEX
  5
3C9
330
3C8
100
AcDbEntity
  8
Defpoints
370
     0
100
AcDbVertex
100
AcDb2dVertex
 10
118.0984922216248
 20
340.4267257778884
 30
0.0
  0
VERTEX
  5
3CA
330
3C8
100
AcDbEntity
  8
Defpoints
370
     0
100
AcDbVertex
100
AcDb2dVertex
 10
118.0984922216248
 20
340.4267257778884
 30
0.0
  0
SEQEND
  5
3CB
330
3C8
100
AcDbEntity
  8
Defpoints
370
     0
  0
ENDBLK
  5
3C7
330
3C4
100
AcDbEntity
  8
0
100
AcDbBlockEnd
  0
BLOCK
  5
3CE
330
3CC
100
AcDbEntity
  8
0
100
AcDbBlockBegin
  2
block 125
 70
     0
 10
0.0
 20
0.0
 30
0.0
  3
block 125
  1

  0
POLYLINE
  5
3D0
330
3CC
100
AcDbEntity
  8
Defpoints
370
     0
100
AcDb2dPolyline
 66
     1
 10
0.0
 20
0.0
 30
0.0
  0
VERTEX
  5
3D1
330
3D0
100
AcDbEntity
  8
Defpoints
370
     0
100
AcDbVertex
100
AcDb2dVertex
 10
62.56518316915754
 20
252.1677139779349
 30
0.0
  0
VERTEX
  5
3D2
330
3D0
100
AcDbEntity
  8
Defpoints
370
     0
100
AcDbVertex
100
AcDb2dVertex
 10
62.56518316915754
 20
252.1677139779349
 30
0.0
  0
SEQEND
  5
3D3
330
3D0
100
AcDbEntity
  8
Defpoints
370
     0
  0
ENDBLK
  5
3CF
330
3CC
100
AcDbEntity
  8
0
100
AcDbBlockEnd
  0
BLOCK
  5
3D6
330
3D4
100
AcDbEntity
  8
0
100
AcDbBlockBegin
  2
block 126
 70
     0
 10
0.0
 20
0.0
 30
0.0
  3
block 126
  1

  0
POLYLINE
  5
3D8
330
3D4
100
AcDbEntity
  8
Defpoints
370
     0
100
AcDb2dPolyline
 66
     1
 10
0.0
 20
0.0
 30
0.0
  0
VERTEX
  5
3D9
330
3D8
100
AcDbEntity
  8
Defpoints
370
     0
100
AcDbVertex
100
AcDb2dVertex
 10
62.56518316915754
 20
234.8727298530248
 30
0.0
  0
VERTEX
  5
3DA
330
3D8
100
AcDbEntity
  8
Defpoints
370
     0
100
AcDbVertex
100
AcDb2dVertex
 10
62.56518316915754
 20
234.8727298530248
 30
0.0
  0
SEQEND
  5
3DB
330
3D8
100
AcDbEntity
  8
Defpoints
370
     0
  0
ENDBLK
  5
3D7
330
3D4
100
AcDbEntity
  8
0
100
AcDbBlockEnd
  0
BLOCK
  5
3DE
330
3DC
100
AcDbEntity
  8
0
100
AcDbBlockBegin
  2
block 127
 70
     0
 10
0.0
 20
0.0
 30
0.0
  3
block 127
  1

  0
POLYLINE
  5
3E0
330
3DC
100
AcDbEntity
  8
Defpoints
370
     0
100
AcDb2dPolyline
 66
     1
 10
0.0
 20
0.0
 30
0.0
  0
VERTEX
  5
3E1
330
3E0
100
AcDbEntity
  8
Defpoints
370
     0
100
AcDbVertex
100
AcDb2dVertex
 10
288.8899866583597
 20
270.2264183818152
 30
0.0
  0
VERTEX
  5
3E2
330
3E0
100
AcDbEntity
  8
Defpoints
370
     0
100
AcDbVertex
100
AcDb2dVertex
 10
288.8899866583597
 20
270.2264183818152
 30
0.0
  0
SEQEND
  5
3E3
330
3E0
100
AcDbEntity
  8
Defpoints
370
     0
  0
ENDBLK
  5
3DF
330
3DC
100
AcDbEntity
  8
0
100
AcDbBlockEnd
  0
BLOCK
  5
3E6
330
3E4
100
AcDbEntity
  8
0
100
AcDbBlockBegin
  2
block 128
 70
     0
 10
0.0
 20
0.0
 30
0.0
  3
block 128
  1

  0
POLYLINE
  5
3E8
330
3E4
100
AcDbEntity
  8
Defpoints
370
     0
100
AcDb2dPolyline
 66
     1
 10
0.0
 20
0.0
 30
0.0
  0
VERTEX
  5
3E9
330
3E8
100
AcDbEntity
  8
Defpoints
370
     0
100
AcDbVertex
100
AcDb2dVertex
 10
216.8827030253615
 20
193.4885294054075
 30
0.0
  0
VERTEX
  5
3EA
330
3E8
100
AcDbEntity
  8
Defpoints
370
     0
100
AcDbVertex
100
AcDb2dVertex
 10
216.8827030253615
 20
193.4885294054075
 30
0.0
  0
SEQEND
  5
3EB
330
3E8
100
AcDbEntity
  8
Defpoints
370
     0
  0
ENDBLK
  5
3E7
330
3E4
100
AcDbEntity
  8
0
100
AcDbBlockEnd
  0
BLOCK
  5
3EE
330
3EC
100
AcDbEntity
  8
0
100
AcDbBlockBegin
  2
block 129
 70
     0
 10
0.0
 20
0.0
 30
0.0
  3
block 129
  1

  0
POLYLINE
  5
3F0
330
3EC
100
AcDbEntity
  8
Defpoints
370
     0
100
AcDb2dPolyline
 66
     1
 10
0.0
 20
0.0
 30
0.0
  0
VERTEX
  5
3F1
330
3F0
100
AcDbEntity
  8
Defpoints
370
     0
100
AcDbVertex
100
AcDb2dVertex
 10
496.3242269809962
 20
245.1228597677218
 30
0.0
  0
VERTEX
  5
3F2
330
3F0
100
AcDbEntity
  8
Defpoints
370
     0
100
AcDbVertex
100
AcDb2dVertex
 10
496.3242269809962
 20
245.1228597677218
 30
0.0
  0
SEQEND
  5
3F3
330
3F0
100
AcDbEntity
  8
Defpoints
370
     0
  0
ENDBLK
  5
3EF
330
3EC
100
AcDbEntity
  8
0
100
AcDbBlockEnd
  0
BLOCK
  5
3F6
330
3F4
100
AcDbEntity
  8
0
100
AcDbBlockBegin
  2
block 130
 70
     0
 10
0.0
 20
0.0
 30
0.0
  3
block 130
  1

  0
POLYLINE
  5
3F8
330
3F4
100
AcDbEntity
  8
Defpoints
370
     0
100
AcDb2dPolyline
 66
     1
 10
0.0
 20
0.0
 30
0.0
  0
VERTEX
  5
3F9
330
3F8
100
AcDbEntity
  8
Defpoints
370
     0
100
AcDbVertex
100
AcDb2dVertex
 10
584.3012630595476
 20
278.0433496705064
 30
0.0
  0
VERTEX
  5
3FA
330
3F8
100
AcDbEntity
  8
Defpoints
370
     0
100
AcDbVertex
100
AcDb2dVertex
 10
584.3012630595476
 20
278.0433496705064
 30
0.0
  0
SEQEND
  5
3FB
330
3F8
100
AcDbEntity
  8
Defpoints
370
     0
  0
ENDBLK
  5
3F7
330
3F4
100
AcDbEntity
  8
0
100
AcDbBlockEnd
  0
BLOCK
  5
3FE
330
3FC
100
AcDbEntity
  8
0
100
AcDbBlockBegin
  2
block 131
 70
     0
 10
0.0
 20
0.0
 30
0.0
  3
block 131
  1

  0
POLYLINE
  5
400
330
3FC
100
AcDbEntity
  8
Defpoints
370
     0
100
AcDb2dPolyline
 66
     1
 10
0.0
 20
0.0
 30
0.0
  0
VERTEX
  5
401
330
400
100
AcDbEntity
  8
Defpoints
370
     0
100
AcDbVertex
100
AcDb2dVertex
 10
584.3012630595476
 20
295.3527359969339
 30
0.0
  0
VERTEX
  5
402
330
400
100
AcDbEntity
  8
Defpoints
370
     0
100
AcDbVertex
100
AcDb2dVertex
 10
584.3012630595476
 20
295.3527359969339
 30
0.0
  0
SEQEND
  5
403
330
400
100
AcDbEntity
  8
Defpoints
370
     0
  0
ENDBLK
  5
3FF
330
3FC
100
AcDbEntity
  8
0
100
AcDbBlockEnd
  0
BLOCK
  5
406
330
404
100
AcDbEntity
  8
0
100
AcDbBlockBegin
  2
block 132
 70
     0
 10
0.0
 20
0.0
 30
0.0
  3
block 132
  1

  0
POLYLINE
  5
408
330
404
100
AcDbEntity
  8
Defpoints
370
     0
100
AcDb2dPolyline
 66
     1
 10
0.0
 20
0.0
 30
0.0
  0
VERTEX
  5
409
330
408
100
AcDbEntity
  8
Defpoints
370
     0
100
AcDbVertex
100
AcDb2dVertex
 10
429.4519393942828
 20
279.4002353152155
 30
0.0
  0
VERTEX
  5
40A
330
408
100
AcDbEntity
  8
Defpoints
370
     0
100
AcDbVertex
100
AcDb2dVertex
 10
429.4519393942828
 20
279.4002353152155
 30
0.0
  0
SEQEND
  5
40B
330
408
100
AcDbEntity
  8
Defpoints
370
     0
  0
ENDBLK
  5
407
330
404
100
AcDbEntity
  8
0
100
AcDbBlockEnd
  0
BLOCK
  5
40E
330
40C
100
AcDbEntity
  8
0
100
AcDbBlockBegin
  2
block 133
 70
     0
 10
0.0
 20
0.0
 30
0.0
  3
block 133
  1

  0
POLYLINE
  5
410
330
40C
100
AcDbEntity
  8
Defpoints
370
     0
100
AcDb2dPolyline
 66
     1
 10
0.0
 20
0.0
 30
0.0
  0
VERTEX
  5
411
330
410
100
AcDbEntity
  8
Defpoints
370
     0
100
AcDbVertex
100
AcDb2dVertex
 10
431.1573107605382
 20
184.2880338221257
 30
0.0
  0
VERTEX
  5
412
330
410
100
AcDbEntity
  8
Defpoints
370
     0
100
AcDbVertex
100
AcDb2dVertex
 10
431.1573107605382
 20
184.2880338221257
 30
0.0
  0
SEQEND
  5
413
330
410
100
AcDbEntity
  8
Defpoints
370
     0
  0
ENDBLK
  5
40F
330
40C
100
AcDbEntity
  8
0
100
AcDbBlockEnd
  0
BLOCK
  5
416
330
414
100
AcDbEntity
  8
0
100
AcDbBlockBegin
  2
block 134
 70
     0
 10
0.0
 20
0.0
 30
0.0
  3
block 134
  1

  0
POLYLINE
  5
418
330
414
100
AcDbEntity
  8
Defpoints
370
     0
100
AcDb2dPolyline
 66
     1
 10
0.0
 20
0.0
 30
0.0
  0
VERTEX
  5
419
330
418
100
AcDbEntity
  8
Defpoints
370
     0
100
AcDbVertex
100
AcDb2dVertex
 10
459.5734652810224
 20
184.2880338221257
 30
0.0
  0
VERTEX
  5
41A
330
418
100
AcDbEntity
  8
Defpoints
370
     0
100
AcDbVertex
100
AcDb2dVertex
 10
459.5734652810224
 20
184.2880338221257
 30
0.0
  0
SEQEND
  5
41B
330
418
100
AcDbEntity
  8
Defpoints
370
     0
  0
ENDBLK
  5
417
330
414
100
AcDbEntity
  8
0
100
AcDbBlockEnd
  0
BLOCK
  5
41E
330
41C
100
AcDbEntity
  8
0
100
AcDbBlockBegin
  2
block 135
 70
     0
 10
0.0
 20
0.0
 30
0.0
  3
block 135
  1

  0
POLYLINE
  5
420
330
41C
100
AcDbEntity
  8
Defpoints
370
     0
100
AcDb2dPolyline
 66
     1
 10
0.0
 20
0.0
 30
0.0
  0
VERTEX
  5
421
330
420
100
AcDbEntity
  8
Defpoints
370
     0
100
AcDbVertex
100
AcDb2dVertex
 10
576.5928704572343
 20
182.6459712220403
 30
0.0
  0
VERTEX
  5
422
330
420
100
AcDbEntity
  8
Defpoints
370
     0
100
AcDbVertex
100
AcDb2dVertex
 10
576.5928704572343
 20
182.6459712220403
 30
0.0
  0
SEQEND
  5
423
330
420
100
AcDbEntity
  8
Defpoints
370
     0
  0
ENDBLK
  5
41F
330
41C
100
AcDbEntity
  8
0
100
AcDbBlockEnd
  0
BLOCK
  5
426
330
424
100
AcDbEntity
  8
0
100
AcDbBlockBegin
  2
block 136
 70
     0
 10
0.0
 20
0.0
 30
0.0
  3
block 136
  1

  0
POLYLINE
  5
428
330
424
100
AcDbEntity
  8
Defpoints
370
     0
100
AcDb2dPolyline
 66
     1
 10
0.0
 20
0.0
 30
0.0
  0
VERTEX
  5
429
330
428
100
AcDbEntity
  8
Defpoints
370
     0
100
AcDbVertex
100
AcDb2dVertex
 10
576.5928704572343
 20
281.0689764388135
 30
0.0
  0
VERTEX
  5
42A
330
428
100
AcDbEntity
  8
Defpoints
370
     0
100
AcDbVertex
100
AcDb2dVertex
 10
576.5928704572343
 20
281.0689764388135
 30
0.0
  0
SEQEND
  5
42B
330
428
100
AcDbEntity
  8
Defpoints
370
     0
  0
ENDBLK
  5
427
330
424
100
AcDbEntity
  8
0
100
AcDbBlockEnd
  0
BLOCK
  5
42E
330
42C
100
AcDbEntity
  8
0
100
AcDbBlockBegin
  2
block 137
 70
     0
 10
0.0
 20
0.0
 30
0.0
  3
block 137
  1

  0
POLYLINE
  5
430
330
42C
100
AcDbEntity
  8
Defpoints
370
     0
100
AcDb2dPolyline
 66
     1
 10
0.0
 20
0.0
 30
0.0
  0
VERTEX
  5
431
330
430
100
AcDbEntity
  8
Defpoints
370
     0
100
AcDbVertex
100
AcDb2dVertex
 10
610.7508271488696
 20
281.0689764388135
 30
0.0
  0
VERTEX
  5
432
330
430
100
AcDbEntity
  8
Defpoints
370
     0
100
AcDbVertex
100
AcDb2dVertex
 10
610.7508271488696
 20
281.0689764388135
 30
0.0
  0
SEQEND
  5
433
330
430
100
AcDbEntity
  8
Defpoints
370
     0
  0
ENDBLK
  5
42F
330
42C
100
AcDbEntity
  8
0
100
AcDbBlockEnd
  0
ENDSEC
  0
SECTION
  2
ENTITIES
  0
INSERT
  5
41
330
1F
100
AcDbEntity
  8
0
100
AcDbBlockReference
  2
block 2
 10
0.0
 20
0.0
 30
0.0
  0
INSERT
  5
46
330
1F
100
AcDbEntity
  8
0
100
AcDbBlockReference
  2
block 3
 10
0.0
 20
0.0
 30
0.0
  0
INSERT
  5
4B
330
1F
100
AcDbEntity
  8
0
100
AcDbBlockReference
  2
block 4
 10
0.0
 20
0.0
 30
0.0
  0
INSERT
  5
50
330
1F
100
AcDbEntity
  8
0
100
AcDbBlockReference
  2
block 5
 10
0.0
 20
0.0
 30
0.0
  0
INSERT
  5
55
330
1F
100
AcDbEntity
  8
0
100
AcDbBlockReference
  2
block 6
 10
0.0
 20
0.0
 30
0.0
  0
INSERT
  5
5A
330
1F
100
AcDbEntity
  8
0
100
AcDbBlockReference
  2
block 7
 10
0.0
 20
0.0
 30
0.0
  0
INSERT
  5
5F
330
1F
100
AcDbEntity
  8
0
100
AcDbBlockReference
  2
block 8
 10
0.0
 20
0.0
 30
0.0
  0
INSERT
  5
64
330
1F
100
AcDbEntity
  8
0
100
AcDbBlockReference
  2
block 9
 10
0.0
 20
0.0
 30
0.0
  0
INSERT
  5
69
330
1F
100
AcDbEntity
  8
0
100
AcDbBlockReference
  2
block 10
 10
0.0
 20
0.0
 30
0.0
  0
INSERT
  5
6E
330
1F
100
AcDbEntity
  8
0
100
AcDbBlockReference
  2
block 11
 10
0.0
 20
0.0
 30
0.0
  0
INSERT
  5
73
330
1F
100
AcDbEntity
  8
0
100
AcDbBlockReference
  2
block 12
 10
0.0
 20
0.0
 30
0.0
  0
INSERT
  5
78
330
1F
100
AcDbEntity
  8
0
100
AcDbBlockReference
  2
block 13
 10
0.0
 20
0.0
 30
0.0
  0
INSERT
  5
7D
330
1F
100
AcDbEntity
  8
0
100
AcDbBlockReference
  2
block 14
 10
0.0
 20
0.0
 30
0.0
  0
INSERT
  5
85
330
1F
100
AcDbEntity
  8
0
100
AcDbBlockReference
  2
block 15
 10
0.0
 20
0.0
 30
0.0
  0
INSERT
  5
8D
330
1F
100
AcDbEntity
  8
0
100
AcDbBlockReference
  2
block 16
 10
0.0
 20
0.0
 30
0.0
  0
INSERT
  5
95
330
1F
100
AcDbEntity
  8
0
100
AcDbBlockReference
  2
block 17
 10
0.0
 20
0.0
 30
0.0
  0
INSERT
  5
9D
330
1F
100
AcDbEntity
  8
0
100
AcDbBlockReference
  2
block 18
 10
0.0
 20
0.0
 30
0.0
  0
INSERT
  5
A2
330
1F
100
AcDbEntity
  8
0
100
AcDbBlockReference
  2
block 19
 10
0.0
 20
0.0
 30
0.0
  0
INSERT
  5
A7
330
1F
100
AcDbEntity
  8
0
100
AcDbBlockReference
  2
block 20
 10
0.0
 20
0.0
 30
0.0
  0
INSERT
  5
AC
330
1F
100
AcDbEntity
  8
0
100
AcDbBlockReference
  2
block 21
 10
0.0
 20
0.0
 30
0.0
  0
INSERT
  5
B1
330
1F
100
AcDbEntity
  8
0
100
AcDbBlockReference
  2
block 22
 10
0.0
 20
0.0
 30
0.0
  0
INSERT
  5
B9
330
1F
100
AcDbEntity
  8
0
100
AcDbBlockReference
  2
block 23
 10
0.0
 20
0.0
 30
0.0
  0
INSERT
  5
C1
330
1F
100
AcDbEntity
  8
0
100
AcDbBlockReference
  2
block 24
 10
0.0
 20
0.0
 30
0.0
  0
INSERT
  5
C9
330
1F
100
AcDbEntity
  8
0
100
AcDbBlockReference
  2
block 25
 10
0.0
 20
0.0
 30
0.0
  0
INSERT
  5
D1
330
1F
100
AcDbEntity
  8
0
100
AcDbBlockReference
  2
block 26
 10
0.0
 20
0.0
 30
0.0
  0
INSERT
  5
D6
330
1F
100
AcDbEntity
  8
0
100
AcDbBlockReference
  2
block 27
 10
0.0
 20
0.0
 30
0.0
  0
INSERT
  5
DB
330
1F
100
AcDbEntity
  8
0
100
AcDbBlockReference
  2
block 28
 10
0.0
 20
0.0
 30
0.0
  0
INSERT
  5
E0
330
1F
100
AcDbEntity
  8
0
100
AcDbBlockReference
  2
block 29
 10
0.0
 20
0.0
 30
0.0
  0
INSERT
  5
E5
330
1F
100
AcDbEntity
  8
0
100
AcDbBlockReference
  2
block 30
 10
0.0
 20
0.0
 30
0.0
  0
INSERT
  5
EA
330
1F
100
AcDbEntity
  8
0
100
AcDbBlockReference
  2
block 31
 10
0.0
 20
0.0
 30
0.0
  0
INSERT
  5
F2
330
1F
100
AcDbEntity
  8
0
100
AcDbBlockReference
  2
block 32
 10
0.0
 20
0.0
 30
0.0
  0
INSERT
  5
FA
330
1F
100
AcDbEntity
  8
0
100
AcDbBlockReference
  2
block 33
 10
0.0
 20
0.0
 30
0.0
  0
INSERT
  5
102
330
1F
100
AcDbEntity
  8
0
100
AcDbBlockReference
  2
block 34
 10
0.0
 20
0.0
 30
0.0
  0
INSERT
  5
10A
330
1F
100
AcDbEntity
  8
0
100
AcDbBlockReference
  2
block 35
 10
0.0
 20
0.0
 30
0.0
  0
INSERT
  5
10F
330
1F
100
AcDbEntity
  8
0
100
AcDbBlockReference
  2
block 36
 10
0.0
 20
0.0
 30
0.0
  0
INSERT
  5
114
330
1F
100
AcDbEntity
  8
0
100
AcDbBlockReference
  2
block 37
 10
0.0
 20
0.0
 30
0.0
  0
INSERT
  5
119
330
1F
100
AcDbEntity
  8
0
100
AcDbBlockReference
  2
block 38
 10
0.0
 20
0.0
 30
0.0
  0
INSERT
  5
11E
330
1F
100
AcDbEntity
  8
0
100
AcDbBlockReference
  2
block 39
 10
0.0
 20
0.0
 30
0.0
  0
INSERT
  5
123
330
1F
100
AcDbEntity
  8
0
100
AcDbBlockReference
  2
block 40
 10
0.0
 20
0.0
 30
0.0
  0
INSERT
  5
128
330
1F
100
AcDbEntity
  8
0
100
AcDbBlockReference
  2
block 41
 10
0.0
 20
0.0
 30
0.0
  0
INSERT
  5
12D
330
1F
100
AcDbEntity
  8
0
100
AcDbBlockReference
  2
block 42
 10
0.0
 20
0.0
 30
0.0
  0
INSERT
  5
132
330
1F
100
AcDbEntity
  8
0
100
AcDbBlockReference
  2
block 43
 10
0.0
 20
0.0
 30
0.0
  0
INSERT
  5
13A
330
1F
100
AcDbEntity
  8
0
100
AcDbBlockReference
  2
block 44
 10
0.0
 20
0.0
 30
0.0
  0
INSERT
  5
142
330
1F
100
AcDbEntity
  8
0
100
AcDbBlockReference
  2
block 45
 10
0.0
 20
0.0
 30
0.0
  0
INSERT
  5
147
330
1F
100
AcDbEntity
  8
0
100
AcDbBlockReference
  2
block 46
 10
0.0
 20
0.0
 30
0.0
  0
INSERT
  5
14F
330
1F
100
AcDbEntity
  8
0
100
AcDbBlockReference
  2
block 47
 10
0.0
 20
0.0
 30
0.0
  0
INSERT
  5
15A
330
1F
100
AcDbEntity
  8
0
100
AcDbBlockReference
  2
block 48
 10
0.0
 20
0.0
 30
0.0
  0
INSERT
  5
165
330
1F
100
AcDbEntity
  8
0
100
AcDbBlockReference
  2
block 49
 10
0.0
 20
0.0
 30
0.0
  0
INSERT
  5
16D
330
1F
100
AcDbEntity
  8
0
100
AcDbBlockReference
  2
block 50
 10
0.0
 20
0.0
 30
0.0
  0
INSERT
  5
175
330
1F
100
AcDbEntity
  8
0
100
AcDbBlockReference
  2
block 51
 10
0.0
 20
0.0
 30
0.0
  0
INSERT
  5
17D
330
1F
100
AcDbEntity
  8
0
100
AcDbBlockReference
  2
block 52
 10
0.0
 20
0.0
 30
0.0
  0
INSERT
  5
188
330
1F
100
AcDbEntity
  8
0
100
AcDbBlockReference
  2
block 53
 10
0.0
 20
0.0
 30
0.0
  0
INSERT
  5
193
330
1F
100
AcDbEntity
  8
0
100
AcDbBlockReference
  2
block 54
 10
0.0
 20
0.0
 30
0.0
  0
INSERT
  5
198
330
1F
100
AcDbEntity
  8
0
100
AcDbBlockReference
  2
block 55
 10
0.0
 20
0.0
 30
0.0
  0
INSERT
  5
1A0
330
1F
100
AcDbEntity
  8
0
100
AcDbBlockReference
  2
block 56
 10
0.0
 20
0.0
 30
0.0
  0
INSERT
  5
1A8
330
1F
100
AcDbEntity
  8
0
100
AcDbBlockReference
  2
block 57
 10
0.0
 20
0.0
 30
0.0
  0
INSERT
  5
1B0
330
1F
100
AcDbEntity
  8
0
100
AcDbBlockReference
  2
block 58
 10
0.0
 20
0.0
 30
0.0
  0
INSERT
  5
1BB
330
1F
100
AcDbEntity
  8
0
100
AcDbBlockReference
  2
block 59
 10
0.0
 20
0.0
 30
0.0
  0
INSERT
  5
1C6
330
1F
100
AcDbEntity
  8
0
100
AcDbBlockReference
  2
block 60
 10
0.0
 20
0.0
 30
0.0
  0
INSERT
  5
1CB
330
1F
100
AcDbEntity
  8
0
100
AcDbBlockReference
  2
block 61
 10
0.0
 20
0.0
 30
0.0
  0
INSERT
  5
1D3
330
1F
100
AcDbEntity
  8
0
100
AcDbBlockReference
  2
block 62
 10
0.0
 20
0.0
 30
0.0
  0
INSERT
  5
1DB
330
1F
100
AcDbEntity
  8
0
100
AcDbBlockReference
  2
block 63
 10
0.0
 20
0.0
 30
0.0
  0
INSERT
  5
1E3
330
1F
100
AcDbEntity
  8
0
100
AcDbBlockReference
  2
block 64
 10
0.0
 20
0.0
 30
0.0
  0
INSERT
  5
1EE
330
1F
100
AcDbEntity
  8
0
100
AcDbBlockReference
  2
block 65
 10
0.0
 20
0.0
 30
0.0
  0
INSERT
  5
1F9
330
1F
100
AcDbEntity
  8
0
100
AcDbBlockReference
  2
block 66
 10
0.0
 20
0.0
 30
0.0
  0
INSERT
  5
1FE
330
1F
100
AcDbEntity
  8
0
100
AcDbBlockReference
  2
block 67
 10
0.0
 20
0.0
 30
0.0
  0
INSERT
  5
203
330
1F
100
AcDbEntity
  8
0
100
AcDbBlockReference
  2
block 68
 10
0.0
 20
0.0
 30
0.0
  0
INSERT
  5
20B
330
1F
100
AcDbEntity
  8
0
100
AcDbBlockReference
  2
block 69
 10
0.0
 20
0.0
 30
0.0
  0
INSERT
  5
213
330
1F
100
AcDbEntity
  8
0
100
AcDbBlockReference
  2
block 70
 10
0.0
 20
0.0
 30
0.0
  0
INSERT
  5
21B
330
1F
100
AcDbEntity
  8
0
100
AcDbBlockReference
  2
block 71
 10
0.0
 20
0.0
 30
0.0
  0
INSERT
  5
226
330
1F
100
AcDbEntity
  8
0
100
AcDbBlockReference
  2
block 72
 10
0.0
 20
0.0
 30
0.0
  0
INSERT
  5
231
330
1F
100
AcDbEntity
  8
0
100
AcDbBlockReference
  2
block 73
 10
0.0
 20
0.0
 30
0.0
  0
INSERT
  5
236
330
1F
100
AcDbEntity
  8
0
100
AcDbBlockReference
  2
block 74
 10
0.0
 20
0.0
 30
0.0
  0
INSERT
  5
23B
330
1F
100
AcDbEntity
  8
0
100
AcDbBlockReference
  2
block 75
 10
0.0
 20
0.0
 30
0.0
  0
INSERT
  5
243
330
1F
100
AcDbEntity
  8
0
100
AcDbBlockReference
  2
block 76
 10
0.0
 20
0.0
 30
0.0
  0
INSERT
  5
24B
330
1F
100
AcDbEntity
  8
0
100
AcDbBlockReference
  2
block 77
 10
0.0
 20
0.0
 30
0.0
  0
INSERT
  5
253
330
1F
100
AcDbEntity
  8
0
100
AcDbBlockReference
  2
block 78
 10
0.0
 20
0.0
 30
0.0
  0
INSERT
  5
25E
330
1F
100
AcDbEntity
  8
0
100
AcDbBlockReference
  2
block 79
 10
0.0
 20
0.0
 30
0.0
  0
INSERT
  5
269
330
1F
100
AcDbEntity
  8
0
100
AcDbBlockReference
  2
block 80
 10
0.0
 20
0.0
 30
0.0
  0
INSERT
  5
26E
330
1F
100
AcDbEntity
  8
0
100
AcDbBlockReference
  2
block 81
 10
0.0
 20
0.0
 30
0.0
  0
INSERT
  5
276
330
1F
100
AcDbEntity
  8
0
100
AcDbBlockReference
  2
block 82
 10
0.0
 20
0.0
 30
0.0
  0
INSERT
  5
27E
330
1F
100
AcDbEntity
  8
0
100
AcDbBlockReference
  2
block 83
 10
0.0
 20
0.0
 30
0.0
  0
INSERT
  5
283
330
1F
100
AcDbEntity
  8
0
100
AcDbBlockReference
  2
block 84
 10
0.0
 20
0.0
 30
0.0
  0
INSERT
  5
28B
330
1F
100
AcDbEntity
  8
0
100
AcDbBlockReference
  2
block 85
 10
0.0
 20
0.0
 30
0.0
  0
INSERT
  5
296
330
1F
100
AcDbEntity
  8
0
100
AcDbBlockReference
  2
block 86
 10
0.0
 20
0.0
 30
0.0
  0
INSERT
  5
2A1
330
1F
100
AcDbEntity
  8
0
100
AcDbBlockReference
  2
block 87
 10
0.0
 20
0.0
 30
0.0
  0
INSERT
  5
2A9
330
1F
100
AcDbEntity
  8
0
100
AcDbBlockReference
  2
block 88
 10
0.0
 20
0.0
 30
0.0
  0
INSERT
  5
2B1
330
1F
100
AcDbEntity
  8
0
100
AcDbBlockReference
  2
block 89
 10
0.0
 20
0.0
 30
0.0
  0
INSERT
  5
2B9
330
1F
100
AcDbEntity
  8
0
100
AcDbBlockReference
  2
block 90
 10
0.0
 20
0.0
 30
0.0
  0
INSERT
  5
2C4
330
1F
100
AcDbEntity
  8
0
100
AcDbBlockReference
  2
block 91
 10
0.0
 20
0.0
 30
0.0
  0
INSERT
  5
2CF
330
1F
100
AcDbEntity
  8
0
100
AcDbBlockReference
  2
block 92
 10
0.0
 20
0.0
 30
0.0
  0
INSERT
  5
2D4
330
1F
100
AcDbEntity
  8
0
100
AcDbBlockReference
  2
block 93
 10
0.0
 20
0.0
 30
0.0
  0
INSERT
  5
2DC
330
1F
100
AcDbEntity
  8
0
100
AcDbBlockReference
  2
block 94
 10
0.0
 20
0.0
 30
0.0
  0
INSERT
  5
2E4
330
1F
100
AcDbEntity
  8
0
100
AcDbBlockReference
  2
block 95
 10
0.0
 20
0.0
 30
0.0
  0
INSERT
  5
2EC
330
1F
100
AcDbEntity
  8
0
100
AcDbBlockReference
  2
block 96
 10
0.0
 20
0.0
 30
0.0
  0
INSERT
  5
2F7
330
1F
100
AcDbEntity
  8
0
100
AcDbBlockReference
  2
block 97
 10
0.0
 20
0.0
 30
0.0
  0
INSERT
  5
302
330
1F
100
AcDbEntity
  8
0
100
AcDbBlockReference
  2
block 98
 10
0.0
 20
0.0
 30
0.0
  0
INSERT
  5
307
330
1F
100
AcDbEntity
  8
0
100
AcDbBlockReference
  2
block 99
 10
0.0
 20
0.0
 30
0.0
  0
INSERT
  5
30F
330
1F
100
AcDbEntity
  8
0
100
AcDbBlockReference
  2
block 100
 10
0.0
 20
0.0
 30
0.0
  0
INSERT
  5
317
330
1F
100
AcDbEntity
  8
0
100
AcDbBlockReference
  2
block 101
 10
0.0
 20
0.0
 30
0.0
  0
INSERT
  5
31F
330
1F
100
AcDbEntity
  8
0
100
AcDbBlockReference
  2
block 102
 10
0.0
 20
0.0
 30
0.0
  0
INSERT
  5
32A
330
1F
100
AcDbEntity
  8
0
100
AcDbBlockReference
  2
block 103
 10
0.0
 20
0.0
 30
0.0
  0
INSERT
  5
335
330
1F
100
AcDbEntity
  8
0
100
AcDbBlockReference
  2
block 104
 10
0.0
 20
0.0
 30
0.0
  0
INSERT
  5
33A
330
1F
100
AcDbEntity
  8
0
100
AcDbBlockReference
  2
block 105
 10
0.0
 20
0.0
 30
0.0
  0
INSERT
  5
340
330
1F
100
AcDbEntity
  8
0
100
AcDbBlockReference
  2
block 106
 10
0.0
 20
0.0
 30
0.0
  0
INSERT
  5
345
330
1F
100
AcDbEntity
  8
0
100
AcDbBlockReference
  2
block 107
 10
0.0
 20
0.0
 30
0.0
  0
INSERT
  5
34A
330
1F
100
AcDbEntity
  8
0
100
AcDbBlockReference
  2
block 108
 10
0.0
 20
0.0
 30
0.0
  0
INSERT
  5
34F
330
1F
100
AcDbEntity
  8
0
100
AcDbBlockReference
  2
block 109
 10
0.0
 20
0.0
 30
0.0
  0
INSERT
  5
355
330
1F
100
AcDbEntity
  8
Defpoints
100
AcDbBlockReference
  2
block 110
 10
0.0
 20
0.0
 30
0.0
  0
INSERT
  5
35D
330
1F
100
AcDbEntity
  8
Defpoints
100
AcDbBlockReference
  2
block 111
 10
0.0
 20
0.0
 30
0.0
  0
INSERT
  5
365
330
1F
100
AcDbEntity
  8
Defpoints
100
AcDbBlockReference
  2
block 112
 10
0.0
 20
0.0
 30
0.0
  0
INSERT
  5
36D
330
1F
100
AcDbEntity
  8
Defpoints
100
AcDbBlockReference
  2
block 113
 10
0.0
 20
0.0
 30
0.0
  0
INSERT
  5
375
330
1F
100
AcDbEntity
  8
Defpoints
100
AcDbBlockReference
  2
block 114
 10
0.0
 20
0.0
 30
0.0
  0
INSERT
  5
37D
330
1F
100
AcDbEntity
  8
Defpoints
100
AcDbBlockReference
  2
block 115
 10
0.0
 20
0.0
 30
0.0
  0
INSERT
  5
385
330
1F
100
AcDbEntity
  8
Defpoints
100
AcDbBlockReference
  2
block 116
 10
0.0
 20
0.0
 30
0.0
  0
INSERT
  5
38D
330
1F
100
AcDbEntity
  8
Defpoints
100
AcDbBlockReference
  2
block 117
 10
0.0
 20
0.0
 30
0.0
  0
INSERT
  5
395
330
1F
100
AcDbEntity
  8
Defpoints
100
AcDbBlockReference
  2
block 118
 10
0.0
 20
0.0
 30
0.0
  0
INSERT
  5
39D
330
1F
100
AcDbEntity
  8
Defpoints
100
AcDbBlockReference
  2
block 119
 10
0.0
 20
0.0
 30
0.0
  0
INSERT
  5
3A5
330
1F
100
AcDbEntity
  8
Defpoints
100
AcDbBlockReference
  2
block 120
 10
0.0
 20
0.0
 30
0.0
  0
INSERT
  5
3AD
330
1F
100
AcDbEntity
  8
Defpoints
100
AcDbBlockReference
  2
block 121
 10
0.0
 20
0.0
 30
0.0
  0
INSERT
  5
3B5
330
1F
100
AcDbEntity
  8
Defpoints
100
AcDbBlockReference
  2
block 122
 10
0.0
 20
0.0
 30
0.0
  0
INSERT
  5
3BD
330
1F
100
AcDbEntity
  8
Defpoints
100
AcDbBlockReference
  2
block 123
 10
0.0
 20
0.0
 30
0.0
  0
INSERT
  5
3C5
330
1F
100
AcDbEntity
  8
Defpoints
100
AcDbBlockReference
  2
block 124
 10
0.0
 20
0.0
 30
0.0
  0
INSERT
  5
3CD
330
1F
100
AcDbEntity
  8
Defpoints
100
AcDbBlockReference
  2
block 125
 10
0.0
 20
0.0
 30
0.0
  0
INSERT
  5
3D5
330
1F
100
AcDbEntity
  8
Defpoints
100
AcDbBlockReference
  2
block 126
 10
0.0
 20
0.0
 30
0.0
  0
INSERT
  5
3DD
330
1F
100
AcDbEntity
  8
Defpoints
100
AcDbBlockReference
  2
block 127
 10
0.0
 20
0.0
 30
0.0
  0
INSERT
  5
3E5
330
1F
100
AcDbEntity
  8
Defpoints
100
AcDbBlockReference
  2
block 128
 10
0.0
 20
0.0
 30
0.0
  0
INSERT
  5
3ED
330
1F
100
AcDbEntity
  8
Defpoints
100
AcDbBlockReference
  2
block 129
 10
0.0
 20
0.0
 30
0.0
  0
INSERT
  5
3F5
330
1F
100
AcDbEntity
  8
Defpoints
100
AcDbBlockReference
  2
block 130
 10
0.0
 20
0.0
 30
0.0
  0
INSERT
  5
3FD
330
1F
100
AcDbEntity
  8
Defpoints
100
AcDbBlockReference
  2
block 131
 10
0.0
 20
0.0
 30
0.0
  0
INSERT
  5
405
330
1F
100
AcDbEntity
  8
Defpoints
100
AcDbBlockReference
  2
block 132
 10
0.0
 20
0.0
 30
0.0
  0
INSERT
  5
40D
330
1F
100
AcDbEntity
  8
Defpoints
100
AcDbBlockReference
  2
block 133
 10
0.0
 20
0.0
 30
0.0
  0
INSERT
  5
415
330
1F
100
AcDbEntity
  8
Defpoints
100
AcDbBlockReference
  2
block 134
 10
0.0
 20
0.0
 30
0.0
  0
INSERT
  5
41D
330
1F
100
AcDbEntity
  8
Defpoints
100
AcDbBlockReference
  2
block 135
 10
0.0
 20
0.0
 30
0.0
  0
INSERT
  5
425
330
1F
100
AcDbEntity
  8
Defpoints
100
AcDbBlockReference
  2
block 136
 10
0.0
 20
0.0
 30
0.0
  0
INSERT
  5
42D
330
1F
100
AcDbEntity
  8
Defpoints
100
AcDbBlockReference
  2
block 137
 10
0.0
 20
0.0
 30
0.0
  0
ENDSEC
  0
SECTION
  2
OBJECTS
  0
DICTIONARY
  5
C
330
0
100
AcDbDictionary
281
     1
  3
ACAD_GROUP
350
D
  3
ACAD_LAYOUT
350
1A
  3
ACAD_MATERIAL
350
3B
  3
ACAD_MLEADERSTYLE
350
435
  3
ACAD_MLINESTYLE
350
17
  3
ACAD_PLOTSETTINGS
350
19
  3
ACAD_PLOTSTYLENAME
350
E
  3
ACAD_TABLESTYLE
350
434
  3
ACAD_VISUALSTYLE
350
2A
  0
SUN
  5
3F
330
29
100
AcDbSun
 90
        1
290
     0
 63
     7
421
 16777215
 40
1.0
291
     1
 91
  2455826
 92
 54000000
292
     0
 70
     2
 71
   256
280
     1
  0
DICTIONARY
  5
D
102
{ACAD_REACTORS
330
C
102
}
330
C
100
AcDbDictionary
281
     1
  0
DICTIONARY
  5
1A
102
{ACAD_REACTORS
330
C
102
}
330
C
100
AcDbDictionary
281
     1
  3
Layout1
350
1E
  3
Layout2
350
26
  3
Model
350
22
  0
DICTIONARY
  5
3B
102
{ACAD_REACTORS
330
C
102
}
330
C
100
AcDbDictionary
281
     1
  3
ByBlock
350
3D
  3
ByLayer
350
3C
  3
Global
350
3E
  0
DICTIONARY
  5
435
102
{ACAD_REACTORS
330
C
102
}
330
C
100
AcDbDictionary
281
     1
  0
DICTIONARY
  5
17
102
{ACAD_REACTORS
330
C
102
}
330
C
100
AcDbDictionary
281
     1
  3
Standard
350
18
  0
DICTIONARY
  5
19
102
{ACAD_REACTORS
330
C
102
}
330
C
100
AcDbDictionary
281
     1
  0
ACDBDICTIONARYWDFLT
  5
E
102
{ACAD_REACTORS
330
C
102
}
330
C
100
AcDbDictionary
281
     1
  3
Normal
350
F
100
AcDbDictionaryWithDefault
340
F
  0
DICTIONARY
  5
434
102
{ACAD_REACTORS
330
C
102
}
330
C
100
AcDbDictionary
281
     1
  0
DICTIONARY
  5
2A
102
{ACAD_REACTORS
330
C
102
}
330
C
100
AcDbDictionary
281
     1
  3
2dWireframe
350
2F
  3
3D Hidden
350
31
  3
3dWireframe
350
30
  3
Basic
350
32
  3
Brighten
350
36
  3
ColorChange
350
3A
  3
Conceptual
350
34
  3
Dim
350
35
  3
Facepattern
350
39
  3
Flat
350
2B
  3
FlatWithEdges
350
2C
  3
Gouraud
350
2D
  3
GouraudWithEdges
350
2E
  3
Linepattern
350
38
  3
Realistic
350
33
  3
Thicken
350
37
  0
LAYOUT
  5
1E
102
{ACAD_REACTORS
330
1A
102
}
330
1A
100
AcDbPlotSettings
  1

  2
none_device
  4

  6

 40
0.0
 41
0.0
 42
0.0
 43
0.0
 44
0.0
 45
0.0
 46
0.0
 47
0.0
 48
0.0
 49
0.0
140
0.0
141
0.0
142
1.0
143
1.0
 70
   688
 72
     0
 73
     0
 74
     5
  7

 75
    16
 76
     0
 77
     2
 78
   300
147
1.0
148
0.0
149
0.0
100
AcDbLayout
  1
Layout1
 70
     1
 71
     1
 10
0.0
 20
0.0
 11
12.0
 21
9.0
 12
0.0
 22
0.0
 32
0.0
 14
1.000000000000000E+20
 24
1.000000000000000E+20
 34
1.000000000000000E+20
 15
-1.000000000000000E+20
 25
-1.000000000000000E+20
 35
-1.000000000000000E+20
146
0.0
 13
0.0
 23
0.0
 33
0.0
 16
1.0
 26
0.0
 36
0.0
 17
0.0
 27
1.0
 37
0.0
 76
     0
330
1B
  0
LAYOUT
  5
26
102
{ACAD_REACTORS
330
1A
102
}
330
1A
100
AcDbPlotSettings
  1

  2
none_device
  4

  6

 40
0.0
 41
0.0
 42
0.0
 43
0.0
 44
0.0
 45
0.0
 46
0.0
 47
0.0
 48
0.0
 49
0.0
140
0.0
141
0.0
142
1.0
143
1.0
 70
   688
 72
     0
 73
     0
 74
     5
  7

 75
    16
 76
     0
 77
     2
 78
   300
147
1.0
148
0.0
149
0.0
100
AcDbLayout
  1
Layout2
 70
     1
 71
     2
 10
0.0
 20
0.0
 11
0.0
 21
0.0
 12
0.0
 22
0.0
 32
0.0
 14
0.0
 24
0.0
 34
0.0
 15
0.0
 25
0.0
 35
0.0
146
0.0
 13
0.0
 23
0.0
 33
0.0
 16
1.0
 26
0.0
 36
0.0
 17
0.0
 27
1.0
 37
0.0
 76
     0
330
23
  0
LAYOUT
  5
22
102
{ACAD_REACTORS
330
1A
102
}
330
1A
100
AcDbPlotSettings
  1

  2
none_device
  4

  6

 40
0.0
 41
0.0
 42
0.0
 43
0.0
 44
0.0
 45
0.0
 46
0.0
 47
0.0
 48
0.0
 49
0.0
140
0.0
141
0.0
142
1.0
143
1.0
 70
  1712
 72
     0
 73
     0
 74
     0
  7

 75
     0
 76
     0
 77
     2
 78
   300
147
1.0
148
0.0
149
0.0
100
AcDbLayout
  1
Model
 70
     1
 71
     0
 10
0.0
 20
0.0
 11
12.0
 21
9.0
 12
0.0
 22
0.0
 32
0.0
 14
1.000000000000000E+20
 24
1.000000000000000E+20
 34
1.000000000000000E+20
 15
-1.000000000000000E+20
 25
-1.000000000000000E+20
 35
-1.000000000000000E+20
146
0.0
 13
0.0
 23
0.0
 33
0.0
 16
1.0
 26
0.0
 36
0.0
 17
0.0
 27
1.0
 37
0.0
 76
     0
330
1F
331
29
  0
MATERIAL
  5
3D
102
{ACAD_REACTORS
330
3B
102
}
330
3B
100
AcDbMaterial
  1
ByBlock
 72
     1
 94
      127
  0
MATERIAL
  5
3C
102
{ACAD_REACTORS
330
3B
102
}
330
3B
100
AcDbMaterial
  1
ByLayer
 72
     1
 94
      127
  0
MATERIAL
  5
3E
102
{ACAD_REACTORS
330
3B
102
}
330
3B
100
AcDbMaterial
  1
Global
 72
     1
 94
      127
  0
MLINESTYLE
  5
18
102
{ACAD_REACTORS
330
17
102
}
330
17
100
AcDbMlineStyle
  2
Standard
 70
     0
  3

 62
   256
 51
90.0
 52
90.0
 71
     2
 49
0.5
 62
   256
  6
BYLAYER
 49
-0.5
 62
   256
  6
BYLAYER
  0
ACDBPLACEHOLDER
  5
F
102
{ACAD_REACTORS
330
E
102
}
330
E
  0
VISUALSTYLE
  5
2F
102
{ACAD_REACTORS
330
2A
102
}
330
2A
100
AcDbVisualStyle
  2
2dWireframe
 70
     4
177
     2
291
     0
 71
     0
176
     1
 72
     2
176
     1
 73
     0
176
     1
 90
        0
176
     1
 40
-0.6
176
     1
 41
-30.0
176
     1
 62
     5
 63
     7
421
 16777215
176
     1
 74
     1
176
     1
 91
        4
176
     1
 64
     7
176
     1
 65
   257
176
     1
 75
     1
176
     1
175
     1
176
     1
 42
1.0
176
     1
 92
        0
176
     1
 66
   257
176
     1
 43
1.0
176
     1
 76
     1
176
     1
 77
     6
176
     1
 78
     2
176
     1
 67
     7
176
     1
 79
     5
176
     1
170
     0
176
     1
171
     0
176
     1
290
     0
176
     1
 93
        1
176
     1
 44
0.0
176
     1
173
     0
176
     1
  0
VISUALSTYLE
  5
31
102
{ACAD_REACTORS
330
2A
102
}
330
2A
100
AcDbVisualStyle
  2
3D Hidden
 70
     6
177
     2
291
     0
 71
     1
176
     1
 72
     2
176
     1
 73
     2
176
     1
 90
        0
176
     1
 40
-0.6
176
     1
 41
-30.0
176
     1
 62
     5
 63
     7
421
 16777215
176
     1
 74
     2
176
     1
 91
        2
176
     1
 64
     7
176
     1
 65
   257
176
     1
 75
     2
176
     1
175
     1
176
     1
 42
40.0
176
     1
 92
        0
176
     1
 66
   257
176
     1
 43
1.0
176
     1
 76
     1
176
     1
 77
     6
176
     1
 78
     2
176
     1
 67
     7
176
     1
 79
     3
176
     1
170
     0
176
     1
171
     0
176
     1
290
     0
176
     1
 93
        1
176
     1
 44
0.0
176
     1
173
     0
176
     1
  0
VISUALSTYLE
  5
30
102
{ACAD_REACTORS
330
2A
102
}
330
2A
100
AcDbVisualStyle
  2
3dWireframe
 70
     5
177
     2
291
     0
 71
     0
176
     1
 72
     2
176
     1
 73
     0
176
     1
 90
        0
176
     1
 40
-0.6
176
     1
 41
-30.0
176
     1
 62
     5
 63
     7
421
 16777215
176
     1
 74
     1
176
     1
 91
        4
176
     1
 64
     7
176
     1
 65
   257
176
     1
 75
     1
176
     1
175
     1
176
     1
 42
1.0
176
     1
 92
        0
176
     1
 66
   257
176
     1
 43
1.0
176
     1
 76
     1
176
     1
 77
     6
176
     1
 78
     2
176
     1
 67
     7
176
     1
 79
     5
176
     1
170
     0
176
     1
171
     0
176
     1
290
     0
176
     1
 93
        1
176
     1
 44
0.0
176
     1
173
     0
176
     1
  0
VISUALSTYLE
  5
32
102
{ACAD_REACTORS
330
2A
102
}
330
2A
100
AcDbVisualStyle
  2
Basic
 70
     7
177
     2
291
     1
 71
     1
176
     1
 72
     0
176
     1
 73
     1
176
     1
 90
        0
176
     1
 40
-0.6
176
     1
 41
-30.0
176
     1
 62
     5
 63
     7
421
 16777215
176
     1
 74
     0
176
     1
 91
        4
176
     1
 64
     7
176
     1
 65
   257
176
     1
 75
     1
176
     1
175
     1
176
     1
 42
1.0
176
     1
 92
        8
176
     1
 66
     7
176
     1
 43
1.0
176
     1
 76
     1
176
     1
 77
     6
176
     1
 78
     2
176
     1
 67
     7
176
     1
 79
     5
176
     1
170
     0
176
     1
171
     0
176
     1
290
     0
176
     1
 93
        1
176
     1
 44
0.0
176
     1
173
     0
176
     1
  0
VISUALSTYLE
  5
36
102
{ACAD_REACTORS
330
2A
102
}
330
2A
100
AcDbVisualStyle
  2
Brighten
 70
    12
177
     2
291
     1
 71
     2
176
     1
 72
     2
176
     1
 73
     0
176
     1
 90
        0
176
     1
 40
-0.6
176
     1
 41
-30.0
176
     1
 62
     5
 63
     7
421
 16777215
176
     1
 74
     1
176
     1
 91
        4
176
     1
 64
     7
176
     1
 65
   257
176
     1
 75
     1
176
     1
175
     1
176
     1
 42
1.0
176
     1
 92
        8
176
     1
 66
     7
176
     1
 43
1.0
176
     1
 76
     1
176
     1
 77
     6
176
     1
 78
     2
176
     1
 67
     7
176
     1
 79
     5
176
     1
170
     0
176
     1
171
     0
176
     1
290
     0
176
     1
 93
        1
176
     1
 44
50.0
176
     1
173
     0
176
     1
  0
VISUALSTYLE
  5
3A
102
{ACAD_REACTORS
330
2A
102
}
330
2A
100
AcDbVisualStyle
  2
ColorChange
 70
    16
177
     2
291
     1
 71
     2
176
     1
 72
     2
176
     1
 73
     3
176
     1
 90
        0
176
     1
 40
-0.6
176
     1
 41
-30.0
176
     1
 62
     5
 63
     8
421
  8421504
176
     1
 74
     1
176
     1
 91
        4
176
     1
 64
     7
176
     1
 65
   257
176
     1
 75
     1
176
     1
175
     1
176
     1
 42
1.0
176
     1
 92
        8
176
     1
 66
     8
424
  8421504
176
     1
 43
1.0
176
     1
 76
     1
176
     1
 77
     6
176
     1
 78
     2
176
     1
 67
     7
176
     1
 79
     5
176
     1
170
     0
176
     1
171
     0
176
     1
290
     0
176
     1
 93
        1
176
     1
 44
0.0
176
     1
173
     0
176
     1
  0
VISUALSTYLE
  5
34
102
{ACAD_REACTORS
330
2A
102
}
330
2A
100
AcDbVisualStyle
  2
Conceptual
 70
     9
177
     2
291
     0
 71
     3
176
     1
 72
     2
176
     1
 73
     0
176
     1
 90
        0
176
     1
 40
-0.6
176
     1
 41
-30.0
176
     1
 62
     5
 63
     7
421
 16777215
176
     1
 74
     2
176
     1
 91
        2
176
     1
 64
     7
176
     1
 65
   257
176
     1
 75
     1
176
     1
175
     1
176
     1
 42
40.0
176
     1
 92
        8
176
     1
 66
     7
176
     1
 43
1.0
176
     1
 76
     1
176
     1
 77
     6
176
     1
 78
     2
176
     1
 67
     7
176
     1
 79
     3
176
     1
170
     0
176
     1
171
     0
176
     1
290
     0
176
     1
 93
        1
176
     1
 44
0.0
176
     1
173
     0
176
     1
  0
VISUALSTYLE
  5
35
102
{ACAD_REACTORS
330
2A
102
}
330
2A
100
AcDbVisualStyle
  2
Dim
 70
    11
177
     2
291
     1
 71
     2
176
     1
 72
     2
176
     1
 73
     0
176
     1
 90
        0
176
     1
 40
-0.6
176
     1
 41
-30.0
176
     1
 62
     5
 63
     7
421
 16777215
176
     1
 74
     1
176
     1
 91
        4
176
     1
 64
     7
176
     1
 65
   257
176
     1
 75
     1
176
     1
175
     1
176
     1
 42
1.0
176
     1
 92
        8
176
     1
 66
     7
176
     1
 43
1.0
176
     1
 76
     1
176
     1
 77
     6
176
     1
 78
     2
176
     1
 67
     7
176
     1
 79
     5
176
     1
170
     0
176
     1
171
     0
176
     1
290
     0
176
     1
 93
        1
176
     1
 44
-50.0
176
     1
173
     0
176
     1
  0
VISUALSTYLE
  5
39
102
{ACAD_REACTORS
330
2A
102
}
330
2A
100
AcDbVisualStyle
  2
Facepattern
 70
    15
177
     2
291
     1
 71
     2
176
     1
 72
     2
176
     1
 73
     0
176
     1
 90
        0
176
     1
 40
-0.6
176
     1
 41
-30.0
176
     1
 62
     5
 63
     7
421
 16777215
176
     1
 74
     1
176
     1
 91
        4
176
     1
 64
     7
176
     1
 65
   257
176
     1
 75
     1
176
     1
175
     1
176
     1
 42
1.0
176
     1
 92
        8
176
     1
 66
     7
176
     1
 43
1.0
176
     1
 76
     1
176
     1
 77
     6
176
     1
 78
     2
176
     1
 67
     7
176
     1
 79
     5
176
     1
170
     0
176
     1
171
     0
176
     1
290
     0
176
     1
 93
        1
176
     1
 44
0.0
176
     1
173
     0
176
     1
  0
VISUALSTYLE
  5
2B
102
{ACAD_REACTORS
330
2A
102
}
330
2A
100
AcDbVisualStyle
  2
Flat
 70
     0
177
     2
291
     1
 71
     2
176
     1
 72
     1
176
     1
 73
     1
176
     1
 90
        2
176
     1
 40
-0.6
176
     1
 41
30.0
176
     1
 62
     5
 63
     7
421
 16777215
176
     1
 74
     0
176
     1
 91
        4
176
     1
 64
     7
176
     1
 65
   257
176
     1
 75
     1
176
     1
175
     1
176
     1
 42
1.0
176
     1
 92
        8
176
     1
 66
     7
176
     1
 43
1.0
176
     1
 76
     1
176
     1
 77
     6
176
     1
 78
     2
176
     1
 67
     7
176
     1
 79
     5
176
     1
170
     0
176
     1
171
     0
176
     1
290
     0
176
     1
 93
       13
176
     1
 44
0.0
176
     1
173
     0
176
     1
  0
VISUALSTYLE
  5
2C
102
{ACAD_REACTORS
330
2A
102
}
330
2A
100
AcDbVisualStyle
  2
FlatWithEdges
 70
     1
177
     2
291
     1
 71
     2
176
     1
 72
     1
176
     1
 73
     1
176
     1
 90
        2
176
     1
 40
-0.6
176
     1
 41
30.0
176
     1
 62
     5
 63
     7
421
 16777215
176
     1
 74
     1
176
     1
 91
        4
176
     1
 64
     7
176
     1
 65
   257
176
     1
 75
     1
176
     1
175
     1
176
     1
 42
1.0
176
     1
 92
        0
176
     1
 66
   257
176
     1
 43
1.0
176
     1
 76
     1
176
     1
 77
     6
176
     1
 78
     2
176
     1
 67
     7
176
     1
 79
     5
176
     1
170
     0
176
     1
171
     0
176
     1
290
     0
176
     1
 93
       13
176
     1
 44
0.0
176
     1
173
     0
176
     1
  0
VISUALSTYLE
  5
2D
102
{ACAD_REACTORS
330
2A
102
}
330
2A
100
AcDbVisualStyle
  2
Gouraud
 70
     2
177
     2
291
     1
 71
     2
176
     1
 72
     2
176
     1
 73
     1
176
     1
 90
        2
176
     1
 40
-0.6
176
     1
 41
30.0
176
     1
 62
     5
 63
     7
421
 16777215
176
     1
 74
     0
176
     1
 91
        4
176
     1
 64
     7
176
     1
 65
   257
176
     1
 75
     1
176
     1
175
     1
176
     1
 42
1.0
176
     1
 92
        0
176
     1
 66
     7
176
     1
 43
1.0
176
     1
 76
     1
176
     1
 77
     6
176
     1
 78
     2
176
     1
 67
     7
176
     1
 79
     5
176
     1
170
     0
176
     1
171
     0
176
     1
290
     0
176
     1
 93
       13
176
     1
 44
0.0
176
     1
173
     0
176
     1
  0
VISUALSTYLE
  5
2E
102
{ACAD_REACTORS
330
2A
102
}
330
2A
100
AcDbVisualStyle
  2
GouraudWithEdges
 70
     3
177
     2
291
     1
 71
     2
176
     1
 72
     2
176
     1
 73
     1
176
     1
 90
        2
176
     1
 40
-0.6
176
     1
 41
30.0
176
     1
 62
     5
 63
     7
421
 16777215
176
     1
 74
     1
176
     1
 91
        4
176
     1
 64
     7
176
     1
 65
   257
176
     1
 75
     1
176
     1
175
     1
176
     1
 42
1.0
176
     1
 92
        0
176
     1
 66
   257
176
     1
 43
1.0
176
     1
 76
     1
176
     1
 77
     6
176
     1
 78
     2
176
     1
 67
     7
176
     1
 79
     5
176
     1
170
     0
176
     1
171
     0
176
     1
290
     0
176
     1
 93
       13
176
     1
 44
0.0
176
     1
173
     0
176
     1
  0
VISUALSTYLE
  5
38
102
{ACAD_REACTORS
330
2A
102
}
330
2A
100
AcDbVisualStyle
  2
Linepattern
 70
    14
177
     2
291
     1
 71
     2
176
     1
 72
     2
176
     1
 73
     0
176
     1
 90
        0
176
     1
 40
-0.6
176
     1
 41
-30.0
176
     1
 62
     5
 63
     7
421
 16777215
176
     1
 74
     1
176
     1
 91
        4
176
     1
 64
     7
176
     1
 65
   257
176
     1
 75
     7
176
     1
175
     7
176
     1
 42
1.0
176
     1
 92
        8
176
     1
 66
     7
176
     1
 43
1.0
176
     1
 76
     1
176
     1
 77
     6
176
     1
 78
     2
176
     1
 67
     7
176
     1
 79
     5
176
     1
170
     0
176
     1
171
     0
176
     1
290
     0
176
     1
 93
        1
176
     1
 44
0.0
176
     1
173
     0
176
     1
  0
VISUALSTYLE
  5
33
102
{ACAD_REACTORS
330
2A
102
}
330
2A
100
AcDbVisualStyle
  2
Realistic
 70
     8
177
     2
291
     0
 71
     2
176
     1
 72
     2
176
     1
 73
     0
176
     1
 90
        0
176
     1
 40
-0.6
176
     1
 41
-30.0
176
     1
 62
     5
 63
     7
421
 16777215
176
     1
 74
     1
176
     1
 91
        0
176
     1
 64
     7
176
     1
 65
   257
176
     1
 75
     1
176
     1
175
     1
176
     1
 42
1.0
176
     1
 92
        8
176
     1
 66
     8
424
  7895160
176
     1
 43
1.0
176
     1
 76
     1
176
     1
 77
     6
176
     1
 78
     2
176
     1
 67
     7
176
     1
 79
     5
176
     1
170
     0
176
     1
171
     0
176
     1
290
     0
176
     1
 93
       13
176
     1
 44
0.0
176
     1
173
     0
176
     1
  0
VISUALSTYLE
  5
37
102
{ACAD_REACTORS
330
2A
102
}
330
2A
100
AcDbVisualStyle
  2
Thicken
 70
    13
177
     2
291
     1
 71
     2
176
     1
 72
     2
176
     1
 73
     0
176
     1
 90
        0
176
     1
 40
-0.6
176
     1
 41
-30.0
176
     1
 62
     5
 63
     7
421
 16777215
176
     1
 74
     1
176
     1
 91
        4
176
     1
 64
     7
176
     1
 65
   257
176
     1
 75
     1
176
     1
175
     1
176
     1
 42
1.0
176
     1
 92
       12
176
     1
 66
     7
176
     1
 43
1.0
176
     1
 76
     1
176
     1
 77
     6
176
     1
 78
     2
176
     1
 67
     7
176
     1
 79
     5
176
     1
170
     0
176
     1
171
     0
176
     1
290
     0
176
     1
 93
        1
176
     1
 44
0.0
176
     1
173
     0
176
     1
  0
ENDSEC
  0
EOF
