  0
SECTION
  2
HEADER
  9
$ACADVER
  1
AC1015
  9
$ACADMAINTVER
 70
     6
  9
$DWGCODEPAGE
  3
ANSI_1252
  9
$INSBASE
 10
0.0
 20
0.0
 30
0.0
  9
$EXTMIN
 10
0.0
 20
0.0
 30
0.0
  9
$EXTMAX
 10
841.0
 20
594.0
 30
0.0
  9
$LIMMIN
 10
0.0
 20
0.0
  9
$LIMMAX
 10
841.0
 20
594.0
  9
$ORTHOMODE
 70
     0
  9
$REGENMODE
 70
     1
  9
$FILLMODE
 70
     1
  9
$QTEXTMODE
 70
     0
  9
$MIRRTEXT
 70
     1
  9
$LTSCALE
 40
1.0
  9
$ATTMODE
 70
     1
  9
$TEXTSIZE
 40
3.5
  9
$TRACEWID
 40
1.0
  9
$TEXTSTYLE
  7
Standard
  9
$CLAYER
  8
0
  9
$CELTYPE
  6
ByLayer
  9
$CECOLOR
 62
   256
  9
$CELTSCALE
 40
1.0
  9
$DISPSILH
 70
     0
  9
$DIMSCALE
 40
1.0
  9
$DIMASZ
 40
3.302
  9
$DIMEXO
 40
1.0
  9
$DIMDLI
 40
3.75
  9
$DIMRND
 40
0.0
  9
$DIMDLE
 40
0.0
  9
$DIMEXE
 40
1.0
  9
$DIMTP
 40
0.0
  9
$DIMTM
 40
0.0
  9
$DIMTXT
 40
3.5
  9
$DIMCEN
 40
2.5
  9
$DIMTSZ
 40
0.0
  9
$DIMTOL
 70
     0
  9
$DIMLIM
 70
     0
  9
$DIMTIH
 70
     1
  9
$DIMTOH
 70
     1
  9
$DIMSE1
 70
     0
  9
$DIMSE2
 70
     0
  9
$DIMTAD
 70
     1
  9
$DIMZIN
 70
     0
  9
$DIMBLK
  1

  9
$DIMASO
 70
     1
  9
$DIMSHO
 70
     1
  9
$DIMPOST
  1

  9
$DIMAPOST
  1

  9
$DIMALT
 70
     0
  9
$DIMALTD
 70
     3
  9
$DIMALTF
 40
0.0393700787
  9
$DIMLFAC
 40
1.0
  9
$DIMTOFL
 70
     1
  9
$DIMTVP
 40
0.0
  9
$DIMTIX
 70
     0
  9
$DIMSOXD
 70
     0
  9
$DIMSAH
 70
     0
  9
$DIMBLK1
  1

  9
$DIMBLK2
  1

  9
$DIMSTYLE
  2
ISO-25
  9
$DIMCLRD
 70
     0
  9
$DIMCLRE
 70
     0
  9
$DIMCLRT
 70
     0
  9
$DIMTFAC
 40
1.0
  9
$DIMGAP
 40
1.524
  9
$DIMJUST
 70
     0
  9
$DIMSD1
 70
     0
  9
$DIMSD2
 70
     0
  9
$DIMTOLJ
 70
     0
  9
$DIMTZIN
 70
     0
  9
$DIMALTZ
 70
     0
  9
$DIMALTTZ
 70
     0
  9
$DIMUPT
 70
     0
  9
$DIMDEC
 70
     3
  9
$DIMTDEC
 70
     3
  9
$DIMALTU
 70
     2
  9
$DIMALTTD
 70
     3
  9
$DIMTXSTY
  7
Standard
  9
$DIMAUNIT
 70
     0
  9
$DIMADEC
 70
     2
  9
$DIMALTRND
 40
0.0
  9
$DIMAZIN
 70
     0
  9
$DIMDSEP
 70
    44
  9
$DIMATFIT
 70
     3
  9
$DIMFRAC
 70
     0
  9
$DIMLDRBLK
  1

  9
$DIMLUNIT
 70
     2
  9
$DIMLWD
 70
    -2
  9
$DIMLWE
 70
    -2
  9
$DIMTMOVE
 70
     0
  9
$LUNITS
 70
     2
  9
$LUPREC
 70
     2
  9
$SKETCHINC
 40
1.0
  9
$FILLETRAD
 40
10.0
  9
$AUNITS
 70
     0
  9
$AUPREC
 70
     2
  9
$MENU
  1
.
  9
$ELEVATION
 40
0.0
  9
$PELEVATION
 40
0.0
  9
$THICKNESS
 40
0.0
  9
$LIMCHECK
 70
     0
  9
$CHAMFERA
 40
10.0
  9
$CHAMFERB
 40
10.0
  9
$CHAMFERC
 40
20.0
  9
$CHAMFERD
 40
0.0
  9
$SKPOLY
 70
     0
  9
$TDCREATE
 40
2455989.415589549
  9
$TDUCREATE
 40
2455989.248922882
  9
$TDUPDATE
 40
2455989.41558956
  9
$TDUUPDATE
 40
2455989.248922893
  9
$TDINDWG
 40
0.0000000116
  9
$TDUSRTIMER
 40
0.0000000116
  9
$USRTIMER
 70
     1
  9
$ANGBASE
 50
0.0
  9
$ANGDIR
 70
     0
  9
$PDMODE
 70
     0
  9
$PDSIZE
 40
-1.0
  9
$PLINEWID
 40
0.0
  9
$SPLFRAME
 70
     0
  9
$SPLINETYPE
 70
     6
  9
$SPLINESEGS
 70
     8
  9
$HANDSEED
  5
25A
  9
$SURFTAB1
 70
     6
  9
$SURFTAB2
 70
     6
  9
$SURFTYPE
 70
     6
  9
$SURFU
 70
     6
  9
$SURFV
 70
     6
  9
$UCSBASE
  2

  9
$UCSNAME
  2

  9
$UCSORG
 10
0.0
 20
0.0
 30
0.0
  9
$UCSXDIR
 10
1.0
 20
0.0
 30
0.0
  9
$UCSYDIR
 10
0.0
 20
1.0
 30
0.0
  9
$UCSORTHOREF
  2

  9
$UCSORTHOVIEW
 70
     0
  9
$UCSORGTOP
 10
0.0
 20
0.0
 30
0.0
  9
$UCSORGBOTTOM
 10
0.0
 20
0.0
 30
0.0
  9
$UCSORGLEFT
 10
0.0
 20
0.0
 30
0.0
  9
$UCSORGRIGHT
 10
0.0
 20
0.0
 30
0.0
  9
$UCSORGFRONT
 10
0.0
 20
0.0
 30
0.0
  9
$UCSORGBACK
 10
0.0
 20
0.0
 30
0.0
  9
$PUCSBASE
  2

  9
$PUCSNAME
  2

  9
$PUCSORG
 10
0.0
 20
0.0
 30
0.0
  9
$PUCSXDIR
 10
1.0
 20
0.0
 30
0.0
  9
$PUCSYDIR
 10
0.0
 20
1.0
 30
0.0
  9
$PUCSORTHOREF
  2

  9
$PUCSORTHOVIEW
 70
     0
  9
$PUCSORGTOP
 10
0.0
 20
0.0
 30
0.0
  9
$PUCSORGBOTTOM
 10
0.0
 20
0.0
 30
0.0
  9
$PUCSORGLEFT
 10
0.0
 20
0.0
 30
0.0
  9
$PUCSORGRIGHT
 10
0.0
 20
0.0
 30
0.0
  9
$PUCSORGFRONT
 10
0.0
 20
0.0
 30
0.0
  9
$PUCSORGBACK
 10
0.0
 20
0.0
 30
0.0
  9
$USERI1
 70
     0
  9
$USERI2
 70
     0
  9
$USERI3
 70
     0
  9
$USERI4
 70
     0
  9
$USERI5
 70
     0
  9
$USERR1
 40
0.0
  9
$USERR2
 40
0.0
  9
$USERR3
 40
0.0
  9
$USERR4
 40
0.0
  9
$USERR5
 40
0.0
  9
$WORLDVIEW
 70
     1
  9
$SHADEDGE
 70
     3
  9
$SHADEDIF
 70
    70
  9
$TILEMODE
 70
     1
  9
$MAXACTVP
 70
    64
  9
$PINSBASE
 10
0.0
 20
0.0
 30
0.0
  9
$PLIMCHECK
 70
     0
  9
$PEXTMIN
 10
1.0000000000E+20
 20
1.0000000000E+20
 30
1.0000000000E+20
  9
$PEXTMAX
 10
-1.0000000000E+20
 20
-1.0000000000E+20
 30
-1.0000000000E+20
  9
$PLIMMIN
 10
0.0
 20
0.0
  9
$PLIMMAX
 10
420.0
 20
297.0
  9
$UNITMODE
 70
     0
  9
$VISRETAIN
 70
     1
  9
$PLINEGEN
 70
     0
  9
$PSLTSCALE
 70
     1
  9
$TREEDEPTH
 70
  3020
  9
$CMLSTYLE
  2
Standard
  9
$CMLJUST
 70
     0
  9
$CMLSCALE
 40
20.0
  9
$PROXYGRAPHICS
 70
     1
  9
$MEASUREMENT
 70
     1
  9
$CELWEIGHT
370
    -1
  9
$ENDCAPS
280
     0
  9
$JOINSTYLE
280
     0
  9
$LWDISPLAY
290
     1
  9
$INSUNITS
 70
     4
  9
$HYPERLINKBASE
  1

  9
$STYLESHEET
  1

  9
$XEDIT
290
     1
  9
$CEPSNTYPE
380
     0
  9
$PSTYLEMODE
290
     1
  9
$FINGERPRINTGUID
  2
{F4E613E4-54BC-4795-BD54-B456CE2037D1}
  9
$VERSIONGUID
  2
{FAEB1C32-E019-11D5-929B-00C0DF256EC4}
  9
$EXTNAMES
290
     1
  9
$PSVPSCALE
 40
0.0
  9
$OLESTARTUP
290
     0
  0
ENDSEC
  0
SECTION
  2
CLASSES
  0
CLASS
  1
ACDBDICTIONARYWDFLT
  2
AcDbDictionaryWithDefault
  3
ObjectDBX Classes
 90
        0
280
     0
281
     0
  0
CLASS
  1
VISUALSTYLE
  2
AcDbVisualStyle
  3
ObjectDBX Classes
 90
     4095
280
     0
281
     0
  0
CLASS
  1
DICTIONARYVAR
  2
AcDbDictionaryVar
  3
ObjectDBX Classes
 90
        0
280
     0
281
     0
  0
CLASS
  1
ACDBPLACEHOLDER
  2
AcDbPlaceHolder
  3
ObjectDBX Classes
 90
        0
280
     0
281
     0
  0
CLASS
  1
LAYOUT
  2
AcDbLayout
  3
ObjectDBX Classes
 90
        0
280
     0
281
     0
  0
ENDSEC
  0
SECTION
  2
TABLES
  0
TABLE
  2
VPORT
  5
8
330
0
100
AcDbSymbolTable
 70
     1
  0
VPORT
  5
29
330
8
100
AcDbSymbolTableRecord
100
AcDbViewportTableRecord
  2
*Active
 70
     0
 10
0.0
 20
0.0
 11
1.0
 21
1.0
 12
420.5
 22
297.0
 13
0.0
 23
0.0
 14
10.0
 24
10.0
 15
10.0
 25
10.0
 16
0.0
 26
0.0
 36
1.0
 17
0.0
 27
0.0
 37
0.0
 40
594.0
 41
1.4158249158
 42
50.0
 43
0.0
 44
0.0
 50
0.0
 51
0.0
 71
     0
 72
  2000
 73
     1
 74
     3
 75
     0
 76
     0
 77
     0
 78
     0
281
     0
 65
     1
110
0.0
120
0.0
130
0.0
111
1.0
121
0.0
131
0.0
112
0.0
122
1.0
132
0.0
 79
     0
146
0.0
  0
ENDTAB
  0
TABLE
  2
LTYPE
  5
5
330
0
100
AcDbSymbolTable
 70
     6
  0
LTYPE
  5
14
330
5
100
AcDbSymbolTableRecord
100
AcDbLinetypeTableRecord
  2
ByBlock
 70
     0
  3

 72
    65
 73
     0
 40
0.0
  0
LTYPE
  5
15
330
5
100
AcDbSymbolTableRecord
100
AcDbLinetypeTableRecord
  2
ByLayer
 70
     0
  3

 72
    65
 73
     0
 40
0.0
  0
LTYPE
  5
16
330
5
100
AcDbSymbolTableRecord
100
AcDbLinetypeTableRecord
  2
Continuous
 70
     0
  3
Solid line
 72
    65
 73
     0
 40
0.0
  0
LTYPE
  5
3B
330
5
100
AcDbSymbolTableRecord
100
AcDbLinetypeTableRecord
  2
HIDDEN
 70
     0
  3
Hidden __ __ __ __ __ __ __ __ __ __ __ __ __ __
 72
    65
 73
     2
 40
1.905
 49
1.27
 74
     0
 49
-0.635
 74
     0
  0
LTYPE
  5
3C
330
5
100
AcDbSymbolTableRecord
100
AcDbLinetypeTableRecord
  2
PHANTOM
 70
     0
  3
Phantom ______  __  __  ______  __  __  ______
 72
    65
 73
     6
 40
12.7
 49
6.35
 74
     0
 49
-1.27
 74
     0
 49
1.27
 74
     0
 49
-1.27
 74
     0
 49
1.27
 74
     0
 49
-1.27
 74
     0
  0
LTYPE
  5
3D
330
5
100
AcDbSymbolTableRecord
100
AcDbLinetypeTableRecord
  2
CENTER
 70
     0
  3
Center ____ _ ____ _ ____ _ ____ _ ____ _ ____
 72
    65
 73
     4
 40
10.16
 49
6.35
 74
     0
 49
-1.27
 74
     0
 49
1.27
 74
     0
 49
-1.27
 74
     0
  0
LTYPE
  5
3E
330
5
100
AcDbSymbolTableRecord
100
AcDbLinetypeTableRecord
  2
CENTERX2
 70
     0
  3
Center (2x) ________  __  ________  __  _____
 72
    65
 73
     4
 40
20.32
 49
12.7
 74
     0
 49
-2.54
 74
     0
 49
2.54
 74
     0
 49
-2.54
 74
     0
  0
LTYPE
  5
3F
330
5
100
AcDbSymbolTableRecord
100
AcDbLinetypeTableRecord
  2
DOT2
 70
     0
  3
Dot (.5x) ........................................
 72
    65
 73
     2
 40
0.635
 49
0.0
 74
     0
 49
-0.635
 74
     0
  0
ENDTAB
  0
TABLE
  2
LAYER
  5
2
330
0
100
AcDbSymbolTable
 70
     1
  0
LAYER
  5
10
330
2
100
AcDbSymbolTableRecord
100
AcDbLayerTableRecord
  2
0
 70
     0
 62
     7
  6
Continuous
370
    -3
390
F
  0
ENDTAB
  0
TABLE
  2
STYLE
  5
3
330
0
100
AcDbSymbolTable
 70
     1
  0
STYLE
  5
11
330
3
100
AcDbSymbolTableRecord
100
AcDbTextStyleTableRecord
  2
Standard
 70
     0
 40
0.0
 41
1.0
 50
0.0
 71
     0
 42
2.5
  3
txt
  4

  0
ENDTAB
  0
TABLE
  2
VIEW
  5
6
330
0
100
AcDbSymbolTable
 70
     0
  0
ENDTAB
  0
TABLE
  2
UCS
  5
7
330
0
100
AcDbSymbolTable
 70
     0
  0
ENDTAB
  0
TABLE
  2
APPID
  5
9
330
0
100
AcDbSymbolTable
 70
     1
  0
APPID
  5
12
330
9
100
AcDbSymbolTableRecord
100
AcDbRegAppTableRecord
  2
ACAD
 70
     0
  0
ENDTAB
  0
TABLE
  2
DIMSTYLE
  5
A
330
0
100
AcDbSymbolTable
 70
     1
100
AcDbDimStyleTable
  0
DIMSTYLE
105
27
330
A
100
AcDbSymbolTableRecord
100
AcDbDimStyleTableRecord
  2
ISO-25
 70
     0
 41
2.5
 42
0.625
 43
3.75
 44
1.25
 73
     0
 74
     0
 77
     1
 78
     8
140
2.5
141
2.5
143
0.0393700787
147
0.625
171
     3
172
     1
271
     2
272
     2
274
     3
278
    44
283
     0
284
     8
340
11
  0
ENDTAB
  0
TABLE
  2
BLOCK_RECORD
  5
1
330
0
100
AcDbSymbolTable
 70
     1
  0
BLOCK_RECORD
  5
1F
330
1
100
AcDbSymbolTableRecord
100
AcDbBlockTableRecord
  2
*Model_Space
340
22
  0
BLOCK_RECORD
  5
1B
330
1
100
AcDbSymbolTableRecord
100
AcDbBlockTableRecord
  2
*Paper_Space
340
1E
  0
BLOCK_RECORD
  5
23
330
1
100
AcDbSymbolTableRecord
100
AcDbBlockTableRecord
  2
*Paper_Space0
340
26
  0
ENDTAB
  0
ENDSEC
  0
SECTION
  2
BLOCKS
  0
BLOCK
  5
20
330
1F
100
AcDbEntity
  8
0
100
AcDbBlockBegin
  2
*Model_Space
 70
     0
 10
0.0
 20
0.0
 30
0.0
  3
*Model_Space
  1

  0
ENDBLK
  5
21
330
1F
100
AcDbEntity
  8
0
100
AcDbBlockEnd
  0
BLOCK
  5
1C
330
1B
100
AcDbEntity
 67
     1
  8
0
100
AcDbBlockBegin
  2
*Paper_Space
 70
     0
 10
0.0
 20
0.0
 30
0.0
  3
*Paper_Space
  1

  0
ENDBLK
  5
1D
330
1B
100
AcDbEntity
 67
     1
  8
0
100
AcDbBlockEnd
  0
BLOCK
  5
24
330
23
100
AcDbEntity
  8
0
100
AcDbBlockBegin
  2
*Paper_Space0
 70
     0
 10
0.0
 20
0.0
 30
0.0
  3
*Paper_Space0
  1

  0
ENDBLK
  5
25
330
23
100
AcDbEntity
  8
0
100
AcDbBlockEnd
  0
ENDSEC
  0
SECTION
  2
ENTITIES
  0
LINE
  5
40
330
1F
100
AcDbEntity
  8
0
  6
Continuous
 62
     7
370
    15
100
AcDbLine
 10
1571.0449431103
 20
-504.0470719215
 30
0.0
 11
1521.044990794
 21
-504.0470719215
 31
0.0
  0
LINE
  5
41
330
1F
100
AcDbEntity
  8
0
  6
Continuous
 62
     7
370
    15
100
AcDbLine
 10
1521.044990794
 20
-504.0470719215
 30
0.0
 11
1521.044990794
 21
-492.0470727485
 31
0.0
  0
LINE
  5
42
330
1F
100
AcDbEntity
  8
0
  6
Continuous
 62
     7
370
    15
100
AcDbLine
 10
1521.044990794
 20
-492.0470727485
 30
0.0
 11
1290.2400705975
 21
-492.0470727485
 31
0.0
  0
LINE
  5
43
330
1F
100
AcDbEntity
  8
0
  6
Continuous
 62
     7
370
    15
100
AcDbLine
 10
1290.2400705975
 20
-492.0470727485
 30
0.0
 11
1290.2400705975
 21
-504.0470719215
 31
0.0
  0
LINE
  5
44
330
1F
100
AcDbEntity
  8
0
  6
Continuous
 62
     7
370
    15
100
AcDbLine
 10
1290.2400705975
 20
-504.0470719215
 30
0.0
 11
1240.2401182812
 21
-504.0470719215
 31
0.0
  0
LINE
  5
45
330
1F
100
AcDbEntity
  8
0
  6
Continuous
 62
     7
370
    15
100
AcDbLine
 10
1240.2401182812
 20
-504.0470719215
 30
0.0
 11
1240.2401182812
 21
-492.0470727485
 31
0.0
  0
LINE
  5
46
330
1F
100
AcDbEntity
  8
0
  6
Continuous
 62
     7
370
    15
100
AcDbLine
 10
1240.2401182812
 20
-492.0470727485
 30
0.0
 11
1215.6424734753
 21
-492.0470727485
 31
0.0
  0
LINE
  5
47
330
1F
100
AcDbEntity
  8
0
  6
Continuous
 62
     7
370
    15
100
AcDbLine
 10
1215.6424734753
 20
-492.0470727485
 30
0.0
 11
1215.6424734753
 21
407.9529089976
 31
0.0
  0
LINE
  5
48
330
1F
100
AcDbEntity
  8
0
  6
Continuous
 62
     7
370
    15
100
AcDbLine
 10
1215.6424734753
 20
407.9529089976
 30
0.0
 11
1280.6024763745
 21
407.9529089976
 31
0.0
  0
LINE
  5
49
330
1F
100
AcDbEntity
  8
0
  6
Continuous
 62
     7
370
    15
100
AcDbLine
 10
1280.6024763745
 20
407.9529089976
 30
0.0
 11
1280.6024763745
 21
419.9529333163
 31
0.0
  0
LINE
  5
4A
330
1F
100
AcDbEntity
  8
0
  6
Continuous
 62
     7
370
    15
100
AcDbLine
 10
1280.6024763745
 20
419.9529333163
 30
0.0
 11
1330.6024286908
 21
419.9529333163
 31
0.0
  0
LINE
  5
4B
330
1F
100
AcDbEntity
  8
0
  6
Continuous
 62
     7
370
    15
100
AcDbLine
 10
1330.6024286908
 20
419.9529333163
 30
0.0
 11
1330.6024286908
 21
407.9529089976
 31
0.0
  0
LINE
  5
4C
330
1F
100
AcDbEntity
  8
0
  6
Continuous
 62
     7
370
    15
100
AcDbLine
 10
1330.6024286908
 20
407.9529089976
 30
0.0
 11
1480.6826327008
 21
407.9529089976
 31
0.0
  0
LINE
  5
4D
330
1F
100
AcDbEntity
  8
0
  6
Continuous
 62
     7
370
    15
100
AcDbLine
 10
1480.6826327008
 20
407.9529089976
 30
0.0
 11
1480.6826327008
 21
419.9529333163
 31
0.0
  0
LINE
  5
4E
330
1F
100
AcDbEntity
  8
0
  6
Continuous
 62
     7
370
    15
100
AcDbLine
 10
1480.6826327008
 20
419.9529333163
 30
0.0
 11
1530.6825850171
 21
419.9529333163
 31
0.0
  0
LINE
  5
4F
330
1F
100
AcDbEntity
  8
0
  6
Continuous
 62
     7
370
    15
100
AcDbLine
 10
1530.6825850171
 20
419.9529333163
 30
0.0
 11
1530.6825850171
 21
407.9529089976
 31
0.0
  0
LINE
  5
50
330
1F
100
AcDbEntity
  8
0
  6
Continuous
 62
     7
370
    15
100
AcDbLine
 10
1530.6825850171
 20
407.9529089976
 30
0.0
 11
1595.642468707
 21
407.9529089976
 31
0.0
  0
LINE
  5
51
330
1F
100
AcDbEntity
  8
0
  6
Continuous
 62
     7
370
    15
100
AcDbLine
 10
1595.642468707
 20
407.9529089976
 30
0.0
 11
1595.642468707
 21
-492.0470727485
 31
0.0
  0
LINE
  5
52
330
1F
100
AcDbEntity
  8
0
  6
Continuous
 62
     7
370
    15
100
AcDbLine
 10
1483.5505697888
 20
179.9529237795
 30
0.0
 11
1483.5505697888
 21
191.9529480982
 31
0.0
  0
LINE
  5
53
330
1F
100
AcDbEntity
  8
0
  6
Continuous
 62
     7
370
    15
100
AcDbLine
 10
1533.5505221051
 20
179.9529237795
 30
0.0
 11
1483.5505697888
 21
179.9529237795
 31
0.0
  0
LINE
  5
54
330
1F
100
AcDbEntity
  8
0
  6
Continuous
 62
     7
370
    15
100
AcDbLine
 10
1533.5505221051
 20
191.9529480982
 30
0.0
 11
1533.5505221051
 21
179.9529237795
 31
0.0
  0
LINE
  5
55
330
1F
100
AcDbEntity
  8
0
  6
Continuous
 62
     7
370
    15
100
AcDbLine
 10
1483.5505697888
 20
191.9529480982
 30
0.0
 11
1533.5505221051
 21
191.9529480982
 31
0.0
  0
LINE
  5
56
330
1F
100
AcDbEntity
  8
0
  6
Continuous
 62
     7
370
    15
100
AcDbLine
 10
1327.7344916028
 20
179.9529237795
 30
0.0
 11
1277.7345392865
 21
179.9529237795
 31
0.0
  0
LINE
  5
57
330
1F
100
AcDbEntity
  8
0
  6
Continuous
 62
     7
370
    15
100
AcDbLine
 10
1327.7344916028
 20
191.9529480982
 30
0.0
 11
1327.7344916028
 21
179.9529237795
 31
0.0
  0
LINE
  5
58
330
1F
100
AcDbEntity
  8
0
  6
Continuous
 62
     7
370
    15
100
AcDbLine
 10
1277.7345392865
 20
191.9529480982
 30
0.0
 11
1327.7344916028
 21
191.9529480982
 31
0.0
  0
LINE
  5
59
330
1F
100
AcDbEntity
  8
0
  6
Continuous
 62
     7
370
    15
100
AcDbLine
 10
1277.7345392865
 20
179.9529237795
 30
0.0
 11
1277.7345392865
 21
191.9529480982
 31
0.0
  0
LINE
  5
5A
330
1F
100
AcDbEntity
  8
0
  6
Continuous
 62
     7
370
    15
100
AcDbLine
 10
1483.5505697888
 20
-48.0470614385
 30
0.0
 11
1483.5505697888
 21
-36.0470669222
 31
0.0
  0
LINE
  5
5B
330
1F
100
AcDbEntity
  8
0
  6
Continuous
 62
     7
370
    15
100
AcDbLine
 10
1533.5505221051
 20
-48.0470614385
 30
0.0
 11
1483.5505697888
 21
-48.0470614385
 31
0.0
  0
LINE
  5
5C
330
1F
100
AcDbEntity
  8
0
  6
Continuous
 62
     7
370
    15
100
AcDbLine
 10
1533.5505221051
 20
-36.0470669222
 30
0.0
 11
1533.5505221051
 21
-48.0470614385
 31
0.0
  0
LINE
  5
5D
330
1F
100
AcDbEntity
  8
0
  6
Continuous
 62
     7
370
    15
100
AcDbLine
 10
1483.5505697888
 20
-36.0470669222
 30
0.0
 11
1533.5505221051
 21
-36.0470669222
 31
0.0
  0
LINE
  5
5E
330
1F
100
AcDbEntity
  8
0
  6
Continuous
 62
     7
370
    15
100
AcDbLine
 10
1327.7344916028
 20
-48.0470614385
 30
0.0
 11
1277.7345392865
 21
-48.0470614385
 31
0.0
  0
LINE
  5
5F
330
1F
100
AcDbEntity
  8
0
  6
Continuous
 62
     7
370
    15
100
AcDbLine
 10
1327.7344916028
 20
-36.0470669222
 30
0.0
 11
1327.7344916028
 21
-48.0470614385
 31
0.0
  0
LINE
  5
60
330
1F
100
AcDbEntity
  8
0
  6
Continuous
 62
     7
370
    15
100
AcDbLine
 10
1277.7345392865
 20
-36.0470669222
 30
0.0
 11
1327.7344916028
 21
-36.0470669222
 31
0.0
  0
LINE
  5
61
330
1F
100
AcDbEntity
  8
0
  6
Continuous
 62
     7
370
    15
100
AcDbLine
 10
1277.7345392865
 20
-48.0470614385
 30
0.0
 11
1277.7345392865
 21
-36.0470669222
 31
0.0
  0
LINE
  5
62
330
1F
100
AcDbEntity
  8
0
  6
Continuous
 62
     7
370
    15
100
AcDbLine
 10
1483.5505697888
 20
-276.0470764589
 30
0.0
 11
1483.5505697888
 21
-264.0470819425
 31
0.0
  0
LINE
  5
63
330
1F
100
AcDbEntity
  8
0
  6
Continuous
 62
     7
370
    15
100
AcDbLine
 10
1533.5505221051
 20
-276.0470764589
 30
0.0
 11
1483.5505697888
 21
-276.0470764589
 31
0.0
  0
LINE
  5
64
330
1F
100
AcDbEntity
  8
0
  6
Continuous
 62
     7
370
    15
100
AcDbLine
 10
1533.5505221051
 20
-264.0470819425
 30
0.0
 11
1533.5505221051
 21
-276.0470764589
 31
0.0
  0
LINE
  5
65
330
1F
100
AcDbEntity
  8
0
  6
Continuous
 62
     7
370
    15
100
AcDbLine
 10
1483.5505697888
 20
-264.0470819425
 30
0.0
 11
1533.5505221051
 21
-264.0470819425
 31
0.0
  0
LINE
  5
66
330
1F
100
AcDbEntity
  8
0
  6
Continuous
 62
     7
370
    15
100
AcDbLine
 10
1327.7344916028
 20
-276.0470764589
 30
0.0
 11
1277.7345392865
 21
-276.0470764589
 31
0.0
  0
LINE
  5
67
330
1F
100
AcDbEntity
  8
0
  6
Continuous
 62
     7
370
    15
100
AcDbLine
 10
1327.7344916028
 20
-264.0470819425
 30
0.0
 11
1327.7344916028
 21
-276.0470764589
 31
0.0
  0
LINE
  5
68
330
1F
100
AcDbEntity
  8
0
  6
Continuous
 62
     7
370
    15
100
AcDbLine
 10
1277.7345392865
 20
-264.0470819425
 30
0.0
 11
1327.7344916028
 21
-264.0470819425
 31
0.0
  0
LINE
  5
69
330
1F
100
AcDbEntity
  8
0
  6
Continuous
 62
     7
370
    15
100
AcDbLine
 10
1277.7345392865
 20
-276.0470764589
 30
0.0
 11
1277.7345392865
 21
-264.0470819425
 31
0.0
  0
LINE
  5
6A
330
1F
100
AcDbEntity
  8
0
  6
Continuous
 62
     7
370
    15
100
AcDbLine
 10
1595.642468707
 20
-492.0470727485
 30
0.0
 11
1571.0449431103
 21
-492.0470727485
 31
0.0
  0
LINE
  5
6B
330
1F
100
AcDbEntity
  8
0
  6
Continuous
 62
     7
370
    15
100
AcDbLine
 10
1571.0449431103
 20
-492.0470727485
 30
0.0
 11
1571.0449431103
 21
-504.0470719215
 31
0.0
  0
LINE
  5
6C
330
1F
100
AcDbEntity
  8
0
  6
Continuous
 62
     7
370
    15
100
AcDbLine
 10
230.2303228539
 20
436.4604396868
 30
0.0
 11
230.2303228539
 21
-463.5395849001
 31
0.0
  0
LINE
  5
6D
330
1F
100
AcDbEntity
  8
0
  6
Continuous
 62
     7
370
    15
100
AcDbLine
 10
302.8844807309
 20
448.4604044009
 30
0.0
 11
252.8844688099
 21
448.4604044009
 31
0.0
  0
LINE
  5
6E
330
1F
100
AcDbEntity
  8
0
  6
Continuous
 62
     7
370
    15
100
AcDbLine
 10
533.576211707
 20
448.4604044009
 30
0.0
 11
533.576211707
 21
436.4604396868
 31
0.0
  0
LINE
  5
6F
330
1F
100
AcDbEntity
  8
0
  6
Continuous
 62
     7
370
    15
100
AcDbLine
 10
583.5761640233
 20
448.4604044009
 30
0.0
 11
533.576211707
 21
448.4604044009
 31
0.0
  0
LINE
  5
70
330
1F
100
AcDbEntity
  8
0
  6
Continuous
 62
     7
370
    15
100
AcDbLine
 10
583.5761640233
 20
436.4604396868
 30
0.0
 11
583.5761640233
 21
448.4604044009
 31
0.0
  0
LINE
  5
71
330
1F
100
AcDbEntity
  8
0
  6
Continuous
 62
     7
370
    15
100
AcDbLine
 10
583.5761640233
 20
436.4604396868
 30
0.0
 11
606.2303397816
 21
436.4604396868
 31
0.0
  0
LINE
  5
72
330
1F
100
AcDbEntity
  8
0
  6
Continuous
 62
     7
370
    15
100
AcDbLine
 10
606.2303397816
 20
436.4604396868
 30
0.0
 11
606.2303397816
 21
-463.5395849001
 31
0.0
  0
LINE
  5
73
330
1F
100
AcDbEntity
  8
0
  6
Continuous
 62
     7
370
    15
100
AcDbLine
 10
586.0906455678
 20
-475.5395868671
 30
0.0
 11
586.0906455678
 21
-463.5395849001
 31
0.0
  0
LINE
  5
74
330
1F
100
AcDbEntity
  8
0
  6
Continuous
 62
     7
370
    15
100
AcDbLine
 10
546.0403773945
 20
-475.5395868671
 30
0.0
 11
586.0906455678
 21
-475.5395868671
 31
0.0
  0
LINE
  5
75
330
1F
100
AcDbEntity
  8
0
  6
Continuous
 62
     7
370
    15
100
AcDbLine
 10
290.4203150433
 20
-475.5395868671
 30
0.0
 11
290.4203150433
 21
-463.5395849001
 31
0.0
  0
LINE
  5
76
330
1F
100
AcDbEntity
  8
0
  6
Continuous
 62
     7
370
    15
100
AcDbLine
 10
250.3700468701
 20
-475.5395868671
 30
0.0
 11
290.4203150433
 21
-475.5395868671
 31
0.0
  0
LINE
  5
77
330
1F
100
AcDbEntity
  8
0
  6
Continuous
 62
     7
370
    15
100
AcDbLine
 10
250.3700468701
 20
-475.5395868671
 30
0.0
 11
250.3700468701
 21
-463.5395849001
 31
0.0
  0
LINE
  5
78
330
1F
100
AcDbEntity
  8
0
  6
Continuous
 62
     7
370
    15
100
AcDbLine
 10
230.2303228539
 20
-463.5395849001
 30
0.0
 11
250.3700468701
 21
-463.5395849001
 31
0.0
  0
LINE
  5
79
330
1F
100
AcDbEntity
  8
0
  6
Continuous
 62
     7
370
    15
100
AcDbLine
 10
252.8844688099
 20
-247.539575572
 30
0.0
 11
252.8844688099
 21
-235.5395810556
 31
0.0
  0
LINE
  5
7A
330
1F
100
AcDbEntity
  8
0
  6
Continuous
 62
     7
370
    15
100
AcDbLine
 10
302.8844807309
 20
-247.539575572
 30
0.0
 11
252.8844688099
 21
-247.539575572
 31
0.0
  0
LINE
  5
7B
330
1F
100
AcDbEntity
  8
0
  6
Continuous
 62
     7
370
    15
100
AcDbLine
 10
302.8844807309
 20
-235.5395810556
 30
0.0
 11
302.8844807309
 21
-247.539575572
 31
0.0
  0
LINE
  5
7C
330
1F
100
AcDbEntity
  8
0
  6
Continuous
 62
     7
370
    15
100
AcDbLine
 10
252.8844688099
 20
-235.5395810556
 30
0.0
 11
302.8844807309
 21
-235.5395810556
 31
0.0
  0
LINE
  5
7D
330
1F
100
AcDbEntity
  8
0
  6
Continuous
 62
     7
370
    15
100
AcDbLine
 10
533.576211707
 20
-247.539575572
 30
0.0
 11
533.576211707
 21
-235.5395810556
 31
0.0
  0
LINE
  5
7E
330
1F
100
AcDbEntity
  8
0
  6
Continuous
 62
     7
370
    15
100
AcDbLine
 10
583.5761640233
 20
-247.539575572
 30
0.0
 11
533.576211707
 21
-247.539575572
 31
0.0
  0
LINE
  5
7F
330
1F
100
AcDbEntity
  8
0
  6
Continuous
 62
     7
370
    15
100
AcDbLine
 10
583.5761640233
 20
-235.5395810556
 30
0.0
 11
583.5761640233
 21
-247.539575572
 31
0.0
  0
LINE
  5
80
330
1F
100
AcDbEntity
  8
0
  6
Continuous
 62
     7
370
    15
100
AcDbLine
 10
533.576211707
 20
-235.5395810556
 30
0.0
 11
583.5761640233
 21
-235.5395810556
 31
0.0
  0
LINE
  5
81
330
1F
100
AcDbEntity
  8
0
  6
Continuous
 62
     7
370
    15
100
AcDbLine
 10
252.8844688099
 20
-19.5395903539
 30
0.0
 11
252.8844688099
 21
-7.5395660352
 31
0.0
  0
LINE
  5
82
330
1F
100
AcDbEntity
  8
0
  6
Continuous
 62
     7
370
    15
100
AcDbLine
 10
302.8844807309
 20
-19.5395903539
 30
0.0
 11
252.8844688099
 21
-19.5395903539
 31
0.0
  0
LINE
  5
83
330
1F
100
AcDbEntity
  8
0
  6
Continuous
 62
     7
370
    15
100
AcDbLine
 10
302.8844807309
 20
-7.5395660352
 30
0.0
 11
302.8844807309
 21
-19.5395903539
 31
0.0
  0
LINE
  5
84
330
1F
100
AcDbEntity
  8
0
  6
Continuous
 62
     7
370
    15
100
AcDbLine
 10
252.8844688099
 20
-7.5395660352
 30
0.0
 11
302.8844807309
 21
-7.5395660352
 31
0.0
  0
LINE
  5
85
330
1F
100
AcDbEntity
  8
0
  6
Continuous
 62
     7
370
    15
100
AcDbLine
 10
302.8844807309
 20
220.4604191828
 30
0.0
 11
302.8844807309
 21
208.4603948641
 31
0.0
  0
LINE
  5
86
330
1F
100
AcDbEntity
  8
0
  6
Continuous
 62
     7
370
    15
100
AcDbLine
 10
252.8844688099
 20
220.4604191828
 30
0.0
 11
302.8844807309
 21
220.4604191828
 31
0.0
  0
LINE
  5
87
330
1F
100
AcDbEntity
  8
0
  6
Continuous
 62
     7
370
    15
100
AcDbLine
 10
252.8844688099
 20
208.4603948641
 30
0.0
 11
252.8844688099
 21
220.4604191828
 31
0.0
  0
LINE
  5
88
330
1F
100
AcDbEntity
  8
0
  6
Continuous
 62
     7
370
    15
100
AcDbLine
 10
302.8844807309
 20
208.4603948641
 30
0.0
 11
252.8844688099
 21
208.4603948641
 31
0.0
  0
LINE
  5
89
330
1F
100
AcDbEntity
  8
0
  6
Continuous
 62
     7
370
    15
100
AcDbLine
 10
583.5761640233
 20
220.4604191828
 30
0.0
 11
583.5761640233
 21
208.4603948641
 31
0.0
  0
LINE
  5
8A
330
1F
100
AcDbEntity
  8
0
  6
Continuous
 62
     7
370
    15
100
AcDbLine
 10
533.576211707
 20
220.4604191828
 30
0.0
 11
583.5761640233
 21
220.4604191828
 31
0.0
  0
LINE
  5
8B
330
1F
100
AcDbEntity
  8
0
  6
Continuous
 62
     7
370
    15
100
AcDbLine
 10
533.576211707
 20
208.4603948641
 30
0.0
 11
533.576211707
 21
220.4604191828
 31
0.0
  0
LINE
  5
8C
330
1F
100
AcDbEntity
  8
0
  6
Continuous
 62
     7
370
    15
100
AcDbLine
 10
583.5761640233
 20
208.4603948641
 30
0.0
 11
533.576211707
 21
208.4603948641
 31
0.0
  0
LINE
  5
8D
330
1F
100
AcDbEntity
  8
0
  6
Continuous
 62
     7
370
    15
100
AcDbLine
 10
533.576211707
 20
-19.5395903539
 30
0.0
 11
533.576211707
 21
-7.5395660352
 31
0.0
  0
LINE
  5
8E
330
1F
100
AcDbEntity
  8
0
  6
Continuous
 62
     7
370
    15
100
AcDbLine
 10
583.5761640233
 20
-19.5395903539
 30
0.0
 11
533.576211707
 21
-19.5395903539
 31
0.0
  0
LINE
  5
8F
330
1F
100
AcDbEntity
  8
0
  6
Continuous
 62
     7
370
    15
100
AcDbLine
 10
583.5761640233
 20
-7.5395660352
 30
0.0
 11
583.5761640233
 21
-19.5395903539
 31
0.0
  0
LINE
  5
90
330
1F
100
AcDbEntity
  8
0
  6
Continuous
 62
     7
370
    15
100
AcDbLine
 10
533.576211707
 20
-7.5395660352
 30
0.0
 11
583.5761640233
 21
-7.5395660352
 31
0.0
  0
LINE
  5
91
330
1F
100
AcDbEntity
  8
0
  6
Continuous
 62
     7
370
    15
100
AcDbLine
 10
230.2303228539
 20
436.4604396868
 30
0.0
 11
252.8844688099
 21
436.4604396868
 31
0.0
  0
LINE
  5
92
330
1F
100
AcDbEntity
  8
0
  6
Continuous
 62
     7
370
    15
100
AcDbLine
 10
586.0906455678
 20
-463.5395849001
 30
0.0
 11
606.2303397816
 21
-463.5395849001
 31
0.0
  0
LINE
  5
93
330
1F
100
AcDbEntity
  8
0
  6
Continuous
 62
     7
370
    15
100
AcDbLine
 10
302.8844807309
 20
436.4604396868
 30
0.0
 11
533.576211707
 21
436.4604396868
 31
0.0
  0
LINE
  5
94
330
1F
100
AcDbEntity
  8
0
  6
Continuous
 62
     7
370
    15
100
AcDbLine
 10
290.4203150433
 20
-463.5395849001
 30
0.0
 11
546.0403773945
 21
-463.5395849001
 31
0.0
  0
LINE
  5
95
330
1F
100
AcDbEntity
  8
0
  6
Continuous
 62
     7
370
    15
100
AcDbLine
 10
252.8844688099
 20
448.4604044009
 30
0.0
 11
252.8844688099
 21
436.4604396868
 31
0.0
  0
LINE
  5
96
330
1F
100
AcDbEntity
  8
0
  6
Continuous
 62
     7
370
    15
100
AcDbLine
 10
302.8844807309
 20
436.4604396868
 30
0.0
 11
302.8844807309
 21
448.4604044009
 31
0.0
  0
LINE
  5
97
330
1F
100
AcDbEntity
  8
0
  6
Continuous
 62
     7
370
    15
100
AcDbLine
 10
546.0403773945
 20
-475.5395868671
 30
0.0
 11
546.0403773945
 21
-463.5395849001
 31
0.0
  0
LINE
  5
98
330
1F
100
AcDbEntity
  8
0
  6
Continuous
 62
     7
370
    15
100
AcDbLine
 10
-35.1137083012
 20
-717.3719512176
 30
0.0
 11
-47.1137102682
 21
-717.3719512176
 31
0.0
  0
LINE
  5
99
330
1F
100
AcDbEntity
  8
0
  6
Continuous
 62
     7
370
    15
100
AcDbLine
 10
-35.1137083012
 20
-735.4922996711
 30
0.0
 11
-35.1137083012
 21
-717.3719512176
 31
0.0
  0
LINE
  5
9A
330
1F
100
AcDbEntity
  8
0
  6
Continuous
 62
     7
370
    15
100
AcDbLine
 10
-35.1137083012
 20
-735.4922996711
 30
0.0
 11
-92.2241464245
 21
-735.4922996711
 31
0.0
  0
SPLINE
  5
9B
330
1F
100
AcDbEntity
  8
0
  6
Continuous
 62
     7
370
    15
100
AcDbSpline
210
0.0
220
0.0
230
1.0
 70
     8
 71
     3
 72
    29
 73
    25
 74
     0
 42
0.00000001
 43
0.00000001
 40
0.0
 40
0.0
 40
0.0
 40
0.0
 40
0.0489504188940143
 40
0.0931044164212116
 40
0.1332623728062208
 40
0.1702253630311403
 40
0.2047641960095276
 40
0.2375803993413607
 40
0.2692677453816956
 40
0.3002852540749141
 40
0.3370426061710692
 40
0.3735695813149023
 40
0.4099183098673093
 40
0.4459694162071798
 40
0.4814960149728466
 40
0.5248942799408692
 40
0.5678652107575602
 40
0.6109102489041313
 40
0.6539890233988879
 40
0.7226482040734513
 40
0.791294525825876
 40
0.8603044712462834
 40
0.9298651890082857
 40
1.0
 40
1.0
 40
1.0
 40
1.0
 10
-92.22414642454734
 20
-735.4922996711388
 30
0.0
 10
-92.13103289178076
 20
-732.6856234781633
 30
0.0
 10
-91.9539295834736
 20
-727.3472840944681
 30
0.0
 10
-92.81904986256778
 20
-719.7319080579063
 30
0.0
 10
-94.47375196561997
 20
-712.9619097859894
 30
0.0
 10
-96.89606356681024
 20
-707.012410938012
 30
0.0
 10
-99.98313057373076
 20
-701.8650900515903
 30
0.0
 10
-103.6463061678467
 20
-697.4990576456676
 30
0.0
 10
-107.790703542323
 20
-693.8900638777458
 30
0.0
 10
-112.6176747916768
 20
-690.8220978802057
 30
0.0
 10
-118.1234753804867
 20
-688.4261173676042
 30
0.0
 10
-124.2271875669769
 20
-686.8424360260711
 30
0.0
 10
-130.4523294818297
 20
-686.158258311932
 30
0.0
 10
-136.6527509686357
 20
-686.3254034672013
 30
0.0
 10
-143.1793128537197
 20
-687.3648422405105
 30
0.0
 10
-149.8542908287901
 20
-689.5263139782858
 30
0.0
 10
-156.5496548478913
 20
-692.7443095673034
 30
0.0
 10
-162.9699077945904
 20
-696.4230873327392
 30
0.0
 10
-170.5803694804808
 20
-700.977978699194
 30
0.0
 10
-179.8014724736699
 20
-705.6931662283964
 30
0.0
 10
-190.8952690255015
 20
-709.8496054323126
 30
0.0
 10
-202.3760241397359
 20
-712.9331190711885
 30
0.0
 10
-214.1616588004838
 20
-715.0768703390934
 30
0.0
 10
-222.1418515860198
 20
-715.7532836789754
 30
0.0
 10
-226.1483456927692
 20
-716.0928802442207
 30
0.0
  0
SPLINE
  5
9C
330
1F
100
AcDbEntity
  8
0
  6
Continuous
 62
     7
370
    15
100
AcDbSpline
210
0.0
220
0.0
230
1.0
 70
     8
 71
     3
 72
    29
 73
    25
 74
     0
 42
0.00000001
 43
0.00000001
 40
0.0
 40
0.0
 40
0.0
 40
0.0
 40
0.0701348079623114
 40
0.1396955653742061
 40
0.208705507813798
 40
0.2773518671380295
 40
0.3460109674621377
 40
0.3890897775419511
 40
0.4321347760358287
 40
0.475105783503774
 40
0.5185040052888761
 40
0.5540306239140277
 40
0.5900817286967068
 40
0.6264303910687645
 40
0.6629573227061545
 40
0.699714772476608
 40
0.7307322706919732
 40
0.7624196562077159
 40
0.7952357884108167
 40
0.8297746478650896
 40
0.8667376447250703
 40
0.9068955862297267
 40
0.951049583668626
 40
1.0
 40
1.0
 40
1.0
 40
1.0
 10
-226.1483456927692
 20
-716.0928802442207
 30
0.0
 10
-230.1548397505705
 20
-715.7532834650252
 30
0.0
 10
-238.1350348752757
 20
-715.0768694924589
 30
0.0
 10
-249.9206726276776
 20
-712.9331206081201
 30
0.0
 10
-261.4014312036508
 20
-709.8496028453915
 30
0.0
 10
-272.4952296307252
 20
-705.6931730506753
 30
0.0
 10
-281.7163253761071
 20
-700.9779712819953
 30
0.0
 10
-289.3267890102441
 20
-696.4230926329138
 30
0.0
 10
-295.7470405283248
 20
-692.7443026272165
 30
0.0
 10
-302.4424105577448
 20
-689.5263198809301
 30
0.0
 10
-309.1173889529452
 20
-687.3648399578321
 30
0.0
 10
-315.6439505566013
 20
-686.3254041388533
 30
0.0
 10
-321.8443692232277
 20
-686.1582580728741
 30
0.0
 10
-328.0695056090409
 20
-686.8424354113928
 30
0.0
 10
-334.1732146318924
 20
-688.4261233981588
 30
0.0
 10
-339.6790243964741
 20
-690.8220913942616
 30
0.0
 10
-344.5059965092948
 20
-693.8900689285827
 30
0.0
 10
-348.6504053221335
 20
-697.4990476537204
 30
0.0
 10
-352.3135574318263
 20
-701.8650999983934
 30
0.0
 10
-355.4006389114271
 20
-707.0124077279173
 30
0.0
 10
-357.8229551342382
 20
-712.9619081790829
 30
0.0
 10
-359.4776414837242
 20
-719.7319098046586
 30
0.0
 10
-360.3427679697956
 20
-727.3472835949455
 30
0.0
 10
-360.1656716048242
 20
-732.6856233499598
 30
0.0
 10
-360.0725617247974
 20
-735.4922996711388
 30
0.0
  0
LINE
  5
9D
330
1F
100
AcDbEntity
  8
0
  6
Continuous
 62
     7
370
    15
100
AcDbLine
 10
-360.0725617248
 20
-735.4922996711
 30
0.0
 11
-417.1829905349
 21
-735.4922996711
 31
0.0
  0
LINE
  5
9E
330
1F
100
AcDbEntity
  8
0
  6
Continuous
 62
     7
370
    15
100
AcDbLine
 10
-417.1829905349
 20
-735.4922996711
 30
0.0
 11
-417.1829905349
 21
-717.3719512176
 31
0.0
  0
LINE
  5
9F
330
1F
100
AcDbEntity
  8
0
  6
Continuous
 62
     7
370
    15
100
AcDbLine
 10
-405.1829960185
 20
-717.3719512176
 30
0.0
 11
-417.1829905349
 21
-717.3719512176
 31
0.0
  0
LINE
  5
A0
330
1F
100
AcDbEntity
  8
0
  6
Continuous
 62
     7
370
    15
100
AcDbLine
 10
-405.1829960185
 20
-697.3719553899
 30
0.0
 11
-405.1829960185
 21
-717.3719512176
 31
0.0
  0
LINE
  5
A1
330
1F
100
AcDbEntity
  8
0
  6
Continuous
 62
     7
370
    15
100
AcDbLine
 10
-417.1829905349
 20
-697.3719553899
 30
0.0
 11
-405.1829960185
 21
-697.3719553899
 31
0.0
  0
LINE
  5
A2
330
1F
100
AcDbEntity
  8
0
  6
Continuous
 62
     7
370
    15
100
AcDbLine
 10
-417.1829905349
 20
-697.3719553899
 30
0.0
 11
-417.1829905349
 21
-671.8579040718
 31
0.0
  0
LINE
  5
A3
330
1F
100
AcDbEntity
  8
0
  6
Continuous
 62
     7
370
    15
100
AcDbLine
 10
-405.1829960185
 20
-671.8579040718
 30
0.0
 11
-417.1829905349
 21
-671.8579040718
 31
0.0
  0
LINE
  5
A4
330
1F
100
AcDbEntity
  8
0
  6
Continuous
 62
     7
370
    15
100
AcDbLine
 10
-405.1829960185
 20
-651.8579082441
 30
0.0
 11
-405.1829960185
 21
-671.8579040718
 31
0.0
  0
LINE
  5
A5
330
1F
100
AcDbEntity
  8
0
  6
Continuous
 62
     7
370
    15
100
AcDbLine
 10
-417.1829905349
 20
-651.8579082441
 30
0.0
 11
-405.1829960185
 21
-651.8579082441
 31
0.0
  0
LINE
  5
A6
330
1F
100
AcDbEntity
  8
0
  6
Continuous
 62
     7
370
    15
100
AcDbLine
 10
-417.1829905349
 20
-651.8579082441
 30
0.0
 11
-417.1829905349
 21
-635.492298181
 31
0.0
  0
LINE
  5
A7
330
1F
100
AcDbEntity
  8
0
  6
Continuous
 62
     7
370
    15
100
AcDbLine
 10
-323.8447543222
 20
-635.492298181
 30
0.0
 11
-417.1829905349
 21
-635.492298181
 31
0.0
  0
LINE
  5
A8
330
1F
100
AcDbEntity
  8
0
  6
Continuous
 62
     7
370
    15
100
AcDbLine
 10
-323.8447543222
 20
-635.492298181
 30
0.0
 11
-323.8447543222
 21
-623.4922962141
 31
0.0
  0
LINE
  5
A9
330
1F
100
AcDbEntity
  8
0
  6
Continuous
 62
     7
370
    15
100
AcDbLine
 10
-323.8447543222
 20
-623.4922962141
 30
0.0
 11
-273.8447573024
 21
-623.4922962141
 31
0.0
  0
LINE
  5
AA
330
1F
100
AcDbEntity
  8
0
  6
Continuous
 62
     7
370
    15
100
AcDbLine
 10
-273.8447573024
 20
-635.492298181
 30
0.0
 11
-273.8447573024
 21
-623.4922962141
 31
0.0
  0
LINE
  5
AB
330
1F
100
AcDbEntity
  8
0
  6
Continuous
 62
     7
370
    15
100
AcDbLine
 10
-180.5212210852
 20
-635.492298181
 30
0.0
 11
-273.8447573024
 21
-635.492298181
 31
0.0
  0
LINE
  5
AC
330
1F
100
AcDbEntity
  8
0
  6
Continuous
 62
     7
370
    15
100
AcDbLine
 10
-180.5212210852
 20
-635.492298181
 30
0.0
 11
-180.5212210852
 21
-623.4922962141
 31
0.0
  0
LINE
  5
AD
330
1F
100
AcDbEntity
  8
0
  6
Continuous
 62
     7
370
    15
100
AcDbLine
 10
-180.5212210852
 20
-623.4922962141
 30
0.0
 11
-130.5212203401
 21
-623.4922962141
 31
0.0
  0
LINE
  5
AE
330
1F
100
AcDbEntity
  8
0
  6
Continuous
 62
     7
370
    15
100
AcDbLine
 10
-130.5212203401
 20
-635.492298181
 30
0.0
 11
-130.5212203401
 21
-623.4922962141
 31
0.0
  0
LINE
  5
AF
330
1F
100
AcDbEntity
  8
0
  6
Continuous
 62
     7
370
    15
100
AcDbLine
 10
-35.1137083012
 20
-635.492298181
 30
0.0
 11
-130.5212203401
 21
-635.492298181
 31
0.0
  0
LINE
  5
B0
330
1F
100
AcDbEntity
  8
0
  6
Continuous
 62
     7
370
    15
100
AcDbLine
 10
-35.1137083012
 20
-651.8579082441
 30
0.0
 11
-35.1137083012
 21
-635.492298181
 31
0.0
  0
LINE
  5
B1
330
1F
100
AcDbEntity
  8
0
  6
Continuous
 62
     7
370
    15
100
AcDbLine
 10
-47.1137102682
 20
-651.8579082441
 30
0.0
 11
-35.1137083012
 21
-651.8579082441
 31
0.0
  0
LINE
  5
B2
330
1F
100
AcDbEntity
  8
0
  6
Continuous
 62
     7
370
    15
100
AcDbLine
 10
-47.1137102682
 20
-651.8579082441
 30
0.0
 11
-47.1137102682
 21
-671.8579040718
 31
0.0
  0
LINE
  5
B3
330
1F
100
AcDbEntity
  8
0
  6
Continuous
 62
     7
370
    15
100
AcDbLine
 10
-35.1137083012
 20
-671.8579040718
 30
0.0
 11
-47.1137102682
 21
-671.8579040718
 31
0.0
  0
LINE
  5
B4
330
1F
100
AcDbEntity
  8
0
  6
Continuous
 62
     7
370
    15
100
AcDbLine
 10
-35.1137083012
 20
-697.3719553899
 30
0.0
 11
-35.1137083012
 21
-671.8579040718
 31
0.0
  0
LINE
  5
B5
330
1F
100
AcDbEntity
  8
0
  6
Continuous
 62
     7
370
    15
100
AcDbLine
 10
-47.1137102682
 20
-697.3719553899
 30
0.0
 11
-35.1137083012
 21
-697.3719553899
 31
0.0
  0
LINE
  5
B6
330
1F
100
AcDbEntity
  8
0
  6
Continuous
 62
     7
370
    15
100
AcDbLine
 10
-47.1137102682
 20
-697.3719553899
 30
0.0
 11
-47.1137102682
 21
-717.3719512176
 31
0.0
  0
LINE
  5
B7
330
1F
100
AcDbEntity
  8
0
  6
Continuous
 62
     7
370
    15
100
AcDbLine
 10
-443.7145378429
 20
397.2582860041
 30
0.0
 11
-443.7145378429
 21
-502.7417143684
 31
0.0
  0
LINE
  5
B8
330
1F
100
AcDbEntity
  8
0
  6
Continuous
 62
     7
370
    15
100
AcDbLine
 10
-443.7145378429
 20
397.2582860041
 30
0.0
 11
-421.0603918868
 21
397.2582860041
 31
0.0
  0
LINE
  5
B9
330
1F
100
AcDbEntity
  8
0
  6
Continuous
 62
     7
370
    15
100
AcDbLine
 10
-421.0603918868
 20
397.2582860041
 30
0.0
 11
-421.0603918868
 21
409.2583103228
 31
0.0
  0
LINE
  5
BA
330
1F
100
AcDbEntity
  8
0
  6
Continuous
 62
     7
370
    15
100
AcDbLine
 10
-421.0603918868
 20
409.2583103228
 30
0.0
 11
-371.0604097682
 21
409.2583103228
 31
0.0
  0
LINE
  5
BB
330
1F
100
AcDbEntity
  8
0
  6
Continuous
 62
     7
370
    15
100
AcDbLine
 10
-371.0604097682
 20
409.2583103228
 30
0.0
 11
-371.0604097682
 21
397.2582860041
 31
0.0
  0
LINE
  5
BC
330
1F
100
AcDbEntity
  8
0
  6
Continuous
 62
     7
370
    15
100
AcDbLine
 10
-140.3686862427
 20
397.2582860041
 30
0.0
 11
-140.3686862427
 21
409.2583103228
 31
0.0
  0
LINE
  5
BD
330
1F
100
AcDbEntity
  8
0
  6
Continuous
 62
     7
370
    15
100
AcDbLine
 10
-140.3686862427
 20
409.2583103228
 30
0.0
 11
-90.368686429
 21
409.2583103228
 31
0.0
  0
LINE
  5
BE
330
1F
100
AcDbEntity
  8
0
  6
Continuous
 62
     7
370
    15
100
AcDbLine
 10
-90.368686429
 20
397.2582860041
 30
0.0
 11
-67.7145414043
 21
397.2582860041
 31
0.0
  0
LINE
  5
BF
330
1F
100
AcDbEntity
  8
0
  6
Continuous
 62
     7
370
    15
100
AcDbLine
 10
-67.7145414043
 20
397.2582860041
 30
0.0
 11
-67.7145414043
 21
-502.7417143684
 31
0.0
  0
LINE
  5
C0
330
1F
100
AcDbEntity
  8
0
  6
Continuous
 62
     7
370
    15
100
AcDbLine
 10
-87.8542589012
 20
-502.7417143684
 30
0.0
 11
-67.7145414043
 21
-502.7417143684
 31
0.0
  0
LINE
  5
C1
330
1F
100
AcDbEntity
  8
0
  6
Continuous
 62
     7
370
    15
100
AcDbLine
 10
-87.8542589012
 20
-514.7417144727
 30
0.0
 11
-87.8542589012
 21
-502.7417143684
 31
0.0
  0
LINE
  5
C2
330
1F
100
AcDbEntity
  8
0
  6
Continuous
 62
     7
370
    15
100
AcDbLine
 10
-127.9045205552
 20
-514.7417144727
 30
0.0
 11
-87.8542589012
 21
-514.7417144727
 31
0.0
  0
LINE
  5
C3
330
1F
100
AcDbEntity
  8
0
  6
Continuous
 62
     7
370
    15
100
AcDbLine
 10
-127.9045205552
 20
-514.7417144727
 30
0.0
 11
-127.9045205552
 21
-502.7417143684
 31
0.0
  0
LINE
  5
C4
330
1F
100
AcDbEntity
  8
0
  6
Continuous
 62
     7
370
    15
100
AcDbLine
 10
-383.5245456535
 20
-502.7417143684
 30
0.0
 11
-127.9045205552
 21
-502.7417143684
 31
0.0
  0
LINE
  5
C5
330
1F
100
AcDbEntity
  8
0
  6
Continuous
 62
     7
370
    15
100
AcDbLine
 10
-383.5245456535
 20
-514.7417144727
 30
0.0
 11
-383.5245456535
 21
-502.7417143684
 31
0.0
  0
LINE
  5
C6
330
1F
100
AcDbEntity
  8
0
  6
Continuous
 62
     7
370
    15
100
AcDbLine
 10
-423.5748138267
 20
-514.7417144727
 30
0.0
 11
-383.5245456535
 21
-514.7417144727
 31
0.0
  0
LINE
  5
C7
330
1F
100
AcDbEntity
  8
0
  6
Continuous
 62
     7
370
    15
100
AcDbLine
 10
-423.5748138267
 20
-514.7417144727
 30
0.0
 11
-423.5748138267
 21
-502.7417143684
 31
0.0
  0
LINE
  5
C8
330
1F
100
AcDbEntity
  8
0
  6
Continuous
 62
     7
370
    15
100
AcDbLine
 10
-443.7145378429
 20
-502.7417143684
 30
0.0
 11
-423.5748138267
 21
-502.7417143684
 31
0.0
  0
LINE
  5
C9
330
1F
100
AcDbEntity
  8
0
  6
Continuous
 62
     7
370
    15
100
AcDbLine
 10
-421.0603918868
 20
-286.7417143535
 30
0.0
 11
-421.0603918868
 21
-274.7417198372
 31
0.0
  0
LINE
  5
CA
330
1F
100
AcDbEntity
  8
0
  6
Continuous
 62
     7
370
    15
100
AcDbLine
 10
-371.0604097682
 20
-286.7417143535
 30
0.0
 11
-421.0603918868
 21
-286.7417143535
 31
0.0
  0
LINE
  5
CB
330
1F
100
AcDbEntity
  8
0
  6
Continuous
 62
     7
370
    15
100
AcDbLine
 10
-371.0604097682
 20
-274.7417198372
 30
0.0
 11
-371.0604097682
 21
-286.7417143535
 31
0.0
  0
LINE
  5
CC
330
1F
100
AcDbEntity
  8
0
  6
Continuous
 62
     7
370
    15
100
AcDbLine
 10
-421.0603918868
 20
-274.7417198372
 30
0.0
 11
-371.0604097682
 21
-274.7417198372
 31
0.0
  0
LINE
  5
CD
330
1F
100
AcDbEntity
  8
0
  6
Continuous
 62
     7
370
    15
100
AcDbLine
 10
-140.3686862427
 20
-286.7417143535
 30
0.0
 11
-140.3686862427
 21
-274.7417198372
 31
0.0
  0
LINE
  5
CE
330
1F
100
AcDbEntity
  8
0
  6
Continuous
 62
     7
370
    15
100
AcDbLine
 10
-90.368686429
 20
-286.7417143535
 30
0.0
 11
-140.3686862427
 21
-286.7417143535
 31
0.0
  0
LINE
  5
CF
330
1F
100
AcDbEntity
  8
0
  6
Continuous
 62
     7
370
    15
100
AcDbLine
 10
-90.368686429
 20
-274.7417198372
 30
0.0
 11
-90.368686429
 21
-286.7417143535
 31
0.0
  0
LINE
  5
D0
330
1F
100
AcDbEntity
  8
0
  6
Continuous
 62
     7
370
    15
100
AcDbLine
 10
-140.3686862427
 20
-274.7417198372
 30
0.0
 11
-90.368686429
 21
-274.7417198372
 31
0.0
  0
LINE
  5
D1
330
1F
100
AcDbEntity
  8
0
  6
Continuous
 62
     7
370
    15
100
AcDbLine
 10
-421.0603918868
 20
-58.7417142343
 30
0.0
 11
-421.0603918868
 21
-46.7417197179
 31
0.0
  0
LINE
  5
D2
330
1F
100
AcDbEntity
  8
0
  6
Continuous
 62
     7
370
    15
100
AcDbLine
 10
-371.0604097682
 20
-58.7417142343
 30
0.0
 11
-421.0603918868
 21
-58.7417142343
 31
0.0
  0
LINE
  5
D3
330
1F
100
AcDbEntity
  8
0
  6
Continuous
 62
     7
370
    15
100
AcDbLine
 10
-371.0604097682
 20
-46.7417197179
 30
0.0
 11
-371.0604097682
 21
-58.7417142343
 31
0.0
  0
LINE
  5
D4
330
1F
100
AcDbEntity
  8
0
  6
Continuous
 62
     7
370
    15
100
AcDbLine
 10
-421.0603918868
 20
-46.7417197179
 30
0.0
 11
-371.0604097682
 21
-46.7417197179
 31
0.0
  0
LINE
  5
D5
330
1F
100
AcDbEntity
  8
0
  6
Continuous
 62
     7
370
    15
100
AcDbLine
 10
-371.0604097682
 20
181.2582655001
 30
0.0
 11
-371.0604097682
 21
169.2583007861
 31
0.0
  0
LINE
  5
D6
330
1F
100
AcDbEntity
  8
0
  6
Continuous
 62
     7
370
    15
100
AcDbLine
 10
-421.0603918868
 20
181.2582655001
 30
0.0
 11
-371.0604097682
 21
181.2582655001
 31
0.0
  0
LINE
  5
D7
330
1F
100
AcDbEntity
  8
0
  6
Continuous
 62
     7
370
    15
100
AcDbLine
 10
-421.0603918868
 20
169.2583007861
 30
0.0
 11
-421.0603918868
 21
181.2582655001
 31
0.0
  0
LINE
  5
D8
330
1F
100
AcDbEntity
  8
0
  6
Continuous
 62
     7
370
    15
100
AcDbLine
 10
-371.0604097682
 20
169.2583007861
 30
0.0
 11
-421.0603918868
 21
169.2583007861
 31
0.0
  0
LINE
  5
D9
330
1F
100
AcDbEntity
  8
0
  6
Continuous
 62
     7
370
    15
100
AcDbLine
 10
-90.368686429
 20
181.2582655001
 30
0.0
 11
-90.368686429
 21
169.2583007861
 31
0.0
  0
LINE
  5
DA
330
1F
100
AcDbEntity
  8
0
  6
Continuous
 62
     7
370
    15
100
AcDbLine
 10
-140.3686862427
 20
181.2582655001
 30
0.0
 11
-90.368686429
 21
181.2582655001
 31
0.0
  0
LINE
  5
DB
330
1F
100
AcDbEntity
  8
0
  6
Continuous
 62
     7
370
    15
100
AcDbLine
 10
-140.3686862427
 20
169.2583007861
 30
0.0
 11
-140.3686862427
 21
181.2582655001
 31
0.0
  0
LINE
  5
DC
330
1F
100
AcDbEntity
  8
0
  6
Continuous
 62
     7
370
    15
100
AcDbLine
 10
-90.368686429
 20
169.2583007861
 30
0.0
 11
-140.3686862427
 21
169.2583007861
 31
0.0
  0
LINE
  5
DD
330
1F
100
AcDbEntity
  8
0
  6
Continuous
 62
     7
370
    15
100
AcDbLine
 10
-140.3686862427
 20
-58.7417142343
 30
0.0
 11
-140.3686862427
 21
-46.7417197179
 31
0.0
  0
LINE
  5
DE
330
1F
100
AcDbEntity
  8
0
  6
Continuous
 62
     7
370
    15
100
AcDbLine
 10
-90.368686429
 20
-58.7417142343
 30
0.0
 11
-140.3686862427
 21
-58.7417142343
 31
0.0
  0
LINE
  5
DF
330
1F
100
AcDbEntity
  8
0
  6
Continuous
 62
     7
370
    15
100
AcDbLine
 10
-90.368686429
 20
-46.7417197179
 30
0.0
 11
-90.368686429
 21
-58.7417142343
 31
0.0
  0
LINE
  5
E0
330
1F
100
AcDbEntity
  8
0
  6
Continuous
 62
     7
370
    15
100
AcDbLine
 10
-140.3686862427
 20
-46.7417197179
 30
0.0
 11
-90.368686429
 21
-46.7417197179
 31
0.0
  0
LINE
  5
E1
330
1F
100
AcDbEntity
  8
0
  6
Continuous
 62
     7
370
    15
100
AcDbLine
 10
-90.368686429
 20
409.2583103228
 30
0.0
 11
-90.368686429
 21
397.2582860041
 31
0.0
  0
LINE
  5
E2
330
1F
100
AcDbEntity
  8
0
  6
Continuous
 62
     7
370
    15
100
AcDbLine
 10
-371.0604097682
 20
397.2582860041
 30
0.0
 11
-140.3686862427
 21
397.2582860041
 31
0.0
  0
LINE
  5
E3
330
1F
100
AcDbEntity
  8
0
  6
Continuous
 62
     7
370
    15
100
AcDbLine
 10
1000.8832428616
 20
-442.529502685
 30
0.0
 11
1000.8832428616
 21
-396.0988255095
 31
0.0
  0
SPLINE
  5
E4
330
1F
100
AcDbEntity
  8
0
  6
Continuous
 62
     7
370
    15
100
AcDbSpline
210
0.0
220
0.0
230
1.0
 70
     8
 71
     3
 72
    38
 73
    34
 74
     0
 42
0.00000001
 43
0.00000001
 40
0.0
 40
0.0
 40
0.0
 40
0.0
 40
0.0441988075406405
 40
0.0850232438402817
 40
0.125269172636746
 40
0.1664007685950722
 40
0.2087307046728537
 40
0.251838820773479
 40
0.2949688379369606
 40
0.3373447271387875
 40
0.3784960876778561
 40
0.4186402793347965
 40
0.4591162586427348
 40
0.5025536545273822
 40
0.5417137373389606
 40
0.5794626027289239
 40
0.6050332064001727
 40
0.6246925820013409
 40
0.6310849292809989
 40
0.6365613179854962
 40
0.6418033315957493
 40
0.6507968365671415
 40
0.6622391356217701
 40
0.6969788342272092
 40
0.7410068972191649
 40
0.7889473507850788
 40
0.8259275088390196
 40
0.8600490010027136
 40
0.8905268841248567
 40
0.9123549426534823
 40
0.9356775504541819
 40
0.9638459829370241
 40
1.0
 40
1.0
 40
1.0
 40
1.0
 10
1000.883242861613
 20
-396.0988255095138
 30
0.0
 10
999.8974068329834
 20
-395.3362801278097
 30
0.0
 10
998.0009987235197
 20
-393.8694061206706
 30
0.0
 10
994.5364318859297
 20
-392.943117317836
 30
0.0
 10
991.0873392992024
 20
-393.027810067208
 30
0.0
 10
987.7330459994847
 20
-393.997968111781
 30
0.0
 10
984.5968579274437
 20
-395.6821471610548
 30
0.0
 10
981.7855780445536
 20
-397.9523650183065
 30
0.0
 10
979.4185596689777
 20
-400.6837417951744
 30
0.0
 10
977.6200387320063
 20
-403.7589827714031
 30
0.0
 10
976.521394348948
 20
-407.0685007160258
 30
0.0
 10
976.2793976167089
 20
-410.5046883341245
 30
0.0
 10
977.0682358407939
 20
-413.9458478056435
 30
0.0
 10
978.9402365468515
 20
-416.8965948770099
 30
0.0
 10
981.2961168261411
 20
-419.304359863301
 30
0.0
 10
983.4235393118788
 20
-421.2264363876126
 30
0.0
 10
985.1012363698445
 20
-422.8191972382979
 30
0.0
 10
986.0544960441749
 20
-423.9285626405823
 30
0.0
 10
986.4141161602826
 20
-424.7407572982463
 30
0.0
 10
986.4695778877814
 20
-425.2279438670342
 30
0.0
 10
986.2892650946814
 20
-425.7654803479924
 30
0.0
 10
985.7694004442851
 20
-426.2913381236592
 30
0.0
 10
984.4266792140974
 20
-427.0595643060848
 30
0.0
 10
981.9989088660831
 20
-427.8104092123211
 30
0.0
 10
978.5734621460574
 20
-428.6802923081481
 30
0.0
 10
975.089457940607
 20
-429.618320555582
 30
0.0
 10
971.9528567677397
 20
-430.7453885205701
 30
0.0
 10
969.422131073503
 20
-432.0591200671832
 30
0.0
 10
967.5744032800275
 20
-433.687742596219
 30
0.0
 10
966.5860613625177
 20
-435.6113378607504
 30
0.0
 10
966.4244860860923
 20
-437.702483658706
 30
0.0
 10
967.0674985068088
 20
-440.1085454755253
 30
0.0
 10
967.9909847477776
 20
-441.6583800110849
 30
0.0
 10
968.5100529354656
 20
-442.5295026850357
 30
0.0
  0
LINE
  5
E5
330
1F
100
AcDbEntity
  8
0
  6
Continuous
 62
     7
370
    15
100
AcDbLine
 10
968.5100529355
 20
-442.529502685
 30
0.0
 11
1000.8832428616
 21
-442.529502685
 31
0.0
  0
SPLINE
  5
E6
330
1F
100
AcDbEntity
  8
0
  6
Continuous
 62
     7
370
    15
100
AcDbSpline
210
0.0
220
0.0
230
1.0
 70
     8
 71
     3
 72
    12
 73
     8
 74
     0
 42
0.00000001
 43
0.00000001
 40
0.0
 40
0.0
 40
0.0
 40
0.0
 40
0.1886911662019514
 40
0.3749695244064397
 40
0.5601545085704064
 40
0.7788086376277461
 40
1.0
 40
1.0
 40
1.0
 40
1.0
 10
887.0047543209637
 20
-5.329545016254378
 30
0.0
 10
885.2776633857716
 20
-8.027315840166693
 30
0.0
 10
881.8455659558234
 20
-13.38836089151463
 30
0.0
 10
875.9024632245698
 20
-20.82802886295854
 30
0.0
 10
869.0352930775911
 20
-28.12303995815929
 30
0.0
 10
861.0941948817382
 20
-35.19425049284547
 30
0.0
 10
854.9413181213796
 20
-39.42775101040835
 30
0.0
 10
851.8471334141339
 20
-41.55671166893382
 30
0.0
  0
SPLINE
  5
E7
330
1F
100
AcDbEntity
  8
0
  6
Continuous
 62
     7
370
    15
100
AcDbSpline
210
0.0
220
0.0
230
1.0
 70
     8
 71
     3
 72
    12
 73
     8
 74
     0
 42
0.00000001
 43
0.00000001
 40
0.0
 40
0.0
 40
0.0
 40
0.0
 40
0.1879143643376453
 40
0.3737668346291922
 40
0.5588870299626991
 40
0.7779294984957144
 40
1.0
 40
1.0
 40
1.0
 40
1.0
 10
851.8471334141339
 20
-41.55671166893382
 30
0.0
 10
854.4826720731189
 20
-43.3541101150674
 30
0.0
 10
859.724830891493
 20
-46.92918501765259
 30
0.0
 10
866.9674405111183
 20
-53.07797440718048
 30
0.0
 10
874.051847495138
 20
-60.15981283209504
 30
0.0
 10
880.894628645419
 20
-68.32494119999089
 30
0.0
 10
884.9587463439127
 20
-74.61652290000947
 30
0.0
 10
887.0047543209637
 20
-77.78390812393565
 30
0.0
  0
SPLINE
  5
E8
330
1F
100
AcDbEntity
  8
0
  6
Continuous
 62
     7
370
    15
100
AcDbSpline
210
0.0
220
0.0
230
1.0
 70
     8
 71
     3
 72
    12
 73
     8
 74
     0
 42
0.00000001
 43
0.00000001
 40
0.0
 40
0.0
 40
0.0
 40
0.0
 40
0.1886915837663043
 40
0.3749694141246868
 40
0.5601543296631242
 40
0.7788083776919971
 40
1.0
 40
1.0
 40
1.0
 40
1.0
 10
887.0047543209637
 20
-77.78390812393565
 30
0.0
 10
888.7318420942131
 20
-75.0861250264933
 30
0.0
 10
892.163924636269
 20
-69.72506902552023
 30
0.0
 10
898.1070568447003
 20
-62.28542343442955
 30
0.0
 10
904.9742128258728
 20
-54.99041054027393
 30
0.0
 10
912.9153224882403
 20
-47.91920455021975
 30
0.0
 10
919.0681918590375
 20
-43.68568402494694
 30
0.0
 10
922.1623752277936
 20
-41.55671166893377
 30
0.0
  0
SPLINE
  5
E9
330
1F
100
AcDbEntity
  8
0
  6
Continuous
 62
     7
370
    15
100
AcDbSpline
210
0.0
220
0.0
230
1.0
 70
     8
 71
     3
 72
    12
 73
     8
 74
     0
 42
0.00000001
 43
0.00000001
 40
0.0
 40
0.0
 40
0.0
 40
0.0
 40
0.1879140813711969
 40
0.3737669836648477
 40
0.5588876479124862
 40
0.7779294330147436
 40
1.0
 40
1.0
 40
1.0
 40
1.0
 10
922.1623752277935
 20
-41.55671166893382
 30
0.0
 10
919.5268321550045
 20
-39.75932832714696
 30
0.0
 10
914.2846545733828
 20
-36.18427665860236
 30
0.0
 10
907.0420923794978
 20
-30.03542284793897
 30
0.0
 10
899.9575829087407
 20
-22.95368547727206
 30
0.0
 10
893.1148909935268
 20
-14.7884852809797
 30
0.0
 10
889.0507682881668
 20
-8.496924885754265
 30
0.0
 10
887.0047543209637
 20
-5.329545016254378
 30
0.0
  0
LINE
  5
EA
330
1F
100
AcDbEntity
  8
0
  6
Continuous
 62
     7
370
    15
100
AcDbLine
 10
1000.8832428616
 20
-273.3395652723
 30
0.0
 11
1000.8832428616
 21
-204.5598881197
 31
0.0
  0
SPLINE
  5
EB
330
1F
100
AcDbEntity
  8
0
  6
Continuous
 62
     7
370
    15
100
AcDbSpline
210
0.0
220
0.0
230
1.0
 70
     8
 71
     3
 72
    36
 73
    32
 74
     0
 42
0.00000001
 43
0.00000001
 40
0.0
 40
0.0
 40
0.0
 40
0.0
 40
0.046927893456876
 40
0.0879250491571611
 40
0.1243907127682971
 40
0.157837279715516
 40
0.1897698427345247
 40
0.2295053176550057
 40
0.270758382180252
 40
0.3144846215242845
 40
0.3609345720630335
 40
0.4098826558502807
 40
0.4608095780509966
 40
0.5193395620708066
 40
0.5783518684392789
 40
0.6354260798175649
 40
0.6666578939419178
 40
0.6954605302421596
 40
0.7218555460203097
 40
0.7466692332612319
 40
0.7710401300541768
 40
0.7956028424363707
 40
0.8128629529194458
 40
0.8314958483261915
 40
0.8522041929288822
 40
0.8757154542333679
 40
0.9021757458128299
 40
0.9299887537977848
 40
0.9570473355882707
 40
0.981131563698076
 40
1.0
 40
1.0
 40
1.0
 40
1.0
 10
1000.883242861613
 20
-204.5598881196632
 30
0.0
 10
998.637335990825
 20
-204.6340254232414
 30
0.0
 10
994.4293595088233
 20
-204.7729305728508
 30
0.0
 10
988.572744041128
 20
-205.9753288541659
 30
0.0
 10
983.5956295317113
 20
-207.8829655318483
 30
0.0
 10
979.4469177717793
 20
-210.4976271410755
 30
0.0
 10
975.8008838045321
 20
-214.0049715185579
 30
0.0
 10
972.7891879328084
 20
-218.5433512109565
 30
0.0
 10
970.5439122497329
 20
-224.1003019301228
 30
0.0
 10
969.0956470966252
 20
-230.2334123078983
 30
0.0
 10
968.2844914574346
 20
-236.8453424376465
 30
0.0
 10
967.9658046452195
 20
-243.8391410267699
 30
0.0
 10
967.9981207642004
 20
-251.4151620431605
 30
0.0
 10
968.2921958957623
 20
-259.4662362001122
 30
0.0
 10
968.6238419325065
 20
-267.8071775085024
 30
0.0
 10
969.0081904123139
 20
-274.8471250436901
 30
0.0
 10
969.838537445129
 20
-280.3927229159899
 30
0.0
 10
970.9145124888681
 20
-284.3958740397682
 30
0.0
 10
972.5575886632986
 20
-287.8866284320131
 30
0.0
 10
974.9423573540549
 20
-290.6704044366191
 30
0.0
 10
977.993854080711
 20
-292.5572785301831
 30
0.0
 10
981.1525740755386
 20
-293.2454393418027
 30
0.0
 10
984.0587745110299
 20
-293.0117007888241
 30
0.0
 10
986.6573011006377
 20
-292.1767709093036
 30
0.0
 10
989.2754856320823
 20
-290.6595566890367
 30
0.0
 10
991.8360267062384
 20
-288.4268285668956
 30
0.0
 10
994.2379679159136
 20
-285.5751863946289
 30
0.0
 10
996.4563428911847
 20
-282.3751972338513
 30
0.0
 10
998.3561457373279
 20
-279.1113783250676
 30
0.0
 10
999.8806851239378
 20
-276.1228853621503
 30
0.0
 10
1000.577251920107
 20
-274.1890632142134
 30
0.0
 10
1000.883242861613
 20
-273.3395652722969
 30
0.0
  0
SPLINE
  5
EC
330
1F
100
AcDbEntity
  8
0
  6
Continuous
 62
     7
370
    15
100
AcDbSpline
210
0.0
220
0.0
230
1.0
 70
     8
 71
     3
 72
    24
 73
    20
 74
     0
 42
0.00000001
 43
0.00000001
 40
0.0
 40
0.0
 40
0.0
 40
0.0
 40
0.059824875523318
 40
0.1154444445762598
 40
0.1678585368572268
 40
0.2180093644209285
 40
0.2667307716166017
 40
0.3266363283284189
 40
0.3863782211686912
 40
0.4465617884077303
 40
0.5074525735327914
 40
0.5690553134544517
 40
0.6311927753405258
 40
0.6935788662142638
 40
0.7558867626045356
 40
0.8178120768179478
 40
0.8791382928160774
 40
0.9398080333345686
 40
0.9999999999999999
 40
0.9999999999999999
 40
0.9999999999999999
 40
0.9999999999999999
 10
968.5100529354656
 20
-50.02146529671092
 30
0.0
 10
966.0390463223855
 20
-49.71164617540891
 30
0.0
 10
961.270729071476
 20
-49.11378623729873
 30
0.0
 10
954.2677383033985
 20
-49.41620677300612
 30
0.0
 10
947.7783286541897
 20
-50.59010727345048
 30
0.0
 10
941.803650460039
 20
-52.62884289948605
 30
0.0
 10
935.9171264287728
 20
-55.66153233347953
 30
0.0
 10
930.2601176157997
 20
-59.84380123702571
 30
0.0
 10
925.0519732963046
 20
-65.24953490182949
 30
0.0
 10
920.7086776018464
 20
-71.41626562858156
 30
0.0
 10
917.2353265458344
 20
-78.1940374232284
 30
0.0
 10
914.6377811742805
 20
-85.43672775467465
 30
0.0
 10
912.9255518657242
 20
-93.00012567621519
 30
0.0
 10
912.1089486497455
 20
-100.7409505585354
 30
0.0
 10
912.2031834861385
 20
-108.5146409489163
 30
0.0
 10
913.2161291041581
 20
-116.1827704430193
 30
0.0
 10
915.1895158848266
 20
-123.5841761771722
 30
0.0
 10
918.050997877469
 20
-130.6401169079398
 30
0.0
 10
920.7955325498281
 20
-134.8597042624608
 30
0.0
 10
922.1623752277935
 20
-136.9611577939643
 30
0.0
  0
SPLINE
  5
ED
330
1F
100
AcDbEntity
  8
0
  6
Continuous
 62
     7
370
    15
100
AcDbSpline
210
0.0
220
0.0
230
1.0
 70
     8
 71
     3
 72
    24
 73
    20
 74
     0
 42
0.00000001
 43
0.00000001
 40
0.0
 40
0.0
 40
0.0
 40
0.0
 40
0.0743028799875795
 40
0.1398594550603484
 40
0.1985337110517828
 40
0.2520956024305835
 40
0.3021094462178597
 40
0.3498238656975297
 40
0.4221215253782789
 40
0.4925704174037019
 40
0.5615674501052644
 40
0.6126563667064401
 40
0.6641285089319027
 40
0.7173212748618096
 40
0.7740069348792865
 40
0.8223978521288502
 40
0.8754088400464684
 40
0.9342176797745312
 40
1.0
 40
1.0
 40
1.0
 40
1.0
 10
922.1623752277935
 20
-136.9611577939643
 30
0.0
 10
924.2442932091071
 20
-135.5042255439709
 30
0.0
 10
928.1630634424492
 20
-132.7618587531009
 30
0.0
 10
933.1516705903031
 20
-128.1337491322499
 30
0.0
 10
937.0872833437703
 20
-123.4869203594948
 30
0.0
 10
940.077268942566
 20
-118.7985931952095
 30
0.0
 10
942.2681956607745
 20
-114.1019879757171
 30
0.0
 10
944.08293259319
 20
-108.5714714952975
 30
0.0
 10
945.3193614535361
 20
-102.1640011760073
 30
0.0
 10
946.0528199560457
 20
-94.96588338077106
 30
0.0
 10
946.6296825698545
 20
-88.48103490768322
 30
0.0
 10
947.4797897280184
 20
-82.67746085291994
 30
0.0
 10
948.6788039607866
 20
-77.48451334200607
 30
0.0
 10
950.5080407098586
 20
-72.27006799833124
 30
0.0
 10
952.9427110682408
 20
-67.42411127347192
 30
0.0
 10
955.9137877634236
 20
-62.90278852088355
 30
0.0
 10
959.3618557367078
 20
-58.64241832774464
 30
0.0
 10
963.5729184647014
 20
-54.26043932229769
 30
0.0
 10
966.8040581695631
 20
-51.48621525304109
 30
0.0
 10
968.5100529354656
 20
-50.02146529671092
 30
0.0
  0
SPLINE
  5
EE
330
1F
100
AcDbEntity
  8
0
  6
Continuous
 62
     7
370
    15
100
AcDbSpline
210
0.0
220
0.0
230
1.0
 70
     8
 71
     3
 72
    12
 73
     8
 74
     0
 42
0.00000001
 43
0.00000001
 40
0.0
 40
0.0
 40
0.0
 40
0.0
 40
0.1870022183910818
 40
0.3728172988935005
 40
0.5583701542574125
 40
0.7779690728767945
 40
1.0
 40
1.0
 40
1.0
 40
1.0
 10
856.3043091457928
 20
-174.8847322415962
 30
0.0
 10
858.8417266005633
 20
-178.320039337315
 30
0.0
 10
863.9004533354218
 20
-185.1688453210876
 30
0.0
 10
870.5471671072168
 20
-196.0660092422553
 30
0.0
 10
876.7825450356581
 20
-208.0364597934253
 30
0.0
 10
882.4652522342495
 20
-221.2071488598616
 30
0.0
 10
885.486041903114
 20
-230.8316977352633
 30
0.0
 10
887.0047543209637
 20
-235.6704728555335
 30
0.0
  0
SPLINE
  5
EF
330
1F
100
AcDbEntity
  8
0
  6
Continuous
 62
     7
370
    15
100
AcDbSpline
210
0.0
220
0.0
230
1.0
 70
     8
 71
     3
 72
    12
 73
     8
 74
     0
 42
0.00000001
 43
0.00000001
 40
0.0
 40
0.0
 40
0.0
 40
0.0
 40
0.1885970936560468
 40
0.375281769144715
 40
0.5609676501681262
 40
0.7797736281359754
 40
1.0
 40
1.0
 40
1.0
 40
1.0
 10
887.0047543209637
 20
-235.6704728555335
 30
0.0
 10
888.2804891627256
 20
-231.5565664285549
 30
0.0
 10
890.8190225997739
 20
-223.3704695376452
 30
0.0
 10
895.6684716510008
 20
-211.4995174750619
 30
0.0
 10
901.602864836386
 20
-199.3717923857638
 30
0.0
 10
908.8010275062178
 20
-187.0289000593615
 30
0.0
 10
914.7307076985663
 20
-178.9415098461979
 30
0.0
 10
917.7051398914899
 20
-174.8847322415961
 30
0.0
  0
SPLINE
  5
F0
330
1F
100
AcDbEntity
  8
0
  6
Continuous
 62
     7
370
    15
100
AcDbSpline
210
0.0
220
0.0
230
1.0
 70
     8
 71
     3
 72
    13
 73
     9
 74
     0
 42
0.00000001
 43
0.00000001
 40
0.0
 40
0.0
 40
0.0
 40
0.0
 40
0.1883365711335323
 40
0.373338064691751
 40
0.5572833755645766
 40
0.7026116900835633
 40
0.8498285665783045
 40
0.9999999999999999
 40
0.9999999999999999
 40
0.9999999999999999
 40
0.9999999999999999
 10
917.7051398914898
 20
-174.8847322415962
 30
0.0
 10
914.8403888144198
 20
-171.7974491468869
 30
0.0
 10
909.1616158788188
 20
-165.6775527890142
 30
0.0
 10
902.0049050651265
 20
-155.444758603119
 30
0.0
 10
896.434050749752
 20
-145.3720327895546
 30
0.0
 10
892.2696474401935
 20
-135.5626278528431
 30
0.0
 10
889.1459972971811
 20
-126.1601865215667
 30
0.0
 10
887.723213770968
 20
-119.6666738698097
 30
0.0
 10
887.0047543209637
 20
-116.3876609754219
 30
0.0
  0
SPLINE
  5
F1
330
1F
100
AcDbEntity
  8
0
  6
Continuous
 62
     7
370
    15
100
AcDbSpline
210
0.0
220
0.0
230
1.0
 70
     8
 71
     3
 72
    13
 73
     9
 74
     0
 42
0.00000001
 43
0.00000001
 40
0.0
 40
0.0
 40
0.0
 40
0.0
 40
0.1905365084995556
 40
0.3767523665930468
 40
0.5608829588790752
 40
0.7056289749679167
 40
0.851637450137345
 40
1.0
 40
1.0
 40
1.0
 40
1.0
 10
887.0047543209637
 20
-116.3876609754219
 30
0.0
 10
886.0672645073504
 20
-120.5439357552009
 30
0.0
 10
884.213543618283
 20
-128.7622366562926
 30
0.0
 10
879.8254658137895
 20
-140.5376754472739
 30
0.0
 10
874.6952603508801
 20
-150.862541971798
 30
0.0
 10
869.0059230247753
 20
-159.831141591754
 30
0.0
 10
863.0820491307155
 20
-167.6730558043472
 30
0.0
 10
858.5755685295165
 20
-172.4680582740322
 30
0.0
 10
856.3043091457928
 20
-174.8847322415962
 30
0.0
  0
SPLINE
  5
F2
330
1F
100
AcDbEntity
  8
0
  6
Continuous
 62
     7
370
    15
100
AcDbSpline
210
0.0
220
0.0
230
1.0
 70
     8
 71
     3
 72
    33
 73
    29
 74
     0
 42
0.00000001
 43
0.00000001
 40
0.0
 40
0.0
 40
0.0
 40
0.0
 40
0.0445863541238496
 40
0.0843200567946772
 40
0.1200411269553398
 40
0.1526282864520973
 40
0.1829640539846646
 40
0.2118792570125712
 40
0.2540736763663278
 40
0.2963829611358231
 40
0.3396471316401903
 40
0.3839783151251365
 40
0.4344085866506538
 40
0.4847194447042988
 40
0.5337429212847673
 40
0.5803481738924177
 40
0.6147289409609051
 40
0.6470128155548972
 40
0.6775798525933677
 40
0.7075068113116001
 40
0.7337920747596929
 40
0.762428098047321
 40
0.7949622829619525
 40
0.8328388743893834
 40
0.8671901060085492
 40
0.9061756563480603
 40
0.9502929492971313
 40
1.0
 40
1.0
 40
1.0
 40
1.0
 10
982.787153498515
 20
-77.78390812393565
 30
0.0
 10
983.7598456484832
 20
-79.7149837453488
 30
0.0
 10
985.5993649126332
 20
-83.366962232311
 30
0.0
 10
987.532539207025
 20
-88.87068539586235
 30
0.0
 10
988.6795321037716
 20
-93.99220994563318
 30
0.0
 10
989.0645416824141
 20
-98.77366894164658
 30
0.0
 10
988.7565954878751
 20
-103.2302185854453
 30
0.0
 10
987.6717968026466
 20
-108.0426886043347
 30
0.0
 10
985.4877950272621
 20
-113.1312389530649
 30
0.0
 10
982.0073031314253
 20
-118.284364263283
 30
0.0
 10
977.7658135784469
 20
-122.95576623547
 30
0.0
 10
972.7877719853518
 20
-127.4328349304143
 30
0.0
 10
967.2492541823435
 20
-131.7664841579221
 30
0.0
 10
961.3919866456125
 20
-136.0503538648612
 30
0.0
 10
955.7054992148525
 20
-140.253810678428
 30
0.0
 10
950.812272221172
 20
-144.230125432323
 30
0.0
 10
946.8669313572627
 20
-148.0572650648861
 30
0.0
 10
943.8877078372344
 20
-151.7272330848262
 30
0.0
 10
941.6728741413629
 20
-155.6728440677136
 30
0.0
 10
940.4825055406169
 20
-159.7520910076354
 30
0.0
 10
940.312232846857
 20
-163.8939005205549
 30
0.0
 10
941.0706124076379
 20
-168.094301428824
 30
0.0
 10
942.8210925839848
 20
-172.5887916272801
 30
0.0
 10
945.3850780852314
 20
-176.9885984521879
 30
0.0
 10
948.5859121335391
 20
-181.3312814716906
 30
0.0
 10
952.3211225721068
 20
-185.6313101888631
 30
0.0
 10
956.8386370682643
 20
-190.2209891449999
 30
0.0
 10
960.231657158974
 20
-193.2481863787999
 30
0.0
 10
962.0292399090374
 20
-194.8519604158058
 30
0.0
  0
SPLINE
  5
F3
330
1F
100
AcDbEntity
  8
0
  6
Continuous
 62
     7
370
    15
100
AcDbSpline
210
0.0
220
0.0
230
1.0
 70
     8
 71
     3
 72
    20
 73
    16
 74
     0
 42
0.00000001
 43
0.00000001
 40
0.0
 40
0.0
 40
0.0
 40
0.0
 40
0.0858762101996677
 40
0.1676207306062318
 40
0.2482003377554844
 40
0.3290603734783948
 40
0.410479053104106
 40
0.4920537702511896
 40
0.5732095047044141
 40
0.6536687904944839
 40
0.7339569626901938
 40
0.7951725097276358
 40
0.8586409149702375
 40
0.9261886909126907
 40
0.9999999999999999
 40
0.9999999999999999
 40
0.9999999999999999
 40
0.9999999999999999
 10
962.0292399090374
 20
-194.8519604158058
 30
0.0
 10
962.102141378185
 20
-193.2654646427496
 30
0.0
 10
962.2444368694786
 20
-190.1688028319282
 30
0.0
 10
963.9712118629523
 20
-185.8627349753759
 30
0.0
 10
966.5627866565204
 20
-182.1833932616193
 30
0.0
 10
969.9116814955743
 20
-179.1773705127104
 30
0.0
 10
973.8009228910986
 20
-176.8953046351091
 30
0.0
 10
978.0590221157289
 20
-175.3941532103665
 30
0.0
 10
982.5103380875283
 20
-174.7407930233108
 30
0.0
 10
986.9827983316629
 20
-175.011418219822
 30
0.0
 10
990.9314294587851
 20
-176.1910206416025
 30
0.0
 10
994.2364795990998
 20
-178.0503170372407
 30
0.0
 10
996.9173625878661
 20
-180.3833019305479
 30
0.0
 10
999.253298744703
 20
-183.3801648374407
 30
0.0
 10
1000.324112459394
 20
-185.7559944821908
 30
0.0
 10
1000.883242861613
 20
-186.9965450715675
 30
0.0
  0
LINE
  5
F4
330
1F
100
AcDbEntity
  8
0
  6
Continuous
 62
     7
370
    15
100
AcDbLine
 10
1000.8832428616
 20
-186.9965450716
 30
0.0
 11
1000.8832428616
 21
-98.9949958276
 31
0.0
  0
SPLINE
  5
F5
330
1F
100
AcDbEntity
  8
0
  6
Continuous
 62
     7
370
    15
100
AcDbSpline
210
0.0
220
0.0
230
1.0
 70
     8
 71
     3
 72
    18
 73
    14
 74
     0
 42
0.00000001
 43
0.00000001
 40
0.0
 40
0.0
 40
0.0
 40
0.0
 40
0.1418388366247232
 40
0.2648958870432744
 40
0.3696137901497533
 40
0.4708486455059436
 40
0.5519267852779755
 40
0.6054691252148908
 40
0.6592981271082342
 40
0.7207222259656844
 40
0.7955554722693142
 40
0.8877434549106417
 40
0.9999999999999999
 40
0.9999999999999999
 40
0.9999999999999999
 40
0.9999999999999999
 10
1000.883242861613
 20
-98.99499582764048
 30
0.0
 10
1000.881241263227
 20
-97.22729681348524
 30
0.0
 10
1000.877503110881
 20
-93.92597110098605
 30
0.0
 10
1000.764594334437
 20
-89.32021400644946
 30
0.0
 10
1000.457779704524
 20
-85.22821110682621
 30
0.0
 10
999.8413478602189
 20
-81.69562079495857
 30
0.0
 10
998.7212100214637
 20
-78.92700360066074
 30
0.0
 10
997.1234655926088
 20
-77.14397656665668
 30
0.0
 10
995.2114644678232
 20
-76.16631207125346
 30
0.0
 10
992.8434507640915
 20
-75.79617554183204
 30
0.0
 10
989.9891056970537
 20
-75.96729340323533
 30
0.0
 10
986.5658058506538
 20
-76.63788089937479
 30
0.0
 10
984.1265188955687
 20
-77.37769208032708
 30
0.0
 10
982.787153498515
 20
-77.78390812393565
 30
0.0
  0
LINE
  5
F6
330
1F
100
AcDbEntity
  8
0
  6
Continuous
 62
     7
370
    15
100
AcDbLine
 10
835.3460047406
 20
-442.529502685
 30
0.0
 11
938.6635039013
 21
-442.529502685
 31
0.0
  0
SPLINE
  5
F7
330
1F
100
AcDbEntity
  8
0
  6
Continuous
 62
     7
370
    15
100
AcDbSpline
210
0.0
220
0.0
230
1.0
 70
     8
 71
     3
 72
    17
 73
    13
 74
     0
 42
0.00000001
 43
0.00000001
 40
0.0
 40
0.0
 40
0.0
 40
0.0
 40
0.1116857783438306
 40
0.2230222005476783
 40
0.3345736547693888
 40
0.4462332690697386
 40
0.5576492178755689
 40
0.6448880118202291
 40
0.7320039545153754
 40
0.819497314416688
 40
0.9083307112919282
 40
0.9999999999999999
 40
0.9999999999999999
 40
0.9999999999999999
 40
0.9999999999999999
 10
938.663503901347
 20
-442.5295026850357
 30
0.0
 10
936.845154042888
 20
-440.4478585562506
 30
0.0
 10
933.214142173583
 20
-436.2910817379023
 30
0.0
 10
927.0226788682571
 20
-430.7810011025763
 30
0.0
 10
920.5907091829343
 20
-425.582163950355
 30
0.0
 10
914.0367461719709
 20
-420.5317160362889
 30
0.0
 10
908.0279681554367
 20
-415.7587595478058
 30
0.0
 10
902.6935203067859
 20
-411.1216235981212
 30
0.0
 10
898.0693868260644
 20
-406.580762397421
 30
0.0
 10
893.8251356681817
 20
-401.6318157529977
 30
0.0
 10
889.9953361087647
 20
-396.1967322823444
 30
0.0
 10
888.012001691031
 20
-392.1922009954201
 30
0.0
 10
887.0047543209637
 20
-390.1584775995864
 30
0.0
  0
SPLINE
  5
F8
330
1F
100
AcDbEntity
  8
0
  6
Continuous
 62
     7
370
    15
100
AcDbSpline
210
0.0
220
0.0
230
1.0
 70
     8
 71
     3
 72
    17
 73
    13
 74
     0
 42
0.00000001
 43
0.00000001
 40
0.0
 40
0.0
 40
0.0
 40
0.0
 40
0.0971099558698542
 40
0.1911451905101978
 40
0.2838298861665168
 40
0.3762253548025657
 40
0.468827346210842
 40
0.5617283848504792
 40
0.6713996599697286
 40
0.7809504880844318
 40
0.8902994025094528
 40
1.0
 40
1.0
 40
1.0
 40
1.0
 10
887.0047543209638
 20
-390.1584775995864
 30
0.0
 10
885.9328180524489
 20
-392.3108483619645
 30
0.0
 10
883.8228854464173
 20
-396.5474409516546
 30
0.0
 10
879.7034353286311
 20
-402.2614290512603
 30
0.0
 10
875.1327252035346
 20
-407.4404266905327
 30
0.0
 10
870.1561693090586
 20
-412.180465482583
 30
0.0
 10
864.9102060656388
 20
-416.62079632196
 30
0.0
 10
859.181048356266
 20
-421.142298361306
 30
0.0
 10
853.0697977111072
 20
-425.855733788142
 30
0.0
 10
846.7623871455412
 20
-430.9736397102202
 30
0.0
 10
840.6940926309236
 20
-436.3988528491311
 30
0.0
 10
837.1306077573291
 20
-440.4837666357945
 30
0.0
 10
835.3460047405805
 20
-442.5295026850357
 30
0.0
  0
LINE
  5
F9
330
1F
100
AcDbEntity
  8
0
  6
Continuous
 62
     7
370
    15
100
AcDbLine
 10
773.1262657803
 20
-204.5598881197
 30
0.0
 11
773.1262657803
 21
-273.3395652723
 31
0.0
  0
SPLINE
  5
FA
330
1F
100
AcDbEntity
  8
0
  6
Continuous
 62
     7
370
    15
100
AcDbSpline
210
0.0
220
0.0
230
1.0
 70
     8
 71
     3
 72
    36
 73
    32
 74
     0
 42
0.00000001
 43
0.00000001
 40
0.0
 40
0.0
 40
0.0
 40
0.0
 40
0.0188684493281611
 40
0.0429526940650394
 40
0.0700112945360081
 40
0.0978243217222807
 40
0.1242843601196082
 40
0.1477959535404581
 40
0.1685039513340251
 40
0.1871376523307731
 40
0.2043973604267259
 40
0.2289596837126797
 40
0.2533305973306055
 40
0.2786030063757489
 40
0.3055372049292904
 40
0.334979593661905
 40
0.3669227016078397
 40
0.4008398283305838
 40
0.4701221114153827
 40
0.5391903753391275
 40
0.5901173330322912
 40
0.6390654925650723
 40
0.6855154751715593
 40
0.7292417447029562
 40
0.7704946782956216
 40
0.8102304129706545
 40
0.8421629980350056
 40
0.8756095880727925
 40
0.9120748901418606
 40
0.9530720741454278
 40
1.0
 40
1.0
 40
1.0
 40
1.0
 10
773.1262657803143
 20
-273.3395652722969
 30
0.0
 10
773.4322566652404
 20
-274.1890632689771
 30
0.0
 10
774.128823332608
 20
-276.1228855415795
 30
0.0
 10
775.6533639430268
 20
-279.1113773199842
 30
0.0
 10
777.5531613022588
 20
-282.3752015394962
 30
0.0
 10
779.7715500169653
 20
-285.5751595556712
 30
0.0
 10
782.1734183886363
 20
-288.4268748714439
 30
0.0
 10
784.7340142231776
 20
-290.6595116540412
 30
0.0
 10
787.3521869329358
 20
-292.1768197754625
 30
0.0
 10
789.9507411176713
 20
-293.0116717395991
 30
0.0
 10
792.8569375664598
 20
-293.2454578751501
 30
0.0
 10
796.0155876634542
 20
-292.5572126026845
 30
0.0
 10
799.0861626643698
 20
-290.6588534879395
 30
0.0
 10
801.4949468091393
 20
-287.8293726839586
 30
0.0
 10
803.1485176448925
 20
-284.2558729277816
 30
0.0
 10
804.2197957434257
 20
-280.157858824405
 30
0.0
 10
804.8705489321759
 20
-275.6415325655803
 30
0.0
 10
805.3531960084983
 20
-269.1955917967973
 30
0.0
 10
805.643124953331
 20
-260.9628698825859
 30
0.0
 10
806.0106486083486
 20
-251.9193860982573
 30
0.0
 10
806.0435040537747
 20
-243.8390891772998
 30
0.0
 10
805.7249909024944
 20
-236.8453592357417
 30
0.0
 10
804.9138003516391
 20
-230.2334056265441
 30
0.0
 10
803.4655166622397
 20
-224.1003214020255
 30
0.0
 10
801.2203454529856
 20
-218.5433160483459
 30
0.0
 10
798.208557187371
 20
-214.0049896742469
 30
0.0
 10
794.5625358573817
 20
-210.4976232223616
 30
0.0
 10
790.413831864164
 20
-207.882981906252
 30
0.0
 10
785.4367504392342
 20
-205.9753154181668
 30
0.0
 10
779.5801478928967
 20
-204.7729335455178
 30
0.0
 10
775.3721722195183
 20
-204.634026457709
 30
0.0
 10
773.1262657803143
 20
-204.5598881196632
 30
0.0
  0
SPLINE
  5
FB
330
1F
100
AcDbEntity
  8
0
  6
Continuous
 62
     7
370
    15
100
AcDbSpline
210
0.0
220
0.0
230
1.0
 70
     8
 71
     3
 72
    23
 73
    19
 74
     0
 42
0.00000001
 43
0.00000001
 40
0.0
 40
0.0
 40
0.0
 40
0.0
 40
0.0649816313435958
 40
0.1278128189024836
 40
0.1899227019726324
 40
0.2521988591442754
 40
0.3150420144823844
 40
0.3981931456098611
 40
0.4817591718064235
 40
0.5648207071765432
 40
0.6197182292553425
 40
0.6738309194221777
 40
0.7271490415207362
 40
0.7798830222250761
 40
0.8325311380349351
 40
0.8859296222047754
 40
0.9412603907419194
 40
1.0
 40
1.0
 40
1.0
 40
1.0
 10
930.27701117216
 20
-186.9965450715675
 30
0.0
 10
930.4733293845503
 20
-189.5008829632637
 30
0.0
 10
930.8594690306116
 20
-194.4266824361874
 30
0.0
 10
930.0287238432795
 20
-201.7459897149775
 30
0.0
 10
928.3482621134106
 20
-208.78233340128
 30
0.0
 10
925.902682875488
 20
-215.5924190555382
 30
0.0
 10
922.580250419745
 20
-222.9144692827264
 30
0.0
 10
918.3967020720347
 20
-230.7259791574387
 30
0.0
 10
913.5641979985126
 20
-239.0623952419428
 30
0.0
 10
909.3127342674708
 20
-246.477422467294
 30
0.0
 10
905.8674969916884
 20
-253.0399626167085
 30
0.0
 10
903.229411270989
 20
-258.723596078486
 30
0.0
 10
901.018440111085
 20
-264.5006560307007
 30
0.0
 10
899.3537082515104
 20
-270.402846691764
 30
0.0
 10
898.3516399914361
 20
-276.4627398992132
 30
0.0
 10
898.155453194057
 20
-282.7007838332819
 30
0.0
 10
898.8181382362048
 20
-289.1613325232423
 30
0.0
 10
900.0557712117895
 20
-293.3926887889706
 30
0.0
 10
900.6930802029217
 20
-295.571591134037
 30
0.0
  0
SPLINE
  5
FC
330
1F
100
AcDbEntity
  8
0
  6
Continuous
 62
     7
370
    15
100
AcDbSpline
210
0.0
220
0.0
230
1.0
 70
     8
 71
     3
 72
    63
 73
    59
 74
     0
 42
0.00000001
 43
0.00000001
 40
0.0
 40
0.0
 40
0.0
 40
0.0
 40
0.0288983489690318
 40
0.0560071149631619
 40
0.0818769491189304
 40
0.1069765343636477
 40
0.1316796755086676
 40
0.1562626153644406
 40
0.180920644854945
 40
0.2057859816403706
 40
0.2394012020429199
 40
0.2737608328750225
 40
0.3091383277763195
 40
0.3310462341394989
 40
0.3534295826358678
 40
0.3756158964751309
 40
0.3969618266380872
 40
0.4172407385894042
 40
0.4336819322358383
 40
0.4505572863025092
 40
0.4688091919334785
 40
0.4882600375385661
 40
0.5081506645917564
 40
0.5275823158590178
 40
0.5457646530890727
 40
0.5623420306218292
 40
0.572803348667529
 40
0.5833741192212564
 40
0.5944539699027378
 40
0.6060538080295916
 40
0.618089303035698
 40
0.6305360066648977
 40
0.6468808768711162
 40
0.6626802947239281
 40
0.673863830618099
 40
0.6771314239459744
 40
0.6797136414699765
 40
0.6815639669969991
 40
0.6833569152536385
 40
0.6853473641265798
 40
0.6876885275064898
 40
0.6971560752909864
 40
0.7101355916696142
 40
0.7222151716213451
 40
0.7353904490710527
 40
0.7562631415004802
 40
0.7766801180130238
 40
0.7952064894699559
 40
0.8118326375576078
 40
0.8322465812878012
 40
0.8519599051372684
 40
0.871810791086402
 40
0.8921168638133616
 40
0.9128687389866922
 40
0.9339412888208609
 40
0.9552850905835604
 40
0.9771032751735933
 40
1.0
 40
1.0
 40
1.0
 40
1.0
 10
900.6930802029217
 20
-295.571591134037
 30
0.0
 10
902.3186325054057
 20
-294.709679020644
 30
0.0
 10
905.4690718187868
 20
-293.0392302737391
 30
0.0
 10
910.5074804610078
 20
-291.6074595373793
 30
0.0
 10
915.4559227879979
 20
-291.0465829598859
 30
0.0
 10
920.2782108769395
 20
-291.35339036124
 30
0.0
 10
924.8965787140747
 20
-292.4483214375115
 30
0.0
 10
929.247424949974
 20
-294.2708661986156
 30
0.0
 10
933.2665177072529
 20
-296.7574280060729
 30
0.0
 10
937.299609523104
 20
-300.1954435131931
 30
0.0
 10
941.0860670297116
 20
-304.7680290630589
 30
0.0
 10
944.2338168179189
 20
-310.5749593218724
 30
0.0
 10
945.9698006911651
 20
-316.1739792399812
 30
0.0
 10
946.6908201042916
 20
-321.1932362180502
 30
0.0
 10
946.7944973463242
 20
-325.4254580357398
 30
0.0
 10
946.342772176591
 20
-329.6027747883237
 30
0.0
 10
945.247488860774
 20
-333.5292334766286
 30
0.0
 10
943.4876812139333
 20
-336.8177533900439
 30
0.0
 10
941.110619043983
 20
-339.3133305511339
 30
0.0
 10
938.2139636111634
 20
-340.9472963819344
 30
0.0
 10
934.8026708739882
 20
-341.7388579253421
 30
0.0
 10
931.1270726189894
 20
-341.8400587704646
 30
0.0
 10
927.4153260544283
 20
-341.2963352166689
 30
0.0
 10
923.9252069603149
 20
-340.1523735525062
 30
0.0
 10
920.9063698937107
 20
-338.4427933485055
 30
0.0
 10
918.835375399456
 20
-336.3728984497026
 30
0.0
 10
917.7632002280913
 20
-334.1997335607515
 30
0.0
 10
917.469232876079
 20
-332.1485225452425
 30
0.0
 10
917.7641472436994
 20
-330.0338416046729
 30
0.0
 10
918.5886501523977
 20
-327.9667959065688
 30
0.0
 10
919.9173594211483
 20
-326.0749444779246
 30
0.0
 10
921.89015606458
 20
-324.3444334598084
 30
0.0
 10
924.5117498304649
 20
-323.1817140167289
 30
0.0
 10
927.1544804974595
 20
-322.4373572751712
 30
0.0
 10
929.0163214549892
 20
-321.926416417599
 30
0.0
 10
929.9929943523807
 20
-321.4554039425232
 30
0.0
 10
930.3836389416854
 20
-321.1462059156726
 30
0.0
 10
930.5796224758615
 20
-320.7895928428458
 30
0.0
 10
930.6028669349952
 20
-320.4223116516799
 30
0.0
 10
930.4858060055691
 20
-320.0450823412767
 30
0.0
 10
930.0247090142092
 20
-319.2929803244849
 30
0.0
 10
928.7820161630084
 20
-318.2710702232153
 30
0.0
 10
926.8923801226755
 20
-317.1668971331132
 30
0.0
 10
924.678131420045
 20
-316.1563515878128
 30
0.0
 10
921.9292145913383
 20
-315.1383181743205
 30
0.0
 10
918.5845974706227
 20
-314.2262561287822
 30
0.0
 10
914.8163131381631
 20
-313.6541142385586
 30
0.0
 10
911.2619292525601
 20
-313.7368150202739
 30
0.0
 10
907.8123184186712
 20
-314.6184929785369
 30
0.0
 10
904.6420532706275
 20
-316.4649175416383
 30
0.0
 10
902.0706067115641
 20
-319.3522323541976
 30
0.0
 10
900.4026048148932
 20
-322.8172435841103
 30
0.0
 10
899.6082390396691
 20
-326.6390863489264
 30
0.0
 10
899.6778003068642
 20
-330.6151978174774
 30
0.0
 10
900.616484865761
 20
-334.5530063405124
 30
0.0
 10
902.457767949555
 20
-338.2256966301692
 30
0.0
 10
905.1931647063092
 20
-341.5016471974701
 30
0.0
 10
907.648688064165
 20
-342.9644169856509
 30
0.0
 10
908.9060638111675
 20
-343.7134431552543
 30
0.0
  0
SPLINE
  5
FD
330
1F
100
AcDbEntity
  8
0
  6
Continuous
 62
     7
370
    15
100
AcDbSpline
210
0.0
220
0.0
230
1.0
 70
     8
 71
     3
 72
    19
 73
    15
 74
     0
 42
0.00000001
 43
0.00000001
 40
0.0
 40
0.0
 40
0.0
 40
0.0
 40
0.0874788011169974
 40
0.1709767363471742
 40
0.2518606466850847
 40
0.3312259209841806
 40
0.4098801502524291
 40
0.4883526960175917
 40
0.5669292130562539
 40
0.6535810694415279
 40
0.7404034052024857
 40
0.8272136990248022
 40
0.9137988068330872
 40
1.0
 40
1.0
 40
1.0
 40
1.0
 10
908.9060638111675
 20
-343.7134431552543
 30
0.0
 10
911.4661420867812
 20
-344.0700803445059
 30
0.0
 10
916.4697980899344
 20
-344.7671253645527
 30
0.0
 10
923.5370028204312
 20
-347.1880771419869
 30
0.0
 10
929.9558843866779
 20
-350.4709954717594
 30
0.0
 10
935.6977348528944
 20
-354.5994495486108
 30
0.0
 10
940.7481539801594
 20
-359.4399800497293
 30
0.0
 10
945.0917348507065
 20
-364.8919642889808
 30
0.0
 10
948.8352370732141
 20
-371.047846671506
 30
0.0
 10
951.873888434272
 20
-377.8539011043979
 30
0.0
 10
954.09959523353
 20
-385.2228528504644
 30
0.0
 10
955.370714051384
 20
-392.8058603968651
 30
0.0
 10
955.7569630414192
 20
-400.4837385175847
 30
0.0
 10
955.173253334099
 20
-405.5530331811994
 30
0.0
 10
954.8820469540206
 20
-408.0820487689628
 30
0.0
  0
SPLINE
  5
FE
330
1F
100
AcDbEntity
  8
0
  6
Continuous
 62
     7
370
    15
100
AcDbSpline
210
0.0
220
0.0
230
1.0
 70
     8
 71
     3
 72
    33
 73
    29
 74
     0
 42
0.00000001
 43
0.00000001
 40
0.0
 40
0.0
 40
0.0
 40
0.0
 40
0.0584613657733778
 40
0.1196784571033833
 40
0.1822290989340277
 40
0.2449146133327208
 40
0.3069385949775993
 40
0.3681432910591678
 40
0.4139576852951911
 40
0.460474134806662
 40
0.5086407839153142
 40
0.5577431415579728
 40
0.5899125189945366
 40
0.6209151847145958
 40
0.650490459821106
 40
0.6790485078494506
 40
0.7080273959855788
 40
0.7391297838060314
 40
0.7719745630786181
 40
0.8053028378378732
 40
0.8377453201403796
 40
0.8608766587698545
 40
0.8828112794427064
 40
0.9039654015932377
 40
0.9255035847618197
 40
0.9465012627167579
 40
0.9708371332999229
 40
1.0
 40
1.0
 40
1.0
 40
1.0
 10
954.8820469540203
 20
-408.0820487689628
 30
0.0
 10
955.735561900564
 20
-406.0785347547707
 30
0.0
 10
957.4828243971843
 20
-401.9770659842154
 30
0.0
 10
960.0707290105427
 20
-395.7006715752526
 30
0.0
 10
962.4411745670822
 20
-389.1683831667054
 30
0.0
 10
964.3623096500503
 20
-382.4538004641489
 30
0.0
 10
965.5865600971874
 20
-375.6217014321974
 30
0.0
 10
965.8345934382529
 20
-369.3010296766763
 30
0.0
 10
965.1667499916962
 20
-363.6027102358782
 30
0.0
 10
963.7732180228905
 20
-358.5308729350957
 30
0.0
 10
961.4816405340017
 20
-353.6713350281585
 30
0.0
 10
959.1046355568701
 20
-349.477900892681
 30
0.0
 10
957.1302889785484
 20
-345.7896284224577
 30
0.0
 10
955.7028040469983
 20
-342.6381047868322
 30
0.0
 10
954.7148271744073
 20
-339.4545647310573
 30
0.0
 10
954.3644460593897
 20
-336.1984219372135
 30
0.0
 10
954.9075116037809
 20
-332.8958096064757
 30
0.0
 10
956.3918507479586
 20
-329.731224905724
 30
0.0
 10
958.562223474681
 20
-326.8051330528589
 30
0.0
 10
961.2592961718952
 20
-324.2821675674153
 30
0.0
 10
964.0750918086195
 20
-322.4933843235161
 30
0.0
 10
966.7848051099007
 20
-321.4501811473897
 30
0.0
 10
969.2438017929879
 20
-321.0599131800177
 30
0.0
 10
971.6717500574287
 20
-321.3268560555256
 30
0.0
 10
973.8673330384526
 20
-322.340422737866
 30
0.0
 10
975.7154428841125
 20
-324.0547956678882
 30
0.0
 10
977.2352752909394
 20
-326.4143127462669
 30
0.0
 10
977.8759902425265
 20
-328.3077402116478
 30
0.0
 10
978.2252524059859
 20
-329.339872474636
 30
0.0
  0
SPLINE
  5
FF
330
1F
100
AcDbEntity
  8
0
  6
Continuous
 62
     7
370
    15
100
AcDbSpline
210
0.0
220
0.0
230
1.0
 70
     8
 71
     3
 72
    34
 73
    30
 74
     0
 42
0.00000001
 43
0.00000001
 40
0.0
 40
0.0
 40
0.0
 40
0.0
 40
0.0253984318757631
 40
0.0453698807118924
 40
0.061202816732519
 40
0.0743887279230009
 40
0.0894743766533253
 40
0.1049491058292662
 40
0.1215787550081156
 40
0.1638451406016396
 40
0.2029915945228519
 40
0.2428344490977227
 40
0.2947423922871815
 40
0.3457178330279619
 40
0.3945375002443888
 40
0.4400633401089458
 40
0.4815365518510389
 40
0.5204877957148778
 40
0.5594343800590886
 40
0.5912376102940569
 40
0.6250513650604085
 40
0.6617275383127089
 40
0.7022382139492569
 40
0.7477099914895013
 40
0.7877448436266159
 40
0.8322893373762789
 40
0.8820369673386658
 40
0.9376997132601913
 40
1.0
 40
1.0
 40
1.0
 40
1.0
 10
978.2252524059859
 20
-329.339872474636
 30
0.0
 10
978.9863908128212
 20
-328.2286880280456
 30
0.0
 10
980.3460321832919
 20
-326.2437502949872
 30
0.0
 10
981.7267053269462
 20
-323.2912680019618
 30
0.0
 10
982.3461697656273
 20
-320.7469966628896
 30
0.0
 10
982.2468238749894
 20
-318.3754925470816
 30
0.0
 10
981.3153377662165
 20
-316.1949601332686
 30
0.0
 10
979.652540989843
 20
-314.296562476401
 30
0.0
 10
976.5799334920779
 20
-311.824945421558
 30
0.0
 10
972.3126192533324
 20
-308.8562466843314
 30
0.0
 10
967.5473796270503
 20
-304.5304194232541
 30
0.0
 10
962.744191222359
 20
-299.5262288058274
 30
0.0
 10
957.9905199681021
 20
-293.6324543648195
 30
0.0
 10
953.528110623033
 20
-286.9371357273675
 30
0.0
 10
949.8971817010882
 20
-280.1359826423887
 30
0.0
 10
947.2128120425797
 20
-273.4413998726447
 30
0.0
 10
945.6430806083767
 20
-266.9294933412889
 30
0.0
 10
945.1119691485285
 20
-260.6117051061675
 30
0.0
 10
945.1875690029563
 20
-254.7988906007909
 30
0.0
 10
945.4147930519594
 20
-249.2657870920515
 30
0.0
 10
945.5656722730298
 20
-243.8492892022466
 30
0.0
 10
945.4739167055212
 20
-237.9679961202327
 30
0.0
 10
944.9551241864519
 20
-231.486778501243
 30
0.0
 10
943.9231599870355
 20
-224.8856365494074
 30
0.0
 10
942.3948215989357
 20
-218.1652582242656
 30
0.0
 10
940.407986229491
 20
-211.3293760214547
 30
0.0
 10
937.7615462577587
 20
-203.8374882090972
 30
0.0
 10
934.3951082830212
 20
-195.6121130812342
 30
0.0
 10
931.7002548563512
 20
-189.9741467223732
 30
0.0
 10
930.27701117216
 20
-186.9965450715675
 30
0.0
  0
SPLINE
  5
100
330
1F
100
AcDbEntity
  8
0
  6
Continuous
 62
     7
370
    15
100
AcDbSpline
210
0.0
220
0.0
230
1.0
 70
     8
 71
     3
 72
    19
 73
    15
 74
     0
 42
0.00000001
 43
0.00000001
 40
0.0
 40
0.0
 40
0.0
 40
0.0
 40
0.0902663739873672
 40
0.1888027103807988
 40
0.2925531803535528
 40
0.3982865432972162
 40
0.5030210543149329
 40
0.5878964015294604
 40
0.6698643098650803
 40
0.7493277532771463
 40
0.808403952622734
 40
0.8685258266958388
 40
0.9316291697384455
 40
1.0
 40
1.0
 40
1.0
 40
1.0
 10
938.663503901347
 20
-411.2678723287239
 30
0.0
 10
938.8173801073037
 20
-409.5822912908206
 30
0.0
 10
939.1392302433444
 20
-406.056700813827
 30
0.0
 10
938.5523087483843
 20
-400.5832586757406
 30
0.0
 10
937.2978907978954
 20
-394.9489768244467
 30
0.0
 10
935.2920646613824
 20
-389.402828523825
 30
0.0
 10
932.7287712820031
 20
-384.4846626943869
 30
0.0
 10
929.7382558277106
 20
-380.3542426980077
 30
0.0
 10
926.4615688082104
 20
-377.0798652218093
 30
0.0
 10
923.0043436909533
 20
-374.7674664710806
 30
0.0
 10
919.5383352387237
 20
-373.363808957539
 30
0.0
 10
916.1696032188113
 20
-372.7185074085744
 30
0.0
 10
912.5515265592246
 20
-372.7193528041291
 30
0.0
 10
910.1532469297101
 20
-373.2997539353534
 30
0.0
 10
908.9060638111675
 20
-373.601581330265
 30
0.0
  0
SPLINE
  5
101
330
1F
100
AcDbEntity
  8
0
  6
Continuous
 62
     7
370
    15
100
AcDbSpline
210
0.0
220
0.0
230
1.0
 70
     8
 71
     3
 72
    14
 73
    10
 74
     0
 42
0.00000001
 43
0.00000001
 40
0.0
 40
0.0
 40
0.0
 40
0.0
 40
0.1503312937747566
 40
0.2907442052633559
 40
0.4247386450565762
 40
0.5563294072519283
 40
0.6961987905086983
 40
0.8427322236083719
 40
1.0
 40
1.0
 40
1.0
 40
1.0
 10
908.9060638111675
 20
-373.601581330265
 30
0.0
 10
909.2437286324921
 20
-376.1428269002682
 30
0.0
 10
909.8967802204642
 20
-381.0576547120787
 30
0.0
 10
912.1382093207574
 20
-387.9760048052884
 30
0.0
 10
915.3040816197641
 20
-394.1545070490085
 30
0.0
 10
919.537304580753
 20
-399.6594400897387
 30
0.0
 10
924.876908179988
 20
-404.4168883239043
 30
0.0
 10
931.3245848014907
 20
-408.4426649386976
 30
0.0
 10
936.1602440350555
 20
-410.304211580162
 30
0.0
 10
938.663503901347
 20
-411.2678723287239
 30
0.0
  0
SPLINE
  5
102
330
1F
100
AcDbEntity
  8
0
  6
Continuous
 62
     7
370
    15
100
AcDbSpline
210
0.0
220
0.0
230
1.0
 70
     8
 71
     3
 72
    14
 73
    10
 74
     0
 42
0.00000001
 43
0.00000001
 40
0.0
 40
0.0
 40
0.0
 40
0.0
 40
0.1503912048752686
 40
0.2908478037205601
 40
0.4248662256608388
 40
0.5564582657683262
 40
0.6963051696848767
 40
0.8427948129256425
 40
1.0
 40
1.0
 40
1.0
 40
1.0
 10
835.3460047405804
 20
-411.2678723287239
 30
0.0
 10
837.7408372771245
 20
-410.3503130717672
 30
0.0
 10
842.3723034862691
 20
-408.5758070766151
 30
0.0
 10
848.5856194929115
 20
-404.7925295335905
 30
0.0
 10
853.8645049223653
 20
-400.2818645867242
 30
0.0
 10
858.2405323164542
 20
-394.8897047911935
 30
0.0
 10
861.632561631634
 20
-388.5950013345754
 30
0.0
 10
864.0555176844786
 20
-381.3924962633033
 30
0.0
 10
864.7460146358022
 20
-376.2589304153566
 30
0.0
 10
865.1034448307598
 20
-373.601581330265
 30
0.0
  0
SPLINE
  5
103
330
1F
100
AcDbEntity
  8
0
  6
Continuous
 62
     7
370
    15
100
AcDbSpline
210
0.0
220
0.0
230
1.0
 70
     8
 71
     3
 72
    19
 73
    15
 74
     0
 42
0.00000001
 43
0.00000001
 40
0.0
 40
0.0
 40
0.0
 40
0.0
 40
0.06837080332027
 40
0.1314741214972268
 40
0.1915959718795191
 40
0.2506731333301908
 40
0.3301356587306003
 40
0.4121027783970035
 40
0.4969793464337966
 40
0.6017138161812484
 40
0.7074467755004461
 40
0.811197204590693
 40
0.9097335984045729
 40
1.0
 40
1.0
 40
1.0
 40
1.0
 10
865.1034448307598
 20
-373.601581330265
 30
0.0
 10
863.8562618140709
 20
-373.2997541964053
 30
0.0
 10
861.4579823804163
 20
-372.7193535671723
 30
0.0
 10
857.8399043596752
 20
-372.7185046829631
 30
0.0
 10
854.4711589545958
 20
-373.3638220830452
 30
0.0
 10
851.005130917078
 20
-374.7674359554036
 30
0.0
 10
847.5479295777617
 20
-377.0798654680829
 30
0.0
 10
844.2713225522425
 20
-380.3542979829858
 30
0.0
 10
841.2806546847829
 20
-384.4846153004077
 30
0.0
 10
838.717381155524
 20
-389.4028237715348
 30
0.0
 10
836.711624364266
 20
-394.9489875801416
 30
0.0
 10
835.4572234415983
 20
-400.5832610452427
 30
0.0
 10
834.8701839568308
 20
-406.0566998556877
 30
0.0
 10
835.1920980019852
 20
-409.5822911456951
 30
0.0
 10
835.3460047405804
 20
-411.2678723287239
 30
0.0
  0
LINE
  5
104
330
1F
100
AcDbEntity
  8
0
  6
Continuous
 62
     7
370
    15
100
AcDbLine
 10
805.4995153111
 20
359.4160718966
 30
0.0
 11
773.1262657803
 21
359.4160718966
 31
0.0
  0
LINE
  5
105
330
1F
100
AcDbEntity
  8
0
  6
Continuous
 62
     7
370
    15
100
AcDbLine
 10
773.1262657803
 20
359.4160718966
 30
0.0
 11
773.1262657803
 21
312.9853649187
 31
0.0
  0
SPLINE
  5
106
330
1F
100
AcDbEntity
  8
0
  6
Continuous
 62
     7
370
    15
100
AcDbSpline
210
0.0
220
0.0
230
1.0
 70
     8
 71
     3
 72
    38
 73
    34
 74
     0
 42
0.00000001
 43
0.00000001
 40
0.0
 40
0.0
 40
0.0
 40
0.0
 40
0.0441988332016844
 40
0.0850232205945105
 40
0.1252684570224283
 40
0.1664007613266193
 40
0.2087302190353609
 40
0.2518394120689985
 40
0.2949691240628163
 40
0.337344960958156
 40
0.3784963805288736
 40
0.4186406396717349
 40
0.4591165453524312
 40
0.5025538272473663
 40
0.5417138678843645
 40
0.5794628516141769
 40
0.6050337189216436
 40
0.6246926044272259
 40
0.6310850172908559
 40
0.6365610273133934
 40
0.6418030820890809
 40
0.6507965922819426
 40
0.6622395494592587
 40
0.6969793287089742
 40
0.7410080811523101
 40
0.7889478786642542
 40
0.825927872246675
 40
0.8600502210026956
 40
0.8905274830912236
 40
0.9123553166373936
 40
0.9356781148828742
 40
0.9638461363955941
 40
1.0
 40
1.0
 40
1.0
 40
1.0
 10
773.1262657803143
 20
312.9853649187432
 30
0.0
 10
774.1121009076056
 20
312.2228165877124
 30
0.0
 10
776.0085056637004
 20
310.7559381597831
 30
0.0
 10
779.473062313296
 20
309.829694012051
 30
0.0
 10
782.9221426732585
 20
309.9143569039236
 30
0.0
 10
786.2764477558408
 20
310.8844702474452
 30
0.0
 10
789.4125959720906
 20
312.5687748878664
 30
0.0
 10
792.2240015286535
 20
314.8388509498888
 30
0.0
 10
794.590922850359
 20
317.5703394087133
 30
0.0
 10
796.3895085670882
 20
320.6455345358363
 30
0.0
 10
797.4880022030092
 20
323.9550927587772
 30
0.0
 10
797.7301655280371
 20
327.3912724826034
 30
0.0
 10
796.9411640637747
 20
330.8323941704142
 30
0.0
 10
795.0692892829205
 20
333.7831857172388
 30
0.0
 10
792.7134089750098
 20
336.1909616967259
 30
0.0
 10
790.5858741039135
 20
338.112940623437
 30
0.0
 10
788.9082603080466
 20
339.7057455564009
 30
0.0
 10
787.9549153982284
 20
340.8150911729854
 30
0.0
 10
787.595490979123
 20
341.6273329321741
 30
0.0
 10
787.5399297716365
 20
342.1144848155443
 30
0.0
 10
787.7201569943164
 20
342.6520546364346
 30
0.0
 10
788.2400700123875
 20
343.1779119080742
 30
0.0
 10
789.5828207139821
 20
343.9461039707311
 30
0.0
 10
792.0106078700779
 20
344.6970248214932
 30
0.0
 10
795.436077515312
 20
345.5668337036108
 30
0.0
 10
798.9200545289461
 20
346.5049281185153
 30
0.0
 10
802.0566838340173
 20
347.6319177276856
 30
0.0
 10
804.5874016281103
 20
348.9456651653792
 30
0.0
 10
806.4351312261485
 20
350.5742982615554
 30
0.0
 10
807.4233757480478
 20
352.4979197698503
 30
0.0
 10
807.5849565014876
 20
354.5890382810845
 30
0.0
 10
806.9420178369311
 20
356.9951068814952
 30
0.0
 10
806.0185663282053
 20
358.5449438874868
 30
0.0
 10
805.4995153111065
 20
359.4160718965874
 30
0.0
  0
LINE
  5
107
330
1F
100
AcDbEntity
  8
0
  6
Continuous
 62
     7
370
    15
100
AcDbLine
 10
938.6635039013
 20
359.4160718966
 30
0.0
 11
835.3460047406
 21
359.4160718966
 31
0.0
  0
SPLINE
  5
108
330
1F
100
AcDbEntity
  8
0
  6
Continuous
 62
     7
370
    15
100
AcDbSpline
210
0.0
220
0.0
230
1.0
 70
     8
 71
     3
 72
    17
 73
    13
 74
     0
 42
0.00000001
 43
0.00000001
 40
0.0
 40
0.0
 40
0.0
 40
0.0
 40
0.1116853263009784
 40
0.2230223566799286
 40
0.3345732663645598
 40
0.4462335907842083
 40
0.5576493027337452
 40
0.6448883730274845
 40
0.7320041153383835
 40
0.8194971173818419
 40
0.9083308566817639
 40
1.0
 40
1.0
 40
1.0
 40
1.0
 10
835.3460047405804
 20
359.4160718965874
 30
0.0
 10
837.1643278391448
 20
357.3344181622359
 30
0.0
 10
840.7953035105106
 20
353.1776024282198
 30
0.0
 10
846.9868317358146
 20
347.6676083708488
 30
0.0
 10
853.418745991408
 20
342.4686768223046
 30
0.0
 10
859.9727463648983
 20
337.4182807040619
 30
0.0
 10
865.981561853204
 20
332.6453409446978
 30
0.0
 10
871.3159665052486
 20
328.0081647326128
 30
0.0
 10
875.9401374078777
 20
323.4673517196273
 30
0.0
 10
880.1843161826735
 20
318.5183471941749
 30
0.0
 10
884.0140895105883
 20
313.0832587561567
 30
0.0
 10
885.99748077705
 20
309.0787522012105
 30
0.0
 10
887.0047543209637
 20
307.0450468111382
 30
0.0
  0
SPLINE
  5
109
330
1F
100
AcDbEntity
  8
0
  6
Continuous
 62
     7
370
    15
100
AcDbSpline
210
0.0
220
0.0
230
1.0
 70
     8
 71
     3
 72
    17
 73
    13
 74
     0
 42
0.00000001
 43
0.00000001
 40
0.0
 40
0.0
 40
0.0
 40
0.0
 40
0.0971099537564175
 40
0.1911445588596754
 40
0.2838295568044863
 40
0.376224652986798
 40
0.4688274492423104
 40
0.561728235677903
 40
0.6713995084103394
 40
0.7809496485136069
 40
0.8902984926696893
 40
1.0
 40
1.0
 40
1.0
 40
1.0
 10
887.0047543209637
 20
307.0450468111382
 30
0.0
 10
888.0766960923983
 20
309.1974132973305
 30
0.0
 10
890.1866326035213
 20
313.4339835622032
 30
0.0
 10
894.3059959017803
 20
319.1480283533656
 30
0.0
 10
898.8768068995922
 20
324.32691377473
 30
0.0
 10
903.8532775913476
 20
329.0670634092644
 30
0.0
 10
909.099288041661
 20
333.5073511524757
 30
0.0
 10
914.8284663913471
 20
338.0288468342132
 30
0.0
 10
920.9397042722403
 20
342.7422621711156
 30
0.0
 10
927.2470660878572
 20
347.8601982554956
 30
0.0
 10
933.315373120526
 20
353.2854015257372
 30
0.0
 10
936.878881267828
 20
357.3703229142143
 30
0.0
 10
938.663503901347
 20
359.4160718965874
 30
0.0
  0
SPLINE
  5
10A
330
1F
100
AcDbEntity
  8
0
  6
Continuous
 62
     7
370
    15
100
AcDbSpline
210
0.0
220
0.0
230
1.0
 70
     8
 71
     3
 72
    23
 73
    19
 74
     0
 42
0.00000001
 43
0.00000001
 40
0.0
 40
0.0
 40
0.0
 40
0.0
 40
0.0649816588406117
 40
0.127812797658008
 40
0.1899226844521055
 40
0.2521989459187722
 40
0.315042105024795
 40
0.3981932289563472
 40
0.4817592601633134
 40
0.5648210247468052
 40
0.6197183217378833
 40
0.6738310151491761
 40
0.7271489581848666
 40
0.7798833281806296
 40
0.8325311929580157
 40
0.8859299376965456
 40
0.9412607655395521
 40
1.0
 40
1.0
 40
1.0
 40
1.0
 10
843.7325570744122
 20
103.8830919313775
 30
0.0
 10
843.536219576462
 20
106.3874291943158
 30
0.0
 10
843.1500422251002
 20
111.313224527434
 30
0.0
 10
843.9807197418181
 20
118.6325370398774
 30
0.0
 10
845.6611515848022
 20
125.6688976574841
 30
0.0
 10
848.1069210647156
 20
132.4789197876353
 30
0.0
 10
851.4293188214847
 20
139.8009827526732
 30
0.0
 10
855.6127871345204
 20
147.6125376294142
 30
0.0
 10
860.4453260540877
 20
155.9489432248874
 30
0.0
 10
864.6967580705626
 20
163.3639885700441
 30
0.0
 10
868.1420138552259
 20
169.9265171370955
 30
0.0
 10
870.7801175649299
 20
175.6101285180687
 30
0.0
 10
872.990979758934
 20
181.3872353952817
 30
0.0
 10
874.6558172712226
 20
187.2893930355627
 30
0.0
 10
875.6578607741686
 20
193.3493071025445
 30
0.0
 10
875.8540797877839
 20
199.587355302169
 30
0.0
 10
875.1912796770598
 20
206.0478872319028
 30
0.0
 10
873.9537050700252
 20
210.279243515904
 30
0.0
 10
873.3164284390057
 20
212.4581379938469
 30
0.0
  0
SPLINE
  5
10B
330
1F
100
AcDbEntity
  8
0
  6
Continuous
 62
     7
370
    15
100
AcDbSpline
210
0.0
220
0.0
230
1.0
 70
     8
 71
     3
 72
    63
 73
    59
 74
     0
 42
0.00000001
 43
0.00000001
 40
0.0
 40
0.0
 40
0.0
 40
0.0
 40
0.0288983883643325
 40
0.0560071593209738
 40
0.0818769810780692
 40
0.1069765709174985
 40
0.1316793762032031
 40
0.1562626091883575
 40
0.1809207253346944
 40
0.2057860159920938
 40
0.2394011823712547
 40
0.2737610256632269
 40
0.309138377693646
 40
0.3310464101583631
 40
0.3534298270217889
 40
0.3756159962410471
 40
0.3969620054024754
 40
0.4172409356959583
 40
0.4336818585384818
 40
0.450557759237277
 40
0.4688093837664248
 40
0.4882602329321702
 40
0.5081508296856815
 40
0.5275822374786665
 40
0.5457648873818145
 40
0.5623422113620027
 40
0.5728035313227439
 40
0.5833743038115489
 40
0.5944541565212997
 40
0.6060539967716115
 40
0.6180898016809734
 40
0.6305361690396518
 40
0.6468810422379505
 40
0.6626805087320088
 40
0.6738639981540326
 40
0.6771315561713975
 40
0.6797135379773195
 40
0.6815640023126226
 40
0.6833570288577744
 40
0.6853473932792149
 40
0.6876884219088641
 40
0.6971556898579564
 40
0.7101353297670908
 40
0.7222150975764753
 40
0.7353904046960925
 40
0.756263080481424
 40
0.7766797726797953
 40
0.7952064629034147
 40
0.8118326338476776
 40
0.8322464626946952
 40
0.8519597901528693
 40
0.8718106797358918
 40
0.8921167561800664
 40
0.9128688697148225
 40
0.9339414994402518
 40
0.9552850953648838
 40
0.977103402438652
 40
1.0
 40
1.0
 40
1.0
 40
1.0
 10
873.3164284390057
 20
212.4581379938469
 30
0.0
 10
871.6908766048609
 20
211.5962207481066
 30
0.0
 10
868.5404399987904
 20
209.9257630085582
 30
0.0
 10
863.5020301175355
 20
208.4939812696703
 30
0.0
 10
858.5535837880757
 20
207.9331545057998
 30
0.0
 10
853.7313194611098
 20
208.2399495311856
 30
0.0
 10
849.1129549062422
 20
209.334871140779
 30
0.0
 10
844.7620868761304
 20
211.1573768622981
 30
0.0
 10
840.7430052776076
 20
213.643996614709
 30
0.0
 10
836.7098961751876
 20
217.0819843289051
 30
0.0
 10
832.9234281173993
 20
221.6545715003716
 30
0.0
 10
829.7756931585242
 20
227.4615185120944
 30
0.0
 10
828.0397593279403
 20
233.0605467036689
 30
0.0
 10
827.3185575731549
 20
238.0797916774174
 30
0.0
 10
827.2151592607719
 20
242.3120194116365
 30
0.0
 10
827.666635732891
 20
246.4893492844365
 30
0.0
 10
828.7619436878238
 20
250.4158234167201
 30
0.0
 10
830.5218450561589
 20
253.7042597886645
 30
0.0
 10
832.8988474864107
 20
256.1999258760595
 30
0.0
 10
835.7955732123075
 20
257.8337753415784
 30
0.0
 10
839.2068489199729
 20
258.6254308259057
 30
0.0
 10
842.8824320235663
 20
258.726578997845
 30
0.0
 10
846.5941775963396
 20
258.1829653888611
 30
0.0
 10
850.0842661958023
 20
257.0388962838422
 30
0.0
 10
853.1031217713622
 20
255.3293615558073
 30
0.0
 10
855.1741362440968
 20
253.2594573571855
 30
0.0
 10
856.2463079894931
 20
251.0862953258014
 30
0.0
 10
856.5402763798976
 20
249.0350839257911
 30
0.0
 10
856.2453592375264
 20
246.9204049986903
 30
0.0
 10
855.4208597030726
 20
244.8533328098565
 30
0.0
 10
854.0921033719252
 20
242.9615186251565
 30
0.0
 10
852.1193437779777
 20
241.2309732356786
 30
0.0
 10
849.497751642629
 20
240.0682885164498
 30
0.0
 10
846.8550302110884
 20
239.3238843363126
 30
0.0
 10
844.9932069480917
 20
238.8129487792841
 30
0.0
 10
844.0165129554239
 20
238.342002313973
 30
0.0
 10
843.625916827639
 20
238.0327599260858
 30
0.0
 10
843.4299434812755
 20
237.6761416646181
 30
0.0
 10
843.4067178402286
 20
237.3088595622021
 30
0.0
 10
843.5236750687924
 20
236.931608828978
 30
0.0
 10
843.9848487201588
 20
236.1795728169423
 30
0.0
 10
845.2274213443034
 20
235.1576221237732
 30
0.0
 10
847.1170653768247
 20
234.0533973048898
 30
0.0
 10
849.3313791792322
 20
233.0429617746898
 30
0.0
 10
852.0802825545951
 20
232.0248559673884
 30
0.0
 10
855.4249005897963
 20
231.1128628410066
 30
0.0
 10
859.1931707737274
 20
230.5406410395242
 30
0.0
 10
862.7475643729593
 20
230.6233727471677
 30
0.0
 10
866.1971744798412
 20
231.5050798612682
 30
0.0
 10
869.3674684394585
 20
233.3514416052547
 30
0.0
 10
871.9388997922165
 20
236.2387679612094
 30
0.0
 10
873.6069044774999
 20
239.7037744172127
 30
0.0
 10
874.4012722430039
 20
243.5256338043712
 30
0.0
 10
874.3317070511498
 20
247.5017628043921
 30
0.0
 10
873.3930393849827
 20
251.4395861313108
 30
0.0
 10
871.551715403428
 20
255.1122507987108
 30
0.0
 10
868.8163680746743
 20
258.3882266505771
 30
0.0
 10
866.3608242193299
 20
259.8509677286723
 30
0.0
 10
865.1034448307598
 20
260.5999751139031
 30
0.0
  0
SPLINE
  5
10C
330
1F
100
AcDbEntity
  8
0
  6
Continuous
 62
     7
370
    15
100
AcDbSpline
210
0.0
220
0.0
230
1.0
 70
     8
 71
     3
 72
    19
 73
    15
 74
     0
 42
0.00000001
 43
0.00000001
 40
0.0
 40
0.0
 40
0.0
 40
0.0
 40
0.087478852663838
 40
0.1709775555450805
 40
0.2518608877800917
 40
0.3312260846769825
 40
0.4098802180893772
 40
0.4883522323004282
 40
0.5669294081735045
 40
0.6535811334844118
 40
0.7404038479383384
 40
0.8272141644560913
 40
0.9137989016678787
 40
1.0
 40
1.0
 40
1.0
 40
1.0
 10
865.1034448307598
 20
260.5999751139031
 30
0.0
 10
862.5433669918149
 20
260.9566188168312
 30
0.0
 10
857.5396908166142
 20
261.6536794968733
 30
0.0
 10
850.4724786463113
 20
264.0746306675398
 30
0.0
 10
844.0536169091575
 20
267.3575902763389
 30
0.0
 10
838.3117774355364
 20
271.4860114871221
 30
0.0
 10
833.2613480283937
 20
276.3265059304415
 30
0.0
 10
828.9178357871667
 20
281.7785406644742
 30
0.0
 10
825.174264897549
 20
287.9343770673473
 30
0.0
 10
822.1356316996499
 20
294.74046927807
 30
0.0
 10
819.9098507464271
 20
302.1093985886274
 30
0.0
 10
818.6386904289171
 20
309.6924112035292
 30
0.0
 10
818.2526764446615
 20
317.3702770576837
 30
0.0
 10
818.8362587824857
 20
322.4395646417179
 30
0.0
 10
819.1274020832623
 20
324.9685807276116
 30
0.0
  0
SPLINE
  5
10D
330
1F
100
AcDbEntity
  8
0
  6
Continuous
 62
     7
370
    15
100
AcDbSpline
210
0.0
220
0.0
230
1.0
 70
     8
 71
     3
 72
    33
 73
    29
 74
     0
 42
0.00000001
 43
0.00000001
 40
0.0
 40
0.0
 40
0.0
 40
0.0
 40
0.058460965979385
 40
0.1196783119786928
 40
0.1822288202113329
 40
0.2449144393805672
 40
0.3069381095563516
 40
0.3681429310196461
 40
0.413957515324433
 40
0.4604737018901526
 40
0.5086402470289199
 40
0.5577424812098524
 40
0.5899118545007356
 40
0.6209148823075867
 40
0.6504902011167191
 40
0.6790480626158787
 40
0.7080273418013838
 40
0.7391294824733634
 40
0.7719742575132302
 40
0.8053027099284711
 40
0.8377456405186657
 40
0.8608768356157728
 40
0.8828109451832029
 40
0.9039655624110098
 40
0.9255033697884912
 40
0.9465013514755319
 40
0.970837330446433
 40
1.0
 40
1.0
 40
1.0
 40
1.0
 10
819.1274020832624
 20
324.9685807276117
 30
0.0
 10
818.2739151907316
 20
322.965070682898
 30
0.0
 10
816.5267002947268
 20
318.8635869635179
 30
0.0
 10
813.9387130924247
 20
312.5872380703231
 30
0.0
 10
811.5682468295576
 20
306.0549423635548
 30
0.0
 10
809.6472466173602
 20
299.3403371729749
 30
0.0
 10
808.4228651760408
 20
292.5082682762601
 30
0.0
 10
808.1748358586425
 20
286.1875857159735
 30
0.0
 10
808.8427667289488
 20
280.489273342541
 30
0.0
 10
810.2363099807455
 20
275.4174531352327
 30
0.0
 10
812.5277884910503
 20
270.5578876440698
 30
0.0
 10
814.9048114673875
 20
266.3644732621873
 30
0.0
 10
816.8791860620205
 20
262.6761990908364
 30
0.0
 10
818.3065835422071
 20
259.5246316113895
 30
0.0
 10
819.2948050231081
 20
256.3411495116704
 30
0.0
 10
819.6450261190785
 20
253.0849725026755
 30
0.0
 10
819.1020197277448
 20
249.7823639960106
 30
0.0
 10
817.6176471223539
 20
246.6177788762117
 30
0.0
 10
815.4472765226886
 20
243.6916958295351
 30
0.0
 10
812.7502136388964
 20
241.1686833510741
 30
0.0
 10
809.9343809547834
 20
239.3799119881611
 30
0.0
 10
807.2246504781682
 20
238.33677602421
 30
0.0
 10
804.7656764242772
 20
237.9464834387545
 30
0.0
 10
802.3377165830955
 20
238.2133479351339
 30
0.0
 10
800.1421753112952
 20
239.2270315672878
 30
0.0
 10
798.2939939693
 20
240.9413147023252
 30
0.0
 10
796.774175676484
 20
243.3008686808268
 30
0.0
 10
796.1334968989315
 20
245.1943033246191
 30
0.0
 10
795.7842562359417
 20
246.2264342356072
 30
0.0
  0
SPLINE
  5
10E
330
1F
100
AcDbEntity
  8
0
  6
Continuous
 62
     7
370
    15
100
AcDbSpline
210
0.0
220
0.0
230
1.0
 70
     8
 71
     3
 72
    34
 73
    30
 74
     0
 42
0.00000001
 43
0.00000001
 40
0.0
 40
0.0
 40
0.0
 40
0.0
 40
0.0253982264503336
 40
0.0453701527327301
 40
0.0612029037340218
 40
0.0743888552805968
 40
0.0894742724863864
 40
0.1049490719680649
 40
0.1215787796942714
 40
0.1638449907899995
 40
0.2029915025189327
 40
0.242834160635064
 40
0.294742569328632
 40
0.3457177965650384
 40
0.3945373652338294
 40
0.4400631124643388
 40
0.4815363193579334
 40
0.5204876866602327
 40
0.5594342671974307
 40
0.5912373062653313
 40
0.6250510570786267
 40
0.6617274204207096
 40
0.7022379043658212
 40
0.7477096190625556
 40
0.7877445492122764
 40
0.8322890377543872
 40
0.8820368388952544
 40
0.9376997205435154
 40
1.0
 40
1.0
 40
1.0
 40
1.0
 10
795.7842562359418
 20
246.2264342356073
 30
0.0
 10
795.0231543286428
 20
245.1152398950802
 30
0.0
 10
793.6635590101722
 20
243.1302565324011
 30
0.0
 10
792.2827523022588
 20
240.1778462184702
 30
0.0
 10
791.6632261336025
 20
237.6335402054343
 30
0.0
 10
791.7628040897871
 20
235.2620772254661
 30
0.0
 10
792.6941501268275
 20
233.0815167398718
 30
0.0
 10
794.3569761487279
 20
231.1831277990406
 30
0.0
 10
797.429550431665
 20
228.7114871726379
 30
0.0
 10
801.6969084715283
 20
225.7428423205473
 30
0.0
 10
806.4621318716927
 20
221.417015690211
 30
0.0
 10
811.2652427979268
 20
216.4127312924043
 30
0.0
 10
816.0190683819524
 20
210.5190787330574
 30
0.0
 10
820.4814002292194
 20
203.8236870422076
 30
0.0
 10
824.1122501394713
 20
197.0225226114888
 30
0.0
 10
826.7966517494998
 20
190.3279597689217
 30
0.0
 10
828.3663395327654
 20
183.8160458816065
 30
0.0
 10
828.8975833146807
 20
177.4982607389269
 30
0.0
 10
828.8218573138229
 20
171.6854469984519
 30
0.0
 10
828.5946653281256
 20
166.1523539757931
 30
0.0
 10
828.4437570401963
 20
160.7358554245467
 30
0.0
 10
828.5356092398301
 20
154.8545625716445
 30
0.0
 10
829.054403422638
 20
148.3733525676075
 30
0.0
 10
830.0862502968562
 20
141.7721978733095
 30
0.0
 10
831.6147120876982
 20
135.0518445220468
 30
0.0
 10
833.601523008153
 20
128.2159443557713
 30
0.0
 10
836.247944437937
 20
120.7240294034319
 30
0.0
 10
839.6144771211101
 20
112.4986751972808
 30
0.0
 10
842.3093204429795
 20
106.8606965054123
 30
0.0
 10
843.7325570744122
 20
103.8830919313775
 30
0.0
  0
SPLINE
  5
10F
330
1F
100
AcDbEntity
  8
0
  6
Continuous
 62
     7
370
    15
100
AcDbSpline
210
0.0
220
0.0
230
1.0
 70
     8
 71
     3
 72
    19
 73
    15
 74
     0
 42
0.00000001
 43
0.00000001
 40
0.0
 40
0.0
 40
0.0
 40
0.0
 40
0.0902663756118077
 40
0.1888034019380084
 40
0.2925539306586899
 40
0.3982863604549827
 40
0.5030205652523553
 40
0.5878977514369831
 40
0.6698642886351985
 40
0.7493267911619365
 40
0.8084040344701361
 40
0.8685258675460635
 40
0.9316291645816062
 40
1.0
 40
1.0
 40
1.0
 40
1.0
 10
835.3460047405804
 20
328.1544489908562
 30
0.0
 10
835.192098450738
 20
326.4688678276614
 30
0.0
 10
834.8701842173928
 20
322.9432642383206
 30
0.0
 10
835.4572214171669
 20
317.4698102648949
 30
0.0
 10
836.7116191072448
 20
311.8355306537168
 30
0.0
 10
838.7173807582378
 20
306.2893781305107
 30
0.0
 10
841.2806771609888
 20
301.3711887239579
 30
0.0
 10
844.2712920946527
 20
297.2408335161153
 30
0.0
 10
847.5479468769071
 20
293.9664428351816
 30
0.0
 10
851.0051333145218
 20
291.654017480335
 30
0.0
 10
854.4711558047139
 20
290.2503773479165
 30
0.0
 10
857.8399044691462
 20
289.6050784921084
 30
0.0
 10
861.4579840574763
 20
289.6058705983556
 30
0.0
 10
863.8562620710036
 20
290.1862907745909
 30
0.0
 10
865.1034448307598
 20
290.488128190075
 30
0.0
  0
SPLINE
  5
110
330
1F
100
AcDbEntity
  8
0
  6
Continuous
 62
     7
370
    15
100
AcDbSpline
210
0.0
220
0.0
230
1.0
 70
     8
 71
     3
 72
    14
 73
    10
 74
     0
 42
0.00000001
 43
0.00000001
 40
0.0
 40
0.0
 40
0.0
 40
0.0
 40
0.1503314689314556
 40
0.2907445644127657
 40
0.4247395280392955
 40
0.5563292189606235
 40
0.6961986861444787
 40
0.8427321820497825
 40
0.9999999999999999
 40
0.9999999999999999
 40
0.9999999999999999
 40
0.9999999999999999
 10
865.1034448307598
 20
290.488128190075
 30
0.0
 10
864.7657450978171
 20
293.0293693161337
 30
0.0
 10
864.1126259441583
 20
297.9441888779685
 30
0.0
 10
861.8713426727883
 20
304.8626055678639
 30
0.0
 10
858.7053491458161
 20
311.0410428446848
 30
0.0
 10
854.4722063054516
 20
316.5460184308535
 30
0.0
 10
849.1325961243651
 20
321.3034467298034
 30
0.0
 10
842.6849258021697
 20
325.3292350224155
 30
0.0
 10
837.849265145251
 20
327.1907860487742
 30
0.0
 10
835.3460047405805
 20
328.1544489908563
 30
0.0
  0
SPLINE
  5
111
330
1F
100
AcDbEntity
  8
0
  6
Continuous
 62
     7
370
    15
100
AcDbSpline
210
0.0
220
0.0
230
1.0
 70
     8
 71
     3
 72
    14
 73
    10
 74
     0
 42
0.00000001
 43
0.00000001
 40
0.0
 40
0.0
 40
0.0
 40
0.0
 40
0.1503912014302044
 40
0.2908491204457085
 40
0.4248666052408652
 40
0.556458026503496
 40
0.6963050028580663
 40
0.842794587788541
 40
1.0
 40
1.0
 40
1.0
 40
1.0
 10
938.663503901347
 20
328.1544489908562
 30
0.0
 10
936.2686728661097
 20
327.2368851595911
 30
0.0
 10
931.6371884867643
 20
325.4623622437663
 30
0.0
 10
925.423848933485
 20
321.6790971609457
 30
0.0
 10
920.1450163930155
 20
317.1683762360294
 30
0.0
 10
915.7689594460752
 20
311.7762731157742
 30
0.0
 10
912.376951966332
 20
305.4815619151137
 30
0.0
 10
909.9539878644784
 20
298.2790543032009
 30
0.0
 10
909.2634931590786
 20
293.1454826342621
 30
0.0
 10
908.9060638111675
 20
290.488128190075
 30
0.0
  0
SPLINE
  5
112
330
1F
100
AcDbEntity
  8
0
  6
Continuous
 62
     7
370
    15
100
AcDbSpline
210
0.0
220
0.0
230
1.0
 70
     8
 71
     3
 72
    19
 73
    15
 74
     0
 42
0.00000001
 43
0.00000001
 40
0.0
 40
0.0
 40
0.0
 40
0.0
 40
0.0683708623584079
 40
0.1314741842584076
 40
0.1915960410240124
 40
0.2506723222279841
 40
0.3301357427646229
 40
0.4121030686352263
 40
0.4969790340060959
 40
0.6017132800716631
 40
0.7074461134918328
 40
0.8111966830931132
 40
0.9097336519979387
 40
1.0
 40
1.0
 40
1.0
 40
1.0
 10
908.9060638111675
 20
290.488128190075
 30
0.0
 10
910.1532466727791
 20
290.1862905135364
 30
0.0
 10
912.5515248821703
 20
289.6058698353049
 30
0.0
 10
916.169603109322
 20
289.6050812177436
 30
0.0
 10
919.5383383886972
 20
290.2503642224252
 30
0.0
 10
923.0043412933287
 20
291.6540479961841
 30
0.0
 10
926.4615515090848
 20
293.9664425891272
 30
0.0
 10
929.7382862850933
 20
297.2407782315074
 30
0.0
 10
932.7287488058649
 20
301.3712361174157
 30
0.0
 10
935.2920650586033
 20
306.2893828829869
 30
0.0
 10
937.2978960550905
 20
311.8355198978899
 30
0.0
 10
938.5523107726796
 20
317.4698078954618
 30
0.0
 10
939.1392299827783
 20
322.9432651964123
 30
0.0
 10
938.8173796586216
 20
326.4688679727782
 30
0.0
 10
938.6635039013472
 20
328.1544489908563
 30
0.0
  0
SPLINE
  5
113
330
1F
100
AcDbEntity
  8
0
  6
Continuous
 62
     7
370
    15
100
AcDbSpline
210
0.0
220
0.0
230
1.0
 70
     8
 71
     3
 72
    19
 73
    15
 74
     0
 42
0.00000001
 43
0.00000001
 40
0.0
 40
0.0
 40
0.0
 40
0.0
 40
0.0914304166064416
 40
0.1832844331399426
 40
0.2753642539211761
 40
0.3674151305790788
 40
0.4592412474554027
 40
0.5508203061924871
 40
0.6227900147595691
 40
0.6950705568950741
 40
0.7681444269932357
 40
0.8427001388066405
 40
0.9196266277463441
 40
1.0
 40
1.0
 40
1.0
 40
1.0
 10
954.8820469540203
 20
324.9685807276116
 30
0.0
 10
955.1845477932274
 20
322.2849609240444
 30
0.0
 10
955.7909509673156
 20
316.9052880239728
 30
0.0
 10
955.2836693127814
 20
308.7624807282571
 30
0.0
 10
953.7843566554673
 20
300.7448492869303
 30
0.0
 10
951.2160162273557
 20
292.9948189088035
 30
0.0
 10
947.6336614706728
 20
285.6762851167137
 30
0.0
 10
943.3780274962432
 20
279.4284522104723
 30
0.0
 10
938.7123265842338
 20
274.2485481456634
 30
0.0
 10
933.846980437682
 20
270.0502813255084
 30
0.0
 10
928.4073110668335
 20
266.4807446921069
 30
0.0
 10
922.4047439572826
 20
263.6441646915808
 30
0.0
 10
915.8626440229308
 20
261.5448861528351
 30
0.0
 10
911.2585534157537
 20
260.919513353768
 30
0.0
 10
908.9060638111675
 20
260.5999751139031
 30
0.0
  0
SPLINE
  5
114
330
1F
100
AcDbEntity
  8
0
  6
Continuous
 62
     7
370
    15
100
AcDbSpline
210
0.0
220
0.0
230
1.0
 70
     8
 71
     3
 72
    64
 73
    60
 74
     0
 42
0.00000001
 43
0.00000001
 40
0.0
 40
0.0
 40
0.0
 40
0.0
 40
0.0228958488931873
 40
0.0447134425565119
 40
0.0660563405927061
 40
0.0871282812896938
 40
0.1078797162761797
 40
0.1281851287565115
 40
0.1480353692592962
 40
0.1677480521352101
 40
0.1881612134951195
 40
0.2047868408003203
 40
0.2233126126612789
 40
0.243728947029808
 40
0.26460094032475
 40
0.2811982679376382
 40
0.2957919893721018
 40
0.305183703899959
 40
0.3123144081820488
 40
0.3146553602652332
 40
0.3166457444192516
 40
0.3184387123363963
 40
0.3202891161656032
 40
0.3231041198361606
 40
0.3267231217083542
 40
0.3311271316122121
 40
0.343857458707184
 40
0.3566649866111639
 40
0.3694844830852282
 40
0.3819306792509696
 40
0.3939659109365644
 40
0.4055653718977245
 40
0.4166448623207677
 40
0.4272152891686636
 40
0.4376762670673516
 40
0.4542530490056656
 40
0.4724348346194369
 40
0.4918659036760785
 40
0.5117558500510151
 40
0.5312060632169605
 40
0.5494573943776804
 40
0.5663321997466408
 40
0.582772802653472
 40
0.6030509184100294
 40
0.6243962296041125
 40
0.6465817443716311
 40
0.6689644432547327
 40
0.6908717146804995
 40
0.7262479099496574
 40
0.7606066297506562
 40
0.794220696988134
 40
0.8190851746054574
 40
0.8437424844858673
 40
0.8683246250337999
 40
0.8930269269800546
 40
0.9181256961183422
 40
0.9439946719894138
 40
0.9711025565491294
 40
1.0
 40
1.0
 40
1.0
 40
1.0
 10
908.9060638111675
 20
260.5999751139031
 30
0.0
 10
907.6486844225861
 20
259.8509677286804
 30
0.0
 10
905.1931405672191
 20
258.3882266506013
 30
0.0
 10
902.4577932386284
 20
255.1122507986202
 30
0.0
 10
900.616469256473
 20
251.4395861316421
 30
0.0
 10
899.677801592503
 20
247.50176280318
 30
0.0
 10
899.6082363926483
 20
243.5256338087797
 30
0.0
 10
900.402604187085
 20
239.7037744012961
 30
0.0
 10
902.0706087674386
 20
236.2387680190054
 30
0.0
 10
904.6420405119661
 20
233.3514413878343
 30
0.0
 10
907.812333055397
 20
231.5050806387117
 30
0.0
 10
911.2619283025714
 20
230.6233752910452
 30
0.0
 10
914.8163021306099
 20
230.5406495909923
 30
0.0
 10
918.5846527669871
 20
231.1128371547515
 30
0.0
 10
922.1391811841908
 20
232.0822313623666
 30
0.0
 10
925.2332140864979
 20
233.2590083823142
 30
0.0
 10
927.5527402526654
 20
234.4021217945631
 30
0.0
 10
929.205754417493
 20
235.486145959087
 30
0.0
 10
930.1037106805815
 20
236.3064504310652
 30
0.0
 10
930.4857012705052
 20
236.9316732950176
 30
0.0
 10
930.6028868997772
 20
237.308838877069
 30
0.0
 10
930.5796333526918
 20
237.6761409562547
 30
0.0
 10
930.3762252485061
 20
238.0461356759249
 30
0.0
 10
929.9482899303118
 20
238.371217087866
 30
0.0
 10
929.322491781606
 20
238.6601190281002
 30
0.0
 10
928.0739444269223
 20
239.0881277613024
 30
0.0
 10
926.2335855757916
 20
239.5698441501847
 30
0.0
 10
923.9104936117066
 20
240.310485963757
 30
0.0
 10
921.7195802911859
 20
241.3806901872582
 30
0.0
 10
919.9174053073657
 20
242.9614059061269
 30
0.0
 10
918.5886431885858
 20
244.8533736116812
 30
0.0
 10
917.7641497885037
 20
246.920397420454
 30
0.0
 10
917.4692321247834
 20
249.0350858913627
 30
0.0
 10
917.7632008341616
 20
251.086294549264
 30
0.0
 10
918.835371659013
 20
253.2594589322887
 30
0.0
 10
920.9063792523158
 20
255.329340285264
 30
0.0
 10
923.9252075851455
 20
257.0389278704534
 30
0.0
 10
927.4153162443711
 20
258.1829504281575
 30
0.0
 10
931.1270773598674
 20
258.7265861907291
 30
0.0
 10
934.8026725913313
 20
258.6254144807729
 30
0.0
 10
938.2139620023163
 20
257.833823685394
 30
0.0
 10
941.1106145002669
 20
256.199863802968
 30
0.0
 10
943.4876770530058
 20
253.7043047276833
 30
0.0
 10
945.247499177827
 20
250.4157998781426
 30
0.0
 10
946.3427668542038
 20
246.4893449775275
 30
0.0
 10
946.7944995859426
 20
242.3120250755614
 30
0.0
 10
946.6908184793025
 20
238.0797983085964
 30
0.0
 10
945.9698082382876
 20
233.0605387952017
 30
0.0
 10
944.2337969422347
 20
227.4615201828191
 30
0.0
 10
941.0860854499065
 20
221.6545708351522
 30
0.0
 10
937.2996112397293
 20
217.0819852111912
 30
0.0
 10
933.2665044022109
 20
213.6439944590224
 30
0.0
 10
929.2474342817686
 20
211.1573945241784
 30
0.0
 10
924.8965819679046
 20
209.3348468324778
 30
0.0
 10
920.2782062309503
 20
208.2399591251996
 30
0.0
 10
915.4559255075162
 20
207.9331521782892
 30
0.0
 10
910.5074783387913
 20
208.4939819305414
 30
0.0
 10
905.4690686940913
 20
209.9257628271245
 30
0.0
 10
902.3186320544091
 20
211.596220686354
 30
0.0
 10
900.6930802029217
 20
212.4581379938469
 30
0.0
  0
SPLINE
  5
115
330
1F
100
AcDbEntity
  8
0
  6
Continuous
 62
     7
370
    15
100
AcDbSpline
210
0.0
220
0.0
230
1.0
 70
     8
 71
     3
 72
    23
 73
    19
 74
     0
 42
0.00000001
 43
0.00000001
 40
0.0
 40
0.0
 40
0.0
 40
0.0
 40
0.0559183244487714
 40
0.1086879203864424
 40
0.1595920951491662
 40
0.2096806057995795
 40
0.2597235074391701
 40
0.3102100318078562
 40
0.3909399022147734
 40
0.4733491745636761
 40
0.5567629975965073
 40
0.6206921158713556
 40
0.6842698785403177
 40
0.7472561292645714
 40
0.8096718034536621
 40
0.8719162682857013
 40
0.9348794987776727
 40
0.9999999999999999
 40
0.9999999999999999
 40
0.9999999999999999
 40
0.9999999999999999
 10
900.6930802029217
 20
212.4581379938469
 30
0.0
 10
900.082593437292
 20
210.3853958966585
 30
0.0
 10
898.895996062749
 20
206.3566266110691
 30
0.0
 10
898.1964496205471
 20
200.2103585490125
 30
0.0
 10
898.2812205331085
 20
194.2653892085617
 30
0.0
 10
899.1092897481617
 20
188.482602075983
 30
0.0
 10
900.5575851900521
 20
182.8455266982533
 30
0.0
 10
902.9097775117893
 20
176.2518875560715
 30
0.0
 10
906.3876174820563
 20
168.7663378878746
 30
0.0
 10
910.9640516416704
 20
160.4251398342197
 30
0.0
 10
915.4264261121687
 20
152.7665786810628
 30
0.0
 10
919.4424464819874
 20
145.688901734544
 30
0.0
 10
922.8596638981376
 20
139.1796911192227
 30
0.0
 10
925.8788465540493
 20
132.5378911268976
 30
0.0
 10
928.3351196986266
 20
125.7144543167541
 30
0.0
 10
930.023826041347
 20
118.6638894474558
 30
0.0
 10
930.8600308141545
 20
111.3291853310574
 30
0.0
 10
930.4735210039171
 20
106.3928368110069
 30
0.0
 10
930.27701117216
 20
103.8830919313775
 30
0.0
  0
SPLINE
  5
116
330
1F
100
AcDbEntity
  8
0
  6
Continuous
 62
     7
370
    15
100
AcDbSpline
210
0.0
220
0.0
230
1.0
 70
     8
 71
     3
 72
    35
 73
    31
 74
     0
 42
0.00000001
 43
0.00000001
 40
0.0
 40
0.0
 40
0.0
 40
0.0
 40
0.0569236518397396
 40
0.1083074925936795
 40
0.1546945978881118
 40
0.1966225435346186
 40
0.234617574046097
 40
0.2691893747593579
 40
0.3008229373416234
 40
0.3403434312916148
 40
0.3762191582433785
 40
0.4093651843016985
 40
0.4405859521271102
 40
0.4795333408617284
 40
0.5184854825951704
 40
0.5599595509118324
 40
0.6054862437390718
 40
0.6543070021213304
 40
0.7052834956927054
 40
0.757192510972369
 40
0.8077948673019517
 40
0.8570545779735599
 40
0.8757227618059251
 40
0.8933782165844822
 40
0.9097455417527104
 40
0.9256097479109888
 40
0.9387959314391007
 40
0.9546290112960067
 40
0.9746010435530758
 40
1.0
 40
1.0
 40
1.0
 40
1.0
 10
930.27701117216
 20
103.8830919313775
 30
0.0
 10
931.5799423472847
 20
106.6023414108199
 30
0.0
 10
934.0590034060726
 20
111.7762029488013
 30
0.0
 10
937.2131371734625
 20
119.3418675236054
 30
0.0
 10
939.7599125023471
 20
126.2912542534324
 30
0.0
 10
941.7429289213229
 20
132.6836384821038
 30
0.0
 10
943.2313996945413
 20
138.5651505314781
 30
0.0
 10
944.289694865769
 20
143.9844584316934
 30
0.0
 10
945.0582289130406
 20
149.5336934827351
 30
0.0
 10
945.4861283040619
 20
155.1908862870571
 30
0.0
 10
945.5618210514202
 20
160.9417458838885
 30
0.0
 10
945.4104794778176
 20
166.2494036984481
 30
0.0
 10
945.1871430665676
 20
171.7163326966111
 30
0.0
 10
945.111977203223
 20
177.4982566674361
 30
0.0
 10
945.6430752867452
 20
183.8160536115178
 30
0.0
 10
947.2128193872423
 20
190.3279424784971
 30
0.0
 10
949.8971463915299
 20
197.0226025755816
 30
0.0
 10
953.528281527478
 20
203.8234215943977
 30
0.0
 10
957.9898276727247
 20
210.5200928043477
 30
0.0
 10
963.1051213644407
 20
216.8530019375069
 30
0.0
 10
968.7224901365071
 20
222.6191174214064
 30
0.0
 10
973.5542959506907
 20
226.6504266617333
 30
0.0
 10
977.2569229785258
 20
229.2651826985036
 30
0.0
 10
979.4510095496311
 20
230.9943135430643
 30
0.0
 10
981.2522439697639
 20
232.9612905562692
 30
0.0
 10
982.2454900598395
 20
235.2202144578057
 30
0.0
 10
982.3460462303947
 20
237.6335476117455
 30
0.0
 10
981.7267398736778
 20
240.1778163355951
 30
0.0
 10
980.3460259661397
 20
243.1303065646352
 30
0.0
 10
978.9863867430729
 20
245.1152505021534
 30
0.0
 10
978.2252524059857
 20
246.2264342356072
 30
0.0
  0
SPLINE
  5
117
330
1F
100
AcDbEntity
  8
0
  6
Continuous
 62
     7
370
    15
100
AcDbSpline
210
0.0
220
0.0
230
1.0
 70
     8
 71
     3
 72
    33
 73
    29
 74
     0
 42
0.00000001
 43
0.00000001
 40
0.0
 40
0.0
 40
0.0
 40
0.0
 40
0.0291628690400304
 40
0.0534988530997757
 40
0.07449644336513
 40
0.0960347397523816
 40
0.1171888318424131
 40
0.1391234736763743
 40
0.162254673610396
 40
0.1946971585160036
 40
0.2280256179004854
 40
0.2608703998084527
 40
0.2919725469841341
 40
0.3209518322294341
 40
0.3495097497997857
 40
0.3790847715988176
 40
0.4100878058886453
 40
0.4422571859063971
 40
0.4913594303549922
 40
0.539526204873628
 40
0.5860424011662475
 40
0.6318569314665391
 40
0.6930617657282422
 40
0.7550853581603526
 40
0.8177711343722862
 40
0.8803216556847286
 40
0.9415388136912566
 40
1.0
 40
1.0
 40
1.0
 40
1.0
 10
978.2252524059857
 20
246.2264342356072
 30
0.0
 10
977.8759885574474
 20
245.1943035298293
 30
0.0
 10
977.2352691789682
 20
243.3008749740732
 30
0.0
 10
975.7154543971184
 20
240.9413398574717
 30
0.0
 10
973.8673191837431
 20
239.2269946526522
 30
0.0
 10
971.6717619031447
 20
238.2133709023374
 30
0.0
 10
969.243795359901
 20
237.9464804782745
 30
0.0
 10
966.7848171628924
 20
238.3367709274698
 30
0.0
 10
964.0750796349649
 20
239.3798982160196
 30
0.0
 10
961.2592883181015
 20
241.1687047354287
 30
0.0
 10
958.5622313011643
 20
243.6916930974992
 30
0.0
 10
956.391859207923
 20
246.6177799628929
 30
0.0
 10
954.9074980566058
 20
249.7823623679739
 30
0.0
 10
954.3644505111088
 20
253.0849794561722
 30
0.0
 10
954.7148215993105
 20
256.3411230625896
 30
0.0
 10
955.7028211192335
 20
259.5246551580124
 30
0.0
 10
957.130276169149
 20
262.6761956493872
 30
0.0
 10
959.1046345197489
 20
266.3644734685199
 30
0.0
 10
961.481648898155
 20
270.5579026556906
 30
0.0
 10
963.7732075511631
 20
275.4174383789675
 30
0.0
 10
965.1667569248074
 20
280.4892702400729
 30
0.0
 10
965.8345904762494
 20
286.1875918290088
 30
0.0
 10
965.5865666102185
 20
292.5082591190655
 30
0.0
 10
964.3622977376389
 20
299.3403545885142
 30
0.0
 10
962.4411846722917
 20
306.0549330793442
 30
0.0
 10
960.0707223437815
 20
312.5872234613882
 30
0.0
 10
957.4828316031146
 20
318.8636133234679
 30
0.0
 10
955.7355630455193
 20
322.9650746244338
 30
0.0
 10
954.8820469540203
 20
324.9685807276116
 30
0.0
  0
LINE
  5
118
330
1F
100
AcDbEntity
  8
0
  6
Continuous
 62
     7
370
    15
100
AcDbLine
 10
1000.8832428616
 20
312.9853649187
 30
0.0
 11
1000.8832428616
 21
359.4160718966
 31
0.0
  0
LINE
  5
119
330
1F
100
AcDbEntity
  8
0
  6
Continuous
 62
     7
370
    15
100
AcDbLine
 10
1000.8832428616
 20
359.4160718966
 30
0.0
 11
968.5100529355
 21
359.4160718966
 31
0.0
  0
SPLINE
  5
11A
330
1F
100
AcDbEntity
  8
0
  6
Continuous
 62
     7
370
    15
100
AcDbSpline
210
0.0
220
0.0
230
1.0
 70
     8
 71
     3
 72
    39
 73
    35
 74
     0
 42
0.00000001
 43
0.00000001
 40
0.0
 40
0.0
 40
0.0
 40
0.0
 40
0.0361535829987712
 40
0.0643212958893166
 40
0.0876436991941196
 40
0.1094714802757569
 40
0.1384974851694404
 40
0.1708420244080908
 40
0.2059230527387859
 40
0.242052680188418
 40
0.2786784828954615
 40
0.3114372742128255
 40
0.3377917879882965
 40
0.3492339465993665
 40
0.3582273044990525
 40
0.363469486332861
 40
0.368945342875084
 40
0.3753379148872427
 40
0.4014327019732348
 40
0.4362425621807688
 40
0.4667141094919171
 40
0.4974542923808034
 40
0.5408912061005634
 40
0.5813662640100582
 40
0.6215097991849288
 40
0.6626607404025997
 40
0.705035859719304
 40
0.7481653060333887
 40
0.7912726614892912
 40
0.8336020302659924
 40
0.8747329535951254
 40
0.9149782191610456
 40
0.9558019152469773
 40
1.0
 40
1.0
 40
1.0
 40
1.0
 10
968.5100529354656
 20
359.4160718965874
 30
0.0
 10
967.9909868256235
 20
358.5449440534246
 30
0.0
 10
967.0675097572955
 20
356.9951095111776
 30
0.0
 10
966.4244740844606
 20
354.5890479211867
 30
0.0
 10
966.5860899723598
 20
352.497904258845
 30
0.0
 10
967.5553186310539
 20
350.611206804947
 30
0.0
 10
969.3155859308989
 20
349.0282379244625
 30
0.0
 10
971.7010557422526
 20
347.7465615528737
 30
0.0
 10
974.4178904768797
 20
346.7324253931291
 30
0.0
 10
977.3141724664026
 20
345.8939295722548
 30
0.0
 10
980.1736597555957
 20
345.1671443312812
 30
0.0
 10
982.7561149654699
 20
344.4755813570844
 30
0.0
 10
984.6315883044018
 20
343.8306356108647
 30
0.0
 10
985.7692758939388
 20
343.1777361352121
 30
0.0
 10
986.2893069566863
 20
342.6520519567565
 30
0.0
 10
986.4695285412475
 20
342.1145129078226
 30
0.0
 10
986.4142926652196
 20
341.6272464034572
 30
0.0
 10
985.9792118649327
 20
340.6500327214084
 30
0.0
 10
984.6590381793125
 20
339.2596639067305
 30
0.0
 10
982.7840248853154
 20
337.5465087193213
 30
0.0
 10
980.817393491083
 20
335.713261738823
 30
0.0
 10
978.8109119495473
 20
333.582947379251
 30
0.0
 10
977.06860186888
 20
330.8319581919404
 30
0.0
 10
976.2793023379604
 20
327.3913846400002
 30
0.0
 10
976.5214242655308
 20
323.9550460908515
 30
0.0
 10
977.6200230070177
 20
320.6455597488905
 30
0.0
 10
979.4185701091965
 20
317.5703076640214
 30
0.0
 10
981.7855681646927
 20
314.8389178356611
 30
0.0
 10
984.5968678348694
 20
312.5687139075741
 30
0.0
 10
987.7330387578879
 20
310.8845048713092
 30
0.0
 10
991.0873405156891
 20
309.9143409328451
 30
0.0
 10
994.5364278661297
 20
309.8296939512846
 30
0.0
 10
998.0010026494069
 20
310.7559367270088
 30
0.0
 10
999.8974076218528
 20
312.2228160976493
 30
0.0
 10
1000.883242861613
 20
312.9853649187432
 30
0.0
  0
LINE
  5
11B
330
1F
100
AcDbEntity
  8
0
  6
Continuous
 62
     7
370
    15
100
AcDbLine
 10
1000.8832428616
 20
15.8815426875
 30
0.0
 11
1000.8832428616
 21
103.8830919314
 31
0.0
  0
SPLINE
  5
11C
330
1F
100
AcDbEntity
  8
0
  6
Continuous
 62
     7
370
    15
100
AcDbSpline
210
0.0
220
0.0
230
1.0
 70
     8
 71
     3
 72
    20
 73
    16
 74
     0
 42
0.00000001
 43
0.00000001
 40
0.0
 40
0.0
 40
0.0
 40
0.0
 40
0.0738113216174251
 40
0.1413586811856933
 40
0.2048274506481407
 40
0.2660430080774576
 40
0.3463311939027878
 40
0.4267904933515257
 40
0.5079462415816468
 40
0.5895209725767526
 40
0.6709396660239975
 40
0.7517997154736069
 40
0.8323797785598136
 40
0.9141243128432258
 40
1.0
 40
1.0
 40
1.0
 40
1.0
 10
1000.883242861613
 20
103.8830919313775
 30
0.0
 10
1000.324115082289
 20
102.6425391162901
 30
0.0
 10
999.2533096317499
 20
100.2667123997482
 30
0.0
 10
996.9173421574754
 20
97.26987854185465
 30
0.0
 10
994.236491232923
 20
94.93686070394347
 30
0.0
 10
990.9314273398929
 20
93.077569784071
 30
0.0
 10
986.9827989701611
 20
91.89796440255793
 30
0.0
 10
982.510337892342
 20
91.62734005097172
 30
0.0
 10
978.0590222528683
 20
92.28070008315892
 30
0.0
 10
973.8009225380567
 20
93.7818512724976
 30
0.0
 10
969.9116827635119
 20
96.06391824438676
 30
0.0
 10
966.5627758800784
 20
99.0699423589122
 30
0.0
 10
963.9712206365182
 20
102.7493079464173
 30
0.0
 10
962.2444390183825
 20
107.0553690343724
 30
0.0
 10
962.1021419589869
 20
110.1520212579801
 30
0.0
 10
962.0292399090374
 20
111.7385072756157
 30
0.0
  0
SPLINE
  5
11D
330
1F
100
AcDbEntity
  8
0
  6
Continuous
 62
     7
370
    15
100
AcDbSpline
210
0.0
220
0.0
230
1.0
 70
     8
 71
     3
 72
    32
 73
    28
 74
     0
 42
0.00000001
 43
0.00000001
 40
0.0
 40
0.0
 40
0.0
 40
0.0
 40
0.0505588681911838
 40
0.0953299681569397
 40
0.1347998713790509
 40
0.1694945503306527
 40
0.1999977392305289
 40
0.2346738701254993
 40
0.2649139339553729
 40
0.2924922687772837
 40
0.3229627814692501
 40
0.354122738925386
 40
0.3870868754341717
 40
0.4222285939470745
 40
0.4594264540296468
 40
0.5367536034484992
 40
0.6160142523859968
 40
0.6603464134750385
 40
0.7036112504824446
 40
0.7459215073030893
 40
0.7881165369228836
 40
0.8170322875387147
 40
0.8473688340689092
 40
0.8799564062717844
 40
0.9156781529079553
 40
0.9554128015124055
 40
1.0
 40
1.0
 40
1.0
 40
1.0
 10
962.0292399090374
 20
111.7385072756157
 30
0.0
 10
960.2011767162065
 20
110.106939101098
 30
0.0
 10
956.7543193755233
 20
107.030577867407
 30
0.0
 10
952.176221477471
 20
102.3648271640089
 30
0.0
 10
948.4076662513704
 20
97.99900083802504
 30
0.0
 10
945.4162899016186
 20
93.8945083198236
 30
0.0
 10
942.9652248584947
 20
89.71239564303279
 30
0.0
 10
941.1856209107291
 20
85.41849235732302
 30
0.0
 10
940.3129850859914
 20
80.98706007021572
 30
0.0
 10
940.4654310046191
 20
76.67266384917937
 30
0.0
 10
941.6999754208532
 20
72.48095644019226
 30
0.0
 10
943.9816007130796
 20
68.47067291834674
 30
0.0
 10
947.0484803394544
 20
64.74477064696038
 30
0.0
 10
950.7378503543534
 20
61.20954376312338
 30
0.0
 10
956.3434667067471
 20
56.60209854849118
 30
0.0
 10
963.9548912247949
 20
51.10242969625611
 30
0.0
 10
971.747131933907
 20
45.2541291596783
 30
0.0
 10
977.7659706305758
 20
39.84239011790613
 30
0.0
 10
982.007279152368
 20
35.17091826328456
 30
0.0
 10
985.4877880815226
 20
30.01779972106622
 30
0.0
 10
987.6718009016569
 20
24.92925752059494
 30
0.0
 10
988.756597194301
 20
20.11678526120164
 30
0.0
 10
989.0645416376808
 20
15.6602356329123
 30
0.0
 10
988.6795305909884
 20
10.87877666490855
 30
0.0
 10
987.5325339185652
 20
5.757254019002844
 30
0.0
 10
985.5993724301445
 20
0.2535163330882328
 30
0.0
 10
983.7598467888216
 20
-3.398469788505776
 30
0.0
 10
982.787153498515
 20
-5.329545016254378
 30
0.0
  0
SPLINE
  5
11E
330
1F
100
AcDbEntity
  8
0
  6
Continuous
 62
     7
370
    15
100
AcDbSpline
210
0.0
220
0.0
230
1.0
 70
     8
 71
     3
 72
    18
 73
    14
 74
     0
 42
0.00000001
 43
0.00000001
 40
0.0
 40
0.0
 40
0.0
 40
0.0
 40
0.1122439552099969
 40
0.2044220687274436
 40
0.2792470349365606
 40
0.3406643637436219
 40
0.3944874327040939
 40
0.4480232859090701
 40
0.5157398353078361
 40
0.5973220077500327
 40
0.6956736403484317
 40
0.8348379721948909
 40
1.0
 40
1.0
 40
1.0
 40
1.0
 10
982.787153498515
 20
-5.329545016254378
 30
0.0
 10
984.1265209302373
 20
-5.735737087224302
 30
0.0
 10
986.5658171993911
 20
-6.475506309477796
 30
0.0
 10
989.9891018033186
 20
-7.146225606705636
 30
0.0
 10
992.8434410208434
 20
-7.317251031862537
 30
0.0
 10
995.2114961421236
 20
-6.947185300822944
 30
0.0
 10
997.1233558327644
 20
-5.969344365115647
 30
0.0
 10
998.6084075715484
 20
-4.313372548886751
 30
0.0
 10
999.6442950162901
 20
-1.974519873022995
 30
0.0
 10
1000.309331536166
 20
1.049978688323572
 30
0.0
 10
1000.712793087255
 20
5.011509722341878
 30
0.0
 10
1000.876237244972
 20
10.02986510632942
 30
0.0
 10
1000.880778345171
 20
13.82297220694251
 30
0.0
 10
1000.883242861613
 20
15.88154268745046
 30
0.0
  0
SPLINE
  5
11F
330
1F
100
AcDbEntity
  8
0
  6
Continuous
 62
     7
370
    15
100
AcDbSpline
210
0.0
220
0.0
230
1.0
 70
     8
 71
     3
 72
    24
 73
    20
 74
     0
 42
0.00000001
 43
0.00000001
 40
0.0
 40
0.0
 40
0.0
 40
0.0
 40
0.0707186774373609
 40
0.1334135741791236
 40
0.1895673125719171
 40
0.2406573595105884
 40
0.2880992900773949
 40
0.3331710995759549
 40
0.4016989043969599
 40
0.470049805711178
 40
0.5397069952716049
 40
0.5929396495618785
 40
0.6473148456787541
 40
0.7036149448017311
 40
0.7632991362316136
 40
0.8139720664480372
 40
0.8693522514786538
 40
0.9308673847849191
 40
1.0
 40
1.0
 40
1.0
 40
1.0
 10
968.5100529354656
 20
-33.09195804115672
 30
0.0
 10
966.6779772919846
 20
-31.51471864921562
 30
0.0
 10
963.2216943322275
 20
-28.53919432890628
 30
0.0
 10
958.7716538795191
 20
-23.81665612806794
 30
0.0
 10
955.1968930448661
 20
-19.23003442144605
 30
0.0
 10
952.414241417243
 20
-14.72391912319027
 30
0.0
 10
950.3117091394672
 20
-10.28004477751887
 30
0.0
 10
948.5006069038185
 20
-5.074780768293041
 30
0.0
 10
947.1779413299934
 20
1.017673229965488
 30
0.0
 10
946.3665753023515
 20
8.030935509213965
 30
0.0
 10
945.8145739041939
 20
14.54116459458488
 30
0.0
 10
945.0455687945371
 20
20.55161508208614
 30
0.0
 10
943.9062184087443
 20
26.04318378258652
 30
0.0
 10
942.0733328578619
 20
31.58478180503255
 30
0.0
 10
939.5183150965688
 20
36.69851908224997
 30
0.0
 10
936.3024061297781
 20
41.37672946597737
 30
0.0
 10
932.4933490294885
 20
45.66684964493961
 30
0.0
 10
927.7661341635629
 20
49.94088226615823
 30
0.0
 10
924.1015173087225
 20
52.49579523595615
 30
0.0
 10
922.1623752277935
 20
53.8477344560967
 30
0.0
  0
SPLINE
  5
120
330
1F
100
AcDbEntity
  8
0
  6
Continuous
 62
     7
370
    15
100
AcDbSpline
210
0.0
220
0.0
230
1.0
 70
     8
 71
     3
 72
    24
 73
    20
 74
     0
 42
0.00000001
 43
0.00000001
 40
0.0
 40
0.0
 40
0.0
 40
0.0
 40
0.0601919548758234
 40
0.1208616835111267
 40
0.1821878874974866
 40
0.2441134264615155
 40
0.3064210716711358
 40
0.3688071503255098
 40
0.4309446000409181
 40
0.4925475527428421
 40
0.5534381134752554
 40
0.6136218639873149
 40
0.6733637451261338
 40
0.733269148338352
 40
0.7819906554356453
 40
0.8321414731764649
 40
0.8845555551912514
 40
0.9401751133501662
 40
1.0
 40
1.0
 40
1.0
 40
1.0
 10
922.1623752277936
 20
53.84773445609681
 30
0.0
 10
920.7955325295978
 20
51.74628092736866
 30
0.0
 10
918.0509978166169
 20
47.52669357842032
 30
0.0
 10
915.189516131599
 20
40.4707528054502
 30
0.0
 10
913.2161256223486
 20
33.06933770156151
 30
0.0
 10
912.2031863918769
 20
25.40120729133
 30
0.0
 10
912.1089490973186
 20
17.62751754041314
 30
0.0
 10
912.9255506325053
 20
9.886701706892875
 30
0.0
 10
914.6377887245162
 20
2.323297566330762
 30
0.0
 10
917.2353100144582
 20
-4.91940346215447
 30
0.0
 10
920.7086962639687
 20
-11.69716672630217
 30
0.0
 10
925.051963505123
 20
-17.86391350108585
 30
0.0
 10
930.2601079793377
 20
-23.26965720496632
 30
0.0
 10
935.9171446906297
 20
-27.45188031188273
 30
0.0
 10
941.8036408478686
 20
-30.48461839971378
 30
0.0
 10
947.7783301967459
 20
-32.52334353766967
 30
0.0
 10
954.2677376987717
 20
-33.69724539935232
 30
0.0
 10
961.2707308453009
 20
-33.99967399139592
 30
0.0
 10
966.0390466284207
 20
-33.40178979199071
 30
0.0
 10
968.5100529354659
 20
-33.09195804115667
 30
0.0
  0
LINE
  5
121
330
1F
100
AcDbEntity
  8
0
  6
Continuous
 62
     7
370
    15
100
AcDbLine
 10
773.1262657803
 20
-313.7164221954
 30
0.0
 11
773.1262657803
 21
-374.4913296651
 31
0.0
  0
SPLINE
  5
122
330
1F
100
AcDbEntity
  8
0
  6
Continuous
 62
     7
370
    15
100
AcDbSpline
210
0.0
220
0.0
230
1.0
 70
     8
 71
     3
 72
    25
 73
    21
 74
     0
 42
0.00000001
 43
0.00000001
 40
0.0
 40
0.0
 40
0.0
 40
0.0
 40
0.0726226239197002
 40
0.1292166974227582
 40
0.1741670800769856
 40
0.2124671790765768
 40
0.2487945636469562
 40
0.286136092904706
 40
0.3578922621033465
 40
0.431008724810654
 40
0.4957953816923562
 40
0.5487259786698533
 40
0.5965128262957733
 40
0.631351698208536
 40
0.6695089966554488
 40
0.7134468338852059
 40
0.7657475979771106
 40
0.829099617919859
 40
0.9062564739248882
 40
1.0
 40
1.0
 40
1.0
 40
1.0
 10
773.1262657803144
 20
-374.4913296651496
 30
0.0
 10
774.1234914263184
 20
-375.2787582881344
 30
0.0
 10
775.8978448936947
 20
-376.6798220424649
 30
0.0
 10
778.6414485970523
 20
-378.0513610042737
 30
0.0
 10
781.0606315771782
 20
-378.5824616542858
 30
0.0
 10
783.1765920951258
 20
-378.3232725898366
 30
0.0
 10
784.9490510212697
 20
-377.4233848624877
 30
0.0
 10
786.8349413869984
 20
-375.6916368695279
 30
0.0
 10
788.580270313423
 20
-372.9925027368695
 30
0.0
 10
790.1498208441026
 20
-369.6895119987785
 30
0.0
 10
791.5684448132743
 20
-366.6693929818487
 30
0.0
 10
793.1216173196154
 20
-364.2230641830487
 30
0.0
 10
794.5891705715618
 20
-362.3638235080623
 30
0.0
 10
795.9390978306807
 20
-360.7436111034042
 30
0.0
 10
797.2143287172407
 20
-359.1483582845184
 30
0.0
 10
798.5937214181387
 20
-357.2483944150628
 30
0.0
 10
800.102273688414
 20
-354.9034219469938
 30
0.0
 10
801.7641432246294
 20
-351.9737499855755
 30
0.0
 10
803.6147777444972
 20
-348.3238749609542
 30
0.0
 10
804.8318938780201
 20
-345.598710499618
 30
0.0
 10
805.4995153111065
 20
-344.1038833808555
 30
0.0
  0
SPLINE
  5
123
330
1F
100
AcDbEntity
  8
0
  6
Continuous
 62
     7
370
    15
100
AcDbSpline
210
0.0
220
0.0
230
1.0
 70
     8
 71
     3
 72
    25
 73
    21
 74
     0
 42
0.00000001
 43
0.00000001
 40
0.0
 40
0.0
 40
0.0
 40
0.0
 40
0.0689952689565047
 40
0.1258051843627354
 40
0.1720356905641073
 40
0.2096716742720294
 40
0.2412483640019774
 40
0.2698269407131828
 40
0.3061146733581262
 40
0.3465291291312939
 40
0.3926339076936798
 40
0.4443640786675768
 40
0.5347344384831544
 40
0.6315794828052449
 40
0.7143721790952509
 40
0.7937999101118197
 40
0.8664197215821967
 40
0.9169432784140849
 40
0.9611094144146497
 40
0.9999999999999999
 40
0.9999999999999999
 40
0.9999999999999999
 40
0.9999999999999999
 10
805.4995153111065
 20
-344.1038833808555
 30
0.0
 10
804.5826040869115
 20
-345.1262425327374
 30
0.0
 10
802.9107186468119
 20
-346.9904005182439
 30
0.0
 10
800.347946616342
 20
-349.2712367974108
 30
0.0
 10
798.028000156606
 20
-350.8548211552315
 30
0.0
 10
795.9060566032363
 20
-351.7803656817847
 30
0.0
 10
793.9545127151383
 20
-352.0771383481255
 30
0.0
 10
792.0301522824176
 20
-351.7354457871938
 30
0.0
 10
790.2004140115337
 20
-350.6219077518728
 30
0.0
 10
788.568794650331
 20
-348.7748552359996
 30
0.0
 10
787.1549592206721
 20
-346.405046969261
 30
0.0
 10
785.6264592075909
 20
-342.9817315497515
 30
0.0
 10
784.1060858055978
 20
-338.472088101261
 30
0.0
 10
782.6286138268247
 20
-333.3089475187859
 30
0.0
 10
781.2267294288187
 20
-328.3489018715179
 30
0.0
 10
779.8271618118313
 20
-323.8932853357771
 30
0.0
 10
778.3706134773289
 20
-320.1223319506451
 30
0.0
 10
776.7975844723835
 20
-317.1945275808058
 30
0.0
 10
775.2024056459776
 20
-315.0091561296541
 30
0.0
 10
773.7883738416208
 20
-314.1286918951204
 30
0.0
 10
773.1262657803143
 20
-313.7164221954002
 30
0.0
  0
LINE
  5
124
330
1F
100
AcDbEntity
  8
0
  6
Continuous
 62
     7
370
    15
100
AcDbLine
 10
1000.8832428616
 20
230.6029839564
 30
0.0
 11
1000.8832428616
 21
291.3779063273
 31
0.0
  0
SPLINE
  5
125
330
1F
100
AcDbEntity
  8
0
  6
Continuous
 62
     7
370
    15
100
AcDbSpline
210
0.0
220
0.0
230
1.0
 70
     8
 71
     3
 72
    25
 73
    21
 74
     0
 42
0.00000001
 43
0.00000001
 40
0.0
 40
0.0
 40
0.0
 40
0.0
 40
0.0726224983507656
 40
0.1292176305210884
 40
0.1741668680151101
 40
0.2124680439100307
 40
0.2487944289509973
 40
0.2861372085660518
 40
0.3578923526641132
 40
0.4310091135363454
 40
0.4957960623843565
 40
0.5487272988785918
 40
0.5965132539499295
 40
0.6313523658100346
 40
0.6695094634916745
 40
0.7134466354341649
 40
0.765747051414301
 40
0.8291009779402723
 40
0.906257625013319
 40
1.0
 40
1.0
 40
1.0
 40
1.0
 10
1000.883242861613
 20
291.377906327282
 30
0.0
 10
999.886018139374
 20
292.1653308164865
 30
0.0
 10
998.1116504347206
 20
293.5663997554508
 30
0.0
 10
995.3680325671769
 20
294.9379142111779
 30
0.0
 10
992.9488433423367
 20
295.4689898544157
 30
0.0
 10
990.8328828626372
 20
295.2098829993478
 30
0.0
 10
989.0604371525375
 20
294.3099215805362
 30
0.0
 10
987.1745051573891
 20
292.5782409025963
 30
0.0
 10
985.4293482853867
 20
289.878973373332
 30
0.0
 10
983.8596510781801
 20
286.5760808523554
 30
0.0
 10
982.4410917684793
 20
283.5558999336604
 30
0.0
 10
980.8878202939527
 20
281.1096363435627
 30
0.0
 10
979.42033230526
 20
279.2503503579471
 30
0.0
 10
978.0704157917138
 20
277.6301484943142
 30
0.0
 10
976.7951923307968
 20
276.0349068900053
 30
0.0
 10
975.4157573770938
 20
274.1349990539422
 30
0.0
 10
973.9073187176996
 20
271.7899374042963
 30
0.0
 10
972.2452875234941
 20
268.8603363935765
 30
0.0
 10
970.3946697506153
 20
265.210439096278
 30
0.0
 10
969.1776297324581
 20
262.4852689302995
 30
0.0
 10
968.5100529354656
 20
260.9904451418267
 30
0.0
  0
SPLINE
  5
126
330
1F
100
AcDbEntity
  8
0
  6
Continuous
 62
     7
370
    15
100
AcDbSpline
210
0.0
220
0.0
230
1.0
 70
     8
 71
     3
 72
    25
 73
    21
 74
     0
 42
0.00000001
 43
0.00000001
 40
0.0
 40
0.0
 40
0.0
 40
0.0
 40
0.0689941729741551
 40
0.1258044151606045
 40
0.1720352538993491
 40
0.2096711889228959
 40
0.2412468947307836
 40
0.2698253738194155
 40
0.3061132766270968
 40
0.3465286448811729
 40
0.3926327439443654
 40
0.4443629791046889
 40
0.5347337820543363
 40
0.6315789465410657
 40
0.7143714687123897
 40
0.7937995360126583
 40
0.866420183642939
 40
0.9169424059970024
 40
0.9611092218099263
 40
0.9999999999999999
 40
0.9999999999999999
 40
0.9999999999999999
 40
0.9999999999999999
 10
968.5100529354656
 20
260.9904451418267
 30
0.0
 10
969.4269096899236
 20
262.0128249563919
 30
0.0
 10
971.0987121452391
 20
263.8770388327083
 30
0.0
 10
973.6615862237056
 20
266.1577403675973
 30
0.0
 10
975.9814920941556
 20
267.7413910508696
 30
0.0
 10
978.1034386003104
 20
268.6669101230568
 30
0.0
 10
980.0549495381744
 20
268.9636492662065
 30
0.0
 10
981.9793093918702
 20
268.6220455729697
 30
0.0
 10
983.8090326273862
 20
267.5084406765184
 30
0.0
 10
985.4407178833601
 20
265.6614479480892
 30
0.0
 10
986.8544796107374
 20
263.2915829574153
 30
0.0
 10
988.3829918044781
 20
259.8682904387837
 30
0.0
 10
989.9034353489867
 20
255.3586605505106
 30
0.0
 10
991.3809067676015
 20
250.1955175207102
 30
0.0
 10
992.7827235531418
 20
245.2354570188595
 30
0.0
 10
994.1822335321234
 20
240.7797963157505
 30
0.0
 10
995.6390113457593
 20
237.0089565704239
 30
0.0
 10
997.2118422374058
 20
234.0810422651719
 30
0.0
 10
998.8071136866602
 20
231.8957526724539
 30
0.0
 10
1000.221140713097
 20
231.0152631896574
 30
0.0
 10
1000.883242861613
 20
230.6029839563714
 30
0.0
  0
SPLINE
  5
127
330
1F
100
AcDbEntity
  8
0
  6
Continuous
 62
     7
370
    15
100
AcDbSpline
210
0.0
220
0.0
230
1.0
 70
     8
 71
     3
 72
    25
 73
    21
 74
     0
 42
0.00000001
 43
0.00000001
 40
0.0
 40
0.0
 40
0.0
 40
0.0
 40
0.093743280099856
 40
0.1708998929988813
 40
0.2342526624474472
 40
0.2865536725687218
 40
0.3304908250506743
 40
0.3686479058318718
 40
0.4034870022611281
 40
0.4512736311340633
 40
0.5042042352797231
 40
0.5689911554324676
 40
0.6421073737813408
 40
0.7138637861567239
 40
0.7512056979275721
 40
0.7875330874176129
 40
0.8258331180811777
 40
0.8707834526476527
 40
0.9273775338150023
 40
1.0
 40
1.0
 40
1.0
 40
1.0
 10
805.4995153111065
 20
260.9904451418267
 30
0.0
 10
804.8318950481915
 20
262.485267942133
 30
0.0
 10
803.6147813374857
 20
265.2104238824045
 30
0.0
 10
801.7641268792598
 20
268.8602929064885
 30
0.0
 10
800.102278260019
 20
271.7899904763903
 30
0.0
 10
798.5937394451671
 20
274.1349789305418
 30
0.0
 10
797.2143211094658
 20
276.0349100092283
 30
0.0
 10
795.9390888507701
 20
277.6301456281962
 30
0.0
 10
794.5891812131509
 20
279.2503690163276
 30
0.0
 10
793.1216111601819
 20
281.1095961405268
 30
0.0
 10
791.5684420027458
 20
283.5559290110503
 30
0.0
 10
790.1498284815731
 20
286.5760522729583
 30
0.0
 10
788.580264352367
 20
289.8790426480036
 30
0.0
 10
786.8349309005071
 20
292.5781761821632
 30
0.0
 10
784.9490608822015
 20
294.3099603899094
 30
0.0
 10
783.1765932037937
 20
295.2098583129728
 30
0.0
 10
781.0606308601284
 20
295.4689917286216
 30
0.0
 10
778.6414466095014
 20
294.9379339948667
 30
0.0
 10
775.8978492291634
 20
293.5663791218516
 30
0.0
 10
774.1234923410543
 20
292.1653273948699
 30
0.0
 10
773.1262657803143
 20
291.377906327282
 30
0.0
  0
LINE
  5
128
330
1F
100
AcDbEntity
  8
0
  6
Continuous
 62
     7
370
    15
100
AcDbLine
 10
773.1262657803
 20
291.3779063273
 30
0.0
 11
773.1262657803
 21
230.6029839564
 31
0.0
  0
SPLINE
  5
129
330
1F
100
AcDbEntity
  8
0
  6
Continuous
 62
     7
370
    15
100
AcDbSpline
210
0.0
220
0.0
230
1.0
 70
     8
 71
     3
 72
    25
 73
    21
 74
     0
 42
0.00000001
 43
0.00000001
 40
0.0
 40
0.0
 40
0.0
 40
0.0
 40
0.0370425386692943
 40
0.078804730965021
 40
0.1263515068341493
 40
0.1793591592880467
 40
0.2711272275609147
 40
0.3684547653415379
 40
0.4509001314586925
 40
0.5293100036867662
 40
0.6003366472475321
 40
0.6493592515695498
 40
0.6920935878756759
 40
0.730171906884018
 40
0.7587505041600843
 40
0.7903273304997315
 40
0.8279634211681811
 40
0.8741944510963937
 40
0.9310041776801409
 40
0.9999999999999999
 40
0.9999999999999999
 40
0.9999999999999999
 40
0.9999999999999999
 10
773.1262657803143
 20
230.6029839563714
 30
0.0
 10
773.7589479752459
 20
230.9916748552106
 30
0.0
 10
775.1049234928273
 20
231.8185804295029
 30
0.0
 10
776.6484011637034
 20
233.8570041134007
 30
0.0
 10
778.0272000859788
 20
236.3260001093552
 30
0.0
 10
779.5103963999115
 20
239.8619802586186
 30
0.0
 10
781.0028602397722
 20
244.4432410799683
 30
0.0
 10
782.4713362887353
 20
249.6415051738267
 30
0.0
 10
783.8826047511652
 20
254.5799053338432
 30
0.0
 10
785.3030149927727
 20
258.9697684684511
 30
0.0
 10
786.8005385563048
 20
262.631516472202
 30
0.0
 10
788.4133279367494
 20
265.4516773964713
 30
0.0
 10
790.1016454529946
 20
267.4366328440234
 30
0.0
 10
791.9943089731455
 20
268.6158462935124
 30
0.0
 10
793.9545471903074
 20
268.9636116852761
 30
0.0
 10
795.906042712756
 20
268.6669324725555
 30
0.0
 10
798.0280179222136
 20
267.7413838209519
 30
0.0
 10
800.3479192868522
 20
266.1577620118436
 30
0.0
 10
802.910742352327
 20
263.8769831270453
 30
0.0
 10
804.5826094496712
 20
262.0128150599479
 30
0.0
 10
805.4995153111065
 20
260.9904451418267
 30
0.0
  0
LINE
  5
12A
330
1F
100
AcDbEntity
  8
0
  6
Continuous
 62
     7
370
    15
100
AcDbLine
 10
1077.4162027997
 20
405.4432554293
 30
0.0
 11
708.5932705563
 21
405.4432554293
 31
0.0
  0
LINE
  5
12B
330
1F
100
AcDbEntity
  8
0
  6
Continuous
 62
     7
370
    15
100
AcDbLine
 10
1077.4162027997
 20
-488.556721608
 30
0.0
 11
1077.4162027997
 21
405.4432554293
 31
0.0
  0
LINE
  5
12C
330
1F
100
AcDbEntity
  8
0
  6
Continuous
 62
     7
370
    15
100
AcDbLine
 10
708.5932705563
 20
-488.556721608
 30
0.0
 11
1077.4162027997
 21
-488.556721608
 31
0.0
  0
LINE
  5
12D
330
1F
100
AcDbEntity
  8
0
  6
Continuous
 62
     7
370
    15
100
AcDbLine
 10
1000.8832428616
 20
-374.4913296651
 30
0.0
 11
1000.8832428616
 21
-313.7164221954
 31
0.0
  0
SPLINE
  5
12E
330
1F
100
AcDbEntity
  8
0
  6
Continuous
 62
     7
370
    15
100
AcDbSpline
210
0.0
220
0.0
230
1.0
 70
     8
 71
     3
 72
    25
 73
    21
 74
     0
 42
0.00000001
 43
0.00000001
 40
0.0
 40
0.0
 40
0.0
 40
0.0
 40
0.0370415893789917
 40
0.0788048176321794
 40
0.1263523204274232
 40
0.1793595326026201
 40
0.271127396119739
 40
0.3684549288393499
 40
0.4509003634874976
 40
0.5293107368519471
 40
0.6003366231179412
 40
0.6493597534380097
 40
0.6920930659329918
 40
0.7301731185432124
 40
0.7587518588050264
 40
0.790327739294824
 40
0.8279639383874414
 40
0.8741947091585817
 40
0.9310057002162855
 40
0.9999999999999999
 40
0.9999999999999999
 40
0.9999999999999999
 40
0.9999999999999999
 10
1000.883242861613
 20
-313.7164221954002
 30
0.0
 10
1000.250584207426
 20
-314.1051124706923
 30
0.0
 10
998.9046227974948
 20
-314.932038819516
 30
0.0
 10
997.3611124040623
 20
-316.9704502268798
 30
0.0
 10
995.9822482726689
 20
-319.4394417881416
 30
0.0
 10
994.4990553272414
 20
-322.9754242208095
 30
0.0
 10
993.0065589283322
 20
-327.5566598798471
 30
0.0
 10
991.5382128137048
 20
-332.7549559542859
 30
0.0
 10
990.126829187144
 20
-337.693336028649
 30
0.0
 10
988.7063986378465
 20
-342.0831754717004
 30
0.0
 10
987.2090700311126
 20
-345.7450233251525
 30
0.0
 10
985.5961688220575
 20
-348.5650796722379
 30
0.0
 10
983.9079057531682
 20
-350.5501299622574
 30
0.0
 10
982.015156909766
 20
-351.7292223596803
 30
0.0
 10
980.054929024269
 20
-352.0771059387449
 30
0.0
 10
978.1034432355196
 20
-351.7803669112581
 30
0.0
 10
975.9815032185696
 20
-350.8548199323355
 30
0.0
 10
973.6615612950853
 20
-349.2712182093076
 30
0.0
 10
971.0987350357773
 20
-346.9904551875862
 30
0.0
 10
969.4269147640784
 20
-345.1262520621329
 30
0.0
 10
968.5100529354656
 20
-344.1038833808555
 30
0.0
  0
SPLINE
  5
12F
330
1F
100
AcDbEntity
  8
0
  6
Continuous
 62
     7
370
    15
100
AcDbSpline
210
0.0
220
0.0
230
1.0
 70
     8
 71
     3
 72
    25
 73
    21
 74
     0
 42
0.00000001
 43
0.00000001
 40
0.0
 40
0.0
 40
0.0
 40
0.0
 40
0.0937426209630883
 40
0.1708995111408489
 40
0.2342526881725744
 40
0.2865528581195476
 40
0.3304907148093499
 40
0.3686480301561104
 40
0.4034869174989913
 40
0.4512730913259148
 40
0.504204320650943
 40
0.5689910062266218
 40
0.6421080114542291
 40
0.7138629123700868
 40
0.7512053094796867
 40
0.78753168960047
 40
0.825832933828435
 40
0.8707822194109136
 40
0.9273773439157773
 40
0.9999999999999999
 40
0.9999999999999999
 40
0.9999999999999999
 40
0.9999999999999999
 10
968.5100529354656
 20
-344.1038833808555
 30
0.0
 10
969.1776309026553
 20
-345.5987114877061
 30
0.0
 10
970.394673343638
 20
-348.3238901745806
 30
0.0
 10
972.2452711778315
 20
-351.9737934734859
 30
0.0
 10
973.9073232886456
 20
-354.9033688746741
 30
0.0
 10
975.4157754036797
 20
-357.2484145389054
 30
0.0
 10
976.7951847231068
 20
-359.1483551652234
 30
0.0
 10
978.0704068117908
 20
-360.7436139695226
 30
0.0
 10
979.4203429467447
 20
-362.3638048498904
 30
0.0
 10
980.887814134319
 20
-364.2231043860648
 30
0.0
 10
982.4410889577965
 20
-366.6693639045785
 30
0.0
 10
983.8596587157541
 20
-369.6895405781012
 30
0.0
 10
985.4293423243602
 20
-372.992433461902
 30
0.0
 10
987.1744946718613
 20
-375.6917015899058
 30
0.0
 10
989.0604470130347
 20
-377.4233460531614
 30
0.0
 10
990.8328839711365
 20
-378.3232972768367
 30
0.0
 10
992.9488426255439
 20
-378.5824597796378
 30
0.0
 10
995.3680305794898
 20
-378.0513412204445
 30
0.0
 10
998.1116547702745
 20
-376.6798426761634
 30
0.0
 10
999.8860190541249
 20
-375.2787617097599
 30
0.0
 10
1000.883242861613
 20
-374.4913296651496
 30
0.0
  0
SPLINE
  5
130
330
1F
100
AcDbEntity
  8
0
  6
Continuous
 62
     7
370
    15
100
AcDbSpline
210
0.0
220
0.0
230
1.0
 70
     8
 71
     3
 72
    33
 73
    29
 74
     0
 42
0.00000001
 43
0.00000001
 40
0.0
 40
0.0
 40
0.0
 40
0.0
 40
0.0445861896236486
 40
0.0843199603728784
 40
0.1200411270909378
 40
0.152628090646095
 40
0.1829640705716434
 40
0.2118791909124308
 40
0.2540735923137726
 40
0.2963830588932451
 40
0.3396468144814452
 40
0.3839784506845171
 40
0.4344086078994767
 40
0.4847199305482985
 40
0.5337432968571358
 40
0.5803486923718527
 40
0.6147290324347431
 40
0.6470126602137772
 40
0.6775797052017395
 40
0.7075068970462588
 40
0.7337921313178584
 40
0.7624282945404197
 40
0.7949624879161341
 40
0.8328389361902402
 40
0.8671905079246285
 40
0.9061757576500354
 40
0.9502926335472528
 40
0.9999999999999999
 40
0.9999999999999999
 40
0.9999999999999999
 40
0.9999999999999999
 10
791.2222955387678
 20
-5.329545016254267
 30
0.0
 10
790.249617298394
 20
-3.39847060465448
 30
0.0
 10
788.410119656273
 20
0.2535148921465336
 30
0.0
 10
786.4770684400978
 20
5.757274366080978
 30
0.0
 10
785.3299588499711
 20
10.87876681888289
 30
0.0
 10
784.9449651712271
 20
15.6602385890775
 30
0.0
 10
785.2529335748114
 20
20.11677466930928
 30
0.0
 10
786.3376073284139
 20
24.92928178804699
 30
0.0
 10
788.5217544307131
 20
30.01778047616521
 30
0.0
 10
792.0021809725481
 20
35.17091812114315
 30
0.0
 10
796.2436589689066
 20
39.84235045402262
 30
0.0
 10
801.221717282702
 20
44.31939240930271
 30
0.0
 10
806.760279544235
 20
48.6530444313279
 30
0.0
 10
812.6175540682308
 20
52.93692072269685
 30
0.0
 10
818.3040878902336
 20
57.14035314163301
 30
0.0
 10
823.1972744329212
 20
61.11668625187661
 30
0.0
 10
827.1425883289438
 20
64.94381216327672
 30
0.0
 10
830.1217528817367
 20
68.61379598801886
 30
0.0
 10
832.3365245532856
 20
72.55941088422013
 30
0.0
 10
833.5271505742094
 20
76.63861453613596
 30
0.0
 10
833.6971407150761
 20
80.78045742453644
 30
0.0
 10
832.9389367187406
 20
84.98087162409473
 30
0.0
 10
831.1884304681772
 20
89.47537617469192
 30
0.0
 10
828.6243226762867
 20
93.87510982572111
 30
0.0
 10
825.4235883712552
 20
98.21785946389394
 30
0.0
 10
821.6882873111991
 20
102.5177836594501
 30
0.0
 10
817.1709471001916
 20
107.1076011043535
 30
0.0
 10
813.7778863719179
 20
110.1347479923236
 30
0.0
 10
811.98026873289
 20
111.7385072756157
 30
0.0
  0
SPLINE
  5
131
330
1F
100
AcDbEntity
  8
0
  6
Continuous
 62
     7
370
    15
100
AcDbSpline
210
0.0
220
0.0
230
1.0
 70
     8
 71
     3
 72
    20
 73
    16
 74
     0
 42
0.00000001
 43
0.00000001
 40
0.0
 40
0.0
 40
0.0
 40
0.0
 40
0.0858757169054631
 40
0.1676202795064677
 40
0.2482003705068758
 40
0.3290612493221011
 40
0.4104790395818538
 40
0.49205481843644
 40
0.5732105947801888
 40
0.6536688433733953
 40
0.7339570570118158
 40
0.7951726356471648
 40
0.8586406092793547
 40
0.9261886528131721
 40
1.0
 40
1.0
 40
1.0
 40
1.0
 10
811.98026873289
 20
111.7385072756157
 30
0.0
 10
811.9073669387901
 20
110.1520209464373
 30
0.0
 10
811.7650703787859
 20
107.0553681147312
 30
0.0
 10
810.0382851700494
 20
102.7493113989756
 30
0.0
 10
807.4467347180479
 20
99.0699174536993
 30
0.0
 10
804.0977758798886
 20
96.06395911561627
 30
0.0
 10
800.2085645351901
 20
93.7818163983979
 30
0.0
 10
795.9504402700114
 20
92.28071500721413
 30
0.0
 10
791.4991325123939
 20
91.6273375200154
 30
0.0
 10
787.0266886937321
 20
91.8979695259512
 30
0.0
 10
783.0780858783049
 20
93.07757440675735
 30
0.0
 10
779.773017997924
 20
94.93683991751645
 30
0.0
 10
777.0922297822924
 20
97.26991934718832
 30
0.0
 10
774.7561879728321
 20
100.2666877861461
 30
0.0
 10
773.6853880569278
 20
102.6425344813847
 30
0.0
 10
773.1262657803143
 20
103.8830919313775
 30
0.0
  0
LINE
  5
132
330
1F
100
AcDbEntity
  8
0
  6
Continuous
 62
     7
370
    15
100
AcDbLine
 10
773.1262657803
 20
103.8830919314
 30
0.0
 11
773.1262657803
 21
15.8815426875
 31
0.0
  0
SPLINE
  5
133
330
1F
100
AcDbEntity
  8
0
  6
Continuous
 62
     7
370
    15
100
AcDbSpline
210
0.0
220
0.0
230
1.0
 70
     8
 71
     3
 72
    18
 73
    14
 74
     0
 42
0.00000001
 43
0.00000001
 40
0.0
 40
0.0
 40
0.0
 40
0.0
 40
0.1418390322180989
 40
0.2648954555729758
 40
0.3696141640759604
 40
0.4708494699033663
 40
0.551928448444434
 40
0.6054713586783412
 40
0.659297613598594
 40
0.7207233657741633
 40
0.7955566831552674
 40
0.8877435173059031
 40
0.9999999999999999
 40
0.9999999999999999
 40
0.9999999999999999
 40
0.9999999999999999
 10
773.1262657803143
 20
15.88154268745046
 30
0.0
 10
773.1282632915064
 20
14.11384310699015
 30
0.0
 10
773.131993799456
 20
10.81252626662865
 30
0.0
 10
773.2449512328374
 20
6.206777654270024
 30
0.0
 10
773.5516194309209
 20
2.114751560107431
 30
0.0
 10
774.1681998928958
 20
-1.417819079399973
 30
0.0
 10
775.2882608021145
 20
-4.186510101543806
 30
0.0
 10
776.8860978465049
 20
-5.96941611438373
 30
0.0
 10
778.7980197483532
 20
-6.947189026975109
 30
0.0
 10
781.1660439988357
 20
-7.317249431453399
 30
0.0
 10
784.020389335197
 20
-7.146231224182786
 30
0.0
 10
787.4436493490559
 20
-6.475496398903768
 30
0.0
 10
789.8829276856139
 20
-5.73573558455287
 30
0.0
 10
791.2222955387676
 20
-5.329545016254378
 30
0.0
  0
SPLINE
  5
134
330
1F
100
AcDbEntity
  8
0
  6
Continuous
 62
     7
370
    15
100
AcDbSpline
210
0.0
220
0.0
230
1.0
 70
     8
 71
     3
 72
    12
 73
     8
 74
     0
 42
0.00000001
 43
0.00000001
 40
0.0
 40
0.0
 40
0.0
 40
0.0
 40
0.1870020183374734
 40
0.3728167958810165
 40
0.5583698038029337
 40
0.7779693031867025
 40
1.0
 40
1.0
 40
1.0
 40
1.0
 10
917.7051398914898
 20
91.77130890372854
 30
0.0
 10
915.167716235011
 20
95.20660214721366
 30
0.0
 10
910.1089785496564
 20
102.0553786007202
 30
0.0
 10
903.4623538149688
 20
112.9525757719904
 30
0.0
 10
897.2269506715307
 20
124.9230100777421
 30
0.0
 10
891.5442704564628
 20
138.0937114184384
 30
0.0
 10
888.5234695886182
 20
147.7182557423439
 30
0.0
 10
887.0047543209637
 20
152.5570197153435
 30
0.0
  0
SPLINE
  5
135
330
1F
100
AcDbEntity
  8
0
  6
Continuous
 62
     7
370
    15
100
AcDbSpline
210
0.0
220
0.0
230
1.0
 70
     8
 71
     3
 72
    12
 73
     8
 74
     0
 42
0.00000001
 43
0.00000001
 40
0.0
 40
0.0
 40
0.0
 40
0.0
 40
0.1885974882558688
 40
0.3752820680355109
 40
0.5609675477608664
 40
0.7797735035756765
 40
1.0
 40
1.0
 40
1.0
 40
1.0
 10
887.0047543209637
 20
152.5570197153435
 30
0.0
 10
885.7290289197605
 20
148.443099504524
 30
0.0
 10
883.1905175576183
 20
140.256985793641
 30
0.0
 10
878.340941358709
 20
128.386087618837
 30
0.0
 10
872.4066644061342
 20
116.2583207600341
 30
0.0
 10
865.208486176581
 20
103.9154374448026
 30
0.0
 10
859.2787635919675
 20
95.82807428575246
 30
0.0
 10
856.3043091457928
 20
91.77130890372854
 30
0.0
  0
SPLINE
  5
136
330
1F
100
AcDbEntity
  8
0
  6
Continuous
 62
     7
370
    15
100
AcDbSpline
210
0.0
220
0.0
230
1.0
 70
     8
 71
     3
 72
    13
 73
     9
 74
     0
 42
0.00000001
 43
0.00000001
 40
0.0
 40
0.0
 40
0.0
 40
0.0
 40
0.1883372493737736
 40
0.3733385029527925
 40
0.5572835752164714
 40
0.702611292233006
 40
0.8498281230811817
 40
1.0
 40
1.0
 40
1.0
 40
1.0
 10
856.3043091457929
 20
91.77130890372864
 30
0.0
 10
859.1690819629841
 20
88.6840176853928
 30
0.0
 10
864.8478842096257
 20
82.56412007902314
 30
0.0
 10
872.0046064077632
 20
72.33130584591396
 30
0.0
 10
877.5754401760629
 20
62.25858308467014
 30
0.0
 10
881.7398947045194
 20
52.4492025157437
 30
0.0
 10
884.8634192569915
 20
43.04671220504463
 30
0.0
 10
886.2862632011646
 20
36.55319734135232
 30
0.0
 10
887.0047543209637
 20
33.27417803290944
 30
0.0
  0
SPLINE
  5
137
330
1F
100
AcDbEntity
  8
0
  6
Continuous
 62
     7
370
    15
100
AcDbSpline
210
0.0
220
0.0
230
1.0
 70
     8
 71
     3
 72
    13
 73
     9
 74
     0
 42
0.00000001
 43
0.00000001
 40
0.0
 40
0.0
 40
0.0
 40
0.0
 40
0.1905373290214976
 40
0.37675242166581
 40
0.5608829726245292
 40
0.705629332440691
 40
0.8516374214356415
 40
1.0
 40
1.0
 40
1.0
 40
1.0
 10
887.0047543209637
 20
33.27417803290944
 30
0.0
 10
887.9422493128827
 20
37.4304702221857
 30
0.0
 10
889.7959727292805
 20
45.64877135772749
 30
0.0
 10
894.1839497910312
 20
57.42425582107025
 30
0.0
 10
899.3142818227957
 20
67.74905012241106
 30
0.0
 10
905.0035573980983
 20
76.7176881313455
 30
0.0
 10
910.927489380152
 20
84.55955986375996
 30
0.0
 10
915.4339083648898
 20
89.35460834442644
 30
0.0
 10
917.7051398914898
 20
91.77130890372854
 30
0.0
  0
SPLINE
  5
138
330
1F
100
AcDbEntity
  8
0
  6
Continuous
 62
     7
370
    15
100
AcDbSpline
210
0.0
220
0.0
230
1.0
 70
     8
 71
     3
 72
    24
 73
    20
 74
     0
 42
0.00000001
 43
0.00000001
 40
0.0
 40
0.0
 40
0.0
 40
0.0
 40
0.0598244468918767
 40
0.1154435609449199
 40
0.1678581445923822
 40
0.2180089925490087
 40
0.266730529000951
 40
0.326635968306102
 40
0.3863782179237582
 40
0.4465617285096233
 40
0.5074523259285257
 40
0.5690551537235456
 40
0.6311927468035567
 40
0.6935788128630518
 40
0.7558864896230871
 40
0.8178120658971781
 40
0.8791383068325016
 40
0.9398082566228301
 40
1.0
 40
1.0
 40
1.0
 40
1.0
 10
805.4995153111066
 20
-33.09195804115667
 30
0.0
 10
807.9705018444686
 20
-33.40179060827031
 30
0.0
 10
812.7387780138046
 20
-33.99967620024164
 30
0.0
 10
819.7417496526102
 20
-33.69723546289266
 30
0.0
 10
826.2311605923246
 20
-32.52335301920728
 30
0.0
 10
832.2058667998248
 20
-30.48461688100928
 30
0.0
 10
838.0923674739944
 20
-27.45188365087342
 30
0.0
 10
843.7493954560987
 20
-23.26963434650115
 30
0.0
 10
848.9576162985198
 20
-17.86395482051312
 30
0.0
 10
853.3007933626931
 20
-11.69714126015453
 30
0.0
 10
856.7742269389504
 20
-4.919421383171696
 30
0.0
 10
859.3716147387773
 20
2.323321508144183
 30
0.0
 10
861.084010855864
 20
9.88668627323175
 30
0.0
 10
861.9004490850884
 20
17.62752302798532
 30
0.0
 10
861.8063530517418
 20
25.40120741578256
 30
0.0
 10
860.7933695177819
 20
33.06933534290635
 30
0.0
 10
858.8200137432626
 20
40.47076964523511
 30
0.0
 10
855.9584300853652
 20
47.52666334808598
 30
0.0
 10
853.213945991155
 20
51.74627591842152
 30
0.0
 10
851.8471334141339
 20
53.8477344560967
 30
0.0
  0
SPLINE
  5
139
330
1F
100
AcDbEntity
  8
0
  6
Continuous
 62
     7
370
    15
100
AcDbSpline
210
0.0
220
0.0
230
1.0
 70
     8
 71
     3
 72
    24
 73
    20
 74
     0
 42
0.00000001
 43
0.00000001
 40
0.0
 40
0.0
 40
0.0
 40
0.0
 40
0.074303086601825
 40
0.1398596918110494
 40
0.1985337520339883
 40
0.2520962254992621
 40
0.3021098632067277
 40
0.3498239353570797
 40
0.422122029277026
 40
0.4925705986262939
 40
0.5615677220900831
 40
0.6126567747657344
 40
0.6641290740299717
 40
0.7173218644126725
 40
0.7740078109250297
 40
0.8223981887321112
 40
0.8754092010189597
 40
0.9342182774042029
 40
1.0
 40
1.0
 40
1.0
 40
1.0
 10
851.8471334141339
 20
53.8477344560967
 30
0.0
 10
849.7652169434458
 20
52.3907906302754
 30
0.0
 10
845.8464538168594
 20
49.64840503386903
 30
0.0
 10
840.8578401302161
 20
45.02030196739204
 30
0.0
 10
836.9222314984803
 20
40.37346518400742
 30
0.0
 10
833.9321349307609
 20
35.68519133873871
 30
0.0
 10
831.7414354883349
 20
30.98848297818546
 30
0.0
 10
829.9265301303215
 20
25.45804077136749
 30
0.0
 10
828.6900558014386
 20
19.05057510638686
 30
0.0
 10
827.9567519841283
 20
11.85243852248652
 30
0.0
 10
827.3796778719566
 20
5.367622940676831
 30
0.0
 10
826.5298473131782
 20
-0.4360053814312925
 30
0.0
 10
825.330666669049
 20
-5.628925911858706
 30
0.0
 10
823.501494578261
 20
-10.84340587432264
 30
0.0
 10
821.0667224175338
 20
-15.68930142943181
 30
0.0
 10
818.0957261819896
 20
-20.21066051534537
 30
0.0
 10
814.6476389993477
 20
-24.47100348977816
 30
0.0
 10
810.4366153043962
 20
-28.8529973131757
 30
0.0
 10
807.2054912549889
 20
-31.62721861136458
 30
0.0
 10
805.4995153111065
 20
-33.09195804115672
 30
0.0
  0
LINE
  5
13A
330
1F
100
AcDbEntity
  8
0
  6
Continuous
 62
     7
370
    15
100
AcDbLine
 10
773.1262657803
 20
190.2261419344
 30
0.0
 11
773.1262657803
 21
121.4464349795
 31
0.0
  0
SPLINE
  5
13B
330
1F
100
AcDbEntity
  8
0
  6
Continuous
 62
     7
370
    15
100
AcDbSpline
210
0.0
220
0.0
230
1.0
 70
     8
 71
     3
 72
    39
 73
    35
 74
     0
 42
0.00000001
 43
0.00000001
 40
0.0
 40
0.0
 40
0.0
 40
0.0
 40
0.0382416060603528
 40
0.072392535623708
 40
0.1033531173234392
 40
0.1320658851055995
 40
0.159455465156989
 40
0.1863461229135297
 40
0.2270886492719959
 40
0.2695372233115593
 40
0.3141659667816266
 40
0.3607967722338712
 40
0.4088275217416022
 40
0.4573958251347606
 40
0.4986793919901132
 40
0.5389015721920687
 40
0.5775252872075624
 40
0.615129467875486
 40
0.6528308164437113
 40
0.6920231000057456
 40
0.733875786747925
 40
0.7494825090407448
 40
0.7634413207713551
 40
0.7757841370974674
 40
0.7879679883853805
 40
0.8031426111383213
 40
0.8206709783811016
 40
0.8404906952957495
 40
0.8661511998825192
 40
0.8932806142627802
 40
0.9243260649703255
 40
0.9537602973013951
 40
0.9796248272882435
 40
0.9999999999999999
 40
0.9999999999999999
 40
0.9999999999999999
 40
0.9999999999999999
 10
773.1262657803143
 20
121.4464349794732
 30
0.0
 10
775.003283841878
 20
121.4168611049714
 30
0.0
 10
778.556536722357
 20
121.3608768515897
 30
0.0
 10
783.593017620029
 20
122.0950076439593
 30
0.0
 10
788.0167627840594
 20
123.4185204391193
 30
0.0
 10
791.858690885236
 20
125.3285971559087
 30
0.0
 10
795.1451528521997
 20
127.762417795151
 30
0.0
 10
798.373969268494
 20
131.1489427773357
 30
0.0
 10
801.2820008133103
 20
135.7480222689081
 30
0.0
 10
803.578937482995
 20
141.6074542048282
 30
0.0
 10
805.0817132543607
 20
148.0048581977742
 30
0.0
 10
805.9332286246911
 20
154.7894416483514
 30
0.0
 10
806.2666110027326
 20
161.8083546698854
 30
0.0
 10
806.2115020429529
 20
168.5701533627633
 30
0.0
 10
805.9364571124416
 20
174.9418167331816
 30
0.0
 10
805.5550541811322
 20
180.8188621197689
 30
0.0
 10
805.1448610413057
 20
186.5135240371229
 30
0.0
 10
804.5202097652078
 20
192.0661475298218
 30
0.0
 10
803.4650665246181
 20
197.5902505949759
 30
0.0
 10
801.7328248636189
 20
203.1545241368431
 30
0.0
 10
799.871049624727
 20
207.5391659413502
 30
0.0
 10
797.9993488938693
 20
210.506329740038
 30
0.0
 10
796.604032278772
 20
212.0431836993236
 30
0.0
 10
794.8947864951059
 20
212.9626564351839
 30
0.0
 10
792.8992539063922
 20
213.06345994706
 30
0.0
 10
790.7639987685374
 20
212.4194517023778
 30
0.0
 10
788.5164671372067
 20
211.1365725752073
 30
0.0
 10
786.0814754653363
 20
209.2237803487939
 30
0.0
 10
783.5413693336903
 20
206.7207354046834
 30
0.0
 10
780.8711277370276
 20
203.5919796411972
 30
0.0
 10
778.3217995075377
 20
200.1290185386254
 30
0.0
 10
776.0676339470997
 20
196.5461206530478
 30
0.0
 10
774.2663715892248
 20
193.2904023926796
 30
0.0
 10
773.4749844805016
 20
191.163392596328
 30
0.0
 10
773.1262657803144
 20
190.2261419344293
 30
0.0
  0
SPLINE
  5
13C
330
1F
100
AcDbEntity
  8
0
  6
Continuous
 62
     7
370
    15
100
AcDbSpline
210
0.0
220
0.0
230
1.0
 70
     8
 71
     3
 72
    24
 73
    20
 74
     0
 42
0.00000001
 43
0.00000001
 40
0.0
 40
0.0
 40
0.0
 40
0.0
 40
0.0707184566471806
 40
0.1334133703366595
 40
0.1895668938155778
 40
0.2406568976847322
 40
0.2880988266707344
 40
0.3331706483531288
 40
0.4016987553498731
 40
0.4700494601073138
 40
0.5397066117170222
 40
0.5929392803971737
 40
0.6473143697766575
 40
0.7036147598239284
 40
0.7632992274881069
 40
0.813971931534737
 40
0.8693523497820521
 40
0.9308670681437363
 40
0.9999999999999999
 40
0.9999999999999999
 40
0.9999999999999999
 40
0.9999999999999999
 10
805.4995153111065
 20
-50.02146529671092
 30
0.0
 10
807.3315686180767
 20
-51.5987181151053
 30
0.0
 10
810.7878149490558
 20
-54.57427250856195
 30
0.0
 10
815.2378363019799
 20
-59.29679881796051
 30
0.0
 10
818.812653202815
 20
-63.88337323181964
 30
0.0
 10
821.595164927673
 20
-68.38955889146453
 30
0.0
 10
823.6978233577119
 20
-72.83336664179485
 30
0.0
 10
825.5089006079193
 20
-78.03865612489514
 30
0.0
 10
826.8315356645145
 20
-84.13111211522767
 30
0.0
 10
827.6430407735231
 20
-91.1443589851309
 30
0.0
 10
828.1949075406192
 20
-97.65459326080922
 30
0.0
 10
828.9639625615575
 20
-103.6650302521758
 30
0.0
 10
830.1032177770289
 20
-109.1566222150678
 30
0.0
 10
831.9361039065329
 20
-114.6982414969623
 30
0.0
 10
834.4911918158938
 20
-119.8119549499916
 30
0.0
 10
837.7071162071536
 20
-124.4901618695655
 30
0.0
 10
841.5161479485536
 20
-128.7802808109877
 30
0.0
 10
846.2433174692655
 20
-133.0543721606371
 30
0.0
 10
849.9079648431476
 20
-135.6092368907331
 30
0.0
 10
851.8471334141339
 20
-136.9611577939643
 30
0.0
  0
SPLINE
  5
13D
330
1F
100
AcDbEntity
  8
0
  6
Continuous
 62
     7
370
    15
100
AcDbSpline
210
0.0
220
0.0
230
1.0
 70
     8
 71
     3
 72
    24
 73
    20
 74
     0
 42
0.00000001
 43
0.00000001
 40
0.0
 40
0.0
 40
0.0
 40
0.0
 40
0.0601917551668426
 40
0.1208617168405093
 40
0.1821879697877178
 40
0.2441133213111659
 40
0.3064212492521357
 40
0.3688073275311023
 40
0.4309449327819169
 40
0.4925475477960303
 40
0.5534383696078229
 40
0.6136216969197141
 40
0.6733639582390013
 40
0.7332695510439494
 40
0.7819909875942973
 40
0.8321418453739002
 40
0.8845564392877339
 40
0.9401755642348151
 40
0.9999999999999999
 40
0.9999999999999999
 40
0.9999999999999999
 40
0.9999999999999999
 10
851.8471334141339
 20
-136.9611577939643
 30
0.0
 10
853.213945970925
 20
-134.8596992535138
 30
0.0
 10
855.9584300245143
 20
-130.6400866776052
 30
0.0
 10
858.8200139900306
 20
-123.5841930169577
 30
0.0
 10
860.7933660360392
 20
-116.1827680843761
 30
0.0
 10
861.8063559572962
 20
-108.5146410733681
 30
0.0
 10
861.9004495325968
 20
-100.7409560461331
 30
0.0
 10
861.0840096226347
 20
-93.00011024253774
 30
0.0
 10
859.3716222891165
 20
-85.43675169653231
 30
0.0
 10
856.7742104077092
 20
-78.19401950209765
 30
0.0
 10
853.3008120247395
 20
-71.41629109488179
 30
0.0
 10
848.9576065072204
 20
-65.24949358240339
 30
0.0
 10
843.7493858195458
 20
-59.84382409561184
 30
0.0
 10
838.0923857358434
 20
-55.66152899449606
 30
0.0
 10
832.205857187658
 20
-52.62884441818299
 30
0.0
 10
826.2311621348965
 20
-50.59009779189161
 30
0.0
 10
819.7417490479816
 20
-49.41621670942903
 30
0.0
 10
812.7387797876402
 20
-49.11378402844646
 30
0.0
 10
807.9705021505055
 20
-49.71164535913009
 30
0.0
 10
805.4995153111065
 20
-50.02146529671092
 30
0.0
  0
LINE
  5
13E
330
1F
100
AcDbEntity
  8
0
  6
Continuous
 62
     7
370
    15
100
AcDbLine
 10
773.1262657803
 20
-98.9949958276
 30
0.0
 11
773.1262657803
 21
-186.9965450716
 31
0.0
  0
SPLINE
  5
13F
330
1F
100
AcDbEntity
  8
0
  6
Continuous
 62
     7
370
    15
100
AcDbSpline
210
0.0
220
0.0
230
1.0
 70
     8
 71
     3
 72
    20
 73
    16
 74
     0
 42
0.00000001
 43
0.00000001
 40
0.0
 40
0.0
 40
0.0
 40
0.0
 40
0.0738113346573483
 40
0.1413597945617851
 40
0.2048274039701387
 40
0.2660429722141402
 40
0.3463311722236329
 40
0.4267894071590478
 40
0.5079451697265999
 40
0.5895209347336938
 40
0.6709387111727728
 40
0.7517995762618602
 40
0.8323792113258556
 40
0.9141237600507169
 40
1.0
 40
1.0
 40
1.0
 40
1.0
 10
773.1262657803143
 20
-186.9965450715675
 30
0.0
 10
773.6853906798276
 20
-185.7559898473163
 30
0.0
 10
774.7561988598512
 20
-183.3801402239924
 30
0.0
 10
777.0922093518166
 20
-180.3833427358439
 30
0.0
 10
779.7730296319004
 20
-178.0502962507549
 30
0.0
 10
783.0780837593824
 20
-176.191025264293
 30
0.0
 10
787.0266893322295
 20
-175.0114233432037
 30
0.0
 10
791.4991323172064
 20
-174.7407904923557
 30
0.0
 10
795.9504404071522
 20
-175.3941681344227
 30
0.0
 10
800.2085641821474
 20
-176.895269761009
 30
0.0
 10
804.0977771478078
 20
-179.1774113839565
 30
0.0
 10
807.446723941481
 20
-182.1833683565278
 30
0.0
 10
810.0382939436171
 20
-185.8627384279292
 30
0.0
 10
811.7650725276967
 20
-190.1688019122793
 30
0.0
 10
811.9073675195948
 20
-193.2654643312036
 30
0.0
 10
811.98026873289
 20
-194.8519604158058
 30
0.0
  0
SPLINE
  5
140
330
1F
100
AcDbEntity
  8
0
  6
Continuous
 62
     7
370
    15
100
AcDbSpline
210
0.0
220
0.0
230
1.0
 70
     8
 71
     3
 72
    32
 73
    28
 74
     0
 42
0.00000001
 43
0.00000001
 40
0.0
 40
0.0
 40
0.0
 40
0.0
 40
0.0505585799005119
 40
0.0953302664545964
 40
0.1347997586141149
 40
0.1694950199067759
 40
0.1999974520353001
 40
0.2346737830775446
 40
0.2649139310171175
 40
0.2924922578776217
 40
0.3229628092957999
 40
0.3541229549684272
 40
0.3870868435870948
 40
0.4222287151494024
 40
0.4594265858375617
 40
0.5367537573033765
 40
0.6160144288391021
 40
0.6603467676206707
 40
0.7036114964317722
 40
0.7459215945056664
 40
0.7881169848286864
 40
0.8170326534800356
 40
0.847369004152056
 40
0.8799567900664025
 40
0.9156786341564652
 40
0.9554129648990236
 40
1.0
 40
1.0
 40
1.0
 40
1.0
 10
811.9802687328901
 20
-194.8519604158057
 30
0.0
 10
813.8082994472555
 20
-193.2203798388931
 30
0.0
 10
817.2551259884785
 20
-190.143968051907
 30
0.0
 10
821.8333471387414
 20
-185.4783458415112
 30
0.0
 10
825.6018488447568
 20
-181.112428157214
 30
0.0
 10
828.5932729009095
 20
-177.0080047832249
 30
0.0
 10
831.0442231429917
 20
-172.8258232154233
 30
0.0
 10
832.8238165608795
 20
-168.5319474791662
 30
0.0
 10
833.6965067805069
 20
-164.1005246966092
 30
0.0
 10
833.5441947560706
 20
-159.786101780672
 30
0.0
 10
832.3094193637651
 20
-155.5944462829157
 30
0.0
 10
830.0278683686831
 20
-151.5841456856847
 30
0.0
 10
826.9610188216282
 20
-147.8582050718861
 30
0.0
 10
823.2716663684527
 20
-144.32296890675
 30
0.0
 10
817.6660415687516
 20
-139.7155220957962
 30
0.0
 10
810.0546056370038
 20
-134.2158655893182
 30
0.0
 10
802.2624080758349
 20
-128.3675076365136
 30
0.0
 10
796.2434572679342
 20
-122.955884233148
 30
0.0
 10
792.0022498846203
 20
-118.2843232983085
 30
0.0
 10
788.5217226018575
 20
-113.1312306436485
 30
0.0
 10
786.3376157903614
 20
-108.0427109543042
 30
0.0
 10
785.2529342500258
 20
-103.2302084467088
 30
0.0
 10
784.9449654306454
 20
-98.77367176413043
 30
0.0
 10
785.3299572443973
 20
-93.99220014025022
 30
0.0
 10
786.4770631803069
 20
-88.87070573034822
 30
0.0
 10
788.4101271650752
 20
-83.36696079501193
 30
0.0
 10
790.2496184357319
 20
-79.71498293048008
 30
0.0
 10
791.2222955387676
 20
-77.78390812393565
 30
0.0
  0
SPLINE
  5
141
330
1F
100
AcDbEntity
  8
0
  6
Continuous
 62
     7
370
    15
100
AcDbSpline
210
0.0
220
0.0
230
1.0
 70
     8
 71
     3
 72
    18
 73
    14
 74
     0
 42
0.00000001
 43
0.00000001
 40
0.0
 40
0.0
 40
0.0
 40
0.0
 40
0.1122443677171731
 40
0.2044207828385347
 40
0.2792459113768142
 40
0.3406649155102038
 40
0.3944852572454208
 40
0.4480228708052663
 40
0.515738818768953
 40
0.5973211331869529
 40
0.6956723246732113
 40
0.83483689870454
 40
1.0
 40
1.0
 40
1.0
 40
1.0
 10
791.2222955387676
 20
-77.78390812393565
 30
0.0
 10
789.8829306411546
 20
-77.3776948138653
 30
0.0
 10
787.4436632957637
 20
-76.63789428282014
 30
0.0
 10
784.0203778136673
 20
-75.96727758798578
 30
0.0
 10
781.1660553617108
 20
-75.79620535928805
 30
0.0
 10
778.7979910193021
 20
-76.16622758947861
 30
0.0
 10
776.8861835470555
 20
-77.14416613539076
 30
0.0
 10
775.4011104057739
 20
-78.80007485260137
 30
0.0
 10
774.3652053104285
 20
-81.13894272739458
 30
0.0
 10
773.7001969449761
 20
-84.16342596147747
 30
0.0
 10
773.2966236892091
 20
-88.12493703208274
 30
0.0
 10
773.1332100158729
 20
-93.14329942278648
 30
0.0
 10
773.1287087068596
 20
-96.93641582098189
 30
0.0
 10
773.1262657803143
 20
-98.99499582764048
 30
0.0
  0
LINE
  5
142
330
1F
100
AcDbEntity
  8
0
  6
Continuous
 62
     7
370
    15
100
AcDbLine
 10
1000.8832428616
 20
121.4464349795
 30
0.0
 11
1000.8832428616
 21
190.2261419344
 31
0.0
  0
SPLINE
  5
143
330
1F
100
AcDbEntity
  8
0
  6
Continuous
 62
     7
370
    15
100
AcDbSpline
210
0.0
220
0.0
230
1.0
 70
     8
 71
     3
 72
    38
 73
    34
 74
     0
 42
0.00000001
 43
0.00000001
 40
0.0
 40
0.0
 40
0.0
 40
0.0
 40
0.0203761013869563
 40
0.046242189601048
 40
0.0756779796311409
 40
0.1067250733055456
 40
0.1410436442801957
 40
0.1724840581959484
 40
0.1938858854894817
 40
0.2119902259848023
 40
0.2241739136302418
 40
0.2365181049521024
 40
0.2504776554017374
 40
0.2660847601001893
 40
0.3079399948127788
 40
0.3471343524829856
 40
0.3848376179663851
 40
0.4224438364977829
 40
0.4610695641458583
 40
0.5012938729594968
 40
0.5425796245965366
 40
0.5911505003709282
 40
0.6391837917302952
 40
0.68581706494726
 40
0.7304481702302442
 40
0.7728989907052364
 40
0.8136436732128016
 40
0.8405360343545383
 40
0.8679267382548267
 40
0.8966410255551395
 40
0.9276036332662845
 40
0.9617563701426021
 40
0.9999999999999999
 40
0.9999999999999999
 40
0.9999999999999999
 40
0.9999999999999999
 10
1000.883242861613
 20
190.2261419344292
 30
0.0
 10
1000.534551761646
 20
191.1633966535358
 30
0.0
 10
999.7432207974603
 20
193.2904331067973
 30
0.0
 10
997.9418471083001
 20
196.5460876137654
 30
0.0
 10
995.6877448013429
 20
200.1290757446783
 30
0.0
 10
992.9291201494162
 20
203.8758558937701
 30
0.0
 10
989.8135755082985
 20
207.4631959240847
 30
0.0
 10
986.64361720201
 20
210.3551358469277
 30
0.0
 10
983.7017874234563
 20
212.2401375110197
 30
0.0
 10
981.2573591636474
 20
213.0702212854857
 30
0.0
 10
979.114735603502
 20
212.9627703969046
 30
0.0
 10
977.4054335884247
 20
212.0431750071448
 30
0.0
 10
976.0100924898646
 20
210.5063727314307
 30
0.0
 10
974.1385975942053
 20
207.5390609395542
 30
0.0
 10
972.2765718325849
 20
203.1545773500765
 30
0.0
 10
970.5443705203414
 20
197.590249671892
 30
0.0
 10
969.4893415342326
 20
192.0661369051065
 30
0.0
 10
968.8645405213783
 20
186.5135325715659
 30
0.0
 10
968.4544857086837
 20
180.8188579549118
 30
0.0
 10
968.0730386446409
 20
174.9418174903211
 30
0.0
 10
967.7980276905171
 20
168.570152919338
 30
0.0
 10
967.7428152407298
 20
161.8083549945744
 30
0.0
 10
968.0762261631194
 20
154.7894414490091
 30
0.0
 10
968.9277348263762
 20
148.0048587509292
 30
0.0
 10
970.4305100682333
 20
141.6074523155174
 30
0.0
 10
972.7274545843852
 20
135.7480288251454
 30
0.0
 10
975.6354674326723
 20
131.1489110031344
 30
0.0
 10
978.8643518983397
 20
127.7624577263966
 30
0.0
 10
982.1507609929348
 20
125.3285763261491
 30
0.0
 10
985.9927054873999
 20
123.4185116757247
 30
0.0
 10
990.4164733911159
 20
122.0950167846017
 30
0.0
 10
995.4529715478427
 20
121.3608749566778
 30
0.0
 10
999.0062246715588
 20
121.4168604499795
 30
0.0
 10
1000.883242861613
 20
121.4464349794732
 30
0.0
  0
LINE
  5
144
330
1F
100
AcDbEntity
  8
0
  6
Continuous
 62
     7
370
    15
100
AcDbLine
 10
773.1262657803
 20
-396.0988255095
 30
0.0
 11
773.1262657803
 21
-442.529502685
 31
0.0
  0
LINE
  5
145
330
1F
100
AcDbEntity
  8
0
  6
Continuous
 62
     7
370
    15
100
AcDbLine
 10
773.1262657803
 20
-442.529502685
 30
0.0
 11
805.4995153111
 21
-442.529502685
 31
0.0
  0
SPLINE
  5
146
330
1F
100
AcDbEntity
  8
0
  6
Continuous
 62
     7
370
    15
100
AcDbSpline
210
0.0
220
0.0
230
1.0
 70
     8
 71
     3
 72
    39
 73
    35
 74
     0
 42
0.00000001
 43
0.00000001
 40
0.0
 40
0.0
 40
0.0
 40
0.0
 40
0.0361531409637762
 40
0.0643209808609743
 40
0.0876432374195214
 40
0.1094706500516779
 40
0.1384972056408955
 40
0.1708419613534392
 40
0.2059229710428944
 40
0.2420519132779543
 40
0.2786777858947614
 40
0.3114365717348548
 40
0.3377912146965178
 40
0.3492339462264984
 40
0.3582273157542871
 40
0.363469034582882
 40
0.3689454015586125
 40
0.3753373851588236
 40
0.4014323442283706
 40
0.4362414884703205
 40
0.4667141671941031
 40
0.4974543044742349
 40
0.5408906788048188
 40
0.581366210902676
 40
0.6215098421599817
 40
0.6626603644597359
 40
0.7050356154739867
 40
0.748164518425779
 40
0.7912730928920624
 40
0.8336017636104395
 40
0.8747334245753262
 40
0.9149780366231826
 40
0.9558018581003732
 40
1.0
 40
1.0
 40
1.0
 40
1.0
 10
805.4995153111066
 20
-442.5295026850357
 30
0.0
 10
806.0185657897858
 20
-441.6583801359697
 30
0.0
 10
806.9420218164265
 20
-440.1085436539286
 30
0.0
 10
807.5849647374373
 20
-437.7024717685576
 30
0.0
 10
807.4233440811024
 20
-435.6113600738071
 30
0.0
 10
806.4542042954461
 20
-433.7246112192605
 30
0.0
 10
804.693847114067
 20
-432.1417134312993
 30
0.0
 10
802.3084123586559
 20
-430.85996148017
 30
0.0
 10
799.5915712715471
 20
-429.8458707872363
 30
0.0
 10
796.6953155673898
 20
-429.0073725196722
 30
0.0
 10
793.8358555809072
 20
-428.2805684937755
 30
0.0
 10
791.2533796856361
 20
-427.5890597523777
 30
0.0
 10
789.377920779622
 20
-426.9440319090976
 30
0.0
 10
788.2401897262018
 20
-426.2911885251143
 30
0.0
 10
787.7201281256068
 20
-425.7655108985668
 30
0.0
 10
787.5399729307746
 20
-425.2279390792243
 30
0.0
 10
787.5952972591149
 20
-424.7407072676326
 30
0.0
 10
788.0302125060199
 20
-423.7634357623764
 30
0.0
 10
789.3505106520636
 20
-422.3731454905543
 30
0.0
 10
791.225417740373
 20
-420.6599043536719
 30
0.0
 10
793.1921905777066
 20
-418.8267838050439
 30
0.0
 10
795.1985633470573
 20
-416.6963447862121
 30
0.0
 10
796.9408280313312
 20
-413.9453687386073
 30
0.0
 10
797.730250892551
 20
-410.5048116215834
 30
0.0
 10
797.4879825852141
 20
-407.0684828221708
 30
0.0
 10
796.3895066902819
 20
-403.7589756074329
 30
0.0
 10
794.5909294594279
 20
-400.6837685466511
 30
0.0
 10
792.22399268301
 20
-397.9522994807263
 30
0.0
 10
789.4126056078968
 20
-395.6822077868927
 30
0.0
 10
786.2764405840965
 20
-393.9979335793225
 30
0.0
 10
782.9221438716705
 20
-393.0278260150596
 30
0.0
 10
779.4730582983842
 20
-392.9431173849245
 30
0.0
 10
776.0085095882563
 20
-393.8694075517699
 30
0.0
 10
774.1121016960196
 20
-395.3362806172995
 30
0.0
 10
773.1262657803143
 20
-396.0988255095138
 30
0.0
  0
SPLINE
  5
147
330
1F
100
AcDbEntity
  8
0
  6
Continuous
 62
     7
370
    15
100
AcDbSpline
210
0.0
220
0.0
230
1.0
 70
     8
 71
     3
 72
    19
 73
    15
 74
     0
 42
0.00000001
 43
0.00000001
 40
0.0
 40
0.0
 40
0.0
 40
0.0
 40
0.0914306368994705
 40
0.1832849101782267
 40
0.27536469925723
 40
0.3674154921280549
 40
0.4592412696670763
 40
0.5508199167780299
 40
0.6227907534748355
 40
0.6950705404330957
 40
0.7681443853725998
 40
0.8426996797060295
 40
0.9196259908321742
 40
1.0
 40
1.0
 40
1.0
 40
1.0
 10
819.1274020832623
 20
-408.0820487689628
 30
0.0
 10
818.824895339697
 20
-405.3984214204725
 30
0.0
 10
818.2184802123077
 20
-400.0187323556275
 30
0.0
 10
818.7258508981324
 20
-391.8759104839522
 30
0.0
 10
820.2251760373673
 20
-383.8582856014264
 30
0.0
 10
822.7933781733199
 20
-376.1082099679481
 30
0.0
 10
826.3759007973871
 20
-368.7897872883264
 30
0.0
 10
830.6314058431802
 20
-362.5418500187922
 30
0.0
 10
835.2972289058288
 20
-357.3620501803392
 30
0.0
 10
840.1625325120381
 20
-353.163720434127
 30
0.0
 10
845.6022018600652
 20
-349.5942463860223
 30
0.0
 10
851.6046959696082
 20
-346.757548824529
 30
0.0
 10
858.1468356142171
 20
-344.6583666885051
 30
0.0
 10
862.7509376238879
 20
-344.0329866789339
 30
0.0
 10
865.1034448307598
 20
-343.7134431552543
 30
0.0
  0
SPLINE
  5
148
330
1F
100
AcDbEntity
  8
0
  6
Continuous
 62
     7
370
    15
100
AcDbSpline
210
0.0
220
0.0
230
1.0
 70
     8
 71
     3
 72
    64
 73
    60
 74
     0
 42
0.00000001
 43
0.00000001
 40
0.0
 40
0.0
 40
0.0
 40
0.0
 40
0.0228959874838013
 40
0.0447134694634307
 40
0.0660565838922637
 40
0.0871284551276845
 40
0.1078796620289445
 40
0.1281850808399975
 40
0.1480353275315921
 40
0.1677480165534287
 40
0.1881613028939486
 40
0.2047869155702069
 40
0.2233130030038652
 40
0.2437290122777534
 40
0.2646010325444356
 40
0.2811984212819836
 40
0.2957920767248294
 40
0.3051838380119533
 40
0.3123144891002987
 40
0.3146555770877882
 40
0.3166458770492346
 40
0.3184387675676102
 40
0.3202890335086503
 40
0.3231039508691025
 40
0.3267229538696106
 40
0.3311269388790478
 40
0.3438572917893866
 40
0.3566647987754555
 40
0.3694842634799972
 40
0.3819303305144314
 40
0.3939656176233216
 40
0.4055650822009043
 40
0.4166445760782563
 40
0.4272150062217476
 40
0.4376759873819076
 40
0.4542528310738272
 40
0.4724348525361345
 40
0.4918655814178435
 40
0.5117555679337131
 40
0.5312057871637499
 40
0.5494568016093139
 40
0.5663321557647487
 40
0.5827726023103816
 40
0.603051012680177
 40
0.6243962554407262
 40
0.6465817838279723
 40
0.6689643976059655
 40
0.6908716431642897
 40
0.7262479988050828
 40
0.7606065231549303
 40
0.7942206610474531
 40
0.8190851970951161
 40
0.8437424325237689
 40
0.8683248693556983
 40
0.8930269105987726
 40
0.9181256875622303
 40
0.9439946886324346
 40
0.9711025816437124
 40
1.0
 40
1.0
 40
1.0
 40
1.0
 10
865.1034448307598
 20
-343.7134431552543
 30
0.0
 10
866.360820577773
 20
-342.9644169856475
 30
0.0
 10
868.8163439356499
 20
-341.5016471974602
 30
0.0
 10
871.5517406922535
 20
-338.2256966302065
 30
0.0
 10
873.3930237766019
 20
-334.5530063403758
 30
0.0
 10
874.3317083334704
 20
-330.615197817977
 30
0.0
 10
874.4012696080516
 20
-326.639086347109
 30
0.0
 10
873.6069038061185
 20
-322.8172435906714
 30
0.0
 10
871.9389020063107
 20
-319.3522323303731
 30
0.0
 10
869.3674550855956
 20
-316.4649176312631
 30
0.0
 10
866.19719124487
 20
-314.6184926580591
 30
0.0
 10
862.747556808444
 20
-313.7368110563612
 30
0.0
 10
859.1931890374229
 20
-313.6541119720749
 30
0.0
 10
855.4248334133906
 20
-314.2262555188499
 30
0.0
 10
851.8703195013638
 20
-315.1956591334105
 30
0.0
 10
848.7763114711153
 20
-316.3724936252895
 30
0.0
 10
846.4567549813071
 20
-317.5155486077151
 30
0.0
 10
844.8037612318631
 20
-318.5996042001696
 30
0.0
 10
843.9057975197426
 20
-319.4198941510114
 30
0.0
 10
843.5237924882122
 20
-320.045124468198
 30
0.0
 10
843.4067002376438
 20
-320.4223104228146
 30
0.0
 10
843.4299250367261
 20
-320.7895936135799
 30
0.0
 10
843.6333651883466
 20
-321.1595451097486
 30
0.0
 10
844.0611970363568
 20
-321.4847159547465
 30
0.0
 10
844.6870236634641
 20
-321.7735796491336
 30
0.0
 10
845.9355641499054
 20
-322.2015742567831
 30
0.0
 10
847.7759203498958
 20
-322.683321411336
 30
0.0
 10
850.0990080319162
 20
-323.4239422651909
 30
0.0
 10
852.2899458287624
 20
-324.4941014062135
 30
0.0
 10
854.0920161083019
 20
-326.0749142472513
 30
0.0
 10
855.4208865490316
 20
-327.9667914027661
 30
0.0
 10
856.2453532959317
 20
-330.033840071944
 30
0.0
 10
856.540277742717
 20
-332.1485228493764
 30
0.0
 10
856.2463080552236
 20
-334.1997337571823
 30
0.0
 10
855.1741327434836
 20
-336.3728971320739
 30
0.0
 10
853.1031310458828
 20
-338.4428145288566
 30
0.0
 10
850.0842668461588
 20
-340.1523419933254
 30
0.0
 10
846.5941677790493
 20
-341.296350169915
 30
0.0
 10
842.8824367663565
 20
-341.8400515796971
 30
0.0
 10
839.2068506369158
 20
-341.7388742699757
 30
0.0
 10
835.7955716034559
 20
-340.9472480385662
 30
0.0
 10
832.8988429425185
 20
-339.3133926242197
 30
0.0
 10
830.5218408955643
 20
-336.8177084510344
 30
0.0
 10
828.761954005035
 20
-333.5292570149599
 30
0.0
 10
827.6666304107649
 20
-329.6027790951951
 30
0.0
 10
827.2151615004764
 20
-325.4254523718886
 30
0.0
 10
827.3185559483485
 20
-321.193229586837
 30
0.0
 10
828.0397668755053
 20
-316.1739871485293
 30
0.0
 10
829.7756732828723
 20
-310.5749576511409
 30
0.0
 10
832.9234465376071
 20
-304.7680297282824
 30
0.0
 10
836.7098978918025
 20
-300.1954426308957
 30
0.0
 10
840.7429919725781
 20
-296.7574301617836
 30
0.0
 10
844.7620962079875
 20
-294.2708485368269
 30
0.0
 10
849.112958160206
 20
-292.4483457460742
 30
0.0
 10
853.7313148150398
 20
-291.3533807670946
 30
0.0
 10
858.5535865076134
 20
-291.0465852874336
 30
0.0
 10
863.5020279953134
 20
-291.6074588764981
 30
0.0
 10
868.5404368740966
 20
-293.0392304551753
 30
0.0
 10
871.6908761538652
 20
-294.7096790823974
 30
0.0
 10
873.3164284390057
 20
-295.571591134037
 30
0.0
  0
SPLINE
  5
149
330
1F
100
AcDbEntity
  8
0
  6
Continuous
 62
     7
370
    15
100
AcDbSpline
210
0.0
220
0.0
230
1.0
 70
     8
 71
     3
 72
    23
 73
    19
 74
     0
 42
0.00000001
 43
0.00000001
 40
0.0
 40
0.0
 40
0.0
 40
0.0
 40
0.0559184484913063
 40
0.1086880439714773
 40
0.1595922182928738
 40
0.2096808000143907
 40
0.2597237012201211
 40
0.3102101751947248
 40
0.3909395761604716
 40
0.4733493010177498
 40
0.5567629000081077
 40
0.6206922701757139
 40
0.684269794777687
 40
0.7472562798111205
 40
0.8096717107525111
 40
0.8719160435656572
 40
0.9348797330511317
 40
1.0
 40
1.0
 40
1.0
 40
1.0
 10
873.3164284390057
 20
-295.571591134037
 30
0.0
 10
873.9269155876369
 20
-293.498843962356
 30
0.0
 10
875.1135124236483
 20
-289.4700691694997
 30
0.0
 10
875.8130537005253
 20
-283.3237975536668
 30
0.0
 10
875.7283080883601
 20
-277.3788221791957
 30
0.0
 10
874.9001442099993
 20
-271.5960439782693
 30
0.0
 10
873.4518490566697
 20
-265.9589735688118
 30
0.0
 10
871.0997754909895
 20
-259.3653110731552
 30
0.0
 10
867.6218474762787
 20
-251.8798014646536
 30
0.0
 10
863.0454810665336
 20
-243.5385804808562
 30
0.0
 10
858.5830950165547
 20
-235.8800038452435
 30
0.0
 10
854.5669808227685
 20
-228.8023880734663
 30
0.0
 10
851.1498545438094
 20
-222.2931186393513
 30
0.0
 10
848.1306635439714
 20
-215.6513330259536
 30
0.0
 10
845.6744128098188
 20
-208.8278980722793
 30
0.0
 10
843.9855778021293
 20
-201.7773577757995
 30
0.0
 10
843.1494911213828
 20
-194.4426308924837
 30
0.0
 10
843.5360323305674
 20
-189.5062784919415
 30
0.0
 10
843.7325570744122
 20
-186.9965450715675
 30
0.0
  0
SPLINE
  5
14A
330
1F
100
AcDbEntity
  8
0
  6
Continuous
 62
     7
370
    15
100
AcDbSpline
210
0.0
220
0.0
230
1.0
 70
     8
 71
     3
 72
    35
 73
    31
 74
     0
 42
0.00000001
 43
0.00000001
 40
0.0
 40
0.0
 40
0.0
 40
0.0
 40
0.0569236484365257
 40
0.1083076690060676
 40
0.1546947325466646
 40
0.196622752210289
 40
0.2346177876988778
 40
0.2691895213674248
 40
0.300823004919145
 40
0.3403434470094074
 40
0.3762193780883272
 40
0.4093654084885685
 40
0.4405861804037047
 40
0.4795335749863079
 40
0.5184856630511748
 40
0.5599597368006793
 40
0.6054865229052242
 40
0.6543070291203475
 40
0.7052833218199841
 40
0.7571928154817573
 40
0.8077952454746907
 40
0.8570549026967784
 40
0.8757224833030745
 40
0.8933784609523794
 40
0.90974536939992
 40
0.9256095776363098
 40
0.9387958047902198
 40
0.9546290698933464
 40
0.974601242686385
 40
1.0
 40
1.0
 40
1.0
 40
1.0
 10
843.7325570744122
 20
-186.9965450715675
 30
0.0
 10
842.4295954896687
 20
-189.7157801885672
 30
0.0
 10
839.9504723848772
 20
-194.8896231359333
 30
0.0
 10
836.7964172148904
 20
-202.4553247074575
 30
0.0
 10
834.2494829211207
 20
-209.4046667391542
 30
0.0
 10
832.266619042369
 20
-215.7970983930931
 30
0.0
 10
830.7780622695692
 20
-221.6785913023564
 30
0.0
 10
829.7199529139003
 20
-227.0979223157022
 30
0.0
 10
828.9511123845654
 20
-232.6471063601041
 30
0.0
 10
828.5235457152864
 20
-238.304329444223
 30
0.0
 10
828.4475732472187
 20
-244.055186521155
 30
0.0
 10
828.5989878717429
 20
-249.3628574007535
 30
0.0
 10
828.8222799650953
 20
-254.8297853272029
 30
0.0
 10
828.8975772325373
 20
-260.6117087102622
 30
0.0
 10
828.3663427332133
 20
-266.929492704736
 30
0.0
 10
826.7966378229261
 20
-273.4413859420638
 30
0.0
 10
824.1123009728259
 20
-280.1360361511406
 30
0.0
 10
820.481219597608
 20
-286.9368543551877
 30
0.0
 10
816.0197593846622
 20
-293.6335926321045
 30
0.0
 10
810.9043028524669
 20
-299.9663886981023
 30
0.0
 10
805.2870020978125
 20
-305.7326105526821
 30
0.0
 10
800.4551073160519
 20
-309.7637587600285
 30
0.0
 10
796.752639340405
 20
-312.3787077799736
 30
0.0
 10
794.5584281973684
 20
-314.1076502977916
 30
0.0
 10
792.7573306861392
 20
-316.0747766592219
 30
0.0
 10
791.7641201066092
 20
-318.3336526936706
 30
0.0
 10
791.663361389661
 20
-320.7469891424314
 30
0.0
 10
792.2826914570023
 20
-323.2912979273529
 30
0.0
 10
793.6635872325065
 20
-326.2437002472419
 30
0.0
 10
795.0231626191097
 20
-328.2286774154049
 30
0.0
 10
795.7842562359417
 20
-329.339872474636
 30
0.0
  0
SPLINE
  5
14B
330
1F
100
AcDbEntity
  8
0
  6
Continuous
 62
     7
370
    15
100
AcDbSpline
210
0.0
220
0.0
230
1.0
 70
     8
 71
     3
 72
    33
 73
    29
 74
     0
 42
0.00000001
 43
0.00000001
 40
0.0
 40
0.0
 40
0.0
 40
0.0
 40
0.0291626672138788
 40
0.053498532708431
 40
0.0744966020835001
 40
0.0960342962400504
 40
0.1171889435276938
 40
0.1391230319337819
 40
0.1622543657265108
 40
0.1946972937138454
 40
0.2280255615041824
 40
0.2608703339089498
 40
0.2919727152259158
 40
0.3209515973025797
 40
0.3495095892601857
 40
0.3790851613743503
 40
0.4100878206117748
 40
0.4422571913217453
 40
0.4913595386971367
 40
0.539525958425822
 40
0.5860423982107372
 40
0.6318568464518539
 40
0.693061529735565
 40
0.7550855891239819
 40
0.8177709464799875
 40
0.8803215752313382
 40
0.9415388545548466
 40
0.9999999999999999
 40
0.9999999999999999
 40
0.9999999999999999
 40
0.9999999999999999
 10
795.7842562359417
 20
-329.339872474636
 30
0.0
 10
796.1334952138646
 20
-328.3077400064438
 30
0.0
 10
796.7741695646181
 20
-326.4143064530567
 30
0.0
 10
798.2940054823713
 20
-324.0547705129811
 30
0.0
 10
800.142161456444
 20
-322.3404596523466
 30
0.0
 10
802.3377284290448
 20
-321.3268330881578
 30
0.0
 10
804.7656699912006
 20
-321.0599161413193
 30
0.0
 10
807.2246625310545
 20
-321.4501862442799
 30
0.0
 10
809.9343687809385
 20
-322.4933980961874
 30
0.0
 10
812.7502057850083
 20
-324.2821461831371
 30
0.0
 10
815.4472843491563
 20
-326.8051357849038
 30
0.0
 10
817.6176555823371
 20
-329.7312238190376
 30
0.0
 10
819.1020061805268
 20
-332.8958112344933
 30
0.0
 10
819.6450305714604
 20
-336.1984149838731
 30
0.0
 10
819.2947994482028
 20
-339.4545911799409
 30
0.0
 10
818.3066006154286
 20
-342.6380812407139
 30
0.0
 10
816.8791732524364
 20
-345.7896318638232
 30
0.0
 10
814.9048104303133
 20
-349.4779006863824
 30
0.0
 10
812.5277968551288
 20
-353.6713200164505
 30
0.0
 10
810.2362995091345
 20
-358.5308876914647
 30
0.0
 10
808.842773662253
 20
-363.6027133383757
 30
0.0
 10
808.1748328966003
 20
-369.3010235636391
 30
0.0
 10
808.4228716892825
 20
-375.6217105893443
 30
0.0
 10
809.6472347049277
 20
-382.4537830485917
 30
0.0
 10
811.5682569346906
 20
-389.1683924509873
 30
0.0
 10
813.9387064256188
 20
-395.7006861842103
 30
0.0
 10
816.5267075006764
 20
-401.9770396242909
 30
0.0
 10
818.273916335719
 20
-406.0785308132259
 30
0.0
 10
819.1274020832623
 20
-408.0820487689628
 30
0.0
  0
LINE
  5
14C
330
1F
100
AcDbEntity
  8
0
  6
Continuous
 62
     7
370
    15
100
AcDbLine
 10
708.5932705563
 20
-488.556721608
 30
0.0
 11
708.5932705563
 21
405.4432554293
 31
0.0
  0
LINE
  5
14D
330
1F
100
AcDbEntity
  8
0
  6
Continuous
 62
     7
370
    15
100
AcDbLine
 10
-668.0230285961
 20
965.917531972
 30
0.0
 11
-1024.0230347949
 21
965.917531972
 31
0.0
  0
LINE
  5
14E
330
1F
100
AcDbEntity
  8
0
  6
Continuous
 62
     7
370
    15
100
AcDbLine
 10
-668.0230285961
 20
965.917531972
 30
0.0
 11
-668.0230285961
 21
943.2634754229
 31
0.0
  0
LINE
  5
14F
330
1F
100
AcDbEntity
  8
0
  6
Continuous
 62
     7
370
    15
100
AcDbLine
 10
-668.0230285961
 20
943.2634754229
 30
0.0
 11
-656.0230042774
 21
943.2634754229
 31
0.0
  0
LINE
  5
150
330
1F
100
AcDbEntity
  8
0
  6
Continuous
 62
     7
370
    15
100
AcDbLine
 10
-656.0230042774
 20
943.2634754229
 30
0.0
 11
-656.0230042774
 21
893.2634038973
 31
0.0
  0
LINE
  5
151
330
1F
100
AcDbEntity
  8
0
  6
Continuous
 62
     7
370
    15
100
AcDbLine
 10
-668.0230285961
 20
893.2634038973
 30
0.0
 11
-656.0230042774
 21
893.2634038973
 31
0.0
  0
LINE
  5
152
330
1F
100
AcDbEntity
  8
0
  6
Continuous
 62
     7
370
    15
100
AcDbLine
 10
-668.0230285961
 20
893.2634038973
 30
0.0
 11
-668.0230285961
 21
662.5717325259
 31
0.0
  0
LINE
  5
153
330
1F
100
AcDbEntity
  8
0
  6
Continuous
 62
     7
370
    15
100
AcDbLine
 10
-656.0230042774
 20
662.5717325259
 30
0.0
 11
-656.0230042774
 21
612.5717802096
 31
0.0
  0
LINE
  5
154
330
1F
100
AcDbEntity
  8
0
  6
Continuous
 62
     7
370
    15
100
AcDbLine
 10
-668.0230285961
 20
589.9176044512
 30
0.0
 11
-718.1149508792
 21
589.9176044512
 31
0.0
  0
LINE
  5
155
330
1F
100
AcDbEntity
  8
0
  6
Continuous
 62
     7
370
    15
100
AcDbLine
 10
-718.1149508792
 20
589.9176044512
 30
0.0
 11
-718.1149508792
 21
577.9176397372
 31
0.0
  0
LINE
  5
156
330
1F
100
AcDbEntity
  8
0
  6
Continuous
 62
     7
370
    15
100
AcDbLine
 10
-718.1149508792
 20
577.9176397372
 30
0.0
 11
-768.1149628002
 21
577.9176397372
 31
0.0
  0
LINE
  5
157
330
1F
100
AcDbEntity
  8
0
  6
Continuous
 62
     7
370
    15
100
AcDbLine
 10
-768.1149628002
 20
589.9176044512
 30
0.0
 11
-768.1149628002
 21
577.9176397372
 31
0.0
  0
LINE
  5
158
330
1F
100
AcDbEntity
  8
0
  6
Continuous
 62
     7
370
    15
100
AcDbLine
 10
-768.1149628002
 20
589.9176044512
 30
0.0
 11
-923.9310409862
 21
589.9176044512
 31
0.0
  0
LINE
  5
159
330
1F
100
AcDbEntity
  8
0
  6
Continuous
 62
     7
370
    15
100
AcDbLine
 10
-923.9310409862
 20
589.9176044512
 30
0.0
 11
-923.9310409862
 21
577.9176397372
 31
0.0
  0
LINE
  5
15A
330
1F
100
AcDbEntity
  8
0
  6
Continuous
 62
     7
370
    15
100
AcDbLine
 10
-923.9310409862
 20
577.9176397372
 30
0.0
 11
-973.9310529071
 21
577.9176397372
 31
0.0
  0
LINE
  5
15B
330
1F
100
AcDbEntity
  8
0
  6
Continuous
 62
     7
370
    15
100
AcDbLine
 10
-973.9310529071
 20
589.9176044512
 30
0.0
 11
-973.9310529071
 21
577.9176397372
 31
0.0
  0
LINE
  5
15C
330
1F
100
AcDbEntity
  8
0
  6
Continuous
 62
     7
370
    15
100
AcDbLine
 10
-1024.0230347949
 20
612.5717802096
 30
0.0
 11
-1024.0230347949
 21
589.9176044512
 31
0.0
  0
LINE
  5
15D
330
1F
100
AcDbEntity
  8
0
  6
Continuous
 62
     7
370
    15
100
AcDbLine
 10
-1024.0230347949
 20
612.5717802096
 30
0.0
 11
-1036.022999509
 21
612.5717802096
 31
0.0
  0
LINE
  5
15E
330
1F
100
AcDbEntity
  8
0
  6
Continuous
 62
     7
370
    15
100
AcDbLine
 10
-1036.022999509
 20
612.5717802096
 30
0.0
 11
-1036.022999509
 21
662.5717325259
 31
0.0
  0
LINE
  5
15F
330
1F
100
AcDbEntity
  8
0
  6
Continuous
 62
     7
370
    15
100
AcDbLine
 10
-1024.0230347949
 20
662.5717325259
 30
0.0
 11
-1036.022999509
 21
662.5717325259
 31
0.0
  0
LINE
  5
160
330
1F
100
AcDbEntity
  8
0
  6
Continuous
 62
     7
370
    15
100
AcDbLine
 10
-1024.0230347949
 20
893.2634038973
 30
0.0
 11
-1024.0230347949
 21
662.5717325259
 31
0.0
  0
LINE
  5
161
330
1F
100
AcDbEntity
  8
0
  6
Continuous
 62
     7
370
    15
100
AcDbLine
 10
-1024.0230347949
 20
893.2634038973
 30
0.0
 11
-1036.022999509
 21
893.2634038973
 31
0.0
  0
LINE
  5
162
330
1F
100
AcDbEntity
  8
0
  6
Continuous
 62
     7
370
    15
100
AcDbLine
 10
-1036.022999509
 20
893.2634038973
 30
0.0
 11
-1036.022999509
 21
943.2634754229
 31
0.0
  0
LINE
  5
163
330
1F
100
AcDbEntity
  8
0
  6
Continuous
 62
     7
370
    15
100
AcDbLine
 10
-1024.0230347949
 20
943.2634754229
 30
0.0
 11
-1036.022999509
 21
943.2634754229
 31
0.0
  0
LINE
  5
164
330
1F
100
AcDbEntity
  8
0
  6
Continuous
 62
     7
370
    15
100
AcDbLine
 10
-1024.0230347949
 20
965.917531972
 30
0.0
 11
-1024.0230347949
 21
943.2634754229
 31
0.0
  0
LINE
  5
165
330
1F
100
AcDbEntity
  8
0
  6
Continuous
 62
     7
370
    15
100
AcDbLine
 10
-668.0230285961
 20
662.5717325259
 30
0.0
 11
-656.0230042774
 21
662.5717325259
 31
0.0
  0
LINE
  5
166
330
1F
100
AcDbEntity
  8
0
  6
Continuous
 62
     7
370
    15
100
AcDbLine
 10
-668.0230285961
 20
612.5717802096
 30
0.0
 11
-656.0230042774
 21
612.5717802096
 31
0.0
  0
LINE
  5
167
330
1F
100
AcDbEntity
  8
0
  6
Continuous
 62
     7
370
    15
100
AcDbLine
 10
-973.9310529071
 20
589.9176044512
 30
0.0
 11
-1024.0230347949
 21
589.9176044512
 31
0.0
  0
LINE
  5
168
330
1F
100
AcDbEntity
  8
0
  6
Continuous
 62
     7
370
    15
100
AcDbLine
 10
-668.0230285961
 20
612.5717802096
 30
0.0
 11
-668.0230285961
 21
589.9176044512
 31
0.0
  0
LINE
  5
169
330
1F
100
AcDbEntity
  8
0
  6
Continuous
 62
     7
370
    15
100
AcDbLine
 10
-1044.628658517
 20
1177.9043121386
 30
0.0
 11
-1032.6286341983
 21
1177.9043121386
 31
0.0
  0
LINE
  5
16A
330
1F
100
AcDbEntity
  8
0
  6
Continuous
 62
     7
370
    15
100
AcDbLine
 10
-654.6286132175
 20
1493.2503147173
 30
0.0
 11
-654.6286132175
 21
1093.2502193499
 31
0.0
  0
LINE
  5
16B
330
1F
100
AcDbEntity
  8
0
  6
Continuous
 62
     7
370
    15
100
AcDbLine
 10
-1032.6286341983
 20
1177.9043121386
 30
0.0
 11
-1032.6286341983
 21
1127.9043598223
 31
0.0
  0
LINE
  5
16C
330
1F
100
AcDbEntity
  8
0
  6
Continuous
 62
     7
370
    15
100
AcDbLine
 10
-1054.6286489803
 20
1093.2502193499
 30
0.0
 11
-1054.6286489803
 21
1493.2503147173
 31
0.0
  0
LINE
  5
16D
330
1F
100
AcDbEntity
  8
0
  6
Continuous
 62
     7
370
    15
100
AcDbLine
 10
-1054.6286489803
 20
1493.2503147173
 30
0.0
 11
-654.6286132175
 21
1493.2503147173
 31
0.0
  0
LINE
  5
16E
330
1F
100
AcDbEntity
  8
0
  6
Continuous
 62
     7
370
    15
100
AcDbLine
 10
-979.6687152225
 20
1093.2502193499
 30
0.0
 11
-1054.6286489803
 21
1093.2502193499
 31
0.0
  0
LINE
  5
16F
330
1F
100
AcDbEntity
  8
0
  6
Continuous
 62
     7
370
    15
100
AcDbLine
 10
-654.6286132175
 20
1093.2502193499
 30
0.0
 11
-729.5885469753
 21
1093.2502193499
 31
0.0
  0
LINE
  5
170
330
1F
100
AcDbEntity
  8
0
  6
Continuous
 62
     7
370
    15
100
AcDbLine
 10
-664.6286632854
 20
1408.5961027193
 30
0.0
 11
-676.6286279994
 21
1408.5961027193
 31
0.0
  0
LINE
  5
171
330
1F
100
AcDbEntity
  8
0
  6
Continuous
 62
     7
370
    15
100
AcDbLine
 10
-676.6286279994
 20
1408.5961027193
 30
0.0
 11
-676.6286279994
 21
1458.5960550356
 31
0.0
  0
LINE
  5
172
330
1F
100
AcDbEntity
  8
0
  6
Continuous
 62
     7
370
    15
100
AcDbLine
 10
-1032.6286341983
 20
1458.5960550356
 30
0.0
 11
-1032.6286341983
 21
1408.5961027193
 31
0.0
  0
LINE
  5
173
330
1F
100
AcDbEntity
  8
0
  6
Continuous
 62
     7
370
    15
100
AcDbLine
 10
-1032.6286341983
 20
1408.5961027193
 30
0.0
 11
-1044.628658517
 21
1408.5961027193
 31
0.0
  0
LINE
  5
174
330
1F
100
AcDbEntity
  8
0
  6
Continuous
 62
     7
370
    15
100
AcDbLine
 10
-1044.628658517
 20
1408.5961027193
 30
0.0
 11
-1044.628658517
 21
1458.5960550356
 31
0.0
  0
LINE
  5
175
330
1F
100
AcDbEntity
  8
0
  6
Continuous
 62
     7
370
    15
100
AcDbLine
 10
-779.5885588962
 20
1093.2502193499
 30
0.0
 11
-929.6687033016
 21
1093.2502193499
 31
0.0
  0
LINE
  5
176
330
1F
100
AcDbEntity
  8
0
  6
Continuous
 62
     7
370
    15
100
AcDbLine
 10
-779.5885588962
 20
1105.2501840639
 30
0.0
 11
-729.5885469753
 21
1105.2501840639
 31
0.0
  0
LINE
  5
177
330
1F
100
AcDbEntity
  8
0
  6
Continuous
 62
     7
370
    15
100
AcDbLine
 10
-729.5885469753
 20
1105.2501840639
 30
0.0
 11
-729.5885469753
 21
1093.2502193499
 31
0.0
  0
LINE
  5
178
330
1F
100
AcDbEntity
  8
0
  6
Continuous
 62
     7
370
    15
100
AcDbLine
 10
-979.6687152225
 20
1105.2501840639
 30
0.0
 11
-929.6687033016
 21
1105.2501840639
 31
0.0
  0
LINE
  5
179
330
1F
100
AcDbEntity
  8
0
  6
Continuous
 62
     7
370
    15
100
AcDbLine
 10
-929.6687033016
 20
1105.2501840639
 30
0.0
 11
-929.6687033016
 21
1093.2502193499
 31
0.0
  0
LINE
  5
17A
330
1F
100
AcDbEntity
  8
0
  6
Continuous
 62
     7
370
    15
100
AcDbLine
 10
-979.6687152225
 20
1093.2502193499
 30
0.0
 11
-979.6687152225
 21
1105.2501840639
 31
0.0
  0
LINE
  5
17B
330
1F
100
AcDbEntity
  8
0
  6
Continuous
 62
     7
370
    15
100
AcDbLine
 10
-676.6286279994
 20
1127.9043598223
 30
0.0
 11
-676.6286279994
 21
1177.9043121386
 31
0.0
  0
LINE
  5
17C
330
1F
100
AcDbEntity
  8
0
  6
Continuous
 62
     7
370
    15
100
AcDbLine
 10
-676.6286279994
 20
1177.9043121386
 30
0.0
 11
-664.6286632854
 21
1177.9043121386
 31
0.0
  0
LINE
  5
17D
330
1F
100
AcDbEntity
  8
0
  6
Continuous
 62
     7
370
    15
100
AcDbLine
 10
-664.6286632854
 20
1177.9043121386
 30
0.0
 11
-664.6286632854
 21
1127.9043598223
 31
0.0
  0
LINE
  5
17E
330
1F
100
AcDbEntity
  8
0
  6
Continuous
 62
     7
370
    15
100
AcDbLine
 10
-664.6286632854
 20
1127.9043598223
 30
0.0
 11
-676.6286279994
 21
1127.9043598223
 31
0.0
  0
LINE
  5
17F
330
1F
100
AcDbEntity
  8
0
  6
Continuous
 62
     7
370
    15
100
AcDbLine
 10
-676.6286279994
 20
1458.5960550356
 30
0.0
 11
-664.6286632854
 21
1458.5960550356
 31
0.0
  0
LINE
  5
180
330
1F
100
AcDbEntity
  8
0
  6
Continuous
 62
     7
370
    15
100
AcDbLine
 10
-664.6286632854
 20
1458.5960550356
 30
0.0
 11
-664.6286632854
 21
1408.5961027193
 31
0.0
  0
LINE
  5
181
330
1F
100
AcDbEntity
  8
0
  6
Continuous
 62
     7
370
    15
100
AcDbLine
 10
-779.5885588962
 20
1093.2502193499
 30
0.0
 11
-779.5885588962
 21
1105.2501840639
 31
0.0
  0
LINE
  5
182
330
1F
100
AcDbEntity
  8
0
  6
Continuous
 62
     7
370
    15
100
AcDbLine
 10
-1032.6286341983
 20
1127.9043598223
 30
0.0
 11
-1044.628658517
 21
1127.9043598223
 31
0.0
  0
LINE
  5
183
330
1F
100
AcDbEntity
  8
0
  6
Continuous
 62
     7
370
    15
100
AcDbLine
 10
-1044.628658517
 20
1127.9043598223
 30
0.0
 11
-1044.628658517
 21
1177.9043121386
 31
0.0
  0
LINE
  5
184
330
1F
100
AcDbEntity
  8
0
  6
Continuous
 62
     7
370
    15
100
AcDbLine
 10
-1044.628658517
 20
1458.5960550356
 30
0.0
 11
-1032.6286341983
 21
1458.5960550356
 31
0.0
  0
LINE
  5
185
330
1F
100
AcDbEntity
  8
0
  6
Continuous
 62
     7
370
    15
100
AcDbLine
 10
567.9101560277
 20
-907.2704570245
 30
0.0
 11
567.9101560277
 21
-887.270476098
 31
0.0
  0
LINE
  5
186
330
1F
100
AcDbEntity
  8
0
  6
Continuous
 62
     7
370
    15
100
AcDbLine
 10
555.8101747197
 20
-907.2704570245
 30
0.0
 11
567.9101560277
 21
-907.2704570245
 31
0.0
  0
LINE
  5
187
330
1F
100
AcDbEntity
  8
0
  6
Continuous
 62
     7
370
    15
100
AcDbLine
 10
555.8101747197
 20
-925.3908054781
 30
0.0
 11
555.8101747197
 21
-907.2704570245
 31
0.0
  0
LINE
  5
188
330
1F
100
AcDbEntity
  8
0
  6
Continuous
 62
     7
370
    15
100
AcDbLine
 10
555.8101747197
 20
-925.3908054781
 30
0.0
 11
511.8343446416
 21
-925.3908054781
 31
0.0
  0
SPLINE
  5
189
330
1F
100
AcDbEntity
  8
0
  6
Continuous
 62
     7
370
    15
100
AcDbSpline
210
0.0
220
0.0
230
1.0
 70
     8
 71
     3
 72
    29
 73
    25
 74
     0
 42
0.00000001
 43
0.00000001
 40
0.0
 40
0.0
 40
0.0
 40
0.0
 40
0.0489504213398561
 40
0.0931043348103438
 40
0.1332624044364781
 40
0.1702253229285826
 40
0.2047641098430054
 40
0.237580243654595
 40
0.2692675569633831
 40
0.3002850101304735
 40
0.3370424617026002
 40
0.3735694170592526
 40
0.4099184353729148
 40
0.4459691976131531
 40
0.4814959891318347
 40
0.5248941304273644
 40
0.5678652552448579
 40
0.6109102890142293
 40
0.6539890263139632
 40
0.7226482073882043
 40
0.7912944583444448
 40
0.8603044268479514
 40
0.9298651023603806
 40
0.9999999999999999
 40
0.9999999999999999
 40
0.9999999999999999
 40
0.9999999999999999
 10
511.8343446415508
 20
-925.3908054780617
 30
0.0
 10
511.9274793631813
 20
-922.5841293939034
 30
0.0
 10
512.1046228088923
 20
-917.2457951632457
 30
0.0
 10
511.2394875268893
 20
-909.6304162818941
 30
0.0
 10
509.5847658178374
 20
-902.8604266131507
 30
0.0
 10
507.1624532120631
 20
-896.9109277107791
 30
0.0
 10
504.0753676183606
 20
-891.7636307603706
 30
0.0
 10
500.412213077
 20
-887.3975959366784
 30
0.0
 10
496.267847086465
 20
-883.7885770500301
 30
0.0
 10
491.4408595631299
 20
-880.7206323092914
 30
0.0
 10
485.9350562105524
 20
-878.3246600703146
 30
0.0
 10
479.8313301826018
 20
-876.7409526228823
 30
0.0
 10
473.6061919488362
 20
-876.0567570543355
 30
0.0
 10
467.4057641222483
 20
-876.2239357869533
 30
0.0
 10
460.879215469569
 20
-877.263352949906
 30
0.0
 10
454.2042259853449
 20
-879.424842937811
 30
0.0
 10
447.5088623211298
 20
-882.6428447813323
 30
0.0
 10
441.0885869545301
 20
-886.3216010230125
 30
0.0
 10
433.4781348959761
 20
-890.8765038355765
 30
0.0
 10
424.2570363896093
 20
-895.5916891148291
 30
0.0
 10
413.1632347848469
 20
-899.7481043832481
 30
0.0
 10
401.6824926875354
 20
-902.8316444324332
 30
0.0
 10
389.8968525813492
 20
-904.9753914051857
 30
0.0
 10
381.9166573985926
 20
-905.6518042992582
 30
0.0
 10
377.910158411845
 20
-905.9914009523048
 30
0.0
  0
SPLINE
  5
18A
330
1F
100
AcDbEntity
  8
0
  6
Continuous
 62
     7
370
    15
100
AcDbSpline
210
0.0
220
0.0
230
1.0
 70
     8
 71
     3
 72
    29
 73
    25
 74
     0
 42
0.00000001
 43
0.00000001
 40
0.0
 40
0.0
 40
0.0
 40
0.0
 40
0.070134737377823
 40
0.1396955956257611
 40
0.2087054088368741
 40
0.2773518338990784
 40
0.3460110269337571
 40
0.3890897717378121
 40
0.4321348130056336
 40
0.4751057882940886
 40
0.5185041023831127
 40
0.554030557786155
 40
0.5900816728953329
 40
0.6264305252468525
 40
0.6629574869665049
 40
0.6997147861225805
 40
0.7307322446929151
 40
0.7624196942224454
 40
0.7952359452887658
 40
0.8297746487230373
 40
0.8667375736540867
 40
0.9068956502757615
 40
0.9510495714378661
 40
1.0
 40
1.0
 40
1.0
 40
1.0
 10
377.910158411845
 20
-905.9914009523048
 30
0.0
 10
373.9036696353293
 20
-905.6518027751426
 30
0.0
 10
365.9234752704716
 20
-904.97538519085
 30
0.0
 10
354.1378415417784
 20
-902.8316544778997
 30
0.0
 10
342.6570960506447
 20
-899.7480918061669
 30
0.0
 10
331.5632873435417
 20
-895.591697320309
 30
0.0
 10
322.342181908562
 20
-890.8765037611988
 30
0.0
 10
314.7317303797601
 20
-886.3215998563604
 30
0.0
 10
308.3114602040573
 20
-882.6428541689918
 30
0.0
 10
301.6161066327012
 20
-879.4248278193983
 30
0.0
 10
294.9411276311351
 20
-877.2633673580274
 30
0.0
 10
288.414573992901
 20
-876.223927671582
 30
0.0
 10
282.2141540251032
 20
-876.0567560909028
 30
0.0
 10
275.9890074430696
 20
-876.7409562018588
 30
0.0
 10
269.8852975226831
 20
-878.3246536414143
 30
0.0
 10
264.379509598506
 20
-880.7206389586461
 30
0.0
 10
259.5525253170819
 20
-883.7885841493262
 30
0.0
 10
255.4081372896781
 20
-887.3975957907422
 30
0.0
 10
251.7449429211678
 20
-891.7636126305533
 30
0.0
 10
248.6579013228975
 20
-896.9109387472919
 30
0.0
 10
246.2355782021763
 20
-902.8604247232598
 30
0.0
 10
244.5808583635561
 20
-909.6304168711323
 30
0.0
 10
243.71573069947
 20
-917.2457948659209
 30
0.0
 10
243.8928501023929
 20
-922.584129314704
 30
0.0
 10
243.9859721821392
 20
-925.3908054780617
 30
0.0
  0
LINE
  5
18B
330
1F
100
AcDbEntity
  8
0
  6
Continuous
 62
     7
370
    15
100
AcDbLine
 10
243.9859721821
 20
-925.3908054781
 30
0.0
 11
200.0101719063
 21
-925.3908054781
 31
0.0
  0
LINE
  5
18C
330
1F
100
AcDbEntity
  8
0
  6
Continuous
 62
     7
370
    15
100
AcDbLine
 10
200.0101719063
 20
-925.3908054781
 30
0.0
 11
200.0101719063
 21
-907.2704570245
 31
0.0
  0
LINE
  5
18D
330
1F
100
AcDbEntity
  8
0
  6
Continuous
 62
     7
370
    15
100
AcDbLine
 10
187.910160796
 20
-907.2704570245
 30
0.0
 11
200.0101719063
 21
-907.2704570245
 31
0.0
  0
LINE
  5
18E
330
1F
100
AcDbEntity
  8
0
  6
Continuous
 62
     7
370
    15
100
AcDbLine
 10
187.910160796
 20
-887.270476098
 30
0.0
 11
187.910160796
 21
-907.2704570245
 31
0.0
  0
LINE
  5
18F
330
1F
100
AcDbEntity
  8
0
  6
Continuous
 62
     7
370
    15
100
AcDbLine
 10
200.0101719063
 20
-887.270476098
 30
0.0
 11
187.910160796
 21
-887.270476098
 31
0.0
  0
LINE
  5
190
330
1F
100
AcDbEntity
  8
0
  6
Continuous
 62
     7
370
    15
100
AcDbLine
 10
200.0101719063
 20
-887.270476098
 30
0.0
 11
200.0101719063
 21
-861.7564098787
 31
0.0
  0
LINE
  5
191
330
1F
100
AcDbEntity
  8
0
  6
Continuous
 62
     7
370
    15
100
AcDbLine
 10
187.910160796
 20
-861.7564098787
 30
0.0
 11
200.0101719063
 21
-861.7564098787
 31
0.0
  0
LINE
  5
192
330
1F
100
AcDbEntity
  8
0
  6
Continuous
 62
     7
370
    15
100
AcDbLine
 10
187.910160796
 20
-841.7564289522
 30
0.0
 11
187.910160796
 21
-861.7564098787
 31
0.0
  0
LINE
  5
193
330
1F
100
AcDbEntity
  8
0
  6
Continuous
 62
     7
370
    15
100
AcDbLine
 10
200.0101719063
 20
-841.7564289522
 30
0.0
 11
187.910160796
 21
-841.7564289522
 31
0.0
  0
LINE
  5
194
330
1F
100
AcDbEntity
  8
0
  6
Continuous
 62
     7
370
    15
100
AcDbLine
 10
200.0101719063
 20
-841.7564289522
 30
0.0
 11
200.0101719063
 21
-825.3908114385
 31
0.0
  0
LINE
  5
195
330
1F
100
AcDbEntity
  8
0
  6
Continuous
 62
     7
370
    15
100
AcDbLine
 10
279.0699515503
 20
-825.3908114385
 30
0.0
 11
200.0101719063
 21
-825.3908114385
 31
0.0
  0
LINE
  5
196
330
1F
100
AcDbEntity
  8
0
  6
Continuous
 62
     7
370
    15
100
AcDbLine
 10
279.0699515503
 20
-813.3908169222
 30
0.0
 11
279.0699515503
 21
-825.3908114385
 31
0.0
  0
LINE
  5
197
330
1F
100
AcDbEntity
  8
0
  6
Continuous
 62
     7
370
    15
100
AcDbLine
 10
327.3442003888
 20
-813.3908169222
 30
0.0
 11
279.0699515503
 21
-813.3908169222
 31
0.0
  0
LINE
  5
198
330
1F
100
AcDbEntity
  8
0
  6
Continuous
 62
     7
370
    15
100
AcDbLine
 10
327.3442003888
 20
-825.3908114385
 30
0.0
 11
327.3442003888
 21
-813.3908169222
 31
0.0
  0
LINE
  5
199
330
1F
100
AcDbEntity
  8
0
  6
Continuous
 62
     7
370
    15
100
AcDbLine
 10
428.4761164349
 20
-825.3908114385
 30
0.0
 11
327.3442003888
 21
-825.3908114385
 31
0.0
  0
LINE
  5
19A
330
1F
100
AcDbEntity
  8
0
  6
Continuous
 62
     7
370
    15
100
AcDbLine
 10
428.4761164349
 20
-813.3908169222
 30
0.0
 11
428.4761164349
 21
-825.3908114385
 31
0.0
  0
LINE
  5
19B
330
1F
100
AcDbEntity
  8
0
  6
Continuous
 62
     7
370
    15
100
AcDbLine
 10
476.7503950757
 20
-813.3908169222
 30
0.0
 11
428.4761164349
 21
-813.3908169222
 31
0.0
  0
LINE
  5
19C
330
1F
100
AcDbEntity
  8
0
  6
Continuous
 62
     7
370
    15
100
AcDbLine
 10
555.8101747197
 20
-841.7564289522
 30
0.0
 11
555.8101747197
 21
-825.3908114385
 31
0.0
  0
LINE
  5
19D
330
1F
100
AcDbEntity
  8
0
  6
Continuous
 62
     7
370
    15
100
AcDbLine
 10
567.9101560277
 20
-841.7564289522
 30
0.0
 11
555.8101747197
 21
-841.7564289522
 31
0.0
  0
LINE
  5
19E
330
1F
100
AcDbEntity
  8
0
  6
Continuous
 62
     7
370
    15
100
AcDbLine
 10
567.9101560277
 20
-861.7564098787
 30
0.0
 11
567.9101560277
 21
-841.7564289522
 31
0.0
  0
LINE
  5
19F
330
1F
100
AcDbEntity
  8
0
  6
Continuous
 62
     7
370
    15
100
AcDbLine
 10
555.8101747197
 20
-861.7564098787
 30
0.0
 11
567.9101560277
 21
-861.7564098787
 31
0.0
  0
LINE
  5
1A0
330
1F
100
AcDbEntity
  8
0
  6
Continuous
 62
     7
370
    15
100
AcDbLine
 10
555.8101747197
 20
-887.270476098
 30
0.0
 11
555.8101747197
 21
-861.7564098787
 31
0.0
  0
LINE
  5
1A1
330
1F
100
AcDbEntity
  8
0
  6
Continuous
 62
     7
370
    15
100
AcDbLine
 10
567.9101560277
 20
-887.270476098
 30
0.0
 11
555.8101747197
 21
-887.270476098
 31
0.0
  0
LINE
  5
1A2
330
1F
100
AcDbEntity
  8
0
  6
Continuous
 62
     7
370
    15
100
AcDbLine
 10
555.8101747197
 20
-825.3908114385
 30
0.0
 11
476.7503950757
 21
-825.3908114385
 31
0.0
  0
LINE
  5
1A3
330
1F
100
AcDbEntity
  8
0
  6
Continuous
 62
     7
370
    15
100
AcDbLine
 10
476.7503950757
 20
-825.3908114385
 30
0.0
 11
476.7503950757
 21
-813.3908169222
 31
0.0
  0
LINE
  5
1A4
330
1F
100
AcDbEntity
  8
0
  6
Continuous
 62
     7
370
    15
100
AcDbLine
 10
-796.0491564113
 20
-478.9281705272
 30
0.0
 11
-747.7748777706
 21
-478.9281705272
 31
0.0
  0
LINE
  5
1A5
330
1F
100
AcDbEntity
  8
0
  6
Continuous
 62
     7
370
    15
100
AcDbLine
 10
-796.0491564113
 20
-490.9281724941
 30
0.0
 11
-747.7748777706
 21
-490.9281724941
 31
0.0
  0
LINE
  5
1A6
330
1F
100
AcDbEntity
  8
0
  6
Continuous
 62
     7
370
    15
100
AcDbLine
 10
-731.2127139408
 20
-868.9281599474
 30
0.0
 11
-962.017514928
 21
-868.9281599474
 31
0.0
  0
LINE
  5
1A7
330
1F
100
AcDbEntity
  8
0
  6
Continuous
 62
     7
370
    15
100
AcDbLine
 10
-1046.6151025134
 20
-868.9281599474
 30
0.0
 11
-1046.6151025134
 21
-468.9281726133
 31
0.0
  0
LINE
  5
1A8
330
1F
100
AcDbEntity
  8
0
  6
Continuous
 62
     7
370
    15
100
AcDbLine
 10
-1046.6151025134
 20
-468.9281726133
 30
0.0
 11
-646.6151263553
 21
-468.9281726133
 31
0.0
  0
LINE
  5
1A9
330
1F
100
AcDbEntity
  8
0
  6
Continuous
 62
     7
370
    15
100
AcDbLine
 10
-646.6151263553
 20
-468.9281726133
 30
0.0
 11
-646.6151263553
 21
-868.9281599474
 31
0.0
  0
LINE
  5
1AA
330
1F
100
AcDbEntity
  8
0
  6
Continuous
 62
     7
370
    15
100
AcDbLine
 10
-646.6151263553
 20
-868.9281599474
 30
0.0
 11
-681.2127020198
 21
-868.9281599474
 31
0.0
  0
LINE
  5
1AB
330
1F
100
AcDbEntity
  8
0
  6
Continuous
 62
     7
370
    15
100
AcDbLine
 10
-747.7748777706
 20
-860.9974639368
 30
0.0
 11
-796.0491564113
 21
-860.9974639368
 31
0.0
  0
LINE
  5
1AC
330
1F
100
AcDbEntity
  8
0
  6
Continuous
 62
     7
370
    15
100
AcDbLine
 10
-747.7748777706
 20
-848.9974396181
 30
0.0
 11
-747.7748777706
 21
-860.9974639368
 31
0.0
  0
LINE
  5
1AD
330
1F
100
AcDbEntity
  8
0
  6
Continuous
 62
     7
370
    15
100
AcDbLine
 10
-747.7748777706
 20
-848.9974396181
 30
0.0
 11
-796.0491564113
 21
-848.9974396181
 31
0.0
  0
LINE
  5
1AE
330
1F
100
AcDbEntity
  8
0
  6
Continuous
 62
     7
370
    15
100
AcDbLine
 10
-796.0491564113
 20
-848.9974396181
 30
0.0
 11
-796.0491564113
 21
-860.9974639368
 31
0.0
  0
LINE
  5
1AF
330
1F
100
AcDbEntity
  8
0
  6
Continuous
 62
     7
370
    15
100
AcDbLine
 10
-897.1810724574
 20
-860.9974639368
 30
0.0
 11
-945.4552914936
 21
-860.9974639368
 31
0.0
  0
LINE
  5
1B0
330
1F
100
AcDbEntity
  8
0
  6
Continuous
 62
     7
370
    15
100
AcDbLine
 10
-897.1810724574
 20
-848.9974396181
 30
0.0
 11
-897.1810724574
 21
-860.9974639368
 31
0.0
  0
LINE
  5
1B1
330
1F
100
AcDbEntity
  8
0
  6
Continuous
 62
     7
370
    15
100
AcDbLine
 10
-897.1810724574
 20
-848.9974396181
 30
0.0
 11
-945.4552914936
 21
-848.9974396181
 31
0.0
  0
LINE
  5
1B2
330
1F
100
AcDbEntity
  8
0
  6
Continuous
 62
     7
370
    15
100
AcDbLine
 10
-945.4552914936
 20
-848.9974396181
 30
0.0
 11
-945.4552914936
 21
-860.9974639368
 31
0.0
  0
LINE
  5
1B3
330
1F
100
AcDbEntity
  8
0
  6
Continuous
 62
     7
370
    15
100
AcDbLine
 10
-668.6150815326
 20
-622.266407485
 30
0.0
 11
-668.6150815326
 21
-572.2664067399
 31
0.0
  0
LINE
  5
1B4
330
1F
100
AcDbEntity
  8
0
  6
Continuous
 62
     7
370
    15
100
AcDbLine
 10
-656.6151168186
 20
-622.266407485
 30
0.0
 11
-668.6150815326
 21
-622.266407485
 31
0.0
  0
LINE
  5
1B5
330
1F
100
AcDbEntity
  8
0
  6
Continuous
 62
     7
370
    15
100
AcDbLine
 10
-668.6150815326
 20
-765.5899481725
 30
0.0
 11
-668.6150815326
 21
-715.5899362516
 31
0.0
  0
LINE
  5
1B6
330
1F
100
AcDbEntity
  8
0
  6
Continuous
 62
     7
370
    15
100
AcDbLine
 10
-656.6151168186
 20
-765.5899481725
 30
0.0
 11
-668.6150815326
 21
-765.5899481725
 31
0.0
  0
LINE
  5
1B7
330
1F
100
AcDbEntity
  8
0
  6
Continuous
 62
     7
370
    15
100
AcDbLine
 10
-656.6151168186
 20
-715.5899362516
 30
0.0
 11
-656.6151168186
 21
-765.5899481725
 31
0.0
  0
LINE
  5
1B8
330
1F
100
AcDbEntity
  8
0
  6
Continuous
 62
     7
370
    15
100
AcDbLine
 10
-962.017514928
 20
-856.928165431
 30
0.0
 11
-962.017514928
 21
-868.9281599474
 31
0.0
  0
LINE
  5
1B9
330
1F
100
AcDbEntity
  8
0
  6
Continuous
 62
     7
370
    15
100
AcDbLine
 10
-668.6150815326
 20
-715.5899362516
 30
0.0
 11
-656.6151168186
 21
-715.5899362516
 31
0.0
  0
LINE
  5
1BA
330
1F
100
AcDbEntity
  8
0
  6
Continuous
 62
     7
370
    15
100
AcDbLine
 10
-945.4552914936
 20
-478.9281705272
 30
0.0
 11
-897.1810724574
 21
-478.9281705272
 31
0.0
  0
LINE
  5
1BB
330
1F
100
AcDbEntity
  8
0
  6
Continuous
 62
     7
370
    15
100
AcDbLine
 10
-945.4552914936
 20
-490.9281724941
 30
0.0
 11
-897.1810724574
 21
-490.9281724941
 31
0.0
  0
LINE
  5
1BC
330
1F
100
AcDbEntity
  8
0
  6
Continuous
 62
     7
370
    15
100
AcDbLine
 10
-897.1810724574
 20
-490.9281724941
 30
0.0
 11
-897.1810724574
 21
-478.9281705272
 31
0.0
  0
LINE
  5
1BD
330
1F
100
AcDbEntity
  8
0
  6
Continuous
 62
     7
370
    15
100
AcDbLine
 10
-945.4552914936
 20
-490.9281724941
 30
0.0
 11
-945.4552914936
 21
-478.9281705272
 31
0.0
  0
LINE
  5
1BE
330
1F
100
AcDbEntity
  8
0
  6
Continuous
 62
     7
370
    15
100
AcDbLine
 10
-1036.6151120502
 20
-836.7884414148
 30
0.0
 11
-1036.6151120502
 21
-796.7382030439
 31
0.0
  0
LINE
  5
1BF
330
1F
100
AcDbEntity
  8
0
  6
Continuous
 62
     7
370
    15
100
AcDbLine
 10
-1036.6151120502
 20
-796.7382030439
 30
0.0
 11
-1024.6150877315
 21
-796.7382030439
 31
0.0
  0
LINE
  5
1C0
330
1F
100
AcDbEntity
  8
0
  6
Continuous
 62
     7
370
    15
100
AcDbLine
 10
-1024.6150877315
 20
-796.7382030439
 30
0.0
 11
-1024.6150877315
 21
-836.7884414148
 31
0.0
  0
LINE
  5
1C1
330
1F
100
AcDbEntity
  8
0
  6
Continuous
 62
     7
370
    15
100
AcDbLine
 10
-1012.0175268489
 20
-868.9281599474
 30
0.0
 11
-1046.6151025134
 21
-868.9281599474
 31
0.0
  0
LINE
  5
1C2
330
1F
100
AcDbEntity
  8
0
  6
Continuous
 62
     7
370
    15
100
AcDbLine
 10
-1036.6151120502
 20
-501.0678902146
 30
0.0
 11
-1024.6150877315
 21
-501.0678902146
 31
0.0
  0
LINE
  5
1C3
330
1F
100
AcDbEntity
  8
0
  6
Continuous
 62
     7
370
    15
100
AcDbLine
 10
-1024.6150877315
 20
-501.0678902146
 30
0.0
 11
-1024.6150877315
 21
-541.1181518685
 31
0.0
  0
LINE
  5
1C4
330
1F
100
AcDbEntity
  8
0
  6
Continuous
 62
     7
370
    15
100
AcDbLine
 10
-1024.6150877315
 20
-541.1181518685
 30
0.0
 11
-1036.6151120502
 21
-541.1181518685
 31
0.0
  0
LINE
  5
1C5
330
1F
100
AcDbEntity
  8
0
  6
Continuous
 62
     7
370
    15
100
AcDbLine
 10
-1036.6151120502
 20
-541.1181518685
 30
0.0
 11
-1036.6151120502
 21
-501.0678902146
 31
0.0
  0
LINE
  5
1C6
330
1F
100
AcDbEntity
  8
0
  6
Continuous
 62
     7
370
    15
100
AcDbLine
 10
-656.6151168186
 20
-501.0678902146
 30
0.0
 11
-656.6151168186
 21
-541.1181518685
 31
0.0
  0
LINE
  5
1C7
330
1F
100
AcDbEntity
  8
0
  6
Continuous
 62
     7
370
    15
100
AcDbLine
 10
-656.6151168186
 20
-541.1181518685
 30
0.0
 11
-668.6150815326
 21
-541.1181518685
 31
0.0
  0
LINE
  5
1C8
330
1F
100
AcDbEntity
  8
0
  6
Continuous
 62
     7
370
    15
100
AcDbLine
 10
-668.6150815326
 20
-572.2664067399
 30
0.0
 11
-656.6151168186
 21
-572.2664067399
 31
0.0
  0
LINE
  5
1C9
330
1F
100
AcDbEntity
  8
0
  6
Continuous
 62
     7
370
    15
100
AcDbLine
 10
-1024.6150877315
 20
-836.7884414148
 30
0.0
 11
-1036.6151120502
 21
-836.7884414148
 31
0.0
  0
LINE
  5
1CA
330
1F
100
AcDbEntity
  8
0
  6
Continuous
 62
     7
370
    15
100
AcDbLine
 10
-747.7748777706
 20
-490.9281724941
 30
0.0
 11
-747.7748777706
 21
-478.9281705272
 31
0.0
  0
LINE
  5
1CB
330
1F
100
AcDbEntity
  8
0
  6
Continuous
 62
     7
370
    15
100
AcDbLine
 10
-681.2127020198
 20
-856.928165431
 30
0.0
 11
-681.2127020198
 21
-868.9281599474
 31
0.0
  0
LINE
  5
1CC
330
1F
100
AcDbEntity
  8
0
  6
Continuous
 62
     7
370
    15
100
AcDbLine
 10
-656.6151168186
 20
-836.7884414148
 30
0.0
 11
-668.6150815326
 21
-836.7884414148
 31
0.0
  0
LINE
  5
1CD
330
1F
100
AcDbEntity
  8
0
  6
Continuous
 62
     7
370
    15
100
AcDbLine
 10
-668.6150815326
 20
-836.7884414148
 30
0.0
 11
-668.6150815326
 21
-796.7382030439
 31
0.0
  0
LINE
  5
1CE
330
1F
100
AcDbEntity
  8
0
  6
Continuous
 62
     7
370
    15
100
AcDbLine
 10
-668.6150815326
 20
-796.7382030439
 30
0.0
 11
-656.6151168186
 21
-796.7382030439
 31
0.0
  0
LINE
  5
1CF
330
1F
100
AcDbEntity
  8
0
  6
Continuous
 62
     7
370
    15
100
AcDbLine
 10
-656.6151168186
 20
-796.7382030439
 30
0.0
 11
-656.6151168186
 21
-836.7884414148
 31
0.0
  0
LINE
  5
1D0
330
1F
100
AcDbEntity
  8
0
  6
Continuous
 62
     7
370
    15
100
AcDbLine
 10
-1012.0175268489
 20
-868.9281599474
 30
0.0
 11
-1012.0175268489
 21
-856.928165431
 31
0.0
  0
LINE
  5
1D1
330
1F
100
AcDbEntity
  8
0
  6
Continuous
 62
     7
370
    15
100
AcDbLine
 10
-1012.0175268489
 20
-856.928165431
 30
0.0
 11
-962.017514928
 21
-856.928165431
 31
0.0
  0
LINE
  5
1D2
330
1F
100
AcDbEntity
  8
0
  6
Continuous
 62
     7
370
    15
100
AcDbLine
 10
-1036.6151120502
 20
-765.5899481725
 30
0.0
 11
-1036.6151120502
 21
-715.5899362516
 31
0.0
  0
LINE
  5
1D3
330
1F
100
AcDbEntity
  8
0
  6
Continuous
 62
     7
370
    15
100
AcDbLine
 10
-656.6151168186
 20
-572.2664067399
 30
0.0
 11
-656.6151168186
 21
-622.266407485
 31
0.0
  0
LINE
  5
1D4
330
1F
100
AcDbEntity
  8
0
  6
Continuous
 62
     7
370
    15
100
AcDbLine
 10
-1024.6150877315
 20
-572.2664067399
 30
0.0
 11
-1024.6150877315
 21
-622.266407485
 31
0.0
  0
LINE
  5
1D5
330
1F
100
AcDbEntity
  8
0
  6
Continuous
 62
     7
370
    15
100
AcDbLine
 10
-1024.6150877315
 20
-622.266407485
 30
0.0
 11
-1036.6151120502
 21
-622.266407485
 31
0.0
  0
LINE
  5
1D6
330
1F
100
AcDbEntity
  8
0
  6
Continuous
 62
     7
370
    15
100
AcDbLine
 10
-1036.6151120502
 20
-622.266407485
 30
0.0
 11
-1036.6151120502
 21
-572.2664067399
 31
0.0
  0
LINE
  5
1D7
330
1F
100
AcDbEntity
  8
0
  6
Continuous
 62
     7
370
    15
100
AcDbLine
 10
-1036.6151120502
 20
-572.2664067399
 30
0.0
 11
-1024.6150877315
 21
-572.2664067399
 31
0.0
  0
LINE
  5
1D8
330
1F
100
AcDbEntity
  8
0
  6
Continuous
 62
     7
370
    15
100
AcDbLine
 10
-1036.6151120502
 20
-715.5899362516
 30
0.0
 11
-1024.6150877315
 21
-715.5899362516
 31
0.0
  0
LINE
  5
1D9
330
1F
100
AcDbEntity
  8
0
  6
Continuous
 62
     7
370
    15
100
AcDbLine
 10
-1024.6150877315
 20
-715.5899362516
 30
0.0
 11
-1024.6150877315
 21
-765.5899481725
 31
0.0
  0
LINE
  5
1DA
330
1F
100
AcDbEntity
  8
0
  6
Continuous
 62
     7
370
    15
100
AcDbLine
 10
-796.0491564113
 20
-490.9281724941
 30
0.0
 11
-796.0491564113
 21
-478.9281705272
 31
0.0
  0
LINE
  5
1DB
330
1F
100
AcDbEntity
  8
0
  6
Continuous
 62
     7
370
    15
100
AcDbLine
 10
-668.6150815326
 20
-541.1181518685
 30
0.0
 11
-668.6150815326
 21
-501.0678902146
 31
0.0
  0
LINE
  5
1DC
330
1F
100
AcDbEntity
  8
0
  6
Continuous
 62
     7
370
    15
100
AcDbLine
 10
-668.6150815326
 20
-501.0678902146
 30
0.0
 11
-656.6151168186
 21
-501.0678902146
 31
0.0
  0
LINE
  5
1DD
330
1F
100
AcDbEntity
  8
0
  6
Continuous
 62
     7
370
    15
100
AcDbLine
 10
-731.2127139408
 20
-868.9281599474
 30
0.0
 11
-731.2127139408
 21
-856.928165431
 31
0.0
  0
LINE
  5
1DE
330
1F
100
AcDbEntity
  8
0
  6
Continuous
 62
     7
370
    15
100
AcDbLine
 10
-731.2127139408
 20
-856.928165431
 30
0.0
 11
-681.2127020198
 21
-856.928165431
 31
0.0
  0
LINE
  5
1DF
330
1F
100
AcDbEntity
  8
0
  6
Continuous
 62
     7
370
    15
100
AcDbLine
 10
-1024.6150877315
 20
-765.5899481725
 30
0.0
 11
-1036.6151120502
 21
-765.5899481725
 31
0.0
  0
LINE
  5
1E0
330
1F
100
AcDbEntity
  8
0
  6
Continuous
 62
     7
370
    15
100
AcDbLine
 10
-619.7076823551
 20
15.1392860461
 30
0.0
 11
-975.7076885539
 21
15.1392860461
 31
0.0
  0
LINE
  5
1E1
330
1F
100
AcDbEntity
  8
0
  6
Continuous
 62
     7
370
    15
100
AcDbLine
 10
-619.7076823551
 20
15.1392860461
 30
0.0
 11
-619.7076823551
 21
-7.5148301077
 31
0.0
  0
LINE
  5
1E2
330
1F
100
AcDbEntity
  8
0
  6
Continuous
 62
     7
370
    15
100
AcDbLine
 10
-619.7076823551
 20
-7.5148301077
 30
0.0
 11
-607.707717641
 21
-7.5148301077
 31
0.0
  0
LINE
  5
1E3
330
1F
100
AcDbEntity
  8
0
  6
Continuous
 62
     7
370
    15
100
AcDbLine
 10
-607.707717641
 20
-7.5148301077
 30
0.0
 11
-607.707717641
 21
-57.5148420286
 31
0.0
  0
LINE
  5
1E4
330
1F
100
AcDbEntity
  8
0
  6
Continuous
 62
     7
370
    15
100
AcDbLine
 10
-619.7076823551
 20
-57.5148420286
 30
0.0
 11
-607.707717641
 21
-57.5148420286
 31
0.0
  0
LINE
  5
1E5
330
1F
100
AcDbEntity
  8
0
  6
Continuous
 62
     7
370
    15
100
AcDbLine
 10
-619.7076823551
 20
-57.5148420286
 30
0.0
 11
-619.7076823551
 21
-288.2065432024
 31
0.0
  0
LINE
  5
1E6
330
1F
100
AcDbEntity
  8
0
  6
Continuous
 62
     7
370
    15
100
AcDbLine
 10
-619.7076823551
 20
-288.2065432024
 30
0.0
 11
-607.707717641
 21
-288.2065432024
 31
0.0
  0
LINE
  5
1E7
330
1F
100
AcDbEntity
  8
0
  6
Continuous
 62
     7
370
    15
100
AcDbLine
 10
-607.707717641
 20
-288.2065432024
 30
0.0
 11
-607.707717641
 21
-338.2065402221
 31
0.0
  0
LINE
  5
1E8
330
1F
100
AcDbEntity
  8
0
  6
Continuous
 62
     7
370
    15
100
AcDbLine
 10
-619.7076823551
 20
-338.2065402221
 30
0.0
 11
-607.707717641
 21
-338.2065402221
 31
0.0
  0
LINE
  5
1E9
330
1F
100
AcDbEntity
  8
0
  6
Continuous
 62
     7
370
    15
100
AcDbLine
 10
-619.7076823551
 20
-338.2065402221
 30
0.0
 11
-619.7076823551
 21
-360.8606861782
 31
0.0
  0
LINE
  5
1EA
330
1F
100
AcDbEntity
  8
0
  6
Continuous
 62
     7
370
    15
100
AcDbLine
 10
-619.7076823551
 20
-360.8606861782
 30
0.0
 11
-669.7996642429
 21
-360.8606861782
 31
0.0
  0
LINE
  5
1EB
330
1F
100
AcDbEntity
  8
0
  6
Continuous
 62
     7
370
    15
100
AcDbLine
 10
-669.7996642429
 20
-360.8606861782
 30
0.0
 11
-669.7996642429
 21
-372.8606955957
 31
0.0
  0
LINE
  5
1EC
330
1F
100
AcDbEntity
  8
0
  6
Continuous
 62
     7
370
    15
100
AcDbLine
 10
-669.7996642429
 20
-372.8606955957
 30
0.0
 11
-719.7996165592
 21
-372.8606955957
 31
0.0
  0
LINE
  5
1ED
330
1F
100
AcDbEntity
  8
0
  6
Continuous
 62
     7
370
    15
100
AcDbLine
 10
-719.7996165592
 20
-360.8606861782
 30
0.0
 11
-719.7996165592
 21
-372.8606955957
 31
0.0
  0
LINE
  5
1EE
330
1F
100
AcDbEntity
  8
0
  6
Continuous
 62
     7
370
    15
100
AcDbLine
 10
-719.7996165592
 20
-360.8606861782
 30
0.0
 11
-875.6157543498
 21
-360.8606861782
 31
0.0
  0
LINE
  5
1EF
330
1F
100
AcDbEntity
  8
0
  6
Continuous
 62
     7
370
    15
100
AcDbLine
 10
-875.6157543498
 20
-360.8606861782
 30
0.0
 11
-875.6157543498
 21
-372.8606955957
 31
0.0
  0
LINE
  5
1F0
330
1F
100
AcDbEntity
  8
0
  6
Continuous
 62
     7
370
    15
100
AcDbLine
 10
-875.6157543498
 20
-372.8606955957
 30
0.0
 11
-925.6157066661
 21
-372.8606955957
 31
0.0
  0
LINE
  5
1F1
330
1F
100
AcDbEntity
  8
0
  6
Continuous
 62
     7
370
    15
100
AcDbLine
 10
-925.6157066661
 20
-360.8606861782
 30
0.0
 11
-925.6157066661
 21
-372.8606955957
 31
0.0
  0
LINE
  5
1F2
330
1F
100
AcDbEntity
  8
0
  6
Continuous
 62
     7
370
    15
100
AcDbLine
 10
-925.6157066661
 20
-360.8606861782
 30
0.0
 11
-975.7076885539
 21
-360.8606861782
 31
0.0
  0
LINE
  5
1F3
330
1F
100
AcDbEntity
  8
0
  6
Continuous
 62
     7
370
    15
100
AcDbLine
 10
-975.7076885539
 20
-338.2065402221
 30
0.0
 11
-975.7076885539
 21
-360.8606861782
 31
0.0
  0
LINE
  5
1F4
330
1F
100
AcDbEntity
  8
0
  6
Continuous
 62
     7
370
    15
100
AcDbLine
 10
-975.7076885539
 20
-338.2065402221
 30
0.0
 11
-987.7077128726
 21
-338.2065402221
 31
0.0
  0
LINE
  5
1F5
330
1F
100
AcDbEntity
  8
0
  6
Continuous
 62
     7
370
    15
100
AcDbLine
 10
-987.7077128726
 20
-338.2065402221
 30
0.0
 11
-987.7077128726
 21
-288.2065432024
 31
0.0
  0
LINE
  5
1F6
330
1F
100
AcDbEntity
  8
0
  6
Continuous
 62
     7
370
    15
100
AcDbLine
 10
-975.7076885539
 20
-288.2065432024
 30
0.0
 11
-987.7077128726
 21
-288.2065432024
 31
0.0
  0
LINE
  5
1F7
330
1F
100
AcDbEntity
  8
0
  6
Continuous
 62
     7
370
    15
100
AcDbLine
 10
-975.7076885539
 20
-57.5148420286
 30
0.0
 11
-975.7076885539
 21
-288.2065432024
 31
0.0
  0
LINE
  5
1F8
330
1F
100
AcDbEntity
  8
0
  6
Continuous
 62
     7
370
    15
100
AcDbLine
 10
-975.7076885539
 20
-57.5148420286
 30
0.0
 11
-987.7077128726
 21
-57.5148420286
 31
0.0
  0
LINE
  5
1F9
330
1F
100
AcDbEntity
  8
0
  6
Continuous
 62
     7
370
    15
100
AcDbLine
 10
-987.7077128726
 20
-57.5148420286
 30
0.0
 11
-987.7077128726
 21
-7.5148301077
 31
0.0
  0
LINE
  5
1FA
330
1F
100
AcDbEntity
  8
0
  6
Continuous
 62
     7
370
    15
100
AcDbLine
 10
-975.7076885539
 20
-7.5148301077
 30
0.0
 11
-987.7077128726
 21
-7.5148301077
 31
0.0
  0
LINE
  5
1FB
330
1F
100
AcDbEntity
  8
0
  6
Continuous
 62
     7
370
    15
100
AcDbLine
 10
-975.7076885539
 20
15.1392860461
 30
0.0
 11
-975.7076885539
 21
-7.5148301077
 31
0.0
  0
LINE
  5
1FC
330
1F
100
AcDbEntity
  8
0
  6
Continuous
 62
     7
370
    15
100
AcDbLine
 10
-616.4477255184
 20
490.3489990282
 30
0.0
 11
-972.4477317172
 21
490.3489990282
 31
0.0
  0
LINE
  5
1FD
330
1F
100
AcDbEntity
  8
0
  6
Continuous
 62
     7
370
    15
100
AcDbLine
 10
-616.4477255184
 20
490.3489990282
 30
0.0
 11
-616.4477255184
 21
467.6948232699
 31
0.0
  0
LINE
  5
1FE
330
1F
100
AcDbEntity
  8
0
  6
Continuous
 62
     7
370
    15
100
AcDbLine
 10
-616.4477255184
 20
467.6948232699
 30
0.0
 11
-604.4477608043
 21
467.6948232699
 31
0.0
  0
LINE
  5
1FF
330
1F
100
AcDbEntity
  8
0
  6
Continuous
 62
     7
370
    15
100
AcDbLine
 10
-604.4477608043
 20
467.6948232699
 30
0.0
 11
-604.4477608043
 21
417.6948113489
 31
0.0
  0
LINE
  5
200
330
1F
100
AcDbEntity
  8
0
  6
Continuous
 62
     7
370
    15
100
AcDbLine
 10
-616.4477255184
 20
417.6948113489
 30
0.0
 11
-604.4477608043
 21
417.6948113489
 31
0.0
  0
LINE
  5
201
330
1F
100
AcDbEntity
  8
0
  6
Continuous
 62
     7
370
    15
100
AcDbLine
 10
-616.4477255184
 20
187.0030803728
 30
0.0
 11
-604.4477608043
 21
187.0030803728
 31
0.0
  0
LINE
  5
202
330
1F
100
AcDbEntity
  8
0
  6
Continuous
 62
     7
370
    15
100
AcDbLine
 10
-604.4477608043
 20
187.0030803728
 30
0.0
 11
-604.4477608043
 21
137.0030684519
 31
0.0
  0
LINE
  5
203
330
1F
100
AcDbEntity
  8
0
  6
Continuous
 62
     7
370
    15
100
AcDbLine
 10
-616.4477255184
 20
137.0030684519
 30
0.0
 11
-604.4477608043
 21
137.0030684519
 31
0.0
  0
LINE
  5
204
330
1F
100
AcDbEntity
  8
0
  6
Continuous
 62
     7
370
    15
100
AcDbLine
 10
-616.4477255184
 20
137.0030684519
 30
0.0
 11
-616.4477255184
 21
114.3489522982
 31
0.0
  0
LINE
  5
205
330
1F
100
AcDbEntity
  8
0
  6
Continuous
 62
     7
370
    15
100
AcDbLine
 10
-616.4477255184
 20
114.3489522982
 30
0.0
 11
-666.5397074062
 21
114.3489522982
 31
0.0
  0
LINE
  5
206
330
1F
100
AcDbEntity
  8
0
  6
Continuous
 62
     7
370
    15
100
AcDbLine
 10
-666.5397074062
 20
114.3489522982
 30
0.0
 11
-666.5397074062
 21
102.3489279795
 31
0.0
  0
LINE
  5
207
330
1F
100
AcDbEntity
  8
0
  6
Continuous
 62
     7
370
    15
100
AcDbLine
 10
-666.5397074062
 20
102.3489279795
 30
0.0
 11
-716.5397193271
 21
102.3489279795
 31
0.0
  0
LINE
  5
208
330
1F
100
AcDbEntity
  8
0
  6
Continuous
 62
     7
370
    15
100
AcDbLine
 10
-716.5397193271
 20
114.3489522982
 30
0.0
 11
-716.5397193271
 21
102.3489279795
 31
0.0
  0
LINE
  5
209
330
1F
100
AcDbEntity
  8
0
  6
Continuous
 62
     7
370
    15
100
AcDbLine
 10
-872.3557975131
 20
102.3489279795
 30
0.0
 11
-922.3558094341
 21
102.3489279795
 31
0.0
  0
LINE
  5
20A
330
1F
100
AcDbEntity
  8
0
  6
Continuous
 62
     7
370
    15
100
AcDbLine
 10
-922.3558094341
 20
114.3489522982
 30
0.0
 11
-922.3558094341
 21
102.3489279795
 31
0.0
  0
LINE
  5
20B
330
1F
100
AcDbEntity
  8
0
  6
Continuous
 62
     7
370
    15
100
AcDbLine
 10
-922.3558094341
 20
114.3489522982
 30
0.0
 11
-972.4477317172
 21
114.3489522982
 31
0.0
  0
LINE
  5
20C
330
1F
100
AcDbEntity
  8
0
  6
Continuous
 62
     7
370
    15
100
AcDbLine
 10
-972.4477317172
 20
137.0030684519
 30
0.0
 11
-972.4477317172
 21
114.3489522982
 31
0.0
  0
LINE
  5
20D
330
1F
100
AcDbEntity
  8
0
  6
Continuous
 62
     7
370
    15
100
AcDbLine
 10
-972.4477317172
 20
137.0030684519
 30
0.0
 11
-984.4477560359
 21
137.0030684519
 31
0.0
  0
LINE
  5
20E
330
1F
100
AcDbEntity
  8
0
  6
Continuous
 62
     7
370
    15
100
AcDbLine
 10
-984.4477560359
 20
137.0030684519
 30
0.0
 11
-984.4477560359
 21
187.0030803728
 31
0.0
  0
LINE
  5
20F
330
1F
100
AcDbEntity
  8
0
  6
Continuous
 62
     7
370
    15
100
AcDbLine
 10
-972.4477317172
 20
187.0030803728
 30
0.0
 11
-984.4477560359
 21
187.0030803728
 31
0.0
  0
LINE
  5
210
330
1F
100
AcDbEntity
  8
0
  6
Continuous
 62
     7
370
    15
100
AcDbLine
 10
-972.4477317172
 20
417.6948113489
 30
0.0
 11
-972.4477317172
 21
187.0030803728
 31
0.0
  0
LINE
  5
211
330
1F
100
AcDbEntity
  8
0
  6
Continuous
 62
     7
370
    15
100
AcDbLine
 10
-972.4477317172
 20
417.6948113489
 30
0.0
 11
-984.4477560359
 21
417.6948113489
 31
0.0
  0
LINE
  5
212
330
1F
100
AcDbEntity
  8
0
  6
Continuous
 62
     7
370
    15
100
AcDbLine
 10
-984.4477560359
 20
417.6948113489
 30
0.0
 11
-984.4477560359
 21
467.6948232699
 31
0.0
  0
LINE
  5
213
330
1F
100
AcDbEntity
  8
0
  6
Continuous
 62
     7
370
    15
100
AcDbLine
 10
-972.4477317172
 20
467.6948232699
 30
0.0
 11
-984.4477560359
 21
467.6948232699
 31
0.0
  0
LINE
  5
214
330
1F
100
AcDbEntity
  8
0
  6
Continuous
 62
     7
370
    15
100
AcDbLine
 10
-972.4477317172
 20
490.3489990282
 30
0.0
 11
-972.4477317172
 21
467.6948232699
 31
0.0
  0
LINE
  5
215
330
1F
100
AcDbEntity
  8
0
  6
Continuous
 62
     7
370
    15
100
AcDbLine
 10
-716.5397193271
 20
114.3489522982
 30
0.0
 11
-872.3557975131
 21
114.3489522982
 31
0.0
  0
LINE
  5
216
330
1F
100
AcDbEntity
  8
0
  6
Continuous
 62
     7
370
    15
100
AcDbLine
 10
-616.4477255184
 20
417.6948113489
 30
0.0
 11
-616.4477255184
 21
187.0030803728
 31
0.0
  0
LINE
  5
217
330
1F
100
AcDbEntity
  8
0
  6
Continuous
 62
     7
370
    15
100
AcDbLine
 10
-872.3557975131
 20
114.3489522982
 30
0.0
 11
-872.3557975131
 21
102.3489279795
 31
0.0
  0
LINE
  5
218
330
1F
100
AcDbEntity
  8
0
  6
Continuous
 62
     7
370
    15
100
AcDbLine
 10
575.4372093838
 20
-641.0343753051
 30
0.0
 11
587.4371740979
 21
-641.0343753051
 31
0.0
  0
LINE
  5
219
330
1F
100
AcDbEntity
  8
0
  6
Continuous
 62
     7
370
    15
100
AcDbLine
 10
587.4371740979
 20
-666.5484117221
 30
0.0
 11
587.4371740979
 21
-641.0343753051
 31
0.0
  0
LINE
  5
21A
330
1F
100
AcDbEntity
  8
0
  6
Continuous
 62
     7
370
    15
100
AcDbLine
 10
575.4372093838
 20
-666.5484117221
 30
0.0
 11
587.4371740979
 21
-666.5484117221
 31
0.0
  0
LINE
  5
21B
330
1F
100
AcDbEntity
  8
0
  6
Continuous
 62
     7
370
    15
100
AcDbLine
 10
575.4372093838
 20
-666.5484117221
 30
0.0
 11
575.4372093838
 21
-686.5484075498
 31
0.0
  0
LINE
  5
21C
330
1F
100
AcDbEntity
  8
0
  6
Continuous
 62
     7
370
    15
100
AcDbLine
 10
575.4372093838
 20
-686.5484075498
 30
0.0
 11
587.4371740979
 21
-686.5484075498
 31
0.0
  0
LINE
  5
21D
330
1F
100
AcDbEntity
  8
0
  6
Continuous
 62
     7
370
    15
100
AcDbLine
 10
587.4371740979
 20
-704.6687560033
 30
0.0
 11
587.4371740979
 21
-686.5484075498
 31
0.0
  0
LINE
  5
21E
330
1F
100
AcDbEntity
  8
0
  6
Continuous
 62
     7
370
    15
100
AcDbLine
 10
587.4371740979
 20
-704.6687560033
 30
0.0
 11
530.3267452878
 21
-704.6687560033
 31
0.0
  0
SPLINE
  5
21F
330
1F
100
AcDbEntity
  8
0
  6
Continuous
 62
     7
370
    15
100
AcDbSpline
210
0.0
220
0.0
230
1.0
 70
     8
 71
     3
 72
    29
 73
    25
 74
     0
 42
0.00000001
 43
0.00000001
 40
0.0
 40
0.0
 40
0.0
 40
0.0
 40
0.0489504227815578
 40
0.093104426038618
 40
0.1332623307688683
 40
0.1702252523198227
 40
0.2047641163252723
 40
0.2375802528525464
 40
0.2692677732451683
 40
0.3002852755477014
 40
0.3370424125234281
 40
0.3735693489739625
 40
0.4099183702956716
 40
0.4459694798287955
 40
0.4814959319831015
 40
0.5248940768700252
 40
0.5678652052435749
 40
0.610910242575119
 40
0.6539890270768721
 40
0.7226481747878291
 40
0.7912946242314262
 40
0.8603044084504625
 40
0.9298652603373697
 40
1.0
 40
1.0
 40
1.0
 40
1.0
 10
530.3267452877606
 20
-704.6687560033455
 30
0.0
 10
530.41985637661
 20
-701.8620793712844
 30
0.0
 10
530.5969550407801
 20
-696.5237390249678
 30
0.0
 10
529.7318133407151
 20
-688.9083716215031
 30
0.0
 10
528.0771802600373
 20
-682.1383635808255
 30
0.0
 10
525.654846459463
 20
-676.18887579042
 30
0.0
 10
522.5677704622601
 20
-671.0415723414368
 30
0.0
 10
518.9046180562234
 20
-666.675508307607
 30
0.0
 10
514.7601823673067
 20
-663.0665480985816
 30
0.0
 10
509.9332222919562
 20
-659.9985768528113
 30
0.0
 10
504.4274436972634
 20
-657.6025805425788
 30
0.0
 10
498.3237276451511
 20
-656.0189075595557
 30
0.0
 10
492.0985737352595
 20
-655.3347117186287
 30
0.0
 10
485.8981434830776
 20
-655.5018589131078
 30
0.0
 10
479.3715979586152
 20
-656.5412994391598
 30
0.0
 10
472.696626289458
 20
-658.7027768809014
 30
0.0
 10
466.0012636880718
 20
-661.920781959694
 30
0.0
 10
459.5809828809181
 20
-665.5995333366774
 30
0.0
 10
451.9705450568279
 20
-670.1544617857203
 30
0.0
 10
442.7494207806329
 20
-674.8696218269881
 30
0.0
 10
431.6556284225325
 20
-679.0260527375779
 30
0.0
 10
420.174872640518
 20
-682.1095845517486
 30
0.0
 10
408.3892418463628
 20
-684.2533187021087
 30
0.0
 10
400.4090478812863
 20
-684.929747599611
 30
0.0
 10
396.4025590580547
 20
-685.2693514775887
 30
0.0
  0
SPLINE
  5
220
330
1F
100
AcDbEntity
  8
0
  6
Continuous
 62
     7
370
    15
100
AcDbSpline
210
0.0
220
0.0
230
1.0
 70
     8
 71
     3
 72
    29
 73
    25
 74
     0
 42
0.00000001
 43
0.00000001
 40
0.0
 40
0.0
 40
0.0
 40
0.0
 40
0.0701349071754199
 40
0.1396955835184977
 40
0.208705530164697
 40
0.2773518125995397
 40
0.3460109554485232
 40
0.3890897368997301
 40
0.4321347711831175
 40
0.4751057394991565
 40
0.5185040465464249
 40
0.5540306673371562
 40
0.590081774317386
 40
0.6264304484768789
 40
0.6629573823408242
 40
0.6997148343518848
 40
0.7307323344579695
 40
0.7624197219052654
 40
0.795235856108724
 40
0.8297747176683664
 40
0.8667376366018582
 40
0.9068955805544037
 40
0.951049580684778
 40
1.0
 40
1.0
 40
1.0
 40
1.0
 10
396.4025590580547
 20
-685.2693514775887
 30
0.0
 10
392.3960600236189
 20
-684.9297491259396
 30
0.0
 10
384.4158652387033
 20
-684.2533249230926
 30
0.0
 10
372.6302280814413
 20
-682.1095744801419
 30
0.0
 10
361.149475639165
 20
-679.0260654117118
 30
0.0
 10
350.0556905841951
 20
-674.8696132612084
 30
0.0
 10
340.8345725808352
 20
-670.1544629935775
 30
0.0
 10
333.2241358310699
 20
-665.5995319828788
 30
0.0
 10
326.8038601573941
 20
-661.9207910578036
 30
0.0
 10
320.1085074241429
 20
-658.7027631101707
 30
0.0
 10
313.4335190274643
 20
-656.5412999792707
 30
0.0
 10
306.9069546993424
 20
-655.5018610099638
 30
0.0
 10
300.7065342907657
 20
-655.334709307542
 30
0.0
 10
294.4814003074003
 20
-656.0189118922907
 30
0.0
 10
288.3776899447814
 20
-657.6025931663063
 30
0.0
 10
282.8718804005488
 20
-659.9985629562278
 30
0.0
 10
278.0449082068532
 20
-663.0665400691408
 30
0.0
 10
273.9004995288345
 20
-666.6755189497032
 30
0.0
 10
270.2373469318967
 20
-671.0415710688255
 30
0.0
 10
267.1502697822356
 20
-676.1888756420178
 30
0.0
 10
264.7279462010459
 20
-682.1383680451653
 30
0.0
 10
263.0732639767395
 20
-688.9083664248213
 30
0.0
 10
262.2081365732133
 20
-696.5237398428253
 30
0.0
 10
262.3852330743891
 20
-701.8620796531085
 30
0.0
 10
262.4783430260266
 20
-704.6687560033455
 30
0.0
  0
LINE
  5
221
330
1F
100
AcDbEntity
  8
0
  6
Continuous
 62
     7
370
    15
100
AcDbLine
 10
262.478343026
 20
-704.6687560033
 30
0.0
 11
205.3679142159
 21
-704.6687560033
 31
0.0
  0
LINE
  5
222
330
1F
100
AcDbEntity
  8
0
  6
Continuous
 62
     7
370
    15
100
AcDbLine
 10
205.3679142159
 20
-704.6687560033
 30
0.0
 11
205.3679142159
 21
-686.5484075498
 31
0.0
  0
LINE
  5
223
330
1F
100
AcDbEntity
  8
0
  6
Continuous
 62
     7
370
    15
100
AcDbLine
 10
217.3679087323
 20
-686.5484075498
 30
0.0
 11
205.3679142159
 21
-686.5484075498
 31
0.0
  0
LINE
  5
224
330
1F
100
AcDbEntity
  8
0
  6
Continuous
 62
     7
370
    15
100
AcDbLine
 10
217.3679087323
 20
-686.5484075498
 30
0.0
 11
217.3679087323
 21
-666.5484117221
 31
0.0
  0
LINE
  5
225
330
1F
100
AcDbEntity
  8
0
  6
Continuous
 62
     7
370
    15
100
AcDbLine
 10
217.3679087323
 20
-666.5484117221
 30
0.0
 11
205.3679142159
 21
-666.5484117221
 31
0.0
  0
LINE
  5
226
330
1F
100
AcDbEntity
  8
0
  6
Continuous
 62
     7
370
    15
100
AcDbLine
 10
205.3679142159
 20
-666.5484117221
 30
0.0
 11
205.3679142159
 21
-641.0343753051
 31
0.0
  0
LINE
  5
227
330
1F
100
AcDbEntity
  8
0
  6
Continuous
 62
     7
370
    15
100
AcDbLine
 10
217.3679087323
 20
-641.0343753051
 30
0.0
 11
205.3679142159
 21
-641.0343753051
 31
0.0
  0
LINE
  5
228
330
1F
100
AcDbEntity
  8
0
  6
Continuous
 62
     7
370
    15
100
AcDbLine
 10
217.3679087323
 20
-641.0343753051
 30
0.0
 11
217.3679087323
 21
-621.0343645763
 31
0.0
  0
LINE
  5
229
330
1F
100
AcDbEntity
  8
0
  6
Continuous
 62
     7
370
    15
100
AcDbLine
 10
217.3679087323
 20
-621.0343645763
 30
0.0
 11
205.3679142159
 21
-621.0343645763
 31
0.0
  0
LINE
  5
22A
330
1F
100
AcDbEntity
  8
0
  6
Continuous
 62
     7
370
    15
100
AcDbLine
 10
205.3679142159
 20
-621.0343645763
 30
0.0
 11
205.3679142159
 21
-604.6687619638
 31
0.0
  0
LINE
  5
22B
330
1F
100
AcDbEntity
  8
0
  6
Continuous
 62
     7
370
    15
100
AcDbLine
 10
298.7061653298
 20
-604.6687619638
 30
0.0
 11
205.3679142159
 21
-604.6687619638
 31
0.0
  0
LINE
  5
22C
330
1F
100
AcDbEntity
  8
0
  6
Continuous
 62
     7
370
    15
100
AcDbLine
 10
298.7061653298
 20
-604.6687619638
 30
0.0
 11
298.7061653298
 21
-592.6687599969
 31
0.0
  0
LINE
  5
22D
330
1F
100
AcDbEntity
  8
0
  6
Continuous
 62
     7
370
    15
100
AcDbLine
 10
298.7061653298
 20
-592.6687599969
 30
0.0
 11
348.7061474484
 21
-592.6687599969
 31
0.0
  0
LINE
  5
22E
330
1F
100
AcDbEntity
  8
0
  6
Continuous
 62
     7
370
    15
100
AcDbLine
 10
348.7061474484
 20
-604.6687619638
 30
0.0
 11
348.7061474484
 21
-592.6687599969
 31
0.0
  0
LINE
  5
22F
330
1F
100
AcDbEntity
  8
0
  6
Continuous
 62
     7
370
    15
100
AcDbLine
 10
442.029676215
 20
-604.6687619638
 30
0.0
 11
348.7061474484
 21
-604.6687619638
 31
0.0
  0
LINE
  5
230
330
1F
100
AcDbEntity
  8
0
  6
Continuous
 62
     7
370
    15
100
AcDbLine
 10
442.029676215
 20
-604.6687619638
 30
0.0
 11
442.029676215
 21
-592.6687599969
 31
0.0
  0
LINE
  5
231
330
1F
100
AcDbEntity
  8
0
  6
Continuous
 62
     7
370
    15
100
AcDbLine
 10
442.029676215
 20
-592.6687599969
 30
0.0
 11
492.029688136
 21
-592.6687599969
 31
0.0
  0
LINE
  5
232
330
1F
100
AcDbEntity
  8
0
  6
Continuous
 62
     7
370
    15
100
AcDbLine
 10
492.029688136
 20
-604.6687619638
 30
0.0
 11
492.029688136
 21
-592.6687599969
 31
0.0
  0
LINE
  5
233
330
1F
100
AcDbEntity
  8
0
  6
Continuous
 62
     7
370
    15
100
AcDbLine
 10
587.4371740979
 20
-604.6687619638
 30
0.0
 11
492.029688136
 21
-604.6687619638
 31
0.0
  0
LINE
  5
234
330
1F
100
AcDbEntity
  8
0
  6
Continuous
 62
     7
370
    15
100
AcDbLine
 10
587.4371740979
 20
-621.0343645763
 30
0.0
 11
587.4371740979
 21
-604.6687619638
 31
0.0
  0
LINE
  5
235
330
1F
100
AcDbEntity
  8
0
  6
Continuous
 62
     7
370
    15
100
AcDbLine
 10
575.4372093838
 20
-621.0343645763
 30
0.0
 11
587.4371740979
 21
-621.0343645763
 31
0.0
  0
LINE
  5
236
330
1F
100
AcDbEntity
  8
0
  6
Continuous
 62
     7
370
    15
100
AcDbLine
 10
575.4372093838
 20
-621.0343645763
 30
0.0
 11
575.4372093838
 21
-641.0343753051
 31
0.0
  0
LINE
  5
237
330
1F
100
AcDbEntity
  8
0
  6
Continuous
 62
     7
370
    15
100
AcDbLine
 10
-371.2250377971
 20
-957.9315440607
 30
0.0
 11
-371.2250377971
 21
-937.9315333318
 31
0.0
  0
LINE
  5
238
330
1F
100
AcDbEntity
  8
0
  6
Continuous
 62
     7
370
    15
100
AcDbLine
 10
-371.2250377971
 20
-937.9315333318
 30
0.0
 11
-359.2250432807
 21
-937.9315333318
 31
0.0
  0
LINE
  5
239
330
1F
100
AcDbEntity
  8
0
  6
Continuous
 62
     7
370
    15
100
AcDbLine
 10
-359.2250432807
 20
-937.9315333318
 30
0.0
 11
-359.2250432807
 21
-912.4174969148
 31
0.0
  0
LINE
  5
23A
330
1F
100
AcDbEntity
  8
0
  6
Continuous
 62
     7
370
    15
100
AcDbLine
 10
-359.2250432807
 20
-912.4174969148
 30
0.0
 11
-371.2250377971
 21
-912.4174969148
 31
0.0
  0
LINE
  5
23B
330
1F
100
AcDbEntity
  8
0
  6
Continuous
 62
     7
370
    15
100
AcDbLine
 10
-371.2250377971
 20
-912.4174969148
 30
0.0
 11
-371.2250377971
 21
-892.417486186
 31
0.0
  0
LINE
  5
23C
330
1F
100
AcDbEntity
  8
0
  6
Continuous
 62
     7
370
    15
100
AcDbLine
 10
-371.2250377971
 20
-892.417486186
 30
0.0
 11
-359.2250432807
 21
-892.417486186
 31
0.0
  0
LINE
  5
23D
330
1F
100
AcDbEntity
  8
0
  6
Continuous
 62
     7
370
    15
100
AcDbLine
 10
-359.2250432807
 20
-892.417486186
 30
0.0
 11
-359.2250432807
 21
-876.0518984747
 31
0.0
  0
LINE
  5
23E
330
1F
100
AcDbEntity
  8
0
  6
Continuous
 62
     7
370
    15
100
AcDbLine
 10
-359.2250432807
 20
-876.0518984747
 30
0.0
 11
-280.0652470428
 21
-876.0518984747
 31
0.0
  0
LINE
  5
23F
330
1F
100
AcDbEntity
  8
0
  6
Continuous
 62
     7
370
    15
100
AcDbLine
 10
-280.0652470428
 20
-876.0518984747
 30
0.0
 11
-280.0652470428
 21
-864.051874156
 31
0.0
  0
LINE
  5
240
330
1F
100
AcDbEntity
  8
0
  6
Continuous
 62
     7
370
    15
100
AcDbLine
 10
-280.0652470428
 20
-864.051874156
 30
0.0
 11
-231.7909833032
 21
-864.051874156
 31
0.0
  0
LINE
  5
241
330
1F
100
AcDbEntity
  8
0
  6
Continuous
 62
     7
370
    15
100
AcDbLine
 10
-130.6590821582
 20
-876.0518984747
 30
0.0
 11
-130.6590821582
 21
-864.051874156
 31
0.0
  0
LINE
  5
242
330
1F
100
AcDbEntity
  8
0
  6
Continuous
 62
     7
370
    15
100
AcDbLine
 10
-130.6590821582
 20
-864.051874156
 30
0.0
 11
-82.3848309915
 21
-864.051874156
 31
0.0
  0
LINE
  5
243
330
1F
100
AcDbEntity
  8
0
  6
Continuous
 62
     7
370
    15
100
AcDbLine
 10
-82.3848309915
 20
-864.051874156
 30
0.0
 11
-82.3848309915
 21
-876.0518984747
 31
0.0
  0
LINE
  5
244
330
1F
100
AcDbEntity
  8
0
  6
Continuous
 62
     7
370
    15
100
AcDbLine
 10
-82.3848309915
 20
-876.0518984747
 30
0.0
 11
-3.2250370819
 21
-876.0518984747
 31
0.0
  0
LINE
  5
245
330
1F
100
AcDbEntity
  8
0
  6
Continuous
 62
     7
370
    15
100
AcDbLine
 10
-3.2250370819
 20
-892.417486186
 30
0.0
 11
-3.2250370819
 21
-876.0518984747
 31
0.0
  0
LINE
  5
246
330
1F
100
AcDbEntity
  8
0
  6
Continuous
 62
     7
370
    15
100
AcDbLine
 10
-3.2250370819
 20
-892.417486186
 30
0.0
 11
8.7749648851
 21
-892.417486186
 31
0.0
  0
LINE
  5
247
330
1F
100
AcDbEntity
  8
0
  6
Continuous
 62
     7
370
    15
100
AcDbLine
 10
8.7749648851
 20
-892.417486186
 30
0.0
 11
8.7749648851
 21
-912.4174969148
 31
0.0
  0
LINE
  5
248
330
1F
100
AcDbEntity
  8
0
  6
Continuous
 62
     7
370
    15
100
AcDbLine
 10
8.7749648851
 20
-912.4174969148
 30
0.0
 11
-3.2250370819
 21
-912.4174969148
 31
0.0
  0
LINE
  5
249
330
1F
100
AcDbEntity
  8
0
  6
Continuous
 62
     7
370
    15
100
AcDbLine
 10
-3.2250370819
 20
-937.9315333318
 30
0.0
 11
-3.2250370819
 21
-912.4174969148
 31
0.0
  0
LINE
  5
24A
330
1F
100
AcDbEntity
  8
0
  6
Continuous
 62
     7
370
    15
100
AcDbLine
 10
-3.2250370819
 20
-937.9315333318
 30
0.0
 11
8.7749648851
 21
-937.9315333318
 31
0.0
  0
LINE
  5
24B
330
1F
100
AcDbEntity
  8
0
  6
Continuous
 62
     7
370
    15
100
AcDbLine
 10
8.7749648851
 20
-937.9315333318
 30
0.0
 11
8.7749648851
 21
-957.9315440607
 31
0.0
  0
LINE
  5
24C
330
1F
100
AcDbEntity
  8
0
  6
Continuous
 62
     7
370
    15
100
AcDbLine
 10
8.7749648851
 20
-957.9315440607
 30
0.0
 11
-3.2250370819
 21
-957.9315440607
 31
0.0
  0
LINE
  5
24D
330
1F
100
AcDbEntity
  8
0
  6
Continuous
 62
     7
370
    15
100
AcDbLine
 10
-3.2250370819
 20
-976.0518925142
 30
0.0
 11
-3.2250370819
 21
-957.9315440607
 31
0.0
  0
LINE
  5
24E
330
1F
100
AcDbEntity
  8
0
  6
Continuous
 62
     7
370
    15
100
AcDbLine
 10
-359.2250432807
 20
-976.0518925142
 30
0.0
 11
-3.2250370819
 21
-976.0518925142
 31
0.0
  0
LINE
  5
24F
330
1F
100
AcDbEntity
  8
0
  6
Continuous
 62
     7
370
    15
100
AcDbLine
 10
-359.2250432807
 20
-976.0518925142
 30
0.0
 11
-359.2250432807
 21
-957.9315440607
 31
0.0
  0
LINE
  5
250
330
1F
100
AcDbEntity
  8
0
  6
Continuous
 62
     7
370
    15
100
AcDbLine
 10
-359.2250432807
 20
-957.9315440607
 30
0.0
 11
-371.2250377971
 21
-957.9315440607
 31
0.0
  0
LINE
  5
251
330
1F
100
AcDbEntity
  8
0
  6
Continuous
 62
     7
370
    15
100
AcDbLine
 10
-231.7909833032
 20
-864.051874156
 30
0.0
 11
-231.7909833032
 21
-876.0518984747
 31
0.0
  0
LINE
  5
252
330
1F
100
AcDbEntity
  8
0
  6
Continuous
 62
     7
370
    15
100
AcDbLine
 10
-231.7909833032
 20
-876.0518984747
 30
0.0
 11
-130.6590821582
 21
-876.0518984747
 31
0.0
  0
ENDSEC
  0
SECTION
  2
OBJECTS
  0
DICTIONARY
  5
C
330
0
100
AcDbDictionary
281
     1
  3
ACAD_GROUP
350
D
  3
ACAD_LAYOUT
350
1A
  3
ACAD_MLEADERSTYLE
350
255
  3
ACAD_MLINESTYLE
350
17
  3
ACAD_PLOTSETTINGS
350
19
  3
ACAD_PLOTSTYLENAME
350
E
  3
ACAD_VISUALSTYLE
350
2A
  3
AcDbVariableDictionary
350
253
  0
DICTIONARY
  5
D
102
{ACAD_REACTORS
330
C
102
}
330
C
100
AcDbDictionary
281
     1
  0
DICTIONARY
  5
1A
102
{ACAD_REACTORS
330
C
102
}
330
C
100
AcDbDictionary
281
     1
  3
Layout1
350
1E
  3
Layout2
350
26
  3
Model
350
22
  0
DICTIONARY
  5
255
102
{ACAD_REACTORS
330
C
102
}
330
C
100
AcDbDictionary
281
     1
  0
DICTIONARY
  5
17
102
{ACAD_REACTORS
330
C
102
}
330
C
100
AcDbDictionary
281
     1
  3
Standard
350
18
  0
DICTIONARY
  5
19
102
{ACAD_REACTORS
330
C
102
}
330
C
100
AcDbDictionary
281
     1
  0
ACDBDICTIONARYWDFLT
  5
E
102
{ACAD_REACTORS
330
C
102
}
330
C
100
AcDbDictionary
281
     1
  3
Normal
350
F
100
AcDbDictionaryWithDefault
340
F
  0
DICTIONARY
  5
2A
102
{ACAD_REACTORS
330
C
102
}
330
C
100
AcDbDictionary
281
     1
  3
2dWireframe
350
2F
  3
3D Hidden
350
31
  3
3dWireframe
350
30
  3
Basic
350
32
  3
Brighten
350
36
  3
ColorChange
350
3A
  3
Conceptual
350
34
  3
Dim
350
35
  3
Facepattern
350
39
  3
Flat
350
2B
  3
FlatWithEdges
350
2C
  3
Gouraud
350
2D
  3
GouraudWithEdges
350
2E
  3
Linepattern
350
38
  3
Realistic
350
33
  3
Thicken
350
37
  0
DICTIONARY
  5
253
102
{ACAD_REACTORS
330
C
102
}
330
C
100
AcDbDictionary
281
     1
  3
DIMASSOC
350
258
  3
HIDETEXT
350
259
  3
PSOLHEIGHT
350
257
  3
PSOLWIDTH
350
256
  0
LAYOUT
  5
1E
102
{ACAD_REACTORS
330
1A
102
}
330
1A
100
AcDbPlotSettings
  1

  2
none_device
  4

  6

 40
0.0
 41
0.0
 42
0.0
 43
0.0
 44
0.0
 45
0.0
 46
0.0
 47
0.0
 48
0.0
 49
0.0
140
0.0
141
0.0
142
1.0
143
1.0
 70
   688
 72
     0
 73
     0
 74
     5
  7

 75
    16
147
1.0
148
0.0
149
0.0
100
AcDbLayout
  1
Layout1
 70
     1
 71
     1
 10
0.0
 20
0.0
 11
420.0
 21
297.0
 12
0.0
 22
0.0
 32
0.0
 14
1.0000000000E+20
 24
1.0000000000E+20
 34
1.0000000000E+20
 15
-1.0000000000E+20
 25
-1.0000000000E+20
 35
-1.0000000000E+20
146
0.0
 13
0.0
 23
0.0
 33
0.0
 16
1.0
 26
0.0
 36
0.0
 17
0.0
 27
1.0
 37
0.0
 76
     0
330
1B
  0
LAYOUT
  5
26
102
{ACAD_REACTORS
330
1A
102
}
330
1A
100
AcDbPlotSettings
  1

  2
none_device
  4

  6

 40
0.0
 41
0.0
 42
0.0
 43
0.0
 44
0.0
 45
0.0
 46
0.0
 47
0.0
 48
0.0
 49
0.0
140
0.0
141
0.0
142
1.0
143
1.0
 70
   688
 72
     0
 73
     0
 74
     5
  7

 75
    16
147
1.0
148
0.0
149
0.0
100
AcDbLayout
  1
Layout2
 70
     1
 71
     2
 10
0.0
 20
0.0
 11
0.0
 21
0.0
 12
0.0
 22
0.0
 32
0.0
 14
0.0
 24
0.0
 34
0.0
 15
0.0
 25
0.0
 35
0.0
146
0.0
 13
0.0
 23
0.0
 33
0.0
 16
1.0
 26
0.0
 36
0.0
 17
0.0
 27
1.0
 37
0.0
 76
     0
330
23
  0
LAYOUT
  5
22
102
{ACAD_REACTORS
330
1A
102
}
330
1A
100
AcDbPlotSettings
  1

  2
none_device
  4

  6

 40
0.0
 41
0.0
 42
0.0
 43
0.0
 44
0.0
 45
0.0
 46
0.0
 47
0.0
 48
0.0
 49
0.0
140
0.0
141
0.0
142
1.0
143
1.0
 70
  1712
 72
     0
 73
     0
 74
     0
  7

 75
     0
147
1.0
148
0.0
149
0.0
100
AcDbLayout
  1
Model
 70
     1
 71
     0
 10
0.0
 20
0.0
 11
841.0
 21
594.0
 12
0.0
 22
0.0
 32
0.0
 14
0.0
 24
0.0
 34
0.0
 15
841.0
 25
594.0
 35
0.0
146
0.0
 13
0.0
 23
0.0
 33
0.0
 16
1.0
 26
0.0
 36
0.0
 17
0.0
 27
1.0
 37
0.0
 76
     0
330
1F
331
29
  0
MLINESTYLE
  5
18
102
{ACAD_REACTORS
330
17
102
}
330
17
100
AcDbMlineStyle
  2
Standard
 70
     0
  3

 62
   256
 51
90.0
 52
90.0
 71
     2
 49
0.5
 62
   256
  6
BYLAYER
 49
-0.5
 62
   256
  6
BYLAYER
  0
ACDBPLACEHOLDER
  5
F
102
{ACAD_REACTORS
330
E
102
}
330
E
  0
VISUALSTYLE
  5
2F
102
{ACAD_REACTORS
330
2A
102
}
330
2A
100
AcDbVisualStyle
  2
2dWireframe
 70
     4
 71
     0
 72
     2
 73
     0
 90
        0
 40
-0.6
 41
-30.0
 62
     5
 63
     7
 74
     1
 91
        4
 64
     7
 65
   257
 75
     1
175
     1
 42
1.0
 92
        0
 66
   257
 43
1.0
 76
     1
 77
     6
 78
     2
 67
     7
 79
     5
170
     0
171
     0
290
     0
174
     0
 93
        1
 44
0.0
173
     0
291
     0
 45
0.0
1001
ACAD
1000
AcDbSavedByObjectVersion
1070
     0
  0
VISUALSTYLE
  5
31
102
{ACAD_REACTORS
330
2A
102
}
330
2A
100
AcDbVisualStyle
  2
3D Hidden
 70
     6
 71
     1
 72
     2
 73
     2
 90
        0
 40
-0.6
 41
-30.0
 62
     5
 63
     7
 74
     2
 91
        2
 64
     7
 65
   257
 75
     2
175
     1
 42
40.0
 92
        0
 66
   257
 43
1.0
 76
     1
 77
     6
 78
     2
 67
     7
 79
     3
170
     0
171
     0
290
     0
174
     0
 93
        1
 44
0.0
173
     0
291
     0
 45
0.0
1001
ACAD
1000
AcDbSavedByObjectVersion
1070
     0
  0
VISUALSTYLE
  5
30
102
{ACAD_REACTORS
330
2A
102
}
330
2A
100
AcDbVisualStyle
  2
3dWireframe
 70
     5
 71
     0
 72
     2
 73
     0
 90
        0
 40
-0.6
 41
-30.0
 62
     5
 63
     7
 74
     1
 91
        4
 64
     7
 65
   257
 75
     1
175
     1
 42
1.0
 92
        0
 66
   257
 43
1.0
 76
     1
 77
     6
 78
     2
 67
     7
 79
     5
170
     0
171
     0
290
     0
174
     0
 93
        1
 44
0.0
173
     0
291
     0
 45
0.0
1001
ACAD
1000
AcDbSavedByObjectVersion
1070
     0
  0
VISUALSTYLE
  5
32
102
{ACAD_REACTORS
330
2A
102
}
330
2A
100
AcDbVisualStyle
  2
Basic
 70
     7
 71
     1
 72
     0
 73
     1
 90
        0
 40
-0.6
 41
-30.0
 62
     5
 63
     7
 74
     0
 91
        4
 64
     7
 65
   257
 75
     1
175
     1
 42
1.0
 92
        8
 66
     7
 43
1.0
 76
     1
 77
     6
 78
     2
 67
     7
 79
     5
170
     0
171
     0
290
     0
174
     0
 93
        1
 44
0.0
173
     0
291
     1
 45
0.0
1001
ACAD
1000
AcDbSavedByObjectVersion
1070
     0
  0
VISUALSTYLE
  5
36
102
{ACAD_REACTORS
330
2A
102
}
330
2A
100
AcDbVisualStyle
  2
Brighten
 70
    12
 71
     2
 72
     2
 73
     0
 90
        0
 40
-0.6
 41
-30.0
 62
     5
 63
     7
 74
     1
 91
        4
 64
     7
 65
   257
 75
     1
175
     1
 42
1.0
 92
        8
 66
     7
 43
1.0
 76
     1
 77
     6
 78
     2
 67
     7
 79
     5
170
     0
171
     0
290
     0
174
     0
 93
        1
 44
50.0
173
     0
291
     1
 45
0.0
1001
ACAD
1000
AcDbSavedByObjectVersion
1070
     0
  0
VISUALSTYLE
  5
3A
102
{ACAD_REACTORS
330
2A
102
}
330
2A
100
AcDbVisualStyle
  2
ColorChange
 70
    16
 71
     2
 72
     2
 73
     3
 90
        0
 40
-0.6
 41
-30.0
 62
     5
 63
     8
 74
     1
 91
        4
 64
     7
 65
   257
 75
     1
175
     1
 42
1.0
 92
        8
 66
     8
 43
1.0
 76
     1
 77
     6
 78
     2
 67
     7
 79
     5
170
     0
171
     0
290
     0
174
     0
 93
        1
 44
0.0
173
     0
291
     1
 45
0.0
1001
ACAD
1000
AcDbSavedByObjectVersion
1070
     0
  0
VISUALSTYLE
  5
34
102
{ACAD_REACTORS
330
2A
102
}
330
2A
100
AcDbVisualStyle
  2
Conceptual
 70
     9
 71
     3
 72
     2
 73
     0
 90
        0
 40
-0.6
 41
-30.0
 62
     5
 63
     7
 74
     2
 91
        2
 64
     7
 65
   257
 75
     1
175
     1
 42
40.0
 92
        8
 66
     7
 43
1.0
 76
     1
 77
     6
 78
     2
 67
     7
 79
     3
170
     0
171
     0
290
     0
174
     0
 93
        1
 44
0.0
173
     0
291
     0
 45
0.0
1001
ACAD
1000
AcDbSavedByObjectVersion
1070
     0
  0
VISUALSTYLE
  5
35
102
{ACAD_REACTORS
330
2A
102
}
330
2A
100
AcDbVisualStyle
  2
Dim
 70
    11
 71
     2
 72
     2
 73
     0
 90
        0
 40
-0.6
 41
-30.0
 62
     5
 63
     7
 74
     1
 91
        4
 64
     7
 65
   257
 75
     1
175
     1
 42
1.0
 92
        8
 66
     7
 43
1.0
 76
     1
 77
     6
 78
     2
 67
     7
 79
     5
170
     0
171
     0
290
     0
174
     0
 93
        1
 44
-50.0
173
     0
291
     1
 45
0.0
1001
ACAD
1000
AcDbSavedByObjectVersion
1070
     0
  0
VISUALSTYLE
  5
39
102
{ACAD_REACTORS
330
2A
102
}
330
2A
100
AcDbVisualStyle
  2
Facepattern
 70
    15
 71
     2
 72
     2
 73
     0
 90
        0
 40
-0.6
 41
-30.0
 62
     5
 63
     7
 74
     1
 91
        4
 64
     7
 65
   257
 75
     1
175
     1
 42
1.0
 92
        8
 66
     7
 43
1.0
 76
     1
 77
     6
 78
     2
 67
     7
 79
     5
170
     0
171
     0
290
     0
174
     0
 93
        1
 44
0.0
173
     0
291
     1
 45
0.0
1001
ACAD
1000
AcDbSavedByObjectVersion
1070
     0
  0
VISUALSTYLE
  5
2B
102
{ACAD_REACTORS
330
2A
102
}
330
2A
100
AcDbVisualStyle
  2
Flat
 70
     0
 71
     2
 72
     1
 73
     1
 90
        2
 40
-0.6
 41
30.0
 62
     5
 63
     7
 74
     0
 91
        4
 64
     7
 65
   257
 75
     1
175
     1
 42
1.0
 92
        8
 66
     7
 43
1.0
 76
     1
 77
     6
 78
     2
 67
     7
 79
     5
170
     0
171
     0
290
     0
174
     0
 93
       13
 44
0.0
173
     0
291
     1
 45
0.0
1001
ACAD
1000
AcDbSavedByObjectVersion
1070
     0
  0
VISUALSTYLE
  5
2C
102
{ACAD_REACTORS
330
2A
102
}
330
2A
100
AcDbVisualStyle
  2
FlatWithEdges
 70
     1
 71
     2
 72
     1
 73
     1
 90
        2
 40
-0.6
 41
30.0
 62
     5
 63
     7
 74
     1
 91
        4
 64
     7
 65
   257
 75
     1
175
     1
 42
1.0
 92
        0
 66
   257
 43
1.0
 76
     1
 77
     6
 78
     2
 67
     7
 79
     5
170
     0
171
     0
290
     0
174
     0
 93
       13
 44
0.0
173
     0
291
     1
 45
0.0
1001
ACAD
1000
AcDbSavedByObjectVersion
1070
     0
  0
VISUALSTYLE
  5
2D
102
{ACAD_REACTORS
330
2A
102
}
330
2A
100
AcDbVisualStyle
  2
Gouraud
 70
     2
 71
     2
 72
     2
 73
     1
 90
        2
 40
-0.6
 41
30.0
 62
     5
 63
     7
 74
     0
 91
        4
 64
     7
 65
   257
 75
     1
175
     1
 42
1.0
 92
        0
 66
     7
 43
1.0
 76
     1
 77
     6
 78
     2
 67
     7
 79
     5
170
     0
171
     0
290
     0
174
     0
 93
       13
 44
0.0
173
     0
291
     1
 45
0.0
1001
ACAD
1000
AcDbSavedByObjectVersion
1070
     0
  0
VISUALSTYLE
  5
2E
102
{ACAD_REACTORS
330
2A
102
}
330
2A
100
AcDbVisualStyle
  2
GouraudWithEdges
 70
     3
 71
     2
 72
     2
 73
     1
 90
        2
 40
-0.6
 41
30.0
 62
     5
 63
     7
 74
     1
 91
        4
 64
     7
 65
   257
 75
     1
175
     1
 42
1.0
 92
        0
 66
   257
 43
1.0
 76
     1
 77
     6
 78
     2
 67
     7
 79
     5
170
     0
171
     0
290
     0
174
     0
 93
       13
 44
0.0
173
     0
291
     1
 45
0.0
1001
ACAD
1000
AcDbSavedByObjectVersion
1070
     0
  0
VISUALSTYLE
  5
38
102
{ACAD_REACTORS
330
2A
102
}
330
2A
100
AcDbVisualStyle
  2
Linepattern
 70
    14
 71
     2
 72
     2
 73
     0
 90
        0
 40
-0.6
 41
-30.0
 62
     5
 63
     7
 74
     1
 91
        4
 64
     7
 65
   257
 75
     7
175
     7
 42
1.0
 92
        8
 66
     7
 43
1.0
 76
     1
 77
     6
 78
     2
 67
     7
 79
     5
170
     0
171
     0
290
     0
174
     0
 93
        1
 44
0.0
173
     0
291
     1
 45
0.0
1001
ACAD
1000
AcDbSavedByObjectVersion
1070
     0
  0
VISUALSTYLE
  5
33
102
{ACAD_REACTORS
330
2A
102
}
330
2A
100
AcDbVisualStyle
  2
Realistic
 70
     8
 71
     2
 72
     2
 73
     0
 90
        0
 40
-0.6
 41
-30.0
 62
     5
 63
     7
 74
     1
 91
        0
 64
     7
 65
   257
 75
     1
175
     1
 42
1.0
 92
        8
 66
     8
 43
1.0
 76
     1
 77
     6
 78
     2
 67
     7
 79
     5
170
     0
171
     0
290
     0
174
     0
 93
       13
 44
0.0
173
     0
291
     0
 45
0.0
1001
ACAD
1000
AcDbSavedByObjectVersion
1070
     0
  0
VISUALSTYLE
  5
37
102
{ACAD_REACTORS
330
2A
102
}
330
2A
100
AcDbVisualStyle
  2
Thicken
 70
    13
 71
     2
 72
     2
 73
     0
 90
        0
 40
-0.6
 41
-30.0
 62
     5
 63
     7
 74
     1
 91
        4
 64
     7
 65
   257
 75
     1
175
     1
 42
1.0
 92
       12
 66
     7
 43
1.0
 76
     1
 77
     6
 78
     2
 67
     7
 79
     5
170
     0
171
     0
290
     0
174
     0
 93
        1
 44
0.0
173
     0
291
     1
 45
0.0
1001
ACAD
1000
AcDbSavedByObjectVersion
1070
     0
  0
DICTIONARYVAR
  5
258
102
{ACAD_REACTORS
330
253
102
}
330
253
100
DictionaryVariables
280
     0
  1
2
  0
DICTIONARYVAR
  5
259
102
{ACAD_REACTORS
330
253
102
}
330
253
100
DictionaryVariables
280
     0
  1
1
  0
DICTIONARYVAR
  5
257
102
{ACAD_REACTORS
330
253
102
}
330
253
100
DictionaryVariables
280
     0
  1
80.000000
  0
DICTIONARYVAR
  5
256
102
{ACAD_REACTORS
330
253
102
}
330
253
100
DictionaryVariables
280
     0
  1
5.000000
  0
ENDSEC
  0
EOF
