  0
SECTION
  2
HEADER
  9
$ACADVER
  1
AC1014
  9
$ACADMAINTVER
 70
     0
  9
$DWGCODEPAGE
  3
ANSI_1252
  9
$INSBASE
 10
0.0
 20
0.0
 30
0.0
  9
$EXTMIN
 10
0.0
 20
0.0
 30
0.0
  9
$EXTMAX
 10
215.9
 20
279.4
 30
0.0
  9
$LIMMIN
 10
0.0
 20
0.0
  9
$LIMMAX
 10
12.0
 20
9.0
  9
$ORTHOMODE
 70
     0
  9
$REGENMODE
 70
     1
  9
$FILLMODE
 70
     0
  9
$QTEXTMODE
 70
     0
  9
$MIRRTEXT
 70
     1
  9
$DRAGMODE
 70
     2
  9
$LTSCALE
 40
1.0
  9
$OSMODE
 70
     0
  9
$ATTMODE
 70
     1
  9
$TEXTSIZE
 40
0.2
  9
$TRACEWID
 40
0.05
  9
$TEXTSTYLE
  7
STANDARD
  9
$CLAYER
  8
0
  9
$CELTYPE
  6
BYLAYER
  9
$CECOLOR
 62
   256
  9
$CELTSCALE
 40
1.0
  9
$DELOBJ
 70
     1
  9
$DISPSILH
 70
     0
  9
$DIMSCALE
 40
1.0
  9
$DIMASZ
 40
0.18
  9
$DIMEXO
 40
0.0625
  9
$DIMDLI
 40
0.38
  9
$DIMRND
 40
0.0
  9
$DIMDLE
 40
0.0
  9
$DIMEXE
 40
0.18
  9
$DIMTP
 40
0.0
  9
$DIMTM
 40
0.0
  9
$DIMTXT
 40
0.18
  9
$DIMCEN
 40
0.09
  9
$DIMTSZ
 40
0.0
  9
$DIMTOL
 70
     0
  9
$DIMLIM
 70
     0
  9
$DIMTIH
 70
     0
  9
$DIMTOH
 70
     0
  9
$DIMSE1
 70
     0
  9
$DIMSE2
 70
     0
  9
$DIMTAD
 70
     1
  9
$DIMZIN
 70
     0
  9
$DIMBLK
  1

  9
$DIMASO
 70
     1
  9
$DIMSHO
 70
     1
  9
$DIMPOST
  1

  9
$DIMAPOST
  1

  9
$DIMALT
 70
     0
  9
$DIMALTD
 70
     2
  9
$DIMALTF
 40
25.4
  9
$DIMLFAC
 40
1.0
  9
$DIMTOFL
 70
     0
  9
$DIMTVP
 40
0.0
  9
$DIMTIX
 70
     0
  9
$DIMSOXD
 70
     0
  9
$DIMSAH
 70
     0
  9
$DIMBLK1
  1

  9
$DIMBLK2
  1

  9
$DIMSTYLE
  2
STANDARD
  9
$DIMCLRD
 70
     0
  9
$DIMCLRE
 70
     0
  9
$DIMCLRT
 70
     0
  9
$DIMTFAC
 40
1.0
  9
$DIMGAP
 40
0.09
  9
$DIMJUST
 70
     0
  9
$DIMSD1
 70
     0
  9
$DIMSD2
 70
     0
  9
$DIMTOLJ
 70
     1
  9
$DIMTZIN
 70
     0
  9
$DIMALTZ
 70
     0
  9
$DIMALTTZ
 70
     0
  9
$DIMFIT
 70
     3
  9
$DIMUPT
 70
     0
  9
$DIMUNIT
 70
     2
  9
$DIMDEC
 70
     2
  9
$DIMTDEC
 70
     4
  9
$DIMALTU
 70
     2
  9
$DIMALTTD
 70
     2
  9
$DIMTXSTY
  7
STANDARD
  9
$DIMAUNIT
 70
     0
  9
$LUNITS
 70
     2
  9
$LUPREC
 70
     4
  9
$SKETCHINC
 40
0.1
  9
$FILLETRAD
 40
0.5
  9
$AUNITS
 70
     0
  9
$AUPREC
 70
     0
  9
$MENU
  1
.
  9
$ELEVATION
 40
0.0
  9
$PELEVATION
 40
0.0
  9
$THICKNESS
 40
0.0
  9
$LIMCHECK
 70
     0
  9
$BLIPMODE
 70
     0
  9
$CHAMFERA
 40
0.5
  9
$CHAMFERB
 40
0.5
  9
$CHAMFERC
 40
1.0
  9
$CHAMFERD
 40
0.0
  9
$SKPOLY
 70
     0
  9
$TDCREATE
 40
2450772.666465926
  9
$TDUPDATE
 40
2457518.908032408
  9
$TDINDWG
 40
0.0011564931
  9
$TDUSRTIMER
 40
0.0000000000
  9
$USRTIMER
 70
     1
  9
$ANGBASE
 50
0.0
  9
$ANGDIR
 70
     0
  9
$PDMODE
 70
     0
  9
$PDSIZE
 40
0.0
  9
$PLINEWID
 40
0.0
  9
$COORDS
 70
     1
  9
$SPLFRAME
 70
     0
  9
$SPLINETYPE
 70
     6
  9
$SPLINESEGS
 70
     8
  9
$ATTDIA
 70
     0
  9
$ATTREQ
 70
     1
  9
$HANDLING
 70
     1
  9
$HANDSEED
  5
AB
  9
$SURFTAB1
 70
     6
  9
$SURFTAB2
 70
     6
  9
$SURFTYPE
 70
     6
  9
$SURFU
 70
     6
  9
$SURFV
 70
     6
  9
$UCSNAME
  2

  9
$UCSORG
 10
0.0
 20
0.0
 30
0.0
  9
$UCSXDIR
 10
1.0
 20
0.0
 30
0.0
  9
$UCSYDIR
 10
0.0
 20
1.0
 30
0.0
  9
$PUCSNAME
  2

  9
$PUCSORG
 10
0.0
 20
0.0
 30
0.0
  9
$PUCSXDIR
 10
1.0
 20
0.0
 30
0.0
  9
$PUCSYDIR
 10
0.0
 20
1.0
 30
0.0
  9
$USERI1
 70
     0
  9
$USERI2
 70
     0
  9
$USERI3
 70
     0
  9
$USERI4
 70
     0
  9
$USERI5
 70
     0
  9
$USERR1
 40
0.0
  9
$USERR2
 40
0.0
  9
$USERR3
 40
0.0
  9
$USERR4
 40
0.0
  9
$USERR5
 40
0.0
  9
$WORLDVIEW
 70
     1
  9
$SHADEDGE
 70
     3
  9
$SHADEDIF
 70
    70
  9
$TILEMODE
 70
     1
  9
$MAXACTVP
 70
    48
  9
$PINSBASE
 10
0.0
 20
0.0
 30
0.0
  9
$PLIMCHECK
 70
     0
  9
$PEXTMIN
 10
0.0
 20
0.0
 30
0.0
  9
$PEXTMAX
 10
0.0
 20
0.0
 30
0.0
  9
$PLIMMIN
 10
0.0
 20
0.0
  9
$PLIMMAX
 10
12.0
 20
9.0
  9
$UNITMODE
 70
     0
  9
$VISRETAIN
 70
     1
  9
$PLINEGEN
 70
     0
  9
$PSLTSCALE
 70
     1
  9
$TREEDEPTH
 70
  3020
  9
$PICKSTYLE
 70
     1
  9
$CMLSTYLE
  2
STANDARD
  9
$CMLJUST
 70
     0
  9
$CMLSCALE
 40
1.0
  9
$PROXYGRAPHICS
 70
     1
  9
$MEASUREMENT
 70
     0
  0
ENDSEC
  0
SECTION
  2
CLASSES
  0
CLASS
  1
LWPOLYLINE
  2
AcDbPolyline
  3
"AutoCAD"
 90
        0
280
     0
281
     1
  0
CLASS
  1
IMAGE
  2
AcDbRasterImage
  3
ISM
 90
      127
280
     0
281
     1
  0
CLASS
  1
OLE2FRAME
  2
AcDbOle2Frame
  3
""
 90
        0
280
     0
281
     1
  0
CLASS
  1
HATCH
  2
AcDbHatch
  3
"ACAD_SEDONA"
 90
        0
280
     0
281
     1
  0
CLASS
  1
DICTIONARYVAR
  2
AcDbDictionaryVar
  3
"AutoCAD"
 90
        0
280
     0
281
     0
  0
CLASS
  1
RASTERVARIABLES
  2
AcDbRasterVariables
  3
ISM
 90
        0
280
     0
281
     0
  0
CLASS
  1
IMAGEDEF
  2
AcDbRasterImageDef
  3
ISM
 90
        0
280
     0
281
     0
  0
CLASS
  1
IMAGEDEF_REACTOR
  2
AcDbRasterImageDefReactor
  3
ISM
 90
        1
280
     0
281
     0
  0
CLASS
  1
IDBUFFER
  2
AcDbIdBuffer
  3
"Acad"
 90
        0
280
     0
281
     0
  0
CLASS
  1
SPATIAL_FILTER
  2
AcDbSpatialFilter
  3
"Acad"
 90
        0
280
     0
281
     0
  0
CLASS
  1
XRECORD
  2
AcDbXrecord
  3
"<Built In>"
 90
        0
280
     0
281
     0
  0
CLASS
  1
SORTENTSTABLE
  2
AcDbSortentsTable
  3
"AutoCAD"
 90
        0
280
     0
281
     0
  0
CLASS
  1
LAYER_INDEX
  2
AcDbLayerIndex
  3
"Acad"
 90
        0
280
     0
281
     0
  0
CLASS
  1
SPATIAL_INDEX
  2
AcDbSpatialIndex
  3
"Acad"
 90
        0
280
     0
281
     0
  0
CLASS
  1
OBJECT_PTR
  2
CAseDLPNTableRecord
  3
"ASE-LPNTableRecord"
 90
        1
280
     0
281
     0
  0
CLASS
  1
LAYOUT
  2
AcDbLayout
  3
"AutoCAD 2000"
 90
        1
280
     0
281
     0
  0
CLASS
  1
PLOTSETTINGS
  2
AcDbPlotSettings
  3
"AutoCAD 2000"
 90
        1
280
     0
281
     0
  0
CLASS
  1
ACDBDICTIONARYWDFLT
  2
AcDbDictionaryWithDefault
  3
"AutoCAD 2000"
 90
        1
280
     0
281
     0
  0
CLASS
  1
ACDBPLACEHOLDER
  2
AcDbPlaceHolder
  3
"AutoCAD 2000"
 90
        1
280
     0
281
     0
  0
CLASS
  1
VBA_PROJECT
  2
AcDbVbaProject
  3
"acadvba"
 90
        1
280
     0
281
     0
  0
CLASS
  1
WIPEOUT
  2
AcDbWipeout
  3
WipeOut|AutoCAD Express Tool|expresstools@autodesk.com
 90
      127
280
     0
281
     1
  0
CLASS
  1
WIPEOUTVARIABLES
  2
AcDbWipeoutVariables
  3
WipeOut|AutoCAD Express Tool|expresstools@autodesk.com
 90
        0
280
     0
281
     0
  0
CLASS
  1
RTEXT
  2
RText
  3
RText|AutoCAD Express Tool|expresstools@autodesk.com
 90
        0
280
     0
281
     1
  0
CLASS
  1
ARCALIGNEDTEXT
  2
AcDbArcAlignedText
  3
ATEXT|AutoCAD Express Tool|expresstools@autodesk.com
 90
        0
280
     0
281
     1
  0
ENDSEC
  0
SECTION
  2
TABLES
  0
TABLE
  2
VPORT
  5
8
100
AcDbSymbolTable
 70
     1
  0
VPORT
  5
25
100
AcDbSymbolTableRecord
100
AcDbViewportTableRecord
  2
*ACTIVE
 70
     0
 10
0.0
 20
0.0
 11
1.0
 21
1.0
 12
107.95
 22
139.7
 13
0.0
 23
0.0
 14
0.5
 24
0.5
 15
0.5
 25
0.5
 16
0.0
 26
0.0
 36
1.0
 17
0.0
 27
0.0
 37
0.0
 40
279.4
 41
0.772727
 42
50.0
 43
0.0
 44
0.0
 50
0.0
 51
0.0
 71
     0
 72
   100
 73
     1
 74
     1
 75
     0
 76
     0
 77
     0
 78
     0
  0
ENDTAB
  0
TABLE
  2
LTYPE
  5
5
100
AcDbSymbolTable
 70
     3
  0
LTYPE
  5
12
100
AcDbSymbolTableRecord
100
AcDbLinetypeTableRecord
  2
BYBLOCK
 70
    64
  3

 72
    65
 73
     0
 40
0.0
  0
LTYPE
  5
13
100
AcDbSymbolTableRecord
100
AcDbLinetypeTableRecord
  2
BYLAYER
 70
    64
  3

 72
    65
 73
     0
 40
0.0
  0
LTYPE
  5
14
100
AcDbSymbolTableRecord
100
AcDbLinetypeTableRecord
  2
CONTINUOUS
 70
     0
  3
Solid line
 72
    65
 73
     0
 40
0.0
  0
ENDTAB
  0
TABLE
  2
LAYER
  5
2
100
AcDbSymbolTable
 70
     2
  0
LAYER
  5
E
100
AcDbSymbolTableRecord
100
AcDbLayerTableRecord
  2
0
 70
     0
 62
     7
  6
CONTINUOUS
  0
LAYER
  5
A8
100
AcDbSymbolTableRecord
100
AcDbLayerTableRecord
  2
CONNECTOR
 70
     0
 62
     7
  6
CONTINUOUS
  0
ENDTAB
  0
TABLE
  2
STYLE
  5
3
100
AcDbSymbolTable
 70
     1
  0
STYLE
  5
F
100
AcDbSymbolTableRecord
100
AcDbTextStyleTableRecord
  2
STANDARD
 70
     0
 40
0.0
 41
1.0
 50
0.0
 71
     0
 42
0.2
  3
txt.shx
  4

  0
ENDTAB
  0
TABLE
  2
VIEW
  5
6
100
AcDbSymbolTable
 70
     0
  0
ENDTAB
  0
TABLE
  2
UCS
  5
7
100
AcDbSymbolTable
 70
     0
  0
ENDTAB
  0
TABLE
  2
APPID
  5
9
100
AcDbSymbolTable
 70
     1
  0
APPID
  5
10
100
AcDbSymbolTableRecord
100
AcDbRegAppTableRecord
  2
ACAD
 70
     0
  0
ENDTAB
  0
TABLE
  2
DIMSTYLE
  5
A
100
AcDbSymbolTable
 70
     1
  0
DIMSTYLE
105
1D
100
AcDbSymbolTableRecord
100
AcDbDimStyleTableRecord
  2
STANDARD
 70
     0
  3

  4

  5

  6

  7

 40
1.0
 41
0.18
 42
0.0625
 43
0.38
 44
0.18
 45
0.0
 46
0.0
 47
0.0
 48
0.0
 71
     0
 72
     0
 73
     1
 74
     1
 75
     0
 76
     0
 77
     0
 78
     0
140
0.18
141
0.09
142
0.0
143
25.4
144
1.0
145
0.0
146
1.0
147
0.09
170
     0
171
     2
172
     0
173
     0
174
     0
175
     0
176
     0
177
     0
178
     0
270
     2
271
     4
272
     4
273
     2
274
     2
275
     0
280
     0
281
     0
282
     0
283
     1
284
     0
285
     0
286
     0
287
     3
288
     0
340
F
  0
ENDTAB
  0
TABLE
  2
BLOCK_RECORD
  5
1
100
AcDbSymbolTable
 70
     1
  0
BLOCK_RECORD
  5
18
100
AcDbSymbolTableRecord
100
AcDbBlockTableRecord
  2
*MODEL_SPACE
  0
BLOCK_RECORD
  5
15
100
AcDbSymbolTableRecord
100
AcDbBlockTableRecord
  2
*PAPER_SPACE
  0
BLOCK_RECORD
  5
A6
100
AcDbSymbolTableRecord
100
AcDbBlockTableRecord
  2
LINE-CURVE_CONNECTOR
  0
ENDTAB
  0
ENDSEC
  0
SECTION
  2
BLOCKS
  0
BLOCK
  5
19
100
AcDbEntity
  8
0
100
AcDbBlockBegin
  2
*MODEL_SPACE
 70
     0
 10
0.0
 20
0.0
 30
0.0
  3
*MODEL_SPACE
  1

  0
ENDBLK
  5
1A
100
AcDbEntity
  8
0
100
AcDbBlockEnd
  0
BLOCK
  5
16
100
AcDbEntity
 67
     1
  8
0
100
AcDbBlockBegin
  2
*PAPER_SPACE
 70
     0
 10
0.0
 20
0.0
 30
0.0
  3
*PAPER_SPACE
  1

  0
ENDBLK
  5
17
100
AcDbEntity
 67
     1
  8
0
100
AcDbBlockEnd
  0
BLOCK
  5
A7
100
AcDbEntity
  8
0
100
AcDbBlockBegin
  2
LINE-CURVE_CONNECTOR
 70
     0
 10
0.0
 20
0.0
 30
0.0
  3
LINE-CURVE_CONNECTOR
  1

  0
SPLINE
  5
A9
100
AcDbEntity
  8
CONNECTOR
  6
CONTINUOUS
100
AcDbSpline
210
0.0
220
0.0
230
1.0
 70
     8
 71
     2
 72
     6
 73
     3
 74
     0
 42
0.0000001
 43
0.0000001
 40
0.0
 40
0.0
 40
0.0
 40
1.0
 40
1.0
 40
1.0
 10
49.645544730744014
 20
48.100000000000136
 30
0.0
 10
28.420224579407556
 20
49.325320151336278
 30
0.0
 10
29.645544730744298
 20
28.099999999999863
 30
0.0
  0
ENDBLK
  5
AA
100
AcDbEntity
  8
0
100
AcDbBlockEnd
  0
ENDSEC
  0
SECTION
  2
ENTITIES
  0
SPLINE
  5
32
102
{ACAD_REACTORS
330
31
102
}
100
AcDbEntity
  8
0
  6
CONTINUOUS
 62
     7
100
AcDbSpline
210
0.0
220
0.0
230
1.0
 70
     8
 71
     2
 72
     6
 73
     3
 74
     0
 42
0.0000001
 43
0.0000001
 40
0.9851712248988005
 40
0.9851712248988005
 40
0.9851712248988005
 40
1.0
 40
1.0
 40
1.0
 10
73.30458523344457
 20
240.42501225584854
 30
0.0
 10
73.368263332713369
 20
240.42475084993998
 30
0.0
 10
73.432257751597248
 20
240.42419009051949
 30
0.0
  0
LINE
  5
33
102
{ACAD_REACTORS
330
31
102
}
100
AcDbEntity
  8
0
  6
CONTINUOUS
 62
     7
100
AcDbLine
 10
73.432258
 20
240.42419
 30
0.0
 11
73.432258
 21
235.508159
 31
0.0
  0
LINE
  5
34
102
{ACAD_REACTORS
330
31
102
}
100
AcDbEntity
  8
0
  6
CONTINUOUS
 62
     7
100
AcDbLine
 10
73.432258
 20
235.508159
 30
0.0
 11
72.137591
 21
235.508159
 31
0.0
  0
LINE
  5
35
102
{ACAD_REACTORS
330
31
102
}
100
AcDbEntity
  8
0
  6
CONTINUOUS
 62
     7
100
AcDbLine
 10
72.137591
 20
235.508159
 30
0.0
 11
71.238516
 21
236.453549
 31
0.0
  0
LINE
  5
36
102
{ACAD_REACTORS
330
31
102
}
100
AcDbEntity
  8
0
  6
CONTINUOUS
 62
     7
100
AcDbLine
 10
71.238516
 20
236.453549
 30
0.0
 11
71.238516
 21
232.256015
 31
0.0
  0
LINE
  5
37
102
{ACAD_REACTORS
330
31
102
}
100
AcDbEntity
  8
0
  6
CONTINUOUS
 62
     7
100
AcDbLine
 10
71.238516
 20
232.256015
 30
0.0
 11
72.223902
 21
233.239221
 31
0.0
  0
LINE
  5
38
102
{ACAD_REACTORS
330
31
102
}
100
AcDbEntity
  8
0
  6
CONTINUOUS
 62
     7
100
AcDbLine
 10
72.223902
 20
233.239221
 30
0.0
 11
73.432258
 21
233.239221
 31
0.0
  0
LINE
  5
39
102
{ACAD_REACTORS
330
31
102
}
100
AcDbEntity
  8
0
  6
CONTINUOUS
 62
     7
100
AcDbLine
 10
73.432258
 20
233.239221
 30
0.0
 11
73.432258
 21
227.302168
 31
0.0
  0
LINE
  5
3A
102
{ACAD_REACTORS
330
31
102
}
100
AcDbEntity
  8
0
  6
CONTINUOUS
 62
     7
100
AcDbLine
 10
73.432258
 20
227.302168
 30
0.0
 11
71.634109
 21
228.625715
 31
0.0
  0
LINE
  5
3B
102
{ACAD_REACTORS
330
31
102
}
100
AcDbEntity
  8
0
  6
CONTINUOUS
 62
     7
100
AcDbLine
 10
71.634109
 20
228.625715
 30
0.0
 11
74.690962
 21
222.25
 31
0.0
  0
LINE
  5
3C
102
{ACAD_REACTORS
330
31
102
}
100
AcDbEntity
  8
0
  6
CONTINUOUS
 62
     7
100
AcDbLine
 10
74.690962
 20
222.25
 30
0.0
 11
77.639925
 21
228.572773
 31
0.0
  0
LINE
  5
3D
102
{ACAD_REACTORS
330
31
102
}
100
AcDbEntity
  8
0
  6
CONTINUOUS
 62
     7
100
AcDbLine
 10
77.639925
 20
228.572773
 30
0.0
 11
75.87774
 21
227.324857
 31
0.0
  0
LINE
  5
3E
102
{ACAD_REACTORS
330
31
102
}
100
AcDbEntity
  8
0
  6
CONTINUOUS
 62
     7
100
AcDbLine
 10
75.87774
 20
227.324857
 30
0.0
 11
75.87774
 21
233.216532
 31
0.0
  0
LINE
  5
3F
102
{ACAD_REACTORS
330
31
102
}
100
AcDbEntity
  8
0
  6
CONTINUOUS
 62
     7
100
AcDbLine
 10
75.87774
 20
233.216532
 30
0.0
 11
76.884703
 21
233.216532
 31
0.0
  0
LINE
  5
40
102
{ACAD_REACTORS
330
31
102
}
100
AcDbEntity
  8
0
  6
CONTINUOUS
 62
     7
100
AcDbLine
 10
76.884703
 20
233.216532
 30
0.0
 11
77.927629
 21
232.271141
 31
0.0
  0
LINE
  5
41
102
{ACAD_REACTORS
330
31
102
}
100
AcDbEntity
  8
0
  6
CONTINUOUS
 62
     7
100
AcDbLine
 10
77.927629
 20
232.271141
 30
0.0
 11
77.963592
 21
236.491365
 31
0.0
  0
LINE
  5
42
102
{ACAD_REACTORS
330
31
102
}
100
AcDbEntity
  8
0
  6
CONTINUOUS
 62
     7
100
AcDbLine
 10
77.963592
 20
236.491365
 30
0.0
 11
77.064518
 21
235.545974
 31
0.0
  0
LINE
  5
43
102
{ACAD_REACTORS
330
31
102
}
100
AcDbEntity
  8
0
  6
CONTINUOUS
 62
     7
100
AcDbLine
 10
77.064518
 20
235.545974
 30
0.0
 11
75.87774
 21
235.545974
 31
0.0
  0
LINE
  5
44
102
{ACAD_REACTORS
330
31
102
}
100
AcDbEntity
  8
0
  6
CONTINUOUS
 62
     7
100
AcDbLine
 10
75.87774
 20
235.545974
 30
0.0
 11
75.87774
 21
240.462267
 31
0.0
  0
SPLINE
  5
45
102
{ACAD_REACTORS
330
31
102
}
100
AcDbEntity
  8
0
  6
CONTINUOUS
 62
     7
100
AcDbSpline
210
0.0
220
0.0
230
1.0
 70
     8
 71
     2
 72
     6
 73
     3
 74
     0
 42
0.0000001
 43
0.0000001
 40
0.0
 40
0.0
 40
0.0
 40
0.0073467119777092
 40
0.0073467119777092
 40
0.0073467119777092
 10
75.877739848852798
 20
240.46226722440997
 30
0.0
 10
75.937979637032996
 20
240.46686757603942
 30
0.0
 10
75.997955439446855
 20
240.47144776778148
 30
0.0
  0
SPLINE
  5
46
102
{ACAD_REACTORS
330
31
102
}
100
AcDbEntity
  8
0
  6
CONTINUOUS
 62
     7
100
AcDbSpline
210
0.0
220
0.0
230
1.0
 70
     8
 71
     2
 72
     6
 73
     3
 74
     0
 42
0.0000001
 43
0.0000001
 40
0.0073467119777092
 40
0.0073467119777092
 40
0.0073467119777092
 40
0.9889985080991101
 40
0.9889985080991101
 40
0.9889985080991101
 10
75.997955439446855
 20
240.47144776778148
 30
0.0
 10
84.011792696428174
 20
241.08344310171813
 30
0.0
 10
87.312500000000114
 20
236.66662739439514
 30
0.0
  0
SPLINE
  5
47
102
{ACAD_REACTORS
330
31
102
}
100
AcDbEntity
  8
0
  6
CONTINUOUS
 62
     7
100
AcDbSpline
210
0.0
220
0.0
230
1.0
 70
     8
 71
     2
 72
     6
 73
     3
 74
     0
 42
0.0000001
 43
0.0000001
 40
0.0
 40
0.0
 40
0.0
 40
1.0
 40
1.0
 40
1.0
 10
87.312500000000114
 20
236.66662739439514
 30
0.0
 10
85.156919104978755
 20
240.45000574062996
 30
0.0
 10
87.026261174576504
 20
246.24779656979536
 30
0.0
  0
SPLINE
  5
48
102
{ACAD_REACTORS
330
31
102
}
100
AcDbEntity
  8
0
  6
CONTINUOUS
 62
     7
100
AcDbSpline
210
0.0
220
0.0
230
1.0
 70
     8
 71
     2
 72
     6
 73
     3
 74
     0
 42
0.0000001
 43
0.0000001
 40
0.0
 40
0.0
 40
0.0
 40
0.99520792715794
 40
0.99520792715794
 40
0.99520792715794
 10
87.026261174576504
 20
246.24779656979536
 30
0.0
 10
83.129099284202582
 20
242.14912486092851
 30
0.0
 10
77.648703736989006
 20
242.38127484214615
 30
0.0
  0
LINE
  5
49
102
{ACAD_REACTORS
330
31
102
}
100
AcDbEntity
  8
0
  6
CONTINUOUS
 62
     7
100
AcDbLine
 10
77.648704
 20
242.381275
 30
0.0
 11
77.603143
 21
242.387901
 31
0.0
  0
ELLIPSE
  5
4A
102
{ACAD_REACTORS
330
31
102
}
100
AcDbEntity
  8
0
  6
CONTINUOUS
 62
     7
100
AcDbEllipse
 10
74.439221
 20
247.760422
 30
0.0
 11
0.0
 21
-6.2395783706527421
 31
0.0
210
0.0
220
0.0
230
1.0
 40
0.997118
 41
0.5334869121594306
 42
3.1456363980120665
  0
ELLIPSE
  5
4B
102
{ACAD_REACTORS
330
31
102
}
100
AcDbEntity
  8
0
  6
CONTINUOUS
 62
     7
100
AcDbEllipse
 10
74.439221
 20
247.760422
 30
0.0
 11
0.0
 21
-6.239578370652727
 31
0.0
210
0.0
220
0.0
230
1.0
 40
0.997118
 41
3.1456363980120514
 42
5.7499872494298199
  0
SPLINE
  5
4C
102
{ACAD_REACTORS
330
31
102
}
100
AcDbEntity
  8
0
  6
CONTINUOUS
 62
     7
100
AcDbSpline
210
0.0
220
0.0
230
1.0
 70
     8
 71
     2
 72
     6
 73
     3
 74
     0
 42
0.0000001
 43
0.0000001
 40
0.0
 40
0.0
 40
0.0
 40
0.0048930446052563
 40
0.0048930446052563
 40
0.0048930446052563
 10
71.276846511137464
 20
242.38698448845247
 30
0.0
 10
71.249803882256188
 20
242.38402614830628
 30
0.0
 10
71.222715767039432
 20
242.3810628321626
 30
0.0
  0
SPLINE
  5
4D
102
{ACAD_REACTORS
330
31
102
}
100
AcDbEntity
  8
0
  6
CONTINUOUS
 62
     7
100
AcDbSpline
210
0.0
220
0.0
230
1.0
 70
     8
 71
     2
 72
     6
 73
     3
 74
     0
 42
0.0000001
 43
0.0000001
 40
0.0048930446052563
 40
0.0048930446052563
 40
0.0048930446052563
 40
1.0
 40
1.0
 40
1.0
 10
71.222715767039432
 20
242.3810628321626
 30
0.0
 10
65.713758862851734
 20
241.77840809600877
 30
0.0
 10
62.82318100615052
 20
238.30651500714632
 30
0.0
  0
SPLINE
  5
4E
102
{ACAD_REACTORS
330
31
102
}
100
AcDbEntity
  8
0
  6
CONTINUOUS
 62
     7
100
AcDbSpline
210
0.0
220
0.0
230
1.0
 70
     8
 71
     2
 72
     6
 73
     3
 74
     0
 42
0.0000001
 43
0.0000001
 40
0.0
 40
0.0
 40
0.0
 40
0.092235884517375
 40
0.092235884517375
 40
0.092235884517375
 10
62.82318100615052
 20
238.30651500714632
 30
0.0
 10
62.700673097349593
 20
238.14462106483273
 30
0.0
 10
62.594645369443427
 20
237.98042049755901
 30
0.0
  0
SPLINE
  5
4F
102
{ACAD_REACTORS
330
31
102
}
100
AcDbEntity
  8
0
  6
CONTINUOUS
 62
     7
100
AcDbSpline
210
0.0
220
0.0
230
1.0
 70
     8
 71
     2
 72
     6
 73
     3
 74
     0
 42
0.0000001
 43
0.0000001
 40
0.0922358845173754
 40
0.0922358845173754
 40
0.0922358845173754
 40
1.0
 40
1.0
 40
1.0
 10
62.594645369443427
 20
237.98042049755901
 30
0.0
 10
61.551145140188893
 20
236.36439671795398
 30
0.0
 10
62.103921565781235
 20
234.52495235826595
 30
0.0
  0
SPLINE
  5
50
102
{ACAD_REACTORS
330
31
102
}
100
AcDbEntity
  8
0
  6
CONTINUOUS
 62
     7
100
AcDbSpline
210
0.0
220
0.0
230
1.0
 70
     8
 71
     2
 72
     6
 73
     3
 74
     0
 42
0.0000001
 43
0.0000001
 40
0.0
 40
0.0
 40
0.0
 40
1.0
 40
1.0
 40
1.0
 10
62.103921565781235
 20
234.52495235826595
 30
0.0
 10
62.769236548122798
 20
232.8232491662697
 30
0.0
 10
64.801144467165997
 20
232.63417103382574
 30
0.0
  0
SPLINE
  5
51
102
{ACAD_REACTORS
330
31
102
}
100
AcDbEntity
  8
0
  6
CONTINUOUS
 62
     7
100
AcDbSpline
210
0.0
220
0.0
230
1.0
 70
     8
 71
     2
 72
     6
 73
     3
 74
     0
 42
0.0000001
 43
0.0000001
 40
0.0
 40
0.0
 40
0.0
 40
0.14681426886969
 40
0.14681426886969
 40
0.14681426886969
 10
64.801144467165997
 20
232.63417103382574
 30
0.0
 10
65.149616378421911
 20
232.62584322349346
 30
0.0
 10
65.448477963498334
 20
232.66479088005605
 30
0.0
  0
SPLINE
  5
52
102
{ACAD_REACTORS
330
31
102
}
100
AcDbEntity
  8
0
  6
CONTINUOUS
 62
     7
100
AcDbSpline
210
0.0
220
0.0
230
1.0
 70
     8
 71
     2
 72
     6
 73
     3
 74
     0
 42
0.0000001
 43
0.0000001
 40
0.1468142688696908
 40
0.1468142688696908
 40
0.1468142688696908
 40
0.45980148261755
 40
0.45980148261755
 40
0.45980148261755
 10
65.448477963498334
 20
232.66479088005605
 30
0.0
 10
66.085608506254587
 20
232.74782176392981
 30
0.0
 10
66.497269061365841
 20
233.04571112097872
 30
0.0
  0
SPLINE
  5
53
102
{ACAD_REACTORS
330
31
102
}
100
AcDbEntity
  8
0
  6
CONTINUOUS
 62
     7
100
AcDbSpline
210
0.0
220
0.0
230
1.0
 70
     8
 71
     2
 72
     6
 73
     3
 74
     0
 42
0.0000001
 43
0.0000001
 40
0.459801482617547
 40
0.459801482617547
 40
0.459801482617547
 40
0.52440950049554
 40
0.52440950049554
 40
0.52440950049554
 10
66.497269061365841
 20
233.04571112097872
 30
0.0
 10
66.582245607806186
 20
233.10720258152563
 30
0.0
 10
66.657614698693436
 20
233.17784933255186
 30
0.0
  0
SPLINE
  5
54
102
{ACAD_REACTORS
330
31
102
}
100
AcDbEntity
  8
0
  6
CONTINUOUS
 62
     7
100
AcDbSpline
210
0.0
220
0.0
230
1.0
 70
     8
 71
     2
 72
     6
 73
     3
 74
     0
 42
0.0000001
 43
0.0000001
 40
0.0651813138199475
 40
0.0651813138199475
 40
0.0651813138199475
 40
0.5446508077115601
 40
0.5446508077115601
 40
0.5446508077115601
 10
66.657614698693436
 20
233.17784933255186
 30
0.0
 10
67.215399746073487
 20
233.67557182959183
 30
0.0
 10
67.302979045834704
 20
234.34575367835092
 30
0.0
  0
SPLINE
  5
55
102
{ACAD_REACTORS
330
31
102
}
100
AcDbEntity
  8
0
  6
CONTINUOUS
 62
     7
100
AcDbSpline
210
0.0
220
0.0
230
1.0
 70
     8
 71
     2
 72
     6
 73
     3
 74
     0
 42
0.0000001
 43
0.0000001
 40
0.5446508077115563
 40
0.5446508077115563
 40
0.5446508077115563
 40
0.66194584644233
 40
0.66194584644233
 40
0.66194584644233
 10
67.302979045834704
 20
234.34575367835092
 30
0.0
 10
67.324404011319288
 20
234.50970364160904
 30
0.0
 10
67.317688901296734
 20
234.68397465943468
 30
0.0
  0
SPLINE
  5
56
102
{ACAD_REACTORS
330
31
102
}
100
AcDbEntity
  8
0
  6
CONTINUOUS
 62
     7
100
AcDbSpline
210
0.0
220
0.0
230
1.0
 70
     8
 71
     2
 72
     6
 73
     3
 74
     0
 42
0.0000001
 43
0.0000001
 40
0.1496878634271135
 40
0.1496878634271135
 40
0.1496878634271135
 40
1.0
 40
1.0
 40
1.0
 10
67.317688901296734
 20
234.68397465943468
 30
0.0
 10
67.3211415175019
 20
235.60152231982121
 30
0.0
 10
66.889149546834176
 20
236.02944989999446
 30
0.0
  0
SPLINE
  5
57
102
{ACAD_REACTORS
330
31
102
}
100
AcDbEntity
  8
0
  6
CONTINUOUS
 62
     7
100
AcDbSpline
210
0.0
220
0.0
230
1.0
 70
     8
 71
     2
 72
     6
 73
     3
 74
     0
 42
0.0000001
 43
0.0000001
 40
0.4213104797087339
 40
0.4213104797087339
 40
0.4213104797087339
 40
0.60181072902377
 40
0.60181072902377
 40
0.60181072902377
 10
66.889149546834176
 20
236.02944989999446
 30
0.0
 10
66.735997195049677
 20
236.22783286358447
 30
0.0
 10
66.517230435336089
 20
236.35475716100575
 30
0.0
  0
ARC
  5
58
102
{ACAD_REACTORS
330
31
102
}
100
AcDbEntity
  8
0
  6
CONTINUOUS
 62
     7
100
AcDbCircle
 10
65.583594
 20
234.95
 30
0.0
 40
1.686719
100
AcDbArc
 50
56.390995
 51
151.38954
  0
SPLINE
  5
59
102
{ACAD_REACTORS
330
31
102
}
100
AcDbEntity
  8
0
  6
CONTINUOUS
 62
     7
100
AcDbSpline
210
0.0
220
0.0
230
1.0
 70
     8
 71
     2
 72
     6
 73
     3
 74
     0
 42
0.0000001
 43
0.0000001
 40
0.0
 40
0.0
 40
0.0
 40
1.0
 40
1.0
 40
1.0
 10
64.102830826623432
 20
235.75768886729662
 30
0.0
 10
63.348177329412728
 20
236.11730700895461
 30
0.0
 10
64.193002014551524
 20
237.363947114795
 30
0.0
  0
SPLINE
  5
5A
102
{ACAD_REACTORS
330
31
102
}
100
AcDbEntity
  8
0
  6
CONTINUOUS
 62
     7
100
AcDbSpline
210
0.0
220
0.0
230
1.0
 70
     8
 71
     2
 72
     6
 73
     3
 74
     0
 42
0.0000001
 43
0.0000001
 40
0.572099836262409
 40
0.572099836262409
 40
0.572099836262409
 40
1.0
 40
1.0
 40
1.0
 10
64.193002014551524
 20
237.363947114795
 30
0.0
 10
65.208799419883121
 20
238.62617858964316
 30
0.0
 10
67.851521824181461
 20
239.74019434682839
 30
0.0
  0
SPLINE
  5
5B
102
{ACAD_REACTORS
330
31
102
}
100
AcDbEntity
  8
0
  6
CONTINUOUS
 62
     7
100
AcDbSpline
210
0.0
220
0.0
230
1.0
 70
     8
 71
     2
 72
     6
 73
     3
 74
     0
 42
0.0000001
 43
0.0000001
 40
0.2628518861442574
 40
0.2628518861442574
 40
0.2628518861442574
 40
0.9851712248988001
 40
0.9851712248988001
 40
0.9851712248988001
 10
67.851521824181461
 20
239.74019434682839
 30
0.0
 10
70.202783348725632
 20
240.43774550871058
 30
0.0
 10
73.30458523344457
 20
240.42501225584854
 30
0.0
  0
ELLIPSE
  5
5C
102
{ACAD_REACTORS
330
31
102
}
100
AcDbEntity
  8
0
  6
CONTINUOUS
 62
    10
100
AcDbEllipse
 10
74.407622
 20
247.848437
 30
0.0
 11
0.0
 21
-3.7059313959030504
 31
0.0
210
0.0
220
0.0
230
1.0
 40
0.965564
 41
3.1536488841328287
 42
3.6526237306293519
  0
ELLIPSE
  5
5D
102
{ACAD_REACTORS
330
31
102
}
100
AcDbEntity
  8
0
  6
CONTINUOUS
 62
    10
100
AcDbEllipse
 10
74.407622
 20
247.848437
 30
0.0
 11
0.0
 21
-3.7059313959048468
 31
0.0
210
0.0
220
0.0
230
1.0
 40
0.965564
 41
3.6526237306294402
 42
3.9313259369775264
  0
ELLIPSE
  5
5E
102
{ACAD_REACTORS
330
31
102
}
100
AcDbEntity
  8
0
  6
CONTINUOUS
 62
    10
100
AcDbEllipse
 10
74.407622
 20
247.848438
 30
0.0
 11
0.0
 21
-3.7059313959028262
 31
0.0
210
0.0
220
0.0
230
1.0
 40
0.965564
 41
3.9313259369776015
 42
5.4934520237917663
  0
ELLIPSE
  5
5F
102
{ACAD_REACTORS
330
31
102
}
100
AcDbEntity
  8
0
  6
CONTINUOUS
 62
    10
100
AcDbEllipse
 10
74.407622
 20
247.848438
 30
0.0
 11
0.0
 21
-3.7059313959029025
 31
0.0
210
0.0
220
0.0
230
1.0
 40
0.965564
 41
5.4934520237917717
 42
6.2711290766365506
  0
ELLIPSE
  5
60
102
{ACAD_REACTORS
330
31
102
}
100
AcDbEntity
  8
0
  6
CONTINUOUS
 62
    10
100
AcDbEllipse
 10
74.407622
 20
247.848438
 30
0.0
 11
0.0
 21
-3.7059313959027795
 31
0.0
210
0.0
220
0.0
230
1.0
 40
0.965564
 41
6.271129076636563
 42
0.7897332836687935
  0
ELLIPSE
  5
61
102
{ACAD_REACTORS
330
31
102
}
100
AcDbEntity
  8
0
  6
CONTINUOUS
 62
    10
100
AcDbEllipse
 10
74.407622
 20
247.848437
 30
0.0
 11
0.0
 21
-3.7059313959020033
 31
0.0
210
0.0
220
0.0
230
1.0
 40
0.965564
 41
0.7897332836687652
 42
1.0784415836001831
  0
ELLIPSE
  5
62
102
{ACAD_REACTORS
330
31
102
}
100
AcDbEntity
  8
0
  6
CONTINUOUS
 62
    10
100
AcDbEllipse
 10
74.407622
 20
247.848437
 30
0.0
 11
0.0
 21
-3.7059313959024087
 31
0.0
210
0.0
220
0.0
230
1.0
 40
0.965564
 41
1.0784415836001129
 42
1.570796326794927
  0
ELLIPSE
  5
63
102
{ACAD_REACTORS
330
31
102
}
100
AcDbEntity
  8
0
  6
CONTINUOUS
 62
    10
100
AcDbEllipse
 10
74.407622
 20
247.848438
 30
0.0
 11
0.0
 21
-3.7059313959032267
 31
0.0
210
0.0
220
0.0
230
1.0
 40
0.965564
 41
1.5707963267949072
 42
1.8283417905572887
  0
ELLIPSE
  5
64
102
{ACAD_REACTORS
330
31
102
}
100
AcDbEntity
  8
0
  6
CONTINUOUS
 62
    10
100
AcDbEllipse
 10
74.407622
 20
247.848438
 30
0.0
 11
0.0
 21
-3.7059313958954068
 31
0.0
210
0.0
220
0.0
230
1.0
 40
0.965564
 41
1.8283417905572095
 42
1.8732235747214099
  0
ELLIPSE
  5
65
102
{ACAD_REACTORS
330
31
102
}
100
AcDbEntity
  8
0
  6
CONTINUOUS
 62
    10
100
AcDbEllipse
 10
74.407622
 20
247.848437
 30
0.0
 11
0.0
 21
-3.705931395916231
 31
0.0
210
0.0
220
0.0
230
1.0
 40
0.965564
 41
1.8732235747214931
 42
1.951606047605984
  0
ELLIPSE
  5
66
102
{ACAD_REACTORS
330
31
102
}
100
AcDbEntity
  8
0
  6
CONTINUOUS
 62
    10
100
AcDbEllipse
 10
74.407622
 20
247.848437
 30
0.0
 11
0.0
 21
-3.7059313959533391
 31
0.0
210
0.0
220
0.0
230
1.0
 40
0.965564
 41
1.9516060476064971
 42
1.9869075485339704
  0
ELLIPSE
  5
67
102
{ACAD_REACTORS
330
31
102
}
100
AcDbEntity
  8
0
  6
CONTINUOUS
 62
    10
100
AcDbEllipse
 10
74.407622
 20
247.848437
 30
0.0
 11
0.0
 21
-3.7059313959030971
 31
0.0
210
0.0
220
0.0
230
1.0
 40
0.965564
 41
1.9869075485341698
 42
2.3518593699210033
  0
ELLIPSE
  5
68
102
{ACAD_REACTORS
330
31
102
}
100
AcDbEntity
  8
0
  6
CONTINUOUS
 62
    10
100
AcDbEllipse
 10
74.407622
 20
247.848437
 30
0.0
 11
0.0
 21
-3.7059313959054028
 31
0.0
210
0.0
220
0.0
230
1.0
 40
0.965564
 41
2.3518593699210273
 42
2.5380672206933941
  0
ELLIPSE
  5
69
102
{ACAD_REACTORS
330
31
102
}
100
AcDbEntity
  8
0
  6
CONTINUOUS
 62
    10
100
AcDbEllipse
 10
74.407622
 20
247.848438
 30
0.0
 11
0.0
 21
-3.7059313958738471
 31
0.0
210
0.0
220
0.0
230
1.0
 40
0.965564
 41
2.5380672206932005
 42
2.637429410472051
  0
ELLIPSE
  5
6A
102
{ACAD_REACTORS
330
31
102
}
100
AcDbEntity
  8
0
  6
CONTINUOUS
 62
    10
100
AcDbEllipse
 10
74.407622
 20
247.848438
 30
0.0
 11
0.0
 21
-3.7059313958994431
 31
0.0
210
0.0
220
0.0
230
1.0
 40
0.965564
 41
2.6374294104714853
 42
2.7467260116851691
  0
ELLIPSE
  5
6B
102
{ACAD_REACTORS
330
31
102
}
100
AcDbEntity
  8
0
  6
CONTINUOUS
 62
    10
100
AcDbEllipse
 10
74.407622
 20
247.848437
 30
0.0
 11
0.0
 21
-3.7059313959029319
 31
0.0
210
0.0
220
0.0
230
1.0
 40
0.965564
 41
2.7467260116851699
 42
3.1536488841328123
  0
SPLINE
  5
6C
102
{ACAD_REACTORS
330
31
102
}
100
AcDbEntity
  8
0
  6
CONTINUOUS
 62
     7
100
AcDbSpline
210
0.0
220
0.0
230
1.0
 70
     8
 71
     2
 72
     6
 73
     3
 74
     0
 42
0.0000001
 43
0.0000001
 40
0.9851712248988005
 40
0.9851712248988005
 40
0.9851712248988005
 40
1.0
 40
1.0
 40
1.0
 10
69.570414766555544
 20
215.98123774415154
 30
0.0
 10
69.506736667286731
 20
215.98149915006007
 30
0.0
 10
69.442742248402851
 20
215.98205990948057
 30
0.0
  0
LINE
  5
6D
102
{ACAD_REACTORS
330
31
102
}
100
AcDbEntity
  8
0
  6
CONTINUOUS
 62
     7
100
AcDbLine
 10
69.442742
 20
215.98206
 30
0.0
 11
69.442742
 21
220.898091
 31
0.0
  0
LINE
  5
6E
102
{ACAD_REACTORS
330
31
102
}
100
AcDbEntity
  8
0
  6
CONTINUOUS
 62
     7
100
AcDbLine
 10
69.442742
 20
220.898091
 30
0.0
 11
70.737409
 21
220.898091
 31
0.0
  0
LINE
  5
6F
102
{ACAD_REACTORS
330
31
102
}
100
AcDbEntity
  8
0
  6
CONTINUOUS
 62
     7
100
AcDbLine
 10
70.737409
 20
220.898091
 30
0.0
 11
71.636484
 21
219.952701
 31
0.0
  0
LINE
  5
70
102
{ACAD_REACTORS
330
31
102
}
100
AcDbEntity
  8
0
  6
CONTINUOUS
 62
     7
100
AcDbLine
 10
71.636484
 20
219.952701
 30
0.0
 11
71.636484
 21
224.150235
 31
0.0
  0
LINE
  5
71
102
{ACAD_REACTORS
330
31
102
}
100
AcDbEntity
  8
0
  6
CONTINUOUS
 62
     7
100
AcDbLine
 10
71.636484
 20
224.150235
 30
0.0
 11
70.651098
 21
223.167029
 31
0.0
  0
LINE
  5
72
102
{ACAD_REACTORS
330
31
102
}
100
AcDbEntity
  8
0
  6
CONTINUOUS
 62
     7
100
AcDbLine
 10
70.651098
 20
223.167029
 30
0.0
 11
69.442742
 21
223.167029
 31
0.0
  0
LINE
  5
73
102
{ACAD_REACTORS
330
31
102
}
100
AcDbEntity
  8
0
  6
CONTINUOUS
 62
     7
100
AcDbLine
 10
69.442742
 20
223.167029
 30
0.0
 11
69.442742
 21
229.104082
 31
0.0
  0
LINE
  5
74
102
{ACAD_REACTORS
330
31
102
}
100
AcDbEntity
  8
0
  6
CONTINUOUS
 62
     7
100
AcDbLine
 10
69.442742
 20
229.104082
 30
0.0
 11
71.240891
 21
227.780535
 31
0.0
  0
LINE
  5
75
102
{ACAD_REACTORS
330
31
102
}
100
AcDbEntity
  8
0
  6
CONTINUOUS
 62
     7
100
AcDbLine
 10
71.240891
 20
227.780535
 30
0.0
 11
68.184038
 21
234.15625
 31
0.0
  0
LINE
  5
76
102
{ACAD_REACTORS
330
31
102
}
100
AcDbEntity
  8
0
  6
CONTINUOUS
 62
     7
100
AcDbLine
 10
68.184038
 20
234.15625
 30
0.0
 11
65.235075
 21
227.833477
 31
0.0
  0
LINE
  5
77
102
{ACAD_REACTORS
330
31
102
}
100
AcDbEntity
  8
0
  6
CONTINUOUS
 62
     7
100
AcDbLine
 10
65.235075
 20
227.833477
 30
0.0
 11
66.99726
 21
229.081393
 31
0.0
  0
LINE
  5
78
102
{ACAD_REACTORS
330
31
102
}
100
AcDbEntity
  8
0
  6
CONTINUOUS
 62
     7
100
AcDbLine
 10
66.99726
 20
229.081393
 30
0.0
 11
66.99726
 21
223.189718
 31
0.0
  0
LINE
  5
79
102
{ACAD_REACTORS
330
31
102
}
100
AcDbEntity
  8
0
  6
CONTINUOUS
 62
     7
100
AcDbLine
 10
66.99726
 20
223.189718
 30
0.0
 11
65.990297
 21
223.189718
 31
0.0
  0
LINE
  5
7A
102
{ACAD_REACTORS
330
31
102
}
100
AcDbEntity
  8
0
  6
CONTINUOUS
 62
     7
100
AcDbLine
 10
65.990297
 20
223.189718
 30
0.0
 11
64.947371
 21
224.135109
 31
0.0
  0
LINE
  5
7B
102
{ACAD_REACTORS
330
31
102
}
100
AcDbEntity
  8
0
  6
CONTINUOUS
 62
     7
100
AcDbLine
 10
64.947371
 20
224.135109
 30
0.0
 11
64.911408
 21
219.914885
 31
0.0
  0
LINE
  5
7C
102
{ACAD_REACTORS
330
31
102
}
100
AcDbEntity
  8
0
  6
CONTINUOUS
 62
     7
100
AcDbLine
 10
64.911408
 20
219.914885
 30
0.0
 11
65.810482
 21
220.860276
 31
0.0
  0
LINE
  5
7D
102
{ACAD_REACTORS
330
31
102
}
100
AcDbEntity
  8
0
  6
CONTINUOUS
 62
     7
100
AcDbLine
 10
65.810482
 20
220.860276
 30
0.0
 11
66.99726
 21
220.860276
 31
0.0
  0
LINE
  5
7E
102
{ACAD_REACTORS
330
31
102
}
100
AcDbEntity
  8
0
  6
CONTINUOUS
 62
     7
100
AcDbLine
 10
66.99726
 20
220.860276
 30
0.0
 11
66.99726
 21
215.943983
 31
0.0
  0
SPLINE
  5
7F
102
{ACAD_REACTORS
330
31
102
}
100
AcDbEntity
  8
0
  6
CONTINUOUS
 62
     7
100
AcDbSpline
210
0.0
220
0.0
230
1.0
 70
     8
 71
     2
 72
     6
 73
     3
 74
     0
 42
0.0000001
 43
0.0000001
 40
0.0
 40
0.0
 40
0.0
 40
0.0073467119777092
 40
0.0073467119777092
 40
0.0073467119777092
 10
66.997260151147302
 20
215.94398277559009
 30
0.0
 10
66.937020362967118
 20
215.93938242396067
 30
0.0
 10
66.877044560553244
 20
215.93480223221857
 30
0.0
  0
SPLINE
  5
80
102
{ACAD_REACTORS
330
31
102
}
100
AcDbEntity
  8
0
  6
CONTINUOUS
 62
     7
100
AcDbSpline
210
0.0
220
0.0
230
1.0
 70
     8
 71
     2
 72
     6
 73
     3
 74
     0
 42
0.0000001
 43
0.0000001
 40
0.0073467119777092
 40
0.0073467119777092
 40
0.0073467119777092
 40
0.9889985080991101
 40
0.9889985080991101
 40
0.9889985080991101
 10
66.877044560553244
 20
215.93480223221857
 30
0.0
 10
58.863207303571933
 20
215.32280689828193
 30
0.0
 10
55.5625
 20
219.73962260560492
 30
0.0
  0
SPLINE
  5
81
102
{ACAD_REACTORS
330
31
102
}
100
AcDbEntity
  8
0
  6
CONTINUOUS
 62
     7
100
AcDbSpline
210
0.0
220
0.0
230
1.0
 70
     8
 71
     2
 72
     6
 73
     3
 74
     0
 42
0.0000001
 43
0.0000001
 40
0.0
 40
0.0
 40
0.0
 40
1.0
 40
1.0
 40
1.0
 10
55.5625
 20
219.73962260560492
 30
0.0
 10
57.718080895021352
 20
215.95624425937012
 30
0.0
 10
55.848738825423595
 20
210.1584534302047
 30
0.0
  0
SPLINE
  5
82
102
{ACAD_REACTORS
330
31
102
}
100
AcDbEntity
  8
0
  6
CONTINUOUS
 62
     7
100
AcDbSpline
210
0.0
220
0.0
230
1.0
 70
     8
 71
     2
 72
     6
 73
     3
 74
     0
 42
0.0000001
 43
0.0000001
 40
0.0
 40
0.0
 40
0.0
 40
0.99520792715794
 40
0.99520792715794
 40
0.99520792715794
 10
55.848738825423595
 20
210.1584534302047
 30
0.0
 10
59.745900715797525
 20
214.25712513907155
 30
0.0
 10
65.226296263011093
 20
214.02497515785393
 30
0.0
  0
LINE
  5
83
102
{ACAD_REACTORS
330
31
102
}
100
AcDbEntity
  8
0
  6
CONTINUOUS
 62
     7
100
AcDbLine
 10
65.226296
 20
214.024975
 30
0.0
 11
65.271857
 21
214.018349
 31
0.0
  0
ELLIPSE
  5
84
102
{ACAD_REACTORS
330
31
102
}
100
AcDbEntity
  8
0
  6
CONTINUOUS
 62
     7
100
AcDbEllipse
 10
68.435779
 20
208.645828
 30
0.0
 11
0.0
 21
6.2395783706527421
 31
-0.0
210
0.0
220
0.0
230
1.0
 40
0.997118
 41
0.5334869121594306
 42
3.1456363980120665
  0
ELLIPSE
  5
85
102
{ACAD_REACTORS
330
31
102
}
100
AcDbEntity
  8
0
  6
CONTINUOUS
 62
     7
100
AcDbEllipse
 10
68.435779
 20
208.645828
 30
0.0
 11
0.0
 21
6.239578370652727
 31
-0.0
210
0.0
220
0.0
230
1.0
 40
0.997118
 41
3.1456363980120514
 42
5.7499872494298199
  0
SPLINE
  5
86
102
{ACAD_REACTORS
330
31
102
}
100
AcDbEntity
  8
0
  6
CONTINUOUS
 62
     7
100
AcDbSpline
210
0.0
220
0.0
230
1.0
 70
     8
 71
     2
 72
     6
 73
     3
 74
     0
 42
0.0000001
 43
0.0000001
 40
0.0
 40
0.0
 40
0.0
 40
0.0048930446052563
 40
0.0048930446052563
 40
0.0048930446052563
 10
71.598153488862636
 20
214.01926551154759
 30
0.0
 10
71.625196117743911
 20
214.02222385169381
 30
0.0
 10
71.652284232960682
 20
214.02518716783749
 30
0.0
  0
SPLINE
  5
87
102
{ACAD_REACTORS
330
31
102
}
100
AcDbEntity
  8
0
  6
CONTINUOUS
 62
     7
100
AcDbSpline
210
0.0
220
0.0
230
1.0
 70
     8
 71
     2
 72
     6
 73
     3
 74
     0
 42
0.0000001
 43
0.0000001
 40
0.0048930446052563
 40
0.0048930446052563
 40
0.0048930446052563
 40
1.0
 40
1.0
 40
1.0
 10
71.652284232960682
 20
214.02518716783749
 30
0.0
 10
77.161241137148366
 20
214.62784190399128
 30
0.0
 10
80.051818993849594
 20
218.09973499285374
 30
0.0
  0
SPLINE
  5
88
102
{ACAD_REACTORS
330
31
102
}
100
AcDbEntity
  8
0
  6
CONTINUOUS
 62
     7
100
AcDbSpline
210
0.0
220
0.0
230
1.0
 70
     8
 71
     2
 72
     6
 73
     3
 74
     0
 42
0.0000001
 43
0.0000001
 40
0.0
 40
0.0
 40
0.0
 40
0.092235884517375
 40
0.092235884517375
 40
0.092235884517375
 10
80.051818993849594
 20
218.09973499285374
 30
0.0
 10
80.174326902650506
 20
218.26162893516732
 30
0.0
 10
80.280354630556673
 20
218.42582950244105
 30
0.0
  0
SPLINE
  5
89
102
{ACAD_REACTORS
330
31
102
}
100
AcDbEntity
  8
0
  6
CONTINUOUS
 62
     7
100
AcDbSpline
210
0.0
220
0.0
230
1.0
 70
     8
 71
     2
 72
     6
 73
     3
 74
     0
 42
0.0000001
 43
0.0000001
 40
0.0922358845173754
 40
0.0922358845173754
 40
0.0922358845173754
 40
1.0
 40
1.0
 40
1.0
 10
80.280354630556673
 20
218.42582950244105
 30
0.0
 10
81.323854859811206
 20
220.04185328204608
 30
0.0
 10
80.771078434218865
 20
221.88129764173414
 30
0.0
  0
SPLINE
  5
8A
102
{ACAD_REACTORS
330
31
102
}
100
AcDbEntity
  8
0
  6
CONTINUOUS
 62
     7
100
AcDbSpline
210
0.0
220
0.0
230
1.0
 70
     8
 71
     2
 72
     6
 73
     3
 74
     0
 42
0.0000001
 43
0.0000001
 40
0.0
 40
0.0
 40
0.0
 40
1.0
 40
1.0
 40
1.0
 10
80.771078434218865
 20
221.88129764173414
 30
0.0
 10
80.105763451877309
 20
223.58300083373038
 30
0.0
 10
78.073855532834102
 20
223.77207896617432
 30
0.0
  0
SPLINE
  5
8B
102
{ACAD_REACTORS
330
31
102
}
100
AcDbEntity
  8
0
  6
CONTINUOUS
 62
     7
100
AcDbSpline
210
0.0
220
0.0
230
1.0
 70
     8
 71
     2
 72
     6
 73
     3
 74
     0
 42
0.0000001
 43
0.0000001
 40
0.0
 40
0.0
 40
0.0
 40
0.14681426886969
 40
0.14681426886969
 40
0.14681426886969
 10
78.073855532834102
 20
223.77207896617432
 30
0.0
 10
77.725383621578189
 20
223.7804067765066
 30
0.0
 10
77.426522036501765
 20
223.74145911994401
 30
0.0
  0
SPLINE
  5
8C
102
{ACAD_REACTORS
330
31
102
}
100
AcDbEntity
  8
0
  6
CONTINUOUS
 62
     7
100
AcDbSpline
210
0.0
220
0.0
230
1.0
 70
     8
 71
     2
 72
     6
 73
     3
 74
     0
 42
0.0000001
 43
0.0000001
 40
0.1468142688696908
 40
0.1468142688696908
 40
0.1468142688696908
 40
0.45980148261755
 40
0.45980148261755
 40
0.45980148261755
 10
77.426522036501765
 20
223.74145911994401
 30
0.0
 10
76.789391493745512
 20
223.65842823607028
 30
0.0
 10
76.377730938634272
 20
223.36053887902133
 30
0.0
  0
SPLINE
  5
8D
102
{ACAD_REACTORS
330
31
102
}
100
AcDbEntity
  8
0
  6
CONTINUOUS
 62
     7
100
AcDbSpline
210
0.0
220
0.0
230
1.0
 70
     8
 71
     2
 72
     6
 73
     3
 74
     0
 42
0.0000001
 43
0.0000001
 40
0.459801482617547
 40
0.459801482617547
 40
0.459801482617547
 40
0.52440950049554
 40
0.52440950049554
 40
0.52440950049554
 10
76.377730938634272
 20
223.36053887902133
 30
0.0
 10
76.292754392193913
 20
223.29904741847443
 30
0.0
 10
76.217385301306678
 20
223.2284006674482
 30
0.0
  0
SPLINE
  5
8E
102
{ACAD_REACTORS
330
31
102
}
100
AcDbEntity
  8
0
  6
CONTINUOUS
 62
     7
100
AcDbSpline
210
0.0
220
0.0
230
1.0
 70
     8
 71
     2
 72
     6
 73
     3
 74
     0
 42
0.0000001
 43
0.0000001
 40
0.0651813138199475
 40
0.0651813138199475
 40
0.0651813138199475
 40
0.5446508077115601
 40
0.5446508077115601
 40
0.5446508077115601
 10
76.217385301306678
 20
223.2284006674482
 30
0.0
 10
75.659600253926627
 20
222.73067817040825
 30
0.0
 10
75.572020954165396
 20
222.06049632164914
 30
0.0
  0
SPLINE
  5
8F
102
{ACAD_REACTORS
330
31
102
}
100
AcDbEntity
  8
0
  6
CONTINUOUS
 62
     7
100
AcDbSpline
210
0.0
220
0.0
230
1.0
 70
     8
 71
     2
 72
     6
 73
     3
 74
     0
 42
0.0000001
 43
0.0000001
 40
0.5446508077115563
 40
0.5446508077115563
 40
0.5446508077115563
 40
0.66194584644233
 40
0.66194584644233
 40
0.66194584644233
 10
75.572020954165396
 20
222.06049632164914
 30
0.0
 10
75.550595988680811
 20
221.89654635839105
 30
0.0
 10
75.55731109870338
 20
221.72227534056537
 30
0.0
  0
SPLINE
  5
90
102
{ACAD_REACTORS
330
31
102
}
100
AcDbEntity
  8
0
  6
CONTINUOUS
 62
     7
100
AcDbSpline
210
0.0
220
0.0
230
1.0
 70
     8
 71
     2
 72
     6
 73
     3
 74
     0
 42
0.0000001
 43
0.0000001
 40
0.1496878634271135
 40
0.1496878634271135
 40
0.1496878634271135
 40
1.0
 40
1.0
 40
1.0
 10
75.55731109870338
 20
221.72227534056537
 30
0.0
 10
75.553858482498214
 20
220.80472768017887
 30
0.0
 10
75.985850453165924
 20
220.37680010000562
 30
0.0
  0
SPLINE
  5
91
102
{ACAD_REACTORS
330
31
102
}
100
AcDbEntity
  8
0
  6
CONTINUOUS
 62
     7
100
AcDbSpline
210
0.0
220
0.0
230
1.0
 70
     8
 71
     2
 72
     6
 73
     3
 74
     0
 42
0.0000001
 43
0.0000001
 40
0.4213104797087339
 40
0.4213104797087339
 40
0.4213104797087339
 40
0.60181072902377
 40
0.60181072902377
 40
0.60181072902377
 10
75.985850453165924
 20
220.37680010000562
 30
0.0
 10
76.139002804950437
 20
220.17841713641559
 30
0.0
 10
76.357769564664025
 20
220.05149283899433
 30
0.0
  0
ARC
  5
92
102
{ACAD_REACTORS
330
31
102
}
100
AcDbEntity
  8
0
  6
CONTINUOUS
 62
     7
100
AcDbCircle
 10
77.291406
 20
221.45625
 30
0.0
 40
1.686719
100
AcDbArc
 50
236.390995
 51
331.38954
  0
SPLINE
  5
93
102
{ACAD_REACTORS
330
31
102
}
100
AcDbEntity
  8
0
  6
CONTINUOUS
 62
     7
100
AcDbSpline
210
0.0
220
0.0
230
1.0
 70
     8
 71
     2
 72
     6
 73
     3
 74
     0
 42
0.0000001
 43
0.0000001
 40
0.0
 40
0.0
 40
0.0
 40
1.0
 40
1.0
 40
1.0
 10
78.772169173376668
 20
220.64856113270346
 30
0.0
 10
79.526822670587379
 20
220.28894299104545
 30
0.0
 10
78.681997985448589
 20
219.04230288520506
 30
0.0
  0
SPLINE
  5
94
102
{ACAD_REACTORS
330
31
102
}
100
AcDbEntity
  8
0
  6
CONTINUOUS
 62
     7
100
AcDbSpline
210
0.0
220
0.0
230
1.0
 70
     8
 71
     2
 72
     6
 73
     3
 74
     0
 42
0.0000001
 43
0.0000001
 40
0.572099836262409
 40
0.572099836262409
 40
0.572099836262409
 40
1.0
 40
1.0
 40
1.0
 10
78.681997985448589
 20
219.04230288520506
 30
0.0
 10
77.666200580116978
 20
217.78007141035692
 30
0.0
 10
75.023478175818639
 20
216.6660556531717
 30
0.0
  0
SPLINE
  5
95
102
{ACAD_REACTORS
330
31
102
}
100
AcDbEntity
  8
0
  6
CONTINUOUS
 62
     7
100
AcDbSpline
210
0.0
220
0.0
230
1.0
 70
     8
 71
     2
 72
     6
 73
     3
 74
     0
 42
0.0000001
 43
0.0000001
 40
0.2628518861442574
 40
0.2628518861442574
 40
0.2628518861442574
 40
0.9851712248988001
 40
0.9851712248988001
 40
0.9851712248988001
 10
75.023478175818639
 20
216.6660556531717
 30
0.0
 10
72.672216651274482
 20
215.96850449128948
 30
0.0
 10
69.570414766555544
 20
215.98123774415154
 30
0.0
  0
ELLIPSE
  5
96
102
{ACAD_REACTORS
330
31
102
}
100
AcDbEntity
  8
0
  6
CONTINUOUS
 62
    10
100
AcDbEllipse
 10
68.467378
 20
208.557813
 30
0.0
 11
0.0
 21
3.7059313959030504
 31
-0.0
210
0.0
220
0.0
230
1.0
 40
0.965564
 41
3.1536488841328287
 42
3.6526237306293519
  0
ELLIPSE
  5
97
102
{ACAD_REACTORS
330
31
102
}
100
AcDbEntity
  8
0
  6
CONTINUOUS
 62
    10
100
AcDbEllipse
 10
68.467378
 20
208.557813
 30
0.0
 11
0.0
 21
3.7059313959048468
 31
-0.0
210
0.0
220
0.0
230
1.0
 40
0.965564
 41
3.6526237306294402
 42
3.9313259369775264
  0
ELLIPSE
  5
98
102
{ACAD_REACTORS
330
31
102
}
100
AcDbEntity
  8
0
  6
CONTINUOUS
 62
    10
100
AcDbEllipse
 10
68.467378
 20
208.557812
 30
0.0
 11
0.0
 21
3.7059313959028262
 31
-0.0
210
0.0
220
0.0
230
1.0
 40
0.965564
 41
3.9313259369776015
 42
5.4934520237917663
  0
ELLIPSE
  5
99
102
{ACAD_REACTORS
330
31
102
}
100
AcDbEntity
  8
0
  6
CONTINUOUS
 62
    10
100
AcDbEllipse
 10
68.467378
 20
208.557812
 30
0.0
 11
0.0
 21
3.7059313959029025
 31
-0.0
210
0.0
220
0.0
230
1.0
 40
0.965564
 41
5.4934520237917717
 42
6.2711290766365506
  0
ELLIPSE
  5
9A
102
{ACAD_REACTORS
330
31
102
}
100
AcDbEntity
  8
0
  6
CONTINUOUS
 62
    10
100
AcDbEllipse
 10
68.467378
 20
208.557813
 30
0.0
 11
0.0
 21
3.7059313959027795
 31
-0.0
210
0.0
220
0.0
230
1.0
 40
0.965564
 41
6.271129076636563
 42
0.7897332836687935
  0
ELLIPSE
  5
9B
102
{ACAD_REACTORS
330
31
102
}
100
AcDbEntity
  8
0
  6
CONTINUOUS
 62
    10
100
AcDbEllipse
 10
68.467378
 20
208.557813
 30
0.0
 11
0.0
 21
3.7059313959020033
 31
-0.0
210
0.0
220
0.0
230
1.0
 40
0.965564
 41
0.7897332836687652
 42
1.0784415836001831
  0
ELLIPSE
  5
9C
102
{ACAD_REACTORS
330
31
102
}
100
AcDbEntity
  8
0
  6
CONTINUOUS
 62
    10
100
AcDbEllipse
 10
68.467378
 20
208.557813
 30
0.0
 11
0.0
 21
3.7059313959024087
 31
-0.0
210
0.0
220
0.0
230
1.0
 40
0.965564
 41
1.0784415836001129
 42
1.570796326794927
  0
ELLIPSE
  5
9D
102
{ACAD_REACTORS
330
31
102
}
100
AcDbEntity
  8
0
  6
CONTINUOUS
 62
    10
100
AcDbEllipse
 10
68.467378
 20
208.557813
 30
0.0
 11
0.0
 21
3.7059313959032267
 31
-0.0
210
0.0
220
0.0
230
1.0
 40
0.965564
 41
1.5707963267949072
 42
1.8283417905572887
  0
ELLIPSE
  5
9E
102
{ACAD_REACTORS
330
31
102
}
100
AcDbEntity
  8
0
  6
CONTINUOUS
 62
    10
100
AcDbEllipse
 10
68.467378
 20
208.557812
 30
0.0
 11
0.0
 21
3.7059313958954068
 31
-0.0
210
0.0
220
0.0
230
1.0
 40
0.965564
 41
1.8283417905572095
 42
1.8732235747214099
  0
ELLIPSE
  5
9F
102
{ACAD_REACTORS
330
31
102
}
100
AcDbEntity
  8
0
  6
CONTINUOUS
 62
    10
100
AcDbEllipse
 10
68.467378
 20
208.557813
 30
0.0
 11
0.0
 21
3.705931395916231
 31
-0.0
210
0.0
220
0.0
230
1.0
 40
0.965564
 41
1.8732235747214931
 42
1.951606047605984
  0
ELLIPSE
  5
A0
102
{ACAD_REACTORS
330
31
102
}
100
AcDbEntity
  8
0
  6
CONTINUOUS
 62
    10
100
AcDbEllipse
 10
68.467378
 20
208.557813
 30
0.0
 11
0.0
 21
3.7059313959533391
 31
-0.0
210
0.0
220
0.0
230
1.0
 40
0.965564
 41
1.9516060476064971
 42
1.9869075485339704
  0
ELLIPSE
  5
A1
102
{ACAD_REACTORS
330
31
102
}
100
AcDbEntity
  8
0
  6
CONTINUOUS
 62
    10
100
AcDbEllipse
 10
68.467378
 20
208.557813
 30
0.0
 11
0.0
 21
3.7059313959030971
 31
-0.0
210
0.0
220
0.0
230
1.0
 40
0.965564
 41
1.9869075485341698
 42
2.3518593699210033
  0
ELLIPSE
  5
A2
102
{ACAD_REACTORS
330
31
102
}
100
AcDbEntity
  8
0
  6
CONTINUOUS
 62
    10
100
AcDbEllipse
 10
68.467378
 20
208.557813
 30
0.0
 11
0.0
 21
3.7059313959054028
 31
-0.0
210
0.0
220
0.0
230
1.0
 40
0.965564
 41
2.3518593699210273
 42
2.5380672206933941
  0
ELLIPSE
  5
A3
102
{ACAD_REACTORS
330
31
102
}
100
AcDbEntity
  8
0
  6
CONTINUOUS
 62
    10
100
AcDbEllipse
 10
68.467378
 20
208.557812
 30
0.0
 11
0.0
 21
3.7059313958738471
 31
-0.0
210
0.0
220
0.0
230
1.0
 40
0.965564
 41
2.5380672206932005
 42
2.637429410472051
  0
ELLIPSE
  5
A4
102
{ACAD_REACTORS
330
31
102
}
100
AcDbEntity
  8
0
  6
CONTINUOUS
 62
    10
100
AcDbEllipse
 10
68.467378
 20
208.557812
 30
0.0
 11
0.0
 21
3.7059313958994431
 31
-0.0
210
0.0
220
0.0
230
1.0
 40
0.965564
 41
2.6374294104714853
 42
2.7467260116851691
  0
ELLIPSE
  5
A5
102
{ACAD_REACTORS
330
31
102
}
100
AcDbEntity
  8
0
  6
CONTINUOUS
 62
    10
100
AcDbEllipse
 10
68.467378
 20
208.557813
 30
0.0
 11
0.0
 21
3.7059313959029319
 31
-0.0
210
0.0
220
0.0
230
1.0
 40
0.965564
 41
2.7467260116851699
 42
3.1536488841328123
  0
ENDSEC
  0
SECTION
  2
OBJECTS
  0
DICTIONARY
  5
C
100
AcDbDictionary
  3
ACAD_GROUP
350
D
  3
ACAD_MLINESTYLE
350
1B
  0
DICTIONARY
  5
D
102
{ACAD_REACTORS
330
C
102
}
100
AcDbDictionary
  3
VISIOGROUP_0
350
31
  0
DICTIONARY
  5
1B
102
{ACAD_REACTORS
330
C
102
}
100
AcDbDictionary
  3
STANDARD
350
1C
  0
MLINESTYLE
  5
1C
102
{ACAD_REACTORS
330
1B
102
}
100
AcDbMlineStyle
  2
STANDARD
 70
     0
  3

 62
   256
 51
90.0
 52
90.0
 71
     2
 49
0.5
 62
   256
  6
BYLAYER
 49
-0.5
 62
   256
  6
BYLAYER
  0
GROUP
  5
31
102
{ACAD_REACTORS
330
D
102
}
100
AcDbGroup
300
Group created by Visio.
 70
     0
 71
     1
340
32
340
33
340
34
340
35
340
36
340
37
340
38
340
39
340
3A
340
3B
340
3C
340
3D
340
3E
340
3F
340
40
340
41
340
42
340
43
340
44
340
45
340
46
340
47
340
48
340
49
340
4A
340
4B
340
4C
340
4D
340
4E
340
4F
340
50
340
51
340
52
340
53
340
54
340
55
340
56
340
57
340
58
340
59
340
5A
340
5B
340
5C
340
5D
340
5E
340
5F
340
60
340
61
340
62
340
63
340
64
340
65
340
66
340
67
340
68
340
69
340
6A
340
6B
340
6C
340
6D
340
6E
340
6F
340
70
340
71
340
72
340
73
340
74
340
75
340
76
340
77
340
78
340
79
340
7A
340
7B
340
7C
340
7D
340
7E
340
7F
340
80
340
81
340
82
340
83
340
84
340
85
340
86
340
87
340
88
340
89
340
8A
340
8B
340
8C
340
8D
340
8E
340
8F
340
90
340
91
340
92
340
93
340
94
340
95
340
96
340
97
340
98
340
99
340
9A
340
9B
340
9C
340
9D
340
9E
340
9F
340
A0
340
A1
340
A2
340
A3
340
A4
340
A5
  0
ENDSEC
  0
EOF
