  0
SECTION
  2
HEADER
  9
$ACADVER
  1
AC1021
  9
$ACADMAINTVER
 70
    25
  9
$DWGCODEPAGE
  3
ANSI_1251
  9
$INSBASE
 10
0.0
 20
0.0
 30
0.0
  9
$EXTMIN
 10
-81.66099
 20
-202.5034
 30
0.0
  9
$EXTMAX
 10
337.13056
 20
-75.82746
 30
0.0
  9
$LIMMIN
 10
0.0
 20
0.0
  9
$LIMMAX
 10
12.0
 20
9.0
  9
$ORTHOMODE
 70
     0
  9
$REGENMODE
 70
     1
  9
$FILLMODE
 70
     1
  9
$QTEXTMODE
 70
     0
  9
$MIRRTEXT
 70
     1
  9
$LTSCALE
 40
1.0
  9
$ATTMODE
 70
     1
  9
$TEXTSIZE
 40
0.2
  9
$TRACEWID
 40
0.05
  9
$TEXTSTYLE
  7
Standard
  9
$CLAYER
  8
0
  9
$CELTYPE
  6
ByLayer
  9
$CECOLOR
 62
   256
  9
$CELTSCALE
 40
1.0
  9
$DISPSILH
 70
     0
  9
$DIMSCALE
 40
1.0
  9
$DIMASZ
 40
0.18
  9
$DIMEXO
 40
0.0625
  9
$DIMDLI
 40
0.38
  9
$DIMRND
 40
0.0
  9
$DIMDLE
 40
0.0
  9
$DIMEXE
 40
0.18
  9
$DIMTP
 40
0.0
  9
$DIMTM
 40
0.0
  9
$DIMTXT
 40
0.18
  9
$DIMCEN
 40
0.09
  9
$DIMTSZ
 40
0.0
  9
$DIMTOL
 70
     0
  9
$DIMLIM
 70
     0
  9
$DIMTIH
 70
     1
  9
$DIMTOH
 70
     1
  9
$DIMSE1
 70
     0
  9
$DIMSE2
 70
     0
  9
$DIMTAD
 70
     0
  9
$DIMZIN
 70
     0
  9
$DIMBLK
  1

  9
$DIMASO
 70
     1
  9
$DIMSHO
 70
     1
  9
$DIMPOST
  1

  9
$DIMAPOST
  1

  9
$DIMALT
 70
     0
  9
$DIMALTD
 70
     2
  9
$DIMALTF
 40
25.4
  9
$DIMLFAC
 40
1.0
  9
$DIMTOFL
 70
     0
  9
$DIMTVP
 40
0.0
  9
$DIMTIX
 70
     0
  9
$DIMSOXD
 70
     0
  9
$DIMSAH
 70
     0
  9
$DIMBLK1
  1

  9
$DIMBLK2
  1

  9
$DIMSTYLE
  2
Standard
  9
$DIMCLRD
 70
     0
  9
$DIMCLRE
 70
     0
  9
$DIMCLRT
 70
     0
  9
$DIMTFAC
 40
1.0
  9
$DIMGAP
 40
0.09
  9
$DIMJUST
 70
     0
  9
$DIMSD1
 70
     0
  9
$DIMSD2
 70
     0
  9
$DIMTOLJ
 70
     1
  9
$DIMTZIN
 70
     0
  9
$DIMALTZ
 70
     0
  9
$DIMALTTZ
 70
     0
  9
$DIMUPT
 70
     0
  9
$DIMDEC
 70
     4
  9
$DIMTDEC
 70
     4
  9
$DIMALTU
 70
     2
  9
$DIMALTTD
 70
     2
  9
$DIMTXSTY
  7
Standard
  9
$DIMAUNIT
 70
     0
  9
$DIMADEC
 70
     0
  9
$DIMALTRND
 40
0.0
  9
$DIMAZIN
 70
     0
  9
$DIMDSEP
 70
    46
  9
$DIMATFIT
 70
     3
  9
$DIMFRAC
 70
     0
  9
$DIMLDRBLK
  1

  9
$DIMLUNIT
 70
     2
  9
$DIMLWD
 70
    -2
  9
$DIMLWE
 70
    -2
  9
$DIMTMOVE
 70
     0
  9
$DIMFXL
 40
1.0
  9
$DIMFXLON
 70
     0
  9
$DIMJOGANG
 40
0.7853981633974483
  9
$DIMTFILL
 70
     0
  9
$DIMTFILLCLR
 70
     0
  9
$DIMARCSYM
 70
     0
  9
$DIMLTYPE
  6

  9
$DIMLTEX1
  6

  9
$DIMLTEX2
  6

  9
$LUNITS
 70
     2
  9
$LUPREC
 70
     4
  9
$SKETCHINC
 40
0.1
  9
$FILLETRAD
 40
0.5
  9
$AUNITS
 70
     0
  9
$AUPREC
 70
     0
  9
$MENU
  1
.
  9
$ELEVATION
 40
0.0
  9
$PELEVATION
 40
0.0
  9
$THICKNESS
 40
0.0
  9
$LIMCHECK
 70
     0
  9
$CHAMFERA
 40
0.0
  9
$CHAMFERB
 40
0.0
  9
$CHAMFERC
 40
0.0
  9
$CHAMFERD
 40
0.0
  9
$SKPOLY
 70
     0
  9
$TDCREATE
 40
2458379.593697211
  9
$TDUCREATE
 40
2458379.468697211
  9
$TDUPDATE
 40
2458379.593698634
  9
$TDUUPDATE
 40
2458379.468698634
  9
$TDINDWG
 40
0.0000000116
  9
$TDUSRTIMER
 40
0.0000000116
  9
$USRTIMER
 70
     1
  9
$ANGBASE
 50
0.0
  9
$ANGDIR
 70
     0
  9
$PDMODE
 70
     0
  9
$PDSIZE
 40
0.0
  9
$PLINEWID
 40
0.0
  9
$SPLFRAME
 70
     0
  9
$SPLINETYPE
 70
     6
  9
$SPLINESEGS
 70
     8
  9
$HANDSEED
  5
DB
  9
$SURFTAB1
 70
     6
  9
$SURFTAB2
 70
     6
  9
$SURFTYPE
 70
     6
  9
$SURFU
 70
     6
  9
$SURFV
 70
     6
  9
$UCSBASE
  2

  9
$UCSNAME
  2

  9
$UCSORG
 10
0.0
 20
0.0
 30
0.0
  9
$UCSXDIR
 10
1.0
 20
0.0
 30
0.0
  9
$UCSYDIR
 10
0.0
 20
1.0
 30
0.0
  9
$UCSORTHOREF
  2

  9
$UCSORTHOVIEW
 70
     0
  9
$UCSORGTOP
 10
0.0
 20
0.0
 30
0.0
  9
$UCSORGBOTTOM
 10
0.0
 20
0.0
 30
0.0
  9
$UCSORGLEFT
 10
0.0
 20
0.0
 30
0.0
  9
$UCSORGRIGHT
 10
0.0
 20
0.0
 30
0.0
  9
$UCSORGFRONT
 10
0.0
 20
0.0
 30
0.0
  9
$UCSORGBACK
 10
0.0
 20
0.0
 30
0.0
  9
$PUCSBASE
  2

  9
$PUCSNAME
  2

  9
$PUCSORG
 10
0.0
 20
0.0
 30
0.0
  9
$PUCSXDIR
 10
1.0
 20
0.0
 30
0.0
  9
$PUCSYDIR
 10
0.0
 20
1.0
 30
0.0
  9
$PUCSORTHOREF
  2

  9
$PUCSORTHOVIEW
 70
     0
  9
$PUCSORGTOP
 10
0.0
 20
0.0
 30
0.0
  9
$PUCSORGBOTTOM
 10
0.0
 20
0.0
 30
0.0
  9
$PUCSORGLEFT
 10
0.0
 20
0.0
 30
0.0
  9
$PUCSORGRIGHT
 10
0.0
 20
0.0
 30
0.0
  9
$PUCSORGFRONT
 10
0.0
 20
0.0
 30
0.0
  9
$PUCSORGBACK
 10
0.0
 20
0.0
 30
0.0
  9
$USERI1
 70
     0
  9
$USERI2
 70
     0
  9
$USERI3
 70
     0
  9
$USERI4
 70
     0
  9
$USERI5
 70
     0
  9
$USERR1
 40
0.0
  9
$USERR2
 40
0.0
  9
$USERR3
 40
0.0
  9
$USERR4
 40
0.0
  9
$USERR5
 40
0.0
  9
$WORLDVIEW
 70
     1
  9
$SHADEDGE
 70
     3
  9
$SHADEDIF
 70
    70
  9
$TILEMODE
 70
     1
  9
$MAXACTVP
 70
    64
  9
$PINSBASE
 10
0.0
 20
0.0
 30
0.0
  9
$PLIMCHECK
 70
     0
  9
$PEXTMIN
 10
1.000000000000000E+20
 20
1.000000000000000E+20
 30
1.000000000000000E+20
  9
$PEXTMAX
 10
-1.000000000000000E+20
 20
-1.000000000000000E+20
 30
-1.000000000000000E+20
  9
$PLIMMIN
 10
0.0
 20
0.0
  9
$PLIMMAX
 10
12.0
 20
9.0
  9
$UNITMODE
 70
     0
  9
$VISRETAIN
 70
     1
  9
$PLINEGEN
 70
     0
  9
$PSLTSCALE
 70
     1
  9
$TREEDEPTH
 70
  3020
  9
$CMLSTYLE
  2
Standard
  9
$CMLJUST
 70
     0
  9
$CMLSCALE
 40
1.0
  9
$PROXYGRAPHICS
 70
     1
  9
$MEASUREMENT
 70
     0
  9
$CELWEIGHT
370
    -1
  9
$ENDCAPS
280
     0
  9
$JOINSTYLE
280
     0
  9
$LWDISPLAY
290
     0
  9
$INSUNITS
 70
     5
  9
$HYPERLINKBASE
  1

  9
$STYLESHEET
  1

  9
$XEDIT
290
     1
  9
$CEPSNTYPE
380
     0
  9
$PSTYLEMODE
290
     1
  9
$FINGERPRINTGUID
  2
{c9ce7554-751a-4948-ae2e-98074e1b2f3e}
  9
$VERSIONGUID
  2
{FAEB1C32-E019-11D5-929B-00C0DF256EC4}
  9
$EXTNAMES
290
     1
  9
$PSVPSCALE
 40
0.0
  9
$OLESTARTUP
290
     0
  9
$SORTENTS
280
   127
  9
$INDEXCTL
280
     0
  9
$HIDETEXT
280
     1
  9
$XCLIPFRAME
290
     0
  9
$HALOGAP
280
     0
  9
$OBSCOLOR
 70
   257
  9
$OBSLTYPE
280
     0
  9
$INTERSECTIONDISPLAY
280
     0
  9
$INTERSECTIONCOLOR
 70
   257
  9
$DIMASSOC
280
     2
  9
$PROJECTNAME
  1

  9
$CAMERADISPLAY
290
     0
  9
$LENSLENGTH
 40
50.0
  9
$CAMERAHEIGHT
 40
0.0
  9
$STEPSPERSEC
 40
2.0
  9
$STEPSIZE
 40
6.0
  9
$3DDWFPREC
 40
2.0
  9
$PSOLWIDTH
 40
0.25
  9
$PSOLHEIGHT
 40
4.0
  9
$LOFTANG1
 40
1.570796326794897
  9
$LOFTANG2
 40
1.570796326794897
  9
$LOFTMAG1
 40
0.0
  9
$LOFTMAG2
 40
0.0
  9
$LOFTPARAM
 70
     7
  9
$LOFTNORMALS
280
     1
  9
$LATITUDE
 40
37.795
  9
$LONGITUDE
 40
-122.394
  9
$NORTHDIRECTION
 40
0.0
  9
$TIMEZONE
 70
 -8000
  9
$LIGHTGLYPHDISPLAY
280
     1
  9
$TILEMODELIGHTSYNCH
280
     1
  9
$CMATERIAL
347
44
  9
$SOLIDHIST
280
     0
  9
$SHOWHIST
280
     1
  9
$DWFFRAME
280
     2
  9
$DGNFRAME
280
     2
  9
$REALWORLDSCALE
290
     1
  9
$INTERFERECOLOR
 62
   256
  9
$CSHADOW
280
     0
  9
$SHADOWPLANELOCATION
 40
0.0
  0
ENDSEC
  0
SECTION
  2
CLASSES
  0
CLASS
  1
ACDBDICTIONARYWDFLT
  2
AcDbDictionaryWithDefault
  3
ObjectDBX Classes
 90
        0
 91
        3
280
     0
281
     0
  0
CLASS
  1
VISUALSTYLE
  2
AcDbVisualStyle
  3
ObjectDBX Classes
 90
     4095
 91
        3
280
     0
281
     0
  0
CLASS
  1
MATERIAL
  2
AcDbMaterial
  3
ObjectDBX Classes
 90
     1153
 91
        3
280
     0
281
     0
  0
CLASS
  1
SCALE
  2
AcDbScale
  3
ObjectDBX Classes
 90
     1153
 91
        3
280
     0
281
     0
  0
CLASS
  1
TABLESTYLE
  2
AcDbTableStyle
  3
ObjectDBX Classes
 90
     4095
 91
        3
280
     0
281
     0
  0
CLASS
  1
MLEADERSTYLE
  2
AcDbMLeaderStyle
  3
ACDB_MLEADERSTYLE_CLASS
 90
     4095
 91
        3
280
     0
281
     0
  0
CLASS
  1
SUN
  2
AcDbSun
  3
SCENEOE
 90
     1153
 91
        3
280
     0
281
     0
  0
CLASS
  1
IMAGEDEF
  2
AcDbRasterImageDef
  3
ISM
 90
        0
 91
        3
280
     0
281
     0
  0
CLASS
  1
IMAGE
  2
AcDbRasterImage
  3
ISM
 90
      127
 91
        4
280
     0
281
     1
  0
CLASS
  1
IMAGEDEF_REACTOR
  2
AcDbRasterImageDefReactor
  3
ISM
 90
        1
 91
        3
280
     0
281
     0
  0
CLASS
  1
DICTIONARYVAR
  2
AcDbDictionaryVar
  3
ObjectDBX Classes
 90
        0
 91
        3
280
     0
281
     0
  0
CLASS
  1
CELLSTYLEMAP
  2
AcDbCellStyleMap
  3
ObjectDBX Classes
 90
     1152
 91
        3
280
     0
281
     0
  0
ENDSEC
  0
SECTION
  2
TABLES
  0
TABLE
  2
VPORT
  5
8
330
0
100
AcDbSymbolTable
 70
     1
  0
VPORT
  5
29
330
8
100
AcDbSymbolTableRecord
100
AcDbViewportTableRecord
  2
*Active
 70
     0
 10
0.0
 20
0.0
 11
1.0
 21
1.0
 12
10.42990654205607
 22
4.5
 13
0.0
 23
0.0
 14
0.5
 24
0.5
 15
0.5
 25
0.5
 16
0.0
 26
0.0
 36
1.0
 17
0.0
 27
0.0
 37
0.0
 40
9.0
 41
1.972972972850329
 42
50.0
 43
0.0
 44
0.0
 50
0.0
 51
0.0
 71
     0
 72
   100
 73
     1
 74
     3
 75
     0
 76
     0
 77
     0
 78
     0
281
     0
 65
     1
110
0.0
120
0.0
130
0.0
111
1.0
121
0.0
131
0.0
112
0.0
122
1.0
132
0.0
 79
     0
146
0.0
348
2F
 60
     3
 61
     5
292
     1
282
     1
141
0.0
142
0.0
 63
   250
361
6D
  0
ENDTAB
  0
TABLE
  2
LTYPE
  5
5
330
0
100
AcDbSymbolTable
 70
     1
  0
LTYPE
  5
14
330
5
100
AcDbSymbolTableRecord
100
AcDbLinetypeTableRecord
  2
ByBlock
 70
     0
  3

 72
    65
 73
     0
 40
0.0
  0
LTYPE
  5
15
330
5
100
AcDbSymbolTableRecord
100
AcDbLinetypeTableRecord
  2
ByLayer
 70
     0
  3

 72
    65
 73
     0
 40
0.0
  0
LTYPE
  5
16
330
5
100
AcDbSymbolTableRecord
100
AcDbLinetypeTableRecord
  2
Continuous
 70
     0
  3
Solid line
 72
    65
 73
     0
 40
0.0
  0
ENDTAB
  0
TABLE
  2
LAYER
  5
2
330
0
100
AcDbSymbolTable
 70
     3
  0
LAYER
  5
10
330
2
100
AcDbSymbolTableRecord
100
AcDbLayerTableRecord
  2
0
 70
     0
 62
     7
  6
Continuous
370
    -3
390
F
347
46
  0
LAYER
  5
6F
330
2
100
AcDbSymbolTableRecord
100
AcDbLayerTableRecord
  2
layer 1
 70
     0
 62
     7
  6
Continuous
370
    -3
390
F
347
46
  0
LAYER
  5
9D
330
2
100
AcDbSymbolTableRecord
100
AcDbLayerTableRecord
  2
layer 2
 70
     0
 62
     7
  6
Continuous
290
     0
370
    -3
390
F
347
46
  0
ENDTAB
  0
TABLE
  2
STYLE
  5
3
330
0
100
AcDbSymbolTable
 70
     1
  0
STYLE
  5
11
330
3
100
AcDbSymbolTableRecord
100
AcDbTextStyleTableRecord
  2
Standard
 70
     0
 40
0.0
 41
1.0
 50
0.0
 71
     0
 42
0.2
  3
txt
  4

  0
ENDTAB
  0
TABLE
  2
VIEW
  5
6
330
0
100
AcDbSymbolTable
 70
     0
  0
ENDTAB
  0
TABLE
  2
UCS
  5
7
330
0
100
AcDbSymbolTable
 70
     0
  0
ENDTAB
  0
TABLE
  2
APPID
  5
9
330
0
100
AcDbSymbolTable
 70
     3
  0
APPID
  5
12
330
9
100
AcDbSymbolTableRecord
100
AcDbRegAppTableRecord
  2
ACAD
 70
     0
  0
APPID
  5
6E
330
9
100
AcDbSymbolTableRecord
100
AcDbRegAppTableRecord
  2
ODA
 70
     0
  0
APPID
  5
D3
330
9
100
AcDbSymbolTableRecord
100
AcDbRegAppTableRecord
  2
ACAD_MLEADERVER
 70
     0
  0
ENDTAB
  0
TABLE
  2
DIMSTYLE
  5
A
330
0
100
AcDbSymbolTable
 70
     1
100
AcDbDimStyleTable
  0
DIMSTYLE
105
27
330
A
100
AcDbSymbolTableRecord
100
AcDbDimStyleTableRecord
  2
Standard
 70
     0
178
     0
340
11
  0
ENDTAB
  0
TABLE
  2
BLOCK_RECORD
  5
1
330
0
100
AcDbSymbolTable
 70
     1
  0
BLOCK_RECORD
  5
1F
330
1
100
AcDbSymbolTableRecord
100
AcDbBlockTableRecord
  2
*Model_Space
340
22
 70
     0
280
     1
281
     0
  0
BLOCK_RECORD
  5
1B
330
1
100
AcDbSymbolTableRecord
100
AcDbBlockTableRecord
  2
*Paper_Space
340
1E
 70
     0
280
     1
281
     0
  0
BLOCK_RECORD
  5
23
330
1
100
AcDbSymbolTableRecord
100
AcDbBlockTableRecord
  2
*Paper_Space0
340
26
 70
     0
280
     1
281
     0
  0
ENDTAB
  0
ENDSEC
  0
SECTION
  2
BLOCKS
  0
BLOCK
  5
20
330
1F
100
AcDbEntity
  8
0
100
AcDbBlockBegin
  2
*Model_Space
 70
     0
 10
0.0
 20
0.0
 30
0.0
  3
*Model_Space
  1

  0
ENDBLK
  5
21
330
1F
100
AcDbEntity
  8
0
100
AcDbBlockEnd
  0
BLOCK
  5
1C
330
1B
100
AcDbEntity
 67
     1
  8
0
100
AcDbBlockBegin
  2
*Paper_Space
 70
     0
 10
0.0
 20
0.0
 30
0.0
  3
*Paper_Space
  1

  0
ENDBLK
  5
1D
330
1B
100
AcDbEntity
 67
     1
  8
0
100
AcDbBlockEnd
  0
BLOCK
  5
24
330
23
100
AcDbEntity
  8
0
100
AcDbBlockBegin
  2
*Paper_Space0
 70
     0
 10
0.0
 20
0.0
 30
0.0
  3
*Paper_Space0
  1

  0
ENDBLK
  5
25
330
23
100
AcDbEntity
  8
0
100
AcDbBlockEnd
  0
ENDSEC
  0
SECTION
  2
ENTITIES
  0
SPLINE
  5
70
330
1F
100
AcDbEntity
  8
layer 1
 62
   250
370
    20
100
AcDbSpline
210
0.0
220
0.0
230
1.0
 70
    11
 71
     3
 72
   248
 73
   244
 74
     0
 42
0.000000001
 43
0.0000000001
 40
0.0
 40
0.0
 40
0.0
 40
0.0
 40
0.0161290322580645
 40
0.0161290322580645
 40
0.0161290322580645
 40
0.0161290322580645
 40
0.032258064516129
 40
0.032258064516129
 40
0.032258064516129
 40
0.032258064516129
 40
0.0483870967741935
 40
0.0483870967741935
 40
0.0483870967741935
 40
0.0483870967741935
 40
0.0645161290322581
 40
0.0645161290322581
 40
0.0645161290322581
 40
0.0645161290322581
 40
0.0806451612903226
 40
0.0806451612903226
 40
0.0806451612903226
 40
0.0806451612903226
 40
0.0967741935483871
 40
0.0967741935483871
 40
0.0967741935483871
 40
0.0967741935483871
 40
0.1129032258064516
 40
0.1129032258064516
 40
0.1129032258064516
 40
0.1129032258064516
 40
0.1290322580645161
 40
0.1290322580645161
 40
0.1290322580645161
 40
0.1290322580645161
 40
0.1451612903225807
 40
0.1451612903225807
 40
0.1451612903225807
 40
0.1451612903225807
 40
0.1612903225806452
 40
0.1612903225806452
 40
0.1612903225806452
 40
0.1612903225806452
 40
0.1774193548387097
 40
0.1774193548387097
 40
0.1774193548387097
 40
0.1774193548387097
 40
0.1935483870967742
 40
0.1935483870967742
 40
0.1935483870967742
 40
0.1935483870967742
 40
0.2096774193548387
 40
0.2096774193548387
 40
0.2096774193548387
 40
0.2096774193548387
 40
0.2258064516129032
 40
0.2258064516129032
 40
0.2258064516129032
 40
0.2258064516129032
 40
0.2419354838709677
 40
0.2419354838709677
 40
0.2419354838709677
 40
0.2419354838709677
 40
0.2580645161290323
 40
0.2580645161290323
 40
0.2580645161290323
 40
0.2580645161290323
 40
0.2741935483870968
 40
0.2741935483870968
 40
0.2741935483870968
 40
0.2741935483870968
 40
0.2903225806451613
 40
0.2903225806451613
 40
0.2903225806451613
 40
0.2903225806451613
 40
0.3064516129032258
 40
0.3064516129032258
 40
0.3064516129032258
 40
0.3064516129032258
 40
0.3225806451612903
 40
0.3225806451612903
 40
0.3225806451612903
 40
0.3225806451612903
 40
0.3387096774193548
 40
0.3387096774193548
 40
0.3387096774193548
 40
0.3387096774193548
 40
0.3548387096774194
 40
0.3548387096774194
 40
0.3548387096774194
 40
0.3548387096774194
 40
0.3709677419354839
 40
0.3709677419354839
 40
0.3709677419354839
 40
0.3709677419354839
 40
0.3870967741935484
 40
0.3870967741935484
 40
0.3870967741935484
 40
0.3870967741935484
 40
0.4032258064516129
 40
0.4032258064516129
 40
0.4032258064516129
 40
0.4032258064516129
 40
0.4193548387096774
 40
0.4193548387096774
 40
0.4193548387096774
 40
0.4193548387096774
 40
0.4354838709677419
 40
0.4354838709677419
 40
0.4354838709677419
 40
0.4354838709677419
 40
0.4516129032258064
 40
0.4516129032258064
 40
0.4516129032258064
 40
0.4516129032258064
 40
0.4677419354838709
 40
0.4677419354838709
 40
0.4677419354838709
 40
0.4677419354838709
 40
0.4838709677419355
 40
0.4838709677419355
 40
0.4838709677419355
 40
0.4838709677419355
 40
0.5
 40
0.5
 40
0.5
 40
0.5
 40
0.5161290322580645
 40
0.5161290322580645
 40
0.5161290322580645
 40
0.5161290322580645
 40
0.532258064516129
 40
0.532258064516129
 40
0.532258064516129
 40
0.532258064516129
 40
0.5483870967741935
 40
0.5483870967741935
 40
0.5483870967741935
 40
0.5483870967741935
 40
0.5645161290322581
 40
0.5645161290322581
 40
0.5645161290322581
 40
0.5645161290322581
 40
0.5806451612903226
 40
0.5806451612903226
 40
0.5806451612903226
 40
0.5806451612903226
 40
0.5967741935483871
 40
0.5967741935483871
 40
0.5967741935483871
 40
0.5967741935483871
 40
0.6129032258064516
 40
0.6129032258064516
 40
0.6129032258064516
 40
0.6129032258064516
 40
0.6290322580645161
 40
0.6290322580645161
 40
0.6290322580645161
 40
0.6290322580645161
 40
0.6451612903225806
 40
0.6451612903225806
 40
0.6451612903225806
 40
0.6451612903225806
 40
0.6612903225806451
 40
0.6612903225806451
 40
0.6612903225806451
 40
0.6612903225806451
 40
0.6774193548387096
 40
0.6774193548387096
 40
0.6774193548387096
 40
0.6774193548387096
 40
0.6935483870967742
 40
0.6935483870967742
 40
0.6935483870967742
 40
0.6935483870967742
 40
0.7096774193548387
 40
0.7096774193548387
 40
0.7096774193548387
 40
0.7096774193548387
 40
0.7258064516129032
 40
0.7258064516129032
 40
0.7258064516129032
 40
0.7258064516129032
 40
0.7419354838709677
 40
0.7419354838709677
 40
0.7419354838709677
 40
0.7419354838709677
 40
0.7580645161290323
 40
0.7580645161290323
 40
0.7580645161290323
 40
0.7580645161290323
 40
0.7741935483870968
 40
0.7741935483870968
 40
0.7741935483870968
 40
0.7741935483870968
 40
0.7903225806451613
 40
0.7903225806451613
 40
0.7903225806451613
 40
0.7903225806451613
 40
0.8064516129032258
 40
0.8064516129032258
 40
0.8064516129032258
 40
0.8064516129032258
 40
0.8225806451612904
 40
0.8225806451612904
 40
0.8225806451612904
 40
0.8225806451612904
 40
0.8387096774193549
 40
0.8387096774193549
 40
0.8387096774193549
 40
0.8387096774193549
 40
0.8548387096774194
 40
0.8548387096774194
 40
0.8548387096774194
 40
0.8548387096774194
 40
0.8709677419354839
 40
0.8709677419354839
 40
0.8709677419354839
 40
0.8709677419354839
 40
0.8870967741935484
 40
0.8870967741935484
 40
0.8870967741935484
 40
0.8870967741935484
 40
0.9032258064516129
 40
0.9032258064516129
 40
0.9032258064516129
 40
0.9032258064516129
 40
0.9193548387096774
 40
0.9193548387096774
 40
0.9193548387096774
 40
0.9193548387096774
 40
0.9354838709677419
 40
0.9354838709677419
 40
0.9354838709677419
 40
0.9354838709677419
 40
0.9516129032258065
 40
0.9516129032258065
 40
0.9516129032258065
 40
0.9516129032258065
 40
0.967741935483871
 40
0.967741935483871
 40
0.967741935483871
 40
0.967741935483871
 40
1.0
 40
1.0
 40
1.0
 40
1.0
 10
286.74626
 20
-151.06826
 30
0.0
 10
286.73838
 20
-151.00241
 30
0.0
 10
286.72775
 20
-150.93727
 30
0.0
 10
286.71742
 20
-150.87205
 30
0.0
 10
286.71742
 20
-150.87205
 30
0.0
 10
286.71742
 20
-150.87205
 30
0.0
 10
277.23287
 20
-150.87205
 30
0.0
 10
277.23287
 20
-150.87205
 30
0.0
 10
277.23287
 20
-150.87205
 30
0.0
 10
277.23287
 20
-150.87205
 30
0.0
 10
277.23287
 20
-150.27205
 30
0.0
 10
277.23287
 20
-150.27205
 30
0.0
 10
277.23287
 20
-150.27205
 30
0.0
 10
277.23287
 20
-150.27205
 30
0.0
 10
286.5894
 20
-150.27205
 30
0.0
 10
286.5894
 20
-150.27205
 30
0.0
 10
286.5894
 20
-150.27205
 30
0.0
 10
286.42129
 20
-149.65494
 30
0.0
 10
286.14829
 20
-149.06988
 30
0.0
 10
285.79066
 20
-148.52474
 30
0.0
 10
285.79066
 20
-148.52474
 30
0.0
 10
285.79066
 20
-148.52474
 30
0.0
 10
284.1529
 20
-149.47281
 30
0.0
 10
284.1529
 20
-149.47281
 30
0.0
 10
284.1529
 20
-149.47281
 30
0.0
 10
284.1529
 20
-149.47281
 30
0.0
 10
283.8523
 20
-148.95354
 30
0.0
 10
283.8523
 20
-148.95354
 30
0.0
 10
283.8523
 20
-148.95354
 30
0.0
 10
283.8523
 20
-148.95354
 30
0.0
 10
285.43897
 20
-148.03504
 30
0.0
 10
285.43897
 20
-148.03504
 30
0.0
 10
285.43897
 20
-148.03504
 30
0.0
 10
284.56796
 20
-146.92578
 30
0.0
 10
283.33501
 20
-146.0116
 30
0.0
 10
281.925
 20
-145.37451
 30
0.0
 10
281.925
 20
-145.37451
 30
0.0
 10
281.925
 20
-145.37451
 30
0.0
 10
281.19097
 20
-146.8369
 30
0.0
 10
281.19097
 20
-146.8369
 30
0.0
 10
281.19097
 20
-146.8369
 30
0.0
 10
281.19097
 20
-146.8369
 30
0.0
 10
280.65473
 20
-146.56774
 30
0.0
 10
280.65473
 20
-146.56774
 30
0.0
 10
280.65473
 20
-146.56774
 30
0.0
 10
280.65473
 20
-146.56774
 30
0.0
 10
281.37024
 20
-145.14225
 30
0.0
 10
281.37024
 20
-145.14225
 30
0.0
 10
281.37024
 20
-145.14225
 30
0.0
 10
280.203
 20
-144.68893
 30
0.0
 10
278.93684
 20
-144.42181
 30
0.0
 10
277.66759
 20
-144.38267
 30
0.0
 10
277.66759
 20
-144.38267
 30
0.0
 10
277.66759
 20
-144.38267
 30
0.0
 10
277.4454
 20
-146.10893
 30
0.0
 10
277.4454
 20
-146.10893
 30
0.0
 10
277.4454
 20
-146.10893
 30
0.0
 10
277.4454
 20
-146.10893
 30
0.0
 10
276.85031
 20
-146.03234
 30
0.0
 10
276.85031
 20
-146.03234
 30
0.0
 10
276.85031
 20
-146.03234
 30
0.0
 10
276.85031
 20
-146.03234
 30
0.0
 10
277.0628
 20
-144.38144
 30
0.0
 10
277.0628
 20
-144.38144
 30
0.0
 10
277.0628
 20
-144.38144
 30
0.0
 10
275.68971
 20
-144.4188
 30
0.0
 10
274.3309
 20
-144.73208
 30
0.0
 10
273.10803
 20
-145.37534
 30
0.0
 10
273.10803
 20
-145.37534
 30
0.0
 10
273.10803
 20
-145.37534
 30
0.0
 10
273.4862
 20
-147.05477
 30
0.0
 10
273.4862
 20
-147.05477
 30
0.0
 10
273.4862
 20
-147.05477
 30
0.0
 10
273.4862
 20
-147.05477
 30
0.0
 10
272.90086
 20
-147.18657
 30
0.0
 10
272.90086
 20
-147.18657
 30
0.0
 10
272.90086
 20
-147.18657
 30
0.0
 10
272.90086
 20
-147.18657
 30
0.0
 10
272.56377
 20
-145.68957
 30
0.0
 10
272.56377
 20
-145.68957
 30
0.0
 10
272.56377
 20
-145.68957
 30
0.0
 10
271.62316
 20
-146.28326
 30
0.0
 10
270.78074
 20
-147.09216
 30
0.0
 10
270.09848
 20
-148.14407
 30
0.0
 10
270.09848
 20
-148.14407
 30
0.0
 10
269.87506
 20
-147.92064
 30
0.0
 10
269.2871
 20
-147.17982
 30
0.0
 10
268.84025
 20
-146.95639
 30
0.0
 10
268.84025
 20
-146.95639
 30
0.0
 10
268.3934
 20
-146.73296
 30
0.0
 10
267.94654
 20
-146.67418
 30
0.0
 10
267.79367
 20
-146.70357
 30
0.0
 10
267.79367
 20
-146.70357
 30
0.0
 10
267.6408
 20
-146.73296
 30
0.0
 10
267.78193
 20
-146.85056
 30
0.0
 10
267.84071
 20
-146.99755
 30
0.0
 10
267.84071
 20
-146.99755
 30
0.0
 10
268.6011
 20
-148.89873
 30
0.0
 10
263.78857
 20
-148.1701
 30
0.0
 10
265.90052
 20
-146.67418
 30
0.0
 10
265.90052
 20
-146.67418
 30
0.0
 10
267.60565
 20
-145.46643
 30
0.0
 10
270.98159
 20
-143.15771
 30
0.0
 10
270.13974
 20
-140.52409
 30
0.0
 10
270.13974
 20
-140.52409
 30
0.0
 10
267.89372
 20
-133.49766
 30
0.0
 10
257.06497
 20
-136.5287
 30
0.0
 10
252.21475
 20
-138.39858
 30
0.0
 10
252.21475
 20
-138.39858
 30
0.0
 10
251.97515
 20
-138.49095
 30
0.0
 10
251.55065
 20
-138.27885
 30
0.0
 10
250.81663
 20
-138.66324
 30
0.0
 10
250.81663
 20
-138.66324
 30
0.0
 10
248.1927
 20
-139.7477
 30
0.0
 10
246.85783
 20
-141.05718
 30
0.0
 10
245.93917
 20
-142.77598
 30
0.0
 10
245.93917
 20
-142.77598
 30
0.0
 10
244.94224
 20
-144.64124
 30
0.0
 10
242.19625
 20
-149.04671
 30
0.0
 10
244.51482
 20
-151.81705
 30
0.0
 10
244.51482
 20
-151.81705
 30
0.0
 10
242.37265
 20
-154.44627
 30
0.0
 10
244.94224
 20
-158.99286
 30
0.0
 10
245.93917
 20
-160.85812
 30
0.0
 10
245.93917
 20
-160.85812
 30
0.0
 10
246.85783
 20
-162.57692
 30
0.0
 10
248.1927
 20
-163.8864
 30
0.0
 10
250.81663
 20
-164.97086
 30
0.0
 10
250.81663
 20
-164.97086
 30
0.0
 10
251.55065
 20
-165.35525
 30
0.0
 10
251.97515
 20
-165.14315
 30
0.0
 10
252.21475
 20
-165.23552
 30
0.0
 10
252.21475
 20
-165.23552
 30
0.0
 10
257.06497
 20
-167.1054
 30
0.0
 10
267.89372
 20
-170.13644
 30
0.0
 10
270.13974
 20
-163.11001
 30
0.0
 10
270.13974
 20
-163.11001
 30
0.0
 10
270.98159
 20
-160.47639
 30
0.0
 10
267.60565
 20
-158.16767
 30
0.0
 10
265.90052
 20
-156.95992
 30
0.0
 10
265.90052
 20
-156.95992
 30
0.0
 10
263.78857
 20
-155.464
 30
0.0
 10
268.6011
 20
-154.73537
 30
0.0
 10
267.84071
 20
-156.63655
 30
0.0
 10
267.84071
 20
-156.63655
 30
0.0
 10
267.78193
 20
-156.78354
 30
0.0
 10
267.6408
 20
-156.90114
 30
0.0
 10
267.79367
 20
-156.93053
 30
0.0
 10
267.79367
 20
-156.93053
 30
0.0
 10
267.94654
 20
-156.95992
 30
0.0
 10
268.3934
 20
-156.90114
 30
0.0
 10
268.84025
 20
-156.67771
 30
0.0
 10
268.84025
 20
-156.67771
 30
0.0
 10
269.2871
 20
-156.45428
 30
0.0
 10
269.87506
 20
-155.71346
 30
0.0
 10
270.09848
 20
-155.49003
 30
0.0
 10
270.09848
 20
-155.49003
 30
0.0
 10
270.77597
 20
-156.53459
 30
0.0
 10
271.62134
 20
-157.3388
 30
0.0
 10
272.56952
 20
-157.92905
 30
0.0
 10
272.56952
 20
-157.92905
 30
0.0
 10
272.56952
 20
-157.92905
 30
0.0
 10
272.90086
 20
-156.45757
 30
0.0
 10
272.90086
 20
-156.45757
 30
0.0
 10
272.90086
 20
-156.45757
 30
0.0
 10
272.90086
 20
-156.45757
 30
0.0
 10
273.4862
 20
-156.58937
 30
0.0
 10
273.4862
 20
-156.58937
 30
0.0
 10
273.4862
 20
-156.58937
 30
0.0
 10
273.4862
 20
-156.58937
 30
0.0
 10
273.11465
 20
-158.23942
 30
0.0
 10
273.11465
 20
-158.23942
 30
0.0
 10
273.11465
 20
-158.23942
 30
0.0
 10
274.33143
 20
-158.87064
 30
0.0
 10
275.68661
 20
-159.18254
 30
0.0
 10
277.05781
 20
-159.22394
 30
0.0
 10
277.05781
 20
-159.22394
 30
0.0
 10
277.05781
 20
-159.22394
 30
0.0
 10
276.85031
 20
-157.6118
 30
0.0
 10
276.85031
 20
-157.6118
 30
0.0
 10
276.85031
 20
-157.6118
 30
0.0
 10
276.85031
 20
-157.6118
 30
0.0
 10
277.4454
 20
-157.53521
 30
0.0
 10
277.4454
 20
-157.53521
 30
0.0
 10
277.4454
 20
-157.53521
 30
0.0
 10
277.4454
 20
-157.53521
 30
0.0
 10
277.66287
 20
-159.22484
 30
0.0
 10
277.66287
 20
-159.22484
 30
0.0
 10
277.66287
 20
-159.22484
 30
0.0
 10
278.93037
 20
-159.19071
 30
0.0
 10
280.19613
 20
-158.93283
 30
0.0
 10
281.36373
 20
-158.48892
 30
0.0
 10
281.36373
 20
-158.48892
 30
0.0
 10
281.36373
 20
-158.48892
 30
0.0
 10
280.65473
 20
-157.0764
 30
0.0
 10
280.65473
 20
-157.0764
 30
0.0
 10
280.65473
 20
-157.0764
 30
0.0
 10
280.65473
 20
-157.0764
 30
0.0
 10
281.19097
 20
-156.80724
 30
0.0
 10
281.19097
 20
-156.80724
 30
0.0
 10
281.19097
 20
-156.80724
 30
0.0
 10
281.19097
 20
-156.80724
 30
0.0
 10
281.92039
 20
-158.26045
 30
0.0
 10
281.92039
 20
-158.26045
 30
0.0
 10
281.92039
 20
-158.26045
 30
0.0
 10
283.3356
 20
-157.63276
 30
0.0
 10
284.57362
 20
-156.72548
 30
0.0
 10
285.44675
 20
-155.6136
 30
0.0
 10
285.44675
 20
-155.6136
 30
0.0
 10
285.44675
 20
-155.6136
 30
0.0
 10
283.8523
 20
-154.6906
 30
0.0
 10
283.8523
 20
-154.6906
 30
0.0
 10
283.8523
 20
-154.6906
 30
0.0
 10
283.8523
 20
-154.6906
 30
0.0
 10
284.1529
 20
-154.17133
 30
0.0
 10
284.1529
 20
-154.17133
 30
0.0
 10
284.1529
 20
-154.17133
 30
0.0
 10
284.1529
 20
-154.17133
 30
0.0
 10
285.79819
 20
-155.12376
 30
0.0
 10
285.79819
 20
-155.12376
 30
0.0
 10
285.79819
 20
-155.12376
 30
0.0
 10
286.1545
 20
-154.57925
 30
0.0
 10
286.42662
 20
-153.99307
 30
0.0
 10
286.59396
 20
-153.37205
 30
0.0
 10
286.59396
 20
-153.37205
 30
0.0
 10
286.59396
 20
-153.37205
 30
0.0
 10
277.23287
 20
-153.37205
 30
0.0
 10
277.23287
 20
-153.37205
 30
0.0
 10
277.23287
 20
-153.37205
 30
0.0
 10
277.23287
 20
-153.37205
 30
0.0
 10
277.23287
 20
-152.77205
 30
0.0
 10
277.23287
 20
-152.77205
 30
0.0
 10
277.23287
 20
-152.77205
 30
0.0
 10
277.23287
 20
-152.77205
 30
0.0
 10
286.72127
 20
-152.77205
 30
0.0
 10
286.72127
 20
-152.77205
 30
0.0
 10
286.72127
 20
-152.77205
 30
0.0
 10
286.7388
 20
-152.65899
 30
0.0
 10
286.75388
 20
-152.54522
 30
0.0
 10
286.76449
 20
-152.43021
 30
0.0
 10
286.76449
 20
-152.43021
 30
0.0
 10
286.80566
 20
-151.98406
 30
0.0
 10
286.79933
 20
-151.51206
 30
0.0
 10
286.74626
 20
-151.06826
 30
0.0
  0
SPLINE
  5
71
330
1F
100
AcDbEntity
  8
layer 1
 62
   250
370
    20
100
AcDbSpline
210
0.0
220
0.0
230
1.0
 70
    11
 71
     3
 72
    20
 73
    16
 74
     0
 42
0.000000001
 43
0.0000000001
 40
0.0
 40
0.0
 40
0.0
 40
0.0
 40
0.2
 40
0.2
 40
0.2
 40
0.2
 40
0.4
 40
0.4
 40
0.4
 40
0.4
 40
0.6
 40
0.6
 40
0.6
 40
0.6
 40
1.0
 40
1.0
 40
1.0
 40
1.0
 10
249.98917
 20
-147.97982
 30
0.0
 10
252.11547
 20
-147.97982
 30
0.0
 10
253.83917
 20
-149.70352
 30
0.0
 10
253.83917
 20
-151.82982
 30
0.0
 10
253.83917
 20
-151.82982
 30
0.0
 10
253.83917
 20
-153.95612
 30
0.0
 10
252.11547
 20
-155.67982
 30
0.0
 10
249.98917
 20
-155.67982
 30
0.0
 10
249.98917
 20
-155.67982
 30
0.0
 10
247.86287
 20
-155.67982
 30
0.0
 10
246.13917
 20
-153.95612
 30
0.0
 10
246.13917
 20
-151.82982
 30
0.0
 10
246.13917
 20
-151.82982
 30
0.0
 10
246.13917
 20
-149.70352
 30
0.0
 10
247.86287
 20
-147.97982
 30
0.0
 10
249.98917
 20
-147.97982
 30
0.0
  0
SPLINE
  5
72
330
1F
100
AcDbEntity
  8
layer 1
 62
   250
370
    20
100
AcDbSpline
210
0.0
220
0.0
230
1.0
 70
    11
 71
     3
 72
    20
 73
    16
 74
     0
 42
0.000000001
 43
0.0000000001
 40
0.0
 40
0.0
 40
0.0
 40
0.0
 40
0.2
 40
0.2
 40
0.2
 40
0.2
 40
0.4
 40
0.4
 40
0.4
 40
0.4
 40
0.6
 40
0.6
 40
0.6
 40
0.6
 40
1.0
 40
1.0
 40
1.0
 40
1.0
 10
245.3073
 20
-151.31705
 30
0.0
 10
245.3073
 20
-151.31705
 30
0.0
 10
245.9073
 20
-151.31705
 30
0.0
 10
245.9073
 20
-151.31705
 30
0.0
 10
245.9073
 20
-151.31705
 30
0.0
 10
245.9073
 20
-151.31705
 30
0.0
 10
245.9073
 20
-152.31705
 30
0.0
 10
245.9073
 20
-152.31705
 30
0.0
 10
245.9073
 20
-152.31705
 30
0.0
 10
245.9073
 20
-152.31705
 30
0.0
 10
245.3073
 20
-152.31705
 30
0.0
 10
245.3073
 20
-152.31705
 30
0.0
 10
245.3073
 20
-152.31705
 30
0.0
 10
245.3073
 20
-152.31705
 30
0.0
 10
245.3073
 20
-151.31705
 30
0.0
 10
245.3073
 20
-151.31705
 30
0.0
  0
SPLINE
  5
73
330
1F
100
AcDbEntity
  8
layer 1
 62
   250
370
    20
100
AcDbSpline
210
0.0
220
0.0
230
1.0
 70
    11
 71
     3
 72
    20
 73
    16
 74
     0
 42
0.000000001
 43
0.0000000001
 40
0.0
 40
0.0
 40
0.0
 40
0.0
 40
0.2
 40
0.2
 40
0.2
 40
0.2
 40
0.4
 40
0.4
 40
0.4
 40
0.4
 40
0.6
 40
0.6
 40
0.6
 40
0.6
 40
1.0
 40
1.0
 40
1.0
 40
1.0
 10
254.08552
 20
-151.31705
 30
0.0
 10
254.08552
 20
-151.31705
 30
0.0
 10
254.68552
 20
-151.31705
 30
0.0
 10
254.68552
 20
-151.31705
 30
0.0
 10
254.68552
 20
-151.31705
 30
0.0
 10
254.68552
 20
-151.31705
 30
0.0
 10
254.68552
 20
-152.31705
 30
0.0
 10
254.68552
 20
-152.31705
 30
0.0
 10
254.68552
 20
-152.31705
 30
0.0
 10
254.68552
 20
-152.31705
 30
0.0
 10
254.08552
 20
-152.31705
 30
0.0
 10
254.08552
 20
-152.31705
 30
0.0
 10
254.08552
 20
-152.31705
 30
0.0
 10
254.08552
 20
-152.31705
 30
0.0
 10
254.08552
 20
-151.31705
 30
0.0
 10
254.08552
 20
-151.31705
 30
0.0
  0
SPLINE
  5
74
330
1F
100
AcDbEntity
  8
layer 1
 62
   250
370
    20
100
AcDbSpline
210
0.0
220
0.0
230
1.0
 70
    11
 71
     3
 72
    20
 73
    16
 74
     0
 42
0.000000001
 43
0.0000000001
 40
0.0
 40
0.0
 40
0.0
 40
0.0
 40
0.2
 40
0.2
 40
0.2
 40
0.2
 40
0.4
 40
0.4
 40
0.4
 40
0.4
 40
0.6
 40
0.6
 40
0.6
 40
0.6
 40
1.0
 40
1.0
 40
1.0
 40
1.0
 10
249.47344
 20
-156.50705
 30
0.0
 10
249.47344
 20
-156.50705
 30
0.0
 10
249.47344
 20
-155.90705
 30
0.0
 10
249.47344
 20
-155.90705
 30
0.0
 10
249.47344
 20
-155.90705
 30
0.0
 10
249.47344
 20
-155.90705
 30
0.0
 10
250.47344
 20
-155.90705
 30
0.0
 10
250.47344
 20
-155.90705
 30
0.0
 10
250.47344
 20
-155.90705
 30
0.0
 10
250.47344
 20
-155.90705
 30
0.0
 10
250.47344
 20
-156.50705
 30
0.0
 10
250.47344
 20
-156.50705
 30
0.0
 10
250.47344
 20
-156.50705
 30
0.0
 10
250.47344
 20
-156.50705
 30
0.0
 10
249.47344
 20
-156.50705
 30
0.0
 10
249.47344
 20
-156.50705
 30
0.0
  0
SPLINE
  5
75
330
1F
100
AcDbEntity
  8
layer 1
 62
   250
370
    20
100
AcDbSpline
210
0.0
220
0.0
230
1.0
 70
    11
 71
     3
 72
    20
 73
    16
 74
     0
 42
0.000000001
 43
0.0000000001
 40
0.0
 40
0.0
 40
0.0
 40
0.0
 40
0.2
 40
0.2
 40
0.2
 40
0.2
 40
0.4
 40
0.4
 40
0.4
 40
0.4
 40
0.6
 40
0.6
 40
0.6
 40
0.6
 40
1.0
 40
1.0
 40
1.0
 40
1.0
 10
249.47344
 20
-147.72883
 30
0.0
 10
249.47344
 20
-147.72883
 30
0.0
 10
249.47344
 20
-147.12883
 30
0.0
 10
249.47344
 20
-147.12883
 30
0.0
 10
249.47344
 20
-147.12883
 30
0.0
 10
249.47344
 20
-147.12883
 30
0.0
 10
250.47344
 20
-147.12883
 30
0.0
 10
250.47344
 20
-147.12883
 30
0.0
 10
250.47344
 20
-147.12883
 30
0.0
 10
250.47344
 20
-147.12883
 30
0.0
 10
250.47344
 20
-147.72883
 30
0.0
 10
250.47344
 20
-147.72883
 30
0.0
 10
250.47344
 20
-147.72883
 30
0.0
 10
250.47344
 20
-147.72883
 30
0.0
 10
249.47344
 20
-147.72883
 30
0.0
 10
249.47344
 20
-147.72883
 30
0.0
  0
SPLINE
  5
76
330
1F
100
AcDbEntity
  8
layer 1
 62
   250
370
    20
100
AcDbSpline
210
0.0
220
0.0
230
1.0
 70
    11
 71
     3
 72
    20
 73
    16
 74
     0
 42
0.000000001
 43
0.0000000001
 40
0.0
 40
0.0
 40
0.0
 40
0.0
 40
0.2
 40
0.2
 40
0.2
 40
0.2
 40
0.4
 40
0.4
 40
0.4
 40
0.4
 40
0.6
 40
0.6
 40
0.6
 40
0.6
 40
1.0
 40
1.0
 40
1.0
 40
1.0
 10
246.50119
 20
-155.00105
 30
0.0
 10
246.50119
 20
-155.00105
 30
0.0
 10
246.89956
 20
-154.55239
 30
0.0
 10
246.89956
 20
-154.55239
 30
0.0
 10
246.89956
 20
-154.55239
 30
0.0
 10
246.89956
 20
-154.55239
 30
0.0
 10
247.64733
 20
-155.21635
 30
0.0
 10
247.64733
 20
-155.21635
 30
0.0
 10
247.64733
 20
-155.21635
 30
0.0
 10
247.64733
 20
-155.21635
 30
0.0
 10
247.24896
 20
-155.66501
 30
0.0
 10
247.24896
 20
-155.66501
 30
0.0
 10
247.24896
 20
-155.66501
 30
0.0
 10
247.24896
 20
-155.66501
 30
0.0
 10
246.50119
 20
-155.00105
 30
0.0
 10
246.50119
 20
-155.00105
 30
0.0
  0
SPLINE
  5
77
330
1F
100
AcDbEntity
  8
layer 1
 62
   250
370
    20
100
AcDbSpline
210
0.0
220
0.0
230
1.0
 70
    11
 71
     3
 72
    20
 73
    16
 74
     0
 42
0.000000001
 43
0.0000000001
 40
0.0
 40
0.0
 40
0.0
 40
0.0
 40
0.2
 40
0.2
 40
0.2
 40
0.2
 40
0.4
 40
0.4
 40
0.4
 40
0.4
 40
0.6
 40
0.6
 40
0.6
 40
0.6
 40
1.0
 40
1.0
 40
1.0
 40
1.0
 10
252.32956
 20
-148.43697
 30
0.0
 10
252.32956
 20
-148.43697
 30
0.0
 10
252.72794
 20
-147.98831
 30
0.0
 10
252.72794
 20
-147.98831
 30
0.0
 10
252.72794
 20
-147.98831
 30
0.0
 10
252.72794
 20
-147.98831
 30
0.0
 10
253.47571
 20
-148.65227
 30
0.0
 10
253.47571
 20
-148.65227
 30
0.0
 10
253.47571
 20
-148.65227
 30
0.0
 10
253.47571
 20
-148.65227
 30
0.0
 10
253.07733
 20
-149.10093
 30
0.0
 10
253.07733
 20
-149.10093
 30
0.0
 10
253.07733
 20
-149.10093
 30
0.0
 10
253.07733
 20
-149.10093
 30
0.0
 10
252.32956
 20
-148.43697
 30
0.0
 10
252.32956
 20
-148.43697
 30
0.0
  0
SPLINE
  5
78
330
1F
100
AcDbEntity
  8
layer 1
 62
   250
370
    20
100
AcDbSpline
210
0.0
220
0.0
230
1.0
 70
    11
 71
     3
 72
    20
 73
    16
 74
     0
 42
0.000000001
 43
0.0000000001
 40
0.0
 40
0.0
 40
0.0
 40
0.0
 40
0.2
 40
0.2
 40
0.2
 40
0.2
 40
0.4
 40
0.4
 40
0.4
 40
0.4
 40
0.6
 40
0.6
 40
0.6
 40
0.6
 40
1.0
 40
1.0
 40
1.0
 40
1.0
 10
252.74156
 20
-155.63422
 30
0.0
 10
252.74156
 20
-155.63422
 30
0.0
 10
252.3382
 20
-155.19003
 30
0.0
 10
252.3382
 20
-155.19003
 30
0.0
 10
252.3382
 20
-155.19003
 30
0.0
 10
252.3382
 20
-155.19003
 30
0.0
 10
253.07852
 20
-154.51777
 30
0.0
 10
253.07852
 20
-154.51777
 30
0.0
 10
253.07852
 20
-154.51777
 30
0.0
 10
253.07852
 20
-154.51777
 30
0.0
 10
253.48187
 20
-154.96196
 30
0.0
 10
253.48187
 20
-154.96196
 30
0.0
 10
253.48187
 20
-154.96196
 30
0.0
 10
253.48187
 20
-154.96196
 30
0.0
 10
252.74156
 20
-155.63422
 30
0.0
 10
252.74156
 20
-155.63422
 30
0.0
  0
SPLINE
  5
79
330
1F
100
AcDbEntity
  8
layer 1
 62
   250
370
    20
100
AcDbSpline
210
0.0
220
0.0
230
1.0
 70
    11
 71
     3
 72
    20
 73
    16
 74
     0
 42
0.000000001
 43
0.0000000001
 40
0.0
 40
0.0
 40
0.0
 40
0.0
 40
0.2
 40
0.2
 40
0.2
 40
0.2
 40
0.4
 40
0.4
 40
0.4
 40
0.4
 40
0.6
 40
0.6
 40
0.6
 40
0.6
 40
1.0
 40
1.0
 40
1.0
 40
1.0
 10
246.84032
 20
-149.13556
 30
0.0
 10
246.84032
 20
-149.13556
 30
0.0
 10
246.43697
 20
-148.69137
 30
0.0
 10
246.43697
 20
-148.69137
 30
0.0
 10
246.43697
 20
-148.69137
 30
0.0
 10
246.43697
 20
-148.69137
 30
0.0
 10
247.17728
 20
-148.01911
 30
0.0
 10
247.17728
 20
-148.01911
 30
0.0
 10
247.17728
 20
-148.01911
 30
0.0
 10
247.17728
 20
-148.01911
 30
0.0
 10
247.58064
 20
-148.4633
 30
0.0
 10
247.58064
 20
-148.4633
 30
0.0
 10
247.58064
 20
-148.4633
 30
0.0
 10
247.58064
 20
-148.4633
 30
0.0
 10
246.84032
 20
-149.13556
 30
0.0
 10
246.84032
 20
-149.13556
 30
0.0
  0
SPLINE
  5
7A
330
1F
100
AcDbEntity
  8
layer 1
 62
   250
370
    20
100
AcDbSpline
210
0.0
220
0.0
230
1.0
 70
    11
 71
     3
 72
    12
 73
     8
 74
     0
 42
0.000000001
 43
0.0000000001
 40
0.0
 40
0.0
 40
0.0
 40
0.0
 40
0.3333333333333333
 40
0.3333333333333333
 40
0.3333333333333333
 40
0.3333333333333333
 40
1.0
 40
1.0
 40
1.0
 40
1.0
 10
259.5199
 20
-150.62902
 30
0.0
 10
261.33847
 20
-150.62902
 30
0.0
 10
261.33847
 20
-153.00508
 30
0.0
 10
259.5199
 20
-153.00508
 30
0.0
 10
259.5199
 20
-153.00508
 30
0.0
 10
257.70129
 20
-153.00508
 30
0.0
 10
257.70129
 20
-150.62902
 30
0.0
 10
259.5199
 20
-150.62902
 30
0.0
  0
SPLINE
  5
7B
330
1F
100
AcDbEntity
  8
layer 1
 62
   250
370
    20
100
AcDbSpline
210
0.0
220
0.0
230
1.0
 70
    11
 71
     3
 72
    96
 73
    92
 74
     0
 42
0.000000001
 43
0.0000000001
 40
0.0
 40
0.0
 40
0.0
 40
0.0
 40
0.0416666666666667
 40
0.0416666666666667
 40
0.0416666666666667
 40
0.0416666666666667
 40
0.0833333333333333
 40
0.0833333333333333
 40
0.0833333333333333
 40
0.0833333333333333
 40
0.125
 40
0.125
 40
0.125
 40
0.125
 40
0.1666666666666667
 40
0.1666666666666667
 40
0.1666666666666667
 40
0.1666666666666667
 40
0.2083333333333333
 40
0.2083333333333333
 40
0.2083333333333333
 40
0.2083333333333333
 40
0.25
 40
0.25
 40
0.25
 40
0.25
 40
0.2916666666666667
 40
0.2916666666666667
 40
0.2916666666666667
 40
0.2916666666666667
 40
0.3333333333333333
 40
0.3333333333333333
 40
0.3333333333333333
 40
0.3333333333333333
 40
0.375
 40
0.375
 40
0.375
 40
0.375
 40
0.4166666666666667
 40
0.4166666666666667
 40
0.4166666666666667
 40
0.4166666666666667
 40
0.4583333333333333
 40
0.4583333333333333
 40
0.4583333333333333
 40
0.4583333333333333
 40
0.5
 40
0.5
 40
0.5
 40
0.5
 40
0.5416666666666666
 40
0.5416666666666666
 40
0.5416666666666666
 40
0.5416666666666666
 40
0.5833333333333334
 40
0.5833333333333334
 40
0.5833333333333334
 40
0.5833333333333334
 40
0.625
 40
0.625
 40
0.625
 40
0.625
 40
0.6666666666666666
 40
0.6666666666666666
 40
0.6666666666666666
 40
0.6666666666666666
 40
0.7083333333333334
 40
0.7083333333333334
 40
0.7083333333333334
 40
0.7083333333333334
 40
0.75
 40
0.75
 40
0.75
 40
0.75
 40
0.7916666666666666
 40
0.7916666666666666
 40
0.7916666666666666
 40
0.7916666666666666
 40
0.8333333333333334
 40
0.8333333333333334
 40
0.8333333333333334
 40
0.8333333333333334
 40
0.875
 40
0.875
 40
0.875
 40
0.875
 40
0.9166666666666666
 40
0.9166666666666666
 40
0.9166666666666666
 40
0.9166666666666666
 40
1.0
 40
1.0
 40
1.0
 40
1.0
 10
255.26797
 20
-151.81705
 30
0.0
 10
255.39551
 20
-151.54519
 30
0.0
 10
255.61737
 20
-151.0808
 30
0.0
 10
256.01685
 20
-150.06085
 30
0.0
 10
256.01685
 20
-150.06085
 30
0.0
 10
256.29319
 20
-149.35529
 30
0.0
 10
256.42255
 20
-148.24992
 30
0.0
 10
256.24028
 20
-147.42677
 30
0.0
 10
256.24028
 20
-147.42677
 30
0.0
 10
256.05801
 20
-146.60362
 30
0.0
 10
255.56412
 20
-146.0627
 30
0.0
 10
255.27602
 20
-145.72168
 30
0.0
 10
255.27602
 20
-145.72168
 30
0.0
 10
254.98792
 20
-145.38066
 30
0.0
 10
254.9056
 20
-145.23955
 30
0.0
 10
254.82916
 20
-145.02789
 30
0.0
 10
254.82916
 20
-145.02789
 30
0.0
 10
254.75273
 20
-144.81622
 30
0.0
 10
254.73708
 20
-144.52713
 30
0.0
 10
254.6763
 20
-144.26353
 30
0.0
 10
254.6763
 20
-144.26353
 30
0.0
 10
253.21165
 20
-137.91246
 30
0.0
 10
267.62249
 20
-138.58611
 30
0.0
 10
265.64769
 20
-142.77011
 30
0.0
 10
265.64769
 20
-142.77011
 30
0.0
 10
264.40588
 20
-145.40111
 30
0.0
 10
258.41386
 20
-144.43502
 30
0.0
 10
259.62884
 20
-147.62668
 30
0.0
 10
259.62884
 20
-147.62668
 30
0.0
 10
259.68695
 20
-147.77934
 30
0.0
 10
260.14626
 20
-147.72077
 30
0.0
 10
260.44612
 20
-147.73252
 30
0.0
 10
260.44612
 20
-147.73252
 30
0.0
 10
260.74598
 20
-147.74427
 30
0.0
 10
260.91061
 20
-147.81483
 30
0.0
 10
261.01056
 20
-147.9677
 30
0.0
 10
261.01056
 20
-147.9677
 30
0.0
 10
261.11051
 20
-148.12057
 30
0.0
 10
261.14578
 20
-148.35575
 30
0.0
 10
261.07523
 20
-148.52626
 30
0.0
 10
261.07523
 20
-148.52626
 30
0.0
 10
261.00468
 20
-148.69677
 30
0.0
 10
260.82828
 20
-148.80262
 30
0.0
 10
260.57546
 20
-148.89081
 30
0.0
 10
260.57546
 20
-148.89081
 30
0.0
 10
256.81397
 20
-150.20292
 30
0.0
 10
256.81397
 20
-153.43118
 30
0.0
 10
260.57546
 20
-154.74329
 30
0.0
 10
260.57546
 20
-154.74329
 30
0.0
 10
260.82828
 20
-154.83148
 30
0.0
 10
261.00468
 20
-154.93733
 30
0.0
 10
261.07523
 20
-155.10784
 30
0.0
 10
261.07523
 20
-155.10784
 30
0.0
 10
261.14578
 20
-155.27835
 30
0.0
 10
261.11051
 20
-155.51353
 30
0.0
 10
261.01056
 20
-155.6664
 30
0.0
 10
261.01056
 20
-155.6664
 30
0.0
 10
260.91061
 20
-155.81927
 30
0.0
 10
260.74598
 20
-155.88983
 30
0.0
 10
260.44612
 20
-155.90158
 30
0.0
 10
260.44612
 20
-155.90158
 30
0.0
 10
260.14626
 20
-155.91333
 30
0.0
 10
259.68695
 20
-155.85476
 30
0.0
 10
259.62884
 20
-156.00742
 30
0.0
 10
259.62884
 20
-156.00742
 30
0.0
 10
258.41386
 20
-159.19908
 30
0.0
 10
264.40588
 20
-158.23299
 30
0.0
 10
265.64769
 20
-160.86399
 30
0.0
 10
265.64769
 20
-160.86399
 30
0.0
 10
267.62249
 20
-165.04799
 30
0.0
 10
253.21165
 20
-165.72164
 30
0.0
 10
254.6763
 20
-159.37057
 30
0.0
 10
254.6763
 20
-159.37057
 30
0.0
 10
254.73708
 20
-159.10697
 30
0.0
 10
254.75273
 20
-158.81788
 30
0.0
 10
254.82916
 20
-158.60621
 30
0.0
 10
254.82916
 20
-158.60621
 30
0.0
 10
254.9056
 20
-158.39455
 30
0.0
 10
254.98792
 20
-158.25344
 30
0.0
 10
255.27602
 20
-157.91242
 30
0.0
 10
255.27602
 20
-157.91242
 30
0.0
 10
255.56412
 20
-157.5714
 30
0.0
 10
256.05801
 20
-157.03048
 30
0.0
 10
256.24028
 20
-156.20733
 30
0.0
 10
256.24028
 20
-156.20733
 30
0.0
 10
256.42255
 20
-155.38418
 30
0.0
 10
256.29319
 20
-154.27881
 30
0.0
 10
256.01685
 20
-153.57325
 30
0.0
 10
256.01685
 20
-153.57325
 30
0.0
 10
255.61737
 20
-152.5533
 30
0.0
 10
255.39551
 20
-152.08891
 30
0.0
 10
255.26797
 20
-151.81705
 30
0.0
  0
SPLINE
  5
7C
330
1F
100
AcDbEntity
  8
layer 1
 62
   250
370
    20
100
AcDbSpline
210
0.0
220
0.0
230
1.0
 70
    11
 71
     3
 72
    20
 73
    16
 74
     0
 42
0.000000001
 43
0.0000000001
 40
0.0
 40
0.0
 40
0.0
 40
0.0
 40
0.2
 40
0.2
 40
0.2
 40
0.2
 40
0.4
 40
0.4
 40
0.4
 40
0.4
 40
0.6
 40
0.6
 40
0.6
 40
0.6
 40
1.0
 40
1.0
 40
1.0
 40
1.0
 10
264.28657
 20
-169.31566
 30
0.0
 10
267.09217
 20
-169.31566
 30
0.0
 10
269.36655
 20
-171.59004
 30
0.0
 10
269.36655
 20
-174.39564
 30
0.0
 10
269.36655
 20
-174.39564
 30
0.0
 10
269.36655
 20
-177.20124
 30
0.0
 10
267.09217
 20
-179.47562
 30
0.0
 10
264.28657
 20
-179.47562
 30
0.0
 10
264.28657
 20
-179.47562
 30
0.0
 10
261.48097
 20
-179.47562
 30
0.0
 10
259.20659
 20
-177.20124
 30
0.0
 10
259.20659
 20
-174.39564
 30
0.0
 10
259.20659
 20
-174.39564
 30
0.0
 10
259.20659
 20
-171.59004
 30
0.0
 10
261.48097
 20
-169.31566
 30
0.0
 10
264.28657
 20
-169.31566
 30
0.0
  0
SPLINE
  5
7D
330
1F
100
AcDbEntity
  8
layer 1
 62
   250
370
    20
100
AcDbSpline
210
0.0
220
0.0
230
1.0
 70
    11
 71
     3
 72
    20
 73
    16
 74
     0
 42
0.000000001
 43
0.0000000001
 40
0.0
 40
0.0
 40
0.0
 40
0.0
 40
0.2
 40
0.2
 40
0.2
 40
0.2
 40
0.4
 40
0.4
 40
0.4
 40
0.4
 40
0.6
 40
0.6
 40
0.6
 40
0.6
 40
1.0
 40
1.0
 40
1.0
 40
1.0
 10
259.60786
 20
-173.87903
 30
0.0
 10
259.60786
 20
-173.87903
 30
0.0
 10
260.20786
 20
-173.87903
 30
0.0
 10
260.20786
 20
-173.87903
 30
0.0
 10
260.20786
 20
-173.87903
 30
0.0
 10
260.20786
 20
-173.87903
 30
0.0
 10
260.20786
 20
-174.87903
 30
0.0
 10
260.20786
 20
-174.87903
 30
0.0
 10
260.20786
 20
-174.87903
 30
0.0
 10
260.20786
 20
-174.87903
 30
0.0
 10
259.60786
 20
-174.87903
 30
0.0
 10
259.60786
 20
-174.87903
 30
0.0
 10
259.60786
 20
-174.87903
 30
0.0
 10
259.60786
 20
-174.87903
 30
0.0
 10
259.60786
 20
-173.87903
 30
0.0
 10
259.60786
 20
-173.87903
 30
0.0
  0
SPLINE
  5
7E
330
1F
100
AcDbEntity
  8
layer 1
 62
   250
370
    20
100
AcDbSpline
210
0.0
220
0.0
230
1.0
 70
    11
 71
     3
 72
    20
 73
    16
 74
     0
 42
0.000000001
 43
0.0000000001
 40
0.0
 40
0.0
 40
0.0
 40
0.0
 40
0.2
 40
0.2
 40
0.2
 40
0.2
 40
0.4
 40
0.4
 40
0.4
 40
0.4
 40
0.6
 40
0.6
 40
0.6
 40
0.6
 40
1.0
 40
1.0
 40
1.0
 40
1.0
 10
268.38608
 20
-173.87903
 30
0.0
 10
268.38608
 20
-173.87903
 30
0.0
 10
268.98608
 20
-173.87903
 30
0.0
 10
268.98608
 20
-173.87903
 30
0.0
 10
268.98608
 20
-173.87903
 30
0.0
 10
268.98608
 20
-173.87903
 30
0.0
 10
268.98608
 20
-174.87903
 30
0.0
 10
268.98608
 20
-174.87903
 30
0.0
 10
268.98608
 20
-174.87903
 30
0.0
 10
268.98608
 20
-174.87903
 30
0.0
 10
268.38608
 20
-174.87903
 30
0.0
 10
268.38608
 20
-174.87903
 30
0.0
 10
268.38608
 20
-174.87903
 30
0.0
 10
268.38608
 20
-174.87903
 30
0.0
 10
268.38608
 20
-173.87903
 30
0.0
 10
268.38608
 20
-173.87903
 30
0.0
  0
SPLINE
  5
7F
330
1F
100
AcDbEntity
  8
layer 1
 62
   250
370
    20
100
AcDbSpline
210
0.0
220
0.0
230
1.0
 70
    11
 71
     3
 72
    20
 73
    16
 74
     0
 42
0.000000001
 43
0.0000000001
 40
0.0
 40
0.0
 40
0.0
 40
0.0
 40
0.2
 40
0.2
 40
0.2
 40
0.2
 40
0.4
 40
0.4
 40
0.4
 40
0.4
 40
0.6
 40
0.6
 40
0.6
 40
0.6
 40
1.0
 40
1.0
 40
1.0
 40
1.0
 10
263.774
 20
-179.06903
 30
0.0
 10
263.774
 20
-179.06903
 30
0.0
 10
263.774
 20
-178.46903
 30
0.0
 10
263.774
 20
-178.46903
 30
0.0
 10
263.774
 20
-178.46903
 30
0.0
 10
263.774
 20
-178.46903
 30
0.0
 10
264.774
 20
-178.46903
 30
0.0
 10
264.774
 20
-178.46903
 30
0.0
 10
264.774
 20
-178.46903
 30
0.0
 10
264.774
 20
-178.46903
 30
0.0
 10
264.774
 20
-179.06903
 30
0.0
 10
264.774
 20
-179.06903
 30
0.0
 10
264.774
 20
-179.06903
 30
0.0
 10
264.774
 20
-179.06903
 30
0.0
 10
263.774
 20
-179.06903
 30
0.0
 10
263.774
 20
-179.06903
 30
0.0
  0
SPLINE
  5
80
330
1F
100
AcDbEntity
  8
layer 1
 62
   250
370
    20
100
AcDbSpline
210
0.0
220
0.0
230
1.0
 70
    11
 71
     3
 72
    20
 73
    16
 74
     0
 42
0.000000001
 43
0.0000000001
 40
0.0
 40
0.0
 40
0.0
 40
0.0
 40
0.2
 40
0.2
 40
0.2
 40
0.2
 40
0.4
 40
0.4
 40
0.4
 40
0.4
 40
0.6
 40
0.6
 40
0.6
 40
0.6
 40
1.0
 40
1.0
 40
1.0
 40
1.0
 10
263.774
 20
-170.29081
 30
0.0
 10
263.774
 20
-170.29081
 30
0.0
 10
263.774
 20
-169.69081
 30
0.0
 10
263.774
 20
-169.69081
 30
0.0
 10
263.774
 20
-169.69081
 30
0.0
 10
263.774
 20
-169.69081
 30
0.0
 10
264.774
 20
-169.69081
 30
0.0
 10
264.774
 20
-169.69081
 30
0.0
 10
264.774
 20
-169.69081
 30
0.0
 10
264.774
 20
-169.69081
 30
0.0
 10
264.774
 20
-170.29081
 30
0.0
 10
264.774
 20
-170.29081
 30
0.0
 10
264.774
 20
-170.29081
 30
0.0
 10
264.774
 20
-170.29081
 30
0.0
 10
263.774
 20
-170.29081
 30
0.0
 10
263.774
 20
-170.29081
 30
0.0
  0
SPLINE
  5
81
330
1F
100
AcDbEntity
  8
layer 1
 62
   250
370
    20
100
AcDbSpline
210
0.0
220
0.0
230
1.0
 70
    11
 71
     3
 72
    20
 73
    16
 74
     0
 42
0.000000001
 43
0.0000000001
 40
0.0
 40
0.0
 40
0.0
 40
0.0
 40
0.2
 40
0.2
 40
0.2
 40
0.2
 40
0.4
 40
0.4
 40
0.4
 40
0.4
 40
0.6
 40
0.6
 40
0.6
 40
0.6
 40
1.0
 40
1.0
 40
1.0
 40
1.0
 10
260.80175
 20
-177.56303
 30
0.0
 10
260.80175
 20
-177.56303
 30
0.0
 10
261.20012
 20
-177.11437
 30
0.0
 10
261.20012
 20
-177.11437
 30
0.0
 10
261.20012
 20
-177.11437
 30
0.0
 10
261.20012
 20
-177.11437
 30
0.0
 10
261.94789
 20
-177.77833
 30
0.0
 10
261.94789
 20
-177.77833
 30
0.0
 10
261.94789
 20
-177.77833
 30
0.0
 10
261.94789
 20
-177.77833
 30
0.0
 10
261.54952
 20
-178.22699
 30
0.0
 10
261.54952
 20
-178.22699
 30
0.0
 10
261.54952
 20
-178.22699
 30
0.0
 10
261.54952
 20
-178.22699
 30
0.0
 10
260.80175
 20
-177.56303
 30
0.0
 10
260.80175
 20
-177.56303
 30
0.0
  0
SPLINE
  5
82
330
1F
100
AcDbEntity
  8
layer 1
 62
   250
370
    20
100
AcDbSpline
210
0.0
220
0.0
230
1.0
 70
    11
 71
     3
 72
    20
 73
    16
 74
     0
 42
0.000000001
 43
0.0000000001
 40
0.0
 40
0.0
 40
0.0
 40
0.0
 40
0.2
 40
0.2
 40
0.2
 40
0.2
 40
0.4
 40
0.4
 40
0.4
 40
0.4
 40
0.6
 40
0.6
 40
0.6
 40
0.6
 40
1.0
 40
1.0
 40
1.0
 40
1.0
 10
266.63012
 20
-170.99895
 30
0.0
 10
266.63012
 20
-170.99895
 30
0.0
 10
267.0285
 20
-170.55029
 30
0.0
 10
267.0285
 20
-170.55029
 30
0.0
 10
267.0285
 20
-170.55029
 30
0.0
 10
267.0285
 20
-170.55029
 30
0.0
 10
267.77627
 20
-171.21425
 30
0.0
 10
267.77627
 20
-171.21425
 30
0.0
 10
267.77627
 20
-171.21425
 30
0.0
 10
267.77627
 20
-171.21425
 30
0.0
 10
267.37789
 20
-171.66291
 30
0.0
 10
267.37789
 20
-171.66291
 30
0.0
 10
267.37789
 20
-171.66291
 30
0.0
 10
267.37789
 20
-171.66291
 30
0.0
 10
266.63012
 20
-170.99895
 30
0.0
 10
266.63012
 20
-170.99895
 30
0.0
  0
SPLINE
  5
83
330
1F
100
AcDbEntity
  8
layer 1
 62
   250
370
    20
100
AcDbSpline
210
0.0
220
0.0
230
1.0
 70
    11
 71
     3
 72
    20
 73
    16
 74
     0
 42
0.000000001
 43
0.0000000001
 40
0.0
 40
0.0
 40
0.0
 40
0.0
 40
0.2
 40
0.2
 40
0.2
 40
0.2
 40
0.4
 40
0.4
 40
0.4
 40
0.4
 40
0.6
 40
0.6
 40
0.6
 40
0.6
 40
1.0
 40
1.0
 40
1.0
 40
1.0
 10
267.04212
 20
-178.1962
 30
0.0
 10
267.04212
 20
-178.1962
 30
0.0
 10
266.63876
 20
-177.75201
 30
0.0
 10
266.63876
 20
-177.75201
 30
0.0
 10
266.63876
 20
-177.75201
 30
0.0
 10
266.63876
 20
-177.75201
 30
0.0
 10
267.37908
 20
-177.07975
 30
0.0
 10
267.37908
 20
-177.07975
 30
0.0
 10
267.37908
 20
-177.07975
 30
0.0
 10
267.37908
 20
-177.07975
 30
0.0
 10
267.78243
 20
-177.52394
 30
0.0
 10
267.78243
 20
-177.52394
 30
0.0
 10
267.78243
 20
-177.52394
 30
0.0
 10
267.78243
 20
-177.52394
 30
0.0
 10
267.04212
 20
-178.1962
 30
0.0
 10
267.04212
 20
-178.1962
 30
0.0
  0
SPLINE
  5
84
330
1F
100
AcDbEntity
  8
layer 1
 62
   250
370
    20
100
AcDbSpline
210
0.0
220
0.0
230
1.0
 70
    11
 71
     3
 72
    20
 73
    16
 74
     0
 42
0.000000001
 43
0.0000000001
 40
0.0
 40
0.0
 40
0.0
 40
0.0
 40
0.2
 40
0.2
 40
0.2
 40
0.2
 40
0.4
 40
0.4
 40
0.4
 40
0.4
 40
0.6
 40
0.6
 40
0.6
 40
0.6
 40
1.0
 40
1.0
 40
1.0
 40
1.0
 10
261.14088
 20
-171.69754
 30
0.0
 10
261.14088
 20
-171.69754
 30
0.0
 10
260.73753
 20
-171.25335
 30
0.0
 10
260.73753
 20
-171.25335
 30
0.0
 10
260.73753
 20
-171.25335
 30
0.0
 10
260.73753
 20
-171.25335
 30
0.0
 10
261.47784
 20
-170.58109
 30
0.0
 10
261.47784
 20
-170.58109
 30
0.0
 10
261.47784
 20
-170.58109
 30
0.0
 10
261.47784
 20
-170.58109
 30
0.0
 10
261.8812
 20
-171.02528
 30
0.0
 10
261.8812
 20
-171.02528
 30
0.0
 10
261.8812
 20
-171.02528
 30
0.0
 10
261.8812
 20
-171.02528
 30
0.0
 10
261.14088
 20
-171.69754
 30
0.0
 10
261.14088
 20
-171.69754
 30
0.0
  0
SPLINE
  5
85
330
1F
100
AcDbEntity
  8
layer 1
 62
   250
370
    20
100
AcDbSpline
210
0.0
220
0.0
230
1.0
 70
    11
 71
     3
 72
    52
 73
    48
 74
     0
 42
0.000000001
 43
0.0000000001
 40
0.0
 40
0.0
 40
0.0
 40
0.0
 40
0.0769230769230769
 40
0.0769230769230769
 40
0.0769230769230769
 40
0.0769230769230769
 40
0.1538461538461539
 40
0.1538461538461539
 40
0.1538461538461539
 40
0.1538461538461539
 40
0.2307692307692308
 40
0.2307692307692308
 40
0.2307692307692308
 40
0.2307692307692308
 40
0.3076923076923077
 40
0.3076923076923077
 40
0.3076923076923077
 40
0.3076923076923077
 40
0.3846153846153846
 40
0.3846153846153846
 40
0.3846153846153846
 40
0.3846153846153846
 40
0.4615384615384616
 40
0.4615384615384616
 40
0.4615384615384616
 40
0.4615384615384616
 40
0.5384615384615384
 40
0.5384615384615384
 40
0.5384615384615384
 40
0.5384615384615384
 40
0.6153846153846154
 40
0.6153846153846154
 40
0.6153846153846154
 40
0.6153846153846154
 40
0.6923076923076923
 40
0.6923076923076923
 40
0.6923076923076923
 40
0.6923076923076923
 40
0.7692307692307693
 40
0.7692307692307693
 40
0.7692307692307693
 40
0.7692307692307693
 40
0.8461538461538461
 40
0.8461538461538461
 40
0.8461538461538461
 40
0.8461538461538461
 40
1.0
 40
1.0
 40
1.0
 40
1.0
 10
320.08724
 20
-186.69635
 30
0.0
 10
320.08724
 20
-186.69635
 30
0.0
 10
320.45165
 20
-186.69635
 30
0.0
 10
320.45165
 20
-186.69635
 30
0.0
 10
320.45165
 20
-186.69635
 30
0.0
 10
320.45165
 20
-186.69635
 30
0.0
 10
320.45165
 20
-187.69635
 30
0.0
 10
320.45165
 20
-187.69635
 30
0.0
 10
320.45165
 20
-187.69635
 30
0.0
 10
320.45165
 20
-187.69635
 30
0.0
 10
320.08724
 20
-187.69635
 30
0.0
 10
320.08724
 20
-187.69635
 30
0.0
 10
320.08724
 20
-187.69635
 30
0.0
 10
320.08724
 20
-187.69635
 30
0.0
 10
320.08724
 20
-188.11735
 30
0.0
 10
320.08724
 20
-188.11735
 30
0.0
 10
320.08724
 20
-188.11735
 30
0.0
 10
320.08724
 20
-188.11735
 30
0.0
 10
315.19724
 20
-188.11735
 30
0.0
 10
315.19724
 20
-188.11735
 30
0.0
 10
315.19724
 20
-188.11735
 30
0.0
 10
315.19724
 20
-188.11735
 30
0.0
 10
315.19724
 20
-187.69635
 30
0.0
 10
315.19724
 20
-187.69635
 30
0.0
 10
315.19724
 20
-187.69635
 30
0.0
 10
315.19724
 20
-187.69635
 30
0.0
 10
314.8492
 20
-187.69635
 30
0.0
 10
314.8492
 20
-187.69635
 30
0.0
 10
314.8492
 20
-187.69635
 30
0.0
 10
314.8492
 20
-187.69635
 30
0.0
 10
314.8492
 20
-186.69635
 30
0.0
 10
314.8492
 20
-186.69635
 30
0.0
 10
314.8492
 20
-186.69635
 30
0.0
 10
314.8492
 20
-186.69635
 30
0.0
 10
315.19724
 20
-186.69635
 30
0.0
 10
315.19724
 20
-186.69635
 30
0.0
 10
315.19724
 20
-186.69635
 30
0.0
 10
315.19724
 20
-186.69635
 30
0.0
 10
315.19724
 20
-186.27535
 30
0.0
 10
315.19724
 20
-186.27535
 30
0.0
 10
315.19724
 20
-186.27535
 30
0.0
 10
315.19724
 20
-186.27535
 30
0.0
 10
320.08724
 20
-186.27535
 30
0.0
 10
320.08724
 20
-186.27535
 30
0.0
 10
320.08724
 20
-186.27535
 30
0.0
 10
320.08724
 20
-186.27535
 30
0.0
 10
320.08724
 20
-186.69635
 30
0.0
 10
320.08724
 20
-186.69635
 30
0.0
  0
SPLINE
  5
86
330
1F
100
AcDbEntity
  8
layer 1
 62
   250
370
    20
100
AcDbSpline
210
0.0
220
0.0
230
1.0
 70
    11
 71
     3
 72
   112
 73
   108
 74
     0
 42
0.000000001
 43
0.0000000001
 40
0.0
 40
0.0
 40
0.0
 40
0.0
 40
0.0357142857142857
 40
0.0357142857142857
 40
0.0357142857142857
 40
0.0357142857142857
 40
0.0714285714285714
 40
0.0714285714285714
 40
0.0714285714285714
 40
0.0714285714285714
 40
0.1071428571428571
 40
0.1071428571428571
 40
0.1071428571428571
 40
0.1071428571428571
 40
0.1428571428571428
 40
0.1428571428571428
 40
0.1428571428571428
 40
0.1428571428571428
 40
0.1785714285714286
 40
0.1785714285714286
 40
0.1785714285714286
 40
0.1785714285714286
 40
0.2142857142857143
 40
0.2142857142857143
 40
0.2142857142857143
 40
0.2142857142857143
 40
0.25
 40
0.25
 40
0.25
 40
0.25
 40
0.2857142857142857
 40
0.2857142857142857
 40
0.2857142857142857
 40
0.2857142857142857
 40
0.3214285714285715
 40
0.3214285714285715
 40
0.3214285714285715
 40
0.3214285714285715
 40
0.3571428571428572
 40
0.3571428571428572
 40
0.3571428571428572
 40
0.3571428571428572
 40
0.3928571428571428
 40
0.3928571428571428
 40
0.3928571428571428
 40
0.3928571428571428
 40
0.4285714285714285
 40
0.4285714285714285
 40
0.4285714285714285
 40
0.4285714285714285
 40
0.4642857142857143
 40
0.4642857142857143
 40
0.4642857142857143
 40
0.4642857142857143
 40
0.5
 40
0.5
 40
0.5
 40
0.5
 40
0.5357142857142857
 40
0.5357142857142857
 40
0.5357142857142857
 40
0.5357142857142857
 40
0.5714285714285714
 40
0.5714285714285714
 40
0.5714285714285714
 40
0.5714285714285714
 40
0.6071428571428571
 40
0.6071428571428571
 40
0.6071428571428571
 40
0.6071428571428571
 40
0.6428571428571429
 40
0.6428571428571429
 40
0.6428571428571429
 40
0.6428571428571429
 40
0.6785714285714286
 40
0.6785714285714286
 40
0.6785714285714286
 40
0.6785714285714286
 40
0.7142857142857143
 40
0.7142857142857143
 40
0.7142857142857143
 40
0.7142857142857143
 40
0.75
 40
0.75
 40
0.75
 40
0.75
 40
0.7857142857142857
 40
0.7857142857142857
 40
0.7857142857142857
 40
0.7857142857142857
 40
0.8214285714285714
 40
0.8214285714285714
 40
0.8214285714285714
 40
0.8214285714285714
 40
0.8571428571428571
 40
0.8571428571428571
 40
0.8571428571428571
 40
0.8571428571428571
 40
0.8928571428571429
 40
0.8928571428571429
 40
0.8928571428571429
 40
0.8928571428571429
 40
0.9285714285714286
 40
0.9285714285714286
 40
0.9285714285714286
 40
0.9285714285714286
 40
1.0
 40
1.0
 40
1.0
 40
1.0
 10
288.72145
 20
-174.08953
 30
0.0
 10
285.27147
 20
-171.905
 30
0.0
 10
283.99155
 20
-171.26471
 30
0.0
 10
279.8299
 20
-171.55849
 30
0.0
 10
279.8299
 20
-171.55849
 30
0.0
 10
279.44688
 20
-171.58554
 30
0.0
 10
279.08872
 20
-171.52635
 30
0.0
 10
278.72836
 20
-171.43726
 30
0.0
 10
278.72836
 20
-171.43726
 30
0.0
 10
278.368
 20
-171.34817
 30
0.0
 10
278.00544
 20
-171.22919
 30
0.0
 10
277.47134
 20
-171.26157
 30
0.0
 10
277.47134
 20
-171.26157
 30
0.0
 10
276.93725
 20
-171.29395
 30
0.0
 10
276.23161
 20
-171.47772
 30
0.0
 10
275.4567
 20
-172.29093
 30
0.0
 10
275.4567
 20
-172.29093
 30
0.0
 10
274.68179
 20
-173.10415
 30
0.0
 10
273.8376
 20
-174.54681
 30
0.0
 10
273.23765
 20
-175.72639
 30
0.0
 10
273.23765
 20
-175.72639
 30
0.0
 10
272.52121
 20
-177.13501
 30
0.0
 10
269.61834
 20
-181.81746
 30
0.0
 10
273.37704
 20
-181.65557
 30
0.0
 10
273.37704
 20
-181.65557
 30
0.0
 10
273.79311
 20
-181.63766
 30
0.0
 10
274.19472
 20
-181.50173
 30
0.0
 10
274.56485
 20
-181.25248
 30
0.0
 10
274.56485
 20
-181.25248
 30
0.0
 10
274.93499
 20
-181.00324
 30
0.0
 10
275.27367
 20
-180.64069
 30
0.0
 10
275.52012
 20
-180.29764
 30
0.0
 10
275.52012
 20
-180.29764
 30
0.0
 10
275.76657
 20
-179.95461
 30
0.0
 10
275.9208
 20
-179.63108
 30
0.0
 10
275.89595
 20
-179.49763
 30
0.0
 10
275.89595
 20
-179.49763
 30
0.0
 10
275.87109
 20
-179.36419
 30
0.0
 10
275.66715
 20
-179.42082
 30
0.0
 10
275.45754
 20
-179.47904
 30
0.0
 10
275.45754
 20
-179.47904
 30
0.0
 10
275.24792
 20
-179.53725
 30
0.0
 10
275.03265
 20
-179.59704
 30
0.0
 10
274.84381
 20
-179.57625
 30
0.0
 10
274.84381
 20
-179.57625
 30
0.0
 10
274.65497
 20
-179.55547
 30
0.0
 10
274.49258
 20
-179.45411
 30
0.0
 10
274.36952
 20
-179.27471
 30
0.0
 10
274.36952
 20
-179.27471
 30
0.0
 10
274.24648
 20
-179.09531
 30
0.0
 10
274.16278
 20
-178.83785
 30
0.0
 10
274.42687
 20
-178.1848
 30
0.0
 10
274.42687
 20
-178.1848
 30
0.0
 10
274.69097
 20
-177.53175
 30
0.0
 10
275.30287
 20
-176.48312
 30
0.0
 10
275.64784
 20
-175.92354
 30
0.0
 10
275.64784
 20
-175.92354
 30
0.0
 10
275.99282
 20
-175.36397
 30
0.0
 10
276.07088
 20
-175.29348
 30
0.0
 10
276.27199
 20
-175.18271
 30
0.0
 10
276.27199
 20
-175.18271
 30
0.0
 10
276.47311
 20
-175.07193
 30
0.0
 10
276.79729
 20
-174.92089
 30
0.0
 10
277.1029
 20
-174.76889
 30
0.0
 10
277.1029
 20
-174.76889
 30
0.0
 10
277.40851
 20
-174.6169
 30
0.0
 10
277.69556
 20
-174.46395
 30
0.0
 10
277.89479
 20
-174.28048
 30
0.0
 10
277.89479
 20
-174.28048
 30
0.0
 10
278.09403
 20
-174.097
 30
0.0
 10
278.20545
 20
-173.88299
 30
0.0
 10
278.37447
 20
-173.74452
 30
0.0
 10
278.37447
 20
-173.74452
 30
0.0
 10
278.54349
 20
-173.60605
 30
0.0
 10
278.7701
 20
-173.54312
 30
0.0
 10
279.18459
 20
-173.51953
 30
0.0
 10
279.18459
 20
-173.51953
 30
0.0
 10
282.51018
 20
-173.33043
 30
0.0
 10
283.6927
 20
-174.75677
 30
0.0
 10
286.12514
 20
-176.51649
 30
0.0
 10
286.12514
 20
-176.51649
 30
0.0
 10
286.18439
 20
-176.55935
 30
0.0
 10
286.24485
 20
-176.59994
 30
0.0
 10
286.30585
 20
-176.6395
 30
0.0
 10
286.30585
 20
-176.6395
 30
0.0
 10
286.76523
 20
-177.17965
 30
0.0
 10
287.66346
 20
-177.54655
 30
0.0
 10
288.69638
 20
-177.54655
 30
0.0
 10
288.69638
 20
-177.54655
 30
0.0
 10
289.87556
 20
-177.54655
 30
0.0
 10
290.8791
 20
-177.06837
 30
0.0
 10
291.25467
 20
-176.40014
 30
0.0
 10
291.25467
 20
-176.40014
 30
0.0
 10
291.25467
 20
-176.40014
 30
0.0
 10
288.66107
 20
-176.40014
 30
0.0
 10
288.66107
 20
-176.40014
 30
0.0
 10
288.66107
 20
-176.40014
 30
0.0
 10
288.66107
 20
-176.40014
 30
0.0
 10
288.66107
 20
-175.80014
 30
0.0
 10
288.66107
 20
-175.80014
 30
0.0
 10
288.66107
 20
-175.80014
 30
0.0
 10
288.66107
 20
-175.80014
 30
0.0
 10
291.41242
 20
-175.80014
 30
0.0
 10
291.41242
 20
-175.80014
 30
0.0
 10
291.41242
 20
-175.80014
 30
0.0
 10
291.39747
 20
-174.85899
 30
0.0
 10
290.20077
 20
-174.09806
 30
0.0
 10
288.72145
 20
-174.08953
 30
0.0
  0
SPLINE
  5
87
330
1F
100
AcDbEntity
  8
layer 1
 62
   250
370
    20
100
AcDbSpline
210
0.0
220
0.0
230
1.0
 70
    11
 71
     3
 72
    52
 73
    48
 74
     0
 42
0.000000001
 43
0.0000000001
 40
0.0
 40
0.0
 40
0.0
 40
0.0
 40
0.0769230769230769
 40
0.0769230769230769
 40
0.0769230769230769
 40
0.0769230769230769
 40
0.1538461538461539
 40
0.1538461538461539
 40
0.1538461538461539
 40
0.1538461538461539
 40
0.2307692307692308
 40
0.2307692307692308
 40
0.2307692307692308
 40
0.2307692307692308
 40
0.3076923076923077
 40
0.3076923076923077
 40
0.3076923076923077
 40
0.3076923076923077
 40
0.3846153846153846
 40
0.3846153846153846
 40
0.3846153846153846
 40
0.3846153846153846
 40
0.4615384615384616
 40
0.4615384615384616
 40
0.4615384615384616
 40
0.4615384615384616
 40
0.5384615384615384
 40
0.5384615384615384
 40
0.5384615384615384
 40
0.5384615384615384
 40
0.6153846153846154
 40
0.6153846153846154
 40
0.6153846153846154
 40
0.6153846153846154
 40
0.6923076923076923
 40
0.6923076923076923
 40
0.6923076923076923
 40
0.6923076923076923
 40
0.7692307692307693
 40
0.7692307692307693
 40
0.7692307692307693
 40
0.7692307692307693
 40
0.8461538461538461
 40
0.8461538461538461
 40
0.8461538461538461
 40
0.8461538461538461
 40
1.0
 40
1.0
 40
1.0
 40
1.0
 10
320.08724
 20
-184.66787
 30
0.0
 10
320.08724
 20
-184.66787
 30
0.0
 10
320.45165
 20
-184.66787
 30
0.0
 10
320.45165
 20
-184.66787
 30
0.0
 10
320.45165
 20
-184.66787
 30
0.0
 10
320.45165
 20
-184.66787
 30
0.0
 10
320.45165
 20
-185.66787
 30
0.0
 10
320.45165
 20
-185.66787
 30
0.0
 10
320.45165
 20
-185.66787
 30
0.0
 10
320.45165
 20
-185.66787
 30
0.0
 10
320.08724
 20
-185.66787
 30
0.0
 10
320.08724
 20
-185.66787
 30
0.0
 10
320.08724
 20
-185.66787
 30
0.0
 10
320.08724
 20
-185.66787
 30
0.0
 10
320.08724
 20
-186.08887
 30
0.0
 10
320.08724
 20
-186.08887
 30
0.0
 10
320.08724
 20
-186.08887
 30
0.0
 10
320.08724
 20
-186.08887
 30
0.0
 10
315.19724
 20
-186.08887
 30
0.0
 10
315.19724
 20
-186.08887
 30
0.0
 10
315.19724
 20
-186.08887
 30
0.0
 10
315.19724
 20
-186.08887
 30
0.0
 10
315.19724
 20
-185.66787
 30
0.0
 10
315.19724
 20
-185.66787
 30
0.0
 10
315.19724
 20
-185.66787
 30
0.0
 10
315.19724
 20
-185.66787
 30
0.0
 10
314.8492
 20
-185.66787
 30
0.0
 10
314.8492
 20
-185.66787
 30
0.0
 10
314.8492
 20
-185.66787
 30
0.0
 10
314.8492
 20
-185.66787
 30
0.0
 10
314.8492
 20
-184.66787
 30
0.0
 10
314.8492
 20
-184.66787
 30
0.0
 10
314.8492
 20
-184.66787
 30
0.0
 10
314.8492
 20
-184.66787
 30
0.0
 10
315.19724
 20
-184.66787
 30
0.0
 10
315.19724
 20
-184.66787
 30
0.0
 10
315.19724
 20
-184.66787
 30
0.0
 10
315.19724
 20
-184.66787
 30
0.0
 10
315.19724
 20
-184.24687
 30
0.0
 10
315.19724
 20
-184.24687
 30
0.0
 10
315.19724
 20
-184.24687
 30
0.0
 10
315.19724
 20
-184.24687
 30
0.0
 10
320.08724
 20
-184.24687
 30
0.0
 10
320.08724
 20
-184.24687
 30
0.0
 10
320.08724
 20
-184.24687
 30
0.0
 10
320.08724
 20
-184.24687
 30
0.0
 10
320.08724
 20
-184.66787
 30
0.0
 10
320.08724
 20
-184.66787
 30
0.0
  0
SPLINE
  5
88
330
1F
100
AcDbEntity
  8
layer 1
 62
   250
370
    20
100
AcDbSpline
210
0.0
220
0.0
230
1.0
 70
    11
 71
     3
 72
    52
 73
    48
 74
     0
 42
0.000000001
 43
0.0000000001
 40
0.0
 40
0.0
 40
0.0
 40
0.0
 40
0.0769230769230769
 40
0.0769230769230769
 40
0.0769230769230769
 40
0.0769230769230769
 40
0.1538461538461539
 40
0.1538461538461539
 40
0.1538461538461539
 40
0.1538461538461539
 40
0.2307692307692308
 40
0.2307692307692308
 40
0.2307692307692308
 40
0.2307692307692308
 40
0.3076923076923077
 40
0.3076923076923077
 40
0.3076923076923077
 40
0.3076923076923077
 40
0.3846153846153846
 40
0.3846153846153846
 40
0.3846153846153846
 40
0.3846153846153846
 40
0.4615384615384616
 40
0.4615384615384616
 40
0.4615384615384616
 40
0.4615384615384616
 40
0.5384615384615384
 40
0.5384615384615384
 40
0.5384615384615384
 40
0.5384615384615384
 40
0.6153846153846154
 40
0.6153846153846154
 40
0.6153846153846154
 40
0.6153846153846154
 40
0.6923076923076923
 40
0.6923076923076923
 40
0.6923076923076923
 40
0.6923076923076923
 40
0.7692307692307693
 40
0.7692307692307693
 40
0.7692307692307693
 40
0.7692307692307693
 40
0.8461538461538461
 40
0.8461538461538461
 40
0.8461538461538461
 40
0.8461538461538461
 40
1.0
 40
1.0
 40
1.0
 40
1.0
 10
320.08724
 20
-182.43692
 30
0.0
 10
320.08724
 20
-182.43692
 30
0.0
 10
320.45165
 20
-182.43692
 30
0.0
 10
320.45165
 20
-182.43692
 30
0.0
 10
320.45165
 20
-182.43692
 30
0.0
 10
320.45165
 20
-182.43692
 30
0.0
 10
320.45165
 20
-183.43692
 30
0.0
 10
320.45165
 20
-183.43692
 30
0.0
 10
320.45165
 20
-183.43692
 30
0.0
 10
320.45165
 20
-183.43692
 30
0.0
 10
320.08724
 20
-183.43692
 30
0.0
 10
320.08724
 20
-183.43692
 30
0.0
 10
320.08724
 20
-183.43692
 30
0.0
 10
320.08724
 20
-183.43692
 30
0.0
 10
320.08724
 20
-183.85792
 30
0.0
 10
320.08724
 20
-183.85792
 30
0.0
 10
320.08724
 20
-183.85792
 30
0.0
 10
320.08724
 20
-183.85792
 30
0.0
 10
315.19724
 20
-183.85792
 30
0.0
 10
315.19724
 20
-183.85792
 30
0.0
 10
315.19724
 20
-183.85792
 30
0.0
 10
315.19724
 20
-183.85792
 30
0.0
 10
315.19724
 20
-183.43692
 30
0.0
 10
315.19724
 20
-183.43692
 30
0.0
 10
315.19724
 20
-183.43692
 30
0.0
 10
315.19724
 20
-183.43692
 30
0.0
 10
314.8492
 20
-183.43692
 30
0.0
 10
314.8492
 20
-183.43692
 30
0.0
 10
314.8492
 20
-183.43692
 30
0.0
 10
314.8492
 20
-183.43692
 30
0.0
 10
314.8492
 20
-182.43692
 30
0.0
 10
314.8492
 20
-182.43692
 30
0.0
 10
314.8492
 20
-182.43692
 30
0.0
 10
314.8492
 20
-182.43692
 30
0.0
 10
315.19724
 20
-182.43692
 30
0.0
 10
315.19724
 20
-182.43692
 30
0.0
 10
315.19724
 20
-182.43692
 30
0.0
 10
315.19724
 20
-182.43692
 30
0.0
 10
315.19724
 20
-182.01592
 30
0.0
 10
315.19724
 20
-182.01592
 30
0.0
 10
315.19724
 20
-182.01592
 30
0.0
 10
315.19724
 20
-182.01592
 30
0.0
 10
320.08724
 20
-182.01592
 30
0.0
 10
320.08724
 20
-182.01592
 30
0.0
 10
320.08724
 20
-182.01592
 30
0.0
 10
320.08724
 20
-182.01592
 30
0.0
 10
320.08724
 20
-182.43692
 30
0.0
 10
320.08724
 20
-182.43692
 30
0.0
  0
SPLINE
  5
89
330
1F
100
AcDbEntity
  8
layer 1
 62
   250
370
    20
100
AcDbSpline
210
0.0
220
0.0
230
1.0
 70
    11
 71
     3
 72
    52
 73
    48
 74
     0
 42
0.000000001
 43
0.0000000001
 40
0.0
 40
0.0
 40
0.0
 40
0.0
 40
0.0769230769230769
 40
0.0769230769230769
 40
0.0769230769230769
 40
0.0769230769230769
 40
0.1538461538461539
 40
0.1538461538461539
 40
0.1538461538461539
 40
0.1538461538461539
 40
0.2307692307692308
 40
0.2307692307692308
 40
0.2307692307692308
 40
0.2307692307692308
 40
0.3076923076923077
 40
0.3076923076923077
 40
0.3076923076923077
 40
0.3076923076923077
 40
0.3846153846153846
 40
0.3846153846153846
 40
0.3846153846153846
 40
0.3846153846153846
 40
0.4615384615384616
 40
0.4615384615384616
 40
0.4615384615384616
 40
0.4615384615384616
 40
0.5384615384615384
 40
0.5384615384615384
 40
0.5384615384615384
 40
0.5384615384615384
 40
0.6153846153846154
 40
0.6153846153846154
 40
0.6153846153846154
 40
0.6153846153846154
 40
0.6923076923076923
 40
0.6923076923076923
 40
0.6923076923076923
 40
0.6923076923076923
 40
0.7692307692307693
 40
0.7692307692307693
 40
0.7692307692307693
 40
0.7692307692307693
 40
0.8461538461538461
 40
0.8461538461538461
 40
0.8461538461538461
 40
0.8461538461538461
 40
1.0
 40
1.0
 40
1.0
 40
1.0
 10
320.08724
 20
-180.40844
 30
0.0
 10
320.08724
 20
-180.40844
 30
0.0
 10
320.45165
 20
-180.40844
 30
0.0
 10
320.45165
 20
-180.40844
 30
0.0
 10
320.45165
 20
-180.40844
 30
0.0
 10
320.45165
 20
-180.40844
 30
0.0
 10
320.45165
 20
-181.40844
 30
0.0
 10
320.45165
 20
-181.40844
 30
0.0
 10
320.45165
 20
-181.40844
 30
0.0
 10
320.45165
 20
-181.40844
 30
0.0
 10
320.08724
 20
-181.40844
 30
0.0
 10
320.08724
 20
-181.40844
 30
0.0
 10
320.08724
 20
-181.40844
 30
0.0
 10
320.08724
 20
-181.40844
 30
0.0
 10
320.08724
 20
-181.82944
 30
0.0
 10
320.08724
 20
-181.82944
 30
0.0
 10
320.08724
 20
-181.82944
 30
0.0
 10
320.08724
 20
-181.82944
 30
0.0
 10
315.19724
 20
-181.82944
 30
0.0
 10
315.19724
 20
-181.82944
 30
0.0
 10
315.19724
 20
-181.82944
 30
0.0
 10
315.19724
 20
-181.82944
 30
0.0
 10
315.19724
 20
-181.40844
 30
0.0
 10
315.19724
 20
-181.40844
 30
0.0
 10
315.19724
 20
-181.40844
 30
0.0
 10
315.19724
 20
-181.40844
 30
0.0
 10
314.8492
 20
-181.40844
 30
0.0
 10
314.8492
 20
-181.40844
 30
0.0
 10
314.8492
 20
-181.40844
 30
0.0
 10
314.8492
 20
-181.40844
 30
0.0
 10
314.8492
 20
-180.40844
 30
0.0
 10
314.8492
 20
-180.40844
 30
0.0
 10
314.8492
 20
-180.40844
 30
0.0
 10
314.8492
 20
-180.40844
 30
0.0
 10
315.19724
 20
-180.40844
 30
0.0
 10
315.19724
 20
-180.40844
 30
0.0
 10
315.19724
 20
-180.40844
 30
0.0
 10
315.19724
 20
-180.40844
 30
0.0
 10
315.19724
 20
-179.98744
 30
0.0
 10
315.19724
 20
-179.98744
 30
0.0
 10
315.19724
 20
-179.98744
 30
0.0
 10
315.19724
 20
-179.98744
 30
0.0
 10
320.08724
 20
-179.98744
 30
0.0
 10
320.08724
 20
-179.98744
 30
0.0
 10
320.08724
 20
-179.98744
 30
0.0
 10
320.08724
 20
-179.98744
 30
0.0
 10
320.08724
 20
-180.40844
 30
0.0
 10
320.08724
 20
-180.40844
 30
0.0
  0
SPLINE
  5
8A
330
1F
100
AcDbEntity
  8
layer 1
 62
   250
370
    20
100
AcDbSpline
210
0.0
220
0.0
230
1.0
 70
    11
 71
     3
 72
    52
 73
    48
 74
     0
 42
0.000000001
 43
0.0000000001
 40
0.0
 40
0.0
 40
0.0
 40
0.0
 40
0.0769230769230769
 40
0.0769230769230769
 40
0.0769230769230769
 40
0.0769230769230769
 40
0.1538461538461539
 40
0.1538461538461539
 40
0.1538461538461539
 40
0.1538461538461539
 40
0.2307692307692308
 40
0.2307692307692308
 40
0.2307692307692308
 40
0.2307692307692308
 40
0.3076923076923077
 40
0.3076923076923077
 40
0.3076923076923077
 40
0.3076923076923077
 40
0.3846153846153846
 40
0.3846153846153846
 40
0.3846153846153846
 40
0.3846153846153846
 40
0.4615384615384616
 40
0.4615384615384616
 40
0.4615384615384616
 40
0.4615384615384616
 40
0.5384615384615384
 40
0.5384615384615384
 40
0.5384615384615384
 40
0.5384615384615384
 40
0.6153846153846154
 40
0.6153846153846154
 40
0.6153846153846154
 40
0.6153846153846154
 40
0.6923076923076923
 40
0.6923076923076923
 40
0.6923076923076923
 40
0.6923076923076923
 40
0.7692307692307693
 40
0.7692307692307693
 40
0.7692307692307693
 40
0.7692307692307693
 40
0.8461538461538461
 40
0.8461538461538461
 40
0.8461538461538461
 40
0.8461538461538461
 40
1.0
 40
1.0
 40
1.0
 40
1.0
 10
313.94891
 20
-186.69635
 30
0.0
 10
313.94891
 20
-186.69635
 30
0.0
 10
314.31332
 20
-186.69635
 30
0.0
 10
314.31332
 20
-186.69635
 30
0.0
 10
314.31332
 20
-186.69635
 30
0.0
 10
314.31332
 20
-186.69635
 30
0.0
 10
314.31332
 20
-187.69635
 30
0.0
 10
314.31332
 20
-187.69635
 30
0.0
 10
314.31332
 20
-187.69635
 30
0.0
 10
314.31332
 20
-187.69635
 30
0.0
 10
313.94891
 20
-187.69635
 30
0.0
 10
313.94891
 20
-187.69635
 30
0.0
 10
313.94891
 20
-187.69635
 30
0.0
 10
313.94891
 20
-187.69635
 30
0.0
 10
313.94891
 20
-188.11735
 30
0.0
 10
313.94891
 20
-188.11735
 30
0.0
 10
313.94891
 20
-188.11735
 30
0.0
 10
313.94891
 20
-188.11735
 30
0.0
 10
309.05891
 20
-188.11735
 30
0.0
 10
309.05891
 20
-188.11735
 30
0.0
 10
309.05891
 20
-188.11735
 30
0.0
 10
309.05891
 20
-188.11735
 30
0.0
 10
309.05891
 20
-187.69635
 30
0.0
 10
309.05891
 20
-187.69635
 30
0.0
 10
309.05891
 20
-187.69635
 30
0.0
 10
309.05891
 20
-187.69635
 30
0.0
 10
308.71087
 20
-187.69635
 30
0.0
 10
308.71087
 20
-187.69635
 30
0.0
 10
308.71087
 20
-187.69635
 30
0.0
 10
308.71087
 20
-187.69635
 30
0.0
 10
308.71087
 20
-186.69635
 30
0.0
 10
308.71087
 20
-186.69635
 30
0.0
 10
308.71087
 20
-186.69635
 30
0.0
 10
308.71087
 20
-186.69635
 30
0.0
 10
309.05891
 20
-186.69635
 30
0.0
 10
309.05891
 20
-186.69635
 30
0.0
 10
309.05891
 20
-186.69635
 30
0.0
 10
309.05891
 20
-186.69635
 30
0.0
 10
309.05891
 20
-186.27535
 30
0.0
 10
309.05891
 20
-186.27535
 30
0.0
 10
309.05891
 20
-186.27535
 30
0.0
 10
309.05891
 20
-186.27535
 30
0.0
 10
313.94891
 20
-186.27535
 30
0.0
 10
313.94891
 20
-186.27535
 30
0.0
 10
313.94891
 20
-186.27535
 30
0.0
 10
313.94891
 20
-186.27535
 30
0.0
 10
313.94891
 20
-186.69635
 30
0.0
 10
313.94891
 20
-186.69635
 30
0.0
  0
SPLINE
  5
8B
330
1F
100
AcDbEntity
  8
layer 1
 62
   250
370
    20
100
AcDbSpline
210
0.0
220
0.0
230
1.0
 70
    11
 71
     3
 72
    52
 73
    48
 74
     0
 42
0.000000001
 43
0.0000000001
 40
0.0
 40
0.0
 40
0.0
 40
0.0
 40
0.0769230769230769
 40
0.0769230769230769
 40
0.0769230769230769
 40
0.0769230769230769
 40
0.1538461538461539
 40
0.1538461538461539
 40
0.1538461538461539
 40
0.1538461538461539
 40
0.2307692307692308
 40
0.2307692307692308
 40
0.2307692307692308
 40
0.2307692307692308
 40
0.3076923076923077
 40
0.3076923076923077
 40
0.3076923076923077
 40
0.3076923076923077
 40
0.3846153846153846
 40
0.3846153846153846
 40
0.3846153846153846
 40
0.3846153846153846
 40
0.4615384615384616
 40
0.4615384615384616
 40
0.4615384615384616
 40
0.4615384615384616
 40
0.5384615384615384
 40
0.5384615384615384
 40
0.5384615384615384
 40
0.5384615384615384
 40
0.6153846153846154
 40
0.6153846153846154
 40
0.6153846153846154
 40
0.6153846153846154
 40
0.6923076923076923
 40
0.6923076923076923
 40
0.6923076923076923
 40
0.6923076923076923
 40
0.7692307692307693
 40
0.7692307692307693
 40
0.7692307692307693
 40
0.7692307692307693
 40
0.8461538461538461
 40
0.8461538461538461
 40
0.8461538461538461
 40
0.8461538461538461
 40
1.0
 40
1.0
 40
1.0
 40
1.0
 10
313.94891
 20
-184.66787
 30
0.0
 10
313.94891
 20
-184.66787
 30
0.0
 10
314.31332
 20
-184.66787
 30
0.0
 10
314.31332
 20
-184.66787
 30
0.0
 10
314.31332
 20
-184.66787
 30
0.0
 10
314.31332
 20
-184.66787
 30
0.0
 10
314.31332
 20
-185.66787
 30
0.0
 10
314.31332
 20
-185.66787
 30
0.0
 10
314.31332
 20
-185.66787
 30
0.0
 10
314.31332
 20
-185.66787
 30
0.0
 10
313.94891
 20
-185.66787
 30
0.0
 10
313.94891
 20
-185.66787
 30
0.0
 10
313.94891
 20
-185.66787
 30
0.0
 10
313.94891
 20
-185.66787
 30
0.0
 10
313.94891
 20
-186.08887
 30
0.0
 10
313.94891
 20
-186.08887
 30
0.0
 10
313.94891
 20
-186.08887
 30
0.0
 10
313.94891
 20
-186.08887
 30
0.0
 10
309.05891
 20
-186.08887
 30
0.0
 10
309.05891
 20
-186.08887
 30
0.0
 10
309.05891
 20
-186.08887
 30
0.0
 10
309.05891
 20
-186.08887
 30
0.0
 10
309.05891
 20
-185.66787
 30
0.0
 10
309.05891
 20
-185.66787
 30
0.0
 10
309.05891
 20
-185.66787
 30
0.0
 10
309.05891
 20
-185.66787
 30
0.0
 10
308.71087
 20
-185.66787
 30
0.0
 10
308.71087
 20
-185.66787
 30
0.0
 10
308.71087
 20
-185.66787
 30
0.0
 10
308.71087
 20
-185.66787
 30
0.0
 10
308.71087
 20
-184.66787
 30
0.0
 10
308.71087
 20
-184.66787
 30
0.0
 10
308.71087
 20
-184.66787
 30
0.0
 10
308.71087
 20
-184.66787
 30
0.0
 10
309.05891
 20
-184.66787
 30
0.0
 10
309.05891
 20
-184.66787
 30
0.0
 10
309.05891
 20
-184.66787
 30
0.0
 10
309.05891
 20
-184.66787
 30
0.0
 10
309.05891
 20
-184.24687
 30
0.0
 10
309.05891
 20
-184.24687
 30
0.0
 10
309.05891
 20
-184.24687
 30
0.0
 10
309.05891
 20
-184.24687
 30
0.0
 10
313.94891
 20
-184.24687
 30
0.0
 10
313.94891
 20
-184.24687
 30
0.0
 10
313.94891
 20
-184.24687
 30
0.0
 10
313.94891
 20
-184.24687
 30
0.0
 10
313.94891
 20
-184.66787
 30
0.0
 10
313.94891
 20
-184.66787
 30
0.0
  0
SPLINE
  5
8C
330
1F
100
AcDbEntity
  8
layer 1
 62
   250
370
    20
100
AcDbSpline
210
0.0
220
0.0
230
1.0
 70
    11
 71
     3
 72
    52
 73
    48
 74
     0
 42
0.000000001
 43
0.0000000001
 40
0.0
 40
0.0
 40
0.0
 40
0.0
 40
0.0769230769230769
 40
0.0769230769230769
 40
0.0769230769230769
 40
0.0769230769230769
 40
0.1538461538461539
 40
0.1538461538461539
 40
0.1538461538461539
 40
0.1538461538461539
 40
0.2307692307692308
 40
0.2307692307692308
 40
0.2307692307692308
 40
0.2307692307692308
 40
0.3076923076923077
 40
0.3076923076923077
 40
0.3076923076923077
 40
0.3076923076923077
 40
0.3846153846153846
 40
0.3846153846153846
 40
0.3846153846153846
 40
0.3846153846153846
 40
0.4615384615384616
 40
0.4615384615384616
 40
0.4615384615384616
 40
0.4615384615384616
 40
0.5384615384615384
 40
0.5384615384615384
 40
0.5384615384615384
 40
0.5384615384615384
 40
0.6153846153846154
 40
0.6153846153846154
 40
0.6153846153846154
 40
0.6153846153846154
 40
0.6923076923076923
 40
0.6923076923076923
 40
0.6923076923076923
 40
0.6923076923076923
 40
0.7692307692307693
 40
0.7692307692307693
 40
0.7692307692307693
 40
0.7692307692307693
 40
0.8461538461538461
 40
0.8461538461538461
 40
0.8461538461538461
 40
0.8461538461538461
 40
1.0
 40
1.0
 40
1.0
 40
1.0
 10
313.94891
 20
-182.43692
 30
0.0
 10
313.94891
 20
-182.43692
 30
0.0
 10
314.31332
 20
-182.43692
 30
0.0
 10
314.31332
 20
-182.43692
 30
0.0
 10
314.31332
 20
-182.43692
 30
0.0
 10
314.31332
 20
-182.43692
 30
0.0
 10
314.31332
 20
-183.43692
 30
0.0
 10
314.31332
 20
-183.43692
 30
0.0
 10
314.31332
 20
-183.43692
 30
0.0
 10
314.31332
 20
-183.43692
 30
0.0
 10
313.94891
 20
-183.43692
 30
0.0
 10
313.94891
 20
-183.43692
 30
0.0
 10
313.94891
 20
-183.43692
 30
0.0
 10
313.94891
 20
-183.43692
 30
0.0
 10
313.94891
 20
-183.85792
 30
0.0
 10
313.94891
 20
-183.85792
 30
0.0
 10
313.94891
 20
-183.85792
 30
0.0
 10
313.94891
 20
-183.85792
 30
0.0
 10
309.05891
 20
-183.85792
 30
0.0
 10
309.05891
 20
-183.85792
 30
0.0
 10
309.05891
 20
-183.85792
 30
0.0
 10
309.05891
 20
-183.85792
 30
0.0
 10
309.05891
 20
-183.43692
 30
0.0
 10
309.05891
 20
-183.43692
 30
0.0
 10
309.05891
 20
-183.43692
 30
0.0
 10
309.05891
 20
-183.43692
 30
0.0
 10
308.71087
 20
-183.43692
 30
0.0
 10
308.71087
 20
-183.43692
 30
0.0
 10
308.71087
 20
-183.43692
 30
0.0
 10
308.71087
 20
-183.43692
 30
0.0
 10
308.71087
 20
-182.43692
 30
0.0
 10
308.71087
 20
-182.43692
 30
0.0
 10
308.71087
 20
-182.43692
 30
0.0
 10
308.71087
 20
-182.43692
 30
0.0
 10
309.05891
 20
-182.43692
 30
0.0
 10
309.05891
 20
-182.43692
 30
0.0
 10
309.05891
 20
-182.43692
 30
0.0
 10
309.05891
 20
-182.43692
 30
0.0
 10
309.05891
 20
-182.01592
 30
0.0
 10
309.05891
 20
-182.01592
 30
0.0
 10
309.05891
 20
-182.01592
 30
0.0
 10
309.05891
 20
-182.01592
 30
0.0
 10
313.94891
 20
-182.01592
 30
0.0
 10
313.94891
 20
-182.01592
 30
0.0
 10
313.94891
 20
-182.01592
 30
0.0
 10
313.94891
 20
-182.01592
 30
0.0
 10
313.94891
 20
-182.43692
 30
0.0
 10
313.94891
 20
-182.43692
 30
0.0
  0
SPLINE
  5
8D
330
1F
100
AcDbEntity
  8
layer 1
 62
   250
370
    20
100
AcDbSpline
210
0.0
220
0.0
230
1.0
 70
    11
 71
     3
 72
    52
 73
    48
 74
     0
 42
0.000000001
 43
0.0000000001
 40
0.0
 40
0.0
 40
0.0
 40
0.0
 40
0.0769230769230769
 40
0.0769230769230769
 40
0.0769230769230769
 40
0.0769230769230769
 40
0.1538461538461539
 40
0.1538461538461539
 40
0.1538461538461539
 40
0.1538461538461539
 40
0.2307692307692308
 40
0.2307692307692308
 40
0.2307692307692308
 40
0.2307692307692308
 40
0.3076923076923077
 40
0.3076923076923077
 40
0.3076923076923077
 40
0.3076923076923077
 40
0.3846153846153846
 40
0.3846153846153846
 40
0.3846153846153846
 40
0.3846153846153846
 40
0.4615384615384616
 40
0.4615384615384616
 40
0.4615384615384616
 40
0.4615384615384616
 40
0.5384615384615384
 40
0.5384615384615384
 40
0.5384615384615384
 40
0.5384615384615384
 40
0.6153846153846154
 40
0.6153846153846154
 40
0.6153846153846154
 40
0.6153846153846154
 40
0.6923076923076923
 40
0.6923076923076923
 40
0.6923076923076923
 40
0.6923076923076923
 40
0.7692307692307693
 40
0.7692307692307693
 40
0.7692307692307693
 40
0.7692307692307693
 40
0.8461538461538461
 40
0.8461538461538461
 40
0.8461538461538461
 40
0.8461538461538461
 40
1.0
 40
1.0
 40
1.0
 40
1.0
 10
313.94891
 20
-180.40844
 30
0.0
 10
313.94891
 20
-180.40844
 30
0.0
 10
314.31332
 20
-180.40844
 30
0.0
 10
314.31332
 20
-180.40844
 30
0.0
 10
314.31332
 20
-180.40844
 30
0.0
 10
314.31332
 20
-180.40844
 30
0.0
 10
314.31332
 20
-181.40844
 30
0.0
 10
314.31332
 20
-181.40844
 30
0.0
 10
314.31332
 20
-181.40844
 30
0.0
 10
314.31332
 20
-181.40844
 30
0.0
 10
313.94891
 20
-181.40844
 30
0.0
 10
313.94891
 20
-181.40844
 30
0.0
 10
313.94891
 20
-181.40844
 30
0.0
 10
313.94891
 20
-181.40844
 30
0.0
 10
313.94891
 20
-181.82944
 30
0.0
 10
313.94891
 20
-181.82944
 30
0.0
 10
313.94891
 20
-181.82944
 30
0.0
 10
313.94891
 20
-181.82944
 30
0.0
 10
309.05891
 20
-181.82944
 30
0.0
 10
309.05891
 20
-181.82944
 30
0.0
 10
309.05891
 20
-181.82944
 30
0.0
 10
309.05891
 20
-181.82944
 30
0.0
 10
309.05891
 20
-181.40844
 30
0.0
 10
309.05891
 20
-181.40844
 30
0.0
 10
309.05891
 20
-181.40844
 30
0.0
 10
309.05891
 20
-181.40844
 30
0.0
 10
308.71087
 20
-181.40844
 30
0.0
 10
308.71087
 20
-181.40844
 30
0.0
 10
308.71087
 20
-181.40844
 30
0.0
 10
308.71087
 20
-181.40844
 30
0.0
 10
308.71087
 20
-180.40844
 30
0.0
 10
308.71087
 20
-180.40844
 30
0.0
 10
308.71087
 20
-180.40844
 30
0.0
 10
308.71087
 20
-180.40844
 30
0.0
 10
309.05891
 20
-180.40844
 30
0.0
 10
309.05891
 20
-180.40844
 30
0.0
 10
309.05891
 20
-180.40844
 30
0.0
 10
309.05891
 20
-180.40844
 30
0.0
 10
309.05891
 20
-179.98744
 30
0.0
 10
309.05891
 20
-179.98744
 30
0.0
 10
309.05891
 20
-179.98744
 30
0.0
 10
309.05891
 20
-179.98744
 30
0.0
 10
313.94891
 20
-179.98744
 30
0.0
 10
313.94891
 20
-179.98744
 30
0.0
 10
313.94891
 20
-179.98744
 30
0.0
 10
313.94891
 20
-179.98744
 30
0.0
 10
313.94891
 20
-180.40844
 30
0.0
 10
313.94891
 20
-180.40844
 30
0.0
  0
SPLINE
  5
8E
330
1F
100
AcDbEntity
  8
layer 1
 62
   250
370
    20
100
AcDbSpline
210
0.0
220
0.0
230
1.0
 70
    11
 71
     3
 72
   112
 73
   108
 74
     0
 42
0.000000001
 43
0.0000000001
 40
0.0
 40
0.0
 40
0.0
 40
0.0
 40
0.0357142857142857
 40
0.0357142857142857
 40
0.0357142857142857
 40
0.0357142857142857
 40
0.0714285714285714
 40
0.0714285714285714
 40
0.0714285714285714
 40
0.0714285714285714
 40
0.1071428571428571
 40
0.1071428571428571
 40
0.1071428571428571
 40
0.1071428571428571
 40
0.1428571428571428
 40
0.1428571428571428
 40
0.1428571428571428
 40
0.1428571428571428
 40
0.1785714285714286
 40
0.1785714285714286
 40
0.1785714285714286
 40
0.1785714285714286
 40
0.2142857142857143
 40
0.2142857142857143
 40
0.2142857142857143
 40
0.2142857142857143
 40
0.25
 40
0.25
 40
0.25
 40
0.25
 40
0.2857142857142857
 40
0.2857142857142857
 40
0.2857142857142857
 40
0.2857142857142857
 40
0.3214285714285715
 40
0.3214285714285715
 40
0.3214285714285715
 40
0.3214285714285715
 40
0.3571428571428572
 40
0.3571428571428572
 40
0.3571428571428572
 40
0.3571428571428572
 40
0.3928571428571428
 40
0.3928571428571428
 40
0.3928571428571428
 40
0.3928571428571428
 40
0.4285714285714285
 40
0.4285714285714285
 40
0.4285714285714285
 40
0.4285714285714285
 40
0.4642857142857143
 40
0.4642857142857143
 40
0.4642857142857143
 40
0.4642857142857143
 40
0.5
 40
0.5
 40
0.5
 40
0.5
 40
0.5357142857142857
 40
0.5357142857142857
 40
0.5357142857142857
 40
0.5357142857142857
 40
0.5714285714285714
 40
0.5714285714285714
 40
0.5714285714285714
 40
0.5714285714285714
 40
0.6071428571428571
 40
0.6071428571428571
 40
0.6071428571428571
 40
0.6071428571428571
 40
0.6428571428571429
 40
0.6428571428571429
 40
0.6428571428571429
 40
0.6428571428571429
 40
0.6785714285714286
 40
0.6785714285714286
 40
0.6785714285714286
 40
0.6785714285714286
 40
0.7142857142857143
 40
0.7142857142857143
 40
0.7142857142857143
 40
0.7142857142857143
 40
0.75
 40
0.75
 40
0.75
 40
0.75
 40
0.7857142857142857
 40
0.7857142857142857
 40
0.7857142857142857
 40
0.7857142857142857
 40
0.8214285714285714
 40
0.8214285714285714
 40
0.8214285714285714
 40
0.8214285714285714
 40
0.8571428571428571
 40
0.8571428571428571
 40
0.8571428571428571
 40
0.8571428571428571
 40
0.8928571428571429
 40
0.8928571428571429
 40
0.8928571428571429
 40
0.8928571428571429
 40
0.9285714285714286
 40
0.9285714285714286
 40
0.9285714285714286
 40
0.9285714285714286
 40
1.0
 40
1.0
 40
1.0
 40
1.0
 10
298.14286
 20
-163.45218
 30
0.0
 10
294.69288
 20
-161.26765
 30
0.0
 10
293.41296
 20
-160.62736
 30
0.0
 10
289.25131
 20
-160.92114
 30
0.0
 10
289.25131
 20
-160.92114
 30
0.0
 10
288.86829
 20
-160.94819
 30
0.0
 10
288.51013
 20
-160.889
 30
0.0
 10
288.14977
 20
-160.79991
 30
0.0
 10
288.14977
 20
-160.79991
 30
0.0
 10
287.78941
 20
-160.71082
 30
0.0
 10
287.42685
 20
-160.59184
 30
0.0
 10
286.89275
 20
-160.62422
 30
0.0
 10
286.89275
 20
-160.62422
 30
0.0
 10
286.35866
 20
-160.6566
 30
0.0
 10
285.65302
 20
-160.84037
 30
0.0
 10
284.87811
 20
-161.65358
 30
0.0
 10
284.87811
 20
-161.65358
 30
0.0
 10
284.1032
 20
-162.4668
 30
0.0
 10
283.25901
 20
-163.90946
 30
0.0
 10
282.65906
 20
-165.08904
 30
0.0
 10
282.65906
 20
-165.08904
 30
0.0
 10
281.94262
 20
-166.49766
 30
0.0
 10
279.03975
 20
-171.18011
 30
0.0
 10
282.79845
 20
-171.01822
 30
0.0
 10
282.79845
 20
-171.01822
 30
0.0
 10
283.21452
 20
-171.00031
 30
0.0
 10
283.61613
 20
-170.86438
 30
0.0
 10
283.98626
 20
-170.61513
 30
0.0
 10
283.98626
 20
-170.61513
 30
0.0
 10
284.3564
 20
-170.36589
 30
0.0
 10
284.69508
 20
-170.00334
 30
0.0
 10
284.94153
 20
-169.66029
 30
0.0
 10
284.94153
 20
-169.66029
 30
0.0
 10
285.18798
 20
-169.31726
 30
0.0
 10
285.34221
 20
-168.99373
 30
0.0
 10
285.31736
 20
-168.86028
 30
0.0
 10
285.31736
 20
-168.86028
 30
0.0
 10
285.2925
 20
-168.72684
 30
0.0
 10
285.08856
 20
-168.78347
 30
0.0
 10
284.87895
 20
-168.84169
 30
0.0
 10
284.87895
 20
-168.84169
 30
0.0
 10
284.66933
 20
-168.8999
 30
0.0
 10
284.45406
 20
-168.95969
 30
0.0
 10
284.26522
 20
-168.9389
 30
0.0
 10
284.26522
 20
-168.9389
 30
0.0
 10
284.07638
 20
-168.91812
 30
0.0
 10
283.91399
 20
-168.81676
 30
0.0
 10
283.79093
 20
-168.63736
 30
0.0
 10
283.79093
 20
-168.63736
 30
0.0
 10
283.66789
 20
-168.45796
 30
0.0
 10
283.58419
 20
-168.2005
 30
0.0
 10
283.84828
 20
-167.54745
 30
0.0
 10
283.84828
 20
-167.54745
 30
0.0
 10
284.11238
 20
-166.8944
 30
0.0
 10
284.72428
 20
-165.84577
 30
0.0
 10
285.06925
 20
-165.28619
 30
0.0
 10
285.06925
 20
-165.28619
 30
0.0
 10
285.41423
 20
-164.72662
 30
0.0
 10
285.49229
 20
-164.65613
 30
0.0
 10
285.6934
 20
-164.54536
 30
0.0
 10
285.6934
 20
-164.54536
 30
0.0
 10
285.89452
 20
-164.43458
 30
0.0
 10
286.2187
 20
-164.28354
 30
0.0
 10
286.52431
 20
-164.13154
 30
0.0
 10
286.52431
 20
-164.13154
 30
0.0
 10
286.82992
 20
-163.97955
 30
0.0
 10
287.11697
 20
-163.8266
 30
0.0
 10
287.3162
 20
-163.64313
 30
0.0
 10
287.3162
 20
-163.64313
 30
0.0
 10
287.51544
 20
-163.45965
 30
0.0
 10
287.62686
 20
-163.24564
 30
0.0
 10
287.79588
 20
-163.10717
 30
0.0
 10
287.79588
 20
-163.10717
 30
0.0
 10
287.9649
 20
-162.9687
 30
0.0
 10
288.19151
 20
-162.90577
 30
0.0
 10
288.606
 20
-162.88218
 30
0.0
 10
288.606
 20
-162.88218
 30
0.0
 10
291.93159
 20
-162.69308
 30
0.0
 10
293.11411
 20
-164.11942
 30
0.0
 10
295.54655
 20
-165.87914
 30
0.0
 10
295.54655
 20
-165.87914
 30
0.0
 10
295.6058
 20
-165.922
 30
0.0
 10
295.66626
 20
-165.96259
 30
0.0
 10
295.72726
 20
-166.00215
 30
0.0
 10
295.72726
 20
-166.00215
 30
0.0
 10
296.18664
 20
-166.5423
 30
0.0
 10
297.08487
 20
-166.9092
 30
0.0
 10
298.11779
 20
-166.9092
 30
0.0
 10
298.11779
 20
-166.9092
 30
0.0
 10
299.29697
 20
-166.9092
 30
0.0
 10
300.30051
 20
-166.43102
 30
0.0
 10
300.67608
 20
-165.76279
 30
0.0
 10
300.67608
 20
-165.76279
 30
0.0
 10
300.67608
 20
-165.76279
 30
0.0
 10
298.08248
 20
-165.76279
 30
0.0
 10
298.08248
 20
-165.76279
 30
0.0
 10
298.08248
 20
-165.76279
 30
0.0
 10
298.08248
 20
-165.76279
 30
0.0
 10
298.08248
 20
-165.16279
 30
0.0
 10
298.08248
 20
-165.16279
 30
0.0
 10
298.08248
 20
-165.16279
 30
0.0
 10
298.08248
 20
-165.16279
 30
0.0
 10
300.83383
 20
-165.16279
 30
0.0
 10
300.83383
 20
-165.16279
 30
0.0
 10
300.83383
 20
-165.16279
 30
0.0
 10
300.81888
 20
-164.22164
 30
0.0
 10
299.62218
 20
-163.46071
 30
0.0
 10
298.14286
 20
-163.45218
 30
0.0
  0
SPLINE
  5
8F
330
1F
100
AcDbEntity
  8
layer 1
 62
   250
370
    20
100
AcDbSpline
210
0.0
220
0.0
230
1.0
 70
    11
 71
     3
 72
   112
 73
   108
 74
     0
 42
0.000000001
 43
0.0000000001
 40
0.0
 40
0.0
 40
0.0
 40
0.0
 40
0.0357142857142857
 40
0.0357142857142857
 40
0.0357142857142857
 40
0.0357142857142857
 40
0.0714285714285714
 40
0.0714285714285714
 40
0.0714285714285714
 40
0.0714285714285714
 40
0.1071428571428571
 40
0.1071428571428571
 40
0.1071428571428571
 40
0.1071428571428571
 40
0.1428571428571428
 40
0.1428571428571428
 40
0.1428571428571428
 40
0.1428571428571428
 40
0.1785714285714286
 40
0.1785714285714286
 40
0.1785714285714286
 40
0.1785714285714286
 40
0.2142857142857143
 40
0.2142857142857143
 40
0.2142857142857143
 40
0.2142857142857143
 40
0.25
 40
0.25
 40
0.25
 40
0.25
 40
0.2857142857142857
 40
0.2857142857142857
 40
0.2857142857142857
 40
0.2857142857142857
 40
0.3214285714285715
 40
0.3214285714285715
 40
0.3214285714285715
 40
0.3214285714285715
 40
0.3571428571428572
 40
0.3571428571428572
 40
0.3571428571428572
 40
0.3571428571428572
 40
0.3928571428571428
 40
0.3928571428571428
 40
0.3928571428571428
 40
0.3928571428571428
 40
0.4285714285714285
 40
0.4285714285714285
 40
0.4285714285714285
 40
0.4285714285714285
 40
0.4642857142857143
 40
0.4642857142857143
 40
0.4642857142857143
 40
0.4642857142857143
 40
0.5
 40
0.5
 40
0.5
 40
0.5
 40
0.5357142857142857
 40
0.5357142857142857
 40
0.5357142857142857
 40
0.5357142857142857
 40
0.5714285714285714
 40
0.5714285714285714
 40
0.5714285714285714
 40
0.5714285714285714
 40
0.6071428571428571
 40
0.6071428571428571
 40
0.6071428571428571
 40
0.6071428571428571
 40
0.6428571428571429
 40
0.6428571428571429
 40
0.6428571428571429
 40
0.6428571428571429
 40
0.6785714285714286
 40
0.6785714285714286
 40
0.6785714285714286
 40
0.6785714285714286
 40
0.7142857142857143
 40
0.7142857142857143
 40
0.7142857142857143
 40
0.7142857142857143
 40
0.75
 40
0.75
 40
0.75
 40
0.75
 40
0.7857142857142857
 40
0.7857142857142857
 40
0.7857142857142857
 40
0.7857142857142857
 40
0.8214285714285714
 40
0.8214285714285714
 40
0.8214285714285714
 40
0.8214285714285714
 40
0.8571428571428571
 40
0.8571428571428571
 40
0.8571428571428571
 40
0.8571428571428571
 40
0.8928571428571429
 40
0.8928571428571429
 40
0.8928571428571429
 40
0.8928571428571429
 40
0.9285714285714286
 40
0.9285714285714286
 40
0.9285714285714286
 40
0.9285714285714286
 40
1.0
 40
1.0
 40
1.0
 40
1.0
 10
293.90953
 20
-181.65551
 30
0.0
 10
290.45955
 20
-179.47098
 30
0.0
 10
289.17963
 20
-178.83069
 30
0.0
 10
285.01798
 20
-179.12447
 30
0.0
 10
285.01798
 20
-179.12447
 30
0.0
 10
284.63496
 20
-179.15152
 30
0.0
 10
284.2768
 20
-179.09233
 30
0.0
 10
283.91644
 20
-179.00324
 30
0.0
 10
283.91644
 20
-179.00324
 30
0.0
 10
283.55608
 20
-178.91415
 30
0.0
 10
283.19352
 20
-178.79517
 30
0.0
 10
282.65942
 20
-178.82755
 30
0.0
 10
282.65942
 20
-178.82755
 30
0.0
 10
282.12533
 20
-178.85993
 30
0.0
 10
281.41969
 20
-179.0437
 30
0.0
 10
280.64478
 20
-179.85691
 30
0.0
 10
280.64478
 20
-179.85691
 30
0.0
 10
279.86987
 20
-180.67013
 30
0.0
 10
279.02568
 20
-182.11279
 30
0.0
 10
278.42573
 20
-183.29237
 30
0.0
 10
278.42573
 20
-183.29237
 30
0.0
 10
277.70929
 20
-184.70099
 30
0.0
 10
274.80642
 20
-189.38344
 30
0.0
 10
278.56512
 20
-189.22155
 30
0.0
 10
278.56512
 20
-189.22155
 30
0.0
 10
278.98119
 20
-189.20364
 30
0.0
 10
279.3828
 20
-189.06771
 30
0.0
 10
279.75293
 20
-188.81846
 30
0.0
 10
279.75293
 20
-188.81846
 30
0.0
 10
280.12307
 20
-188.56922
 30
0.0
 10
280.46175
 20
-188.20667
 30
0.0
 10
280.7082
 20
-187.86362
 30
0.0
 10
280.7082
 20
-187.86362
 30
0.0
 10
280.95465
 20
-187.52059
 30
0.0
 10
281.10888
 20
-187.19706
 30
0.0
 10
281.08403
 20
-187.06361
 30
0.0
 10
281.08403
 20
-187.06361
 30
0.0
 10
281.05917
 20
-186.93017
 30
0.0
 10
280.85523
 20
-186.9868
 30
0.0
 10
280.64562
 20
-187.04502
 30
0.0
 10
280.64562
 20
-187.04502
 30
0.0
 10
280.436
 20
-187.10323
 30
0.0
 10
280.22073
 20
-187.16302
 30
0.0
 10
280.03189
 20
-187.14223
 30
0.0
 10
280.03189
 20
-187.14223
 30
0.0
 10
279.84305
 20
-187.12145
 30
0.0
 10
279.68066
 20
-187.02009
 30
0.0
 10
279.5576
 20
-186.84069
 30
0.0
 10
279.5576
 20
-186.84069
 30
0.0
 10
279.43456
 20
-186.66129
 30
0.0
 10
279.35086
 20
-186.40383
 30
0.0
 10
279.61495
 20
-185.75078
 30
0.0
 10
279.61495
 20
-185.75078
 30
0.0
 10
279.87905
 20
-185.09773
 30
0.0
 10
280.49095
 20
-184.0491
 30
0.0
 10
280.83592
 20
-183.48952
 30
0.0
 10
280.83592
 20
-183.48952
 30
0.0
 10
281.1809
 20
-182.92995
 30
0.0
 10
281.25896
 20
-182.85946
 30
0.0
 10
281.46007
 20
-182.74869
 30
0.0
 10
281.46007
 20
-182.74869
 30
0.0
 10
281.66119
 20
-182.63791
 30
0.0
 10
281.98537
 20
-182.48687
 30
0.0
 10
282.29098
 20
-182.33487
 30
0.0
 10
282.29098
 20
-182.33487
 30
0.0
 10
282.59659
 20
-182.18288
 30
0.0
 10
282.88364
 20
-182.02993
 30
0.0
 10
283.08287
 20
-181.84646
 30
0.0
 10
283.08287
 20
-181.84646
 30
0.0
 10
283.28211
 20
-181.66298
 30
0.0
 10
283.39353
 20
-181.44897
 30
0.0
 10
283.56255
 20
-181.3105
 30
0.0
 10
283.56255
 20
-181.3105
 30
0.0
 10
283.73157
 20
-181.17203
 30
0.0
 10
283.95818
 20
-181.1091
 30
0.0
 10
284.37267
 20
-181.08551
 30
0.0
 10
284.37267
 20
-181.08551
 30
0.0
 10
287.69826
 20
-180.89641
 30
0.0
 10
288.88078
 20
-182.32275
 30
0.0
 10
291.31322
 20
-184.08247
 30
0.0
 10
291.31322
 20
-184.08247
 30
0.0
 10
291.37247
 20
-184.12533
 30
0.0
 10
291.43293
 20
-184.16592
 30
0.0
 10
291.49393
 20
-184.20548
 30
0.0
 10
291.49393
 20
-184.20548
 30
0.0
 10
291.95331
 20
-184.74563
 30
0.0
 10
292.85154
 20
-185.11253
 30
0.0
 10
293.88446
 20
-185.11253
 30
0.0
 10
293.88446
 20
-185.11253
 30
0.0
 10
295.06364
 20
-185.11253
 30
0.0
 10
296.06718
 20
-184.63435
 30
0.0
 10
296.44275
 20
-183.96612
 30
0.0
 10
296.44275
 20
-183.96612
 30
0.0
 10
296.44275
 20
-183.96612
 30
0.0
 10
293.84915
 20
-183.96612
 30
0.0
 10
293.84915
 20
-183.96612
 30
0.0
 10
293.84915
 20
-183.96612
 30
0.0
 10
293.84915
 20
-183.96612
 30
0.0
 10
293.84915
 20
-183.36612
 30
0.0
 10
293.84915
 20
-183.36612
 30
0.0
 10
293.84915
 20
-183.36612
 30
0.0
 10
293.84915
 20
-183.36612
 30
0.0
 10
296.6005
 20
-183.36612
 30
0.0
 10
296.6005
 20
-183.36612
 30
0.0
 10
296.6005
 20
-183.36612
 30
0.0
 10
296.58555
 20
-182.42497
 30
0.0
 10
295.38885
 20
-181.66404
 30
0.0
 10
293.90953
 20
-181.65551
 30
0.0
  0
SPLINE
  5
90
330
1F
100
AcDbEntity
  8
layer 1
 62
   250
370
    20
100
AcDbSpline
210
0.0
220
0.0
230
1.0
 70
    11
 71
     3
 72
   112
 73
   108
 74
     0
 42
0.000000001
 43
0.0000000001
 40
0.0
 40
0.0
 40
0.0
 40
0.0
 40
0.0357142857142857
 40
0.0357142857142857
 40
0.0357142857142857
 40
0.0357142857142857
 40
0.0714285714285714
 40
0.0714285714285714
 40
0.0714285714285714
 40
0.0714285714285714
 40
0.1071428571428571
 40
0.1071428571428571
 40
0.1071428571428571
 40
0.1071428571428571
 40
0.1428571428571428
 40
0.1428571428571428
 40
0.1428571428571428
 40
0.1428571428571428
 40
0.1785714285714286
 40
0.1785714285714286
 40
0.1785714285714286
 40
0.1785714285714286
 40
0.2142857142857143
 40
0.2142857142857143
 40
0.2142857142857143
 40
0.2142857142857143
 40
0.25
 40
0.25
 40
0.25
 40
0.25
 40
0.2857142857142857
 40
0.2857142857142857
 40
0.2857142857142857
 40
0.2857142857142857
 40
0.3214285714285715
 40
0.3214285714285715
 40
0.3214285714285715
 40
0.3214285714285715
 40
0.3571428571428572
 40
0.3571428571428572
 40
0.3571428571428572
 40
0.3571428571428572
 40
0.3928571428571428
 40
0.3928571428571428
 40
0.3928571428571428
 40
0.3928571428571428
 40
0.4285714285714285
 40
0.4285714285714285
 40
0.4285714285714285
 40
0.4285714285714285
 40
0.4642857142857143
 40
0.4642857142857143
 40
0.4642857142857143
 40
0.4642857142857143
 40
0.5
 40
0.5
 40
0.5
 40
0.5
 40
0.5357142857142857
 40
0.5357142857142857
 40
0.5357142857142857
 40
0.5357142857142857
 40
0.5714285714285714
 40
0.5714285714285714
 40
0.5714285714285714
 40
0.5714285714285714
 40
0.6071428571428571
 40
0.6071428571428571
 40
0.6071428571428571
 40
0.6071428571428571
 40
0.6428571428571429
 40
0.6428571428571429
 40
0.6428571428571429
 40
0.6428571428571429
 40
0.6785714285714286
 40
0.6785714285714286
 40
0.6785714285714286
 40
0.6785714285714286
 40
0.7142857142857143
 40
0.7142857142857143
 40
0.7142857142857143
 40
0.7142857142857143
 40
0.75
 40
0.75
 40
0.75
 40
0.75
 40
0.7857142857142857
 40
0.7857142857142857
 40
0.7857142857142857
 40
0.7857142857142857
 40
0.8214285714285714
 40
0.8214285714285714
 40
0.8214285714285714
 40
0.8214285714285714
 40
0.8571428571428571
 40
0.8571428571428571
 40
0.8571428571428571
 40
0.8571428571428571
 40
0.8928571428571429
 40
0.8928571428571429
 40
0.8928571428571429
 40
0.8928571428571429
 40
0.9285714285714286
 40
0.9285714285714286
 40
0.9285714285714286
 40
0.9285714285714286
 40
1.0
 40
1.0
 40
1.0
 40
1.0
 10
310.13731
 20
-172.05996
 30
0.0
 10
306.68733
 20
-169.87543
 30
0.0
 10
305.40741
 20
-169.23514
 30
0.0
 10
301.24576
 20
-169.52892
 30
0.0
 10
301.24576
 20
-169.52892
 30
0.0
 10
300.86274
 20
-169.55597
 30
0.0
 10
300.50458
 20
-169.49678
 30
0.0
 10
300.14422
 20
-169.40769
 30
0.0
 10
300.14422
 20
-169.40769
 30
0.0
 10
299.78386
 20
-169.3186
 30
0.0
 10
299.4213
 20
-169.19962
 30
0.0
 10
298.8872
 20
-169.232
 30
0.0
 10
298.8872
 20
-169.232
 30
0.0
 10
298.35311
 20
-169.26438
 30
0.0
 10
297.64747
 20
-169.44815
 30
0.0
 10
296.87256
 20
-170.26136
 30
0.0
 10
296.87256
 20
-170.26136
 30
0.0
 10
296.09765
 20
-171.07458
 30
0.0
 10
295.25346
 20
-172.51724
 30
0.0
 10
294.65351
 20
-173.69682
 30
0.0
 10
294.65351
 20
-173.69682
 30
0.0
 10
293.93707
 20
-175.10544
 30
0.0
 10
291.0342
 20
-179.78789
 30
0.0
 10
294.7929
 20
-179.626
 30
0.0
 10
294.7929
 20
-179.626
 30
0.0
 10
295.20897
 20
-179.60809
 30
0.0
 10
295.61058
 20
-179.47216
 30
0.0
 10
295.98071
 20
-179.22291
 30
0.0
 10
295.98071
 20
-179.22291
 30
0.0
 10
296.35085
 20
-178.97367
 30
0.0
 10
296.68953
 20
-178.61112
 30
0.0
 10
296.93598
 20
-178.26807
 30
0.0
 10
296.93598
 20
-178.26807
 30
0.0
 10
297.18243
 20
-177.92504
 30
0.0
 10
297.33666
 20
-177.60151
 30
0.0
 10
297.31181
 20
-177.46806
 30
0.0
 10
297.31181
 20
-177.46806
 30
0.0
 10
297.28695
 20
-177.33462
 30
0.0
 10
297.08301
 20
-177.39125
 30
0.0
 10
296.8734
 20
-177.44947
 30
0.0
 10
296.8734
 20
-177.44947
 30
0.0
 10
296.66378
 20
-177.50768
 30
0.0
 10
296.44851
 20
-177.56747
 30
0.0
 10
296.25967
 20
-177.54668
 30
0.0
 10
296.25967
 20
-177.54668
 30
0.0
 10
296.07083
 20
-177.5259
 30
0.0
 10
295.90844
 20
-177.42454
 30
0.0
 10
295.78538
 20
-177.24514
 30
0.0
 10
295.78538
 20
-177.24514
 30
0.0
 10
295.66234
 20
-177.06574
 30
0.0
 10
295.57864
 20
-176.80828
 30
0.0
 10
295.84273
 20
-176.15523
 30
0.0
 10
295.84273
 20
-176.15523
 30
0.0
 10
296.10683
 20
-175.50218
 30
0.0
 10
296.71873
 20
-174.45355
 30
0.0
 10
297.0637
 20
-173.89397
 30
0.0
 10
297.0637
 20
-173.89397
 30
0.0
 10
297.40868
 20
-173.3344
 30
0.0
 10
297.48674
 20
-173.26391
 30
0.0
 10
297.68785
 20
-173.15314
 30
0.0
 10
297.68785
 20
-173.15314
 30
0.0
 10
297.88897
 20
-173.04236
 30
0.0
 10
298.21315
 20
-172.89132
 30
0.0
 10
298.51876
 20
-172.73932
 30
0.0
 10
298.51876
 20
-172.73932
 30
0.0
 10
298.82437
 20
-172.58733
 30
0.0
 10
299.11142
 20
-172.43438
 30
0.0
 10
299.31065
 20
-172.25091
 30
0.0
 10
299.31065
 20
-172.25091
 30
0.0
 10
299.50989
 20
-172.06743
 30
0.0
 10
299.62131
 20
-171.85342
 30
0.0
 10
299.79033
 20
-171.71495
 30
0.0
 10
299.79033
 20
-171.71495
 30
0.0
 10
299.95935
 20
-171.57648
 30
0.0
 10
300.18596
 20
-171.51355
 30
0.0
 10
300.60045
 20
-171.48996
 30
0.0
 10
300.60045
 20
-171.48996
 30
0.0
 10
303.92604
 20
-171.30086
 30
0.0
 10
305.10856
 20
-172.7272
 30
0.0
 10
307.541
 20
-174.48692
 30
0.0
 10
307.541
 20
-174.48692
 30
0.0
 10
307.60025
 20
-174.52978
 30
0.0
 10
307.66071
 20
-174.57037
 30
0.0
 10
307.72171
 20
-174.60993
 30
0.0
 10
307.72171
 20
-174.60993
 30
0.0
 10
308.18109
 20
-175.15008
 30
0.0
 10
309.07932
 20
-175.51698
 30
0.0
 10
310.11224
 20
-175.51698
 30
0.0
 10
310.11224
 20
-175.51698
 30
0.0
 10
311.29142
 20
-175.51698
 30
0.0
 10
312.29496
 20
-175.0388
 30
0.0
 10
312.67053
 20
-174.37057
 30
0.0
 10
312.67053
 20
-174.37057
 30
0.0
 10
312.67053
 20
-174.37057
 30
0.0
 10
310.07693
 20
-174.37057
 30
0.0
 10
310.07693
 20
-174.37057
 30
0.0
 10
310.07693
 20
-174.37057
 30
0.0
 10
310.07693
 20
-174.37057
 30
0.0
 10
310.07693
 20
-173.77057
 30
0.0
 10
310.07693
 20
-173.77057
 30
0.0
 10
310.07693
 20
-173.77057
 30
0.0
 10
310.07693
 20
-173.77057
 30
0.0
 10
312.82828
 20
-173.77057
 30
0.0
 10
312.82828
 20
-173.77057
 30
0.0
 10
312.82828
 20
-173.77057
 30
0.0
 10
312.81333
 20
-172.82942
 30
0.0
 10
311.61663
 20
-172.06849
 30
0.0
 10
310.13731
 20
-172.05996
 30
0.0
  0
SPLINE
  5
91
330
1F
100
AcDbEntity
  8
layer 1
 62
   250
370
    20
100
AcDbSpline
210
0.0
220
0.0
230
1.0
 70
    11
 71
     3
 72
   112
 73
   108
 74
     0
 42
0.000000001
 43
0.0000000001
 40
0.0
 40
0.0
 40
0.0
 40
0.0
 40
0.0357142857142857
 40
0.0357142857142857
 40
0.0357142857142857
 40
0.0357142857142857
 40
0.0714285714285714
 40
0.0714285714285714
 40
0.0714285714285714
 40
0.0714285714285714
 40
0.1071428571428571
 40
0.1071428571428571
 40
0.1071428571428571
 40
0.1071428571428571
 40
0.1428571428571428
 40
0.1428571428571428
 40
0.1428571428571428
 40
0.1428571428571428
 40
0.1785714285714286
 40
0.1785714285714286
 40
0.1785714285714286
 40
0.1785714285714286
 40
0.2142857142857143
 40
0.2142857142857143
 40
0.2142857142857143
 40
0.2142857142857143
 40
0.25
 40
0.25
 40
0.25
 40
0.25
 40
0.2857142857142857
 40
0.2857142857142857
 40
0.2857142857142857
 40
0.2857142857142857
 40
0.3214285714285715
 40
0.3214285714285715
 40
0.3214285714285715
 40
0.3214285714285715
 40
0.3571428571428572
 40
0.3571428571428572
 40
0.3571428571428572
 40
0.3571428571428572
 40
0.3928571428571428
 40
0.3928571428571428
 40
0.3928571428571428
 40
0.3928571428571428
 40
0.4285714285714285
 40
0.4285714285714285
 40
0.4285714285714285
 40
0.4285714285714285
 40
0.4642857142857143
 40
0.4642857142857143
 40
0.4642857142857143
 40
0.4642857142857143
 40
0.5
 40
0.5
 40
0.5
 40
0.5
 40
0.5357142857142857
 40
0.5357142857142857
 40
0.5357142857142857
 40
0.5357142857142857
 40
0.5714285714285714
 40
0.5714285714285714
 40
0.5714285714285714
 40
0.5714285714285714
 40
0.6071428571428571
 40
0.6071428571428571
 40
0.6071428571428571
 40
0.6071428571428571
 40
0.6428571428571429
 40
0.6428571428571429
 40
0.6428571428571429
 40
0.6428571428571429
 40
0.6785714285714286
 40
0.6785714285714286
 40
0.6785714285714286
 40
0.6785714285714286
 40
0.7142857142857143
 40
0.7142857142857143
 40
0.7142857142857143
 40
0.7142857142857143
 40
0.75
 40
0.75
 40
0.75
 40
0.75
 40
0.7857142857142857
 40
0.7857142857142857
 40
0.7857142857142857
 40
0.7857142857142857
 40
0.8214285714285714
 40
0.8214285714285714
 40
0.8214285714285714
 40
0.8214285714285714
 40
0.8571428571428571
 40
0.8571428571428571
 40
0.8571428571428571
 40
0.8571428571428571
 40
0.8928571428571429
 40
0.8928571428571429
 40
0.8928571428571429
 40
0.8928571428571429
 40
0.9285714285714286
 40
0.9285714285714286
 40
0.9285714285714286
 40
0.9285714285714286
 40
1.0
 40
1.0
 40
1.0
 40
1.0
 10
303.01683
 20
-138.91752
 30
0.0
 10
299.56685
 20
-136.73299
 30
0.0
 10
298.28693
 20
-136.0927
 30
0.0
 10
294.12528
 20
-136.38648
 30
0.0
 10
294.12528
 20
-136.38648
 30
0.0
 10
293.74226
 20
-136.41353
 30
0.0
 10
293.3841
 20
-136.35434
 30
0.0
 10
293.02374
 20
-136.26525
 30
0.0
 10
293.02374
 20
-136.26525
 30
0.0
 10
292.66338
 20
-136.17616
 30
0.0
 10
292.30082
 20
-136.05718
 30
0.0
 10
291.76672
 20
-136.08956
 30
0.0
 10
291.76672
 20
-136.08956
 30
0.0
 10
291.23263
 20
-136.12194
 30
0.0
 10
290.52699
 20
-136.30571
 30
0.0
 10
289.75208
 20
-137.11892
 30
0.0
 10
289.75208
 20
-137.11892
 30
0.0
 10
288.97717
 20
-137.93214
 30
0.0
 10
288.13298
 20
-139.3748
 30
0.0
 10
287.53303
 20
-140.55438
 30
0.0
 10
287.53303
 20
-140.55438
 30
0.0
 10
286.81659
 20
-141.963
 30
0.0
 10
283.91372
 20
-146.64545
 30
0.0
 10
287.67242
 20
-146.48356
 30
0.0
 10
287.67242
 20
-146.48356
 30
0.0
 10
288.08849
 20
-146.46565
 30
0.0
 10
288.4901
 20
-146.32972
 30
0.0
 10
288.86023
 20
-146.08047
 30
0.0
 10
288.86023
 20
-146.08047
 30
0.0
 10
289.23037
 20
-145.83123
 30
0.0
 10
289.56905
 20
-145.46868
 30
0.0
 10
289.8155
 20
-145.12563
 30
0.0
 10
289.8155
 20
-145.12563
 30
0.0
 10
290.06195
 20
-144.7826
 30
0.0
 10
290.21618
 20
-144.45907
 30
0.0
 10
290.19133
 20
-144.32562
 30
0.0
 10
290.19133
 20
-144.32562
 30
0.0
 10
290.16647
 20
-144.19218
 30
0.0
 10
289.96253
 20
-144.24881
 30
0.0
 10
289.75292
 20
-144.30703
 30
0.0
 10
289.75292
 20
-144.30703
 30
0.0
 10
289.5433
 20
-144.36524
 30
0.0
 10
289.32803
 20
-144.42503
 30
0.0
 10
289.13919
 20
-144.40424
 30
0.0
 10
289.13919
 20
-144.40424
 30
0.0
 10
288.95035
 20
-144.38346
 30
0.0
 10
288.78796
 20
-144.2821
 30
0.0
 10
288.6649
 20
-144.1027
 30
0.0
 10
288.6649
 20
-144.1027
 30
0.0
 10
288.54186
 20
-143.9233
 30
0.0
 10
288.45816
 20
-143.66584
 30
0.0
 10
288.72225
 20
-143.01279
 30
0.0
 10
288.72225
 20
-143.01279
 30
0.0
 10
288.98635
 20
-142.35974
 30
0.0
 10
289.59825
 20
-141.31111
 30
0.0
 10
289.94322
 20
-140.75153
 30
0.0
 10
289.94322
 20
-140.75153
 30
0.0
 10
290.2882
 20
-140.19196
 30
0.0
 10
290.36626
 20
-140.12147
 30
0.0
 10
290.56737
 20
-140.0107
 30
0.0
 10
290.56737
 20
-140.0107
 30
0.0
 10
290.76849
 20
-139.89992
 30
0.0
 10
291.09267
 20
-139.74888
 30
0.0
 10
291.39828
 20
-139.59688
 30
0.0
 10
291.39828
 20
-139.59688
 30
0.0
 10
291.70389
 20
-139.44489
 30
0.0
 10
291.99094
 20
-139.29194
 30
0.0
 10
292.19017
 20
-139.10847
 30
0.0
 10
292.19017
 20
-139.10847
 30
0.0
 10
292.38941
 20
-138.92499
 30
0.0
 10
292.50083
 20
-138.71098
 30
0.0
 10
292.66985
 20
-138.57251
 30
0.0
 10
292.66985
 20
-138.57251
 30
0.0
 10
292.83887
 20
-138.43404
 30
0.0
 10
293.06548
 20
-138.37111
 30
0.0
 10
293.47997
 20
-138.34752
 30
0.0
 10
293.47997
 20
-138.34752
 30
0.0
 10
296.80556
 20
-138.15842
 30
0.0
 10
297.98808
 20
-139.58476
 30
0.0
 10
300.42052
 20
-141.34448
 30
0.0
 10
300.42052
 20
-141.34448
 30
0.0
 10
300.47977
 20
-141.38734
 30
0.0
 10
300.54023
 20
-141.42793
 30
0.0
 10
300.60123
 20
-141.46749
 30
0.0
 10
300.60123
 20
-141.46749
 30
0.0
 10
301.06061
 20
-142.00764
 30
0.0
 10
301.95884
 20
-142.37454
 30
0.0
 10
302.99176
 20
-142.37454
 30
0.0
 10
302.99176
 20
-142.37454
 30
0.0
 10
304.17094
 20
-142.37454
 30
0.0
 10
305.17448
 20
-141.89636
 30
0.0
 10
305.55005
 20
-141.22813
 30
0.0
 10
305.55005
 20
-141.22813
 30
0.0
 10
305.55005
 20
-141.22813
 30
0.0
 10
302.95645
 20
-141.22813
 30
0.0
 10
302.95645
 20
-141.22813
 30
0.0
 10
302.95645
 20
-141.22813
 30
0.0
 10
302.95645
 20
-141.22813
 30
0.0
 10
302.95645
 20
-140.62813
 30
0.0
 10
302.95645
 20
-140.62813
 30
0.0
 10
302.95645
 20
-140.62813
 30
0.0
 10
302.95645
 20
-140.62813
 30
0.0
 10
305.7078
 20
-140.62813
 30
0.0
 10
305.7078
 20
-140.62813
 30
0.0
 10
305.7078
 20
-140.62813
 30
0.0
 10
305.69285
 20
-139.68698
 30
0.0
 10
304.49615
 20
-138.92605
 30
0.0
 10
303.01683
 20
-138.91752
 30
0.0
  0
SPLINE
  5
92
330
1F
100
AcDbEntity
  8
layer 1
 62
   250
370
    20
100
AcDbSpline
210
0.0
220
0.0
230
1.0
 70
    11
 71
     3
 72
   112
 73
   108
 74
     0
 42
0.000000001
 43
0.0000000001
 40
0.0
 40
0.0
 40
0.0
 40
0.0
 40
0.0357142857142857
 40
0.0357142857142857
 40
0.0357142857142857
 40
0.0357142857142857
 40
0.0714285714285714
 40
0.0714285714285714
 40
0.0714285714285714
 40
0.0714285714285714
 40
0.1071428571428571
 40
0.1071428571428571
 40
0.1071428571428571
 40
0.1071428571428571
 40
0.1428571428571428
 40
0.1428571428571428
 40
0.1428571428571428
 40
0.1428571428571428
 40
0.1785714285714286
 40
0.1785714285714286
 40
0.1785714285714286
 40
0.1785714285714286
 40
0.2142857142857143
 40
0.2142857142857143
 40
0.2142857142857143
 40
0.2142857142857143
 40
0.25
 40
0.25
 40
0.25
 40
0.25
 40
0.2857142857142857
 40
0.2857142857142857
 40
0.2857142857142857
 40
0.2857142857142857
 40
0.3214285714285715
 40
0.3214285714285715
 40
0.3214285714285715
 40
0.3214285714285715
 40
0.3571428571428572
 40
0.3571428571428572
 40
0.3571428571428572
 40
0.3571428571428572
 40
0.3928571428571428
 40
0.3928571428571428
 40
0.3928571428571428
 40
0.3928571428571428
 40
0.4285714285714285
 40
0.4285714285714285
 40
0.4285714285714285
 40
0.4285714285714285
 40
0.4642857142857143
 40
0.4642857142857143
 40
0.4642857142857143
 40
0.4642857142857143
 40
0.5
 40
0.5
 40
0.5
 40
0.5
 40
0.5357142857142857
 40
0.5357142857142857
 40
0.5357142857142857
 40
0.5357142857142857
 40
0.5714285714285714
 40
0.5714285714285714
 40
0.5714285714285714
 40
0.5714285714285714
 40
0.6071428571428571
 40
0.6071428571428571
 40
0.6071428571428571
 40
0.6071428571428571
 40
0.6428571428571429
 40
0.6428571428571429
 40
0.6428571428571429
 40
0.6428571428571429
 40
0.6785714285714286
 40
0.6785714285714286
 40
0.6785714285714286
 40
0.6785714285714286
 40
0.7142857142857143
 40
0.7142857142857143
 40
0.7142857142857143
 40
0.7142857142857143
 40
0.75
 40
0.75
 40
0.75
 40
0.75
 40
0.7857142857142857
 40
0.7857142857142857
 40
0.7857142857142857
 40
0.7857142857142857
 40
0.8214285714285714
 40
0.8214285714285714
 40
0.8214285714285714
 40
0.8214285714285714
 40
0.8571428571428571
 40
0.8571428571428571
 40
0.8571428571428571
 40
0.8571428571428571
 40
0.8928571428571429
 40
0.8928571428571429
 40
0.8928571428571429
 40
0.8928571428571429
 40
0.9285714285714286
 40
0.9285714285714286
 40
0.9285714285714286
 40
0.9285714285714286
 40
1.0
 40
1.0
 40
1.0
 40
1.0
 10
318.68017
 20
-130.02752
 30
0.0
 10
315.23019
 20
-127.84299
 30
0.0
 10
313.95027
 20
-127.2027
 30
0.0
 10
309.78862
 20
-127.49648
 30
0.0
 10
309.78862
 20
-127.49648
 30
0.0
 10
309.4056
 20
-127.52353
 30
0.0
 10
309.04744
 20
-127.46434
 30
0.0
 10
308.68708
 20
-127.37525
 30
0.0
 10
308.68708
 20
-127.37525
 30
0.0
 10
308.32672
 20
-127.28616
 30
0.0
 10
307.96416
 20
-127.16718
 30
0.0
 10
307.43006
 20
-127.19956
 30
0.0
 10
307.43006
 20
-127.19956
 30
0.0
 10
306.89597
 20
-127.23194
 30
0.0
 10
306.19033
 20
-127.41571
 30
0.0
 10
305.41542
 20
-128.22892
 30
0.0
 10
305.41542
 20
-128.22892
 30
0.0
 10
304.64051
 20
-129.04214
 30
0.0
 10
303.79632
 20
-130.4848
 30
0.0
 10
303.19637
 20
-131.66438
 30
0.0
 10
303.19637
 20
-131.66438
 30
0.0
 10
302.47993
 20
-133.073
 30
0.0
 10
299.57706
 20
-137.75545
 30
0.0
 10
303.33576
 20
-137.59356
 30
0.0
 10
303.33576
 20
-137.59356
 30
0.0
 10
303.75183
 20
-137.57565
 30
0.0
 10
304.15344
 20
-137.43972
 30
0.0
 10
304.52357
 20
-137.19047
 30
0.0
 10
304.52357
 20
-137.19047
 30
0.0
 10
304.89371
 20
-136.94123
 30
0.0
 10
305.23239
 20
-136.57868
 30
0.0
 10
305.47884
 20
-136.23563
 30
0.0
 10
305.47884
 20
-136.23563
 30
0.0
 10
305.72529
 20
-135.8926
 30
0.0
 10
305.87952
 20
-135.56907
 30
0.0
 10
305.85467
 20
-135.43562
 30
0.0
 10
305.85467
 20
-135.43562
 30
0.0
 10
305.82981
 20
-135.30218
 30
0.0
 10
305.62587
 20
-135.35881
 30
0.0
 10
305.41626
 20
-135.41703
 30
0.0
 10
305.41626
 20
-135.41703
 30
0.0
 10
305.20664
 20
-135.47524
 30
0.0
 10
304.99137
 20
-135.53503
 30
0.0
 10
304.80253
 20
-135.51424
 30
0.0
 10
304.80253
 20
-135.51424
 30
0.0
 10
304.61369
 20
-135.49346
 30
0.0
 10
304.4513
 20
-135.3921
 30
0.0
 10
304.32824
 20
-135.2127
 30
0.0
 10
304.32824
 20
-135.2127
 30
0.0
 10
304.2052
 20
-135.0333
 30
0.0
 10
304.1215
 20
-134.77584
 30
0.0
 10
304.38559
 20
-134.12279
 30
0.0
 10
304.38559
 20
-134.12279
 30
0.0
 10
304.64969
 20
-133.46974
 30
0.0
 10
305.26159
 20
-132.42111
 30
0.0
 10
305.60656
 20
-131.86153
 30
0.0
 10
305.60656
 20
-131.86153
 30
0.0
 10
305.95154
 20
-131.30196
 30
0.0
 10
306.0296
 20
-131.23147
 30
0.0
 10
306.23071
 20
-131.1207
 30
0.0
 10
306.23071
 20
-131.1207
 30
0.0
 10
306.43183
 20
-131.00992
 30
0.0
 10
306.75601
 20
-130.85888
 30
0.0
 10
307.06162
 20
-130.70688
 30
0.0
 10
307.06162
 20
-130.70688
 30
0.0
 10
307.36723
 20
-130.55489
 30
0.0
 10
307.65428
 20
-130.40194
 30
0.0
 10
307.85351
 20
-130.21847
 30
0.0
 10
307.85351
 20
-130.21847
 30
0.0
 10
308.05275
 20
-130.03499
 30
0.0
 10
308.16417
 20
-129.82098
 30
0.0
 10
308.33319
 20
-129.68251
 30
0.0
 10
308.33319
 20
-129.68251
 30
0.0
 10
308.50221
 20
-129.54404
 30
0.0
 10
308.72882
 20
-129.48111
 30
0.0
 10
309.14331
 20
-129.45752
 30
0.0
 10
309.14331
 20
-129.45752
 30
0.0
 10
312.4689
 20
-129.26842
 30
0.0
 10
313.65142
 20
-130.69476
 30
0.0
 10
316.08386
 20
-132.45448
 30
0.0
 10
316.08386
 20
-132.45448
 30
0.0
 10
316.14311
 20
-132.49734
 30
0.0
 10
316.20357
 20
-132.53793
 30
0.0
 10
316.26457
 20
-132.57749
 30
0.0
 10
316.26457
 20
-132.57749
 30
0.0
 10
316.72395
 20
-133.11764
 30
0.0
 10
317.62218
 20
-133.48454
 30
0.0
 10
318.6551
 20
-133.48454
 30
0.0
 10
318.6551
 20
-133.48454
 30
0.0
 10
319.83428
 20
-133.48454
 30
0.0
 10
320.83782
 20
-133.00636
 30
0.0
 10
321.21339
 20
-132.33813
 30
0.0
 10
321.21339
 20
-132.33813
 30
0.0
 10
321.21339
 20
-132.33813
 30
0.0
 10
318.61979
 20
-132.33813
 30
0.0
 10
318.61979
 20
-132.33813
 30
0.0
 10
318.61979
 20
-132.33813
 30
0.0
 10
318.61979
 20
-132.33813
 30
0.0
 10
318.61979
 20
-131.73813
 30
0.0
 10
318.61979
 20
-131.73813
 30
0.0
 10
318.61979
 20
-131.73813
 30
0.0
 10
318.61979
 20
-131.73813
 30
0.0
 10
321.37114
 20
-131.73813
 30
0.0
 10
321.37114
 20
-131.73813
 30
0.0
 10
321.37114
 20
-131.73813
 30
0.0
 10
321.35619
 20
-130.79698
 30
0.0
 10
320.15949
 20
-130.03605
 30
0.0
 10
318.68017
 20
-130.02752
 30
0.0
  0
SPLINE
  5
93
330
1F
100
AcDbEntity
  8
layer 1
 62
   250
370
    20
100
AcDbSpline
210
0.0
220
0.0
230
1.0
 70
    11
 71
     3
 72
   112
 73
   108
 74
     0
 42
0.000000001
 43
0.0000000001
 40
0.0
 40
0.0
 40
0.0
 40
0.0
 40
0.0357142857142857
 40
0.0357142857142857
 40
0.0357142857142857
 40
0.0357142857142857
 40
0.0714285714285714
 40
0.0714285714285714
 40
0.0714285714285714
 40
0.0714285714285714
 40
0.1071428571428571
 40
0.1071428571428571
 40
0.1071428571428571
 40
0.1071428571428571
 40
0.1428571428571428
 40
0.1428571428571428
 40
0.1428571428571428
 40
0.1428571428571428
 40
0.1785714285714286
 40
0.1785714285714286
 40
0.1785714285714286
 40
0.1785714285714286
 40
0.2142857142857143
 40
0.2142857142857143
 40
0.2142857142857143
 40
0.2142857142857143
 40
0.25
 40
0.25
 40
0.25
 40
0.25
 40
0.2857142857142857
 40
0.2857142857142857
 40
0.2857142857142857
 40
0.2857142857142857
 40
0.3214285714285715
 40
0.3214285714285715
 40
0.3214285714285715
 40
0.3214285714285715
 40
0.3571428571428572
 40
0.3571428571428572
 40
0.3571428571428572
 40
0.3571428571428572
 40
0.3928571428571428
 40
0.3928571428571428
 40
0.3928571428571428
 40
0.3928571428571428
 40
0.4285714285714285
 40
0.4285714285714285
 40
0.4285714285714285
 40
0.4285714285714285
 40
0.4642857142857143
 40
0.4642857142857143
 40
0.4642857142857143
 40
0.4642857142857143
 40
0.5
 40
0.5
 40
0.5
 40
0.5
 40
0.5357142857142857
 40
0.5357142857142857
 40
0.5357142857142857
 40
0.5357142857142857
 40
0.5714285714285714
 40
0.5714285714285714
 40
0.5714285714285714
 40
0.5714285714285714
 40
0.6071428571428571
 40
0.6071428571428571
 40
0.6071428571428571
 40
0.6071428571428571
 40
0.6428571428571429
 40
0.6428571428571429
 40
0.6428571428571429
 40
0.6428571428571429
 40
0.6785714285714286
 40
0.6785714285714286
 40
0.6785714285714286
 40
0.6785714285714286
 40
0.7142857142857143
 40
0.7142857142857143
 40
0.7142857142857143
 40
0.7142857142857143
 40
0.75
 40
0.75
 40
0.75
 40
0.75
 40
0.7857142857142857
 40
0.7857142857142857
 40
0.7857142857142857
 40
0.7857142857142857
 40
0.8214285714285714
 40
0.8214285714285714
 40
0.8214285714285714
 40
0.8214285714285714
 40
0.8571428571428571
 40
0.8571428571428571
 40
0.8571428571428571
 40
0.8571428571428571
 40
0.8928571428571429
 40
0.8928571428571429
 40
0.8928571428571429
 40
0.8928571428571429
 40
0.9285714285714286
 40
0.9285714285714286
 40
0.9285714285714286
 40
0.9285714285714286
 40
1.0
 40
1.0
 40
1.0
 40
1.0
 10
297.65461
 20
-132.00308
 30
0.0
 10
294.20463
 20
-129.81855
 30
0.0
 10
292.92471
 20
-129.17826
 30
0.0
 10
288.76306
 20
-129.47204
 30
0.0
 10
288.76306
 20
-129.47204
 30
0.0
 10
288.38004
 20
-129.49909
 30
0.0
 10
288.02188
 20
-129.4399
 30
0.0
 10
287.66152
 20
-129.35081
 30
0.0
 10
287.66152
 20
-129.35081
 30
0.0
 10
287.30116
 20
-129.26172
 30
0.0
 10
286.9386
 20
-129.14274
 30
0.0
 10
286.4045
 20
-129.17512
 30
0.0
 10
286.4045
 20
-129.17512
 30
0.0
 10
285.87041
 20
-129.2075
 30
0.0
 10
285.16477
 20
-129.39127
 30
0.0
 10
284.38986
 20
-130.20448
 30
0.0
 10
284.38986
 20
-130.20448
 30
0.0
 10
283.61495
 20
-131.0177
 30
0.0
 10
282.77076
 20
-132.46036
 30
0.0
 10
282.17081
 20
-133.63994
 30
0.0
 10
282.17081
 20
-133.63994
 30
0.0
 10
281.45437
 20
-135.04856
 30
0.0
 10
278.5515
 20
-139.73101
 30
0.0
 10
282.3102
 20
-139.56912
 30
0.0
 10
282.3102
 20
-139.56912
 30
0.0
 10
282.72627
 20
-139.55121
 30
0.0
 10
283.12788
 20
-139.41528
 30
0.0
 10
283.49801
 20
-139.16603
 30
0.0
 10
283.49801
 20
-139.16603
 30
0.0
 10
283.86815
 20
-138.91679
 30
0.0
 10
284.20683
 20
-138.55424
 30
0.0
 10
284.45328
 20
-138.21119
 30
0.0
 10
284.45328
 20
-138.21119
 30
0.0
 10
284.69973
 20
-137.86816
 30
0.0
 10
284.85396
 20
-137.54463
 30
0.0
 10
284.82911
 20
-137.41118
 30
0.0
 10
284.82911
 20
-137.41118
 30
0.0
 10
284.80425
 20
-137.27774
 30
0.0
 10
284.60031
 20
-137.33437
 30
0.0
 10
284.3907
 20
-137.39259
 30
0.0
 10
284.3907
 20
-137.39259
 30
0.0
 10
284.18108
 20
-137.4508
 30
0.0
 10
283.96581
 20
-137.51059
 30
0.0
 10
283.77697
 20
-137.4898
 30
0.0
 10
283.77697
 20
-137.4898
 30
0.0
 10
283.58813
 20
-137.46902
 30
0.0
 10
283.42574
 20
-137.36766
 30
0.0
 10
283.30268
 20
-137.18826
 30
0.0
 10
283.30268
 20
-137.18826
 30
0.0
 10
283.17964
 20
-137.00886
 30
0.0
 10
283.09594
 20
-136.7514
 30
0.0
 10
283.36003
 20
-136.09835
 30
0.0
 10
283.36003
 20
-136.09835
 30
0.0
 10
283.62413
 20
-135.4453
 30
0.0
 10
284.23603
 20
-134.39667
 30
0.0
 10
284.581
 20
-133.83709
 30
0.0
 10
284.581
 20
-133.83709
 30
0.0
 10
284.92598
 20
-133.27752
 30
0.0
 10
285.00404
 20
-133.20703
 30
0.0
 10
285.20515
 20
-133.09626
 30
0.0
 10
285.20515
 20
-133.09626
 30
0.0
 10
285.40627
 20
-132.98548
 30
0.0
 10
285.73045
 20
-132.83444
 30
0.0
 10
286.03606
 20
-132.68244
 30
0.0
 10
286.03606
 20
-132.68244
 30
0.0
 10
286.34167
 20
-132.53045
 30
0.0
 10
286.62872
 20
-132.3775
 30
0.0
 10
286.82795
 20
-132.19403
 30
0.0
 10
286.82795
 20
-132.19403
 30
0.0
 10
287.02719
 20
-132.01055
 30
0.0
 10
287.13861
 20
-131.79654
 30
0.0
 10
287.30763
 20
-131.65807
 30
0.0
 10
287.30763
 20
-131.65807
 30
0.0
 10
287.47665
 20
-131.5196
 30
0.0
 10
287.70326
 20
-131.45667
 30
0.0
 10
288.11775
 20
-131.43308
 30
0.0
 10
288.11775
 20
-131.43308
 30
0.0
 10
291.44334
 20
-131.24398
 30
0.0
 10
292.62586
 20
-132.67032
 30
0.0
 10
295.0583
 20
-134.43004
 30
0.0
 10
295.0583
 20
-134.43004
 30
0.0
 10
295.11755
 20
-134.4729
 30
0.0
 10
295.17801
 20
-134.51349
 30
0.0
 10
295.23901
 20
-134.55305
 30
0.0
 10
295.23901
 20
-134.55305
 30
0.0
 10
295.69839
 20
-135.0932
 30
0.0
 10
296.59662
 20
-135.4601
 30
0.0
 10
297.62954
 20
-135.4601
 30
0.0
 10
297.62954
 20
-135.4601
 30
0.0
 10
298.80872
 20
-135.4601
 30
0.0
 10
299.81226
 20
-134.98192
 30
0.0
 10
300.18783
 20
-134.31369
 30
0.0
 10
300.18783
 20
-134.31369
 30
0.0
 10
300.18783
 20
-134.31369
 30
0.0
 10
297.59423
 20
-134.31369
 30
0.0
 10
297.59423
 20
-134.31369
 30
0.0
 10
297.59423
 20
-134.31369
 30
0.0
 10
297.59423
 20
-134.31369
 30
0.0
 10
297.59423
 20
-133.71369
 30
0.0
 10
297.59423
 20
-133.71369
 30
0.0
 10
297.59423
 20
-133.71369
 30
0.0
 10
297.59423
 20
-133.71369
 30
0.0
 10
300.34558
 20
-133.71369
 30
0.0
 10
300.34558
 20
-133.71369
 30
0.0
 10
300.34558
 20
-133.71369
 30
0.0
 10
300.33063
 20
-132.77254
 30
0.0
 10
299.13393
 20
-132.01161
 30
0.0
 10
297.65461
 20
-132.00308
 30
0.0
  0
SPLINE
  5
94
330
1F
100
AcDbEntity
  8
layer 1
 62
   250
370
    20
100
AcDbSpline
210
0.0
220
0.0
230
1.0
 70
    11
 71
     3
 72
   112
 73
   108
 74
     0
 42
0.000000001
 43
0.0000000001
 40
0.0
 40
0.0
 40
0.0
 40
0.0
 40
0.0357142857142857
 40
0.0357142857142857
 40
0.0357142857142857
 40
0.0357142857142857
 40
0.0714285714285714
 40
0.0714285714285714
 40
0.0714285714285714
 40
0.0714285714285714
 40
0.1071428571428571
 40
0.1071428571428571
 40
0.1071428571428571
 40
0.1071428571428571
 40
0.1428571428571428
 40
0.1428571428571428
 40
0.1428571428571428
 40
0.1428571428571428
 40
0.1785714285714286
 40
0.1785714285714286
 40
0.1785714285714286
 40
0.1785714285714286
 40
0.2142857142857143
 40
0.2142857142857143
 40
0.2142857142857143
 40
0.2142857142857143
 40
0.25
 40
0.25
 40
0.25
 40
0.25
 40
0.2857142857142857
 40
0.2857142857142857
 40
0.2857142857142857
 40
0.2857142857142857
 40
0.3214285714285715
 40
0.3214285714285715
 40
0.3214285714285715
 40
0.3214285714285715
 40
0.3571428571428572
 40
0.3571428571428572
 40
0.3571428571428572
 40
0.3571428571428572
 40
0.3928571428571428
 40
0.3928571428571428
 40
0.3928571428571428
 40
0.3928571428571428
 40
0.4285714285714285
 40
0.4285714285714285
 40
0.4285714285714285
 40
0.4285714285714285
 40
0.4642857142857143
 40
0.4642857142857143
 40
0.4642857142857143
 40
0.4642857142857143
 40
0.5
 40
0.5
 40
0.5
 40
0.5
 40
0.5357142857142857
 40
0.5357142857142857
 40
0.5357142857142857
 40
0.5357142857142857
 40
0.5714285714285714
 40
0.5714285714285714
 40
0.5714285714285714
 40
0.5714285714285714
 40
0.6071428571428571
 40
0.6071428571428571
 40
0.6071428571428571
 40
0.6071428571428571
 40
0.6428571428571429
 40
0.6428571428571429
 40
0.6428571428571429
 40
0.6428571428571429
 40
0.6785714285714286
 40
0.6785714285714286
 40
0.6785714285714286
 40
0.6785714285714286
 40
0.7142857142857143
 40
0.7142857142857143
 40
0.7142857142857143
 40
0.7142857142857143
 40
0.75
 40
0.75
 40
0.75
 40
0.75
 40
0.7857142857142857
 40
0.7857142857142857
 40
0.7857142857142857
 40
0.7857142857142857
 40
0.8214285714285714
 40
0.8214285714285714
 40
0.8214285714285714
 40
0.8214285714285714
 40
0.8571428571428571
 40
0.8571428571428571
 40
0.8571428571428571
 40
0.8571428571428571
 40
0.8928571428571429
 40
0.8928571428571429
 40
0.8928571428571429
 40
0.8928571428571429
 40
0.9285714285714286
 40
0.9285714285714286
 40
0.9285714285714286
 40
0.9285714285714286
 40
1.0
 40
1.0
 40
1.0
 40
1.0
 10
291.3046
 20
-123.67752
 30
0.0
 10
287.85462
 20
-121.49299
 30
0.0
 10
286.5747
 20
-120.8527
 30
0.0
 10
282.41305
 20
-121.14648
 30
0.0
 10
282.41305
 20
-121.14648
 30
0.0
 10
282.03003
 20
-121.17353
 30
0.0
 10
281.67187
 20
-121.11434
 30
0.0
 10
281.31151
 20
-121.02525
 30
0.0
 10
281.31151
 20
-121.02525
 30
0.0
 10
280.95115
 20
-120.93616
 30
0.0
 10
280.58859
 20
-120.81718
 30
0.0
 10
280.05449
 20
-120.84956
 30
0.0
 10
280.05449
 20
-120.84956
 30
0.0
 10
279.5204
 20
-120.88194
 30
0.0
 10
278.81476
 20
-121.06571
 30
0.0
 10
278.03985
 20
-121.87892
 30
0.0
 10
278.03985
 20
-121.87892
 30
0.0
 10
277.26494
 20
-122.69214
 30
0.0
 10
276.42075
 20
-124.1348
 30
0.0
 10
275.8208
 20
-125.31438
 30
0.0
 10
275.8208
 20
-125.31438
 30
0.0
 10
275.10436
 20
-126.723
 30
0.0
 10
272.20149
 20
-131.40545
 30
0.0
 10
275.96019
 20
-131.24356
 30
0.0
 10
275.96019
 20
-131.24356
 30
0.0
 10
276.37626
 20
-131.22565
 30
0.0
 10
276.77787
 20
-131.08972
 30
0.0
 10
277.148
 20
-130.84047
 30
0.0
 10
277.148
 20
-130.84047
 30
0.0
 10
277.51814
 20
-130.59123
 30
0.0
 10
277.85682
 20
-130.22868
 30
0.0
 10
278.10327
 20
-129.88563
 30
0.0
 10
278.10327
 20
-129.88563
 30
0.0
 10
278.34972
 20
-129.5426
 30
0.0
 10
278.50395
 20
-129.21907
 30
0.0
 10
278.4791
 20
-129.08562
 30
0.0
 10
278.4791
 20
-129.08562
 30
0.0
 10
278.45424
 20
-128.95218
 30
0.0
 10
278.2503
 20
-129.00881
 30
0.0
 10
278.04069
 20
-129.06703
 30
0.0
 10
278.04069
 20
-129.06703
 30
0.0
 10
277.83107
 20
-129.12524
 30
0.0
 10
277.6158
 20
-129.18503
 30
0.0
 10
277.42696
 20
-129.16424
 30
0.0
 10
277.42696
 20
-129.16424
 30
0.0
 10
277.23812
 20
-129.14346
 30
0.0
 10
277.07573
 20
-129.0421
 30
0.0
 10
276.95267
 20
-128.8627
 30
0.0
 10
276.95267
 20
-128.8627
 30
0.0
 10
276.82963
 20
-128.6833
 30
0.0
 10
276.74593
 20
-128.42584
 30
0.0
 10
277.01002
 20
-127.77279
 30
0.0
 10
277.01002
 20
-127.77279
 30
0.0
 10
277.27412
 20
-127.11974
 30
0.0
 10
277.88602
 20
-126.07111
 30
0.0
 10
278.23099
 20
-125.51153
 30
0.0
 10
278.23099
 20
-125.51153
 30
0.0
 10
278.57597
 20
-124.95196
 30
0.0
 10
278.65403
 20
-124.88147
 30
0.0
 10
278.85514
 20
-124.7707
 30
0.0
 10
278.85514
 20
-124.7707
 30
0.0
 10
279.05626
 20
-124.65992
 30
0.0
 10
279.38044
 20
-124.50888
 30
0.0
 10
279.68605
 20
-124.35688
 30
0.0
 10
279.68605
 20
-124.35688
 30
0.0
 10
279.99166
 20
-124.20489
 30
0.0
 10
280.27871
 20
-124.05194
 30
0.0
 10
280.47794
 20
-123.86847
 30
0.0
 10
280.47794
 20
-123.86847
 30
0.0
 10
280.67718
 20
-123.68499
 30
0.0
 10
280.7886
 20
-123.47098
 30
0.0
 10
280.95762
 20
-123.33251
 30
0.0
 10
280.95762
 20
-123.33251
 30
0.0
 10
281.12664
 20
-123.19404
 30
0.0
 10
281.35325
 20
-123.13111
 30
0.0
 10
281.76774
 20
-123.10752
 30
0.0
 10
281.76774
 20
-123.10752
 30
0.0
 10
285.09333
 20
-122.91842
 30
0.0
 10
286.27585
 20
-124.34476
 30
0.0
 10
288.70829
 20
-126.10448
 30
0.0
 10
288.70829
 20
-126.10448
 30
0.0
 10
288.76754
 20
-126.14734
 30
0.0
 10
288.828
 20
-126.18793
 30
0.0
 10
288.889
 20
-126.22749
 30
0.0
 10
288.889
 20
-126.22749
 30
0.0
 10
289.34838
 20
-126.76764
 30
0.0
 10
290.24661
 20
-127.13454
 30
0.0
 10
291.27953
 20
-127.13454
 30
0.0
 10
291.27953
 20
-127.13454
 30
0.0
 10
292.45871
 20
-127.13454
 30
0.0
 10
293.46225
 20
-126.65636
 30
0.0
 10
293.83782
 20
-125.98813
 30
0.0
 10
293.83782
 20
-125.98813
 30
0.0
 10
293.83782
 20
-125.98813
 30
0.0
 10
291.24422
 20
-125.98813
 30
0.0
 10
291.24422
 20
-125.98813
 30
0.0
 10
291.24422
 20
-125.98813
 30
0.0
 10
291.24422
 20
-125.98813
 30
0.0
 10
291.24422
 20
-125.38813
 30
0.0
 10
291.24422
 20
-125.38813
 30
0.0
 10
291.24422
 20
-125.38813
 30
0.0
 10
291.24422
 20
-125.38813
 30
0.0
 10
293.99557
 20
-125.38813
 30
0.0
 10
293.99557
 20
-125.38813
 30
0.0
 10
293.99557
 20
-125.38813
 30
0.0
 10
293.98062
 20
-124.44698
 30
0.0
 10
292.78392
 20
-123.68605
 30
0.0
 10
291.3046
 20
-123.67752
 30
0.0
  0
SPLINE
  5
95
330
1F
100
AcDbEntity
  8
layer 1
 62
   250
370
    20
100
AcDbSpline
210
0.0
220
0.0
230
1.0
 70
    11
 71
     3
 72
    96
 73
    92
 74
     0
 42
0.000000001
 43
0.0000000001
 40
0.0
 40
0.0
 40
0.0
 40
0.0
 40
0.0416666666666667
 40
0.0416666666666667
 40
0.0416666666666667
 40
0.0416666666666667
 40
0.0833333333333333
 40
0.0833333333333333
 40
0.0833333333333333
 40
0.0833333333333333
 40
0.125
 40
0.125
 40
0.125
 40
0.125
 40
0.1666666666666667
 40
0.1666666666666667
 40
0.1666666666666667
 40
0.1666666666666667
 40
0.2083333333333333
 40
0.2083333333333333
 40
0.2083333333333333
 40
0.2083333333333333
 40
0.25
 40
0.25
 40
0.25
 40
0.25
 40
0.2916666666666667
 40
0.2916666666666667
 40
0.2916666666666667
 40
0.2916666666666667
 40
0.3333333333333333
 40
0.3333333333333333
 40
0.3333333333333333
 40
0.3333333333333333
 40
0.375
 40
0.375
 40
0.375
 40
0.375
 40
0.4166666666666667
 40
0.4166666666666667
 40
0.4166666666666667
 40
0.4166666666666667
 40
0.4583333333333333
 40
0.4583333333333333
 40
0.4583333333333333
 40
0.4583333333333333
 40
0.5
 40
0.5
 40
0.5
 40
0.5
 40
0.5416666666666666
 40
0.5416666666666666
 40
0.5416666666666666
 40
0.5416666666666666
 40
0.5833333333333334
 40
0.5833333333333334
 40
0.5833333333333334
 40
0.5833333333333334
 40
0.625
 40
0.625
 40
0.625
 40
0.625
 40
0.6666666666666666
 40
0.6666666666666666
 40
0.6666666666666666
 40
0.6666666666666666
 40
0.7083333333333334
 40
0.7083333333333334
 40
0.7083333333333334
 40
0.7083333333333334
 40
0.75
 40
0.75
 40
0.75
 40
0.75
 40
0.7916666666666666
 40
0.7916666666666666
 40
0.7916666666666666
 40
0.7916666666666666
 40
0.8333333333333334
 40
0.8333333333333334
 40
0.8333333333333334
 40
0.8333333333333334
 40
0.875
 40
0.875
 40
0.875
 40
0.875
 40
0.9166666666666666
 40
0.9166666666666666
 40
0.9166666666666666
 40
0.9166666666666666
 40
1.0
 40
1.0
 40
1.0
 40
1.0
 10
253.80996
 20
-123.21355
 30
0.0
 10
254.79955
 20
-123.21355
 30
0.0
 10
255.74454
 20
-123.30826
 30
0.0
 10
256.61053
 20
-123.48023
 30
0.0
 10
256.61053
 20
-123.48023
 30
0.0
 10
256.61053
 20
-123.48023
 30
0.0
 10
257.32261
 20
-121.18105
 30
0.0
 10
257.32261
 20
-121.18105
 30
0.0
 10
257.32261
 20
-121.18105
 30
0.0
 10
257.32261
 20
-121.18105
 30
0.0
 10
258.56441
 20
-121.56565
 30
0.0
 10
258.56441
 20
-121.56565
 30
0.0
 10
258.56441
 20
-121.56565
 30
0.0
 10
258.56441
 20
-121.56565
 30
0.0
 10
257.87177
 20
-123.80208
 30
0.0
 10
257.87177
 20
-123.80208
 30
0.0
 10
257.87177
 20
-123.80208
 30
0.0
 10
259.96901
 20
-124.4683
 30
0.0
 10
261.3594
 20
-125.63524
 30
0.0
 10
261.3594
 20
-126.96355
 30
0.0
 10
261.3594
 20
-126.96355
 30
0.0
 10
261.3594
 20
-128.29756
 30
0.0
 10
259.95687
 20
-129.46872
 30
0.0
 10
257.84454
 20
-130.13346
 30
0.0
 10
257.84454
 20
-130.13346
 30
0.0
 10
257.84454
 20
-130.13346
 30
0.0
 10
258.56441
 20
-132.45779
 30
0.0
 10
258.56441
 20
-132.45779
 30
0.0
 10
258.56441
 20
-132.45779
 30
0.0
 10
258.56441
 20
-132.45779
 30
0.0
 10
257.32261
 20
-132.84239
 30
0.0
 10
257.32261
 20
-132.84239
 30
0.0
 10
257.32261
 20
-132.84239
 30
0.0
 10
257.32261
 20
-132.84239
 30
0.0
 10
256.58246
 20
-130.45257
 30
0.0
 10
256.58246
 20
-130.45257
 30
0.0
 10
256.58246
 20
-130.45257
 30
0.0
 10
255.72421
 20
-130.62104
 30
0.0
 10
254.78882
 20
-130.71355
 30
0.0
 10
253.80996
 20
-130.71355
 30
0.0
 10
253.80996
 20
-130.71355
 30
0.0
 10
252.79146
 20
-130.71355
 30
0.0
 10
251.82031
 20
-130.61313
 30
0.0
 10
250.93378
 20
-130.43152
 30
0.0
 10
250.93378
 20
-130.43152
 30
0.0
 10
250.93378
 20
-130.43152
 30
0.0
 10
250.4198
 20
-132.83917
 30
0.0
 10
250.4198
 20
-132.83917
 30
0.0
 10
250.4198
 20
-132.83917
 30
0.0
 10
250.4198
 20
-132.83917
 30
0.0
 10
249.14845
 20
-132.56776
 30
0.0
 10
249.14845
 20
-132.56776
 30
0.0
 10
249.14845
 20
-132.56776
 30
0.0
 10
249.14845
 20
-132.56776
 30
0.0
 10
249.675
 20
-130.10123
 30
0.0
 10
249.675
 20
-130.10123
 30
0.0
 10
249.675
 20
-130.10123
 30
0.0
 10
247.96441
 20
-129.54394
 30
0.0
 10
246.73707
 20
-128.6509
 30
0.0
 10
246.3727
 20
-127.61065
 30
0.0
 10
246.3727
 20
-127.61065
 30
0.0
 10
246.3727
 20
-127.61065
 30
0.0
 10
243.71031
 20
-127.61065
 30
0.0
 10
243.71031
 20
-127.61065
 30
0.0
 10
243.71031
 20
-127.61065
 30
0.0
 10
243.71031
 20
-127.61065
 30
0.0
 10
243.71031
 20
-126.31065
 30
0.0
 10
243.71031
 20
-126.31065
 30
0.0
 10
243.71031
 20
-126.31065
 30
0.0
 10
243.71031
 20
-126.31065
 30
0.0
 10
246.37466
 20
-126.31065
 30
0.0
 10
246.37466
 20
-126.31065
 30
0.0
 10
246.37466
 20
-126.31065
 30
0.0
 10
246.74017
 20
-125.27678
 30
0.0
 10
247.9584
 20
-124.38883
 30
0.0
 10
249.65578
 20
-123.83216
 30
0.0
 10
249.65578
 20
-123.83216
 30
0.0
 10
249.65578
 20
-123.83216
 30
0.0
 10
249.14845
 20
-121.45568
 30
0.0
 10
249.14845
 20
-121.45568
 30
0.0
 10
249.14845
 20
-121.45568
 30
0.0
 10
249.14845
 20
-121.45568
 30
0.0
 10
250.4198
 20
-121.18427
 30
0.0
 10
250.4198
 20
-121.18427
 30
0.0
 10
250.4198
 20
-121.18427
 30
0.0
 10
250.4198
 20
-121.18427
 30
0.0
 10
250.91407
 20
-123.49958
 30
0.0
 10
250.91407
 20
-123.49958
 30
0.0
 10
250.91407
 20
-123.49958
 30
0.0
 10
251.80589
 20
-123.31541
 30
0.0
 10
252.78392
 20
-123.21355
 30
0.0
 10
253.80996
 20
-123.21355
 30
0.0
  0
SPLINE
  5
96
330
1F
100
AcDbEntity
  8
layer 1
 62
   250
370
    20
100
AcDbSpline
210
0.0
220
0.0
230
1.0
 70
    11
 71
     3
 72
   216
 73
   212
 74
     0
 42
0.000000001
 43
0.0000000001
 40
0.0
 40
0.0
 40
0.0
 40
0.0
 40
0.0185185185185185
 40
0.0185185185185185
 40
0.0185185185185185
 40
0.0185185185185185
 40
0.037037037037037
 40
0.037037037037037
 40
0.037037037037037
 40
0.037037037037037
 40
0.0555555555555556
 40
0.0555555555555556
 40
0.0555555555555556
 40
0.0555555555555556
 40
0.0740740740740741
 40
0.0740740740740741
 40
0.0740740740740741
 40
0.0740740740740741
 40
0.0925925925925926
 40
0.0925925925925926
 40
0.0925925925925926
 40
0.0925925925925926
 40
0.1111111111111111
 40
0.1111111111111111
 40
0.1111111111111111
 40
0.1111111111111111
 40
0.1296296296296296
 40
0.1296296296296296
 40
0.1296296296296296
 40
0.1296296296296296
 40
0.1481481481481481
 40
0.1481481481481481
 40
0.1481481481481481
 40
0.1481481481481481
 40
0.1666666666666667
 40
0.1666666666666667
 40
0.1666666666666667
 40
0.1666666666666667
 40
0.1851851851851852
 40
0.1851851851851852
 40
0.1851851851851852
 40
0.1851851851851852
 40
0.2037037037037037
 40
0.2037037037037037
 40
0.2037037037037037
 40
0.2037037037037037
 40
0.2222222222222222
 40
0.2222222222222222
 40
0.2222222222222222
 40
0.2222222222222222
 40
0.2407407407407407
 40
0.2407407407407407
 40
0.2407407407407407
 40
0.2407407407407407
 40
0.2592592592592592
 40
0.2592592592592592
 40
0.2592592592592592
 40
0.2592592592592592
 40
0.2777777777777778
 40
0.2777777777777778
 40
0.2777777777777778
 40
0.2777777777777778
 40
0.2962962962962963
 40
0.2962962962962963
 40
0.2962962962962963
 40
0.2962962962962963
 40
0.3148148148148148
 40
0.3148148148148148
 40
0.3148148148148148
 40
0.3148148148148148
 40
0.3333333333333333
 40
0.3333333333333333
 40
0.3333333333333333
 40
0.3333333333333333
 40
0.3518518518518519
 40
0.3518518518518519
 40
0.3518518518518519
 40
0.3518518518518519
 40
0.3703703703703703
 40
0.3703703703703703
 40
0.3703703703703703
 40
0.3703703703703703
 40
0.3888888888888889
 40
0.3888888888888889
 40
0.3888888888888889
 40
0.3888888888888889
 40
0.4074074074074074
 40
0.4074074074074074
 40
0.4074074074074074
 40
0.4074074074074074
 40
0.4259259259259259
 40
0.4259259259259259
 40
0.4259259259259259
 40
0.4259259259259259
 40
0.4444444444444444
 40
0.4444444444444444
 40
0.4444444444444444
 40
0.4444444444444444
 40
0.462962962962963
 40
0.462962962962963
 40
0.462962962962963
 40
0.462962962962963
 40
0.4814814814814815
 40
0.4814814814814815
 40
0.4814814814814815
 40
0.4814814814814815
 40
0.5
 40
0.5
 40
0.5
 40
0.5
 40
0.5185185185185185
 40
0.5185185185185185
 40
0.5185185185185185
 40
0.5185185185185185
 40
0.5370370370370371
 40
0.5370370370370371
 40
0.5370370370370371
 40
0.5370370370370371
 40
0.5555555555555556
 40
0.5555555555555556
 40
0.5555555555555556
 40
0.5555555555555556
 40
0.5740740740740741
 40
0.5740740740740741
 40
0.5740740740740741
 40
0.5740740740740741
 40
0.5925925925925926
 40
0.5925925925925926
 40
0.5925925925925926
 40
0.5925925925925926
 40
0.6111111111111112
 40
0.6111111111111112
 40
0.6111111111111112
 40
0.6111111111111112
 40
0.6296296296296297
 40
0.6296296296296297
 40
0.6296296296296297
 40
0.6296296296296297
 40
0.6481481481481481
 40
0.6481481481481481
 40
0.6481481481481481
 40
0.6481481481481481
 40
0.6666666666666666
 40
0.6666666666666666
 40
0.6666666666666666
 40
0.6666666666666666
 40
0.6851851851851852
 40
0.6851851851851852
 40
0.6851851851851852
 40
0.6851851851851852
 40
0.7037037037037037
 40
0.7037037037037037
 40
0.7037037037037037
 40
0.7037037037037037
 40
0.7222222222222222
 40
0.7222222222222222
 40
0.7222222222222222
 40
0.7222222222222222
 40
0.7407407407407407
 40
0.7407407407407407
 40
0.7407407407407407
 40
0.7407407407407407
 40
0.7592592592592593
 40
0.7592592592592593
 40
0.7592592592592593
 40
0.7592592592592593
 40
0.7777777777777778
 40
0.7777777777777778
 40
0.7777777777777778
 40
0.7777777777777778
 40
0.7962962962962963
 40
0.7962962962962963
 40
0.7962962962962963
 40
0.7962962962962963
 40
0.8148148148148148
 40
0.8148148148148148
 40
0.8148148148148148
 40
0.8148148148148148
 40
0.8333333333333334
 40
0.8333333333333334
 40
0.8333333333333334
 40
0.8333333333333334
 40
0.8518518518518519
 40
0.8518518518518519
 40
0.8518518518518519
 40
0.8518518518518519
 40
0.8703703703703703
 40
0.8703703703703703
 40
0.8703703703703703
 40
0.8703703703703703
 40
0.8888888888888888
 40
0.8888888888888888
 40
0.8888888888888888
 40
0.8888888888888888
 40
0.9074074074074074
 40
0.9074074074074074
 40
0.9074074074074074
 40
0.9074074074074074
 40
0.9259259259259259
 40
0.9259259259259259
 40
0.9259259259259259
 40
0.9259259259259259
 40
0.9444444444444444
 40
0.9444444444444444
 40
0.9444444444444444
 40
0.9444444444444444
 40
0.9629629629629629
 40
0.9629629629629629
 40
0.9629629629629629
 40
0.9629629629629629
 40
1.0
 40
1.0
 40
1.0
 40
1.0
 10
268.62314
 20
-128.51355
 30
0.0
 10
268.56158
 20
-128.74398
 30
0.0
 10
268.38611
 20
-128.86035
 30
0.0
 10
268.17256
 20
-128.86035
 30
0.0
 10
268.17256
 20
-128.86035
 30
0.0
 10
266.84046
 20
-128.86035
 30
0.0
 10
265.76059
 20
-129.94022
 30
0.0
 10
265.76059
 20
-131.27232
 30
0.0
 10
265.76059
 20
-131.27232
 30
0.0
 10
265.76059
 20
-131.64515
 30
0.0
 10
265.84524
 20
-131.9982
 30
0.0
 10
265.99628
 20
-132.31337
 30
0.0
 10
265.99628
 20
-132.31337
 30
0.0
 10
265.73754
 20
-132.54232
 30
0.0
 10
265.46251
 20
-132.76281
 30
0.0
 10
265.17257
 20
-132.97423
 30
0.0
 10
265.17257
 20
-132.97423
 30
0.0
 10
264.77174
 20
-132.67742
 30
0.0
 10
264.27576
 20
-132.5018
 30
0.0
 10
263.7387
 20
-132.5018
 30
0.0
 10
263.7387
 20
-132.5018
 30
0.0
 10
262.4066
 20
-132.5018
 30
0.0
 10
261.32673
 20
-133.58167
 30
0.0
 10
261.32673
 20
-134.91377
 30
0.0
 10
261.32673
 20
-134.91377
 30
0.0
 10
261.32673
 20
-134.91986
 30
0.0
 10
261.32691
 20
-134.9259
 30
0.0
 10
261.32696
 20
-134.93198
 30
0.0
 10
261.32696
 20
-134.93198
 30
0.0
 10
261.02688
 20
-135.0347
 30
0.0
 10
260.72039
 20
-135.13037
 30
0.0
 10
260.40779
 20
-135.21849
 30
0.0
 10
260.40779
 20
-135.21849
 30
0.0
 10
259.97165
 20
-134.59578
 30
0.0
 10
259.24889
 20
-134.18852
 30
0.0
 10
258.43093
 20
-134.18852
 30
0.0
 10
258.43093
 20
-134.18852
 30
0.0
 10
257.33813
 20
-134.18852
 30
0.0
 10
256.41525
 20
-134.91533
 30
0.0
 10
256.11888
 20
-135.91187
 30
0.0
 10
256.11888
 20
-135.91187
 30
0.0
 10
255.76576
 20
-135.92996
 30
0.0
 10
255.40889
 20
-135.93929
 30
0.0
 10
255.04872
 20
-135.93929
 30
0.0
 10
255.04872
 20
-135.93929
 30
0.0
 10
255.03422
 20
-135.93929
 30
0.0
 10
255.01984
 20
-135.93896
 30
0.0
 10
255.00535
 20
-135.93893
 30
0.0
 10
255.00535
 20
-135.93893
 30
0.0
 10
254.67384
 20
-135.00287
 30
0.0
 10
253.78095
 20
-134.3323
 30
0.0
 10
252.7313
 20
-134.3323
 30
0.0
 10
252.7313
 20
-134.3323
 30
0.0
 10
251.86746
 20
-134.3323
 30
0.0
 10
251.10983
 20
-134.78651
 30
0.0
 10
250.68383
 20
-135.46904
 30
0.0
 10
250.68383
 20
-135.46904
 30
0.0
 10
250.31642
 20
-135.38727
 30
0.0
 10
249.95634
 20
-135.29503
 30
0.0
 10
249.60369
 20
-135.19369
 30
0.0
 10
249.60369
 20
-135.19369
 30
0.0
 10
249.54458
 20
-133.91414
 30
0.0
 10
248.4886
 20
-132.89488
 30
0.0
 10
247.19445
 20
-132.89488
 30
0.0
 10
247.19445
 20
-132.89488
 30
0.0
 10
246.60355
 20
-132.89488
 30
0.0
 10
246.06239
 20
-133.10748
 30
0.0
 10
245.64299
 20
-133.46021
 30
0.0
 10
245.64299
 20
-133.46021
 30
0.0
 10
245.36323
 20
-133.28465
 30
0.0
 10
245.09534
 20
-133.10095
 30
0.0
 10
244.83897
 20
-132.91039
 30
0.0
 10
244.83897
 20
-132.91039
 30
0.0
 10
244.93335
 20
-132.65216
 30
0.0
 10
244.98487
 20
-132.3733
 30
0.0
 10
244.98487
 20
-132.08239
 30
0.0
 10
244.98487
 20
-132.08239
 30
0.0
 10
244.98487
 20
-130.75029
 30
0.0
 10
243.905
 20
-129.67042
 30
0.0
 10
242.57291
 20
-129.67042
 30
0.0
 10
242.57291
 20
-129.67042
 30
0.0
 10
242.40012
 20
-129.67042
 30
0.0
 10
242.23164
 20
-129.68874
 30
0.0
 10
242.06914
 20
-129.72327
 30
0.0
 10
242.06914
 20
-129.72327
 30
0.0
 10
241.95758
 20
-129.49676
 30
0.0
 10
241.85913
 20
-129.26635
 30
0.0
 10
241.7747
 20
-129.03234
 30
0.0
 10
241.7747
 20
-129.03234
 30
0.0
 10
242.43899
 20
-128.60275
 30
0.0
 10
242.8787
 20
-127.85555
 30
0.0
 10
242.8787
 20
-127.00558
 30
0.0
 10
242.8787
 20
-127.00558
 30
0.0
 10
242.8787
 20
-126.14029
 30
0.0
 10
242.42294
 20
-125.38156
 30
0.0
 10
241.73849
 20
-124.95596
 30
0.0
 10
241.73849
 20
-124.95596
 30
0.0
 10
241.83103
 20
-124.68532
 30
0.0
 10
241.94235
 20
-124.41942
 30
0.0
 10
242.07098
 20
-124.15864
 30
0.0
 10
242.07098
 20
-124.15864
 30
0.0
 10
242.2329
 20
-124.19292
 30
0.0
 10
242.40078
 20
-124.21109
 30
0.0
 10
242.57291
 20
-124.21109
 30
0.0
 10
242.57291
 20
-124.21109
 30
0.0
 10
243.90499
 20
-124.21109
 30
0.0
 10
244.98487
 20
-123.13121
 30
0.0
 10
244.98487
 20
-121.79912
 30
0.0
 10
244.98487
 20
-121.79912
 30
0.0
 10
244.98487
 20
-121.50944
 30
0.0
 10
244.93375
 20
-121.23171
 30
0.0
 10
244.84013
 20
-120.9744
 30
0.0
 10
244.84013
 20
-120.9744
 30
0.0
 10
245.09702
 20
-120.78351
 30
0.0
 10
245.36548
 20
-120.59953
 30
0.0
 10
245.64583
 20
-120.42369
 30
0.0
 10
245.64583
 20
-120.42369
 30
0.0
 10
246.06483
 20
-120.77498
 30
0.0
 10
246.60489
 20
-120.98663
 30
0.0
 10
247.19445
 20
-120.98663
 30
0.0
 10
247.19445
 20
-120.98663
 30
0.0
 10
248.48718
 20
-120.98663
 30
0.0
 10
249.54232
 20
-119.96959
 30
0.0
 10
249.60353
 20
-118.69201
 30
0.0
 10
249.60353
 20
-118.69201
 30
0.0
 10
249.95696
 20
-118.59044
 30
0.0
 10
250.31787
 20
-118.49803
 30
0.0
 10
250.68612
 20
-118.41612
 30
0.0
 10
250.68612
 20
-118.41612
 30
0.0
 10
251.11255
 20
-119.09661
 30
0.0
 10
251.86901
 20
-119.54921
 30
0.0
 10
252.7313
 20
-119.54921
 30
0.0
 10
252.7313
 20
-119.54921
 30
0.0
 10
253.77939
 20
-119.54921
 30
0.0
 10
254.6712
 20
-118.88061
 30
0.0
 10
255.00388
 20
-117.94673
 30
0.0
 10
255.00388
 20
-117.94673
 30
0.0
 10
255.01886
 20
-117.9467
 30
0.0
 10
255.03373
 20
-117.94636
 30
0.0
 10
255.04872
 20
-117.94636
 30
0.0
 10
255.04872
 20
-117.94636
 30
0.0
 10
255.40932
 20
-117.94636
 30
0.0
 10
255.76659
 20
-117.95573
 30
0.0
 10
256.12014
 20
-117.97385
 30
0.0
 10
256.12014
 20
-117.97385
 30
0.0
 10
256.41786
 20
-118.96822
 30
0.0
 10
257.33969
 20
-119.69299
 30
0.0
 10
258.43093
 20
-119.69299
 30
0.0
 10
258.43093
 20
-119.69299
 30
0.0
 10
259.24738
 20
-119.69299
 30
0.0
 10
259.96899
 20
-119.28725
 30
0.0
 10
260.40538
 20
-118.66647
 30
0.0
 10
260.40538
 20
-118.66647
 30
0.0
 10
260.71878
 20
-118.75479
 30
0.0
 10
261.02609
 20
-118.85067
 30
0.0
 10
261.32691
 20
-118.95366
 30
0.0
 10
261.32691
 20
-118.95366
 30
0.0
 10
261.32688
 20
-118.95836
 30
0.0
 10
261.32673
 20
-118.96303
 30
0.0
 10
261.32673
 20
-118.96774
 30
0.0
 10
261.32673
 20
-118.96774
 30
0.0
 10
261.32673
 20
-120.29983
 30
0.0
 10
262.40661
 20
-121.37971
 30
0.0
 10
263.7387
 20
-121.37971
 30
0.0
 10
263.7387
 20
-121.37971
 30
0.0
 10
264.2745
 20
-121.37971
 30
0.0
 10
264.76942
 20
-121.20489
 30
0.0
 10
265.16975
 20
-120.90933
 30
0.0
 10
265.16975
 20
-120.90933
 30
0.0
 10
265.46021
 20
-121.12101
 30
0.0
 10
265.73574
 20
-121.34179
 30
0.0
 10
265.99492
 20
-121.57105
 30
0.0
 10
265.99492
 20
-121.57105
 30
0.0
 10
265.84475
 20
-121.88549
 30
0.0
 10
265.76059
 20
-122.2375
 30
0.0
 10
265.76059
 20
-122.60919
 30
0.0
 10
265.76059
 20
-122.60919
 30
0.0
 10
265.76059
 20
-123.94128
 30
0.0
 10
266.84047
 20
-125.02116
 30
0.0
 10
268.17256
 20
-125.02116
 30
0.0
 10
268.17256
 20
-125.02116
 30
0.0
 10
268.39741
 20
-125.02116
 30
0.0
 10
268.58646
 20
-125.18011
 30
0.0
 10
268.6471
 20
-125.41355
 30
0.0
 10
268.6471
 20
-125.41355
 30
0.0
 10
268.6471
 20
-125.41355
 30
0.0
 10
265.34545
 20
-125.41355
 30
0.0
 10
265.34545
 20
-125.41355
 30
0.0
 10
265.34545
 20
-125.41355
 30
0.0
 10
265.34545
 20
-125.41355
 30
0.0
 10
265.34545
 20
-126.01355
 30
0.0
 10
265.34545
 20
-126.01355
 30
0.0
 10
265.34545
 20
-126.01355
 30
0.0
 10
265.34545
 20
-126.01355
 30
0.0
 10
268.68235
 20
-126.01355
 30
0.0
 10
268.68235
 20
-126.01355
 30
0.0
 10
268.68235
 20
-126.01355
 30
0.0
 10
268.70249
 20
-126.59287
 30
0.0
 10
268.69693
 20
-127.3089
 30
0.0
 10
268.66625
 20
-127.91355
 30
0.0
 10
268.66625
 20
-127.91355
 30
0.0
 10
268.66625
 20
-127.91355
 30
0.0
 10
265.34545
 20
-127.91355
 30
0.0
 10
265.34545
 20
-127.91355
 30
0.0
 10
265.34545
 20
-127.91355
 30
0.0
 10
265.34545
 20
-127.91355
 30
0.0
 10
265.34545
 20
-128.51355
 30
0.0
 10
265.34545
 20
-128.51355
 30
0.0
 10
265.34545
 20
-128.51355
 30
0.0
 10
265.34545
 20
-128.51355
 30
0.0
 10
268.62314
 20
-128.51355
 30
0.0
 10
268.62314
 20
-128.51355
 30
0.0
  0
SPLINE
  5
97
330
1F
100
AcDbEntity
  8
layer 1
 62
   250
370
    20
100
AcDbSpline
210
0.0
220
0.0
230
1.0
 70
    11
 71
     3
 72
   156
 73
   152
 74
     0
 42
0.000000001
 43
0.0000000001
 40
0.0
 40
0.0
 40
0.0
 40
0.0
 40
0.0256410256410256
 40
0.0256410256410256
 40
0.0256410256410256
 40
0.0256410256410256
 40
0.0512820512820513
 40
0.0512820512820513
 40
0.0512820512820513
 40
0.0512820512820513
 40
0.0769230769230769
 40
0.0769230769230769
 40
0.0769230769230769
 40
0.0769230769230769
 40
0.1025641025641026
 40
0.1025641025641026
 40
0.1025641025641026
 40
0.1025641025641026
 40
0.1282051282051282
 40
0.1282051282051282
 40
0.1282051282051282
 40
0.1282051282051282
 40
0.1538461538461539
 40
0.1538461538461539
 40
0.1538461538461539
 40
0.1538461538461539
 40
0.1794871794871795
 40
0.1794871794871795
 40
0.1794871794871795
 40
0.1794871794871795
 40
0.2051282051282051
 40
0.2051282051282051
 40
0.2051282051282051
 40
0.2051282051282051
 40
0.2307692307692308
 40
0.2307692307692308
 40
0.2307692307692308
 40
0.2307692307692308
 40
0.2564102564102564
 40
0.2564102564102564
 40
0.2564102564102564
 40
0.2564102564102564
 40
0.282051282051282
 40
0.282051282051282
 40
0.282051282051282
 40
0.282051282051282
 40
0.3076923076923077
 40
0.3076923076923077
 40
0.3076923076923077
 40
0.3076923076923077
 40
0.3333333333333333
 40
0.3333333333333333
 40
0.3333333333333333
 40
0.3333333333333333
 40
0.358974358974359
 40
0.358974358974359
 40
0.358974358974359
 40
0.358974358974359
 40
0.3846153846153846
 40
0.3846153846153846
 40
0.3846153846153846
 40
0.3846153846153846
 40
0.4102564102564102
 40
0.4102564102564102
 40
0.4102564102564102
 40
0.4102564102564102
 40
0.4358974358974359
 40
0.4358974358974359
 40
0.4358974358974359
 40
0.4358974358974359
 40
0.4615384615384616
 40
0.4615384615384616
 40
0.4615384615384616
 40
0.4615384615384616
 40
0.4871794871794872
 40
0.4871794871794872
 40
0.4871794871794872
 40
0.4871794871794872
 40
0.5128205128205128
 40
0.5128205128205128
 40
0.5128205128205128
 40
0.5128205128205128
 40
0.5384615384615384
 40
0.5384615384615384
 40
0.5384615384615384
 40
0.5384615384615384
 40
0.5641025641025641
 40
0.5641025641025641
 40
0.5641025641025641
 40
0.5641025641025641
 40
0.5897435897435898
 40
0.5897435897435898
 40
0.5897435897435898
 40
0.5897435897435898
 40
0.6153846153846154
 40
0.6153846153846154
 40
0.6153846153846154
 40
0.6153846153846154
 40
0.6410256410256411
 40
0.6410256410256411
 40
0.6410256410256411
 40
0.6410256410256411
 40
0.6666666666666666
 40
0.6666666666666666
 40
0.6666666666666666
 40
0.6666666666666666
 40
0.6923076923076923
 40
0.6923076923076923
 40
0.6923076923076923
 40
0.6923076923076923
 40
0.717948717948718
 40
0.717948717948718
 40
0.717948717948718
 40
0.717948717948718
 40
0.7435897435897436
 40
0.7435897435897436
 40
0.7435897435897436
 40
0.7435897435897436
 40
0.7692307692307693
 40
0.7692307692307693
 40
0.7692307692307693
 40
0.7692307692307693
 40
0.7948717948717948
 40
0.7948717948717948
 40
0.7948717948717948
 40
0.7948717948717948
 40
0.8205128205128205
 40
0.8205128205128205
 40
0.8205128205128205
 40
0.8205128205128205
 40
0.8461538461538461
 40
0.8461538461538461
 40
0.8461538461538461
 40
0.8461538461538461
 40
0.8717948717948718
 40
0.8717948717948718
 40
0.8717948717948718
 40
0.8717948717948718
 40
0.8974358974358975
 40
0.8974358974358975
 40
0.8974358974358975
 40
0.8974358974358975
 40
0.9230769230769231
 40
0.9230769230769231
 40
0.9230769230769231
 40
0.9230769230769231
 40
0.9487179487179487
 40
0.9487179487179487
 40
0.9487179487179487
 40
0.9487179487179487
 40
1.0
 40
1.0
 40
1.0
 40
1.0
 10
312.41372
 20
-195.63814
 30
0.0
 10
313.4367
 20
-194.48565
 30
0.0
 10
315.30523
 20
-193.71405
 30
0.0
 10
317.4411
 20
-193.71405
 30
0.0
 10
317.4411
 20
-193.71405
 30
0.0
 10
319.46048
 20
-193.71405
 30
0.0
 10
321.24108
 20
-194.4037
 30
0.0
 10
322.29387
 20
-195.45294
 30
0.0
 10
322.29387
 20
-195.45294
 30
0.0
 10
323.62155
 20
-191.58883
 30
0.0
 10
326.75104
 20
-188.58903
 30
0.0
 10
329.39155
 20
-188.76747
 30
0.0
 10
329.39155
 20
-188.76747
 30
0.0
 10
329.12664
 20
-187.60126
 30
0.0
 10
329.22004
 20
-186.23724
 30
0.0
 10
329.8173
 20
-184.75795
 30
0.0
 10
329.8173
 20
-184.75795
 30
0.0
 10
330.41456
 20
-183.27866
 30
0.0
 10
331.47486
 20
-182.01703
 30
0.0
 10
332.59022
 20
-181.39808
 30
0.0
 10
332.59022
 20
-181.39808
 30
0.0
 10
331.43811
 20
-180.682
 30
0.0
 10
329.51025
 20
-176.97012
 30
0.0
 10
329.04738
 20
-175.22407
 30
0.0
 10
329.04738
 20
-175.22407
 30
0.0
 10
328.58451
 20
-173.47802
 30
0.0
 10
328.74497
 20
-171.81379
 30
0.0
 10
329.35868
 20
-170.62463
 30
0.0
 10
329.35868
 20
-170.62463
 30
0.0
 10
328.24897
 20
-170.61988
 30
0.0
 10
326.9662
 20
-170.16532
 30
0.0
 10
325.83073
 20
-169.28429
 30
0.0
 10
325.83073
 20
-169.28429
 30
0.0
 10
324.69526
 20
-168.40326
 30
0.0
 10
323.93948
 20
-167.2783
 30
0.0
 10
323.65783
 20
-166.20657
 30
0.0
 10
323.65783
 20
-166.20657
 30
0.0
 10
322.74525
 20
-166.85035
 30
0.0
 10
321.36652
 20
-167.17085
 30
0.0
 10
319.89062
 20
-166.98988
 30
0.0
 10
319.89062
 20
-166.98988
 30
0.0
 10
318.41472
 20
-166.80891
 30
0.0
 10
317.17247
 20
-166.17404
 30
0.0
 10
316.44022
 20
-165.33786
 30
0.0
 10
316.44022
 20
-165.33786
 30
0.0
 10
312.32224
 20
-169.66731
 30
0.0
 10
310.32404
 20
-166.7993
 30
0.0
 10
308.07354
 20
-163.89257
 30
0.0
 10
308.07354
 20
-163.89257
 30
0.0
 10
308.07354
 20
-163.89257
 30
0.0
 10
311.4427
 20
-163.89257
 30
0.0
 10
311.4427
 20
-163.89257
 30
0.0
 10
311.4427
 20
-163.89257
 30
0.0
 10
311.4427
 20
-163.89257
 30
0.0
 10
311.4427
 20
-163.29257
 30
0.0
 10
311.4427
 20
-163.29257
 30
0.0
 10
311.4427
 20
-163.29257
 30
0.0
 10
311.4427
 20
-163.29257
 30
0.0
 10
307.60289
 20
-163.29257
 30
0.0
 10
307.60289
 20
-163.29257
 30
0.0
 10
307.60289
 20
-163.29257
 30
0.0
 10
306.27503
 20
-161.62858
 30
0.0
 10
304.80828
 20
-160.11663
 30
0.0
 10
302.74376
 20
-160.14077
 30
0.0
 10
302.74376
 20
-160.14077
 30
0.0
 10
299.20997
 20
-160.18208
 30
0.0
 10
296.85177
 20
-159.91498
 30
0.0
 10
296.82296
 20
-159.88206
 30
0.0
 10
296.82296
 20
-159.88206
 30
0.0
 10
296.78182
 20
-159.83504
 30
0.0
 10
296.88764
 20
-159.69391
 30
0.0
 10
297.78134
 20
-159.14123
 30
0.0
 10
297.78134
 20
-159.14123
 30
0.0
 10
298.67504
 20
-158.58855
 30
0.0
 10
300.35662
 20
-157.62428
 30
0.0
 10
302.27338
 20
-157.0422
 30
0.0
 10
302.27338
 20
-157.0422
 30
0.0
 10
307.42849
 20
-155.4767
 30
0.0
 10
315.02391
 20
-156.17422
 30
0.0
 10
316.56237
 20
-161.93727
 30
0.0
 10
316.56237
 20
-161.93727
 30
0.0
 10
317.45507
 20
-161.13315
 30
0.0
 10
318.87142
 20
-160.69326
 30
0.0
 10
320.63615
 20
-160.90965
 30
0.0
 10
320.63615
 20
-160.90965
 30
0.0
 10
322.40088
 20
-161.12604
 30
0.0
 10
324.01774
 20
-162.10555
 30
0.0
 10
324.5644
 20
-163.28473
 30
0.0
 10
324.5644
 20
-163.28473
 30
0.0
 10
325.83233
 20
-162.44714
 30
0.0
 10
328.01522
 20
-162.78207
 30
0.0
 10
329.80085
 20
-164.16757
 30
0.0
 10
329.80085
 20
-164.16757
 30
0.0
 10
331.58648
 20
-165.55307
 30
0.0
 10
332.42188
 20
-167.511
 30
0.0
 10
331.9826
 20
-168.94152
 30
0.0
 10
331.9826
 20
-168.94152
 30
0.0
 10
333.71822
 20
-169.02695
 30
0.0
 10
335.75258
 20
-170.75304
 30
0.0
 10
336.41089
 20
-173.23635
 30
0.0
 10
336.41089
 20
-173.23635
 30
0.0
 10
337.0692
 20
-175.71966
 30
0.0
 10
337.13845
 20
-180.42315
 30
0.0
 10
335.77342
 20
-181.41948
 30
0.0
 10
335.77342
 20
-181.41948
 30
0.0
 10
337.19963
 20
-182.46989
 30
0.0
 10
337.53472
 20
-185.12565
 30
0.0
 10
336.58065
 20
-187.48866
 30
0.0
 10
336.58065
 20
-187.48866
 30
0.0
 10
335.62658
 20
-189.85167
 30
0.0
 10
333.90111
 20
-191.48025
 30
0.0
 10
332.26695
 20
-191.55625
 30
0.0
 10
332.26695
 20
-191.55625
 30
0.0
 10
332.54366
 20
-196.58252
 30
0.0
 10
326.52598
 20
-199.54359
 30
0.0
 10
322.96948
 20
-198.97078
 30
0.0
 10
322.96948
 20
-198.97078
 30
0.0
 10
322.17031
 20
-200.51128
 30
0.0
 10
319.99714
 20
-201.61627
 30
0.0
 10
317.4411
 20
-201.61627
 30
0.0
 10
317.4411
 20
-201.61627
 30
0.0
 10
315.23756
 20
-201.61627
 30
0.0
 10
313.31862
 20
-200.79497
 30
0.0
 10
312.31912
 20
-199.58147
 30
0.0
 10
312.31912
 20
-199.58147
 30
0.0
 10
311.00923
 20
-201.29858
 30
0.0
 10
308.09379
 20
-202.4934
 30
0.0
 10
304.7075
 20
-202.4934
 30
0.0
 10
304.7075
 20
-202.4934
 30
0.0
 10
300.25976
 20
-202.4934
 30
0.0
 10
296.62481
 20
-200.43207
 30
0.0
 10
296.37283
 20
-197.83342
 30
0.0
 10
296.37283
 20
-197.83342
 30
0.0
 10
296.37283
 20
-197.83342
 30
0.0
 10
303.63553
 20
-197.83342
 30
0.0
 10
303.63553
 20
-197.83342
 30
0.0
 10
303.63553
 20
-197.83342
 30
0.0
 10
303.63553
 20
-197.83342
 30
0.0
 10
303.63553
 20
-197.23342
 30
0.0
 10
303.63553
 20
-197.23342
 30
0.0
 10
303.63553
 20
-197.23342
 30
0.0
 10
303.63553
 20
-197.23342
 30
0.0
 10
296.37533
 20
-197.23342
 30
0.0
 10
296.37533
 20
-197.23342
 30
0.0
 10
296.37533
 20
-197.23342
 30
0.0
 10
296.64677
 20
-194.64578
 30
0.0
 10
300.27309
 20
-192.59678
 30
0.0
 10
304.7075
 20
-192.59678
 30
0.0
 10
304.7075
 20
-192.59678
 30
0.0
 10
308.17818
 20
-192.59678
 30
0.0
 10
311.15393
 20
-193.85198
 30
0.0
 10
312.41372
 20
-195.63814
 30
0.0
  0
SPLINE
  5
98
330
1F
100
AcDbEntity
  8
layer 1
 62
   250
370
    20
100
AcDbSpline
210
0.0
220
0.0
230
1.0
 70
    11
 71
     3
 72
   156
 73
   152
 74
     0
 42
0.000000001
 43
0.0000000001
 40
0.0
 40
0.0
 40
0.0
 40
0.0
 40
0.0256410256410256
 40
0.0256410256410256
 40
0.0256410256410256
 40
0.0256410256410256
 40
0.0512820512820513
 40
0.0512820512820513
 40
0.0512820512820513
 40
0.0512820512820513
 40
0.0769230769230769
 40
0.0769230769230769
 40
0.0769230769230769
 40
0.0769230769230769
 40
0.1025641025641026
 40
0.1025641025641026
 40
0.1025641025641026
 40
0.1025641025641026
 40
0.1282051282051282
 40
0.1282051282051282
 40
0.1282051282051282
 40
0.1282051282051282
 40
0.1538461538461539
 40
0.1538461538461539
 40
0.1538461538461539
 40
0.1538461538461539
 40
0.1794871794871795
 40
0.1794871794871795
 40
0.1794871794871795
 40
0.1794871794871795
 40
0.2051282051282051
 40
0.2051282051282051
 40
0.2051282051282051
 40
0.2051282051282051
 40
0.2307692307692308
 40
0.2307692307692308
 40
0.2307692307692308
 40
0.2307692307692308
 40
0.2564102564102564
 40
0.2564102564102564
 40
0.2564102564102564
 40
0.2564102564102564
 40
0.282051282051282
 40
0.282051282051282
 40
0.282051282051282
 40
0.282051282051282
 40
0.3076923076923077
 40
0.3076923076923077
 40
0.3076923076923077
 40
0.3076923076923077
 40
0.3333333333333333
 40
0.3333333333333333
 40
0.3333333333333333
 40
0.3333333333333333
 40
0.358974358974359
 40
0.358974358974359
 40
0.358974358974359
 40
0.358974358974359
 40
0.3846153846153846
 40
0.3846153846153846
 40
0.3846153846153846
 40
0.3846153846153846
 40
0.4102564102564102
 40
0.4102564102564102
 40
0.4102564102564102
 40
0.4102564102564102
 40
0.4358974358974359
 40
0.4358974358974359
 40
0.4358974358974359
 40
0.4358974358974359
 40
0.4615384615384616
 40
0.4615384615384616
 40
0.4615384615384616
 40
0.4615384615384616
 40
0.4871794871794872
 40
0.4871794871794872
 40
0.4871794871794872
 40
0.4871794871794872
 40
0.5128205128205128
 40
0.5128205128205128
 40
0.5128205128205128
 40
0.5128205128205128
 40
0.5384615384615384
 40
0.5384615384615384
 40
0.5384615384615384
 40
0.5384615384615384
 40
0.5641025641025641
 40
0.5641025641025641
 40
0.5641025641025641
 40
0.5641025641025641
 40
0.5897435897435898
 40
0.5897435897435898
 40
0.5897435897435898
 40
0.5897435897435898
 40
0.6153846153846154
 40
0.6153846153846154
 40
0.6153846153846154
 40
0.6153846153846154
 40
0.6410256410256411
 40
0.6410256410256411
 40
0.6410256410256411
 40
0.6410256410256411
 40
0.6666666666666666
 40
0.6666666666666666
 40
0.6666666666666666
 40
0.6666666666666666
 40
0.6923076923076923
 40
0.6923076923076923
 40
0.6923076923076923
 40
0.6923076923076923
 40
0.717948717948718
 40
0.717948717948718
 40
0.717948717948718
 40
0.717948717948718
 40
0.7435897435897436
 40
0.7435897435897436
 40
0.7435897435897436
 40
0.7435897435897436
 40
0.7692307692307693
 40
0.7692307692307693
 40
0.7692307692307693
 40
0.7692307692307693
 40
0.7948717948717948
 40
0.7948717948717948
 40
0.7948717948717948
 40
0.7948717948717948
 40
0.8205128205128205
 40
0.8205128205128205
 40
0.8205128205128205
 40
0.8205128205128205
 40
0.8461538461538461
 40
0.8461538461538461
 40
0.8461538461538461
 40
0.8461538461538461
 40
0.8717948717948718
 40
0.8717948717948718
 40
0.8717948717948718
 40
0.8717948717948718
 40
0.8974358974358975
 40
0.8974358974358975
 40
0.8974358974358975
 40
0.8974358974358975
 40
0.9230769230769231
 40
0.9230769230769231
 40
0.9230769230769231
 40
0.9230769230769231
 40
0.9487179487179487
 40
0.9487179487179487
 40
0.9487179487179487
 40
0.9487179487179487
 40
1.0
 40
1.0
 40
1.0
 40
1.0
 10
305.80077
 20
-149.46419
 30
0.0
 10
306.82375
 20
-148.3117
 30
0.0
 10
308.69228
 20
-147.5401
 30
0.0
 10
310.82815
 20
-147.5401
 30
0.0
 10
310.82815
 20
-147.5401
 30
0.0
 10
312.84753
 20
-147.5401
 30
0.0
 10
314.62813
 20
-148.22975
 30
0.0
 10
315.68092
 20
-149.27899
 30
0.0
 10
315.68092
 20
-149.27899
 30
0.0
 10
317.0086
 20
-145.41488
 30
0.0
 10
320.13809
 20
-142.41508
 30
0.0
 10
322.7786
 20
-142.59352
 30
0.0
 10
322.7786
 20
-142.59352
 30
0.0
 10
322.51369
 20
-141.42731
 30
0.0
 10
322.60709
 20
-140.06329
 30
0.0
 10
323.20435
 20
-138.584
 30
0.0
 10
323.20435
 20
-138.584
 30
0.0
 10
323.80161
 20
-137.10471
 30
0.0
 10
324.86191
 20
-135.84308
 30
0.0
 10
325.97727
 20
-135.22413
 30
0.0
 10
325.97727
 20
-135.22413
 30
0.0
 10
324.82516
 20
-134.50805
 30
0.0
 10
322.8973
 20
-130.79617
 30
0.0
 10
322.43443
 20
-129.05012
 30
0.0
 10
322.43443
 20
-129.05012
 30
0.0
 10
321.97156
 20
-127.30407
 30
0.0
 10
322.13202
 20
-125.63984
 30
0.0
 10
322.74573
 20
-124.45068
 30
0.0
 10
322.74573
 20
-124.45068
 30
0.0
 10
321.63602
 20
-124.44593
 30
0.0
 10
320.35325
 20
-123.99137
 30
0.0
 10
319.21778
 20
-123.11034
 30
0.0
 10
319.21778
 20
-123.11034
 30
0.0
 10
318.08231
 20
-122.22931
 30
0.0
 10
317.32653
 20
-121.10435
 30
0.0
 10
317.04488
 20
-120.03262
 30
0.0
 10
317.04488
 20
-120.03262
 30
0.0
 10
316.1323
 20
-120.6764
 30
0.0
 10
314.75357
 20
-120.9969
 30
0.0
 10
313.27767
 20
-120.81593
 30
0.0
 10
313.27767
 20
-120.81593
 30
0.0
 10
311.80177
 20
-120.63496
 30
0.0
 10
310.55952
 20
-120.00009
 30
0.0
 10
309.82727
 20
-119.16391
 30
0.0
 10
309.82727
 20
-119.16391
 30
0.0
 10
305.70929
 20
-123.49336
 30
0.0
 10
303.71109
 20
-120.62535
 30
0.0
 10
301.46059
 20
-117.71862
 30
0.0
 10
301.46059
 20
-117.71862
 30
0.0
 10
301.46059
 20
-117.71862
 30
0.0
 10
304.82975
 20
-117.71862
 30
0.0
 10
304.82975
 20
-117.71862
 30
0.0
 10
304.82975
 20
-117.71862
 30
0.0
 10
304.82975
 20
-117.71862
 30
0.0
 10
304.82975
 20
-117.11862
 30
0.0
 10
304.82975
 20
-117.11862
 30
0.0
 10
304.82975
 20
-117.11862
 30
0.0
 10
304.82975
 20
-117.11862
 30
0.0
 10
300.98994
 20
-117.11862
 30
0.0
 10
300.98994
 20
-117.11862
 30
0.0
 10
300.98994
 20
-117.11862
 30
0.0
 10
299.66208
 20
-115.45463
 30
0.0
 10
298.19533
 20
-113.94268
 30
0.0
 10
296.13081
 20
-113.96682
 30
0.0
 10
296.13081
 20
-113.96682
 30
0.0
 10
292.59702
 20
-114.00813
 30
0.0
 10
290.23882
 20
-113.74103
 30
0.0
 10
290.21001
 20
-113.70811
 30
0.0
 10
290.21001
 20
-113.70811
 30
0.0
 10
290.16887
 20
-113.66109
 30
0.0
 10
290.27469
 20
-113.51996
 30
0.0
 10
291.16839
 20
-112.96728
 30
0.0
 10
291.16839
 20
-112.96728
 30
0.0
 10
292.06209
 20
-112.4146
 30
0.0
 10
293.74367
 20
-111.45033
 30
0.0
 10
295.66043
 20
-110.86825
 30
0.0
 10
295.66043
 20
-110.86825
 30
0.0
 10
300.81554
 20
-109.30275
 30
0.0
 10
308.41096
 20
-110.00027
 30
0.0
 10
309.94942
 20
-115.76332
 30
0.0
 10
309.94942
 20
-115.76332
 30
0.0
 10
310.84212
 20
-114.9592
 30
0.0
 10
312.25847
 20
-114.51931
 30
0.0
 10
314.0232
 20
-114.7357
 30
0.0
 10
314.0232
 20
-114.7357
 30
0.0
 10
315.78793
 20
-114.95209
 30
0.0
 10
317.40479
 20
-115.9316
 30
0.0
 10
317.95145
 20
-117.11078
 30
0.0
 10
317.95145
 20
-117.11078
 30
0.0
 10
319.21938
 20
-116.27319
 30
0.0
 10
321.40227
 20
-116.60812
 30
0.0
 10
323.1879
 20
-117.99362
 30
0.0
 10
323.1879
 20
-117.99362
 30
0.0
 10
324.97353
 20
-119.37912
 30
0.0
 10
325.80893
 20
-121.33705
 30
0.0
 10
325.36965
 20
-122.76757
 30
0.0
 10
325.36965
 20
-122.76757
 30
0.0
 10
327.10527
 20
-122.853
 30
0.0
 10
329.13963
 20
-124.57909
 30
0.0
 10
329.79794
 20
-127.0624
 30
0.0
 10
329.79794
 20
-127.0624
 30
0.0
 10
330.45625
 20
-129.54571
 30
0.0
 10
330.5255
 20
-134.2492
 30
0.0
 10
329.16047
 20
-135.24553
 30
0.0
 10
329.16047
 20
-135.24553
 30
0.0
 10
330.58668
 20
-136.29594
 30
0.0
 10
330.92177
 20
-138.9517
 30
0.0
 10
329.9677
 20
-141.31471
 30
0.0
 10
329.9677
 20
-141.31471
 30
0.0
 10
329.01363
 20
-143.67772
 30
0.0
 10
327.28816
 20
-145.3063
 30
0.0
 10
325.654
 20
-145.3823
 30
0.0
 10
325.654
 20
-145.3823
 30
0.0
 10
325.93071
 20
-150.40857
 30
0.0
 10
319.91303
 20
-153.36964
 30
0.0
 10
316.35653
 20
-152.79683
 30
0.0
 10
316.35653
 20
-152.79683
 30
0.0
 10
315.55736
 20
-154.33733
 30
0.0
 10
313.38419
 20
-155.44232
 30
0.0
 10
310.82815
 20
-155.44232
 30
0.0
 10
310.82815
 20
-155.44232
 30
0.0
 10
308.62461
 20
-155.44232
 30
0.0
 10
306.70567
 20
-154.62102
 30
0.0
 10
305.70617
 20
-153.40752
 30
0.0
 10
305.70617
 20
-153.40752
 30
0.0
 10
304.39628
 20
-155.12463
 30
0.0
 10
301.48084
 20
-156.31945
 30
0.0
 10
298.09455
 20
-156.31945
 30
0.0
 10
298.09455
 20
-156.31945
 30
0.0
 10
293.64681
 20
-156.31945
 30
0.0
 10
290.01186
 20
-154.25812
 30
0.0
 10
289.75988
 20
-151.65947
 30
0.0
 10
289.75988
 20
-151.65947
 30
0.0
 10
289.75988
 20
-151.65947
 30
0.0
 10
297.02258
 20
-151.65947
 30
0.0
 10
297.02258
 20
-151.65947
 30
0.0
 10
297.02258
 20
-151.65947
 30
0.0
 10
297.02258
 20
-151.65947
 30
0.0
 10
297.02258
 20
-151.05947
 30
0.0
 10
297.02258
 20
-151.05947
 30
0.0
 10
297.02258
 20
-151.05947
 30
0.0
 10
297.02258
 20
-151.05947
 30
0.0
 10
289.76238
 20
-151.05947
 30
0.0
 10
289.76238
 20
-151.05947
 30
0.0
 10
289.76238
 20
-151.05947
 30
0.0
 10
290.03382
 20
-148.47183
 30
0.0
 10
293.66014
 20
-146.42283
 30
0.0
 10
298.09455
 20
-146.42283
 30
0.0
 10
298.09455
 20
-146.42283
 30
0.0
 10
301.56523
 20
-146.42283
 30
0.0
 10
304.54098
 20
-147.67803
 30
0.0
 10
305.80077
 20
-149.46419
 30
0.0
  0
IMAGE
  5
9B
330
1F
100
AcDbEntity
  8
layer 1
 62
   250
 92
      140
310
8C00000001000000840000000600000005000000E6A366A676B254C0D18208F4A5A552C00000000000000000E6A366A676B254C06A7BD3F7F0B152C00000000000000000A6F805DA8AA254C06A7BD3F7F0B152C00000000000000000A6F805DA8AA254C0D18208F4A5A552C00000000000000000E6A366A676B254C0D18208
310
F4A5A552C00000000000000000
100
AcDbRasterImage
 90
        0
 10
-81.66099
 20
-89.64506
 30
0.0
 11
0.01389216446858029
 21
0.0
 31
0.0
 12
0.0
 22
0.0139010060362173
 32
0.0
 13
1289.0
 23
994.0
340
9A
 70
     7
280
     1
281
    50
282
    50
283
     0
360
9C
 71
     1
 91
        2
 14
-81.66099
 24
-89.64506
 14
-63.75399
 24
-75.82746
  0
ENDSEC
  0
SECTION
  2
OBJECTS
  0
DICTIONARY
  5
C
330
0
100
AcDbDictionary
281
     1
  3
ACAD_DETAILVIEWSTYLE
350
D9
  3
ACAD_GROUP
350
D
  3
ACAD_IMAGE_DICT
350
99
  3
ACAD_LAYOUT
350
1A
  3
ACAD_MATERIAL
350
43
  3
ACAD_MLEADERSTYLE
350
6B
  3
ACAD_MLINESTYLE
350
17
  3
ACAD_PLOTSETTINGS
350
19
  3
ACAD_PLOTSTYLENAME
350
E
  3
ACAD_SCALELIST
350
47
  3
ACAD_SECTIONVIEWSTYLE
350
DA
  3
ACAD_TABLESTYLE
350
69
  3
ACAD_VISUALSTYLE
350
2A
  3
ACDB_RECOMPOSE_DATA
350
D6
  3
AcDbVariableDictionary
350
9E
  0
SUN
  5
6D
330
29
100
AcDbSun
 90
        1
290
     0
 63
     7
421
 16777215
 40
1.0
291
     1
 91
  2455826
 92
 54000000
292
     0
 70
     2
 71
   256
280
     1
  0
IMAGEDEF_REACTOR
  5
9C
330
9B
100
AcDbRasterImageDefReactor
 90
        2
330
9B
  0
DICTIONARY
  5
D9
102
{ACAD_REACTORS
330
C
102
}
330
C
100
AcDbDictionary
281
     1
  0
DICTIONARY
  5
D
102
{ACAD_REACTORS
330
C
102
}
330
C
100
AcDbDictionary
281
     1
  0
DICTIONARY
  5
99
102
{ACAD_REACTORS
330
C
102
}
330
C
100
AcDbDictionary
281
     1
  3
Image #1
350
9A
  0
DICTIONARY
  5
1A
102
{ACAD_REACTORS
330
C
102
}
330
C
100
AcDbDictionary
281
     1
  3
Layout1
350
1E
  3
Layout2
350
26
  3
Model
350
22
  0
DICTIONARY
  5
43
102
{ACAD_REACTORS
330
C
102
}
330
C
100
AcDbDictionary
281
     1
  3
ByBlock
350
45
  3
ByLayer
350
44
  3
Global
350
46
  0
DICTIONARY
  5
6B
102
{ACAD_REACTORS
330
C
102
}
330
C
100
AcDbDictionary
281
     1
  3
Standard
350
6C
  0
DICTIONARY
  5
17
102
{ACAD_REACTORS
330
C
102
}
330
C
100
AcDbDictionary
281
     1
  3
Standard
350
18
  0
DICTIONARY
  5
19
102
{ACAD_REACTORS
330
C
102
}
330
C
100
AcDbDictionary
281
     1
  0
ACDBDICTIONARYWDFLT
  5
E
102
{ACAD_REACTORS
330
C
102
}
330
C
100
AcDbDictionary
281
     1
  3
Normal
350
F
100
AcDbDictionaryWithDefault
340
F
  0
DICTIONARY
  5
47
102
{ACAD_REACTORS
330
C
102
}
330
C
100
AcDbDictionary
281
     1
  3
A0
350
48
  3
A1
350
49
  3
A2
350
4A
  3
A3
350
4B
  3
A4
350
4C
  3
A5
350
4D
  3
A6
350
4E
  3
A7
350
4F
  3
A8
350
50
  3
A9
350
51
  3
B0
350
52
  3
B1
350
53
  3
B2
350
54
  3
B3
350
55
  3
B4
350
56
  3
B5
350
57
  3
B6
350
58
  3
B7
350
59
  3
B8
350
5A
  3
B9
350
5B
  3
C0
350
5C
  3
C1
350
5D
  3
C2
350
5E
  3
C3
350
5F
  3
C4
350
60
  3
C5
350
61
  3
C6
350
62
  3
C7
350
63
  3
C8
350
64
  3
C9
350
65
  3
D0
350
66
  3
D1
350
67
  3
D2
350
68
  0
DICTIONARY
  5
DA
102
{ACAD_REACTORS
330
C
102
}
330
C
100
AcDbDictionary
281
     1
  0
DICTIONARY
  5
69
102
{ACAD_REACTORS
330
C
102
}
330
C
100
AcDbDictionary
281
     1
  3
Standard
350
6A
  0
DICTIONARY
  5
2A
102
{ACAD_REACTORS
330
C
102
}
330
C
100
AcDbDictionary
281
     1
  3
2dWireframe
350
2F
  3
Basic
350
32
  3
Brighten
350
36
  3
ColorChange
350
3A
  3
Conceptual
350
34
  3
Dim
350
35
  3
EdgeColorOff
350
3D
  3
Facepattern
350
39
  3
Flat
350
2B
  3
FlatWithEdges
350
2C
  3
Gouraud
350
2D
  3
GouraudWithEdges
350
2E
  3
Hidden
350
31
  3
JitterOff
350
3B
  3
Linepattern
350
38
  3
OverhangOff
350
3C
  3
Realistic
350
33
  3
Shaded
350
42
  3
Shaded with edges
350
41
  3
Shades of Gray
350
3E
  3
Sketchy
350
3F
  3
Thicken
350
37
  3
Wireframe
350
30
  3
X-Ray
350
40
  0
XRECORD
  5
D6
102
{ACAD_REACTORS
330
C
102
}
330
C
100
AcDbXrecord
280
     1
 90
        1
330
6A
  0
DICTIONARY
  5
9E
102
{ACAD_REACTORS
330
C
102
}
330
C
100
AcDbDictionary
281
     1
  3
CANNOSCALE
350
9F
  3
CMLEADERSTYLE
350
D8
  3
CTABLESTYLE
350
D7
  3
XCLIPFRAME
350
A0
  0
IMAGEDEF
  5
9A
102
{ACAD_REACTORS
330
99
330
9C
102
}
330
99
100
AcDbRasterImageDef
 90
        0
  1
C:\Users\TH\Downloads\podstavka_skorpion_ACD_0.jpg
 10
1289.0
 20
994.0
 11
0.0007757951900698216
 21
0.0007757951900698216
280
     1
281
     5
  0
LAYOUT
  5
1E
102
{ACAD_REACTORS
330
1A
102
}
330
1A
100
AcDbPlotSettings
  1

  2
none_device
  4

  6

 40
0.0
 41
0.0
 42
0.0
 43
0.0
 44
0.0
 45
0.0
 46
0.0
 47
0.0
 48
0.0
 49
0.0
140
0.0
141
0.0
142
1.0
143
1.0
 70
   688
 72
     0
 73
     0
 74
     5
  7

 75
    16
 76
     0
 77
     2
 78
   300
147
1.0
148
0.0
149
0.0
100
AcDbLayout
  1
Layout1
 70
     1
 71
     1
 10
0.0
 20
0.0
 11
12.0
 21
9.0
 12
0.0
 22
0.0
 32
0.0
 14
1.000000000000000E+20
 24
1.000000000000000E+20
 34
1.000000000000000E+20
 15
-1.000000000000000E+20
 25
-1.000000000000000E+20
 35
-1.000000000000000E+20
146
0.0
 13
0.0
 23
0.0
 33
0.0
 16
1.0
 26
0.0
 36
0.0
 17
0.0
 27
1.0
 37
0.0
 76
     0
330
1B
  0
LAYOUT
  5
26
102
{ACAD_REACTORS
330
1A
102
}
330
1A
100
AcDbPlotSettings
  1

  2
none_device
  4

  6

 40
0.0
 41
0.0
 42
0.0
 43
0.0
 44
0.0
 45
0.0
 46
0.0
 47
0.0
 48
0.0
 49
0.0
140
0.0
141
0.0
142
1.0
143
1.0
 70
   688
 72
     0
 73
     0
 74
     5
  7

 75
    16
 76
     0
 77
     2
 78
   300
147
1.0
148
0.0
149
0.0
100
AcDbLayout
  1
Layout2
 70
     1
 71
     2
 10
0.0
 20
0.0
 11
0.0
 21
0.0
 12
0.0
 22
0.0
 32
0.0
 14
0.0
 24
0.0
 34
0.0
 15
0.0
 25
0.0
 35
0.0
146
0.0
 13
0.0
 23
0.0
 33
0.0
 16
1.0
 26
0.0
 36
0.0
 17
0.0
 27
1.0
 37
0.0
 76
     0
330
23
  0
LAYOUT
  5
22
102
{ACAD_REACTORS
330
1A
102
}
330
1A
100
AcDbPlotSettings
  1

  2
none_device
  4
Letter_(8.50_x_11.00_Inches)
  6

 40
6.35
 41
6.35
 42
6.35000508
 43
6.35000508
 44
215.9
 45
279.4
 46
0.0
 47
0.0
 48
0.0
 49
0.0
140
0.0
141
0.0
142
1.0
143
1.0
 70
  1712
 72
     0
 73
     0
 74
     0
  7

 75
     0
 76
     0
 77
     2
 78
   300
147
1.0
148
0.0
149
0.0
100
AcDbLayout
  1
Model
 70
     1
 71
     0
 10
0.0
 20
0.0
 11
12.0
 21
9.0
 12
0.0
 22
0.0
 32
0.0
 14
-81.66099
 24
-202.5034
 34
0.0
 15
337.13056
 25
-75.82746
 35
0.0
146
0.0
 13
0.0
 23
0.0
 33
0.0
 16
1.0
 26
0.0
 36
0.0
 17
0.0
 27
1.0
 37
0.0
 76
     0
330
1F
331
29
  0
MATERIAL
  5
45
102
{ACAD_REACTORS
330
43
102
}
330
43
100
AcDbMaterial
  1
ByBlock
 72
     1
 94
      127
  0
MATERIAL
  5
44
102
{ACAD_REACTORS
330
43
102
}
330
43
100
AcDbMaterial
  1
ByLayer
 72
     1
 94
      127
  0
MATERIAL
  5
46
102
{ACAD_REACTORS
330
43
102
}
330
43
100
AcDbMaterial
  1
Global
 72
     1
 94
      127
  0
MLEADERSTYLE
  5
6C
102
{ACAD_REACTORS
330
6B
102
}
102
{ACAD_XDICTIONARY
360
D4
102
}
330
6B
100
AcDbMLeaderStyle
170
     2
171
     1
172
     0
 90
        2
 40
0.0
 41
0.0
173
     1
 91
-1056964608
340
14
 92
       -2
290
     1
 42
0.09
291
     1
 43
0.36
  3
Standard
341
0
 44
0.18
300

342
11
174
     1
178
     6
175
     1
176
     0
 93
-1056964608
 45
0.18
292
     0
297
     0
 46
0.18
343
0
 94
-1056964608
 47
1.0
 49
1.0
140
1.0
293
     1
141
0.0
294
     1
177
     0
142
1.0
295
     0
296
     0
143
0.125
1001
ACAD_MLEADERVER
1070
     2
  0
MLINESTYLE
  5
18
102
{ACAD_REACTORS
330
17
102
}
330
17
100
AcDbMlineStyle
  2
Standard
 70
     0
  3

 62
   256
 51
90.0
 52
90.0
 71
     2
 49
0.5
 62
   256
  6
BYLAYER
 49
-0.5
 62
   256
  6
BYLAYER
  0
ACDBPLACEHOLDER
  5
F
102
{ACAD_REACTORS
330
E
102
}
330
E
  0
SCALE
  5
48
102
{ACAD_REACTORS
330
47
102
}
330
47
100
AcDbScale
 70
     0
300
1:1
140
1.0
141
1.0
290
     1
  0
SCALE
  5
49
102
{ACAD_REACTORS
330
47
102
}
330
47
100
AcDbScale
 70
     0
300
1:2
140
1.0
141
2.0
290
     0
  0
SCALE
  5
4A
102
{ACAD_REACTORS
330
47
102
}
330
47
100
AcDbScale
 70
     0
300
1:4
140
1.0
141
4.0
290
     0
  0
SCALE
  5
4B
102
{ACAD_REACTORS
330
47
102
}
330
47
100
AcDbScale
 70
     0
300
1:5
140
1.0
141
5.0
290
     0
  0
SCALE
  5
4C
102
{ACAD_REACTORS
330
47
102
}
330
47
100
AcDbScale
 70
     0
300
1:8
140
1.0
141
8.0
290
     0
  0
SCALE
  5
4D
102
{ACAD_REACTORS
330
47
102
}
330
47
100
AcDbScale
 70
     0
300
1:10
140
1.0
141
10.0
290
     0
  0
SCALE
  5
4E
102
{ACAD_REACTORS
330
47
102
}
330
47
100
AcDbScale
 70
     0
300
1:16
140
1.0
141
16.0
290
     0
  0
SCALE
  5
4F
102
{ACAD_REACTORS
330
47
102
}
330
47
100
AcDbScale
 70
     0
300
1:20
140
1.0
141
20.0
290
     0
  0
SCALE
  5
50
102
{ACAD_REACTORS
330
47
102
}
330
47
100
AcDbScale
 70
     0
300
1:30
140
1.0
141
30.0
290
     0
  0
SCALE
  5
51
102
{ACAD_REACTORS
330
47
102
}
330
47
100
AcDbScale
 70
     0
300
1:40
140
1.0
141
40.0
290
     0
  0
SCALE
  5
52
102
{ACAD_REACTORS
330
47
102
}
330
47
100
AcDbScale
 70
     0
300
1:50
140
1.0
141
50.0
290
     0
  0
SCALE
  5
53
102
{ACAD_REACTORS
330
47
102
}
330
47
100
AcDbScale
 70
     0
300
1:100
140
1.0
141
100.0
290
     0
  0
SCALE
  5
54
102
{ACAD_REACTORS
330
47
102
}
330
47
100
AcDbScale
 70
     0
300
2:1
140
2.0
141
1.0
290
     0
  0
SCALE
  5
55
102
{ACAD_REACTORS
330
47
102
}
330
47
100
AcDbScale
 70
     0
300
4:1
140
4.0
141
1.0
290
     0
  0
SCALE
  5
56
102
{ACAD_REACTORS
330
47
102
}
330
47
100
AcDbScale
 70
     0
300
8:1
140
8.0
141
1.0
290
     0
  0
SCALE
  5
57
102
{ACAD_REACTORS
330
47
102
}
330
47
100
AcDbScale
 70
     0
300
10:1
140
10.0
141
1.0
290
     0
  0
SCALE
  5
58
102
{ACAD_REACTORS
330
47
102
}
330
47
100
AcDbScale
 70
     0
300
100:1
140
100.0
141
1.0
290
     0
  0
SCALE
  5
59
102
{ACAD_REACTORS
330
47
102
}
330
47
100
AcDbScale
 70
     0
300
1/128" = 1'-0"
140
0.0078125
141
12.0
290
     0
  0
SCALE
  5
5A
102
{ACAD_REACTORS
330
47
102
}
330
47
100
AcDbScale
 70
     0
300
1/64" = 1'-0"
140
0.015625
141
12.0
290
     0
  0
SCALE
  5
5B
102
{ACAD_REACTORS
330
47
102
}
330
47
100
AcDbScale
 70
     0
300
1/32" = 1'-0"
140
0.03125
141
12.0
290
     0
  0
SCALE
  5
5C
102
{ACAD_REACTORS
330
47
102
}
330
47
100
AcDbScale
 70
     0
300
1/16" = 1'-0"
140
0.0625
141
12.0
290
     0
  0
SCALE
  5
5D
102
{ACAD_REACTORS
330
47
102
}
330
47
100
AcDbScale
 70
     0
300
3/32" = 1'-0"
140
0.09375
141
12.0
290
     0
  0
SCALE
  5
5E
102
{ACAD_REACTORS
330
47
102
}
330
47
100
AcDbScale
 70
     0
300
1/8" = 1'-0"
140
0.125
141
12.0
290
     0
  0
SCALE
  5
5F
102
{ACAD_REACTORS
330
47
102
}
330
47
100
AcDbScale
 70
     0
300
3/16" = 1'-0"
140
0.1875
141
12.0
290
     0
  0
SCALE
  5
60
102
{ACAD_REACTORS
330
47
102
}
330
47
100
AcDbScale
 70
     0
300
1/4" = 1'-0"
140
0.25
141
12.0
290
     0
  0
SCALE
  5
61
102
{ACAD_REACTORS
330
47
102
}
330
47
100
AcDbScale
 70
     0
300
3/8" = 1'-0"
140
0.375
141
12.0
290
     0
  0
SCALE
  5
62
102
{ACAD_REACTORS
330
47
102
}
330
47
100
AcDbScale
 70
     0
300
1/2" = 1'-0"
140
0.5
141
12.0
290
     0
  0
SCALE
  5
63
102
{ACAD_REACTORS
330
47
102
}
330
47
100
AcDbScale
 70
     0
300
3/4" = 1'-0"
140
0.75
141
12.0
290
     0
  0
SCALE
  5
64
102
{ACAD_REACTORS
330
47
102
}
330
47
100
AcDbScale
 70
     0
300
1" = 1'-0"
140
1.0
141
12.0
290
     0
  0
SCALE
  5
65
102
{ACAD_REACTORS
330
47
102
}
330
47
100
AcDbScale
 70
     0
300
1-1/2" = 1'-0"
140
1.5
141
12.0
290
     0
  0
SCALE
  5
66
102
{ACAD_REACTORS
330
47
102
}
330
47
100
AcDbScale
 70
     0
300
3" = 1'-0"
140
3.0
141
12.0
290
     0
  0
SCALE
  5
67
102
{ACAD_REACTORS
330
47
102
}
330
47
100
AcDbScale
 70
     0
300
6" = 1'-0"
140
6.0
141
12.0
290
     0
  0
SCALE
  5
68
102
{ACAD_REACTORS
330
47
102
}
330
47
100
AcDbScale
 70
     0
300
1'-0" = 1'-0"
140
12.0
141
12.0
290
     0
  0
TABLESTYLE
  5
6A
102
{ACAD_REACTORS
330
69
102
}
102
{ACAD_XDICTIONARY
360
D1
102
}
330
69
100
AcDbTableStyle
  3
Standard
 70
     0
 71
     0
 40
0.06
 41
0.06
280
     0
281
     0
  7
Standard
140
0.18
170
     2
 62
     0
 63
   257
283
     0
 90
        4
 91
        0
  1

274
    -2
284
     1
 64
     0
275
    -2
285
     1
 65
     0
276
    -2
286
     1
 66
     0
277
    -2
287
     1
 67
     0
278
    -2
288
     1
 68
     0
279
    -2
289
     1
 69
     0
  7
Standard
140
0.25
170
     5
 62
     0
 63
   257
283
     0
 90
        4
 91
        0
  1

274
    -2
284
     1
 64
     0
275
    -2
285
     1
 65
     0
276
    -2
286
     1
 66
     0
277
    -2
287
     1
 67
     0
278
    -2
288
     1
 68
     0
279
    -2
289
     1
 69
     0
  7
Standard
140
0.18
170
     5
 62
     0
 63
   257
283
     0
 90
        4
 91
        0
  1

274
    -2
284
     1
 64
     0
275
    -2
285
     1
 65
     0
276
    -2
286
     1
 66
     0
277
    -2
287
     1
 67
     0
278
    -2
288
     1
 68
     0
279
    -2
289
     1
 69
     0
  0
VISUALSTYLE
  5
2F
102
{ACAD_REACTORS
330
2A
102
}
102
{ACAD_XDICTIONARY
360
A9
102
}
330
2A
100
AcDbVisualStyle
  2
2dWireframe
 70
     4
 71
     0
 72
     2
 73
     0
 90
        0
 40
0.6
 41
30.0
 62
     5
 63
     7
421
 16777215
 74
     1
 91
        4
 64
     7
 65
   257
 75
     1
175
     1
 42
1.0
 92
        0
 66
   257
 43
1.0
 76
     1
 77
     6
 78
     2
 67
     7
 79
     5
170
     0
171
     0
290
     0
174
     0
 93
        1
 44
0.0
173
     0
291
     0
 45
0.0
  0
VISUALSTYLE
  5
32
102
{ACAD_REACTORS
330
2A
102
}
102
{ACAD_XDICTIONARY
360
AF
102
}
330
2A
100
AcDbVisualStyle
  2
Basic
 70
     7
 71
     1
 72
     0
 73
     1
 90
        0
 40
0.6
 41
30.0
 62
     5
 63
     7
421
 16777215
 74
     0
 91
        4
 64
     7
 65
   257
 75
     1
175
     1
 42
1.0
 92
        8
 66
     7
 43
1.0
 76
     1
 77
     6
 78
     2
 67
     7
 79
     5
170
     0
171
     0
290
     0
174
     0
 93
        1
 44
0.0
173
     0
291
     1
 45
0.0
  0
VISUALSTYLE
  5
36
102
{ACAD_REACTORS
330
2A
102
}
102
{ACAD_XDICTIONARY
360
B7
102
}
330
2A
100
AcDbVisualStyle
  2
Brighten
 70
    12
 71
     2
 72
     2
 73
     0
 90
        0
 40
0.6
 41
30.0
 62
     5
 63
     7
421
 16777215
 74
     1
 91
        4
 64
     7
 65
   257
 75
     1
175
     1
 42
1.0
 92
        8
 66
     7
 43
1.0
 76
     1
 77
     6
 78
     2
 67
     7
 79
     5
170
     0
171
     0
290
     0
174
     0
 93
        1
 44
50.0
173
     0
291
     1
 45
0.0
  0
VISUALSTYLE
  5
3A
102
{ACAD_REACTORS
330
2A
102
}
102
{ACAD_XDICTIONARY
360
BF
102
}
330
2A
100
AcDbVisualStyle
  2
ColorChange
 70
    16
 71
     2
 72
     2
 73
     3
 90
        0
 40
0.6
 41
30.0
 62
     5
 63
     8
421
  8421504
 74
     1
 91
        4
 64
     7
 65
   257
 75
     1
175
     1
 42
1.0
 92
        8
 66
     8
424
  8421504
 43
1.0
 76
     1
 77
     6
 78
     2
 67
     7
 79
     5
170
     0
171
     0
290
     0
174
     0
 93
        1
 44
0.0
173
     0
291
     1
 45
0.0
  0
VISUALSTYLE
  5
34
102
{ACAD_REACTORS
330
2A
102
}
102
{ACAD_XDICTIONARY
360
B3
102
}
330
2A
100
AcDbVisualStyle
  2
Conceptual
 70
     9
 71
     3
 72
     2
 73
     0
 90
        0
 40
0.6
 41
30.0
 62
     5
 63
     7
421
 16777215
 74
     2
 91
        2
 64
     7
 65
   257
 75
     1
175
     1
 42
179.0
 92
        8
 66
     7
 43
1.0
 76
     1
 77
     6
 78
     2
 67
     7
 79
     3
170
     0
171
     0
290
     0
174
     0
 93
        1
 44
0.0
173
     0
291
     0
 45
0.0
  0
VISUALSTYLE
  5
35
102
{ACAD_REACTORS
330
2A
102
}
102
{ACAD_XDICTIONARY
360
B5
102
}
330
2A
100
AcDbVisualStyle
  2
Dim
 70
    11
 71
     2
 72
     2
 73
     0
 90
        0
 40
0.6
 41
30.0
 62
     5
 63
     7
421
 16777215
 74
     1
 91
        4
 64
     7
 65
   257
 75
     1
175
     1
 42
1.0
 92
        8
 66
     7
 43
1.0
 76
     1
 77
     6
 78
     2
 67
     7
 79
     5
170
     0
171
     0
290
     0
174
     0
 93
        1
 44
-50.0
173
     0
291
     1
 45
0.0
  0
VISUALSTYLE
  5
3D
102
{ACAD_REACTORS
330
2A
102
}
102
{ACAD_XDICTIONARY
360
C5
102
}
330
2A
100
AcDbVisualStyle
  2
EdgeColorOff
 70
    22
 71
     2
 72
     2
 73
     0
 90
        0
 40
0.6
 41
30.0
 62
     5
 63
     7
421
 16777215
 74
     1
 91
        4
 64
     7
 65
   257
 75
     1
175
     1
 42
1.0
 92
        8
 66
     7
 43
1.0
 76
     1
 77
     6
 78
     2
 67
     7
 79
     5
170
     0
171
     0
290
     0
174
     0
 93
        1
 44
0.0
173
     0
291
     1
 45
0.0
  0
VISUALSTYLE
  5
39
102
{ACAD_REACTORS
330
2A
102
}
102
{ACAD_XDICTIONARY
360
BD
102
}
330
2A
100
AcDbVisualStyle
  2
Facepattern
 70
    15
 71
     2
 72
     2
 73
     0
 90
        0
 40
0.6
 41
30.0
 62
     5
 63
     7
421
 16777215
 74
     1
 91
        4
 64
     7
 65
   257
 75
     1
175
     1
 42
1.0
 92
        8
 66
     7
 43
1.0
 76
     1
 77
     6
 78
     2
 67
     7
 79
     5
170
     0
171
     0
290
     0
174
     0
 93
        1
 44
0.0
173
     0
291
     1
 45
0.0
  0
VISUALSTYLE
  5
2B
102
{ACAD_REACTORS
330
2A
102
}
102
{ACAD_XDICTIONARY
360
A1
102
}
330
2A
100
AcDbVisualStyle
  2
Flat
 70
     0
 71
     2
 72
     1
 73
     1
 90
        2
 40
0.6
 41
30.0
 62
     5
 63
     7
421
 16777215
 74
     0
 91
        0
 64
     7
 65
   257
 75
     1
175
     1
 42
1.0
 92
        8
 66
     7
 43
1.0
 76
     1
 77
     6
 78
     2
 67
     7
 79
     5
170
     0
171
     0
290
     0
174
     0
 93
       13
 44
0.0
173
     0
291
     1
 45
0.0
  0
VISUALSTYLE
  5
2C
102
{ACAD_REACTORS
330
2A
102
}
102
{ACAD_XDICTIONARY
360
A3
102
}
330
2A
100
AcDbVisualStyle
  2
FlatWithEdges
 70
     1
 71
     2
 72
     1
 73
     1
 90
        2
 40
0.6
 41
30.0
 62
     5
 63
     7
421
 16777215
 74
     1
 91
        0
 64
     7
 65
   257
 75
     1
175
     1
 42
1.0
 92
        0
 66
   257
 43
1.0
 76
     1
 77
     6
 78
     2
 67
     7
 79
     5
170
     0
171
     0
290
     0
174
     0
 93
       13
 44
0.0
173
     0
291
     1
 45
0.0
  0
VISUALSTYLE
  5
2D
102
{ACAD_REACTORS
330
2A
102
}
102
{ACAD_XDICTIONARY
360
A5
102
}
330
2A
100
AcDbVisualStyle
  2
Gouraud
 70
     2
 71
     2
 72
     2
 73
     1
 90
        2
 40
0.6
 41
30.0
 62
     5
 63
     7
421
 16777215
 74
     0
 91
        0
 64
     7
 65
   257
 75
     1
175
     1
 42
1.0
 92
        0
 66
     7
 43
1.0
 76
     1
 77
     6
 78
     2
 67
     7
 79
     5
170
     0
171
     0
290
     0
174
     0
 93
       13
 44
0.0
173
     0
291
     1
 45
0.0
  0
VISUALSTYLE
  5
2E
102
{ACAD_REACTORS
330
2A
102
}
102
{ACAD_XDICTIONARY
360
A7
102
}
330
2A
100
AcDbVisualStyle
  2
GouraudWithEdges
 70
     3
 71
     2
 72
     2
 73
     1
 90
        2
 40
0.6
 41
30.0
 62
     5
 63
     7
421
 16777215
 74
     1
 91
        0
 64
     7
 65
   257
 75
     1
175
     1
 42
1.0
 92
        0
 66
   257
 43
1.0
 76
     1
 77
     6
 78
     2
 67
     7
 79
     5
170
     0
171
     0
290
     0
174
     0
 93
       13
 44
0.0
173
     0
291
     1
 45
0.0
  0
VISUALSTYLE
  5
31
102
{ACAD_REACTORS
330
2A
102
}
102
{ACAD_XDICTIONARY
360
AD
102
}
330
2A
100
AcDbVisualStyle
  2
Hidden
 70
     6
 71
     1
 72
     2
 73
     2
 90
        0
 40
0.6
 41
30.0
 62
     5
 63
     7
421
 16777215
 74
     2
 91
        2
 64
     7
 65
   257
 75
     2
175
     1
 42
40.0
 92
        0
 66
   257
 43
1.0
 76
     1
 77
     6
 78
     2
 67
     7
 79
     3
170
     0
171
     0
290
     0
174
     0
 93
        1
 44
0.0
173
     0
291
     0
 45
0.0
  0
VISUALSTYLE
  5
3B
102
{ACAD_REACTORS
330
2A
102
}
102
{ACAD_XDICTIONARY
360
C1
102
}
330
2A
100
AcDbVisualStyle
  2
JitterOff
 70
    20
 71
     2
 72
     2
 73
     0
 90
        0
 40
0.6
 41
30.0
 62
     5
 63
     7
421
 16777215
 74
     1
 91
        4
 64
     7
 65
   257
 75
     1
175
     1
 42
1.0
 92
       10
 66
     7
 43
1.0
 76
     1
 77
     6
 78
     2
 67
     7
 79
     5
170
     0
171
     0
290
     0
174
     0
 93
        1
 44
0.0
173
     0
291
     1
 45
0.0
  0
VISUALSTYLE
  5
38
102
{ACAD_REACTORS
330
2A
102
}
102
{ACAD_XDICTIONARY
360
BB
102
}
330
2A
100
AcDbVisualStyle
  2
Linepattern
 70
    14
 71
     2
 72
     2
 73
     0
 90
        0
 40
0.6
 41
30.0
 62
     5
 63
     7
421
 16777215
 74
     1
 91
        4
 64
     7
 65
   257
 75
     7
175
     7
 42
1.0
 92
        8
 66
     7
 43
1.0
 76
     1
 77
     6
 78
     2
 67
     7
 79
     5
170
     0
171
     0
290
     0
174
     0
 93
        1
 44
0.0
173
     0
291
     1
 45
0.0
  0
VISUALSTYLE
  5
3C
102
{ACAD_REACTORS
330
2A
102
}
102
{ACAD_XDICTIONARY
360
C3
102
}
330
2A
100
AcDbVisualStyle
  2
OverhangOff
 70
    21
 71
     2
 72
     2
 73
     0
 90
        0
 40
0.6
 41
30.0
 62
     5
 63
     7
421
 16777215
 74
     1
 91
        4
 64
     7
 65
   257
 75
     1
175
     1
 42
1.0
 92
        9
 66
     7
 43
1.0
 76
     1
 77
     6
 78
     2
 67
     7
 79
     5
170
     0
171
     0
290
     0
174
     0
 93
        1
 44
0.0
173
     0
291
     1
 45
0.0
  0
VISUALSTYLE
  5
33
102
{ACAD_REACTORS
330
2A
102
}
102
{ACAD_XDICTIONARY
360
B1
102
}
330
2A
100
AcDbVisualStyle
  2
Realistic
 70
     8
 71
     2
 72
     3
 73
     0
 90
        2
 40
0.6
 41
30.0
 62
     5
 63
     7
421
 16777215
 74
     0
 91
        0
 64
     7
 65
   257
 75
     1
175
     1
 42
1.0
 92
        8
 66
   257
 43
1.0
 76
     1
 77
     6
 78
     2
 67
     7
 79
     3
170
     0
171
     0
290
     0
174
     0
 93
       13
 44
0.0
173
     0
291
     0
 45
0.0
  0
VISUALSTYLE
  5
42
102
{ACAD_REACTORS
330
2A
102
}
102
{ACAD_XDICTIONARY
360
CF
102
}
330
2A
100
AcDbVisualStyle
  2
Shaded
 70
    27
 71
     2
 72
     2
 73
     1
 90
        2
 40
0.6
 41
30.0
 62
     5
 63
     7
421
 16777215
 74
     0
 91
        4
 64
     7
 65
   257
 75
     1
175
     1
 42
1.0
 92
        8
 66
   257
 43
1.0
 76
     1
 77
     6
 78
     2
 67
     8
425
  7895160
 79
     3
170
     0
171
     0
290
     0
174
     0
 93
        5
 44
0.0
173
     0
291
     0
 45
0.0
  0
VISUALSTYLE
  5
41
102
{ACAD_REACTORS
330
2A
102
}
102
{ACAD_XDICTIONARY
360
CD
102
}
330
2A
100
AcDbVisualStyle
  2
Shaded with edges
 70
    26
 71
     2
 72
     2
 73
     1
 90
        2
 40
0.6
 41
30.0
 62
     5
 63
     7
421
 16777215
 74
     1
 91
       10
 64
     7
 65
   257
 75
     2
175
     1
 42
1.0
 92
        8
 66
   257
 43
1.0
 76
     1
 77
     6
 78
     2
 67
     7
 79
     3
170
     0
171
     0
290
     0
174
     0
 93
        5
 44
0.0
173
     0
291
     0
 45
0.0
  0
VISUALSTYLE
  5
3E
102
{ACAD_REACTORS
330
2A
102
}
102
{ACAD_XDICTIONARY
360
C7
102
}
330
2A
100
AcDbVisualStyle
  2
Shades of Gray
 70
    23
 71
     2
 72
     2
 73
     3
 90
        0
 40
0.6
 41
30.0
 62
     5
 63
     7
421
 16777215
 74
     2
 91
        2
 64
     7
 65
     7
 75
     1
175
     1
 42
40.0
 92
        8
 66
     7
 43
1.0
 76
     1
 77
     6
 78
     2
 67
     7
 79
     3
170
     0
171
     0
290
     0
174
     0
 93
        1
 44
0.0
173
     0
291
     0
 45
0.0
  0
VISUALSTYLE
  5
3F
102
{ACAD_REACTORS
330
2A
102
}
102
{ACAD_XDICTIONARY
360
C9
102
}
330
2A
100
AcDbVisualStyle
  2
Sketchy
 70
    24
 71
     1
 72
     2
 73
     2
 90
        0
 40
0.6
 41
30.0
 62
     5
 63
     7
421
 16777215
 74
     2
 91
        2
 64
     7
 65
     7
 75
     1
175
     1
 42
40.0
 92
       11
 66
     7
 43
1.0
 76
     1
 77
     6
 78
     2
 67
     7
 79
     6
170
     0
171
     0
290
     0
174
     0
 93
        1
 44
0.0
173
     0
291
     0
 45
0.0
  0
VISUALSTYLE
  5
37
102
{ACAD_REACTORS
330
2A
102
}
102
{ACAD_XDICTIONARY
360
B9
102
}
330
2A
100
AcDbVisualStyle
  2
Thicken
 70
    13
 71
     2
 72
     2
 73
     0
 90
        0
 40
0.6
 41
30.0
 62
     5
 63
     7
421
 16777215
 74
     1
 91
        4
 64
     7
 65
   257
 75
     1
175
     1
 42
1.0
 92
       12
 66
     7
 43
1.0
 76
     1
 77
     6
 78
     2
 67
     7
 79
     5
170
     0
171
     0
290
     0
174
     0
 93
        1
 44
0.0
173
     0
291
     1
 45
0.0
  0
VISUALSTYLE
  5
30
102
{ACAD_REACTORS
330
2A
102
}
102
{ACAD_XDICTIONARY
360
AB
102
}
330
2A
100
AcDbVisualStyle
  2
Wireframe
 70
     5
 71
     0
 72
     2
 73
     0
 90
        0
 40
0.6
 41
30.0
 62
     5
 63
     7
421
 16777215
 74
     1
 91
        4
 64
     7
 65
   257
 75
     1
175
     1
 42
1.0
 92
        0
 66
   257
 43
1.0
 76
     1
 77
     6
 78
     2
 67
     7
 79
     3
170
     0
171
     0
290
     0
174
     0
 93
        1
 44
0.0
173
     0
291
     0
 45
0.0
  0
VISUALSTYLE
  5
40
102
{ACAD_REACTORS
330
2A
102
}
102
{ACAD_XDICTIONARY
360
CB
102
}
330
2A
100
AcDbVisualStyle
  2
X-Ray
 70
    25
 71
     2
 72
     2
 73
     1
 90
        1
 40
0.5
 41
30.0
 62
     5
 63
     7
421
 16777215
 74
     1
 91
        0
 64
     7
 65
   257
 75
     1
175
     1
 42
1.0
 92
        8
 66
     7
 43
1.0
 76
     1
 77
     6
 78
     2
 67
     7
 79
     3
170
     0
171
     0
290
     0
174
     0
 93
       13
 44
0.0
173
     0
291
     0
 45
0.0
  0
DICTIONARYVAR
  5
9F
102
{ACAD_REACTORS
330
9E
102
}
330
9E
100
DictionaryVariables
280
     0
  1
1:1
  0
DICTIONARYVAR
  5
D8
102
{ACAD_REACTORS
330
9E
102
}
330
9E
100
DictionaryVariables
280
     0
  1
Standard
  0
DICTIONARYVAR
  5
D7
102
{ACAD_REACTORS
330
9E
102
}
330
9E
100
DictionaryVariables
280
     0
  1
Standard
  0
DICTIONARYVAR
  5
A0
102
{ACAD_REACTORS
330
9E
102
}
330
9E
100
DictionaryVariables
280
     0
  1
2
  0
DICTIONARY
  5
D4
330
6C
100
AcDbDictionary
280
     1
281
     1
  3
ACAD_XREC_ROUNDTRIP
360
D5
  0
DICTIONARY
  5
D1
330
6A
100
AcDbDictionary
280
     1
281
     1
  3
ACAD_ROUNDTRIP_2008_TABLESTYLE_CELLSTYLEMAP
360
D2
  0
DICTIONARY
  5
A9
330
2F
100
AcDbDictionary
280
     1
281
     1
  3
ACAD_XREC_ROUNDTRIP
360
AA
  0
DICTIONARY
  5
AF
330
32
100
AcDbDictionary
280
     1
281
     1
  3
ACAD_XREC_ROUNDTRIP
360
B0
  0
DICTIONARY
  5
B7
330
36
100
AcDbDictionary
280
     1
281
     1
  3
ACAD_XREC_ROUNDTRIP
360
B8
  0
DICTIONARY
  5
BF
330
3A
100
AcDbDictionary
280
     1
281
     1
  3
ACAD_XREC_ROUNDTRIP
360
C0
  0
DICTIONARY
  5
B3
330
34
100
AcDbDictionary
280
     1
281
     1
  3
ACAD_XREC_ROUNDTRIP
360
B4
  0
DICTIONARY
  5
B5
330
35
100
AcDbDictionary
280
     1
281
     1
  3
ACAD_XREC_ROUNDTRIP
360
B6
  0
DICTIONARY
  5
C5
330
3D
100
AcDbDictionary
280
     1
281
     1
  3
ACAD_XREC_ROUNDTRIP
360
C6
  0
DICTIONARY
  5
BD
330
39
100
AcDbDictionary
280
     1
281
     1
  3
ACAD_XREC_ROUNDTRIP
360
BE
  0
DICTIONARY
  5
A1
330
2B
100
AcDbDictionary
280
     1
281
     1
  3
ACAD_XREC_ROUNDTRIP
360
A2
  0
DICTIONARY
  5
A3
330
2C
100
AcDbDictionary
280
     1
281
     1
  3
ACAD_XREC_ROUNDTRIP
360
A4
  0
DICTIONARY
  5
A5
330
2D
100
AcDbDictionary
280
     1
281
     1
  3
ACAD_XREC_ROUNDTRIP
360
A6
  0
DICTIONARY
  5
A7
330
2E
100
AcDbDictionary
280
     1
281
     1
  3
ACAD_XREC_ROUNDTRIP
360
A8
  0
DICTIONARY
  5
AD
330
31
100
AcDbDictionary
280
     1
281
     1
  3
ACAD_XREC_ROUNDTRIP
360
AE
  0
DICTIONARY
  5
C1
330
3B
100
AcDbDictionary
280
     1
281
     1
  3
ACAD_XREC_ROUNDTRIP
360
C2
  0
DICTIONARY
  5
BB
330
38
100
AcDbDictionary
280
     1
281
     1
  3
ACAD_XREC_ROUNDTRIP
360
BC
  0
DICTIONARY
  5
C3
330
3C
100
AcDbDictionary
280
     1
281
     1
  3
ACAD_XREC_ROUNDTRIP
360
C4
  0
DICTIONARY
  5
B1
330
33
100
AcDbDictionary
280
     1
281
     1
  3
ACAD_XREC_ROUNDTRIP
360
B2
  0
DICTIONARY
  5
CF
330
42
100
AcDbDictionary
280
     1
281
     1
  3
ACAD_XREC_ROUNDTRIP
360
D0
  0
DICTIONARY
  5
CD
330
41
100
AcDbDictionary
280
     1
281
     1
  3
ACAD_XREC_ROUNDTRIP
360
CE
  0
DICTIONARY
  5
C7
330
3E
100
AcDbDictionary
280
     1
281
     1
  3
ACAD_XREC_ROUNDTRIP
360
C8
  0
DICTIONARY
  5
C9
330
3F
100
AcDbDictionary
280
     1
281
     1
  3
ACAD_XREC_ROUNDTRIP
360
CA
  0
DICTIONARY
  5
B9
330
37
100
AcDbDictionary
280
     1
281
     1
  3
ACAD_XREC_ROUNDTRIP
360
BA
  0
DICTIONARY
  5
AB
330
30
100
AcDbDictionary
280
     1
281
     1
  3
ACAD_XREC_ROUNDTRIP
360
AC
  0
DICTIONARY
  5
CB
330
40
100
AcDbDictionary
280
     1
281
     1
  3
ACAD_XREC_ROUNDTRIP
360
CC
  0
XRECORD
  5
D5
102
{ACAD_REACTORS
330
D4
102
}
330
D4
100
AcDbXrecord
280
     1
102
ACAD_ROUNDTRIP_2010_MLEADER_STYLE
  0
CELLSTYLEMAP
  5
D2
102
{ACAD_REACTORS
330
D1
102
}
330
D1
100
AcDbCellStyleMap
 90
        3
300
CELLSTYLE
  1
TABLEFORMAT_BEGIN
 90
        5
170
     1
 91
        0
 92
    32768
 62
   257
 93
        1
300
CONTENTFORMAT
  1
CONTENTFORMAT_BEGIN
 90
        0
 91
        0
 92
        4
 93
        0
300

 40
0.0
140
1.0
 94
        5
 62
     0
340
11
144
0.25
309
CONTENTFORMAT_END
171
     1
301
MARGIN
  1
CELLMARGIN_BEGIN
 40
0.06
 40
0.06
 40
0.06
 40
0.06
 40
0.06
 40
0.06
309
CELLMARGIN_END
 94
        6
 95
        1
302
GRIDFORMAT
  1
GRIDFORMAT_BEGIN
 90
        0
 91
        1
 62
     0
 92
       -2
340
14
 93
        0
 40
0.045
309
GRIDFORMAT_END
 95
        2
302
GRIDFORMAT
  1
GRIDFORMAT_BEGIN
 90
        0
 91
        1
 62
     0
 92
       -2
340
14
 93
        0
 40
0.045
309
GRIDFORMAT_END
 95
        4
302
GRIDFORMAT
  1
GRIDFORMAT_BEGIN
 90
        0
 91
        1
 62
     0
 92
       -2
340
14
 93
        0
 40
0.045
309
GRIDFORMAT_END
 95
        8
302
GRIDFORMAT
  1
GRIDFORMAT_BEGIN
 90
        0
 91
        1
 62
     0
 92
       -2
340
14
 93
        0
 40
0.045
309
GRIDFORMAT_END
 95
       16
302
GRIDFORMAT
  1
GRIDFORMAT_BEGIN
 90
        0
 91
        1
 62
     0
 92
       -2
340
14
 93
        0
 40
0.045
309
GRIDFORMAT_END
 95
       32
302
GRIDFORMAT
  1
GRIDFORMAT_BEGIN
 90
        0
 91
        1
 62
     0
 92
       -2
340
14
 93
        0
 40
0.045
309
GRIDFORMAT_END
309
TABLEFORMAT_END
  1
CELLSTYLE_BEGIN
 90
        1
 91
        1
300
_TITLE
309
CELLSTYLE_END
300
CELLSTYLE
  1
TABLEFORMAT_BEGIN
 90
        5
170
     1
 91
        0
 92
        0
 62
   257
 93
        1
300
CONTENTFORMAT
  1
CONTENTFORMAT_BEGIN
 90
        0
 91
        0
 92
        4
 93
        0
300

 40
0.0
140
1.0
 94
        5
 62
     0
340
11
144
0.18
309
CONTENTFORMAT_END
171
     1
301
MARGIN
  1
CELLMARGIN_BEGIN
 40
0.06
 40
0.06
 40
0.06
 40
0.06
 40
0.06
 40
0.06
309
CELLMARGIN_END
 94
        6
 95
        1
302
GRIDFORMAT
  1
GRIDFORMAT_BEGIN
 90
        0
 91
        1
 62
     0
 92
       -2
340
14
 93
        0
 40
0.045
309
GRIDFORMAT_END
 95
        2
302
GRIDFORMAT
  1
GRIDFORMAT_BEGIN
 90
        0
 91
        1
 62
     0
 92
       -2
340
14
 93
        0
 40
0.045
309
GRIDFORMAT_END
 95
        4
302
GRIDFORMAT
  1
GRIDFORMAT_BEGIN
 90
        0
 91
        1
 62
     0
 92
       -2
340
14
 93
        0
 40
0.045
309
GRIDFORMAT_END
 95
        8
302
GRIDFORMAT
  1
GRIDFORMAT_BEGIN
 90
        0
 91
        1
 62
     0
 92
       -2
340
14
 93
        0
 40
0.045
309
GRIDFORMAT_END
 95
       16
302
GRIDFORMAT
  1
GRIDFORMAT_BEGIN
 90
        0
 91
        1
 62
     0
 92
       -2
340
14
 93
        0
 40
0.045
309
GRIDFORMAT_END
 95
       32
302
GRIDFORMAT
  1
GRIDFORMAT_BEGIN
 90
        0
 91
        1
 62
     0
 92
       -2
340
14
 93
        0
 40
0.045
309
GRIDFORMAT_END
309
TABLEFORMAT_END
  1
CELLSTYLE_BEGIN
 90
        2
 91
        1
300
_HEADER
309
CELLSTYLE_END
300
CELLSTYLE
  1
TABLEFORMAT_BEGIN
 90
        5
170
     1
 91
        0
 92
        0
 62
   257
 93
        1
300
CONTENTFORMAT
  1
CONTENTFORMAT_BEGIN
 90
        0
 91
        0
 92
        4
 93
        0
300

 40
0.0
140
1.0
 94
        2
 62
     0
340
11
144
0.18
309
CONTENTFORMAT_END
171
     1
301
MARGIN
  1
CELLMARGIN_BEGIN
 40
0.06
 40
0.06
 40
0.06
 40
0.06
 40
0.06
 40
0.06
309
CELLMARGIN_END
 94
        6
 95
        1
302
GRIDFORMAT
  1
GRIDFORMAT_BEGIN
 90
        0
 91
        1
 62
     0
 92
       -2
340
14
 93
        0
 40
0.045
309
GRIDFORMAT_END
 95
        2
302
GRIDFORMAT
  1
GRIDFORMAT_BEGIN
 90
        0
 91
        1
 62
     0
 92
       -2
340
14
 93
        0
 40
0.045
309
GRIDFORMAT_END
 95
        4
302
GRIDFORMAT
  1
GRIDFORMAT_BEGIN
 90
        0
 91
        1
 62
     0
 92
       -2
340
14
 93
        0
 40
0.045
309
GRIDFORMAT_END
 95
        8
302
GRIDFORMAT
  1
GRIDFORMAT_BEGIN
 90
        0
 91
        1
 62
     0
 92
       -2
340
14
 93
        0
 40
0.045
309
GRIDFORMAT_END
 95
       16
302
GRIDFORMAT
  1
GRIDFORMAT_BEGIN
 90
        0
 91
        1
 62
     0
 92
       -2
340
14
 93
        0
 40
0.045
309
GRIDFORMAT_END
 95
       32
302
GRIDFORMAT
  1
GRIDFORMAT_BEGIN
 90
        0
 91
        1
 62
     0
 92
       -2
340
14
 93
        0
 40
0.045
309
GRIDFORMAT_END
309
TABLEFORMAT_END
  1
CELLSTYLE_BEGIN
 90
        3
 91
        2
300
_DATA
309
CELLSTYLE_END
  0
XRECORD
  5
AA
102
{ACAD_REACTORS
330
A9
102
}
330
A9
100
AcDbXrecord
280
     1
102
RTVSPropertyOp0
 70
     1
102
RTVSPropertyOp1
 70
     1
102
RTVSPropertyOp2
 70
     1
102
RTVSPropertyOp3
 70
     1
102
RTVSPropertyOp4
 70
     1
102
RTVSPropertyOp5
 70
     1
102
RTVSPropertyOp6
 70
     1
102
RTVSPropertyOp7
 70
     1
102
RTVSPropertyOp8
 70
     1
102
RTVSPropertyOp9
 70
     1
102
RTVSPropertyOp10
 70
     1
102
RTVSPropertyOp11
 70
     1
102
RTVSPropertyOp12
 70
     1
102
RTVSPropertyOp13
 70
     1
102
RTVSPropertyOp14
 70
     1
102
RTVSPropertyOp15
 70
     1
102
RTVSPropertyOp16
 70
     1
102
RTVSPropertyOp17
 70
     1
102
RTVSPropertyOp18
 70
     1
102
RTVSPropertyOp19
 70
     1
102
RTVSPropertyOp20
 70
     1
102
RTVSPropertyOp21
 70
     1
102
RTVSPropertyOp22
 70
     1
102
RTVSPropertyOp23
 70
     1
102
RTVSPropertyOp24
 70
     1
102
RTVSPropertyOp25
 70
     1
102
RTVSPropertyOp26
 70
     1
102
RTVSPropertyOp27
 70
     1
102
RTVSPropertyOp28
 70
     1
102
RTVSPropertyOp29
 70
     1
102
RTVSPropertyOp30
 70
     1
102
RTVSPropertyOp31
 70
     1
102
RTVSPropertyOp32
 70
     1
102
RTVSPropertyOp33
 70
     1
102
RTVSPropertyOp34
 70
     1
102
RTVSPropertyOp35
 70
     1
102
RTVSPropertyOp36
 70
     1
102
RTVSPropertyOp37
 70
     1
102
RTVSPropertyOp38
 70
     1
102
RTVSPropertyOp39
 70
     1
102
RTVSPropertyOp40
 70
     1
102
RTVSPropertyOp41
 70
     1
102
RTVSPropertyOp42
 70
     1
102
RTVSPropertyOp43
 70
     1
102
RTVSPropertyOp44
 70
     1
102
RTVSPropertyOp45
 70
     1
102
RTVSPropertyOp46
 70
     1
102
RTVSPropertyOp47
 70
     1
102
RTVSPropertyOp48
 70
     1
102
RTVSPropertyOp49
 70
     1
102
RTVSPropertyOp50
 70
     1
102
RTVSPropertyOp51
 70
     0
102
RTVSPropertyOp52
 70
     0
102
RTVSPropertyOp53
 70
     1
102
RTVSPropertyOp54
 70
     1
102
RTVSPropertyOp55
 70
     1
102
RTVSPropertyOp56
 70
     1
102
RTVSPropertyOp57
 70
     1
102
RTVSPost2010Prop28
280
     1
102
RTVSPost2010PropOp28
 70
     1
102
RTVSPost2010Prop29
280
     1
102
RTVSPost2010PropOp29
 70
     1
102
RTVSPost2010Prop30
280
     0
102
RTVSPost2010PropOp30
 70
     1
102
RTVSPost2010Prop31
280
     0
102
RTVSPost2010PropOp31
 70
     1
102
RTVSPost2010Prop32
280
     0
102
RTVSPost2010PropOp32
 70
     1
102
RTVSPost2010Prop33
280
     0
102
RTVSPost2010PropOp33
 70
     1
102
RTVSPost2010Prop34
280
     0
102
RTVSPost2010PropOp34
 70
     1
102
RTVSPost2010Prop35
280
     0
102
RTVSPost2010PropOp35
 70
     1
102
RTVSPost2010Prop36
280
     0
102
RTVSPost2010PropOp36
 70
     1
102
RTVSPost2010Prop37
 90
       50
102
RTVSPost2010PropOp37
 70
     1
102
RTVSPost2010Prop38
140
0.0
102
RTVSPost2010PropOp38
 70
     1
102
RTVSPost2010Prop39
140
1.0
102
RTVSPost2010PropOp39
 70
     1
102
RTVSPost2010Prop40
 90
        0
102
RTVSPost2010PropOp40
 70
     1
102
RTVSPost2010Prop41ColorIndex
 90
       18
102
RTVSPost2010Prop41ColorRGB
 90
        0
102
RTVSPost2010PropOp41
 70
     1
102
RTVSPost2010Prop42
 90
       50
102
RTVSPost2010PropOp42
 70
     1
102
RTVSPost2010Prop43
 90
        3
102
RTVSPost2010PropOp43
 70
     1
102
RTVSPost2010Prop44ColorIndex
 90
        5
102
RTVSPost2010Prop44ColorRGB
 90
      255
102
RTVSPost2010PropOp44
 70
     1
102
RTVSPost2010Prop45
280
     0
102
RTVSPost2010PropOp45
 70
     1
102
RTVSPost2010Prop46
 90
       50
102
RTVSPost2010PropOp46
 70
     1
102
RTVSPost2010Prop47
 90
       50
102
RTVSPost2010PropOp47
 70
     1
102
RTVSPost2010Prop48
 90
       50
102
RTVSPost2010PropOp48
 70
     1
102
RTVSPost2010Prop49
280
     0
102
RTVSPost2010PropOp49
 70
     1
102
RTVSPost2010Prop50
 90
       50
102
RTVSPost2010PropOp50
 70
     1
102
RTVSPost2010Prop51ColorIndex
 90
      256
102
RTVSPost2010Prop51ColorRGB
 90
-16777216
102
RTVSPost2010PropOp51
 70
     0
102
RTVSPost2010Prop52
140
1.0
102
RTVSPost2010PropOp52
 70
     0
102
RTVSPost2010Prop53
 90
        2
102
RTVSPost2010PropOp53
 70
     1
102
RTVSPost2010Prop54
  1
strokes_ogs.tif
102
RTVSPost2010PropOp54
 70
     1
102
RTVSPost2010Prop55
280
     0
102
RTVSPost2010PropOp55
 70
     1
102
RTVSPost2010Prop56
140
1.0
102
RTVSPost2010PropOp56
 70
     1
102
RTVSPost2010Prop57
140
1.0
102
RTVSPost2010PropOp57
 70
     1
  0
XRECORD
  5
B0
102
{ACAD_REACTORS
330
AF
102
}
330
AF
100
AcDbXrecord
280
     1
102
RTVSPropertyOp0
 70
     1
102
RTVSPropertyOp1
 70
     1
102
RTVSPropertyOp2
 70
     1
102
RTVSPropertyOp3
 70
     1
102
RTVSPropertyOp4
 70
     1
102
RTVSPropertyOp5
 70
     1
102
RTVSPropertyOp6
 70
     1
102
RTVSPropertyOp7
 70
     1
102
RTVSPropertyOp8
 70
     1
102
RTVSPropertyOp9
 70
     1
102
RTVSPropertyOp10
 70
     1
102
RTVSPropertyOp11
 70
     1
102
RTVSPropertyOp12
 70
     1
102
RTVSPropertyOp13
 70
     1
102
RTVSPropertyOp14
 70
     1
102
RTVSPropertyOp15
 70
     1
102
RTVSPropertyOp16
 70
     1
102
RTVSPropertyOp17
 70
     1
102
RTVSPropertyOp18
 70
     1
102
RTVSPropertyOp19
 70
     1
102
RTVSPropertyOp20
 70
     1
102
RTVSPropertyOp21
 70
     1
102
RTVSPropertyOp22
 70
     1
102
RTVSPropertyOp23
 70
     1
102
RTVSPropertyOp24
 70
     1
102
RTVSPropertyOp25
 70
     1
102
RTVSPropertyOp26
 70
     1
102
RTVSPropertyOp27
 70
     1
102
RTVSPropertyOp28
 70
     1
102
RTVSPropertyOp29
 70
     1
102
RTVSPropertyOp30
 70
     1
102
RTVSPropertyOp31
 70
     1
102
RTVSPropertyOp32
 70
     1
102
RTVSPropertyOp33
 70
     1
102
RTVSPropertyOp34
 70
     1
102
RTVSPropertyOp35
 70
     1
102
RTVSPropertyOp36
 70
     1
102
RTVSPropertyOp37
 70
     1
102
RTVSPropertyOp38
 70
     1
102
RTVSPropertyOp39
 70
     1
102
RTVSPropertyOp40
 70
     1
102
RTVSPropertyOp41
 70
     1
102
RTVSPropertyOp42
 70
     1
102
RTVSPropertyOp43
 70
     1
102
RTVSPropertyOp44
 70
     1
102
RTVSPropertyOp45
 70
     1
102
RTVSPropertyOp46
 70
     1
102
RTVSPropertyOp47
 70
     1
102
RTVSPropertyOp48
 70
     1
102
RTVSPropertyOp49
 70
     1
102
RTVSPropertyOp50
 70
     1
102
RTVSPropertyOp51
 70
     0
102
RTVSPropertyOp52
 70
     0
102
RTVSPropertyOp53
 70
     1
102
RTVSPropertyOp54
 70
     1
102
RTVSPropertyOp55
 70
     1
102
RTVSPropertyOp56
 70
     1
102
RTVSPropertyOp57
 70
     1
102
RTVSPost2010Prop28
280
     0
102
RTVSPost2010PropOp28
 70
     1
102
RTVSPost2010Prop29
280
     1
102
RTVSPost2010PropOp29
 70
     1
102
RTVSPost2010Prop30
280
     1
102
RTVSPost2010PropOp30
 70
     1
102
RTVSPost2010Prop31
280
     0
102
RTVSPost2010PropOp31
 70
     1
102
RTVSPost2010Prop32
280
     0
102
RTVSPost2010PropOp32
 70
     1
102
RTVSPost2010Prop33
280
     0
102
RTVSPost2010PropOp33
 70
     1
102
RTVSPost2010Prop34
280
     0
102
RTVSPost2010PropOp34
 70
     1
102
RTVSPost2010Prop35
280
     0
102
RTVSPost2010PropOp35
 70
     1
102
RTVSPost2010Prop36
280
     0
102
RTVSPost2010PropOp36
 70
     1
102
RTVSPost2010Prop37
 90
       50
102
RTVSPost2010PropOp37
 70
     1
102
RTVSPost2010Prop38
140
0.0
102
RTVSPost2010PropOp38
 70
     1
102
RTVSPost2010Prop39
140
1.0
102
RTVSPost2010PropOp39
 70
     1
102
RTVSPost2010Prop40
 90
        0
102
RTVSPost2010PropOp40
 70
     1
102
RTVSPost2010Prop41ColorIndex
 90
       18
102
RTVSPost2010Prop41ColorRGB
 90
        0
102
RTVSPost2010PropOp41
 70
     1
102
RTVSPost2010Prop42
 90
       50
102
RTVSPost2010PropOp42
 70
     1
102
RTVSPost2010Prop43
 90
        3
102
RTVSPost2010PropOp43
 70
     1
102
RTVSPost2010Prop44ColorIndex
 90
        5
102
RTVSPost2010Prop44ColorRGB
 90
      255
102
RTVSPost2010PropOp44
 70
     1
102
RTVSPost2010Prop45
280
     0
102
RTVSPost2010PropOp45
 70
     1
102
RTVSPost2010Prop46
 90
       50
102
RTVSPost2010PropOp46
 70
     1
102
RTVSPost2010Prop47
 90
       50
102
RTVSPost2010PropOp47
 70
     1
102
RTVSPost2010Prop48
 90
       50
102
RTVSPost2010PropOp48
 70
     1
102
RTVSPost2010Prop49
280
     0
102
RTVSPost2010PropOp49
 70
     1
102
RTVSPost2010Prop50
 90
       50
102
RTVSPost2010PropOp50
 70
     1
102
RTVSPost2010Prop51ColorIndex
 90
      256
102
RTVSPost2010Prop51ColorRGB
 90
-16777216
102
RTVSPost2010PropOp51
 70
     0
102
RTVSPost2010Prop52
140
1.0
102
RTVSPost2010PropOp52
 70
     0
102
RTVSPost2010Prop53
 90
        2
102
RTVSPost2010PropOp53
 70
     1
102
RTVSPost2010Prop54
  1
strokes_ogs.tif
102
RTVSPost2010PropOp54
 70
     1
102
RTVSPost2010Prop55
280
     0
102
RTVSPost2010PropOp55
 70
     1
102
RTVSPost2010Prop56
140
1.0
102
RTVSPost2010PropOp56
 70
     1
102
RTVSPost2010Prop57
140
1.0
102
RTVSPost2010PropOp57
 70
     1
  0
XRECORD
  5
B8
102
{ACAD_REACTORS
330
B7
102
}
330
B7
100
AcDbXrecord
280
     1
102
RTVSPropertyOp0
 70
     1
102
RTVSPropertyOp1
 70
     1
102
RTVSPropertyOp2
 70
     1
102
RTVSPropertyOp3
 70
     1
102
RTVSPropertyOp4
 70
     1
102
RTVSPropertyOp5
 70
     1
102
RTVSPropertyOp6
 70
     1
102
RTVSPropertyOp7
 70
     1
102
RTVSPropertyOp8
 70
     1
102
RTVSPropertyOp9
 70
     1
102
RTVSPropertyOp10
 70
     1
102
RTVSPropertyOp11
 70
     1
102
RTVSPropertyOp12
 70
     1
102
RTVSPropertyOp13
 70
     1
102
RTVSPropertyOp14
 70
     1
102
RTVSPropertyOp15
 70
     1
102
RTVSPropertyOp16
 70
     1
102
RTVSPropertyOp17
 70
     1
102
RTVSPropertyOp18
 70
     1
102
RTVSPropertyOp19
 70
     1
102
RTVSPropertyOp20
 70
     1
102
RTVSPropertyOp21
 70
     1
102
RTVSPropertyOp22
 70
     1
102
RTVSPropertyOp23
 70
     1
102
RTVSPropertyOp24
 70
     1
102
RTVSPropertyOp25
 70
     1
102
RTVSPropertyOp26
 70
     1
102
RTVSPropertyOp27
 70
     1
102
RTVSPropertyOp28
 70
     1
102
RTVSPropertyOp29
 70
     1
102
RTVSPropertyOp30
 70
     1
102
RTVSPropertyOp31
 70
     1
102
RTVSPropertyOp32
 70
     1
102
RTVSPropertyOp33
 70
     1
102
RTVSPropertyOp34
 70
     1
102
RTVSPropertyOp35
 70
     1
102
RTVSPropertyOp36
 70
     1
102
RTVSPropertyOp37
 70
     1
102
RTVSPropertyOp38
 70
     1
102
RTVSPropertyOp39
 70
     1
102
RTVSPropertyOp40
 70
     1
102
RTVSPropertyOp41
 70
     1
102
RTVSPropertyOp42
 70
     1
102
RTVSPropertyOp43
 70
     1
102
RTVSPropertyOp44
 70
     1
102
RTVSPropertyOp45
 70
     1
102
RTVSPropertyOp46
 70
     1
102
RTVSPropertyOp47
 70
     1
102
RTVSPropertyOp48
 70
     1
102
RTVSPropertyOp49
 70
     1
102
RTVSPropertyOp50
 70
     1
102
RTVSPropertyOp51
 70
     0
102
RTVSPropertyOp52
 70
     0
102
RTVSPropertyOp53
 70
     1
102
RTVSPropertyOp54
 70
     1
102
RTVSPropertyOp55
 70
     1
102
RTVSPropertyOp56
 70
     1
102
RTVSPropertyOp57
 70
     1
102
RTVSPost2010Prop28
280
     0
102
RTVSPost2010PropOp28
 70
     1
102
RTVSPost2010Prop29
280
     1
102
RTVSPost2010PropOp29
 70
     1
102
RTVSPost2010Prop30
280
     1
102
RTVSPost2010PropOp30
 70
     1
102
RTVSPost2010Prop31
280
     0
102
RTVSPost2010PropOp31
 70
     1
102
RTVSPost2010Prop32
280
     0
102
RTVSPost2010PropOp32
 70
     1
102
RTVSPost2010Prop33
280
     0
102
RTVSPost2010PropOp33
 70
     1
102
RTVSPost2010Prop34
280
     0
102
RTVSPost2010PropOp34
 70
     1
102
RTVSPost2010Prop35
280
     0
102
RTVSPost2010PropOp35
 70
     1
102
RTVSPost2010Prop36
280
     0
102
RTVSPost2010PropOp36
 70
     1
102
RTVSPost2010Prop37
 90
       50
102
RTVSPost2010PropOp37
 70
     1
102
RTVSPost2010Prop38
140
0.0
102
RTVSPost2010PropOp38
 70
     1
102
RTVSPost2010Prop39
140
1.0
102
RTVSPost2010PropOp39
 70
     1
102
RTVSPost2010Prop40
 90
        0
102
RTVSPost2010PropOp40
 70
     1
102
RTVSPost2010Prop41ColorIndex
 90
       18
102
RTVSPost2010Prop41ColorRGB
 90
        0
102
RTVSPost2010PropOp41
 70
     1
102
RTVSPost2010Prop42
 90
       50
102
RTVSPost2010PropOp42
 70
     1
102
RTVSPost2010Prop43
 90
        3
102
RTVSPost2010PropOp43
 70
     1
102
RTVSPost2010Prop44ColorIndex
 90
        5
102
RTVSPost2010Prop44ColorRGB
 90
      255
102
RTVSPost2010PropOp44
 70
     1
102
RTVSPost2010Prop45
280
     0
102
RTVSPost2010PropOp45
 70
     1
102
RTVSPost2010Prop46
 90
       50
102
RTVSPost2010PropOp46
 70
     1
102
RTVSPost2010Prop47
 90
       50
102
RTVSPost2010PropOp47
 70
     1
102
RTVSPost2010Prop48
 90
       50
102
RTVSPost2010PropOp48
 70
     1
102
RTVSPost2010Prop49
280
     0
102
RTVSPost2010PropOp49
 70
     1
102
RTVSPost2010Prop50
 90
       50
102
RTVSPost2010PropOp50
 70
     1
102
RTVSPost2010Prop51ColorIndex
 90
      256
102
RTVSPost2010Prop51ColorRGB
 90
-16777216
102
RTVSPost2010PropOp51
 70
     0
102
RTVSPost2010Prop52
140
1.0
102
RTVSPost2010PropOp52
 70
     0
102
RTVSPost2010Prop53
 90
        2
102
RTVSPost2010PropOp53
 70
     1
102
RTVSPost2010Prop54
  1
strokes_ogs.tif
102
RTVSPost2010PropOp54
 70
     1
102
RTVSPost2010Prop55
280
     0
102
RTVSPost2010PropOp55
 70
     1
102
RTVSPost2010Prop56
140
1.0
102
RTVSPost2010PropOp56
 70
     1
102
RTVSPost2010Prop57
140
1.0
102
RTVSPost2010PropOp57
 70
     1
  0
XRECORD
  5
C0
102
{ACAD_REACTORS
330
BF
102
}
330
BF
100
AcDbXrecord
280
     1
102
RTVSPropertyOp0
 70
     1
102
RTVSPropertyOp1
 70
     1
102
RTVSPropertyOp2
 70
     1
102
RTVSPropertyOp3
 70
     1
102
RTVSPropertyOp4
 70
     1
102
RTVSPropertyOp5
 70
     1
102
RTVSPropertyOp6
 70
     1
102
RTVSPropertyOp7
 70
     1
102
RTVSPropertyOp8
 70
     1
102
RTVSPropertyOp9
 70
     1
102
RTVSPropertyOp10
 70
     1
102
RTVSPropertyOp11
 70
     1
102
RTVSPropertyOp12
 70
     1
102
RTVSPropertyOp13
 70
     1
102
RTVSPropertyOp14
 70
     1
102
RTVSPropertyOp15
 70
     1
102
RTVSPropertyOp16
 70
     1
102
RTVSPropertyOp17
 70
     1
102
RTVSPropertyOp18
 70
     1
102
RTVSPropertyOp19
 70
     1
102
RTVSPropertyOp20
 70
     1
102
RTVSPropertyOp21
 70
     1
102
RTVSPropertyOp22
 70
     1
102
RTVSPropertyOp23
 70
     1
102
RTVSPropertyOp24
 70
     1
102
RTVSPropertyOp25
 70
     1
102
RTVSPropertyOp26
 70
     1
102
RTVSPropertyOp27
 70
     1
102
RTVSPropertyOp28
 70
     1
102
RTVSPropertyOp29
 70
     1
102
RTVSPropertyOp30
 70
     1
102
RTVSPropertyOp31
 70
     1
102
RTVSPropertyOp32
 70
     1
102
RTVSPropertyOp33
 70
     1
102
RTVSPropertyOp34
 70
     1
102
RTVSPropertyOp35
 70
     1
102
RTVSPropertyOp36
 70
     1
102
RTVSPropertyOp37
 70
     1
102
RTVSPropertyOp38
 70
     1
102
RTVSPropertyOp39
 70
     1
102
RTVSPropertyOp40
 70
     1
102
RTVSPropertyOp41
 70
     1
102
RTVSPropertyOp42
 70
     1
102
RTVSPropertyOp43
 70
     1
102
RTVSPropertyOp44
 70
     1
102
RTVSPropertyOp45
 70
     1
102
RTVSPropertyOp46
 70
     1
102
RTVSPropertyOp47
 70
     1
102
RTVSPropertyOp48
 70
     1
102
RTVSPropertyOp49
 70
     1
102
RTVSPropertyOp50
 70
     1
102
RTVSPropertyOp51
 70
     0
102
RTVSPropertyOp52
 70
     0
102
RTVSPropertyOp53
 70
     1
102
RTVSPropertyOp54
 70
     1
102
RTVSPropertyOp55
 70
     1
102
RTVSPropertyOp56
 70
     1
102
RTVSPropertyOp57
 70
     1
102
RTVSPost2010Prop28
280
     0
102
RTVSPost2010PropOp28
 70
     1
102
RTVSPost2010Prop29
280
     1
102
RTVSPost2010PropOp29
 70
     1
102
RTVSPost2010Prop30
280
     1
102
RTVSPost2010PropOp30
 70
     1
102
RTVSPost2010Prop31
280
     0
102
RTVSPost2010PropOp31
 70
     1
102
RTVSPost2010Prop32
280
     0
102
RTVSPost2010PropOp32
 70
     1
102
RTVSPost2010Prop33
280
     0
102
RTVSPost2010PropOp33
 70
     1
102
RTVSPost2010Prop34
280
     0
102
RTVSPost2010PropOp34
 70
     1
102
RTVSPost2010Prop35
280
     0
102
RTVSPost2010PropOp35
 70
     1
102
RTVSPost2010Prop36
280
     0
102
RTVSPost2010PropOp36
 70
     1
102
RTVSPost2010Prop37
 90
       50
102
RTVSPost2010PropOp37
 70
     1
102
RTVSPost2010Prop38
140
0.0
102
RTVSPost2010PropOp38
 70
     1
102
RTVSPost2010Prop39
140
1.0
102
RTVSPost2010PropOp39
 70
     1
102
RTVSPost2010Prop40
 90
        0
102
RTVSPost2010PropOp40
 70
     1
102
RTVSPost2010Prop41ColorIndex
 90
       18
102
RTVSPost2010Prop41ColorRGB
 90
        0
102
RTVSPost2010PropOp41
 70
     1
102
RTVSPost2010Prop42
 90
       50
102
RTVSPost2010PropOp42
 70
     1
102
RTVSPost2010Prop43
 90
        3
102
RTVSPost2010PropOp43
 70
     1
102
RTVSPost2010Prop44ColorIndex
 90
        5
102
RTVSPost2010Prop44ColorRGB
 90
      255
102
RTVSPost2010PropOp44
 70
     1
102
RTVSPost2010Prop45
280
     0
102
RTVSPost2010PropOp45
 70
     1
102
RTVSPost2010Prop46
 90
       50
102
RTVSPost2010PropOp46
 70
     1
102
RTVSPost2010Prop47
 90
       50
102
RTVSPost2010PropOp47
 70
     1
102
RTVSPost2010Prop48
 90
       50
102
RTVSPost2010PropOp48
 70
     1
102
RTVSPost2010Prop49
280
     0
102
RTVSPost2010PropOp49
 70
     1
102
RTVSPost2010Prop50
 90
       50
102
RTVSPost2010PropOp50
 70
     1
102
RTVSPost2010Prop51ColorIndex
 90
      256
102
RTVSPost2010Prop51ColorRGB
 90
-16777216
102
RTVSPost2010PropOp51
 70
     0
102
RTVSPost2010Prop52
140
1.0
102
RTVSPost2010PropOp52
 70
     0
102
RTVSPost2010Prop53
 90
        2
102
RTVSPost2010PropOp53
 70
     1
102
RTVSPost2010Prop54
  1
strokes_ogs.tif
102
RTVSPost2010PropOp54
 70
     1
102
RTVSPost2010Prop55
280
     0
102
RTVSPost2010PropOp55
 70
     1
102
RTVSPost2010Prop56
140
1.0
102
RTVSPost2010PropOp56
 70
     1
102
RTVSPost2010Prop57
140
1.0
102
RTVSPost2010PropOp57
 70
     1
  0
XRECORD
  5
B4
102
{ACAD_REACTORS
330
B3
102
}
330
B3
100
AcDbXrecord
280
     1
102
RTVSPropertyOp0
 70
     1
102
RTVSPropertyOp1
 70
     1
102
RTVSPropertyOp2
 70
     1
102
RTVSPropertyOp3
 70
     1
102
RTVSPropertyOp4
 70
     1
102
RTVSPropertyOp5
 70
     1
102
RTVSPropertyOp6
 70
     1
102
RTVSPropertyOp7
 70
     1
102
RTVSPropertyOp8
 70
     1
102
RTVSPropertyOp9
 70
     1
102
RTVSPropertyOp10
 70
     1
102
RTVSPropertyOp11
 70
     1
102
RTVSPropertyOp12
 70
     1
102
RTVSPropertyOp13
 70
     1
102
RTVSPropertyOp14
 70
     1
102
RTVSPropertyOp15
 70
     1
102
RTVSPropertyOp16
 70
     1
102
RTVSPropertyOp17
 70
     1
102
RTVSPropertyOp18
 70
     1
102
RTVSPropertyOp19
 70
     1
102
RTVSPropertyOp20
 70
     1
102
RTVSPropertyOp21
 70
     1
102
RTVSPropertyOp22
 70
     1
102
RTVSPropertyOp23
 70
     1
102
RTVSPropertyOp24
 70
     1
102
RTVSPropertyOp25
 70
     1
102
RTVSPropertyOp26
 70
     1
102
RTVSPropertyOp27
 70
     1
102
RTVSPropertyOp28
 70
     1
102
RTVSPropertyOp29
 70
     1
102
RTVSPropertyOp30
 70
     1
102
RTVSPropertyOp31
 70
     1
102
RTVSPropertyOp32
 70
     1
102
RTVSPropertyOp33
 70
     1
102
RTVSPropertyOp34
 70
     1
102
RTVSPropertyOp35
 70
     1
102
RTVSPropertyOp36
 70
     1
102
RTVSPropertyOp37
 70
     1
102
RTVSPropertyOp38
 70
     1
102
RTVSPropertyOp39
 70
     1
102
RTVSPropertyOp40
 70
     1
102
RTVSPropertyOp41
 70
     1
102
RTVSPropertyOp42
 70
     1
102
RTVSPropertyOp43
 70
     1
102
RTVSPropertyOp44
 70
     1
102
RTVSPropertyOp45
 70
     1
102
RTVSPropertyOp46
 70
     1
102
RTVSPropertyOp47
 70
     1
102
RTVSPropertyOp48
 70
     1
102
RTVSPropertyOp49
 70
     1
102
RTVSPropertyOp50
 70
     1
102
RTVSPropertyOp51
 70
     0
102
RTVSPropertyOp52
 70
     0
102
RTVSPropertyOp53
 70
     1
102
RTVSPropertyOp54
 70
     1
102
RTVSPropertyOp55
 70
     1
102
RTVSPropertyOp56
 70
     1
102
RTVSPropertyOp57
 70
     1
102
RTVSPost2010Prop28
280
     0
102
RTVSPost2010PropOp28
 70
     1
102
RTVSPost2010Prop29
280
     1
102
RTVSPost2010PropOp29
 70
     1
102
RTVSPost2010Prop30
280
     1
102
RTVSPost2010PropOp30
 70
     1
102
RTVSPost2010Prop31
280
     0
102
RTVSPost2010PropOp31
 70
     1
102
RTVSPost2010Prop32
280
     0
102
RTVSPost2010PropOp32
 70
     1
102
RTVSPost2010Prop33
280
     0
102
RTVSPost2010PropOp33
 70
     1
102
RTVSPost2010Prop34
280
     0
102
RTVSPost2010PropOp34
 70
     1
102
RTVSPost2010Prop35
280
     0
102
RTVSPost2010PropOp35
 70
     1
102
RTVSPost2010Prop36
280
     0
102
RTVSPost2010PropOp36
 70
     1
102
RTVSPost2010Prop37
 90
       50
102
RTVSPost2010PropOp37
 70
     1
102
RTVSPost2010Prop38
140
0.0
102
RTVSPost2010PropOp38
 70
     1
102
RTVSPost2010Prop39
140
1.0
102
RTVSPost2010PropOp39
 70
     1
102
RTVSPost2010Prop40
 90
        0
102
RTVSPost2010PropOp40
 70
     1
102
RTVSPost2010Prop41ColorIndex
 90
       18
102
RTVSPost2010Prop41ColorRGB
 90
        0
102
RTVSPost2010PropOp41
 70
     1
102
RTVSPost2010Prop42
 90
       50
102
RTVSPost2010PropOp42
 70
     1
102
RTVSPost2010Prop43
 90
        3
102
RTVSPost2010PropOp43
 70
     1
102
RTVSPost2010Prop44ColorIndex
 90
        5
102
RTVSPost2010Prop44ColorRGB
 90
      255
102
RTVSPost2010PropOp44
 70
     1
102
RTVSPost2010Prop45
280
     0
102
RTVSPost2010PropOp45
 70
     1
102
RTVSPost2010Prop46
 90
       50
102
RTVSPost2010PropOp46
 70
     1
102
RTVSPost2010Prop47
 90
       50
102
RTVSPost2010PropOp47
 70
     1
102
RTVSPost2010Prop48
 90
       50
102
RTVSPost2010PropOp48
 70
     1
102
RTVSPost2010Prop49
280
     0
102
RTVSPost2010PropOp49
 70
     1
102
RTVSPost2010Prop50
 90
       50
102
RTVSPost2010PropOp50
 70
     1
102
RTVSPost2010Prop51ColorIndex
 90
      256
102
RTVSPost2010Prop51ColorRGB
 90
-16777216
102
RTVSPost2010PropOp51
 70
     0
102
RTVSPost2010Prop52
140
1.0
102
RTVSPost2010PropOp52
 70
     0
102
RTVSPost2010Prop53
 90
        2
102
RTVSPost2010PropOp53
 70
     1
102
RTVSPost2010Prop54
  1
strokes_ogs.tif
102
RTVSPost2010PropOp54
 70
     1
102
RTVSPost2010Prop55
280
     0
102
RTVSPost2010PropOp55
 70
     1
102
RTVSPost2010Prop56
140
1.0
102
RTVSPost2010PropOp56
 70
     1
102
RTVSPost2010Prop57
140
1.0
102
RTVSPost2010PropOp57
 70
     1
  0
XRECORD
  5
B6
102
{ACAD_REACTORS
330
B5
102
}
330
B5
100
AcDbXrecord
280
     1
102
RTVSPropertyOp0
 70
     1
102
RTVSPropertyOp1
 70
     1
102
RTVSPropertyOp2
 70
     1
102
RTVSPropertyOp3
 70
     1
102
RTVSPropertyOp4
 70
     1
102
RTVSPropertyOp5
 70
     1
102
RTVSPropertyOp6
 70
     1
102
RTVSPropertyOp7
 70
     1
102
RTVSPropertyOp8
 70
     1
102
RTVSPropertyOp9
 70
     1
102
RTVSPropertyOp10
 70
     1
102
RTVSPropertyOp11
 70
     1
102
RTVSPropertyOp12
 70
     1
102
RTVSPropertyOp13
 70
     1
102
RTVSPropertyOp14
 70
     1
102
RTVSPropertyOp15
 70
     1
102
RTVSPropertyOp16
 70
     1
102
RTVSPropertyOp17
 70
     1
102
RTVSPropertyOp18
 70
     1
102
RTVSPropertyOp19
 70
     1
102
RTVSPropertyOp20
 70
     1
102
RTVSPropertyOp21
 70
     1
102
RTVSPropertyOp22
 70
     1
102
RTVSPropertyOp23
 70
     1
102
RTVSPropertyOp24
 70
     1
102
RTVSPropertyOp25
 70
     1
102
RTVSPropertyOp26
 70
     1
102
RTVSPropertyOp27
 70
     1
102
RTVSPropertyOp28
 70
     1
102
RTVSPropertyOp29
 70
     1
102
RTVSPropertyOp30
 70
     1
102
RTVSPropertyOp31
 70
     1
102
RTVSPropertyOp32
 70
     1
102
RTVSPropertyOp33
 70
     1
102
RTVSPropertyOp34
 70
     1
102
RTVSPropertyOp35
 70
     1
102
RTVSPropertyOp36
 70
     1
102
RTVSPropertyOp37
 70
     1
102
RTVSPropertyOp38
 70
     1
102
RTVSPropertyOp39
 70
     1
102
RTVSPropertyOp40
 70
     1
102
RTVSPropertyOp41
 70
     1
102
RTVSPropertyOp42
 70
     1
102
RTVSPropertyOp43
 70
     1
102
RTVSPropertyOp44
 70
     1
102
RTVSPropertyOp45
 70
     1
102
RTVSPropertyOp46
 70
     1
102
RTVSPropertyOp47
 70
     1
102
RTVSPropertyOp48
 70
     1
102
RTVSPropertyOp49
 70
     1
102
RTVSPropertyOp50
 70
     1
102
RTVSPropertyOp51
 70
     0
102
RTVSPropertyOp52
 70
     0
102
RTVSPropertyOp53
 70
     1
102
RTVSPropertyOp54
 70
     1
102
RTVSPropertyOp55
 70
     1
102
RTVSPropertyOp56
 70
     1
102
RTVSPropertyOp57
 70
     1
102
RTVSPost2010Prop28
280
     0
102
RTVSPost2010PropOp28
 70
     1
102
RTVSPost2010Prop29
280
     1
102
RTVSPost2010PropOp29
 70
     1
102
RTVSPost2010Prop30
280
     1
102
RTVSPost2010PropOp30
 70
     1
102
RTVSPost2010Prop31
280
     0
102
RTVSPost2010PropOp31
 70
     1
102
RTVSPost2010Prop32
280
     0
102
RTVSPost2010PropOp32
 70
     1
102
RTVSPost2010Prop33
280
     0
102
RTVSPost2010PropOp33
 70
     1
102
RTVSPost2010Prop34
280
     0
102
RTVSPost2010PropOp34
 70
     1
102
RTVSPost2010Prop35
280
     0
102
RTVSPost2010PropOp35
 70
     1
102
RTVSPost2010Prop36
280
     0
102
RTVSPost2010PropOp36
 70
     1
102
RTVSPost2010Prop37
 90
       50
102
RTVSPost2010PropOp37
 70
     1
102
RTVSPost2010Prop38
140
0.0
102
RTVSPost2010PropOp38
 70
     1
102
RTVSPost2010Prop39
140
1.0
102
RTVSPost2010PropOp39
 70
     1
102
RTVSPost2010Prop40
 90
        0
102
RTVSPost2010PropOp40
 70
     1
102
RTVSPost2010Prop41ColorIndex
 90
       18
102
RTVSPost2010Prop41ColorRGB
 90
        0
102
RTVSPost2010PropOp41
 70
     1
102
RTVSPost2010Prop42
 90
       50
102
RTVSPost2010PropOp42
 70
     1
102
RTVSPost2010Prop43
 90
        3
102
RTVSPost2010PropOp43
 70
     1
102
RTVSPost2010Prop44ColorIndex
 90
        5
102
RTVSPost2010Prop44ColorRGB
 90
      255
102
RTVSPost2010PropOp44
 70
     1
102
RTVSPost2010Prop45
280
     0
102
RTVSPost2010PropOp45
 70
     1
102
RTVSPost2010Prop46
 90
       50
102
RTVSPost2010PropOp46
 70
     1
102
RTVSPost2010Prop47
 90
       50
102
RTVSPost2010PropOp47
 70
     1
102
RTVSPost2010Prop48
 90
       50
102
RTVSPost2010PropOp48
 70
     1
102
RTVSPost2010Prop49
280
     0
102
RTVSPost2010PropOp49
 70
     1
102
RTVSPost2010Prop50
 90
       50
102
RTVSPost2010PropOp50
 70
     1
102
RTVSPost2010Prop51ColorIndex
 90
      256
102
RTVSPost2010Prop51ColorRGB
 90
-16777216
102
RTVSPost2010PropOp51
 70
     0
102
RTVSPost2010Prop52
140
1.0
102
RTVSPost2010PropOp52
 70
     0
102
RTVSPost2010Prop53
 90
        2
102
RTVSPost2010PropOp53
 70
     1
102
RTVSPost2010Prop54
  1
strokes_ogs.tif
102
RTVSPost2010PropOp54
 70
     1
102
RTVSPost2010Prop55
280
     0
102
RTVSPost2010PropOp55
 70
     1
102
RTVSPost2010Prop56
140
1.0
102
RTVSPost2010PropOp56
 70
     1
102
RTVSPost2010Prop57
140
1.0
102
RTVSPost2010PropOp57
 70
     1
  0
XRECORD
  5
C6
102
{ACAD_REACTORS
330
C5
102
}
330
C5
100
AcDbXrecord
280
     1
102
RTVSPropertyOp0
 70
     0
102
RTVSPropertyOp1
 70
     0
102
RTVSPropertyOp2
 70
     0
102
RTVSPropertyOp3
 70
     0
102
RTVSPropertyOp4
 70
     0
102
RTVSPropertyOp5
 70
     0
102
RTVSPropertyOp6
 70
     0
102
RTVSPropertyOp7
 70
     0
102
RTVSPropertyOp8
 70
     0
102
RTVSPropertyOp9
 70
     0
102
RTVSPropertyOp10
 70
     0
102
RTVSPropertyOp11
 70
     0
102
RTVSPropertyOp12
 70
     0
102
RTVSPropertyOp13
 70
     0
102
RTVSPropertyOp14
 70
     2
102
RTVSPropertyOp15
 70
     0
102
RTVSPropertyOp16
 70
     0
102
RTVSPropertyOp17
 70
     0
102
RTVSPropertyOp18
 70
     0
102
RTVSPropertyOp19
 70
     0
102
RTVSPropertyOp20
 70
     0
102
RTVSPropertyOp21
 70
     0
102
RTVSPropertyOp22
 70
     0
102
RTVSPropertyOp23
 70
     0
102
RTVSPropertyOp24
 70
     0
102
RTVSPropertyOp25
 70
     0
102
RTVSPropertyOp26
 70
     0
102
RTVSPropertyOp27
 70
     0
102
RTVSPropertyOp28
 70
     0
102
RTVSPropertyOp29
 70
     0
102
RTVSPropertyOp30
 70
     0
102
RTVSPropertyOp31
 70
     0
102
RTVSPropertyOp32
 70
     0
102
RTVSPropertyOp33
 70
     0
102
RTVSPropertyOp34
 70
     0
102
RTVSPropertyOp35
 70
     0
102
RTVSPropertyOp36
 70
     0
102
RTVSPropertyOp37
 70
     0
102
RTVSPropertyOp38
 70
     0
102
RTVSPropertyOp39
 70
     0
102
RTVSPropertyOp40
 70
     0
102
RTVSPropertyOp41
 70
     0
102
RTVSPropertyOp42
 70
     0
102
RTVSPropertyOp43
 70
     0
102
RTVSPropertyOp44
 70
     0
102
RTVSPropertyOp45
 70
     0
102
RTVSPropertyOp46
 70
     0
102
RTVSPropertyOp47
 70
     0
102
RTVSPropertyOp48
 70
     0
102
RTVSPropertyOp49
 70
     0
102
RTVSPropertyOp50
 70
     0
102
RTVSPropertyOp51
 70
     0
102
RTVSPropertyOp52
 70
     0
102
RTVSPropertyOp53
 70
     0
102
RTVSPropertyOp54
 70
     0
102
RTVSPropertyOp55
 70
     0
102
RTVSPropertyOp56
 70
     0
102
RTVSPropertyOp57
 70
     0
102
RTVSPost2010Prop28
280
     0
102
RTVSPost2010PropOp28
 70
     0
102
RTVSPost2010Prop29
280
     1
102
RTVSPost2010PropOp29
 70
     0
102
RTVSPost2010Prop30
280
     1
102
RTVSPost2010PropOp30
 70
     0
102
RTVSPost2010Prop31
280
     0
102
RTVSPost2010PropOp31
 70
     0
102
RTVSPost2010Prop32
280
     0
102
RTVSPost2010PropOp32
 70
     0
102
RTVSPost2010Prop33
280
     0
102
RTVSPost2010PropOp33
 70
     0
102
RTVSPost2010Prop34
280
     0
102
RTVSPost2010PropOp34
 70
     0
102
RTVSPost2010Prop35
280
     0
102
RTVSPost2010PropOp35
 70
     0
102
RTVSPost2010Prop36
280
     0
102
RTVSPost2010PropOp36
 70
     0
102
RTVSPost2010Prop37
 90
       50
102
RTVSPost2010PropOp37
 70
     0
102
RTVSPost2010Prop38
140
0.0
102
RTVSPost2010PropOp38
 70
     0
102
RTVSPost2010Prop39
140
1.0
102
RTVSPost2010PropOp39
 70
     0
102
RTVSPost2010Prop40
 90
        0
102
RTVSPost2010PropOp40
 70
     0
102
RTVSPost2010Prop41ColorIndex
 90
       18
102
RTVSPost2010Prop41ColorRGB
 90
        0
102
RTVSPost2010PropOp41
 70
     0
102
RTVSPost2010Prop42
 90
       50
102
RTVSPost2010PropOp42
 70
     0
102
RTVSPost2010Prop43
 90
        3
102
RTVSPost2010PropOp43
 70
     0
102
RTVSPost2010Prop44ColorIndex
 90
        5
102
RTVSPost2010Prop44ColorRGB
 90
      255
102
RTVSPost2010PropOp44
 70
     0
102
RTVSPost2010Prop45
280
     0
102
RTVSPost2010PropOp45
 70
     0
102
RTVSPost2010Prop46
 90
       50
102
RTVSPost2010PropOp46
 70
     0
102
RTVSPost2010Prop47
 90
       50
102
RTVSPost2010PropOp47
 70
     0
102
RTVSPost2010Prop48
 90
       50
102
RTVSPost2010PropOp48
 70
     0
102
RTVSPost2010Prop49
280
     0
102
RTVSPost2010PropOp49
 70
     0
102
RTVSPost2010Prop50
 90
       50
102
RTVSPost2010PropOp50
 70
     0
102
RTVSPost2010Prop51ColorIndex
 90
      256
102
RTVSPost2010Prop51ColorRGB
 90
-16777216
102
RTVSPost2010PropOp51
 70
     0
102
RTVSPost2010Prop52
140
1.0
102
RTVSPost2010PropOp52
 70
     0
102
RTVSPost2010Prop53
 90
        2
102
RTVSPost2010PropOp53
 70
     0
102
RTVSPost2010Prop54
  1
strokes_ogs.tif
102
RTVSPost2010PropOp54
 70
     0
102
RTVSPost2010Prop55
280
     0
102
RTVSPost2010PropOp55
 70
     0
102
RTVSPost2010Prop56
140
1.0
102
RTVSPost2010PropOp56
 70
     0
102
RTVSPost2010Prop57
140
1.0
102
RTVSPost2010PropOp57
 70
     0
  0
XRECORD
  5
BE
102
{ACAD_REACTORS
330
BD
102
}
330
BD
100
AcDbXrecord
280
     1
102
RTVSPropertyOp0
 70
     1
102
RTVSPropertyOp1
 70
     1
102
RTVSPropertyOp2
 70
     1
102
RTVSPropertyOp3
 70
     1
102
RTVSPropertyOp4
 70
     1
102
RTVSPropertyOp5
 70
     1
102
RTVSPropertyOp6
 70
     1
102
RTVSPropertyOp7
 70
     1
102
RTVSPropertyOp8
 70
     1
102
RTVSPropertyOp9
 70
     1
102
RTVSPropertyOp10
 70
     1
102
RTVSPropertyOp11
 70
     1
102
RTVSPropertyOp12
 70
     1
102
RTVSPropertyOp13
 70
     1
102
RTVSPropertyOp14
 70
     1
102
RTVSPropertyOp15
 70
     1
102
RTVSPropertyOp16
 70
     1
102
RTVSPropertyOp17
 70
     1
102
RTVSPropertyOp18
 70
     1
102
RTVSPropertyOp19
 70
     1
102
RTVSPropertyOp20
 70
     1
102
RTVSPropertyOp21
 70
     1
102
RTVSPropertyOp22
 70
     1
102
RTVSPropertyOp23
 70
     1
102
RTVSPropertyOp24
 70
     1
102
RTVSPropertyOp25
 70
     1
102
RTVSPropertyOp26
 70
     1
102
RTVSPropertyOp27
 70
     1
102
RTVSPropertyOp28
 70
     1
102
RTVSPropertyOp29
 70
     1
102
RTVSPropertyOp30
 70
     1
102
RTVSPropertyOp31
 70
     1
102
RTVSPropertyOp32
 70
     1
102
RTVSPropertyOp33
 70
     1
102
RTVSPropertyOp34
 70
     1
102
RTVSPropertyOp35
 70
     1
102
RTVSPropertyOp36
 70
     1
102
RTVSPropertyOp37
 70
     1
102
RTVSPropertyOp38
 70
     1
102
RTVSPropertyOp39
 70
     1
102
RTVSPropertyOp40
 70
     1
102
RTVSPropertyOp41
 70
     1
102
RTVSPropertyOp42
 70
     1
102
RTVSPropertyOp43
 70
     1
102
RTVSPropertyOp44
 70
     1
102
RTVSPropertyOp45
 70
     1
102
RTVSPropertyOp46
 70
     1
102
RTVSPropertyOp47
 70
     1
102
RTVSPropertyOp48
 70
     1
102
RTVSPropertyOp49
 70
     1
102
RTVSPropertyOp50
 70
     1
102
RTVSPropertyOp51
 70
     0
102
RTVSPropertyOp52
 70
     0
102
RTVSPropertyOp53
 70
     1
102
RTVSPropertyOp54
 70
     1
102
RTVSPropertyOp55
 70
     1
102
RTVSPropertyOp56
 70
     1
102
RTVSPropertyOp57
 70
     1
102
RTVSPost2010Prop28
280
     0
102
RTVSPost2010PropOp28
 70
     1
102
RTVSPost2010Prop29
280
     1
102
RTVSPost2010PropOp29
 70
     1
102
RTVSPost2010Prop30
280
     1
102
RTVSPost2010PropOp30
 70
     1
102
RTVSPost2010Prop31
280
     0
102
RTVSPost2010PropOp31
 70
     1
102
RTVSPost2010Prop32
280
     0
102
RTVSPost2010PropOp32
 70
     1
102
RTVSPost2010Prop33
280
     0
102
RTVSPost2010PropOp33
 70
     1
102
RTVSPost2010Prop34
280
     0
102
RTVSPost2010PropOp34
 70
     1
102
RTVSPost2010Prop35
280
     0
102
RTVSPost2010PropOp35
 70
     1
102
RTVSPost2010Prop36
280
     0
102
RTVSPost2010PropOp36
 70
     1
102
RTVSPost2010Prop37
 90
       50
102
RTVSPost2010PropOp37
 70
     1
102
RTVSPost2010Prop38
140
0.0
102
RTVSPost2010PropOp38
 70
     1
102
RTVSPost2010Prop39
140
1.0
102
RTVSPost2010PropOp39
 70
     1
102
RTVSPost2010Prop40
 90
        0
102
RTVSPost2010PropOp40
 70
     1
102
RTVSPost2010Prop41ColorIndex
 90
       18
102
RTVSPost2010Prop41ColorRGB
 90
        0
102
RTVSPost2010PropOp41
 70
     1
102
RTVSPost2010Prop42
 90
       50
102
RTVSPost2010PropOp42
 70
     1
102
RTVSPost2010Prop43
 90
        3
102
RTVSPost2010PropOp43
 70
     1
102
RTVSPost2010Prop44ColorIndex
 90
        5
102
RTVSPost2010Prop44ColorRGB
 90
      255
102
RTVSPost2010PropOp44
 70
     1
102
RTVSPost2010Prop45
280
     0
102
RTVSPost2010PropOp45
 70
     1
102
RTVSPost2010Prop46
 90
       50
102
RTVSPost2010PropOp46
 70
     1
102
RTVSPost2010Prop47
 90
       50
102
RTVSPost2010PropOp47
 70
     1
102
RTVSPost2010Prop48
 90
       50
102
RTVSPost2010PropOp48
 70
     1
102
RTVSPost2010Prop49
280
     0
102
RTVSPost2010PropOp49
 70
     1
102
RTVSPost2010Prop50
 90
       50
102
RTVSPost2010PropOp50
 70
     1
102
RTVSPost2010Prop51ColorIndex
 90
      256
102
RTVSPost2010Prop51ColorRGB
 90
-16777216
102
RTVSPost2010PropOp51
 70
     0
102
RTVSPost2010Prop52
140
1.0
102
RTVSPost2010PropOp52
 70
     0
102
RTVSPost2010Prop53
 90
        2
102
RTVSPost2010PropOp53
 70
     1
102
RTVSPost2010Prop54
  1
strokes_ogs.tif
102
RTVSPost2010PropOp54
 70
     1
102
RTVSPost2010Prop55
280
     0
102
RTVSPost2010PropOp55
 70
     1
102
RTVSPost2010Prop56
140
1.0
102
RTVSPost2010PropOp56
 70
     1
102
RTVSPost2010Prop57
140
1.0
102
RTVSPost2010PropOp57
 70
     1
  0
XRECORD
  5
A2
102
{ACAD_REACTORS
330
A1
102
}
330
A1
100
AcDbXrecord
280
     1
102
RTVSPropertyOp0
 70
     1
102
RTVSPropertyOp1
 70
     1
102
RTVSPropertyOp2
 70
     1
102
RTVSPropertyOp3
 70
     1
102
RTVSPropertyOp4
 70
     1
102
RTVSPropertyOp5
 70
     1
102
RTVSPropertyOp6
 70
     1
102
RTVSPropertyOp7
 70
     1
102
RTVSPropertyOp8
 70
     1
102
RTVSPropertyOp9
 70
     1
102
RTVSPropertyOp10
 70
     1
102
RTVSPropertyOp11
 70
     1
102
RTVSPropertyOp12
 70
     1
102
RTVSPropertyOp13
 70
     1
102
RTVSPropertyOp14
 70
     1
102
RTVSPropertyOp15
 70
     1
102
RTVSPropertyOp16
 70
     1
102
RTVSPropertyOp17
 70
     1
102
RTVSPropertyOp18
 70
     1
102
RTVSPropertyOp19
 70
     1
102
RTVSPropertyOp20
 70
     1
102
RTVSPropertyOp21
 70
     1
102
RTVSPropertyOp22
 70
     1
102
RTVSPropertyOp23
 70
     1
102
RTVSPropertyOp24
 70
     1
102
RTVSPropertyOp25
 70
     1
102
RTVSPropertyOp26
 70
     1
102
RTVSPropertyOp27
 70
     1
102
RTVSPropertyOp28
 70
     1
102
RTVSPropertyOp29
 70
     1
102
RTVSPropertyOp30
 70
     1
102
RTVSPropertyOp31
 70
     1
102
RTVSPropertyOp32
 70
     1
102
RTVSPropertyOp33
 70
     1
102
RTVSPropertyOp34
 70
     1
102
RTVSPropertyOp35
 70
     1
102
RTVSPropertyOp36
 70
     1
102
RTVSPropertyOp37
 70
     1
102
RTVSPropertyOp38
 70
     1
102
RTVSPropertyOp39
 70
     1
102
RTVSPropertyOp40
 70
     1
102
RTVSPropertyOp41
 70
     1
102
RTVSPropertyOp42
 70
     1
102
RTVSPropertyOp43
 70
     1
102
RTVSPropertyOp44
 70
     1
102
RTVSPropertyOp45
 70
     1
102
RTVSPropertyOp46
 70
     1
102
RTVSPropertyOp47
 70
     1
102
RTVSPropertyOp48
 70
     1
102
RTVSPropertyOp49
 70
     1
102
RTVSPropertyOp50
 70
     1
102
RTVSPropertyOp51
 70
     0
102
RTVSPropertyOp52
 70
     0
102
RTVSPropertyOp53
 70
     1
102
RTVSPropertyOp54
 70
     1
102
RTVSPropertyOp55
 70
     1
102
RTVSPropertyOp56
 70
     1
102
RTVSPropertyOp57
 70
     1
102
RTVSPost2010Prop28
280
     0
102
RTVSPost2010PropOp28
 70
     1
102
RTVSPost2010Prop29
280
     1
102
RTVSPost2010PropOp29
 70
     1
102
RTVSPost2010Prop30
280
     1
102
RTVSPost2010PropOp30
 70
     1
102
RTVSPost2010Prop31
280
     0
102
RTVSPost2010PropOp31
 70
     1
102
RTVSPost2010Prop32
280
     0
102
RTVSPost2010PropOp32
 70
     1
102
RTVSPost2010Prop33
280
     0
102
RTVSPost2010PropOp33
 70
     1
102
RTVSPost2010Prop34
280
     0
102
RTVSPost2010PropOp34
 70
     1
102
RTVSPost2010Prop35
280
     0
102
RTVSPost2010PropOp35
 70
     1
102
RTVSPost2010Prop36
280
     0
102
RTVSPost2010PropOp36
 70
     1
102
RTVSPost2010Prop37
 90
       50
102
RTVSPost2010PropOp37
 70
     1
102
RTVSPost2010Prop38
140
0.0
102
RTVSPost2010PropOp38
 70
     1
102
RTVSPost2010Prop39
140
1.0
102
RTVSPost2010PropOp39
 70
     1
102
RTVSPost2010Prop40
 90
        0
102
RTVSPost2010PropOp40
 70
     1
102
RTVSPost2010Prop41ColorIndex
 90
       18
102
RTVSPost2010Prop41ColorRGB
 90
        0
102
RTVSPost2010PropOp41
 70
     1
102
RTVSPost2010Prop42
 90
       50
102
RTVSPost2010PropOp42
 70
     1
102
RTVSPost2010Prop43
 90
        3
102
RTVSPost2010PropOp43
 70
     1
102
RTVSPost2010Prop44ColorIndex
 90
        5
102
RTVSPost2010Prop44ColorRGB
 90
      255
102
RTVSPost2010PropOp44
 70
     1
102
RTVSPost2010Prop45
280
     0
102
RTVSPost2010PropOp45
 70
     1
102
RTVSPost2010Prop46
 90
       50
102
RTVSPost2010PropOp46
 70
     1
102
RTVSPost2010Prop47
 90
       50
102
RTVSPost2010PropOp47
 70
     1
102
RTVSPost2010Prop48
 90
       50
102
RTVSPost2010PropOp48
 70
     1
102
RTVSPost2010Prop49
280
     0
102
RTVSPost2010PropOp49
 70
     1
102
RTVSPost2010Prop50
 90
       50
102
RTVSPost2010PropOp50
 70
     1
102
RTVSPost2010Prop51ColorIndex
 90
      256
102
RTVSPost2010Prop51ColorRGB
 90
-16777216
102
RTVSPost2010PropOp51
 70
     0
102
RTVSPost2010Prop52
140
1.0
102
RTVSPost2010PropOp52
 70
     0
102
RTVSPost2010Prop53
 90
        2
102
RTVSPost2010PropOp53
 70
     1
102
RTVSPost2010Prop54
  1
strokes_ogs.tif
102
RTVSPost2010PropOp54
 70
     1
102
RTVSPost2010Prop55
280
     0
102
RTVSPost2010PropOp55
 70
     1
102
RTVSPost2010Prop56
140
1.0
102
RTVSPost2010PropOp56
 70
     1
102
RTVSPost2010Prop57
140
1.0
102
RTVSPost2010PropOp57
 70
     1
  0
XRECORD
  5
A4
102
{ACAD_REACTORS
330
A3
102
}
330
A3
100
AcDbXrecord
280
     1
102
RTVSPropertyOp0
 70
     1
102
RTVSPropertyOp1
 70
     1
102
RTVSPropertyOp2
 70
     1
102
RTVSPropertyOp3
 70
     1
102
RTVSPropertyOp4
 70
     1
102
RTVSPropertyOp5
 70
     1
102
RTVSPropertyOp6
 70
     1
102
RTVSPropertyOp7
 70
     1
102
RTVSPropertyOp8
 70
     1
102
RTVSPropertyOp9
 70
     1
102
RTVSPropertyOp10
 70
     1
102
RTVSPropertyOp11
 70
     1
102
RTVSPropertyOp12
 70
     1
102
RTVSPropertyOp13
 70
     1
102
RTVSPropertyOp14
 70
     1
102
RTVSPropertyOp15
 70
     1
102
RTVSPropertyOp16
 70
     1
102
RTVSPropertyOp17
 70
     1
102
RTVSPropertyOp18
 70
     1
102
RTVSPropertyOp19
 70
     1
102
RTVSPropertyOp20
 70
     1
102
RTVSPropertyOp21
 70
     1
102
RTVSPropertyOp22
 70
     1
102
RTVSPropertyOp23
 70
     1
102
RTVSPropertyOp24
 70
     1
102
RTVSPropertyOp25
 70
     1
102
RTVSPropertyOp26
 70
     1
102
RTVSPropertyOp27
 70
     1
102
RTVSPropertyOp28
 70
     1
102
RTVSPropertyOp29
 70
     1
102
RTVSPropertyOp30
 70
     1
102
RTVSPropertyOp31
 70
     1
102
RTVSPropertyOp32
 70
     1
102
RTVSPropertyOp33
 70
     1
102
RTVSPropertyOp34
 70
     1
102
RTVSPropertyOp35
 70
     1
102
RTVSPropertyOp36
 70
     1
102
RTVSPropertyOp37
 70
     1
102
RTVSPropertyOp38
 70
     1
102
RTVSPropertyOp39
 70
     1
102
RTVSPropertyOp40
 70
     1
102
RTVSPropertyOp41
 70
     1
102
RTVSPropertyOp42
 70
     1
102
RTVSPropertyOp43
 70
     1
102
RTVSPropertyOp44
 70
     1
102
RTVSPropertyOp45
 70
     1
102
RTVSPropertyOp46
 70
     1
102
RTVSPropertyOp47
 70
     1
102
RTVSPropertyOp48
 70
     1
102
RTVSPropertyOp49
 70
     1
102
RTVSPropertyOp50
 70
     1
102
RTVSPropertyOp51
 70
     0
102
RTVSPropertyOp52
 70
     0
102
RTVSPropertyOp53
 70
     1
102
RTVSPropertyOp54
 70
     1
102
RTVSPropertyOp55
 70
     1
102
RTVSPropertyOp56
 70
     1
102
RTVSPropertyOp57
 70
     1
102
RTVSPost2010Prop28
280
     0
102
RTVSPost2010PropOp28
 70
     1
102
RTVSPost2010Prop29
280
     1
102
RTVSPost2010PropOp29
 70
     1
102
RTVSPost2010Prop30
280
     1
102
RTVSPost2010PropOp30
 70
     1
102
RTVSPost2010Prop31
280
     0
102
RTVSPost2010PropOp31
 70
     1
102
RTVSPost2010Prop32
280
     0
102
RTVSPost2010PropOp32
 70
     1
102
RTVSPost2010Prop33
280
     0
102
RTVSPost2010PropOp33
 70
     1
102
RTVSPost2010Prop34
280
     0
102
RTVSPost2010PropOp34
 70
     1
102
RTVSPost2010Prop35
280
     0
102
RTVSPost2010PropOp35
 70
     1
102
RTVSPost2010Prop36
280
     0
102
RTVSPost2010PropOp36
 70
     1
102
RTVSPost2010Prop37
 90
       50
102
RTVSPost2010PropOp37
 70
     1
102
RTVSPost2010Prop38
140
0.0
102
RTVSPost2010PropOp38
 70
     1
102
RTVSPost2010Prop39
140
1.0
102
RTVSPost2010PropOp39
 70
     1
102
RTVSPost2010Prop40
 90
        0
102
RTVSPost2010PropOp40
 70
     1
102
RTVSPost2010Prop41ColorIndex
 90
       18
102
RTVSPost2010Prop41ColorRGB
 90
        0
102
RTVSPost2010PropOp41
 70
     1
102
RTVSPost2010Prop42
 90
       50
102
RTVSPost2010PropOp42
 70
     1
102
RTVSPost2010Prop43
 90
        3
102
RTVSPost2010PropOp43
 70
     1
102
RTVSPost2010Prop44ColorIndex
 90
        5
102
RTVSPost2010Prop44ColorRGB
 90
      255
102
RTVSPost2010PropOp44
 70
     1
102
RTVSPost2010Prop45
280
     0
102
RTVSPost2010PropOp45
 70
     1
102
RTVSPost2010Prop46
 90
       50
102
RTVSPost2010PropOp46
 70
     1
102
RTVSPost2010Prop47
 90
       50
102
RTVSPost2010PropOp47
 70
     1
102
RTVSPost2010Prop48
 90
       50
102
RTVSPost2010PropOp48
 70
     1
102
RTVSPost2010Prop49
280
     0
102
RTVSPost2010PropOp49
 70
     1
102
RTVSPost2010Prop50
 90
       50
102
RTVSPost2010PropOp50
 70
     1
102
RTVSPost2010Prop51ColorIndex
 90
      256
102
RTVSPost2010Prop51ColorRGB
 90
-16777216
102
RTVSPost2010PropOp51
 70
     0
102
RTVSPost2010Prop52
140
1.0
102
RTVSPost2010PropOp52
 70
     0
102
RTVSPost2010Prop53
 90
        2
102
RTVSPost2010PropOp53
 70
     1
102
RTVSPost2010Prop54
  1
strokes_ogs.tif
102
RTVSPost2010PropOp54
 70
     1
102
RTVSPost2010Prop55
280
     0
102
RTVSPost2010PropOp55
 70
     1
102
RTVSPost2010Prop56
140
1.0
102
RTVSPost2010PropOp56
 70
     1
102
RTVSPost2010Prop57
140
1.0
102
RTVSPost2010PropOp57
 70
     1
  0
XRECORD
  5
A6
102
{ACAD_REACTORS
330
A5
102
}
330
A5
100
AcDbXrecord
280
     1
102
RTVSPropertyOp0
 70
     1
102
RTVSPropertyOp1
 70
     1
102
RTVSPropertyOp2
 70
     1
102
RTVSPropertyOp3
 70
     1
102
RTVSPropertyOp4
 70
     1
102
RTVSPropertyOp5
 70
     1
102
RTVSPropertyOp6
 70
     1
102
RTVSPropertyOp7
 70
     1
102
RTVSPropertyOp8
 70
     1
102
RTVSPropertyOp9
 70
     1
102
RTVSPropertyOp10
 70
     1
102
RTVSPropertyOp11
 70
     1
102
RTVSPropertyOp12
 70
     1
102
RTVSPropertyOp13
 70
     1
102
RTVSPropertyOp14
 70
     1
102
RTVSPropertyOp15
 70
     1
102
RTVSPropertyOp16
 70
     1
102
RTVSPropertyOp17
 70
     1
102
RTVSPropertyOp18
 70
     1
102
RTVSPropertyOp19
 70
     1
102
RTVSPropertyOp20
 70
     1
102
RTVSPropertyOp21
 70
     1
102
RTVSPropertyOp22
 70
     1
102
RTVSPropertyOp23
 70
     1
102
RTVSPropertyOp24
 70
     1
102
RTVSPropertyOp25
 70
     1
102
RTVSPropertyOp26
 70
     1
102
RTVSPropertyOp27
 70
     1
102
RTVSPropertyOp28
 70
     1
102
RTVSPropertyOp29
 70
     1
102
RTVSPropertyOp30
 70
     1
102
RTVSPropertyOp31
 70
     1
102
RTVSPropertyOp32
 70
     1
102
RTVSPropertyOp33
 70
     1
102
RTVSPropertyOp34
 70
     1
102
RTVSPropertyOp35
 70
     1
102
RTVSPropertyOp36
 70
     1
102
RTVSPropertyOp37
 70
     1
102
RTVSPropertyOp38
 70
     1
102
RTVSPropertyOp39
 70
     1
102
RTVSPropertyOp40
 70
     1
102
RTVSPropertyOp41
 70
     1
102
RTVSPropertyOp42
 70
     1
102
RTVSPropertyOp43
 70
     1
102
RTVSPropertyOp44
 70
     1
102
RTVSPropertyOp45
 70
     1
102
RTVSPropertyOp46
 70
     1
102
RTVSPropertyOp47
 70
     1
102
RTVSPropertyOp48
 70
     1
102
RTVSPropertyOp49
 70
     1
102
RTVSPropertyOp50
 70
     1
102
RTVSPropertyOp51
 70
     0
102
RTVSPropertyOp52
 70
     0
102
RTVSPropertyOp53
 70
     1
102
RTVSPropertyOp54
 70
     1
102
RTVSPropertyOp55
 70
     1
102
RTVSPropertyOp56
 70
     1
102
RTVSPropertyOp57
 70
     1
102
RTVSPost2010Prop28
280
     0
102
RTVSPost2010PropOp28
 70
     1
102
RTVSPost2010Prop29
280
     1
102
RTVSPost2010PropOp29
 70
     1
102
RTVSPost2010Prop30
280
     1
102
RTVSPost2010PropOp30
 70
     1
102
RTVSPost2010Prop31
280
     0
102
RTVSPost2010PropOp31
 70
     1
102
RTVSPost2010Prop32
280
     0
102
RTVSPost2010PropOp32
 70
     1
102
RTVSPost2010Prop33
280
     0
102
RTVSPost2010PropOp33
 70
     1
102
RTVSPost2010Prop34
280
     0
102
RTVSPost2010PropOp34
 70
     1
102
RTVSPost2010Prop35
280
     0
102
RTVSPost2010PropOp35
 70
     1
102
RTVSPost2010Prop36
280
     0
102
RTVSPost2010PropOp36
 70
     1
102
RTVSPost2010Prop37
 90
       50
102
RTVSPost2010PropOp37
 70
     1
102
RTVSPost2010Prop38
140
0.0
102
RTVSPost2010PropOp38
 70
     1
102
RTVSPost2010Prop39
140
1.0
102
RTVSPost2010PropOp39
 70
     1
102
RTVSPost2010Prop40
 90
        0
102
RTVSPost2010PropOp40
 70
     1
102
RTVSPost2010Prop41ColorIndex
 90
       18
102
RTVSPost2010Prop41ColorRGB
 90
        0
102
RTVSPost2010PropOp41
 70
     1
102
RTVSPost2010Prop42
 90
       50
102
RTVSPost2010PropOp42
 70
     1
102
RTVSPost2010Prop43
 90
        3
102
RTVSPost2010PropOp43
 70
     1
102
RTVSPost2010Prop44ColorIndex
 90
        5
102
RTVSPost2010Prop44ColorRGB
 90
      255
102
RTVSPost2010PropOp44
 70
     1
102
RTVSPost2010Prop45
280
     0
102
RTVSPost2010PropOp45
 70
     1
102
RTVSPost2010Prop46
 90
       50
102
RTVSPost2010PropOp46
 70
     1
102
RTVSPost2010Prop47
 90
       50
102
RTVSPost2010PropOp47
 70
     1
102
RTVSPost2010Prop48
 90
       50
102
RTVSPost2010PropOp48
 70
     1
102
RTVSPost2010Prop49
280
     0
102
RTVSPost2010PropOp49
 70
     1
102
RTVSPost2010Prop50
 90
       50
102
RTVSPost2010PropOp50
 70
     1
102
RTVSPost2010Prop51ColorIndex
 90
      256
102
RTVSPost2010Prop51ColorRGB
 90
-16777216
102
RTVSPost2010PropOp51
 70
     0
102
RTVSPost2010Prop52
140
1.0
102
RTVSPost2010PropOp52
 70
     0
102
RTVSPost2010Prop53
 90
        2
102
RTVSPost2010PropOp53
 70
     1
102
RTVSPost2010Prop54
  1
strokes_ogs.tif
102
RTVSPost2010PropOp54
 70
     1
102
RTVSPost2010Prop55
280
     0
102
RTVSPost2010PropOp55
 70
     1
102
RTVSPost2010Prop56
140
1.0
102
RTVSPost2010PropOp56
 70
     1
102
RTVSPost2010Prop57
140
1.0
102
RTVSPost2010PropOp57
 70
     1
  0
XRECORD
  5
A8
102
{ACAD_REACTORS
330
A7
102
}
330
A7
100
AcDbXrecord
280
     1
102
RTVSPropertyOp0
 70
     1
102
RTVSPropertyOp1
 70
     1
102
RTVSPropertyOp2
 70
     1
102
RTVSPropertyOp3
 70
     1
102
RTVSPropertyOp4
 70
     1
102
RTVSPropertyOp5
 70
     1
102
RTVSPropertyOp6
 70
     1
102
RTVSPropertyOp7
 70
     1
102
RTVSPropertyOp8
 70
     1
102
RTVSPropertyOp9
 70
     1
102
RTVSPropertyOp10
 70
     1
102
RTVSPropertyOp11
 70
     1
102
RTVSPropertyOp12
 70
     1
102
RTVSPropertyOp13
 70
     1
102
RTVSPropertyOp14
 70
     1
102
RTVSPropertyOp15
 70
     1
102
RTVSPropertyOp16
 70
     1
102
RTVSPropertyOp17
 70
     1
102
RTVSPropertyOp18
 70
     1
102
RTVSPropertyOp19
 70
     1
102
RTVSPropertyOp20
 70
     1
102
RTVSPropertyOp21
 70
     1
102
RTVSPropertyOp22
 70
     1
102
RTVSPropertyOp23
 70
     1
102
RTVSPropertyOp24
 70
     1
102
RTVSPropertyOp25
 70
     1
102
RTVSPropertyOp26
 70
     1
102
RTVSPropertyOp27
 70
     1
102
RTVSPropertyOp28
 70
     1
102
RTVSPropertyOp29
 70
     1
102
RTVSPropertyOp30
 70
     1
102
RTVSPropertyOp31
 70
     1
102
RTVSPropertyOp32
 70
     1
102
RTVSPropertyOp33
 70
     1
102
RTVSPropertyOp34
 70
     1
102
RTVSPropertyOp35
 70
     1
102
RTVSPropertyOp36
 70
     1
102
RTVSPropertyOp37
 70
     1
102
RTVSPropertyOp38
 70
     1
102
RTVSPropertyOp39
 70
     1
102
RTVSPropertyOp40
 70
     1
102
RTVSPropertyOp41
 70
     1
102
RTVSPropertyOp42
 70
     1
102
RTVSPropertyOp43
 70
     1
102
RTVSPropertyOp44
 70
     1
102
RTVSPropertyOp45
 70
     1
102
RTVSPropertyOp46
 70
     1
102
RTVSPropertyOp47
 70
     1
102
RTVSPropertyOp48
 70
     1
102
RTVSPropertyOp49
 70
     1
102
RTVSPropertyOp50
 70
     1
102
RTVSPropertyOp51
 70
     0
102
RTVSPropertyOp52
 70
     0
102
RTVSPropertyOp53
 70
     1
102
RTVSPropertyOp54
 70
     1
102
RTVSPropertyOp55
 70
     1
102
RTVSPropertyOp56
 70
     1
102
RTVSPropertyOp57
 70
     1
102
RTVSPost2010Prop28
280
     0
102
RTVSPost2010PropOp28
 70
     1
102
RTVSPost2010Prop29
280
     1
102
RTVSPost2010PropOp29
 70
     1
102
RTVSPost2010Prop30
280
     1
102
RTVSPost2010PropOp30
 70
     1
102
RTVSPost2010Prop31
280
     0
102
RTVSPost2010PropOp31
 70
     1
102
RTVSPost2010Prop32
280
     0
102
RTVSPost2010PropOp32
 70
     1
102
RTVSPost2010Prop33
280
     0
102
RTVSPost2010PropOp33
 70
     1
102
RTVSPost2010Prop34
280
     0
102
RTVSPost2010PropOp34
 70
     1
102
RTVSPost2010Prop35
280
     0
102
RTVSPost2010PropOp35
 70
     1
102
RTVSPost2010Prop36
280
     0
102
RTVSPost2010PropOp36
 70
     1
102
RTVSPost2010Prop37
 90
       50
102
RTVSPost2010PropOp37
 70
     1
102
RTVSPost2010Prop38
140
0.0
102
RTVSPost2010PropOp38
 70
     1
102
RTVSPost2010Prop39
140
1.0
102
RTVSPost2010PropOp39
 70
     1
102
RTVSPost2010Prop40
 90
        0
102
RTVSPost2010PropOp40
 70
     1
102
RTVSPost2010Prop41ColorIndex
 90
       18
102
RTVSPost2010Prop41ColorRGB
 90
        0
102
RTVSPost2010PropOp41
 70
     1
102
RTVSPost2010Prop42
 90
       50
102
RTVSPost2010PropOp42
 70
     1
102
RTVSPost2010Prop43
 90
        3
102
RTVSPost2010PropOp43
 70
     1
102
RTVSPost2010Prop44ColorIndex
 90
        5
102
RTVSPost2010Prop44ColorRGB
 90
      255
102
RTVSPost2010PropOp44
 70
     1
102
RTVSPost2010Prop45
280
     0
102
RTVSPost2010PropOp45
 70
     1
102
RTVSPost2010Prop46
 90
       50
102
RTVSPost2010PropOp46
 70
     1
102
RTVSPost2010Prop47
 90
       50
102
RTVSPost2010PropOp47
 70
     1
102
RTVSPost2010Prop48
 90
       50
102
RTVSPost2010PropOp48
 70
     1
102
RTVSPost2010Prop49
280
     0
102
RTVSPost2010PropOp49
 70
     1
102
RTVSPost2010Prop50
 90
       50
102
RTVSPost2010PropOp50
 70
     1
102
RTVSPost2010Prop51ColorIndex
 90
      256
102
RTVSPost2010Prop51ColorRGB
 90
-16777216
102
RTVSPost2010PropOp51
 70
     0
102
RTVSPost2010Prop52
140
1.0
102
RTVSPost2010PropOp52
 70
     0
102
RTVSPost2010Prop53
 90
        2
102
RTVSPost2010PropOp53
 70
     1
102
RTVSPost2010Prop54
  1
strokes_ogs.tif
102
RTVSPost2010PropOp54
 70
     1
102
RTVSPost2010Prop55
280
     0
102
RTVSPost2010PropOp55
 70
     1
102
RTVSPost2010Prop56
140
1.0
102
RTVSPost2010PropOp56
 70
     1
102
RTVSPost2010Prop57
140
1.0
102
RTVSPost2010PropOp57
 70
     1
  0
XRECORD
  5
AE
102
{ACAD_REACTORS
330
AD
102
}
330
AD
100
AcDbXrecord
280
     1
102
RTVSPropertyOp0
 70
     1
102
RTVSPropertyOp1
 70
     1
102
RTVSPropertyOp2
 70
     1
102
RTVSPropertyOp3
 70
     1
102
RTVSPropertyOp4
 70
     1
102
RTVSPropertyOp5
 70
     1
102
RTVSPropertyOp6
 70
     1
102
RTVSPropertyOp7
 70
     1
102
RTVSPropertyOp8
 70
     1
102
RTVSPropertyOp9
 70
     1
102
RTVSPropertyOp10
 70
     1
102
RTVSPropertyOp11
 70
     1
102
RTVSPropertyOp12
 70
     1
102
RTVSPropertyOp13
 70
     1
102
RTVSPropertyOp14
 70
     1
102
RTVSPropertyOp15
 70
     1
102
RTVSPropertyOp16
 70
     1
102
RTVSPropertyOp17
 70
     1
102
RTVSPropertyOp18
 70
     1
102
RTVSPropertyOp19
 70
     1
102
RTVSPropertyOp20
 70
     1
102
RTVSPropertyOp21
 70
     1
102
RTVSPropertyOp22
 70
     1
102
RTVSPropertyOp23
 70
     1
102
RTVSPropertyOp24
 70
     1
102
RTVSPropertyOp25
 70
     1
102
RTVSPropertyOp26
 70
     1
102
RTVSPropertyOp27
 70
     1
102
RTVSPropertyOp28
 70
     1
102
RTVSPropertyOp29
 70
     1
102
RTVSPropertyOp30
 70
     1
102
RTVSPropertyOp31
 70
     1
102
RTVSPropertyOp32
 70
     1
102
RTVSPropertyOp33
 70
     1
102
RTVSPropertyOp34
 70
     1
102
RTVSPropertyOp35
 70
     1
102
RTVSPropertyOp36
 70
     1
102
RTVSPropertyOp37
 70
     1
102
RTVSPropertyOp38
 70
     1
102
RTVSPropertyOp39
 70
     1
102
RTVSPropertyOp40
 70
     1
102
RTVSPropertyOp41
 70
     1
102
RTVSPropertyOp42
 70
     1
102
RTVSPropertyOp43
 70
     1
102
RTVSPropertyOp44
 70
     1
102
RTVSPropertyOp45
 70
     1
102
RTVSPropertyOp46
 70
     1
102
RTVSPropertyOp47
 70
     1
102
RTVSPropertyOp48
 70
     1
102
RTVSPropertyOp49
 70
     1
102
RTVSPropertyOp50
 70
     1
102
RTVSPropertyOp51
 70
     0
102
RTVSPropertyOp52
 70
     0
102
RTVSPropertyOp53
 70
     1
102
RTVSPropertyOp54
 70
     1
102
RTVSPropertyOp55
 70
     1
102
RTVSPropertyOp56
 70
     1
102
RTVSPropertyOp57
 70
     1
102
RTVSPost2010Prop28
280
     0
102
RTVSPost2010PropOp28
 70
     1
102
RTVSPost2010Prop29
280
     1
102
RTVSPost2010PropOp29
 70
     1
102
RTVSPost2010Prop30
280
     1
102
RTVSPost2010PropOp30
 70
     1
102
RTVSPost2010Prop31
280
     0
102
RTVSPost2010PropOp31
 70
     1
102
RTVSPost2010Prop32
280
     0
102
RTVSPost2010PropOp32
 70
     1
102
RTVSPost2010Prop33
280
     0
102
RTVSPost2010PropOp33
 70
     1
102
RTVSPost2010Prop34
280
     0
102
RTVSPost2010PropOp34
 70
     1
102
RTVSPost2010Prop35
280
     0
102
RTVSPost2010PropOp35
 70
     1
102
RTVSPost2010Prop36
280
     0
102
RTVSPost2010PropOp36
 70
     1
102
RTVSPost2010Prop37
 90
       50
102
RTVSPost2010PropOp37
 70
     1
102
RTVSPost2010Prop38
140
0.0
102
RTVSPost2010PropOp38
 70
     1
102
RTVSPost2010Prop39
140
1.0
102
RTVSPost2010PropOp39
 70
     1
102
RTVSPost2010Prop40
 90
        0
102
RTVSPost2010PropOp40
 70
     1
102
RTVSPost2010Prop41ColorIndex
 90
       18
102
RTVSPost2010Prop41ColorRGB
 90
        0
102
RTVSPost2010PropOp41
 70
     1
102
RTVSPost2010Prop42
 90
       50
102
RTVSPost2010PropOp42
 70
     1
102
RTVSPost2010Prop43
 90
        3
102
RTVSPost2010PropOp43
 70
     1
102
RTVSPost2010Prop44ColorIndex
 90
        5
102
RTVSPost2010Prop44ColorRGB
 90
      255
102
RTVSPost2010PropOp44
 70
     1
102
RTVSPost2010Prop45
280
     0
102
RTVSPost2010PropOp45
 70
     1
102
RTVSPost2010Prop46
 90
       50
102
RTVSPost2010PropOp46
 70
     1
102
RTVSPost2010Prop47
 90
       50
102
RTVSPost2010PropOp47
 70
     1
102
RTVSPost2010Prop48
 90
       50
102
RTVSPost2010PropOp48
 70
     1
102
RTVSPost2010Prop49
280
     0
102
RTVSPost2010PropOp49
 70
     1
102
RTVSPost2010Prop50
 90
       50
102
RTVSPost2010PropOp50
 70
     1
102
RTVSPost2010Prop51ColorIndex
 90
      256
102
RTVSPost2010Prop51ColorRGB
 90
-16777216
102
RTVSPost2010PropOp51
 70
     0
102
RTVSPost2010Prop52
140
1.0
102
RTVSPost2010PropOp52
 70
     0
102
RTVSPost2010Prop53
 90
        2
102
RTVSPost2010PropOp53
 70
     1
102
RTVSPost2010Prop54
  1
strokes_ogs.tif
102
RTVSPost2010PropOp54
 70
     1
102
RTVSPost2010Prop55
280
     0
102
RTVSPost2010PropOp55
 70
     1
102
RTVSPost2010Prop56
140
1.0
102
RTVSPost2010PropOp56
 70
     1
102
RTVSPost2010Prop57
140
1.0
102
RTVSPost2010PropOp57
 70
     1
  0
XRECORD
  5
C2
102
{ACAD_REACTORS
330
C1
102
}
330
C1
100
AcDbXrecord
280
     1
102
RTVSPropertyOp0
 70
     0
102
RTVSPropertyOp1
 70
     0
102
RTVSPropertyOp2
 70
     0
102
RTVSPropertyOp3
 70
     0
102
RTVSPropertyOp4
 70
     0
102
RTVSPropertyOp5
 70
     0
102
RTVSPropertyOp6
 70
     0
102
RTVSPropertyOp7
 70
     0
102
RTVSPropertyOp8
 70
     0
102
RTVSPropertyOp9
 70
     0
102
RTVSPropertyOp10
 70
     0
102
RTVSPropertyOp11
 70
     0
102
RTVSPropertyOp12
 70
     0
102
RTVSPropertyOp13
 70
     0
102
RTVSPropertyOp14
 70
     2
102
RTVSPropertyOp15
 70
     0
102
RTVSPropertyOp16
 70
     0
102
RTVSPropertyOp17
 70
     0
102
RTVSPropertyOp18
 70
     0
102
RTVSPropertyOp19
 70
     0
102
RTVSPropertyOp20
 70
     0
102
RTVSPropertyOp21
 70
     0
102
RTVSPropertyOp22
 70
     0
102
RTVSPropertyOp23
 70
     0
102
RTVSPropertyOp24
 70
     0
102
RTVSPropertyOp25
 70
     0
102
RTVSPropertyOp26
 70
     0
102
RTVSPropertyOp27
 70
     0
102
RTVSPropertyOp28
 70
     0
102
RTVSPropertyOp29
 70
     0
102
RTVSPropertyOp30
 70
     0
102
RTVSPropertyOp31
 70
     0
102
RTVSPropertyOp32
 70
     0
102
RTVSPropertyOp33
 70
     0
102
RTVSPropertyOp34
 70
     0
102
RTVSPropertyOp35
 70
     0
102
RTVSPropertyOp36
 70
     0
102
RTVSPropertyOp37
 70
     0
102
RTVSPropertyOp38
 70
     0
102
RTVSPropertyOp39
 70
     0
102
RTVSPropertyOp40
 70
     0
102
RTVSPropertyOp41
 70
     0
102
RTVSPropertyOp42
 70
     0
102
RTVSPropertyOp43
 70
     0
102
RTVSPropertyOp44
 70
     0
102
RTVSPropertyOp45
 70
     0
102
RTVSPropertyOp46
 70
     0
102
RTVSPropertyOp47
 70
     0
102
RTVSPropertyOp48
 70
     0
102
RTVSPropertyOp49
 70
     0
102
RTVSPropertyOp50
 70
     0
102
RTVSPropertyOp51
 70
     0
102
RTVSPropertyOp52
 70
     0
102
RTVSPropertyOp53
 70
     0
102
RTVSPropertyOp54
 70
     0
102
RTVSPropertyOp55
 70
     0
102
RTVSPropertyOp56
 70
     0
102
RTVSPropertyOp57
 70
     0
102
RTVSPost2010Prop28
280
     0
102
RTVSPost2010PropOp28
 70
     0
102
RTVSPost2010Prop29
280
     1
102
RTVSPost2010PropOp29
 70
     0
102
RTVSPost2010Prop30
280
     1
102
RTVSPost2010PropOp30
 70
     0
102
RTVSPost2010Prop31
280
     0
102
RTVSPost2010PropOp31
 70
     0
102
RTVSPost2010Prop32
280
     0
102
RTVSPost2010PropOp32
 70
     0
102
RTVSPost2010Prop33
280
     0
102
RTVSPost2010PropOp33
 70
     0
102
RTVSPost2010Prop34
280
     0
102
RTVSPost2010PropOp34
 70
     0
102
RTVSPost2010Prop35
280
     0
102
RTVSPost2010PropOp35
 70
     0
102
RTVSPost2010Prop36
280
     0
102
RTVSPost2010PropOp36
 70
     0
102
RTVSPost2010Prop37
 90
       50
102
RTVSPost2010PropOp37
 70
     0
102
RTVSPost2010Prop38
140
0.0
102
RTVSPost2010PropOp38
 70
     0
102
RTVSPost2010Prop39
140
1.0
102
RTVSPost2010PropOp39
 70
     0
102
RTVSPost2010Prop40
 90
        0
102
RTVSPost2010PropOp40
 70
     0
102
RTVSPost2010Prop41ColorIndex
 90
       18
102
RTVSPost2010Prop41ColorRGB
 90
        0
102
RTVSPost2010PropOp41
 70
     0
102
RTVSPost2010Prop42
 90
       50
102
RTVSPost2010PropOp42
 70
     0
102
RTVSPost2010Prop43
 90
        3
102
RTVSPost2010PropOp43
 70
     0
102
RTVSPost2010Prop44ColorIndex
 90
        5
102
RTVSPost2010Prop44ColorRGB
 90
      255
102
RTVSPost2010PropOp44
 70
     0
102
RTVSPost2010Prop45
280
     0
102
RTVSPost2010PropOp45
 70
     0
102
RTVSPost2010Prop46
 90
       50
102
RTVSPost2010PropOp46
 70
     0
102
RTVSPost2010Prop47
 90
       50
102
RTVSPost2010PropOp47
 70
     0
102
RTVSPost2010Prop48
 90
       50
102
RTVSPost2010PropOp48
 70
     0
102
RTVSPost2010Prop49
280
     0
102
RTVSPost2010PropOp49
 70
     0
102
RTVSPost2010Prop50
 90
       50
102
RTVSPost2010PropOp50
 70
     0
102
RTVSPost2010Prop51ColorIndex
 90
      256
102
RTVSPost2010Prop51ColorRGB
 90
-16777216
102
RTVSPost2010PropOp51
 70
     0
102
RTVSPost2010Prop52
140
1.0
102
RTVSPost2010PropOp52
 70
     0
102
RTVSPost2010Prop53
 90
        2
102
RTVSPost2010PropOp53
 70
     0
102
RTVSPost2010Prop54
  1
strokes_ogs.tif
102
RTVSPost2010PropOp54
 70
     0
102
RTVSPost2010Prop55
280
     0
102
RTVSPost2010PropOp55
 70
     0
102
RTVSPost2010Prop56
140
1.0
102
RTVSPost2010PropOp56
 70
     0
102
RTVSPost2010Prop57
140
1.0
102
RTVSPost2010PropOp57
 70
     0
  0
XRECORD
  5
BC
102
{ACAD_REACTORS
330
BB
102
}
330
BB
100
AcDbXrecord
280
     1
102
RTVSPropertyOp0
 70
     1
102
RTVSPropertyOp1
 70
     1
102
RTVSPropertyOp2
 70
     1
102
RTVSPropertyOp3
 70
     1
102
RTVSPropertyOp4
 70
     1
102
RTVSPropertyOp5
 70
     1
102
RTVSPropertyOp6
 70
     1
102
RTVSPropertyOp7
 70
     1
102
RTVSPropertyOp8
 70
     1
102
RTVSPropertyOp9
 70
     1
102
RTVSPropertyOp10
 70
     1
102
RTVSPropertyOp11
 70
     1
102
RTVSPropertyOp12
 70
     1
102
RTVSPropertyOp13
 70
     1
102
RTVSPropertyOp14
 70
     1
102
RTVSPropertyOp15
 70
     1
102
RTVSPropertyOp16
 70
     1
102
RTVSPropertyOp17
 70
     1
102
RTVSPropertyOp18
 70
     1
102
RTVSPropertyOp19
 70
     1
102
RTVSPropertyOp20
 70
     1
102
RTVSPropertyOp21
 70
     1
102
RTVSPropertyOp22
 70
     1
102
RTVSPropertyOp23
 70
     1
102
RTVSPropertyOp24
 70
     1
102
RTVSPropertyOp25
 70
     1
102
RTVSPropertyOp26
 70
     1
102
RTVSPropertyOp27
 70
     1
102
RTVSPropertyOp28
 70
     1
102
RTVSPropertyOp29
 70
     1
102
RTVSPropertyOp30
 70
     1
102
RTVSPropertyOp31
 70
     1
102
RTVSPropertyOp32
 70
     1
102
RTVSPropertyOp33
 70
     1
102
RTVSPropertyOp34
 70
     1
102
RTVSPropertyOp35
 70
     1
102
RTVSPropertyOp36
 70
     1
102
RTVSPropertyOp37
 70
     1
102
RTVSPropertyOp38
 70
     1
102
RTVSPropertyOp39
 70
     1
102
RTVSPropertyOp40
 70
     1
102
RTVSPropertyOp41
 70
     1
102
RTVSPropertyOp42
 70
     1
102
RTVSPropertyOp43
 70
     1
102
RTVSPropertyOp44
 70
     1
102
RTVSPropertyOp45
 70
     1
102
RTVSPropertyOp46
 70
     1
102
RTVSPropertyOp47
 70
     1
102
RTVSPropertyOp48
 70
     1
102
RTVSPropertyOp49
 70
     1
102
RTVSPropertyOp50
 70
     1
102
RTVSPropertyOp51
 70
     0
102
RTVSPropertyOp52
 70
     0
102
RTVSPropertyOp53
 70
     1
102
RTVSPropertyOp54
 70
     1
102
RTVSPropertyOp55
 70
     1
102
RTVSPropertyOp56
 70
     1
102
RTVSPropertyOp57
 70
     1
102
RTVSPost2010Prop28
280
     0
102
RTVSPost2010PropOp28
 70
     1
102
RTVSPost2010Prop29
280
     1
102
RTVSPost2010PropOp29
 70
     1
102
RTVSPost2010Prop30
280
     1
102
RTVSPost2010PropOp30
 70
     1
102
RTVSPost2010Prop31
280
     0
102
RTVSPost2010PropOp31
 70
     1
102
RTVSPost2010Prop32
280
     0
102
RTVSPost2010PropOp32
 70
     1
102
RTVSPost2010Prop33
280
     0
102
RTVSPost2010PropOp33
 70
     1
102
RTVSPost2010Prop34
280
     0
102
RTVSPost2010PropOp34
 70
     1
102
RTVSPost2010Prop35
280
     0
102
RTVSPost2010PropOp35
 70
     1
102
RTVSPost2010Prop36
280
     0
102
RTVSPost2010PropOp36
 70
     1
102
RTVSPost2010Prop37
 90
       50
102
RTVSPost2010PropOp37
 70
     1
102
RTVSPost2010Prop38
140
0.0
102
RTVSPost2010PropOp38
 70
     1
102
RTVSPost2010Prop39
140
1.0
102
RTVSPost2010PropOp39
 70
     1
102
RTVSPost2010Prop40
 90
        0
102
RTVSPost2010PropOp40
 70
     1
102
RTVSPost2010Prop41ColorIndex
 90
       18
102
RTVSPost2010Prop41ColorRGB
 90
        0
102
RTVSPost2010PropOp41
 70
     1
102
RTVSPost2010Prop42
 90
       50
102
RTVSPost2010PropOp42
 70
     1
102
RTVSPost2010Prop43
 90
        3
102
RTVSPost2010PropOp43
 70
     1
102
RTVSPost2010Prop44ColorIndex
 90
        5
102
RTVSPost2010Prop44ColorRGB
 90
      255
102
RTVSPost2010PropOp44
 70
     1
102
RTVSPost2010Prop45
280
     0
102
RTVSPost2010PropOp45
 70
     1
102
RTVSPost2010Prop46
 90
       50
102
RTVSPost2010PropOp46
 70
     1
102
RTVSPost2010Prop47
 90
       50
102
RTVSPost2010PropOp47
 70
     1
102
RTVSPost2010Prop48
 90
       50
102
RTVSPost2010PropOp48
 70
     1
102
RTVSPost2010Prop49
280
     0
102
RTVSPost2010PropOp49
 70
     1
102
RTVSPost2010Prop50
 90
       50
102
RTVSPost2010PropOp50
 70
     1
102
RTVSPost2010Prop51ColorIndex
 90
      256
102
RTVSPost2010Prop51ColorRGB
 90
-16777216
102
RTVSPost2010PropOp51
 70
     0
102
RTVSPost2010Prop52
140
1.0
102
RTVSPost2010PropOp52
 70
     0
102
RTVSPost2010Prop53
 90
        2
102
RTVSPost2010PropOp53
 70
     1
102
RTVSPost2010Prop54
  1
strokes_ogs.tif
102
RTVSPost2010PropOp54
 70
     1
102
RTVSPost2010Prop55
280
     0
102
RTVSPost2010PropOp55
 70
     1
102
RTVSPost2010Prop56
140
1.0
102
RTVSPost2010PropOp56
 70
     1
102
RTVSPost2010Prop57
140
1.0
102
RTVSPost2010PropOp57
 70
     1
  0
XRECORD
  5
C4
102
{ACAD_REACTORS
330
C3
102
}
330
C3
100
AcDbXrecord
280
     1
102
RTVSPropertyOp0
 70
     0
102
RTVSPropertyOp1
 70
     0
102
RTVSPropertyOp2
 70
     0
102
RTVSPropertyOp3
 70
     0
102
RTVSPropertyOp4
 70
     0
102
RTVSPropertyOp5
 70
     0
102
RTVSPropertyOp6
 70
     0
102
RTVSPropertyOp7
 70
     0
102
RTVSPropertyOp8
 70
     0
102
RTVSPropertyOp9
 70
     0
102
RTVSPropertyOp10
 70
     0
102
RTVSPropertyOp11
 70
     0
102
RTVSPropertyOp12
 70
     0
102
RTVSPropertyOp13
 70
     0
102
RTVSPropertyOp14
 70
     2
102
RTVSPropertyOp15
 70
     0
102
RTVSPropertyOp16
 70
     0
102
RTVSPropertyOp17
 70
     0
102
RTVSPropertyOp18
 70
     0
102
RTVSPropertyOp19
 70
     0
102
RTVSPropertyOp20
 70
     0
102
RTVSPropertyOp21
 70
     0
102
RTVSPropertyOp22
 70
     0
102
RTVSPropertyOp23
 70
     0
102
RTVSPropertyOp24
 70
     0
102
RTVSPropertyOp25
 70
     0
102
RTVSPropertyOp26
 70
     0
102
RTVSPropertyOp27
 70
     0
102
RTVSPropertyOp28
 70
     0
102
RTVSPropertyOp29
 70
     0
102
RTVSPropertyOp30
 70
     0
102
RTVSPropertyOp31
 70
     0
102
RTVSPropertyOp32
 70
     0
102
RTVSPropertyOp33
 70
     0
102
RTVSPropertyOp34
 70
     0
102
RTVSPropertyOp35
 70
     0
102
RTVSPropertyOp36
 70
     0
102
RTVSPropertyOp37
 70
     0
102
RTVSPropertyOp38
 70
     0
102
RTVSPropertyOp39
 70
     0
102
RTVSPropertyOp40
 70
     0
102
RTVSPropertyOp41
 70
     0
102
RTVSPropertyOp42
 70
     0
102
RTVSPropertyOp43
 70
     0
102
RTVSPropertyOp44
 70
     0
102
RTVSPropertyOp45
 70
     0
102
RTVSPropertyOp46
 70
     0
102
RTVSPropertyOp47
 70
     0
102
RTVSPropertyOp48
 70
     0
102
RTVSPropertyOp49
 70
     0
102
RTVSPropertyOp50
 70
     0
102
RTVSPropertyOp51
 70
     0
102
RTVSPropertyOp52
 70
     0
102
RTVSPropertyOp53
 70
     0
102
RTVSPropertyOp54
 70
     0
102
RTVSPropertyOp55
 70
     0
102
RTVSPropertyOp56
 70
     0
102
RTVSPropertyOp57
 70
     0
102
RTVSPost2010Prop28
280
     0
102
RTVSPost2010PropOp28
 70
     0
102
RTVSPost2010Prop29
280
     1
102
RTVSPost2010PropOp29
 70
     0
102
RTVSPost2010Prop30
280
     1
102
RTVSPost2010PropOp30
 70
     0
102
RTVSPost2010Prop31
280
     0
102
RTVSPost2010PropOp31
 70
     0
102
RTVSPost2010Prop32
280
     0
102
RTVSPost2010PropOp32
 70
     0
102
RTVSPost2010Prop33
280
     0
102
RTVSPost2010PropOp33
 70
     0
102
RTVSPost2010Prop34
280
     0
102
RTVSPost2010PropOp34
 70
     0
102
RTVSPost2010Prop35
280
     0
102
RTVSPost2010PropOp35
 70
     0
102
RTVSPost2010Prop36
280
     0
102
RTVSPost2010PropOp36
 70
     0
102
RTVSPost2010Prop37
 90
       50
102
RTVSPost2010PropOp37
 70
     0
102
RTVSPost2010Prop38
140
0.0
102
RTVSPost2010PropOp38
 70
     0
102
RTVSPost2010Prop39
140
1.0
102
RTVSPost2010PropOp39
 70
     0
102
RTVSPost2010Prop40
 90
        0
102
RTVSPost2010PropOp40
 70
     0
102
RTVSPost2010Prop41ColorIndex
 90
       18
102
RTVSPost2010Prop41ColorRGB
 90
        0
102
RTVSPost2010PropOp41
 70
     0
102
RTVSPost2010Prop42
 90
       50
102
RTVSPost2010PropOp42
 70
     0
102
RTVSPost2010Prop43
 90
        3
102
RTVSPost2010PropOp43
 70
     0
102
RTVSPost2010Prop44ColorIndex
 90
        5
102
RTVSPost2010Prop44ColorRGB
 90
      255
102
RTVSPost2010PropOp44
 70
     0
102
RTVSPost2010Prop45
280
     0
102
RTVSPost2010PropOp45
 70
     0
102
RTVSPost2010Prop46
 90
       50
102
RTVSPost2010PropOp46
 70
     0
102
RTVSPost2010Prop47
 90
       50
102
RTVSPost2010PropOp47
 70
     0
102
RTVSPost2010Prop48
 90
       50
102
RTVSPost2010PropOp48
 70
     0
102
RTVSPost2010Prop49
280
     0
102
RTVSPost2010PropOp49
 70
     0
102
RTVSPost2010Prop50
 90
       50
102
RTVSPost2010PropOp50
 70
     0
102
RTVSPost2010Prop51ColorIndex
 90
      256
102
RTVSPost2010Prop51ColorRGB
 90
-16777216
102
RTVSPost2010PropOp51
 70
     0
102
RTVSPost2010Prop52
140
1.0
102
RTVSPost2010PropOp52
 70
     0
102
RTVSPost2010Prop53
 90
        2
102
RTVSPost2010PropOp53
 70
     0
102
RTVSPost2010Prop54
  1
strokes_ogs.tif
102
RTVSPost2010PropOp54
 70
     0
102
RTVSPost2010Prop55
280
     0
102
RTVSPost2010PropOp55
 70
     0
102
RTVSPost2010Prop56
140
1.0
102
RTVSPost2010PropOp56
 70
     0
102
RTVSPost2010Prop57
140
1.0
102
RTVSPost2010PropOp57
 70
     0
  0
XRECORD
  5
B2
102
{ACAD_REACTORS
330
B1
102
}
330
B1
100
AcDbXrecord
280
     1
102
RTVSPropertyOp0
 70
     1
102
RTVSPropertyOp1
 70
     1
102
RTVSPropertyOp2
 70
     1
102
RTVSPropertyOp3
 70
     1
102
RTVSPropertyOp4
 70
     1
102
RTVSPropertyOp5
 70
     1
102
RTVSPropertyOp6
 70
     1
102
RTVSPropertyOp7
 70
     1
102
RTVSPropertyOp8
 70
     1
102
RTVSPropertyOp9
 70
     1
102
RTVSPropertyOp10
 70
     1
102
RTVSPropertyOp11
 70
     1
102
RTVSPropertyOp12
 70
     1
102
RTVSPropertyOp13
 70
     1
102
RTVSPropertyOp14
 70
     1
102
RTVSPropertyOp15
 70
     1
102
RTVSPropertyOp16
 70
     1
102
RTVSPropertyOp17
 70
     1
102
RTVSPropertyOp18
 70
     1
102
RTVSPropertyOp19
 70
     1
102
RTVSPropertyOp20
 70
     1
102
RTVSPropertyOp21
 70
     1
102
RTVSPropertyOp22
 70
     1
102
RTVSPropertyOp23
 70
     1
102
RTVSPropertyOp24
 70
     1
102
RTVSPropertyOp25
 70
     1
102
RTVSPropertyOp26
 70
     1
102
RTVSPropertyOp27
 70
     1
102
RTVSPropertyOp28
 70
     1
102
RTVSPropertyOp29
 70
     1
102
RTVSPropertyOp30
 70
     1
102
RTVSPropertyOp31
 70
     1
102
RTVSPropertyOp32
 70
     1
102
RTVSPropertyOp33
 70
     1
102
RTVSPropertyOp34
 70
     1
102
RTVSPropertyOp35
 70
     1
102
RTVSPropertyOp36
 70
     1
102
RTVSPropertyOp37
 70
     1
102
RTVSPropertyOp38
 70
     1
102
RTVSPropertyOp39
 70
     1
102
RTVSPropertyOp40
 70
     1
102
RTVSPropertyOp41
 70
     1
102
RTVSPropertyOp42
 70
     1
102
RTVSPropertyOp43
 70
     1
102
RTVSPropertyOp44
 70
     1
102
RTVSPropertyOp45
 70
     1
102
RTVSPropertyOp46
 70
     1
102
RTVSPropertyOp47
 70
     1
102
RTVSPropertyOp48
 70
     1
102
RTVSPropertyOp49
 70
     1
102
RTVSPropertyOp50
 70
     1
102
RTVSPropertyOp51
 70
     0
102
RTVSPropertyOp52
 70
     0
102
RTVSPropertyOp53
 70
     1
102
RTVSPropertyOp54
 70
     1
102
RTVSPropertyOp55
 70
     1
102
RTVSPropertyOp56
 70
     1
102
RTVSPropertyOp57
 70
     1
102
RTVSPost2010Prop28
280
     0
102
RTVSPost2010PropOp28
 70
     1
102
RTVSPost2010Prop29
280
     1
102
RTVSPost2010PropOp29
 70
     1
102
RTVSPost2010Prop30
280
     1
102
RTVSPost2010PropOp30
 70
     1
102
RTVSPost2010Prop31
280
     0
102
RTVSPost2010PropOp31
 70
     1
102
RTVSPost2010Prop32
280
     0
102
RTVSPost2010PropOp32
 70
     1
102
RTVSPost2010Prop33
280
     0
102
RTVSPost2010PropOp33
 70
     1
102
RTVSPost2010Prop34
280
     0
102
RTVSPost2010PropOp34
 70
     1
102
RTVSPost2010Prop35
280
     0
102
RTVSPost2010PropOp35
 70
     1
102
RTVSPost2010Prop36
280
     0
102
RTVSPost2010PropOp36
 70
     1
102
RTVSPost2010Prop37
 90
       50
102
RTVSPost2010PropOp37
 70
     1
102
RTVSPost2010Prop38
140
0.0
102
RTVSPost2010PropOp38
 70
     1
102
RTVSPost2010Prop39
140
1.0
102
RTVSPost2010PropOp39
 70
     1
102
RTVSPost2010Prop40
 90
        0
102
RTVSPost2010PropOp40
 70
     1
102
RTVSPost2010Prop41ColorIndex
 90
       18
102
RTVSPost2010Prop41ColorRGB
 90
        0
102
RTVSPost2010PropOp41
 70
     1
102
RTVSPost2010Prop42
 90
       50
102
RTVSPost2010PropOp42
 70
     1
102
RTVSPost2010Prop43
 90
        3
102
RTVSPost2010PropOp43
 70
     1
102
RTVSPost2010Prop44ColorIndex
 90
        5
102
RTVSPost2010Prop44ColorRGB
 90
      255
102
RTVSPost2010PropOp44
 70
     1
102
RTVSPost2010Prop45
280
     0
102
RTVSPost2010PropOp45
 70
     1
102
RTVSPost2010Prop46
 90
       50
102
RTVSPost2010PropOp46
 70
     1
102
RTVSPost2010Prop47
 90
       50
102
RTVSPost2010PropOp47
 70
     1
102
RTVSPost2010Prop48
 90
       50
102
RTVSPost2010PropOp48
 70
     1
102
RTVSPost2010Prop49
280
     0
102
RTVSPost2010PropOp49
 70
     1
102
RTVSPost2010Prop50
 90
       50
102
RTVSPost2010PropOp50
 70
     1
102
RTVSPost2010Prop51ColorIndex
 90
      256
102
RTVSPost2010Prop51ColorRGB
 90
-16777216
102
RTVSPost2010PropOp51
 70
     0
102
RTVSPost2010Prop52
140
1.0
102
RTVSPost2010PropOp52
 70
     0
102
RTVSPost2010Prop53
 90
        2
102
RTVSPost2010PropOp53
 70
     1
102
RTVSPost2010Prop54
  1
strokes_ogs.tif
102
RTVSPost2010PropOp54
 70
     1
102
RTVSPost2010Prop55
280
     0
102
RTVSPost2010PropOp55
 70
     1
102
RTVSPost2010Prop56
140
1.0
102
RTVSPost2010PropOp56
 70
     1
102
RTVSPost2010Prop57
140
1.0
102
RTVSPost2010PropOp57
 70
     1
  0
XRECORD
  5
D0
102
{ACAD_REACTORS
330
CF
102
}
330
CF
100
AcDbXrecord
280
     1
102
RTVSPropertyOp0
 70
     1
102
RTVSPropertyOp1
 70
     1
102
RTVSPropertyOp2
 70
     1
102
RTVSPropertyOp3
 70
     1
102
RTVSPropertyOp4
 70
     1
102
RTVSPropertyOp5
 70
     1
102
RTVSPropertyOp6
 70
     1
102
RTVSPropertyOp7
 70
     1
102
RTVSPropertyOp8
 70
     1
102
RTVSPropertyOp9
 70
     1
102
RTVSPropertyOp10
 70
     1
102
RTVSPropertyOp11
 70
     1
102
RTVSPropertyOp12
 70
     1
102
RTVSPropertyOp13
 70
     1
102
RTVSPropertyOp14
 70
     1
102
RTVSPropertyOp15
 70
     1
102
RTVSPropertyOp16
 70
     1
102
RTVSPropertyOp17
 70
     1
102
RTVSPropertyOp18
 70
     1
102
RTVSPropertyOp19
 70
     1
102
RTVSPropertyOp20
 70
     1
102
RTVSPropertyOp21
 70
     1
102
RTVSPropertyOp22
 70
     1
102
RTVSPropertyOp23
 70
     1
102
RTVSPropertyOp24
 70
     1
102
RTVSPropertyOp25
 70
     1
102
RTVSPropertyOp26
 70
     1
102
RTVSPropertyOp27
 70
     1
102
RTVSPropertyOp28
 70
     1
102
RTVSPropertyOp29
 70
     1
102
RTVSPropertyOp30
 70
     1
102
RTVSPropertyOp31
 70
     1
102
RTVSPropertyOp32
 70
     1
102
RTVSPropertyOp33
 70
     1
102
RTVSPropertyOp34
 70
     1
102
RTVSPropertyOp35
 70
     1
102
RTVSPropertyOp36
 70
     1
102
RTVSPropertyOp37
 70
     1
102
RTVSPropertyOp38
 70
     1
102
RTVSPropertyOp39
 70
     1
102
RTVSPropertyOp40
 70
     1
102
RTVSPropertyOp41
 70
     1
102
RTVSPropertyOp42
 70
     1
102
RTVSPropertyOp43
 70
     1
102
RTVSPropertyOp44
 70
     1
102
RTVSPropertyOp45
 70
     1
102
RTVSPropertyOp46
 70
     1
102
RTVSPropertyOp47
 70
     1
102
RTVSPropertyOp48
 70
     1
102
RTVSPropertyOp49
 70
     1
102
RTVSPropertyOp50
 70
     1
102
RTVSPropertyOp51
 70
     0
102
RTVSPropertyOp52
 70
     0
102
RTVSPropertyOp53
 70
     1
102
RTVSPropertyOp54
 70
     1
102
RTVSPropertyOp55
 70
     1
102
RTVSPropertyOp56
 70
     1
102
RTVSPropertyOp57
 70
     1
102
RTVSPost2010Prop28
280
     0
102
RTVSPost2010PropOp28
 70
     1
102
RTVSPost2010Prop29
280
     1
102
RTVSPost2010PropOp29
 70
     1
102
RTVSPost2010Prop30
280
     1
102
RTVSPost2010PropOp30
 70
     1
102
RTVSPost2010Prop31
280
     0
102
RTVSPost2010PropOp31
 70
     1
102
RTVSPost2010Prop32
280
     0
102
RTVSPost2010PropOp32
 70
     1
102
RTVSPost2010Prop33
280
     0
102
RTVSPost2010PropOp33
 70
     1
102
RTVSPost2010Prop34
280
     0
102
RTVSPost2010PropOp34
 70
     1
102
RTVSPost2010Prop35
280
     0
102
RTVSPost2010PropOp35
 70
     1
102
RTVSPost2010Prop36
280
     0
102
RTVSPost2010PropOp36
 70
     1
102
RTVSPost2010Prop37
 90
       50
102
RTVSPost2010PropOp37
 70
     1
102
RTVSPost2010Prop38
140
0.0
102
RTVSPost2010PropOp38
 70
     1
102
RTVSPost2010Prop39
140
1.0
102
RTVSPost2010PropOp39
 70
     1
102
RTVSPost2010Prop40
 90
        0
102
RTVSPost2010PropOp40
 70
     1
102
RTVSPost2010Prop41ColorIndex
 90
       18
102
RTVSPost2010Prop41ColorRGB
 90
        0
102
RTVSPost2010PropOp41
 70
     1
102
RTVSPost2010Prop42
 90
       50
102
RTVSPost2010PropOp42
 70
     1
102
RTVSPost2010Prop43
 90
        3
102
RTVSPost2010PropOp43
 70
     1
102
RTVSPost2010Prop44ColorIndex
 90
        5
102
RTVSPost2010Prop44ColorRGB
 90
      255
102
RTVSPost2010PropOp44
 70
     1
102
RTVSPost2010Prop45
280
     0
102
RTVSPost2010PropOp45
 70
     1
102
RTVSPost2010Prop46
 90
       50
102
RTVSPost2010PropOp46
 70
     1
102
RTVSPost2010Prop47
 90
       50
102
RTVSPost2010PropOp47
 70
     1
102
RTVSPost2010Prop48
 90
       50
102
RTVSPost2010PropOp48
 70
     1
102
RTVSPost2010Prop49
280
     0
102
RTVSPost2010PropOp49
 70
     1
102
RTVSPost2010Prop50
 90
       50
102
RTVSPost2010PropOp50
 70
     1
102
RTVSPost2010Prop51ColorIndex
 90
      256
102
RTVSPost2010Prop51ColorRGB
 90
-16777216
102
RTVSPost2010PropOp51
 70
     0
102
RTVSPost2010Prop52
140
1.0
102
RTVSPost2010PropOp52
 70
     0
102
RTVSPost2010Prop53
 90
        2
102
RTVSPost2010PropOp53
 70
     1
102
RTVSPost2010Prop54
  1
strokes_ogs.tif
102
RTVSPost2010PropOp54
 70
     1
102
RTVSPost2010Prop55
280
     0
102
RTVSPost2010PropOp55
 70
     1
102
RTVSPost2010Prop56
140
1.0
102
RTVSPost2010PropOp56
 70
     1
102
RTVSPost2010Prop57
140
1.0
102
RTVSPost2010PropOp57
 70
     1
  0
XRECORD
  5
CE
102
{ACAD_REACTORS
330
CD
102
}
330
CD
100
AcDbXrecord
280
     1
102
RTVSPropertyOp0
 70
     1
102
RTVSPropertyOp1
 70
     1
102
RTVSPropertyOp2
 70
     1
102
RTVSPropertyOp3
 70
     1
102
RTVSPropertyOp4
 70
     1
102
RTVSPropertyOp5
 70
     1
102
RTVSPropertyOp6
 70
     1
102
RTVSPropertyOp7
 70
     1
102
RTVSPropertyOp8
 70
     1
102
RTVSPropertyOp9
 70
     1
102
RTVSPropertyOp10
 70
     1
102
RTVSPropertyOp11
 70
     1
102
RTVSPropertyOp12
 70
     1
102
RTVSPropertyOp13
 70
     1
102
RTVSPropertyOp14
 70
     1
102
RTVSPropertyOp15
 70
     1
102
RTVSPropertyOp16
 70
     1
102
RTVSPropertyOp17
 70
     1
102
RTVSPropertyOp18
 70
     1
102
RTVSPropertyOp19
 70
     1
102
RTVSPropertyOp20
 70
     1
102
RTVSPropertyOp21
 70
     1
102
RTVSPropertyOp22
 70
     1
102
RTVSPropertyOp23
 70
     1
102
RTVSPropertyOp24
 70
     1
102
RTVSPropertyOp25
 70
     1
102
RTVSPropertyOp26
 70
     1
102
RTVSPropertyOp27
 70
     1
102
RTVSPropertyOp28
 70
     1
102
RTVSPropertyOp29
 70
     1
102
RTVSPropertyOp30
 70
     1
102
RTVSPropertyOp31
 70
     1
102
RTVSPropertyOp32
 70
     1
102
RTVSPropertyOp33
 70
     1
102
RTVSPropertyOp34
 70
     1
102
RTVSPropertyOp35
 70
     1
102
RTVSPropertyOp36
 70
     1
102
RTVSPropertyOp37
 70
     1
102
RTVSPropertyOp38
 70
     1
102
RTVSPropertyOp39
 70
     1
102
RTVSPropertyOp40
 70
     1
102
RTVSPropertyOp41
 70
     1
102
RTVSPropertyOp42
 70
     1
102
RTVSPropertyOp43
 70
     1
102
RTVSPropertyOp44
 70
     1
102
RTVSPropertyOp45
 70
     1
102
RTVSPropertyOp46
 70
     1
102
RTVSPropertyOp47
 70
     1
102
RTVSPropertyOp48
 70
     1
102
RTVSPropertyOp49
 70
     1
102
RTVSPropertyOp50
 70
     1
102
RTVSPropertyOp51
 70
     0
102
RTVSPropertyOp52
 70
     0
102
RTVSPropertyOp53
 70
     1
102
RTVSPropertyOp54
 70
     1
102
RTVSPropertyOp55
 70
     1
102
RTVSPropertyOp56
 70
     1
102
RTVSPropertyOp57
 70
     1
102
RTVSPost2010Prop28
280
     0
102
RTVSPost2010PropOp28
 70
     1
102
RTVSPost2010Prop29
280
     1
102
RTVSPost2010PropOp29
 70
     1
102
RTVSPost2010Prop30
280
     1
102
RTVSPost2010PropOp30
 70
     1
102
RTVSPost2010Prop31
280
     0
102
RTVSPost2010PropOp31
 70
     1
102
RTVSPost2010Prop32
280
     0
102
RTVSPost2010PropOp32
 70
     1
102
RTVSPost2010Prop33
280
     0
102
RTVSPost2010PropOp33
 70
     1
102
RTVSPost2010Prop34
280
     0
102
RTVSPost2010PropOp34
 70
     1
102
RTVSPost2010Prop35
280
     0
102
RTVSPost2010PropOp35
 70
     1
102
RTVSPost2010Prop36
280
     0
102
RTVSPost2010PropOp36
 70
     1
102
RTVSPost2010Prop37
 90
       50
102
RTVSPost2010PropOp37
 70
     1
102
RTVSPost2010Prop38
140
0.0
102
RTVSPost2010PropOp38
 70
     1
102
RTVSPost2010Prop39
140
1.0
102
RTVSPost2010PropOp39
 70
     1
102
RTVSPost2010Prop40
 90
        0
102
RTVSPost2010PropOp40
 70
     1
102
RTVSPost2010Prop41ColorIndex
 90
       18
102
RTVSPost2010Prop41ColorRGB
 90
        0
102
RTVSPost2010PropOp41
 70
     1
102
RTVSPost2010Prop42
 90
       50
102
RTVSPost2010PropOp42
 70
     1
102
RTVSPost2010Prop43
 90
        3
102
RTVSPost2010PropOp43
 70
     1
102
RTVSPost2010Prop44ColorIndex
 90
        5
102
RTVSPost2010Prop44ColorRGB
 90
      255
102
RTVSPost2010PropOp44
 70
     1
102
RTVSPost2010Prop45
280
     0
102
RTVSPost2010PropOp45
 70
     1
102
RTVSPost2010Prop46
 90
       50
102
RTVSPost2010PropOp46
 70
     1
102
RTVSPost2010Prop47
 90
       50
102
RTVSPost2010PropOp47
 70
     1
102
RTVSPost2010Prop48
 90
       50
102
RTVSPost2010PropOp48
 70
     1
102
RTVSPost2010Prop49
280
     0
102
RTVSPost2010PropOp49
 70
     1
102
RTVSPost2010Prop50
 90
       50
102
RTVSPost2010PropOp50
 70
     1
102
RTVSPost2010Prop51ColorIndex
 90
      256
102
RTVSPost2010Prop51ColorRGB
 90
-16777216
102
RTVSPost2010PropOp51
 70
     0
102
RTVSPost2010Prop52
140
1.0
102
RTVSPost2010PropOp52
 70
     0
102
RTVSPost2010Prop53
 90
        2
102
RTVSPost2010PropOp53
 70
     1
102
RTVSPost2010Prop54
  1
strokes_ogs.tif
102
RTVSPost2010PropOp54
 70
     1
102
RTVSPost2010Prop55
280
     0
102
RTVSPost2010PropOp55
 70
     1
102
RTVSPost2010Prop56
140
1.0
102
RTVSPost2010PropOp56
 70
     1
102
RTVSPost2010Prop57
140
1.0
102
RTVSPost2010PropOp57
 70
     1
  0
XRECORD
  5
C8
102
{ACAD_REACTORS
330
C7
102
}
330
C7
100
AcDbXrecord
280
     1
102
RTVSPropertyOp0
 70
     1
102
RTVSPropertyOp1
 70
     1
102
RTVSPropertyOp2
 70
     1
102
RTVSPropertyOp3
 70
     1
102
RTVSPropertyOp4
 70
     1
102
RTVSPropertyOp5
 70
     1
102
RTVSPropertyOp6
 70
     1
102
RTVSPropertyOp7
 70
     1
102
RTVSPropertyOp8
 70
     1
102
RTVSPropertyOp9
 70
     1
102
RTVSPropertyOp10
 70
     1
102
RTVSPropertyOp11
 70
     1
102
RTVSPropertyOp12
 70
     1
102
RTVSPropertyOp13
 70
     1
102
RTVSPropertyOp14
 70
     1
102
RTVSPropertyOp15
 70
     1
102
RTVSPropertyOp16
 70
     1
102
RTVSPropertyOp17
 70
     1
102
RTVSPropertyOp18
 70
     1
102
RTVSPropertyOp19
 70
     1
102
RTVSPropertyOp20
 70
     1
102
RTVSPropertyOp21
 70
     1
102
RTVSPropertyOp22
 70
     1
102
RTVSPropertyOp23
 70
     1
102
RTVSPropertyOp24
 70
     1
102
RTVSPropertyOp25
 70
     1
102
RTVSPropertyOp26
 70
     1
102
RTVSPropertyOp27
 70
     1
102
RTVSPropertyOp28
 70
     1
102
RTVSPropertyOp29
 70
     1
102
RTVSPropertyOp30
 70
     1
102
RTVSPropertyOp31
 70
     1
102
RTVSPropertyOp32
 70
     1
102
RTVSPropertyOp33
 70
     1
102
RTVSPropertyOp34
 70
     1
102
RTVSPropertyOp35
 70
     1
102
RTVSPropertyOp36
 70
     1
102
RTVSPropertyOp37
 70
     1
102
RTVSPropertyOp38
 70
     1
102
RTVSPropertyOp39
 70
     1
102
RTVSPropertyOp40
 70
     1
102
RTVSPropertyOp41
 70
     1
102
RTVSPropertyOp42
 70
     1
102
RTVSPropertyOp43
 70
     1
102
RTVSPropertyOp44
 70
     1
102
RTVSPropertyOp45
 70
     1
102
RTVSPropertyOp46
 70
     1
102
RTVSPropertyOp47
 70
     1
102
RTVSPropertyOp48
 70
     1
102
RTVSPropertyOp49
 70
     1
102
RTVSPropertyOp50
 70
     1
102
RTVSPropertyOp51
 70
     0
102
RTVSPropertyOp52
 70
     0
102
RTVSPropertyOp53
 70
     1
102
RTVSPropertyOp54
 70
     1
102
RTVSPropertyOp55
 70
     1
102
RTVSPropertyOp56
 70
     1
102
RTVSPropertyOp57
 70
     1
102
RTVSPost2010Prop28
280
     0
102
RTVSPost2010PropOp28
 70
     1
102
RTVSPost2010Prop29
280
     1
102
RTVSPost2010PropOp29
 70
     1
102
RTVSPost2010Prop30
280
     1
102
RTVSPost2010PropOp30
 70
     1
102
RTVSPost2010Prop31
280
     0
102
RTVSPost2010PropOp31
 70
     1
102
RTVSPost2010Prop32
280
     0
102
RTVSPost2010PropOp32
 70
     1
102
RTVSPost2010Prop33
280
     0
102
RTVSPost2010PropOp33
 70
     1
102
RTVSPost2010Prop34
280
     0
102
RTVSPost2010PropOp34
 70
     1
102
RTVSPost2010Prop35
280
     0
102
RTVSPost2010PropOp35
 70
     1
102
RTVSPost2010Prop36
280
     0
102
RTVSPost2010PropOp36
 70
     1
102
RTVSPost2010Prop37
 90
       50
102
RTVSPost2010PropOp37
 70
     1
102
RTVSPost2010Prop38
140
0.0
102
RTVSPost2010PropOp38
 70
     1
102
RTVSPost2010Prop39
140
1.0
102
RTVSPost2010PropOp39
 70
     1
102
RTVSPost2010Prop40
 90
        0
102
RTVSPost2010PropOp40
 70
     1
102
RTVSPost2010Prop41ColorIndex
 90
       18
102
RTVSPost2010Prop41ColorRGB
 90
        0
102
RTVSPost2010PropOp41
 70
     1
102
RTVSPost2010Prop42
 90
       50
102
RTVSPost2010PropOp42
 70
     1
102
RTVSPost2010Prop43
 90
        3
102
RTVSPost2010PropOp43
 70
     1
102
RTVSPost2010Prop44ColorIndex
 90
        5
102
RTVSPost2010Prop44ColorRGB
 90
      255
102
RTVSPost2010PropOp44
 70
     1
102
RTVSPost2010Prop45
280
     0
102
RTVSPost2010PropOp45
 70
     1
102
RTVSPost2010Prop46
 90
       50
102
RTVSPost2010PropOp46
 70
     1
102
RTVSPost2010Prop47
 90
       50
102
RTVSPost2010PropOp47
 70
     1
102
RTVSPost2010Prop48
 90
       50
102
RTVSPost2010PropOp48
 70
     1
102
RTVSPost2010Prop49
280
     0
102
RTVSPost2010PropOp49
 70
     1
102
RTVSPost2010Prop50
 90
       50
102
RTVSPost2010PropOp50
 70
     1
102
RTVSPost2010Prop51ColorIndex
 90
      256
102
RTVSPost2010Prop51ColorRGB
 90
-16777216
102
RTVSPost2010PropOp51
 70
     0
102
RTVSPost2010Prop52
140
1.0
102
RTVSPost2010PropOp52
 70
     0
102
RTVSPost2010Prop53
 90
        2
102
RTVSPost2010PropOp53
 70
     1
102
RTVSPost2010Prop54
  1
strokes_ogs.tif
102
RTVSPost2010PropOp54
 70
     1
102
RTVSPost2010Prop55
280
     0
102
RTVSPost2010PropOp55
 70
     1
102
RTVSPost2010Prop56
140
1.0
102
RTVSPost2010PropOp56
 70
     1
102
RTVSPost2010Prop57
140
1.0
102
RTVSPost2010PropOp57
 70
     1
  0
XRECORD
  5
CA
102
{ACAD_REACTORS
330
C9
102
}
330
C9
100
AcDbXrecord
280
     1
102
RTVSPropertyOp0
 70
     1
102
RTVSPropertyOp1
 70
     1
102
RTVSPropertyOp2
 70
     1
102
RTVSPropertyOp3
 70
     1
102
RTVSPropertyOp4
 70
     1
102
RTVSPropertyOp5
 70
     1
102
RTVSPropertyOp6
 70
     1
102
RTVSPropertyOp7
 70
     1
102
RTVSPropertyOp8
 70
     1
102
RTVSPropertyOp9
 70
     1
102
RTVSPropertyOp10
 70
     1
102
RTVSPropertyOp11
 70
     1
102
RTVSPropertyOp12
 70
     1
102
RTVSPropertyOp13
 70
     1
102
RTVSPropertyOp14
 70
     1
102
RTVSPropertyOp15
 70
     1
102
RTVSPropertyOp16
 70
     1
102
RTVSPropertyOp17
 70
     1
102
RTVSPropertyOp18
 70
     1
102
RTVSPropertyOp19
 70
     1
102
RTVSPropertyOp20
 70
     1
102
RTVSPropertyOp21
 70
     1
102
RTVSPropertyOp22
 70
     1
102
RTVSPropertyOp23
 70
     1
102
RTVSPropertyOp24
 70
     1
102
RTVSPropertyOp25
 70
     1
102
RTVSPropertyOp26
 70
     1
102
RTVSPropertyOp27
 70
     1
102
RTVSPropertyOp28
 70
     1
102
RTVSPropertyOp29
 70
     1
102
RTVSPropertyOp30
 70
     1
102
RTVSPropertyOp31
 70
     1
102
RTVSPropertyOp32
 70
     1
102
RTVSPropertyOp33
 70
     1
102
RTVSPropertyOp34
 70
     1
102
RTVSPropertyOp35
 70
     1
102
RTVSPropertyOp36
 70
     1
102
RTVSPropertyOp37
 70
     1
102
RTVSPropertyOp38
 70
     1
102
RTVSPropertyOp39
 70
     1
102
RTVSPropertyOp40
 70
     1
102
RTVSPropertyOp41
 70
     1
102
RTVSPropertyOp42
 70
     1
102
RTVSPropertyOp43
 70
     1
102
RTVSPropertyOp44
 70
     1
102
RTVSPropertyOp45
 70
     1
102
RTVSPropertyOp46
 70
     1
102
RTVSPropertyOp47
 70
     1
102
RTVSPropertyOp48
 70
     1
102
RTVSPropertyOp49
 70
     1
102
RTVSPropertyOp50
 70
     1
102
RTVSPropertyOp51
 70
     0
102
RTVSPropertyOp52
 70
     0
102
RTVSPropertyOp53
 70
     1
102
RTVSPropertyOp54
 70
     1
102
RTVSPropertyOp55
 70
     1
102
RTVSPropertyOp56
 70
     1
102
RTVSPropertyOp57
 70
     1
102
RTVSPost2010Prop28
280
     0
102
RTVSPost2010PropOp28
 70
     1
102
RTVSPost2010Prop29
280
     1
102
RTVSPost2010PropOp29
 70
     1
102
RTVSPost2010Prop30
280
     1
102
RTVSPost2010PropOp30
 70
     1
102
RTVSPost2010Prop31
280
     0
102
RTVSPost2010PropOp31
 70
     1
102
RTVSPost2010Prop32
280
     0
102
RTVSPost2010PropOp32
 70
     1
102
RTVSPost2010Prop33
280
     0
102
RTVSPost2010PropOp33
 70
     1
102
RTVSPost2010Prop34
280
     0
102
RTVSPost2010PropOp34
 70
     1
102
RTVSPost2010Prop35
280
     0
102
RTVSPost2010PropOp35
 70
     1
102
RTVSPost2010Prop36
280
     0
102
RTVSPost2010PropOp36
 70
     1
102
RTVSPost2010Prop37
 90
       50
102
RTVSPost2010PropOp37
 70
     1
102
RTVSPost2010Prop38
140
0.0
102
RTVSPost2010PropOp38
 70
     1
102
RTVSPost2010Prop39
140
1.0
102
RTVSPost2010PropOp39
 70
     1
102
RTVSPost2010Prop40
 90
        0
102
RTVSPost2010PropOp40
 70
     1
102
RTVSPost2010Prop41ColorIndex
 90
       18
102
RTVSPost2010Prop41ColorRGB
 90
        0
102
RTVSPost2010PropOp41
 70
     1
102
RTVSPost2010Prop42
 90
       50
102
RTVSPost2010PropOp42
 70
     1
102
RTVSPost2010Prop43
 90
        3
102
RTVSPost2010PropOp43
 70
     1
102
RTVSPost2010Prop44ColorIndex
 90
        5
102
RTVSPost2010Prop44ColorRGB
 90
      255
102
RTVSPost2010PropOp44
 70
     1
102
RTVSPost2010Prop45
280
     0
102
RTVSPost2010PropOp45
 70
     1
102
RTVSPost2010Prop46
 90
       50
102
RTVSPost2010PropOp46
 70
     1
102
RTVSPost2010Prop47
 90
       50
102
RTVSPost2010PropOp47
 70
     1
102
RTVSPost2010Prop48
 90
       50
102
RTVSPost2010PropOp48
 70
     1
102
RTVSPost2010Prop49
280
     0
102
RTVSPost2010PropOp49
 70
     1
102
RTVSPost2010Prop50
 90
       50
102
RTVSPost2010PropOp50
 70
     1
102
RTVSPost2010Prop51ColorIndex
 90
      256
102
RTVSPost2010Prop51ColorRGB
 90
-16777216
102
RTVSPost2010PropOp51
 70
     0
102
RTVSPost2010Prop52
140
1.0
102
RTVSPost2010PropOp52
 70
     0
102
RTVSPost2010Prop53
 90
        2
102
RTVSPost2010PropOp53
 70
     1
102
RTVSPost2010Prop54
  1
strokes_ogs.tif
102
RTVSPost2010PropOp54
 70
     1
102
RTVSPost2010Prop55
280
     0
102
RTVSPost2010PropOp55
 70
     1
102
RTVSPost2010Prop56
140
1.0
102
RTVSPost2010PropOp56
 70
     1
102
RTVSPost2010Prop57
140
1.0
102
RTVSPost2010PropOp57
 70
     1
  0
XRECORD
  5
BA
102
{ACAD_REACTORS
330
B9
102
}
330
B9
100
AcDbXrecord
280
     1
102
RTVSPropertyOp0
 70
     1
102
RTVSPropertyOp1
 70
     1
102
RTVSPropertyOp2
 70
     1
102
RTVSPropertyOp3
 70
     1
102
RTVSPropertyOp4
 70
     1
102
RTVSPropertyOp5
 70
     1
102
RTVSPropertyOp6
 70
     1
102
RTVSPropertyOp7
 70
     1
102
RTVSPropertyOp8
 70
     1
102
RTVSPropertyOp9
 70
     1
102
RTVSPropertyOp10
 70
     1
102
RTVSPropertyOp11
 70
     1
102
RTVSPropertyOp12
 70
     1
102
RTVSPropertyOp13
 70
     1
102
RTVSPropertyOp14
 70
     1
102
RTVSPropertyOp15
 70
     1
102
RTVSPropertyOp16
 70
     1
102
RTVSPropertyOp17
 70
     1
102
RTVSPropertyOp18
 70
     1
102
RTVSPropertyOp19
 70
     1
102
RTVSPropertyOp20
 70
     1
102
RTVSPropertyOp21
 70
     1
102
RTVSPropertyOp22
 70
     1
102
RTVSPropertyOp23
 70
     1
102
RTVSPropertyOp24
 70
     1
102
RTVSPropertyOp25
 70
     1
102
RTVSPropertyOp26
 70
     1
102
RTVSPropertyOp27
 70
     1
102
RTVSPropertyOp28
 70
     1
102
RTVSPropertyOp29
 70
     1
102
RTVSPropertyOp30
 70
     1
102
RTVSPropertyOp31
 70
     1
102
RTVSPropertyOp32
 70
     1
102
RTVSPropertyOp33
 70
     1
102
RTVSPropertyOp34
 70
     1
102
RTVSPropertyOp35
 70
     1
102
RTVSPropertyOp36
 70
     1
102
RTVSPropertyOp37
 70
     1
102
RTVSPropertyOp38
 70
     1
102
RTVSPropertyOp39
 70
     1
102
RTVSPropertyOp40
 70
     1
102
RTVSPropertyOp41
 70
     1
102
RTVSPropertyOp42
 70
     1
102
RTVSPropertyOp43
 70
     1
102
RTVSPropertyOp44
 70
     1
102
RTVSPropertyOp45
 70
     1
102
RTVSPropertyOp46
 70
     1
102
RTVSPropertyOp47
 70
     1
102
RTVSPropertyOp48
 70
     1
102
RTVSPropertyOp49
 70
     1
102
RTVSPropertyOp50
 70
     1
102
RTVSPropertyOp51
 70
     0
102
RTVSPropertyOp52
 70
     0
102
RTVSPropertyOp53
 70
     1
102
RTVSPropertyOp54
 70
     1
102
RTVSPropertyOp55
 70
     1
102
RTVSPropertyOp56
 70
     1
102
RTVSPropertyOp57
 70
     1
102
RTVSPost2010Prop28
280
     0
102
RTVSPost2010PropOp28
 70
     1
102
RTVSPost2010Prop29
280
     1
102
RTVSPost2010PropOp29
 70
     1
102
RTVSPost2010Prop30
280
     1
102
RTVSPost2010PropOp30
 70
     1
102
RTVSPost2010Prop31
280
     0
102
RTVSPost2010PropOp31
 70
     1
102
RTVSPost2010Prop32
280
     0
102
RTVSPost2010PropOp32
 70
     1
102
RTVSPost2010Prop33
280
     0
102
RTVSPost2010PropOp33
 70
     1
102
RTVSPost2010Prop34
280
     0
102
RTVSPost2010PropOp34
 70
     1
102
RTVSPost2010Prop35
280
     0
102
RTVSPost2010PropOp35
 70
     1
102
RTVSPost2010Prop36
280
     0
102
RTVSPost2010PropOp36
 70
     1
102
RTVSPost2010Prop37
 90
       50
102
RTVSPost2010PropOp37
 70
     1
102
RTVSPost2010Prop38
140
0.0
102
RTVSPost2010PropOp38
 70
     1
102
RTVSPost2010Prop39
140
1.0
102
RTVSPost2010PropOp39
 70
     1
102
RTVSPost2010Prop40
 90
        0
102
RTVSPost2010PropOp40
 70
     1
102
RTVSPost2010Prop41ColorIndex
 90
       18
102
RTVSPost2010Prop41ColorRGB
 90
        0
102
RTVSPost2010PropOp41
 70
     1
102
RTVSPost2010Prop42
 90
       50
102
RTVSPost2010PropOp42
 70
     1
102
RTVSPost2010Prop43
 90
        3
102
RTVSPost2010PropOp43
 70
     1
102
RTVSPost2010Prop44ColorIndex
 90
        5
102
RTVSPost2010Prop44ColorRGB
 90
      255
102
RTVSPost2010PropOp44
 70
     1
102
RTVSPost2010Prop45
280
     0
102
RTVSPost2010PropOp45
 70
     1
102
RTVSPost2010Prop46
 90
       50
102
RTVSPost2010PropOp46
 70
     1
102
RTVSPost2010Prop47
 90
       50
102
RTVSPost2010PropOp47
 70
     1
102
RTVSPost2010Prop48
 90
       50
102
RTVSPost2010PropOp48
 70
     1
102
RTVSPost2010Prop49
280
     0
102
RTVSPost2010PropOp49
 70
     1
102
RTVSPost2010Prop50
 90
       50
102
RTVSPost2010PropOp50
 70
     1
102
RTVSPost2010Prop51ColorIndex
 90
      256
102
RTVSPost2010Prop51ColorRGB
 90
-16777216
102
RTVSPost2010PropOp51
 70
     0
102
RTVSPost2010Prop52
140
1.0
102
RTVSPost2010PropOp52
 70
     0
102
RTVSPost2010Prop53
 90
        2
102
RTVSPost2010PropOp53
 70
     1
102
RTVSPost2010Prop54
  1
strokes_ogs.tif
102
RTVSPost2010PropOp54
 70
     1
102
RTVSPost2010Prop55
280
     0
102
RTVSPost2010PropOp55
 70
     1
102
RTVSPost2010Prop56
140
1.0
102
RTVSPost2010PropOp56
 70
     1
102
RTVSPost2010Prop57
140
1.0
102
RTVSPost2010PropOp57
 70
     1
  0
XRECORD
  5
AC
102
{ACAD_REACTORS
330
AB
102
}
330
AB
100
AcDbXrecord
280
     1
102
RTVSPropertyOp0
 70
     1
102
RTVSPropertyOp1
 70
     1
102
RTVSPropertyOp2
 70
     1
102
RTVSPropertyOp3
 70
     1
102
RTVSPropertyOp4
 70
     1
102
RTVSPropertyOp5
 70
     1
102
RTVSPropertyOp6
 70
     1
102
RTVSPropertyOp7
 70
     1
102
RTVSPropertyOp8
 70
     1
102
RTVSPropertyOp9
 70
     1
102
RTVSPropertyOp10
 70
     1
102
RTVSPropertyOp11
 70
     1
102
RTVSPropertyOp12
 70
     1
102
RTVSPropertyOp13
 70
     1
102
RTVSPropertyOp14
 70
     1
102
RTVSPropertyOp15
 70
     1
102
RTVSPropertyOp16
 70
     1
102
RTVSPropertyOp17
 70
     1
102
RTVSPropertyOp18
 70
     1
102
RTVSPropertyOp19
 70
     1
102
RTVSPropertyOp20
 70
     1
102
RTVSPropertyOp21
 70
     1
102
RTVSPropertyOp22
 70
     1
102
RTVSPropertyOp23
 70
     1
102
RTVSPropertyOp24
 70
     1
102
RTVSPropertyOp25
 70
     1
102
RTVSPropertyOp26
 70
     1
102
RTVSPropertyOp27
 70
     1
102
RTVSPropertyOp28
 70
     1
102
RTVSPropertyOp29
 70
     1
102
RTVSPropertyOp30
 70
     1
102
RTVSPropertyOp31
 70
     1
102
RTVSPropertyOp32
 70
     1
102
RTVSPropertyOp33
 70
     1
102
RTVSPropertyOp34
 70
     1
102
RTVSPropertyOp35
 70
     1
102
RTVSPropertyOp36
 70
     1
102
RTVSPropertyOp37
 70
     1
102
RTVSPropertyOp38
 70
     1
102
RTVSPropertyOp39
 70
     1
102
RTVSPropertyOp40
 70
     1
102
RTVSPropertyOp41
 70
     1
102
RTVSPropertyOp42
 70
     1
102
RTVSPropertyOp43
 70
     1
102
RTVSPropertyOp44
 70
     1
102
RTVSPropertyOp45
 70
     1
102
RTVSPropertyOp46
 70
     1
102
RTVSPropertyOp47
 70
     1
102
RTVSPropertyOp48
 70
     1
102
RTVSPropertyOp49
 70
     1
102
RTVSPropertyOp50
 70
     1
102
RTVSPropertyOp51
 70
     0
102
RTVSPropertyOp52
 70
     0
102
RTVSPropertyOp53
 70
     1
102
RTVSPropertyOp54
 70
     1
102
RTVSPropertyOp55
 70
     1
102
RTVSPropertyOp56
 70
     1
102
RTVSPropertyOp57
 70
     1
102
RTVSPost2010Prop28
280
     0
102
RTVSPost2010PropOp28
 70
     1
102
RTVSPost2010Prop29
280
     1
102
RTVSPost2010PropOp29
 70
     1
102
RTVSPost2010Prop30
280
     1
102
RTVSPost2010PropOp30
 70
     1
102
RTVSPost2010Prop31
280
     0
102
RTVSPost2010PropOp31
 70
     1
102
RTVSPost2010Prop32
280
     0
102
RTVSPost2010PropOp32
 70
     1
102
RTVSPost2010Prop33
280
     0
102
RTVSPost2010PropOp33
 70
     1
102
RTVSPost2010Prop34
280
     0
102
RTVSPost2010PropOp34
 70
     1
102
RTVSPost2010Prop35
280
     0
102
RTVSPost2010PropOp35
 70
     1
102
RTVSPost2010Prop36
280
     0
102
RTVSPost2010PropOp36
 70
     1
102
RTVSPost2010Prop37
 90
       50
102
RTVSPost2010PropOp37
 70
     1
102
RTVSPost2010Prop38
140
0.0
102
RTVSPost2010PropOp38
 70
     1
102
RTVSPost2010Prop39
140
1.0
102
RTVSPost2010PropOp39
 70
     1
102
RTVSPost2010Prop40
 90
        0
102
RTVSPost2010PropOp40
 70
     1
102
RTVSPost2010Prop41ColorIndex
 90
       18
102
RTVSPost2010Prop41ColorRGB
 90
        0
102
RTVSPost2010PropOp41
 70
     1
102
RTVSPost2010Prop42
 90
       50
102
RTVSPost2010PropOp42
 70
     1
102
RTVSPost2010Prop43
 90
        3
102
RTVSPost2010PropOp43
 70
     1
102
RTVSPost2010Prop44ColorIndex
 90
        5
102
RTVSPost2010Prop44ColorRGB
 90
      255
102
RTVSPost2010PropOp44
 70
     1
102
RTVSPost2010Prop45
280
     0
102
RTVSPost2010PropOp45
 70
     1
102
RTVSPost2010Prop46
 90
       50
102
RTVSPost2010PropOp46
 70
     1
102
RTVSPost2010Prop47
 90
       50
102
RTVSPost2010PropOp47
 70
     1
102
RTVSPost2010Prop48
 90
       50
102
RTVSPost2010PropOp48
 70
     1
102
RTVSPost2010Prop49
280
     0
102
RTVSPost2010PropOp49
 70
     1
102
RTVSPost2010Prop50
 90
       50
102
RTVSPost2010PropOp50
 70
     1
102
RTVSPost2010Prop51ColorIndex
 90
      256
102
RTVSPost2010Prop51ColorRGB
 90
-16777216
102
RTVSPost2010PropOp51
 70
     0
102
RTVSPost2010Prop52
140
1.0
102
RTVSPost2010PropOp52
 70
     0
102
RTVSPost2010Prop53
 90
        2
102
RTVSPost2010PropOp53
 70
     1
102
RTVSPost2010Prop54
  1
strokes_ogs.tif
102
RTVSPost2010PropOp54
 70
     1
102
RTVSPost2010Prop55
280
     0
102
RTVSPost2010PropOp55
 70
     1
102
RTVSPost2010Prop56
140
1.0
102
RTVSPost2010PropOp56
 70
     1
102
RTVSPost2010Prop57
140
1.0
102
RTVSPost2010PropOp57
 70
     1
  0
XRECORD
  5
CC
102
{ACAD_REACTORS
330
CB
102
}
330
CB
100
AcDbXrecord
280
     1
102
RTVSPropertyOp0
 70
     1
102
RTVSPropertyOp1
 70
     1
102
RTVSPropertyOp2
 70
     1
102
RTVSPropertyOp3
 70
     1
102
RTVSPropertyOp4
 70
     1
102
RTVSPropertyOp5
 70
     1
102
RTVSPropertyOp6
 70
     1
102
RTVSPropertyOp7
 70
     1
102
RTVSPropertyOp8
 70
     1
102
RTVSPropertyOp9
 70
     1
102
RTVSPropertyOp10
 70
     1
102
RTVSPropertyOp11
 70
     1
102
RTVSPropertyOp12
 70
     1
102
RTVSPropertyOp13
 70
     1
102
RTVSPropertyOp14
 70
     1
102
RTVSPropertyOp15
 70
     1
102
RTVSPropertyOp16
 70
     1
102
RTVSPropertyOp17
 70
     1
102
RTVSPropertyOp18
 70
     1
102
RTVSPropertyOp19
 70
     1
102
RTVSPropertyOp20
 70
     1
102
RTVSPropertyOp21
 70
     1
102
RTVSPropertyOp22
 70
     1
102
RTVSPropertyOp23
 70
     1
102
RTVSPropertyOp24
 70
     1
102
RTVSPropertyOp25
 70
     1
102
RTVSPropertyOp26
 70
     1
102
RTVSPropertyOp27
 70
     1
102
RTVSPropertyOp28
 70
     1
102
RTVSPropertyOp29
 70
     1
102
RTVSPropertyOp30
 70
     1
102
RTVSPropertyOp31
 70
     1
102
RTVSPropertyOp32
 70
     1
102
RTVSPropertyOp33
 70
     1
102
RTVSPropertyOp34
 70
     1
102
RTVSPropertyOp35
 70
     1
102
RTVSPropertyOp36
 70
     1
102
RTVSPropertyOp37
 70
     1
102
RTVSPropertyOp38
 70
     1
102
RTVSPropertyOp39
 70
     1
102
RTVSPropertyOp40
 70
     1
102
RTVSPropertyOp41
 70
     1
102
RTVSPropertyOp42
 70
     1
102
RTVSPropertyOp43
 70
     1
102
RTVSPropertyOp44
 70
     1
102
RTVSPropertyOp45
 70
     1
102
RTVSPropertyOp46
 70
     1
102
RTVSPropertyOp47
 70
     1
102
RTVSPropertyOp48
 70
     1
102
RTVSPropertyOp49
 70
     1
102
RTVSPropertyOp50
 70
     1
102
RTVSPropertyOp51
 70
     0
102
RTVSPropertyOp52
 70
     0
102
RTVSPropertyOp53
 70
     1
102
RTVSPropertyOp54
 70
     1
102
RTVSPropertyOp55
 70
     1
102
RTVSPropertyOp56
 70
     1
102
RTVSPropertyOp57
 70
     1
102
RTVSPost2010Prop28
280
     0
102
RTVSPost2010PropOp28
 70
     1
102
RTVSPost2010Prop29
280
     1
102
RTVSPost2010PropOp29
 70
     1
102
RTVSPost2010Prop30
280
     1
102
RTVSPost2010PropOp30
 70
     1
102
RTVSPost2010Prop31
280
     0
102
RTVSPost2010PropOp31
 70
     1
102
RTVSPost2010Prop32
280
     0
102
RTVSPost2010PropOp32
 70
     1
102
RTVSPost2010Prop33
280
     0
102
RTVSPost2010PropOp33
 70
     1
102
RTVSPost2010Prop34
280
     0
102
RTVSPost2010PropOp34
 70
     1
102
RTVSPost2010Prop35
280
     0
102
RTVSPost2010PropOp35
 70
     1
102
RTVSPost2010Prop36
280
     0
102
RTVSPost2010PropOp36
 70
     1
102
RTVSPost2010Prop37
 90
       50
102
RTVSPost2010PropOp37
 70
     1
102
RTVSPost2010Prop38
140
0.0
102
RTVSPost2010PropOp38
 70
     1
102
RTVSPost2010Prop39
140
1.0
102
RTVSPost2010PropOp39
 70
     1
102
RTVSPost2010Prop40
 90
        0
102
RTVSPost2010PropOp40
 70
     1
102
RTVSPost2010Prop41ColorIndex
 90
       18
102
RTVSPost2010Prop41ColorRGB
 90
        0
102
RTVSPost2010PropOp41
 70
     1
102
RTVSPost2010Prop42
 90
       50
102
RTVSPost2010PropOp42
 70
     1
102
RTVSPost2010Prop43
 90
        3
102
RTVSPost2010PropOp43
 70
     1
102
RTVSPost2010Prop44ColorIndex
 90
        5
102
RTVSPost2010Prop44ColorRGB
 90
      255
102
RTVSPost2010PropOp44
 70
     1
102
RTVSPost2010Prop45
280
     0
102
RTVSPost2010PropOp45
 70
     1
102
RTVSPost2010Prop46
 90
       50
102
RTVSPost2010PropOp46
 70
     1
102
RTVSPost2010Prop47
 90
       50
102
RTVSPost2010PropOp47
 70
     1
102
RTVSPost2010Prop48
 90
       50
102
RTVSPost2010PropOp48
 70
     1
102
RTVSPost2010Prop49
280
     0
102
RTVSPost2010PropOp49
 70
     1
102
RTVSPost2010Prop50
 90
       50
102
RTVSPost2010PropOp50
 70
     1
102
RTVSPost2010Prop51ColorIndex
 90
      256
102
RTVSPost2010Prop51ColorRGB
 90
-16777216
102
RTVSPost2010PropOp51
 70
     0
102
RTVSPost2010Prop52
140
1.0
102
RTVSPost2010PropOp52
 70
     0
102
RTVSPost2010Prop53
 90
        2
102
RTVSPost2010PropOp53
 70
     1
102
RTVSPost2010Prop54
  1
strokes_ogs.tif
102
RTVSPost2010PropOp54
 70
     1
102
RTVSPost2010Prop55
280
     0
102
RTVSPost2010PropOp55
 70
     1
102
RTVSPost2010Prop56
140
1.0
102
RTVSPost2010PropOp56
 70
     1
102
RTVSPost2010Prop57
140
1.0
102
RTVSPost2010PropOp57
 70
     1
  0
ENDSEC
  0
EOF
