  0
SECTION
  2
HEADER
  9
$ACADVER
  1
AC1014
  9
$HANDSEED
  5
FFFF
  9
$MEASUREMENT
 70
     1
  0
ENDSEC
  0
SECTION
  2
TABLES
  0
TABLE
  2
VPORT
  5
8
330
0
100
AcDbSymbolTable
 70
     4
  0
VPORT
  5
2E
330
8
100
AcDbSymbolTableRecord
100
AcDbViewportTableRecord
  2
*ACTIVE
 70
     0
 10
0.0
 20
0.0
 11
1.0
 21
1.0
 12
210.0
 22
148.5
 13
0.0
 23
0.0
 14
10.0
 24
10.0
 15
10.0
 25
10.0
 16
0.0
 26
0.0
 36
1.0
 17
0.0
 27
0.0
 37
0.0
 40
341.0
 41
1.24
 42
50.0
 43
0.0
 44
0.0
 50
0.0
 51
0.0
 71
     0
 72
   100
 73
     1
 74
     3
 75
     0
 76
     0
 77
     0
 78
     0
  0
ENDTAB
  0
TABLE
  2
LTYPE
  5
5
330
0
100
AcDbSymbolTable
 70
     1
  0
LTYPE
  5
14
330
5
100
AcDbSymbolTableRecord
100
AcDbLinetypeTableRecord
  2
BYBLOCK
 70
     0
  3

 72
    65
 73
     0
 40
0.0
  0
LTYPE
  5
15
330
5
100
AcDbSymbolTableRecord
100
AcDbLinetypeTableRecord
  2
BYLAYER
 70
     0
  3

 72
    65
 73
     0
 40
0.0
  0
LTYPE
  5
16
330
5
100
AcDbSymbolTableRecord
100
AcDbLinetypeTableRecord
  2
CONTINUOUS
 70
     0
  3
Solid line
 72
    65
 73
     0
 40
0.0
  0
ENDTAB
  0
TABLE
  2
LAYER
  5
2
100
AcDbSymbolTable
 70
1
  0
LAYER
  5
50
100
AcDbSymbolTableRecord
100
AcDbLayerTableRecord
  2
0
 70
0
  6
CONTINUOUS
  0
ENDTAB
  0
TABLE
  2
STYLE
  5
3
330
0
100
AcDbSymbolTable
 70
     1
  0
STYLE
  5
11
330
3
100
AcDbSymbolTableRecord
100
AcDbTextStyleTableRecord
  2
STANDARD
 70
     0
 40
0.0
 41
1.0
 50
0.0
 71
     0
 42
2.5
  3
txt
  4

  0
ENDTAB
  0
TABLE
  2
VIEW
  5
6
330
0
100
AcDbSymbolTable
 70
     0
  0
ENDTAB
  0
TABLE
  2
UCS
  5
7
330
0
100
AcDbSymbolTable
 70
     0
  0
ENDTAB
  0
TABLE
  2
APPID
  5
9
330
0
100
AcDbSymbolTable
 70
     2
  0
APPID
  5
12
330
9
100
AcDbSymbolTableRecord
100
AcDbRegAppTableRecord
  2
ACAD
 70
     0
  0
ENDTAB
  0
TABLE
  2
DIMSTYLE
  5
A
330
0
100
AcDbSymbolTable
 70
     1
  0
DIMSTYLE
105
27
330
A
100
AcDbSymbolTableRecord
100
AcDbDimStyleTableRecord
  2
ISO-25
 70
     0
  3

  4

  5

  6

  7

 40
1.0
 41
2.5
 42
0.625
 43
3.75
 44
1.25
 45
0.0
 46
0.0
 47
0.0
 48
0.0
140
2.5
141
2.5
142
0.0
143
0.03937007874016
144
1.0
145
0.0
146
1.0
147
0.625
 71
     0
 72
     0
 73
     0
 74
     0
 75
     0
 76
     0
 77
     1
 78
     8
170
     0
171
     3
172
     1
173
     0
174
     0
175
     0
176
     0
177
     0
178
     0
270
     2
271
     2
272
     2
273
     2
274
     3
340
11
275
     0
280
     0
281
     0
282
     0
283
     0
284
     8
285
     0
286
     0
287
     3
288
     0
  0
ENDTAB
  0
TABLE
  2
BLOCK_RECORD
  5
1
330
0
100
AcDbSymbolTable
 70
     1
  0
BLOCK_RECORD
  5
1F
330
1
100
AcDbSymbolTableRecord
100
AcDbBlockTableRecord
  2
*MODEL_SPACE
  0
BLOCK_RECORD
  5
1B
330
1
100
AcDbSymbolTableRecord
100
AcDbBlockTableRecord
  2
*PAPER_SPACE
  0
ENDTAB
  0
ENDSEC
  0
SECTION
  2
BLOCKS
  0
BLOCK
  5
20
330
1F
100
AcDbEntity
  8
0
100
AcDbBlockBegin
  2
*MODEL_SPACE
 70
     0
 10
0.0
 20
0.0
 30
0.0
  3
*MODEL_SPACE
  1

  0
ENDBLK
  5
21
330
1F
100
AcDbEntity
  8
0
100
AcDbBlockEnd
  0
BLOCK
  5
1C
330
1B
100
AcDbEntity
 67
     1
  8
0
100
AcDbBlockBegin
  2
*PAPER_SPACE
  1

  0
ENDBLK
  5
1D
330
1B
100
AcDbEntity
 67
     1
  8
0
100
AcDbBlockEnd
  0
ENDSEC
  0
SECTION
  2
ENTITIES
  0
SPLINE
  5
100
100
AcDbEntity
  8
0
 62
7
100
AcDbSpline
 70
8
 71
3
 72
8
 73
4
 74
0
 40
0
 40
0
 40
0
 40
0
 40
1
 40
1
 40
1
 40
1
 10
22.723655
 20
4.417925
 30
0.0
 10
22.388375
 20
4.774814
 30
0.0
 10
21.646409
 20
5.390893
 30
0.0
 10
21.074846
 20
5.786988
 30
0.0
  0
SPLINE
  5
101
100
AcDbEntity
  8
0
 62
7
100
AcDbSpline
 70
8
 71
3
 72
8
 73
4
 74
0
 40
0
 40
0
 40
0
 40
0
 40
1
 40
1
 40
1
 40
1
 10
18.530451
 20
5.738019
 30
0.0
 10
17.702599
 20
5.314992
 30
0.0
 10
16.950412
 20
4.931463
 30
0.0
 10
16.858925
 20
4.885732
 30
0.0
  0
SPLINE
  5
102
100
AcDbEntity
  8
0
 62
7
100
AcDbSpline
 70
8
 71
3
 72
8
 73
4
 74
0
 40
0
 40
0
 40
0
 40
0
 40
1
 40
1
 40
1
 40
1
 10
16.858925
 20
4.885732
 30
0.0
 10
16.670967
 20
4.791779
 30
0.0
 10
16.000529
 20
9.048118
 30
0.0
 10
16.175694
 20
9.223282
 30
0.0
  0
SPLINE
  5
103
100
AcDbEntity
  8
0
 62
7
100
AcDbSpline
 70
8
 71
3
 72
8
 73
4
 74
0
 40
0
 40
0
 40
0
 40
0
 40
1
 40
1
 40
1
 40
1
 10
16.175694
 20
9.223282
 30
0.0
 10
16.237834
 20
9.285420
 30
0.0
 10
17.049718
 20
8.976230
 30
0.0
 10
17.979885
 20
8.536189
 30
0.0
  0
SPLINE
  5
104
100
AcDbEntity
  8
0
 62
7
100
AcDbSpline
 70
8
 71
3
 72
8
 73
4
 74
0
 40
0
 40
0
 40
0
 40
0
 40
1
 40
1
 40
1
 40
1
 10
17.979885
 20
8.536189
 30
0.0
 10
18.910054
 20
8.096149
 30
0.0
 10
19.821729
 20
7.736022
 30
0.0
 10
20.005836
 20
7.735909
 30
0.0
  0
SPLINE
  5
105
100
AcDbEntity
  8
0
 62
7
100
AcDbSpline
 70
8
 71
3
 72
8
 73
4
 74
0
 40
0
 40
0
 40
0
 40
0
 40
1
 40
1
 40
1
 40
1
 10
20.005836
 20
7.735909
 30
0.0
 10
20.189941
 20
7.735795
 30
0.0
 10
20.983194
 20
8.098375
 30
0.0
 10
21.768623
 20
8.541642
 30
0.0
  0
SPLINE
  5
106
100
AcDbEntity
  8
0
 62
7
100
AcDbSpline
 70
8
 71
3
 72
8
 73
4
 74
0
 40
0
 40
0
 40
0
 40
0
 40
1
 40
1
 40
1
 40
1
 10
21.768623
 20
8.541642
 30
0.0
 10
22.554052
 20
8.984909
 30
0.0
 10
23.258933
 20
9.246846
 30
0.0
 10
23.335028
 20
9.123722
 30
0.0
  0
SPLINE
  5
107
100
AcDbEntity
  8
0
 62
7
100
AcDbSpline
 70
8
 71
3
 72
8
 73
4
 74
0
 40
0
 40
0
 40
0
 40
0
 40
1
 40
1
 40
1
 40
1
 10
23.335028
 20
9.123722
 30
0.0
 10
23.511092
 20
8.838845
 30
0.0
 10
23.622548
 20
4.058330
 30
0.0
 10
23.456985
 20
3.892767
 30
0.0
  0
SPLINE
  5
108
100
AcDbEntity
  8
0
 62
7
100
AcDbSpline
 70
8
 71
3
 72
8
 73
4
 74
0
 40
0
 40
0
 40
0
 40
0
 40
1
 40
1
 40
1
 40
1
 10
23.456985
 20
3.892767
 30
0.0
 10
23.388934
 20
3.824716
 30
0.0
 10
23.058935
 20
4.061037
 30
0.0
 10
22.723655
 20
4.417925
 30
0.0
  0
LWPOLYLINE
  5
109
100
AcDbEntity
  8
0
 62
7
100
AcDbPolyline
 90
3
 70
0
 10
21.074846
 20
5.786988
 30
0.0
 10
20.035636
 20
6.507160
 30
0.0
 10
18.530451
 20
5.738019
 30
0.0
  0
SPLINE
  5
10a
100
AcDbEntity
  8
0
 62
7
100
AcDbSpline
 70
8
 71
3
 72
8
 73
4
 74
0
 40
0
 40
0
 40
0
 40
0
 40
1
 40
1
 40
1
 40
1
 10
24.834525
 20
6.478929
 30
0.0
 10
24.836641
 20
6.660830
 30
0.0
 10
24.926049
 20
6.944209
 30
0.0
 10
25.032962
 20
7.108664
 30
0.0
  0
SPLINE
  5
10b
100
AcDbEntity
  8
0
 62
7
100
AcDbSpline
 70
8
 71
3
 72
8
 73
4
 74
0
 40
0
 40
0
 40
0
 40
0
 40
1
 40
1
 40
1
 40
1
 10
25.032962
 20
7.108664
 30
0.0
 10
25.222123
 20
7.399631
 30
0.0
 10
31.749304
 20
9.587783
 30
0.0
 10
32.428093
 20
9.587783
 30
0.0
  0
SPLINE
  5
10c
100
AcDbEntity
  8
0
 62
7
100
AcDbSpline
 70
8
 71
3
 72
8
 73
4
 74
0
 40
0
 40
0
 40
0
 40
0
 40
1
 40
1
 40
1
 40
1
 10
32.428093
 20
9.587783
 30
0.0
 10
32.864105
 20
9.587783
 30
0.0
 10
32.870854
 20
8.671589
 30
0.0
 10
32.437247
 20
8.345604
 30
0.0
  0
SPLINE
  5
10d
100
AcDbEntity
  8
0
 62
7
100
AcDbSpline
 70
8
 71
3
 72
8
 73
4
 74
0
 40
0
 40
0
 40
0
 40
0
 40
1
 40
1
 40
1
 40
1
 10
32.437247
 20
8.345604
 30
0.0
 10
32.108312
 20
8.098316
 30
0.0
 10
25.589013
 20
6.148200
 30
0.0
 10
25.091255
 20
6.148200
 30
0.0
  0
SPLINE
  5
10e
100
AcDbEntity
  8
0
 62
7
100
AcDbSpline
 70
8
 71
3
 72
8
 73
4
 74
0
 40
0
 40
0
 40
0
 40
0
 40
1
 40
1
 40
1
 40
1
 10
25.091255
 20
6.148200
 30
0.0
 10
24.947824
 20
6.148200
 30
0.0
 10
24.832297
 20
6.297028
 30
0.0
 10
24.834525
 20
6.478929
 30
0.0
  0
LWPOLYLINE
  5
10f
100
AcDbEntity
  8
0
 62
7
100
AcDbPolyline
 90
1
 70
1
 10
22.723655
 20
4.417925
 30
0.0
  0
SPLINE
  5
110
100
AcDbEntity
  8
0
 62
7
100
AcDbSpline
 70
8
 71
3
 72
8
 73
4
 74
0
 40
0
 40
0
 40
0
 40
0
 40
1
 40
1
 40
1
 40
1
 10
19.311586
 20
9.707047
 30
0.0
 10
19.078149
 20
10.552483
 30
0.0
 10
19.242442
 20
12.069202
 30
0.0
 10
19.636528
 20
12.706847
 30
0.0
  0
SPLINE
  5
111
100
AcDbEntity
  8
0
 62
7
100
AcDbSpline
 70
8
 71
3
 72
8
 73
4
 74
0
 40
0
 40
0
 40
0
 40
0
 40
1
 40
1
 40
1
 40
1
 10
19.636528
 20
12.706847
 30
0.0
 10
19.734041
 20
12.864624
 30
0.0
 10
19.168099
 20
13.169778
 30
0.0
 10
18.282367
 20
13.437007
 30
0.0
  0
SPLINE
  5
112
100
AcDbEntity
  8
0
 62
7
100
AcDbSpline
 70
8
 71
3
 72
8
 73
4
 74
0
 40
0
 40
0
 40
0
 40
0
 40
1
 40
1
 40
1
 40
1
 10
18.282367
 20
13.437007
 30
0.0
 10
15.576497
 20
14.253382
 30
0.0
 10
13.055230
 20
15.993951
 30
0.0
 10
12.207663
 20
17.630704
 30
0.0
  0
SPLINE
  5
113
100
AcDbEntity
  8
0
 62
7
100
AcDbSpline
 70
8
 71
3
 72
8
 73
4
 74
0
 40
0
 40
0
 40
0
 40
0
 40
1
 40
1
 40
1
 40
1
 10
12.207663
 20
17.630704
 30
0.0
 10
11.556722
 20
18.887750
 30
0.0
 10
11.676854
 20
21.141687
 30
0.0
 10
12.478062
 20
22.704031
 30
0.0
  0
SPLINE
  5
114
100
AcDbEntity
  8
0
 62
7
100
AcDbSpline
 70
8
 71
3
 72
8
 73
4
 74
0
 40
0
 40
0
 40
0
 40
0
 40
1
 40
1
 40
1
 40
1
 10
12.478062
 20
22.704031
 30
0.0
 10
13.401508
 20
24.504740
 30
0.0
 10
15.898982
 20
26.873524
 30
0.0
 10
17.776333
 20
27.729288
 30
0.0
  0
SPLINE
  5
115
100
AcDbEntity
  8
0
 62
7
100
AcDbSpline
 70
8
 71
3
 72
8
 73
4
 74
0
 40
0
 40
0
 40
0
 40
0
 40
1
 40
1
 40
1
 40
1
 10
17.776333
 20
27.729288
 30
0.0
 10
19.613708
 20
28.566834
 30
0.0
 10
21.729015
 20
29.159466
 30
0.0
 10
22.896629
 20
29.163809
 30
0.0
  0
SPLINE
  5
116
100
AcDbEntity
  8
0
 62
7
100
AcDbSpline
 70
8
 71
3
 72
8
 73
4
 74
0
 40
0
 40
0
 40
0
 40
0
 40
1
 40
1
 40
1
 40
1
 10
22.896629
 20
29.163809
 30
0.0
 10
24.433633
 20
29.169526
 30
0.0
 10
24.045299
 20
29.601971
 30
0.0
 10
21.711505
 20
30.483546
 30
0.0
  0
SPLINE
  5
117
100
AcDbEntity
  8
0
 62
7
100
AcDbSpline
 70
8
 71
3
 72
8
 73
4
 74
0
 40
0
 40
0
 40
0
 40
0
 40
1
 40
1
 40
1
 40
1
 10
21.711505
 20
30.483546
 30
0.0
 10
16.471178
 20
32.463045
 30
0.0
 10
13.968780
 20
34.191871
 30
0.0
 10
11.033294
 20
37.860776
 30
0.0
  0
SPLINE
  5
118
100
AcDbEntity
  8
0
 62
7
100
AcDbSpline
 70
8
 71
3
 72
8
 73
4
 74
0
 40
0
 40
0
 40
0
 40
0
 40
1
 40
1
 40
1
 40
1
 10
11.033294
 20
37.860776
 30
0.0
 10
8.764598
 20
40.696296
 30
0.0
 10
7.692350
 20
42.935550
 30
0.0
 10
7.012386
 20
46.257937
 30
0.0
  0
SPLINE
  5
119
100
AcDbEntity
  8
0
 62
7
100
AcDbSpline
 70
8
 71
3
 72
8
 73
4
 74
0
 40
0
 40
0
 40
0
 40
0
 40
1
 40
1
 40
1
 40
1
 10
7.012386
 20
46.257937
 30
0.0
 10
6.705985
 20
47.755051
 30
0.0
 10
6.524829
 20
49.049499
 30
0.0
 10
6.609817
 20
49.134488
 30
0.0
  0
SPLINE
  5
11a
100
AcDbEntity
  8
0
 62
7
100
AcDbSpline
 70
8
 71
3
 72
8
 73
4
 74
0
 40
0
 40
0
 40
0
 40
0
 40
1
 40
1
 40
1
 40
1
 10
6.609817
 20
49.134488
 30
0.0
 10
6.822693
 20
49.347363
 30
0.0
 10
12.942739
 20
45.825308
 30
0.0
 10
14.653887
 20
44.505166
 30
0.0
  0
SPLINE
  5
11b
100
AcDbEntity
  8
0
 62
7
100
AcDbSpline
 70
8
 71
3
 72
8
 73
4
 74
0
 40
0
 40
0
 40
0
 40
0
 40
1
 40
1
 40
1
 40
1
 10
14.653887
 20
44.505166
 30
0.0
 10
17.849379
 20
42.039861
 30
0.0
 10
20.662895
 20
39.068355
 30
0.0
 10
24.210325
 20
34.412094
 30
0.0
  0
LWPOLYLINE
  5
11c
100
AcDbEntity
  8
0
 62
7
100
AcDbPolyline
 90
1
 70
1
 10
24.834525
 20
6.478929
 30
0.0
  0
SPLINE
  5
11d
100
AcDbEntity
  8
0
 62
7
100
AcDbSpline
 70
8
 71
3
 72
8
 73
4
 74
0
 40
0
 40
0
 40
0
 40
0
 40
1
 40
1
 40
1
 40
1
 10
28.035377
 20
33.420534
 30
0.0
 10
28.130103
 20
35.649327
 30
0.0
 10
28.384238
 20
37.938074
 30
0.0
 10
28.646326
 20
38.922776
 30
0.0
  0
SPLINE
  5
11e
100
AcDbEntity
  8
0
 62
7
100
AcDbSpline
 70
8
 71
3
 72
8
 73
4
 74
0
 40
0
 40
0
 40
0
 40
0
 40
1
 40
1
 40
1
 40
1
 10
28.646326
 20
38.922776
 30
0.0
 10
29.597445
 20
42.496270
 30
0.0
 10
31.774127
 20
46.016102
 30
0.0
 10
34.841804
 20
48.941268
 30
0.0
  0
SPLINE
  5
11f
100
AcDbEntity
  8
0
 62
7
100
AcDbSpline
 70
8
 71
3
 72
8
 73
4
 74
0
 40
0
 40
0
 40
0
 40
0
 40
1
 40
1
 40
1
 40
1
 10
34.841804
 20
48.941268
 30
0.0
 10
37.526002
 20
51.500767
 30
0.0
 10
37.378450
 20
51.690785
 30
0.0
 10
37.176953
 20
45.934123
 30
0.0
  0
SPLINE
  5
120
100
AcDbEntity
  8
0
 62
7
100
AcDbSpline
 70
8
 71
3
 72
8
 73
4
 74
0
 40
0
 40
0
 40
0
 40
0
 40
1
 40
1
 40
1
 40
1
 10
37.176953
 20
45.934123
 30
0.0
 10
36.876686
 20
37.355622
 30
0.0
 10
35.801618
 20
33.382819
 30
0.0
 10
32.782833
 20
29.696116
 30
0.0
  0
SPLINE
  5
121
100
AcDbEntity
  8
0
 62
7
100
AcDbSpline
 70
8
 71
3
 72
8
 73
4
 74
0
 40
0
 40
0
 40
0
 40
0
 40
1
 40
1
 40
1
 40
1
 10
32.782833
 20
29.696116
 30
0.0
 10
31.299719
 20
27.884854
 30
0.0
 10
31.305079
 20
27.914038
 30
0.0
 10
32.221138
 20
26.638452
 30
0.0
  0
SPLINE
  5
122
100
AcDbEntity
  8
0
 62
7
100
AcDbSpline
 70
8
 71
3
 72
8
 73
4
 74
0
 40
0
 40
0
 40
0
 40
0
 40
1
 40
1
 40
1
 40
1
 10
32.221138
 20
26.638452
 30
0.0
 10
32.680034
 20
25.999448
 30
0.0
 10
33.376113
 20
24.788905
 30
0.0
 10
33.767985
 20
23.948353
 30
0.0
  0
SPLINE
  5
123
100
AcDbEntity
  8
0
 62
7
100
AcDbSpline
 70
8
 71
3
 72
8
 73
4
 74
0
 40
0
 40
0
 40
0
 40
0
 40
1
 40
1
 40
1
 40
1
 10
33.767985
 20
23.948353
 30
0.0
 10
34.416362
 20
22.557597
 30
0.0
 10
34.477349
 20
22.156603
 30
0.0
 10
34.445731
 20
19.492145
 30
0.0
  0
SPLINE
  5
124
100
AcDbEntity
  8
0
 62
7
100
AcDbSpline
 70
8
 71
3
 72
8
 73
4
 74
0
 40
0
 40
0
 40
0
 40
0
 40
1
 40
1
 40
1
 40
1
 10
34.445731
 20
19.492145
 30
0.0
 10
34.410872
 20
16.554529
 30
0.0
 10
33.886039
 20
13.694037
 30
0.0
 10
33.185849
 20
12.625409
 30
0.0
  0
SPLINE
  5
125
100
AcDbEntity
  8
0
 62
7
100
AcDbSpline
 70
8
 71
3
 72
8
 73
4
 74
0
 40
0
 40
0
 40
0
 40
0
 40
1
 40
1
 40
1
 40
1
 10
33.185849
 20
12.625409
 30
0.0
 10
32.792112
 20
12.024492
 30
0.0
 10
30.312029
 20
10.747319
 30
0.0
 10
27.247083
 20
9.567116
 30
0.0
  0
SPLINE
  5
126
100
AcDbEntity
  8
0
 62
7
100
AcDbSpline
 70
8
 71
3
 72
8
 73
4
 74
0
 40
0
 40
0
 40
0
 40
0
 40
1
 40
1
 40
1
 40
1
 10
27.247083
 20
9.567116
 30
0.0
 10
26.142868
 20
9.141920
 30
0.0
 10
25.206936
 20
8.794033
 30
0.0
 10
25.167238
 20
8.794033
 30
0.0
  0
SPLINE
  5
127
100
AcDbEntity
  8
0
 62
7
100
AcDbSpline
 70
8
 71
3
 72
8
 73
4
 74
0
 40
0
 40
0
 40
0
 40
0
 40
1
 40
1
 40
1
 40
1
 10
25.167238
 20
8.794033
 30
0.0
 10
25.127537
 20
8.794033
 30
0.0
 10
25.095057
 20
9.329814
 30
0.0
 10
25.095057
 20
9.984658
 30
0.0
  0
SPLINE
  5
128
100
AcDbEntity
  8
0
 62
7
100
AcDbSpline
 70
8
 71
3
 72
8
 73
4
 74
0
 40
0
 40
0
 40
0
 40
0
 40
1
 40
1
 40
1
 40
1
 10
25.095057
 20
9.984658
 30
0.0
 10
25.095057
 20
10.732109
 30
0.0
 10
24.977270
 20
11.175283
 30
0.0
 10
24.778610
 20
11.175283
 30
0.0
  0
SPLINE
  5
129
100
AcDbEntity
  8
0
 62
7
100
AcDbSpline
 70
8
 71
3
 72
8
 73
4
 74
0
 40
0
 40
0
 40
0
 40
0
 40
1
 40
1
 40
1
 40
1
 10
24.778610
 20
11.175283
 30
0.0
 10
24.604565
 20
11.175283
 30
0.0
 10
23.424793
 20
10.639502
 30
0.0
 10
22.156894
 20
9.984658
 30
0.0
  0
SPLINE
  5
12a
100
AcDbEntity
  8
0
 62
7
100
AcDbSpline
 70
8
 71
3
 72
8
 73
4
 74
0
 40
0
 40
0
 40
0
 40
0
 40
1
 40
1
 40
1
 40
1
 10
22.156894
 20
9.984658
 30
0.0
 10
20.888997
 20
9.329814
 30
0.0
 10
19.786838
 20
8.794033
 30
0.0
 10
19.707651
 20
8.794033
 30
0.0
  0
SPLINE
  5
12b
100
AcDbEntity
  8
0
 62
7
100
AcDbSpline
 70
8
 71
3
 72
8
 73
4
 74
0
 40
0
 40
0
 40
0
 40
0
 40
1
 40
1
 40
1
 40
1
 10
19.707651
 20
8.794033
 30
0.0
 10
19.628466
 20
8.794033
 30
0.0
 10
19.450238
 20
9.204889
 30
0.0
 10
19.311586
 20
9.707047
 30
0.0
  0
LWPOLYLINE
  5
12c
100
AcDbEntity
  8
0
 62
7
100
AcDbPolyline
 90
3
 70
0
 10
24.210325
 20
34.412094
 30
0.0
 10
27.873182
 20
29.604327
 30
0.0
 10
28.035377
 20
33.420534
 30
0.0
  0
SPLINE
  5
12d
100
AcDbEntity
  8
0
 62
7
100
AcDbSpline
 70
8
 71
3
 72
8
 73
4
 74
0
 40
0
 40
0
 40
0
 40
0
 40
1
 40
1
 40
1
 40
1
 10
19.803390
 20
22.552366
 30
0.0
 10
20.889349
 20
23.638325
 30
0.0
 10
20.159281
 20
25.462783
 30
0.0
 10
18.638769
 20
25.462783
 30
0.0
  0
SPLINE
  5
12e
100
AcDbEntity
  8
0
 62
7
100
AcDbSpline
 70
8
 71
3
 72
8
 73
4
 74
0
 40
0
 40
0
 40
0
 40
0
 40
1
 40
1
 40
1
 40
1
 10
18.638769
 20
25.462783
 30
0.0
 10
17.607465
 20
25.462783
 30
0.0
 10
16.826828
 20
24.721846
 30
0.0
 10
16.826828
 20
23.742991
 30
0.0
  0
SPLINE
  5
12f
100
AcDbEntity
  8
0
 62
7
100
AcDbSpline
 70
8
 71
3
 72
8
 73
4
 74
0
 40
0
 40
0
 40
0
 40
0
 40
1
 40
1
 40
1
 40
1
 10
16.826828
 20
23.742991
 30
0.0
 10
16.826828
 20
22.215597
 30
0.0
 10
18.712394
 20
21.461370
 30
0.0
 10
19.803390
 20
22.552366
 30
0.0
  0
LWPOLYLINE
  5
130
100
AcDbEntity
  8
0
 62
7
100
AcDbPolyline
 90
1
 70
1
 10
19.311586
 20
9.707047
 30
0.0
  0
LWPOLYLINE
  5
131
100
AcDbEntity
  8
0
 62
7
100
AcDbPolyline
 90
1
 70
1
 10
19.803390
 20
22.552366
 30
0.0
  0
ENDSEC
  0
SECTION
  2
OBJECTS
  0
DICTIONARY
  5
C
330
0
100
AcDbDictionary
  3
ACAD_GROUP
350
D
  3
ACAD_MLINESTYLE
350
17
  0
DICTIONARY
  5
D
330
C
100
AcDbDictionary
  0
DICTIONARY
  5
1A
330
C
100
AcDbDictionary
  0
DICTIONARY
  5
17
330
C
100
AcDbDictionary
  3
STANDARD
350
18
  0
DICTIONARY
  5
19
330
C
100
AcDbDictionary
  0
ENDSEC
  0
EOF
