  0
SECTION
  2
HEADER
  9
$ACADVER
  1
AC1009
  9
$EXTMIN
  10
 0.000000
  20
 0.000000
  30
 0.000000
  9
$EXTMAX
  10
 323.000000
  20
 215.000000
  30
 0.000000
  0
ENDSEC
  0
SECTION
  2
TABLES
  0
TABLE
  2
LAYER
  70
     2048
  0
LAYER
  2
0
  70
    0
  62
     7
  6
CONTINUOUS
  0
LAYER
   2
C19
  70
     64
  62
19
  6
CONTINUOUS
  0
LAYER
   2
C41
  70
     64
  62
41
  6
CONTINUOUS
  0
ENDTAB
  0
ENDSEC
  0
SECTION
  2
ENTITIES
  0
POLYLINE
  8
C19
  66
1
  10
0.000000
  20
215.000000
  0
VERTEX
  8
C19
  10
0.000000
  20
215.000000
  0
SEQEND
  8
C19
  0
POLYLINE
  8
C19
  66
1
  10
0.000000
  20
215.000000
  0
VERTEX
  8
C19
  10
0.000000
  20
215.000000
  0
VERTEX
  8
C19
  10
0.000000
  20
0.000000
  0
VERTEX
  8
C19
  10
323.000000
  20
0.000000
  0
VERTEX
  8
C19
  10
323.000000
  20
215.000000
  0
VERTEX
  8
C19
  10
0.000000
  20
215.000000
  0
SEQEND
  8
C41
  0
POLYLINE
  8
C41
  66
1
  10
76.000000
  20
129.000000
  0
VERTEX
  8
C41
  10
76.000000
  20
129.000000
  0
VERTEX
  8
C41
  10
36.000000
  20
129.000000
  0
VERTEX
  8
C41
  10
36.000000
  20
110.000000
  0
VERTEX
  8
C41
  10
68.000000
  20
110.000000
  0
VERTEX
  8
C41
  10
68.979700
  20
109.993500
  0
VERTEX
  8
C41
  10
69.969900
  20
109.976300
  0
VERTEX
  8
C41
  10
70.969100
  20
109.951600
  0
VERTEX
  8
C41
  10
71.975600
  20
109.922900
  0
VERTEX
  8
C41
  10
72.988100
  20
109.893300
  0
VERTEX
  8
C41
  10
74.005000
  20
109.866300
  0
VERTEX
  8
C41
  10
75.024700
  20
109.845000
  0
VERTEX
  8
C41
  10
76.045800
  20
109.832900
  0
VERTEX
  8
C41
  10
77.066800
  20
109.833300
  0
VERTEX
  8
C41
  10
78.086100
  20
109.849400
  0
VERTEX
  8
C41
  10
79.102300
  20
109.884500
  0
VERTEX
  8
C41
  10
80.113800
  20
109.942100
  0
VERTEX
  8
C41
  10
81.119100
  20
110.025300
  0
VERTEX
  8
C41
  10
82.116700
  20
110.137600
  0
VERTEX
  8
C41
  10
83.105100
  20
110.282100
  0
VERTEX
  8
C41
  10
84.082800
  20
110.462300
  0
VERTEX
  8
C41
  10
85.048300
  20
110.681500
  0
VERTEX
  8
C41
  10
86.000000
  20
110.942900
  0
VERTEX
  8
C41
  10
86.881000
  20
111.237700
  0
VERTEX
  8
C41
  10
87.732500
  20
111.582900
  0
VERTEX
  8
C41
  10
88.553700
  20
111.976300
  0
VERTEX
  8
C41
  10
89.343600
  20
112.415700
  0
VERTEX
  8
C41
  10
90.101300
  20
112.899000
  0
VERTEX
  8
C41
  10
90.825900
  20
113.423900
  0
VERTEX
  8
C41
  10
91.516600
  20
113.988300
  0
VERTEX
  8
C41
  10
92.172300
  20
114.590100
  0
VERTEX
  8
C41
  10
92.792200
  20
115.227000
  0
VERTEX
  8
C41
  10
93.375300
  20
115.896900
  0
VERTEX
  8
C41
  10
93.920900
  20
116.597600
  0
VERTEX
  8
C41
  10
94.427900
  20
117.326900
  0
VERTEX
  8
C41
  10
94.895400
  20
118.082700
  0
VERTEX
  8
C41
  10
95.322600
  20
118.862800
  0
VERTEX
  8
C41
  10
95.708600
  20
119.664900
  0
VERTEX
  8
C41
  10
96.052400
  20
120.487100
  0
VERTEX
  8
C41
  10
96.353100
  20
121.326900
  0
VERTEX
  8
C41
  10
96.609800
  20
122.182400
  0
VERTEX
  8
C41
  10
96.821700
  20
123.051300
  0
VERTEX
  8
C41
  10
96.987800
  20
123.931400
  0
VERTEX
  8
C41
  10
97.107200
  20
124.820600
  0
VERTEX
  8
C41
  10
97.178900
  20
125.716700
  0
VERTEX
  8
C41
  10
97.202200
  20
126.617500
  0
VERTEX
  8
C41
  10
97.176000
  20
127.520900
  0
VERTEX
  8
C41
  10
97.099500
  20
128.424700
  0
VERTEX
  8
C41
  10
96.971800
  20
129.326600
  0
VERTEX
  8
C41
  10
96.792000
  20
130.224600
  0
VERTEX
  8
C41
  10
96.559100
  20
131.116400
  0
VERTEX
  8
C41
  10
96.272300
  20
132.000000
  0
VERTEX
  8
C41
  10
95.923700
  20
132.891000
  0
VERTEX
  8
C41
  10
95.525400
  20
133.762800
  0
VERTEX
  8
C41
  10
95.081800
  20
134.617100
  0
VERTEX
  8
C41
  10
94.597500
  20
135.455500
  0
VERTEX
  8
C41
  10
94.077000
  20
136.279400
  0
VERTEX
  8
C41
  10
93.524800
  20
137.090600
  0
VERTEX
  8
C41
  10
92.945500
  20
137.890700
  0
VERTEX
  8
C41
  10
92.343500
  20
138.681100
  0
VERTEX
  8
C41
  10
91.723400
  20
139.463600
  0
VERTEX
  8
C41
  10
91.089700
  20
140.239700
  0
VERTEX
  8
C41
  10
90.446900
  20
141.010900
  0
VERTEX
  8
C41
  10
89.799600
  20
141.779000
  0
VERTEX
  8
C41
  10
89.152200
  20
142.545500
  0
VERTEX
  8
C41
  10
88.509400
  20
143.311900
  0
VERTEX
  8
C41
  10
87.875500
  20
144.080000
  0
VERTEX
  8
C41
  10
87.255300
  20
144.851200
  0
VERTEX
  8
C41
  10
86.653000
  20
145.627300
  0
VERTEX
  8
C41
  10
86.073400
  20
146.409700
  0
VERTEX
  8
C41
  10
85.520900
  20
147.200000
  0
VERTEX
  8
C41
  10
85.000000
  20
148.000000
  0
VERTEX
  8
C41
  10
113.000000
  20
148.000000
  0
VERTEX
  8
C41
  10
113.000000
  20
110.000000
  0
VERTEX
  8
C41
  10
132.000000
  20
110.000000
  0
VERTEX
  8
C41
  10
132.000000
  20
148.000000
  0
VERTEX
  8
C41
  10
153.000000
  20
148.000000
  0
VERTEX
  8
C41
  10
153.000000
  20
166.000000
  0
VERTEX
  8
C41
  10
100.000000
  20
166.000000
  0
VERTEX
  8
C41
  10
99.069900
  20
166.007400
  0
VERTEX
  8
C41
  10
98.120300
  20
166.028300
  0
VERTEX
  8
C41
  10
97.152700
  20
166.060600
  0
VERTEX
  8
C41
  10
96.169100
  20
166.102500
  0
VERTEX
  8
C41
  10
95.171000
  20
166.151800
  0
VERTEX
  8
C41
  10
94.160300
  20
166.206500
  0
VERTEX
  8
C41
  10
93.138700
  20
166.264700
  0
VERTEX
  8
C41
  10
92.108100
  20
166.324300
  0
VERTEX
  8
C41
  10
91.070000
  20
166.383300
  0
VERTEX
  8
C41
  10
90.026400
  20
166.439700
  0
VERTEX
  8
C41
  10
88.978900
  20
166.491500
  0
VERTEX
  8
C41
  10
87.929400
  20
166.536600
  0
VERTEX
  8
C41
  10
86.879500
  20
166.573200
  0
VERTEX
  8
C41
  10
85.831000
  20
166.599100
  0
VERTEX
  8
C41
  10
84.785700
  20
166.612300
  0
VERTEX
  8
C41
  10
83.745400
  20
166.610800
  0
VERTEX
  8
C41
  10
82.711700
  20
166.592700
  0
VERTEX
  8
C41
  10
81.686500
  20
166.555900
  0
VERTEX
  8
C41
  10
80.671500
  20
166.498400
  0
VERTEX
  8
C41
  10
79.668500
  20
166.418100
  0
VERTEX
  8
C41
  10
78.679200
  20
166.313200
  0
VERTEX
  8
C41
  10
77.705400
  20
166.181500
  0
VERTEX
  8
C41
  10
76.748800
  20
166.021100
  0
VERTEX
  8
C41
  10
75.811200
  20
165.829900
  0
VERTEX
  8
C41
  10
74.894300
  20
165.605900
  0
VERTEX
  8
C41
  10
74.000000
  20
165.347200
  0
VERTEX
  8
C41
  10
73.063700
  20
165.013800
  0
VERTEX
  8
C41
  10
72.156900
  20
164.613600
  0
VERTEX
  8
C41
  10
71.280700
  20
164.151500
  0
VERTEX
  8
C41
  10
70.436300
  20
163.632700
  0
VERTEX
  8
C41
  10
69.624700
  20
163.062100
  0
VERTEX
  8
C41
  10
68.847200
  20
162.444900
  0
VERTEX
  8
C41
  10
68.104900
  20
161.786200
  0
VERTEX
  8
C41
  10
67.344700
  20
161.040200
  0
VERTEX
  8
C41
  10
66.651600
  20
160.289300
  0
VERTEX
  8
C41
  10
66.024000
  20
159.533800
  0
VERTEX
  8
C41
  10
65.460100
  20
158.774100
  0
VERTEX
  8
C41
  10
64.958200
  20
158.010600
  0
VERTEX
  8
C41
  10
64.516600
  20
157.243600
  0
VERTEX
  8
C41
  10
64.133600
  20
156.473700
  0
VERTEX
  8
C41
  10
63.807400
  20
155.701200
  0
VERTEX
  8
C41
  10
63.536300
  20
154.926600
  0
VERTEX
  8
C41
  10
63.318600
  20
154.150100
  0
VERTEX
  8
C41
  10
63.152600
  20
153.372300
  0
VERTEX
  8
C41
  10
63.036600
  20
152.593500
  0
VERTEX
  8
C41
  10
62.968900
  20
151.814200
  0
VERTEX
  8
C41
  10
62.947700
  20
151.034700
  0
VERTEX
  8
C41
  10
62.971300
  20
150.255500
  0
VERTEX
  8
C41
  10
63.038000
  20
149.476900
  0
VERTEX
  8
C41
  10
63.146100
  20
148.699300
  0
VERTEX
  8
C41
  10
63.293800
  20
147.923300
  0
VERTEX
  8
C41
  10
63.479600
  20
147.149100
  0
VERTEX
  8
C41
  10
63.701500
  20
146.377100
  0
VERTEX
  8
C41
  10
63.957900
  20
145.607900
  0
VERTEX
  8
C41
  10
64.247200
  20
144.841700
  0
VERTEX
  8
C41
  10
64.567500
  20
144.079000
  0
VERTEX
  8
C41
  10
64.917200
  20
143.320200
  0
VERTEX
  8
C41
  10
65.294500
  20
142.565600
  0
VERTEX
  8
C41
  10
65.697700
  20
141.815800
  0
VERTEX
  8
C41
  10
66.125200
  20
141.071100
  0
VERTEX
  8
C41
  10
66.575100
  20
140.331900
  0
VERTEX
  8
C41
  10
67.045800
  20
139.598600
  0
VERTEX
  8
C41
  10
67.535600
  20
138.871600
  0
VERTEX
  8
C41
  10
68.042700
  20
138.151400
  0
VERTEX
  8
C41
  10
68.565400
  20
137.438200
  0
VERTEX
  8
C41
  10
69.102000
  20
136.732600
  0
VERTEX
  8
C41
  10
69.650800
  20
136.035000
  0
VERTEX
  8
C41
  10
70.210000
  20
135.345600
  0
VERTEX
  8
C41
  10
70.778000
  20
134.665000
  0
VERTEX
  8
C41
  10
71.353000
  20
133.993600
  0
VERTEX
  8
C41
  10
71.933300
  20
133.331700
  0
VERTEX
  8
C41
  10
72.517300
  20
132.679800
  0
VERTEX
  8
C41
  10
73.103000
  20
132.038200
  0
VERTEX
  8
C41
  10
73.689000
  20
131.407400
  0
VERTEX
  8
C41
  10
74.273400
  20
130.787800
  0
VERTEX
  8
C41
  10
74.854500
  20
130.179700
  0
VERTEX
  8
C41
  10
75.430600
  20
129.583600
  0
VERTEX
  8
C41
  10
76.000000
  20
129.000000
  0
SEQEND
  8
C41
  0
POLYLINE
  8
C41
  66
1
  10
151.000000
  20
110.000000
  0
VERTEX
  8
C41
  10
151.000000
  20
110.000000
  0
VERTEX
  8
C41
  10
151.845100
  20
109.991200
  0
VERTEX
  8
C41
  10
152.702600
  20
109.967200
  0
VERTEX
  8
C41
  10
153.569800
  20
109.931800
  0
VERTEX
  8
C41
  10
154.444100
  20
109.888600
  0
VERTEX
  8
C41
  10
155.322900
  20
109.841100
  0
VERTEX
  8
C41
  10
156.203500
  20
109.793200
  0
VERTEX
  8
C41
  10
157.083200
  20
109.748400
  0
VERTEX
  8
C41
  10
157.959400
  20
109.710400
  0
VERTEX
  8
C41
  10
158.829500
  20
109.682900
  0
VERTEX
  8
C41
  10
159.690800
  20
109.669500
  0
VERTEX
  8
C41
  10
160.540700
  20
109.673900
  0
VERTEX
  8
C41
  10
161.376600
  20
109.699700
  0
VERTEX
  8
C41
  10
162.195700
  20
109.750600
  0
VERTEX
  8
C41
  10
162.995400
  20
109.830300
  0
VERTEX
  8
C41
  10
163.773100
  20
109.942300
  0
VERTEX
  8
C41
  10
164.526200
  20
110.090500
  0
VERTEX
  8
C41
  10
165.252000
  20
110.278300
  0
VERTEX
  8
C41
  10
165.947900
  20
110.509600
  0
VERTEX
  8
C41
  10
166.611200
  20
110.787900
  0
VERTEX
  8
C41
  10
167.239200
  20
111.116900
  0
VERTEX
  8
C41
  10
167.829300
  20
111.500200
  0
VERTEX
  8
C41
  10
168.379000
  20
111.941600
  0
VERTEX
  8
C41
  10
168.885500
  20
112.444600
  0
VERTEX
  8
C41
  10
169.346100
  20
113.013000
  0
VERTEX
  8
C41
  10
169.758300
  20
113.650300
  0
VERTEX
  8
C41
  10
170.119400
  20
114.360300
  0
VERTEX
  8
C41
  10
170.426800
  20
115.146600
  0
VERTEX
  8
C41
  10
170.677800
  20
116.012900
  0
VERTEX
  8
C41
  10
170.869700
  20
116.962800
  0
VERTEX
  8
C41
  10
171.000000
  20
118.000000
  0
VERTEX
  8
C41
  10
171.829000
  20
118.015200
  0
VERTEX
  8
C41
  10
172.726000
  20
118.056300
  0
VERTEX
  8
C41
  10
173.680900
  20
118.116100
  0
VERTEX
  8
C41
  10
174.683800
  20
118.187600
  0
VERTEX
  8
C41
  10
175.724700
  20
118.263800
  0
VERTEX
  8
C41
  10
176.793700
  20
118.337600
  0
VERTEX
  8
C41
  10
177.881000
  20
118.401900
  0
VERTEX
  8
C41
  10
178.976500
  20
118.449600
  0
VERTEX
  8
C41
  10
180.070200
  20
118.473900
  0
VERTEX
  8
C41
  10
181.152400
  20
118.467400
  0
VERTEX
  8
C41
  10
182.213000
  20
118.423300
  0
VERTEX
  8
C41
  10
183.242000
  20
118.334500
  0
VERTEX
  8
C41
  10
184.229700
  20
118.193800
  0
VERTEX
  8
C41
  10
185.165900
  20
117.994300
  0
VERTEX
  8
C41
  10
186.040900
  20
117.728900
  0
VERTEX
  8
C41
  10
186.844600
  20
117.390500
  0
VERTEX
  8
C41
  10
187.567100
  20
116.972200
  0
VERTEX
  8
C41
  10
188.274300
  20
116.376500
  0
VERTEX
  8
C41
  10
188.837000
  20
115.686700
  0
VERTEX
  8
C41
  10
189.297000
  20
114.932200
  0
VERTEX
  8
C41
  10
189.696100
  20
114.142500
  0
VERTEX
  8
C41
  10
190.075900
  20
113.347100
  0
VERTEX
  8
C41
  10
190.478200
  20
112.575600
  0
VERTEX
  8
C41
  10
190.944700
  20
111.857400
  0
VERTEX
  8
C41
  10
191.517200
  20
111.222000
  0
VERTEX
  8
C41
  10
192.237500
  20
110.699000
  0
VERTEX
  8
C41
  10
193.147300
  20
110.317900
  0
VERTEX
  8
C41
  10
194.044900
  20
110.086200
  0
VERTEX
  8
C41
  10
194.975400
  20
109.906900
  0
VERTEX
  8
C41
  10
195.934600
  20
109.774600
  0
VERTEX
  8
C41
  10
196.918000
  20
109.684300
  0
VERTEX
  8
C41
  10
197.921100
  20
109.630900
  0
VERTEX
  8
C41
  10
198.939600
  20
109.609100
  0
VERTEX
  8
C41
  10
199.969100
  20
109.613800
  0
VERTEX
  8
C41
  10
201.005100
  20
109.639900
  0
VERTEX
  8
C41
  10
202.043200
  20
109.682300
  0
VERTEX
  8
C41
  10
203.079100
  20
109.735600
  0
VERTEX
  8
C41
  10
204.108300
  20
109.794900
  0
VERTEX
  8
C41
  10
205.126400
  20
109.855000
  0
VERTEX
  8
C41
  10
206.129000
  20
109.910700
  0
VERTEX
  8
C41
  10
207.111800
  20
109.956800
  0
VERTEX
  8
C41
  10
208.070200
  20
109.988300
  0
VERTEX
  8
C41
  10
209.000000
  20
110.000000
  0
VERTEX
  8
C41
  10
208.949400
  20
110.981300
  0
VERTEX
  8
C41
  10
208.883600
  20
111.961100
  0
VERTEX
  8
C41
  10
208.803200
  20
112.939500
  0
VERTEX
  8
C41
  10
208.708600
  20
113.916400
  0
VERTEX
  8
C41
  10
208.600400
  20
114.892000
  0
VERTEX
  8
C41
  10
208.479200
  20
115.866300
  0
VERTEX
  8
C41
  10
208.345300
  20
116.839400
  0
VERTEX
  8
C41
  10
208.199400
  20
117.811200
  0
VERTEX
  8
C41
  10
208.041900
  20
118.781900
  0
VERTEX
  8
C41
  10
207.873400
  20
119.751500
  0
VERTEX
  8
C41
  10
207.694400
  20
120.720100
  0
VERTEX
  8
C41
  10
207.505500
  20
121.687600
  0
VERTEX
  8
C41
  10
207.307000
  20
122.654200
  0
VERTEX
  8
C41
  10
207.099600
  20
123.619900
  0
VERTEX
  8
C41
  10
206.883800
  20
124.584800
  0
VERTEX
  8
C41
  10
206.660100
  20
125.548900
  0
VERTEX
  8
C41
  10
206.429000
  20
126.512200
  0
VERTEX
  8
C41
  10
206.191000
  20
127.474900
  0
VERTEX
  8
C41
  10
205.946700
  20
128.436900
  0
VERTEX
  8
C41
  10
205.696500
  20
129.398300
  0
VERTEX
  8
C41
  10
205.441000
  20
130.359200
  0
VERTEX
  8
C41
  10
205.180800
  20
131.319600
  0
VERTEX
  8
C41
  10
204.916200
  20
132.279500
  0
VERTEX
  8
C41
  10
204.647900
  20
133.239100
  0
VERTEX
  8
C41
  10
204.376400
  20
134.198300
  0
VERTEX
  8
C41
  10
204.102200
  20
135.157300
  0
VERTEX
  8
C41
  10
203.825700
  20
136.116000
  0
VERTEX
  8
C41
  10
203.547600
  20
137.074500
  0
VERTEX
  8
C41
  10
203.268300
  20
138.033000
  0
VERTEX
  8
C41
  10
202.988400
  20
138.991300
  0
VERTEX
  8
C41
  10
202.708400
  20
139.949600
  0
VERTEX
  8
C41
  10
202.428800
  20
140.907900
  0
VERTEX
  8
C41
  10
202.150100
  20
141.866300
  0
VERTEX
  8
C41
  10
201.872800
  20
142.824900
  0
VERTEX
  8
C41
  10
201.597500
  20
143.783600
  0
VERTEX
  8
C41
  10
201.324600
  20
144.742500
  0
VERTEX
  8
C41
  10
201.054800
  20
145.701700
  0
VERTEX
  8
C41
  10
200.788500
  20
146.661300
  0
VERTEX
  8
C41
  10
200.526200
  20
147.621200
  0
VERTEX
  8
C41
  10
200.268400
  20
148.581500
  0
VERTEX
  8
C41
  10
200.015800
  20
149.542400
  0
VERTEX
  8
C41
  10
199.768700
  20
150.503800
  0
VERTEX
  8
C41
  10
199.527800
  20
151.465700
  0
VERTEX
  8
C41
  10
199.293400
  20
152.428300
  0
VERTEX
  8
C41
  10
199.066300
  20
153.391600
  0
VERTEX
  8
C41
  10
198.846800
  20
154.355600
  0
VERTEX
  8
C41
  10
198.635400
  20
155.320400
  0
VERTEX
  8
C41
  10
198.432800
  20
156.286100
  0
VERTEX
  8
C41
  10
198.239400
  20
157.252600
  0
VERTEX
  8
C41
  10
198.055800
  20
158.220100
  0
VERTEX
  8
C41
  10
197.882400
  20
159.188500
  0
VERTEX
  8
C41
  10
197.719900
  20
160.158100
  0
VERTEX
  8
C41
  10
197.568600
  20
161.128700
  0
VERTEX
  8
C41
  10
197.429100
  20
162.100400
  0
VERTEX
  8
C41
  10
197.302000
  20
163.073400
  0
VERTEX
  8
C41
  10
197.187800
  20
164.047600
  0
VERTEX
  8
C41
  10
197.086900
  20
165.023100
  0
VERTEX
  8
C41
  10
197.000000
  20
166.000000
  0
VERTEX
  8
C41
  10
174.000000
  20
166.000000
  0
VERTEX
  8
C41
  10
173.052400
  20
166.023500
  0
VERTEX
  8
C41
  10
172.012700
  20
166.076300
  0
VERTEX
  8
C41
  10
170.911600
  20
166.130900
  0
VERTEX
  8
C41
  10
169.779800
  20
166.160200
  0
VERTEX
  8
C41
  10
168.648200
  20
166.136900
  0
VERTEX
  8
C41
  10
167.547500
  20
166.033600
  0
VERTEX
  8
C41
  10
166.508500
  20
165.823300
  0
VERTEX
  8
C41
  10
165.561800
  20
165.478500
  0
VERTEX
  8
C41
  10
164.738400
  20
164.972200
  0
VERTEX
  8
C41
  10
164.150000
  20
164.413200
  0
VERTEX
  8
C41
  10
163.625400
  20
163.733300
  0
VERTEX
  8
C41
  10
163.159400
  20
162.947700
  0
VERTEX
  8
C41
  10
162.747100
  20
162.071400
  0
VERTEX
  8
C41
  10
162.383100
  20
161.119500
  0
VERTEX
  8
C41
  10
162.062600
  20
160.107400
  0
VERTEX
  8
C41
  10
161.780200
  20
159.050000
  0
VERTEX
  8
C41
  10
161.530900
  20
157.962600
  0
VERTEX
  8
C41
  10
161.309700
  20
156.860300
  0
VERTEX
  8
C41
  10
161.111300
  20
155.758300
  0
VERTEX
  8
C41
  10
160.930800
  20
154.671700
  0
VERTEX
  8
C41
  10
160.762800
  20
153.615600
  0
VERTEX
  8
C41
  10
160.602500
  20
152.605300
  0
VERTEX
  8
C41
  10
160.444600
  20
151.655800
  0
VERTEX
  8
C41
  10
160.284000
  20
150.782300
  0
VERTEX
  8
C41
  10
160.115700
  20
150.000000
  0
VERTEX
  8
C41
  10
159.885200
  20
149.043100
  0
VERTEX
  8
C41
  10
159.648700
  20
148.084600
  0
VERTEX
  8
C41
  10
159.406600
  20
147.124600
  0
VERTEX
  8
C41
  10
159.159400
  20
146.163200
  0
VERTEX
  8
C41
  10
158.907700
  20
145.200300
  0
VERTEX
  8
C41
  10
158.651900
  20
144.236000
  0
VERTEX
  8
C41
  10
158.392600
  20
143.270400
  0
VERTEX
  8
C41
  10
158.130100
  20
142.303600
  0
VERTEX
  8
C41
  10
157.865100
  20
141.335500
  0
VERTEX
  8
C41
  10
157.598100
  20
140.366200
  0
VERTEX
  8
C41
  10
157.329400
  20
139.395800
  0
VERTEX
  8
C41
  10
157.059700
  20
138.424300
  0
VERTEX
  8
C41
  10
156.789300
  20
137.451700
  0
VERTEX
  8
C41
  10
156.518900
  20
136.478200
  0
VERTEX
  8
C41
  10
156.248900
  20
135.503800
  0
VERTEX
  8
C41
  10
155.979800
  20
134.528400
  0
VERTEX
  8
C41
  10
155.712000
  20
133.552200
  0
VERTEX
  8
C41
  10
155.446200
  20
132.575300
  0
VERTEX
  8
C41
  10
155.182800
  20
131.597500
  0
VERTEX
  8
C41
  10
154.922300
  20
130.619100
  0
VERTEX
  8
C41
  10
154.665100
  20
129.640100
  0
VERTEX
  8
C41
  10
154.411900
  20
128.660500
  0
VERTEX
  8
C41
  10
154.163000
  20
127.680300
  0
VERTEX
  8
C41
  10
153.919000
  20
126.699600
  0
VERTEX
  8
C41
  10
153.680400
  20
125.718500
  0
VERTEX
  8
C41
  10
153.447700
  20
124.737000
  0
VERTEX
  8
C41
  10
153.221300
  20
123.755100
  0
VERTEX
  8
C41
  10
153.001900
  20
122.772900
  0
VERTEX
  8
C41
  10
152.789700
  20
121.790500
  0
VERTEX
  8
C41
  10
152.585500
  20
120.807900
  0
VERTEX
  8
C41
  10
152.389600
  20
119.825100
  0
VERTEX
  8
C41
  10
152.202600
  20
118.842300
  0
VERTEX
  8
C41
  10
152.024900
  20
117.859400
  0
VERTEX
  8
C41
  10
151.857100
  20
116.876400
  0
VERTEX
  8
C41
  10
151.699600
  20
115.893500
  0
VERTEX
  8
C41
  10
151.553000
  20
114.910800
  0
VERTEX
  8
C41
  10
151.417700
  20
113.928100
  0
VERTEX
  8
C41
  10
151.294200
  20
112.945700
  0
VERTEX
  8
C41
  10
151.183100
  20
111.963500
  0
VERTEX
  8
C41
  10
151.084900
  20
110.981500
  0
VERTEX
  8
C41
  10
151.000000
  20
110.000000
  0
SEQEND
  8
C41
  0
POLYLINE
  8
C41
  66
1
  10
212.000000
  20
166.000000
  0
VERTEX
  8
C41
  10
212.000000
  20
166.000000
  0
VERTEX
  8
C41
  10
212.000000
  20
110.000000
  0
VERTEX
  8
C41
  10
231.000000
  20
110.000000
  0
VERTEX
  8
C41
  10
231.000000
  20
128.000000
  0
VERTEX
  8
C41
  10
231.680400
  20
127.309500
  0
VERTEX
  8
C41
  10
232.363100
  20
126.599000
  0
VERTEX
  8
C41
  10
233.048700
  20
125.871100
  0
VERTEX
  8
C41
  10
233.737500
  20
125.128700
  0
VERTEX
  8
C41
  10
234.430200
  20
124.374400
  0
VERTEX
  8
C41
  10
235.127200
  20
123.611000
  0
VERTEX
  8
C41
  10
235.829100
  20
122.841400
  0
VERTEX
  8
C41
  10
236.536300
  20
122.068100
  0
VERTEX
  8
C41
  10
237.249400
  20
121.294100
  0
VERTEX
  8
C41
  10
237.968900
  20
120.521900
  0
VERTEX
  8
C41
  10
238.695300
  20
119.754500
  0
VERTEX
  8
C41
  10
239.429100
  20
118.994500
  0
VERTEX
  8
C41
  10
240.170800
  20
118.244700
  0
VERTEX
  8
C41
  10
240.921000
  20
117.507800
  0
VERTEX
  8
C41
  10
241.680100
  20
116.786700
  0
VERTEX
  8
C41
  10
242.448800
  20
116.083900
  0
VERTEX
  8
C41
  10
243.227300
  20
115.402400
  0
VERTEX
  8
C41
  10
244.016400
  20
114.744900
  0
VERTEX
  8
C41
  10
244.816500
  20
114.114000
  0
VERTEX
  8
C41
  10
245.628100
  20
113.512600
  0
VERTEX
  8
C41
  10
246.451700
  20
112.943400
  0
VERTEX
  8
C41
  10
247.287900
  20
112.409200
  0
VERTEX
  8
C41
  10
248.137100
  20
111.912700
  0
VERTEX
  8
C41
  10
249.000000
  20
111.456700
  0
VERTEX
  8
C41
  10
249.928900
  20
111.041900
  0
VERTEX
  8
C41
  10
250.881700
  20
110.708000
  0
VERTEX
  8
C41
  10
251.855000
  20
110.446700
  0
VERTEX
  8
C41
  10
252.845500
  20
110.249700
  0
VERTEX
  8
C41
  10
253.850100
  20
110.108700
  0
VERTEX
  8
C41
  10
254.865400
  20
110.015400
  0
VERTEX
  8
C41
  10
255.888200
  20
109.961500
  0
VERTEX
  8
C41
  10
256.915200
  20
109.938600
  0
VERTEX
  8
C41
  10
257.943200
  20
109.938600
  0
VERTEX
  8
C41
  10
258.969000
  20
109.953000
  0
VERTEX
  8
C41
  10
259.989200
  20
109.973500
  0
VERTEX
  8
C41
  10
261.000600
  20
109.992000
  0
VERTEX
  8
C41
  10
262.000000
  20
110.000000
  0
VERTEX
  8
C41
  10
287.000000
  20
110.000000
  0
VERTEX
  8
C41
  10
287.000000
  20
129.000000
  0
VERTEX
  8
C41
  10
286.027700
  20
128.996100
  0
VERTEX
  8
C41
  10
285.049100
  20
128.985000
  0
VERTEX
  8
C41
  10
284.064500
  20
128.967600
  0
VERTEX
  8
C41
  10
283.074300
  20
128.944700
  0
VERTEX
  8
C41
  10
282.079000
  20
128.917300
  0
VERTEX
  8
C41
  10
281.079100
  20
128.886100
  0
VERTEX
  8
C41
  10
280.075000
  20
128.852000
  0
VERTEX
  8
C41
  10
279.067200
  20
128.816000
  0
VERTEX
  8
C41
  10
278.056000
  20
128.778800
  0
VERTEX
  8
C41
  10
277.041900
  20
128.741300
  0
VERTEX
  8
C41
  10
276.025400
  20
128.704300
  0
VERTEX
  8
C41
  10
275.007000
  20
128.668800
  0
VERTEX
  8
C41
  10
273.987000
  20
128.635700
  0
VERTEX
  8
C41
  10
272.965900
  20
128.605700
  0
VERTEX
  8
C41
  10
271.944100
  20
128.579700
  0
VERTEX
  8
C41
  10
270.922200
  20
128.558600
  0
VERTEX
  8
C41
  10
269.900500
  20
128.543300
  0
VERTEX
  8
C41
  10
268.879500
  20
128.534600
  0
VERTEX
  8
C41
  10
267.859600
  20
128.533400
  0
VERTEX
  8
C41
  10
266.841300
  20
128.540500
  0
VERTEX
  8
C41
  10
265.825100
  20
128.556800
  0
VERTEX
  8
C41
  10
264.811200
  20
128.583200
  0
VERTEX
  8
C41
  10
263.800400
  20
128.620600
  0
VERTEX
  8
C41
  10
262.792800
  20
128.669700
  0
VERTEX
  8
C41
  10
261.789100
  20
128.731500
  0
VERTEX
  8
C41
  10
260.789600
  20
128.806900
  0
VERTEX
  8
C41
  10
259.794800
  20
128.896600
  0
VERTEX
  8
C41
  10
258.805100
  20
129.001500
  0
VERTEX
  8
C41
  10
257.821100
  20
129.122600
  0
VERTEX
  8
C41
  10
256.843000
  20
129.260700
  0
VERTEX
  8
C41
  10
255.871400
  20
129.416600
  0
VERTEX
  8
C41
  10
254.906800
  20
129.591200
  0
VERTEX
  8
C41
  10
253.949500
  20
129.785400
  0
VERTEX
  8
C41
  10
253.000000
  20
130.000000
  0
VERTEX
  8
C41
  10
253.788200
  20
130.618100
  0
VERTEX
  8
C41
  10
254.588300
  20
131.233300
  0
VERTEX
  8
C41
  10
255.394300
  20
131.850000
  0
VERTEX
  8
C41
  10
256.200000
  20
132.472400
  0
VERTEX
  8
C41
  10
256.999200
  20
133.104800
  0
VERTEX
  8
C41
  10
257.786000
  20
133.751500
  0
VERTEX
  8
C41
  10
258.554200
  20
134.416800
  0
VERTEX
  8
C41
  10
259.297700
  20
135.105000
  0
VERTEX
  8
C41
  10
260.010400
  20
135.820300
  0
VERTEX
  8
C41
  10
260.686300
  20
136.567100
  0
VERTEX
  8
C41
  10
261.319100
  20
137.349700
  0
VERTEX
  8
C41
  10
261.902800
  20
138.172300
  0
VERTEX
  8
C41
  10
262.431300
  20
139.039300
  0
VERTEX
  8
C41
  10
262.876000
  20
139.881800
  0
VERTEX
  8
C41
  10
263.273700
  20
140.735600
  0
VERTEX
  8
C41
  10
263.624700
  20
141.599200
  0
VERTEX
  8
C41
  10
263.929500
  20
142.470900
  0
VERTEX
  8
C41
  10
264.188700
  20
143.349100
  0
VERTEX
  8
C41
  10
264.402500
  20
144.232300
  0
VERTEX
  8
C41
  10
264.571600
  20
145.119000
  0
VERTEX
  8
C41
  10
264.696400
  20
146.007400
  0
VERTEX
  8
C41
  10
264.777200
  20
146.896100
  0
VERTEX
  8
C41
  10
264.814700
  20
147.783300
  0
VERTEX
  8
C41
  10
264.809300
  20
148.667700
  0
VERTEX
  8
C41
  10
264.761300
  20
149.547500
  0
VERTEX
  8
C41
  10
264.671400
  20
150.421200
  0
VERTEX
  8
C41
  10
264.539900
  20
151.287200
  0
VERTEX
  8
C41
  10
264.367300
  20
152.144000
  0
VERTEX
  8
C41
  10
264.154000
  20
152.989800
  0
VERTEX
  8
C41
  10
263.900700
  20
153.823300
  0
VERTEX
  8
C41
  10
263.607600
  20
154.642700
  0
VERTEX
  8
C41
  10
263.275300
  20
155.446400
  0
VERTEX
  8
C41
  10
262.904200
  20
156.233000
  0
VERTEX
  8
C41
  10
262.494800
  20
157.000800
  0
VERTEX
  8
C41
  10
262.047500
  20
157.748300
  0
VERTEX
  8
C41
  10
261.562900
  20
158.473700
  0
VERTEX
  8
C41
  10
261.041400
  20
159.175700
  0
VERTEX
  8
C41
  10
260.483400
  20
159.852500
  0
VERTEX
  8
C41
  10
259.889400
  20
160.502700
  0
VERTEX
  8
C41
  10
259.259800
  20
161.124500
  0
VERTEX
  8
C41
  10
258.595200
  20
161.716500
  0
VERTEX
  8
C41
  10
257.896000
  20
162.277100
  0
VERTEX
  8
C41
  10
257.162700
  20
162.804600
  0
VERTEX
  8
C41
  10
256.395600
  20
163.297500
  0
VERTEX
  8
C41
  10
255.595400
  20
163.754100
  0
VERTEX
  8
C41
  10
254.762400
  20
164.173000
  0
VERTEX
  8
C41
  10
253.897100
  20
164.552600
  0
VERTEX
  8
C41
  10
253.000000
  20
164.891200
  0
VERTEX
  8
C41
  10
252.043500
  20
165.192900
  0
VERTEX
  8
C41
  10
251.073700
  20
165.441000
  0
VERTEX
  8
C41
  10
250.092100
  20
165.640400
  0
VERTEX
  8
C41
  10
249.100500
  20
165.795900
  0
VERTEX
  8
C41
  10
248.100400
  20
165.912400
  0
VERTEX
  8
C41
  10
247.093600
  20
165.994600
  0
VERTEX
  8
C41
  10
246.081600
  20
166.047600
  0
VERTEX
  8
C41
  10
245.066100
  20
166.076200
  0
VERTEX
  8
C41
  10
244.048900
  20
166.085100
  0
VERTEX
  8
C41
  10
243.031500
  20
166.079400
  0
VERTEX
  8
C41
  10
242.015600
  20
166.063700
  0
VERTEX
  8
C41
  10
241.002800
  20
166.043100
  0
VERTEX
  8
C41
  10
239.994800
  20
166.022400
  0
VERTEX
  8
C41
  10
238.993300
  20
166.006400
  0
VERTEX
  8
C41
  10
238.000000
  20
166.000000
  0
VERTEX
  8
C41
  10
212.000000
  20
166.000000
  0
SEQEND
  8
C19
  0
POLYLINE
  8
C19
  66
1
  10
79.000000
  20
127.000000
  0
VERTEX
  8
C19
  10
79.000000
  20
127.000000
  0
VERTEX
  8
C19
  10
78.029700
  20
126.827200
  0
VERTEX
  8
C19
  10
77.055600
  20
126.668200
  0
VERTEX
  8
C19
  10
76.077900
  20
126.522500
  0
VERTEX
  8
C19
  10
75.096700
  20
126.389600
  0
VERTEX
  8
C19
  10
74.112100
  20
126.268900
  0
VERTEX
  8
C19
  10
73.124500
  20
126.160000
  0
VERTEX
  8
C19
  10
72.133900
  20
126.062400
  0
VERTEX
  8
C19
  10
71.140500
  20
125.975600
  0
VERTEX
  8
C19
  10
70.144600
  20
125.899200
  0
VERTEX
  8
C19
  10
69.146300
  20
125.832600
  0
VERTEX
  8
C19
  10
68.145800
  20
125.775400
  0
VERTEX
  8
C19
  10
67.143300
  20
125.727000
  0
VERTEX
  8
C19
  10
66.138900
  20
125.687000
  0
VERTEX
  8
C19
  10
65.132900
  20
125.655000
  0
VERTEX
  8
C19
  10
64.125400
  20
125.630300
  0
VERTEX
  8
C19
  10
63.116700
  20
125.612600
  0
VERTEX
  8
C19
  10
62.106800
  20
125.601300
  0
VERTEX
  8
C19
  10
61.096100
  20
125.595900
  0
VERTEX
  8
C19
  10
60.084600
  20
125.596100
  0
VERTEX
  8
C19
  10
59.072500
  20
125.601200
  0
VERTEX
  8
C19
  10
58.060100
  20
125.610800
  0
VERTEX
  8
C19
  10
57.047500
  20
125.624400
  0
VERTEX
  8
C19
  10
56.034900
  20
125.641500
  0
VERTEX
  8
C19
  10
55.022600
  20
125.661700
  0
VERTEX
  8
C19
  10
54.010500
  20
125.684400
  0
VERTEX
  8
C19
  10
52.999100
  20
125.709200
  0
VERTEX
  8
C19
  10
51.988400
  20
125.735500
  0
VERTEX
  8
C19
  10
50.978600
  20
125.763000
  0
VERTEX
  8
C19
  10
49.969900
  20
125.791000
  0
VERTEX
  8
C19
  10
48.962500
  20
125.819200
  0
VERTEX
  8
C19
  10
47.956500
  20
125.846900
  0
VERTEX
  8
C19
  10
46.952300
  20
125.873900
  0
VERTEX
  8
C19
  10
45.949900
  20
125.899400
  0
VERTEX
  8
C19
  10
44.949500
  20
125.923200
  0
VERTEX
  8
C19
  10
43.951300
  20
125.944600
  0
VERTEX
  8
C19
  10
42.955500
  20
125.963200
  0
VERTEX
  8
C19
  10
41.962300
  20
125.978600
  0
VERTEX
  8
C19
  10
40.971800
  20
125.990100
  0
VERTEX
  8
C19
  10
39.984300
  20
125.997400
  0
VERTEX
  8
C19
  10
39.000000
  20
126.000000
  0
VERTEX
  8
C19
  10
39.000000
  20
113.000000
  0
VERTEX
  8
C19
  10
75.000000
  20
113.000000
  0
VERTEX
  8
C19
  10
75.965000
  20
112.994200
  0
VERTEX
  8
C19
  10
76.935300
  20
112.981500
  0
VERTEX
  8
C19
  10
77.908300
  20
112.968600
  0
VERTEX
  8
C19
  10
78.881600
  20
112.962200
  0
VERTEX
  8
C19
  10
79.852900
  20
112.969000
  0
VERTEX
  8
C19
  10
80.819700
  20
112.995700
  0
VERTEX
  8
C19
  10
81.779600
  20
113.049200
  0
VERTEX
  8
C19
  10
82.730200
  20
113.136100
  0
VERTEX
  8
C19
  10
83.669000
  20
113.263100
  0
VERTEX
  8
C19
  10
84.593700
  20
113.437100
  0
VERTEX
  8
C19
  10
85.501700
  20
113.664600
  0
VERTEX
  8
C19
  10
86.390800
  20
113.952500
  0
VERTEX
  8
C19
  10
87.258500
  20
114.307500
  0
VERTEX
  8
C19
  10
88.102400
  20
114.736400
  0
VERTEX
  8
C19
  10
88.920000
  20
115.245700
  0
VERTEX
  8
C19
  10
89.708900
  20
115.842400
  0
VERTEX
  8
C19
  10
90.466800
  20
116.533100
  0
VERTEX
  8
C19
  10
91.232300
  20
117.343100
  0
VERTEX
  8
C19
  10
91.912000
  20
118.157400
  0
VERTEX
  8
C19
  10
92.508400
  20
118.975500
  0
VERTEX
  8
C19
  10
93.024400
  20
119.796700
  0
VERTEX
  8
C19
  10
93.462500
  20
120.620600
  0
VERTEX
  8
C19
  10
93.825500
  20
121.446500
  0
VERTEX
  8
C19
  10
94.116100
  20
122.273800
  0
VERTEX
  8
C19
  10
94.337000
  20
123.102100
  0
VERTEX
  8
C19
  10
94.490900
  20
123.930800
  0
VERTEX
  8
C19
  10
94.580500
  20
124.759200
  0
VERTEX
  8
C19
  10
94.608500
  20
125.586900
  0
VERTEX
  8
C19
  10
94.577500
  20
126.413300
  0
VERTEX
  8
C19
  10
94.490400
  20
127.237800
  0
VERTEX
  8
C19
  10
94.349700
  20
128.059800
  0
VERTEX
  8
C19
  10
94.158300
  20
128.878900
  0
VERTEX
  8
C19
  10
93.918700
  20
129.694400
  0
VERTEX
  8
C19
  10
93.633700
  20
130.505800
  0
VERTEX
  8
C19
  10
93.306000
  20
131.312500
  0
VERTEX
  8
C19
  10
92.938300
  20
132.114000
  0
VERTEX
  8
C19
  10
92.533400
  20
132.909700
  0
VERTEX
  8
C19
  10
92.093800
  20
133.699000
  0
VERTEX
  8
C19
  10
91.622300
  20
134.481400
  0
VERTEX
  8
C19
  10
91.121600
  20
135.256300
  0
VERTEX
  8
C19
  10
90.594400
  20
136.023200
  0
VERTEX
  8
C19
  10
90.043400
  20
136.781500
  0
VERTEX
  8
C19
  10
89.471300
  20
137.530600
  0
VERTEX
  8
C19
  10
88.880800
  20
138.270000
  0
VERTEX
  8
C19
  10
88.274600
  20
138.999200
  0
VERTEX
  8
C19
  10
87.706700
  20
139.633800
  0
VERTEX
  8
C19
  10
87.036200
  20
140.339700
  0
VERTEX
  8
C19
  10
86.300400
  20
141.105100
  0
VERTEX
  8
C19
  10
85.536700
  20
141.918200
  0
VERTEX
  8
C19
  10
84.782500
  20
142.767200
  0
VERTEX
  8
C19
  10
84.075000
  20
143.640200
  0
VERTEX
  8
C19
  10
83.451800
  20
144.525500
  0
VERTEX
  8
C19
  10
82.950000
  20
145.411400
  0
VERTEX
  8
C19
  10
82.607200
  20
146.285900
  0
VERTEX
  8
C19
  10
82.460600
  20
147.137300
  0
VERTEX
  8
C19
  10
82.558300
  20
147.948500
  0
VERTEX
  8
C19
  10
82.901000
  20
148.592400
  0
VERTEX
  8
C19
  10
83.446100
  20
149.087800
  0
VERTEX
  8
C19
  10
84.151300
  20
149.453900
  0
VERTEX
  8
C19
  10
84.973900
  20
149.709800
  0
VERTEX
  8
C19
  10
85.871600
  20
149.874500
  0
VERTEX
  8
C19
  10
86.802000
  20
149.967200
  0
VERTEX
  8
C19
  10
87.722400
  20
150.007000
  0
VERTEX
  8
C19
  10
88.590600
  20
150.012800
  0
VERTEX
  8
C19
  10
89.363900
  20
150.003800
  0
VERTEX
  8
C19
  10
90.000000
  20
149.999200
  0
VERTEX
  8
C19
  10
90.999800
  20
150.005500
  0
VERTEX
  8
C19
  10
91.999800
  20
150.010900
  0
VERTEX
  8
C19
  10
92.999700
  20
150.015300
  0
VERTEX
  8
C19
  10
93.999700
  20
150.018900
  0
VERTEX
  8
C19
  10
94.999600
  20
150.021700
  0
VERTEX
  8
C19
  10
95.999600
  20
150.023700
  0
VERTEX
  8
C19
  10
96.999600
  20
150.025000
  0
VERTEX
  8
C19
  10
97.999700
  20
150.025700
  0
VERTEX
  8
C19
  10
98.999700
  20
150.025800
  0
VERTEX
  8
C19
  10
99.999700
  20
150.025500
  0
VERTEX
  8
C19
  10
100.999700
  20
150.024600
  0
VERTEX
  8
C19
  10
101.999800
  20
150.023400
  0
VERTEX
  8
C19
  10
102.999800
  20
150.021900
  0
VERTEX
  8
C19
  10
103.999900
  20
150.020100
  0
VERTEX
  8
C19
  10
104.999900
  20
150.018100
  0
VERTEX
  8
C19
  10
106.000000
  20
150.016000
  0
VERTEX
  8
C19
  10
107.000000
  20
150.013700
  0
VERTEX
  8
C19
  10
108.000100
  20
150.011500
  0
VERTEX
  8
C19
  10
109.000100
  20
150.009300
  0
VERTEX
  8
C19
  10
110.000100
  20
150.007200
  0
VERTEX
  8
C19
  10
111.000100
  20
150.005200
  0
VERTEX
  8
C19
  10
112.000100
  20
150.003500
  0
VERTEX
  8
C19
  10
113.000100
  20
150.002000
  0
VERTEX
  8
C19
  10
114.000100
  20
150.000900
  0
VERTEX
  8
C19
  10
115.000000
  20
150.000200
  0
VERTEX
  8
C19
  10
116.000000
  20
150.000000
  0
VERTEX
  8
C19
  10
116.000000
  20
113.000000
  0
VERTEX
  8
C19
  10
129.000000
  20
113.000000
  0
VERTEX
  8
C19
  10
129.000000
  20
150.000000
  0
VERTEX
  8
C19
  10
129.999500
  20
149.998800
  0
VERTEX
  8
C19
  10
130.999200
  20
149.995800
  0
VERTEX
  8
C19
  10
131.999100
  20
149.991400
  0
VERTEX
  8
C19
  10
132.999100
  20
149.986000
  0
VERTEX
  8
C19
  10
133.999300
  20
149.980100
  0
VERTEX
  8
C19
  10
134.999500
  20
149.974400
  0
VERTEX
  8
C19
  10
135.999800
  20
149.969100
  0
VERTEX
  8
C19
  10
137.000000
  20
149.964800
  0
VERTEX
  8
C19
  10
138.000300
  20
149.962100
  0
VERTEX
  8
C19
  10
139.000400
  20
149.961400
  0
VERTEX
  8
C19
  10
140.000500
  20
149.963100
  0
VERTEX
  8
C19
  10
141.000400
  20
149.967800
  0
VERTEX
  8
C19
  10
142.000200
  20
149.975900
  0
VERTEX
  8
C19
  10
142.999800
  20
149.988000
  0
VERTEX
  8
C19
  10
143.999200
  20
150.004600
  0
VERTEX
  8
C19
  10
145.034000
  20
150.015200
  0
VERTEX
  8
C19
  10
146.122300
  20
150.049100
  0
VERTEX
  8
C19
  10
147.212100
  20
150.165600
  0
VERTEX
  8
C19
  10
148.251600
  20
150.424000
  0
VERTEX
  8
C19
  10
149.188900
  20
150.883400
  0
VERTEX
  8
C19
  10
149.972200
  20
151.603300
  0
VERTEX
  8
C19
  10
150.423300
  20
152.304800
  0
VERTEX
  8
C19
  10
150.766800
  20
153.112100
  0
VERTEX
  8
C19
  10
151.015000
  20
154.007800
  0
VERTEX
  8
C19
  10
151.180400
  20
154.974400
  0
VERTEX
  8
C19
  10
151.275500
  20
155.994600
  0
VERTEX
  8
C19
  10
151.312700
  20
157.051000
  0
VERTEX
  8
C19
  10
151.304500
  20
158.126300
  0
VERTEX
  8
C19
  10
151.263400
  20
159.202900
  0
VERTEX
  8
C19
  10
151.201800
  20
160.263700
  0
VERTEX
  8
C19
  10
151.132200
  20
161.291200
  0
VERTEX
  8
C19
  10
151.067000
  20
162.268000
  0
VERTEX
  8
C19
  10
151.018800
  20
163.176700
  0
VERTEX
  8
C19
  10
151.000000
  20
164.000000
  0
VERTEX
  8
C19
  10
85.000000
  20
164.000000
  0
VERTEX
  8
C19
  10
84.117400
  20
163.992600
  0
VERTEX
  8
C19
  10
83.228200
  20
163.969500
  0
VERTEX
  8
C19
  10
82.334700
  20
163.929300
  0
VERTEX
  8
C19
  10
81.439300
  20
163.870600
  0
VERTEX
  8
C19
  10
80.544400
  20
163.791700
  0
VERTEX
  8
C19
  10
79.652400
  20
163.691400
  0
VERTEX
  8
C19
  10
78.765600
  20
163.568000
  0
VERTEX
  8
C19
  10
77.886400
  20
163.420200
  0
VERTEX
  8
C19
  10
77.017200
  20
163.246400
  0
VERTEX
  8
C19
  10
76.160500
  20
163.045200
  0
VERTEX
  8
C19
  10
75.318600
  20
162.815100
  0
VERTEX
  8
C19
  10
74.493800
  20
162.554700
  0
VERTEX
  8
C19
  10
73.688600
  20
162.262400
  0
VERTEX
  8
C19
  10
72.905400
  20
161.936800
  0
VERTEX
  8
C19
  10
72.146500
  20
161.576500
  0
VERTEX
  8
C19
  10
71.414300
  20
161.179900
  0
VERTEX
  8
C19
  10
70.711200
  20
160.745700
  0
VERTEX
  8
C19
  10
70.039700
  20
160.272200
  0
VERTEX
  8
C19
  10
69.402000
  20
159.758100
  0
VERTEX
  8
C19
  10
68.800600
  20
159.201900
  0
VERTEX
  8
C19
  10
68.237800
  20
158.602100
  0
VERTEX
  8
C19
  10
67.716100
  20
157.957300
  0
VERTEX
  8
C19
  10
67.237800
  20
157.265900
  0
VERTEX
  8
C19
  10
66.805300
  20
156.526500
  0
VERTEX
  8
C19
  10
66.421100
  20
155.737700
  0
VERTEX
  8
C19
  10
66.087400
  20
154.897900
  0
VERTEX
  8
C19
  10
65.806700
  20
154.005700
  0
VERTEX
  8
C19
  10
65.581300
  20
153.059600
  0
VERTEX
  8
C19
  10
65.413700
  20
152.058200
  0
VERTEX
  8
C19
  10
65.306300
  20
151.000000
  0
VERTEX
  8
C19
  10
65.277000
  20
150.060100
  0
VERTEX
  8
C19
  10
65.320100
  20
149.138800
  0
VERTEX
  8
C19
  10
65.431600
  20
148.235000
  0
VERTEX
  8
C19
  10
65.607200
  20
147.347900
  0
VERTEX
  8
C19
  10
65.842800
  20
146.476400
  0
VERTEX
  8
C19
  10
66.134100
  20
145.619600
  0
VERTEX
  8
C19
  10
66.477000
  20
144.776600
  0
VERTEX
  8
C19
  10
66.867300
  20
143.946400
  0
VERTEX
  8
C19
  10
67.300800
  20
143.128100
  0
VERTEX
  8
C19
  10
67.773400
  20
142.320700
  0
VERTEX
  8
C19
  10
68.281000
  20
141.523300
  0
VERTEX
  8
C19
  10
68.819200
  20
140.734900
  0
VERTEX
  8
C19
  10
69.384000
  20
139.954500
  0
VERTEX
  8
C19
  10
69.971100
  20
139.181200
  0
VERTEX
  8
C19
  10
70.576400
  20
138.414100
  0
VERTEX
  8
C19
  10
71.195800
  20
137.652200
  0
VERTEX
  8
C19
  10
71.824900
  20
136.894600
  0
VERTEX
  8
C19
  10
72.459800
  20
136.140300
  0
VERTEX
  8
C19
  10
73.096100
  20
135.388300
  0
VERTEX
  8
C19
  10
73.729800
  20
134.637700
  0
VERTEX
  8
C19
  10
74.356500
  20
133.887600
  0
VERTEX
  8
C19
  10
74.972300
  20
133.137000
  0
VERTEX
  8
C19
  10
75.572800
  20
132.384900
  0
VERTEX
  8
C19
  10
76.154000
  20
131.630400
  0
VERTEX
  8
C19
  10
76.711600
  20
130.872600
  0
VERTEX
  8
C19
  10
77.241400
  20
130.110500
  0
VERTEX
  8
C19
  10
77.739400
  20
129.343100
  0
VERTEX
  8
C19
  10
78.201200
  20
128.569500
  0
VERTEX
  8
C19
  10
78.622800
  20
127.788800
  0
VERTEX
  8
C19
  10
79.000000
  20
127.000000
  0
SEQEND
  8
C19
  0
POLYLINE
  8
C19
  66
1
  10
154.000000
  20
113.000000
  0
VERTEX
  8
C19
  10
154.000000
  20
113.000000
  0
VERTEX
  8
C19
  10
168.000000
  20
113.000000
  0
VERTEX
  8
C19
  10
169.000000
  20
121.000000
  0
VERTEX
  8
C19
  10
169.767900
  20
121.008600
  0
VERTEX
  8
C19
  10
170.560300
  20
121.032600
  0
VERTEX
  8
C19
  10
171.374400
  20
121.069100
  0
VERTEX
  8
C19
  10
172.207400
  20
121.115400
  0
VERTEX
  8
C19
  10
173.056400
  20
121.168600
  0
VERTEX
  8
C19
  10
173.918600
  20
121.225800
  0
VERTEX
  8
C19
  10
174.791200
  20
121.284300
  0
VERTEX
  8
C19
  10
175.671400
  20
121.341200
  0
VERTEX
  8
C19
  10
176.556400
  20
121.393700
  0
VERTEX
  8
C19
  10
177.443400
  20
121.438900
  0
VERTEX
  8
C19
  10
178.329500
  20
121.474000
  0
VERTEX
  8
C19
  10
179.211900
  20
121.496300
  0
VERTEX
  8
C19
  10
180.087900
  20
121.502800
  0
VERTEX
  8
C19
  10
180.954500
  20
121.490800
  0
VERTEX
  8
C19
  10
181.809100
  20
121.457400
  0
VERTEX
  8
C19
  10
182.648700
  20
121.399800
  0
VERTEX
  8
C19
  10
183.470600
  20
121.315200
  0
VERTEX
  8
C19
  10
184.271900
  20
121.200600
  0
VERTEX
  8
C19
  10
185.049900
  20
121.053400
  0
VERTEX
  8
C19
  10
185.801600
  20
120.870700
  0
VERTEX
  8
C19
  10
186.524400
  20
120.649700
  0
VERTEX
  8
C19
  10
187.215300
  20
120.387400
  0
VERTEX
  8
C19
  10
187.871600
  20
120.081200
  0
VERTEX
  8
C19
  10
188.490500
  20
119.728100
  0
VERTEX
  8
C19
  10
189.069000
  20
119.325400
  0
VERTEX
  8
C19
  10
189.604500
  20
118.870200
  0
VERTEX
  8
C19
  10
190.094200
  20
118.359700
  0
VERTEX
  8
C19
  10
190.535100
  20
117.791100
  0
VERTEX
  8
C19
  10
190.924400
  20
117.161400
  0
VERTEX
  8
C19
  10
191.259500
  20
116.468000
  0
VERTEX
  8
C19
  10
191.537400
  20
115.708000
  0
VERTEX
  8
C19
  10
191.755300
  20
114.878500
  0
VERTEX
  8
C19
  10
191.910400
  20
113.976800
  0
VERTEX
  8
C19
  10
192.000000
  20
113.000000
  0
VERTEX
  8
C19
  10
206.000000
  20
113.000000
  0
VERTEX
  8
C19
  10
205.912900
  20
113.988200
  0
VERTEX
  8
C19
  10
205.813600
  20
114.976300
  0
VERTEX
  8
C19
  10
205.702400
  20
115.964200
  0
VERTEX
  8
C19
  10
205.579700
  20
116.951800
  0
VERTEX
  8
C19
  10
205.446000
  20
117.939300
  0
VERTEX
  8
C19
  10
205.301500
  20
118.926500
  0
VERTEX
  8
C19
  10
205.146700
  20
119.913400
  0
VERTEX
  8
C19
  10
204.982100
  20
120.900200
  0
VERTEX
  8
C19
  10
204.807900
  20
121.886600
  0
VERTEX
  8
C19
  10
204.624600
  20
122.872900
  0
VERTEX
  8
C19
  10
204.432700
  20
123.858900
  0
VERTEX
  8
C19
  10
204.232400
  20
124.844600
  0
VERTEX
  8
C19
  10
204.024300
  20
125.830100
  0
VERTEX
  8
C19
  10
203.808600
  20
126.815300
  0
VERTEX
  8
C19
  10
203.585800
  20
127.800200
  0
VERTEX
  8
C19
  10
203.356400
  20
128.784800
  0
VERTEX
  8
C19
  10
203.120600
  20
129.769200
  0
VERTEX
  8
C19
  10
202.879000
  20
130.753200
  0
VERTEX
  8
C19
  10
202.631800
  20
131.737000
  0
VERTEX
  8
C19
  10
202.379500
  20
132.720500
  0
VERTEX
  8
C19
  10
202.122500
  20
133.703600
  0
VERTEX
  8
C19
  10
201.861200
  20
134.686400
  0
VERTEX
  8
C19
  10
201.596000
  20
135.669000
  0
VERTEX
  8
C19
  10
201.327300
  20
136.651200
  0
VERTEX
  8
C19
  10
201.055500
  20
137.633000
  0
VERTEX
  8
C19
  10
200.781000
  20
138.614600
  0
VERTEX
  8
C19
  10
200.504200
  20
139.595800
  0
VERTEX
  8
C19
  10
200.225400
  20
140.576600
  0
VERTEX
  8
C19
  10
199.945200
  20
141.557100
  0
VERTEX
  8
C19
  10
199.663800
  20
142.537300
  0
VERTEX
  8
C19
  10
199.381700
  20
143.517100
  0
VERTEX
  8
C19
  10
199.099300
  20
144.496500
  0
VERTEX
  8
C19
  10
198.817000
  20
145.475600
  0
VERTEX
  8
C19
  10
198.535200
  20
146.454200
  0
VERTEX
  8
C19
  10
198.254200
  20
147.432500
  0
VERTEX
  8
C19
  10
197.974500
  20
148.410400
  0
VERTEX
  8
C19
  10
197.696500
  20
149.388000
  0
VERTEX
  8
C19
  10
197.420600
  20
150.365100
  0
VERTEX
  8
C19
  10
197.147200
  20
151.341800
  0
VERTEX
  8
C19
  10
196.876700
  20
152.318100
  0
VERTEX
  8
C19
  10
196.609400
  20
153.294000
  0
VERTEX
  8
C19
  10
196.345800
  20
154.269500
  0
VERTEX
  8
C19
  10
196.086300
  20
155.244500
  0
VERTEX
  8
C19
  10
195.831200
  20
156.219100
  0
VERTEX
  8
C19
  10
195.581100
  20
157.193300
  0
VERTEX
  8
C19
  10
195.336200
  20
158.167100
  0
VERTEX
  8
C19
  10
195.097000
  20
159.140300
  0
VERTEX
  8
C19
  10
194.863800
  20
160.113200
  0
VERTEX
  8
C19
  10
194.637200
  20
161.085600
  0
VERTEX
  8
C19
  10
194.417300
  20
162.057500
  0
VERTEX
  8
C19
  10
194.204800
  20
163.029000
  0
VERTEX
  8
C19
  10
194.000000
  20
164.000000
  0
VERTEX
  8
C19
  10
192.992900
  20
164.000500
  0
VERTEX
  8
C19
  10
191.987300
  20
164.001600
  0
VERTEX
  8
C19
  10
190.983200
  20
164.002600
  0
VERTEX
  8
C19
  10
189.980400
  20
164.002700
  0
VERTEX
  8
C19
  10
188.978700
  20
164.001200
  0
VERTEX
  8
C19
  10
187.978100
  20
163.997300
  0
VERTEX
  8
C19
  10
186.978300
  20
163.990300
  0
VERTEX
  8
C19
  10
185.979300
  20
163.979600
  0
VERTEX
  8
C19
  10
184.980900
  20
163.964200
  0
VERTEX
  8
C19
  10
183.983000
  20
163.943600
  0
VERTEX
  8
C19
  10
182.985400
  20
163.917000
  0
VERTEX
  8
C19
  10
181.988000
  20
163.883600
  0
VERTEX
  8
C19
  10
180.990700
  20
163.842700
  0
VERTEX
  8
C19
  10
179.993300
  20
163.793700
  0
VERTEX
  8
C19
  10
178.995700
  20
163.735600
  0
VERTEX
  8
C19
  10
177.997800
  20
163.667900
  0
VERTEX
  8
C19
  10
176.999400
  20
163.589700
  0
VERTEX
  8
C19
  10
176.000400
  20
163.500400
  0
VERTEX
  8
C19
  10
175.000600
  20
163.399200
  0
VERTEX
  8
C19
  10
174.000000
  20
163.285400
  0
VERTEX
  8
C19
  10
172.996900
  20
163.206000
  0
VERTEX
  8
C19
  10
171.915300
  20
163.166200
  0
VERTEX
  8
C19
  10
170.795400
  20
163.120600
  0
VERTEX
  8
C19
  10
169.677500
  20
163.023700
  0
VERTEX
  8
C19
  10
168.601800
  20
162.830300
  0
VERTEX
  8
C19
  10
167.608700
  20
162.494900
  0
VERTEX
  8
C19
  10
166.738400
  20
161.972200
  0
VERTEX
  8
C19
  10
166.151800
  20
161.410600
  0
VERTEX
  8
C19
  10
165.629700
  20
160.722500
  0
VERTEX
  8
C19
  10
165.167000
  20
159.925000
  0
VERTEX
  8
C19
  10
164.758700
  20
159.034900
  0
VERTEX
  8
C19
  10
164.399700
  20
158.069400
  0
VERTEX
  8
C19
  10
164.084800
  20
157.045300
  0
VERTEX
  8
C19
  10
163.809000
  20
155.979700
  0
VERTEX
  8
C19
  10
163.567200
  20
154.889600
  0
VERTEX
  8
C19
  10
163.354300
  20
153.792000
  0
VERTEX
  8
C19
  10
163.165300
  20
152.703800
  0
VERTEX
  8
C19
  10
162.995000
  20
151.642100
  0
VERTEX
  8
C19
  10
162.838400
  20
150.623900
  0
VERTEX
  8
C19
  10
162.690300
  20
149.666100
  0
VERTEX
  8
C19
  10
162.545700
  20
148.785800
  0
VERTEX
  8
C19
  10
162.399600
  20
148.000000
  0
VERTEX
  8
C19
  10
162.197700
  20
147.026500
  0
VERTEX
  8
C19
  10
161.987500
  20
146.053500
  0
VERTEX
  8
C19
  10
161.769600
  20
145.081000
  0
VERTEX
  8
C19
  10
161.544500
  20
144.108900
  0
VERTEX
  8
C19
  10
161.312800
  20
143.137300
  0
VERTEX
  8
C19
  10
161.075000
  20
142.166000
  0
VERTEX
  8
C19
  10
160.831800
  20
141.195000
  0
VERTEX
  8
C19
  10
160.583800
  20
140.224300
  0
VERTEX
  8
C19
  10
160.331400
  20
139.253800
  0
VERTEX
  8
C19
  10
160.075300
  20
138.283500
  0
VERTEX
  8
C19
  10
159.816100
  20
137.313400
  0
VERTEX
  8
C19
  10
159.554300
  20
136.343500
  0
VERTEX
  8
C19
  10
159.290500
  20
135.373600
  0
VERTEX
  8
C19
  10
159.025200
  20
134.403700
  0
VERTEX
  8
C19
  10
158.759200
  20
133.433900
  0
VERTEX
  8
C19
  10
158.492900
  20
132.464000
  0
VERTEX
  8
C19
  10
158.226900
  20
131.494100
  0
VERTEX
  8
C19
  10
157.961800
  20
130.524000
  0
VERTEX
  8
C19
  10
157.698100
  20
129.553800
  0
VERTEX
  8
C19
  10
157.436500
  20
128.583400
  0
VERTEX
  8
C19
  10
157.177600
  20
127.612800
  0
VERTEX
  8
C19
  10
156.921800
  20
126.642000
  0
VERTEX
  8
C19
  10
156.669800
  20
125.670800
  0
VERTEX
  8
C19
  10
156.422200
  20
124.699200
  0
VERTEX
  8
C19
  10
156.179500
  20
123.727300
  0
VERTEX
  8
C19
  10
155.942300
  20
122.755000
  0
VERTEX
  8
C19
  10
155.711100
  20
121.782200
  0
VERTEX
  8
C19
  10
155.486700
  20
120.808900
  0
VERTEX
  8
C19
  10
155.269500
  20
119.835100
  0
VERTEX
  8
C19
  10
155.060000
  20
118.860700
  0
VERTEX
  8
C19
  10
154.859000
  20
117.885700
  0
VERTEX
  8
C19
  10
154.667000
  20
116.910000
  0
VERTEX
  8
C19
  10
154.484500
  20
115.933600
  0
VERTEX
  8
C19
  10
154.312100
  20
114.956500
  0
VERTEX
  8
C19
  10
154.150400
  20
113.978600
  0
VERTEX
  8
C19
  10
154.000000
  20
113.000000
  0
SEQEND
  8
C19
  0
POLYLINE
  8
C19
  66
1
  10
215.000000
  20
163.000000
  0
VERTEX
  8
C19
  10
215.000000
  20
163.000000
  0
VERTEX
  8
C19
  10
215.000000
  20
113.000000
  0
VERTEX
  8
C19
  10
228.000000
  20
113.000000
  0
VERTEX
  8
C19
  10
227.985900
  20
113.611400
  0
VERTEX
  8
C19
  10
227.948400
  20
114.346800
  0
VERTEX
  8
C19
  10
227.894100
  20
115.189500
  0
VERTEX
  8
C19
  10
227.829900
  20
116.123200
  0
VERTEX
  8
C19
  10
227.762700
  20
117.131200
  0
VERTEX
  8
C19
  10
227.699200
  20
118.197000
  0
VERTEX
  8
C19
  10
227.646300
  20
119.304000
  0
VERTEX
  8
C19
  10
227.610800
  20
120.435900
  0
VERTEX
  8
C19
  10
227.599500
  20
121.575900
  0
VERTEX
  8
C19
  10
227.619200
  20
122.707700
  0
VERTEX
  8
C19
  10
227.676700
  20
123.814600
  0
VERTEX
  8
C19
  10
227.778900
  20
124.880200
  0
VERTEX
  8
C19
  10
227.932600
  20
125.887900
  0
VERTEX
  8
C19
  10
228.144600
  20
126.821200
  0
VERTEX
  8
C19
  10
228.421800
  20
127.663600
  0
VERTEX
  8
C19
  10
228.770800
  20
128.398500
  0
VERTEX
  8
C19
  10
229.198700
  20
129.009400
  0
VERTEX
  8
C19
  10
229.712100
  20
129.479800
  0
VERTEX
  8
C19
  10
230.317900
  20
129.793200
  0
VERTEX
  8
C19
  10
231.270000
  20
129.947000
  0
VERTEX
  8
C19
  10
232.213600
  20
129.786100
  0
VERTEX
  8
C19
  10
233.136100
  20
129.377900
  0
VERTEX
  8
C19
  10
234.025200
  20
128.790000
  0
VERTEX
  8
C19
  10
234.868500
  20
128.089800
  0
VERTEX
  8
C19
  10
235.653700
  20
127.344800
  0
VERTEX
  8
C19
  10
236.368300
  20
126.622600
  0
VERTEX
  8
C19
  10
237.000000
  20
125.990700
  0
VERTEX
  8
C19
  10
237.668700
  20
125.331100
  0
VERTEX
  8
C19
  10
238.337100
  20
124.645000
  0
VERTEX
  8
C19
  10
239.006300
  20
123.937200
  0
VERTEX
  8
C19
  10
239.677600
  20
123.212600
  0
VERTEX
  8
C19
  10
240.352300
  20
122.475900
  0
VERTEX
  8
C19
  10
241.031500
  20
121.732200
  0
VERTEX
  8
C19
  10
241.716700
  20
120.986200
  0
VERTEX
  8
C19
  10
242.408900
  20
120.242900
  0
VERTEX
  8
C19
  10
243.109600
  20
119.507100
  0
VERTEX
  8
C19
  10
243.819900
  20
118.783700
  0
VERTEX
  8
C19
  10
244.541000
  20
118.077600
  0
VERTEX
  8
C19
  10
245.274400
  20
117.393600
  0
VERTEX
  8
C19
  10
246.021100
  20
116.736700
  0
VERTEX
  8
C19
  10
246.782500
  20
116.111600
  0
VERTEX
  8
C19
  10
247.559800
  20
115.523300
  0
VERTEX
  8
C19
  10
248.354300
  20
114.976600
  0
VERTEX
  8
C19
  10
249.167300
  20
114.476400
  0
VERTEX
  8
C19
  10
250.000000
  20
114.027700
  0
VERTEX
  8
C19
  10
250.909200
  20
113.637500
  0
VERTEX
  8
C19
  10
251.859600
  20
113.344900
  0
VERTEX
  8
C19
  10
252.843300
  20
113.137000
  0
VERTEX
  8
C19
  10
253.852900
  20
113.001100
  0
VERTEX
  8
C19
  10
254.880600
  20
112.924600
  0
VERTEX
  8
C19
  10
255.918800
  20
112.894700
  0
VERTEX
  8
C19
  10
256.959900
  20
112.898700
  0
VERTEX
  8
C19
  10
257.996200
  20
112.923900
  0
VERTEX
  8
C19
  10
259.020100
  20
112.957700
  0
VERTEX
  8
C19
  10
260.023900
  20
112.987300
  0
VERTEX
  8
C19
  10
261.000000
  20
113.000000
  0
VERTEX
  8
C19
  10
284.000000
  20
113.000000
  0
VERTEX
  8
C19
  10
284.000000
  20
126.000000
  0
VERTEX
  8
C19
  10
283.057600
  20
125.993300
  0
VERTEX
  8
C19
  10
282.100000
  20
125.974500
  0
VERTEX
  8
C19
  10
281.128500
  20
125.945200
  0
VERTEX
  8
C19
  10
280.144300
  20
125.906900
  0
VERTEX
  8
C19
  10
279.148800
  20
125.861400
  0
VERTEX
  8
C19
  10
278.143200
  20
125.810200
  0
VERTEX
  8
C19
  10
277.128900
  20
125.755000
  0
VERTEX
  8
C19
  10
276.107100
  20
125.697400
  0
VERTEX
  8
C19
  10
275.079200
  20
125.639000
  0
VERTEX
  8
C19
  10
274.046400
  20
125.581500
  0
VERTEX
  8
C19
  10
273.010000
  20
125.526500
  0
VERTEX
  8
C19
  10
271.971300
  20
125.475700
  0
VERTEX
  8
C19
  10
270.931700
  20
125.430600
  0
VERTEX
  8
C19
  10
269.892400
  20
125.392900
  0
VERTEX
  8
C19
  10
268.854700
  20
125.364200
  0
VERTEX
  8
C19
  10
267.819900
  20
125.346200
  0
VERTEX
  8
C19
  10
266.789300
  20
125.340400
  0
VERTEX
  8
C19
  10
265.764300
  20
125.348600
  0
VERTEX
  8
C19
  10
264.746000
  20
125.372300
  0
VERTEX
  8
C19
  10
263.735800
  20
125.413100
  0
VERTEX
  8
C19
  10
262.735000
  20
125.472800
  0
VERTEX
  8
C19
  10
261.744900
  20
125.552900
  0
VERTEX
  8
C19
  10
260.766700
  20
125.655100
  0
VERTEX
  8
C19
  10
259.801900
  20
125.781000
  0
VERTEX
  8
C19
  10
258.851600
  20
125.932200
  0
VERTEX
  8
C19
  10
257.917200
  20
126.110300
  0
VERTEX
  8
C19
  10
257.000000
  20
126.317100
  0
VERTEX
  8
C19
  10
256.034800
  20
126.604900
  0
VERTEX
  8
C19
  10
255.099100
  20
126.978000
  0
VERTEX
  8
C19
  10
254.187100
  20
127.419600
  0
VERTEX
  8
C19
  10
253.293400
  20
127.912500
  0
VERTEX
  8
C19
  10
252.412300
  20
128.440000
  0
VERTEX
  8
C19
  10
251.538200
  20
128.984800
  0
VERTEX
  8
C19
  10
250.665500
  20
129.530300
  0
VERTEX
  8
C19
  10
249.788600
  20
130.059200
  0
VERTEX
  8
C19
  10
248.902000
  20
130.554800
  0
VERTEX
  8
C19
  10
248.000000
  20
131.000000
  0
VERTEX
  8
C19
  10
248.866700
  20
131.495300
  0
VERTEX
  8
C19
  10
249.743900
  20
131.980400
  0
VERTEX
  8
C19
  10
250.626800
  20
132.460700
  0
VERTEX
  8
C19
  10
251.510700
  20
132.942000
  0
VERTEX
  8
C19
  10
252.390700
  20
133.429800
  0
VERTEX
  8
C19
  10
253.262100
  20
133.929800
  0
VERTEX
  8
C19
  10
254.120000
  20
134.447500
  0
VERTEX
  8
C19
  10
254.959700
  20
134.988700
  0
VERTEX
  8
C19
  10
255.776400
  20
135.559000
  0
VERTEX
  8
C19
  10
256.565300
  20
136.163900
  0
VERTEX
  8
C19
  10
257.321600
  20
136.809200
  0
VERTEX
  8
C19
  10
258.040500
  20
137.500400
  0
VERTEX
  8
C19
  10
258.717300
  20
138.243200
  0
VERTEX
  8
C19
  10
259.347200
  20
139.043200
  0
VERTEX
  8
C19
  10
259.859900
  20
139.796800
  0
VERTEX
  8
C19
  10
260.318900
  20
140.573400
  0
VERTEX
  8
C19
  10
260.724600
  20
141.370400
  0
VERTEX
  8
C19
  10
261.077800
  20
142.185300
  0
VERTEX
  8
C19
  10
261.378900
  20
143.015800
  0
VERTEX
  8
C19
  10
261.628700
  20
143.859400
  0
VERTEX
  8
C19
  10
261.827800
  20
144.713500
  0
VERTEX
  8
C19
  10
261.976800
  20
145.575800
  0
VERTEX
  8
C19
  10
262.076300
  20
146.443800
  0
VERTEX
  8
C19
  10
262.126900
  20
147.314900
  0
VERTEX
  8
C19
  10
262.129200
  20
148.186800
  0
VERTEX
  8
C19
  10
262.083900
  20
149.057000
  0
VERTEX
  8
C19
  10
261.991700
  20
149.923100
  0
VERTEX
  8
C19
  10
261.853000
  20
150.782400
  0
VERTEX
  8
C19
  10
261.668600
  20
151.632700
  0
VERTEX
  8
C19
  10
261.439000
  20
152.471400
  0
VERTEX
  8
C19
  10
261.164900
  20
153.296100
  0
VERTEX
  8
C19
  10
260.846900
  20
154.104400
  0
VERTEX
  8
C19
  10
260.485600
  20
154.893600
  0
VERTEX
  8
C19
  10
260.081600
  20
155.661500
  0
VERTEX
  8
C19
  10
259.635600
  20
156.405400
  0
VERTEX
  8
C19
  10
259.148200
  20
157.123100
  0
VERTEX
  8
C19
  10
258.620000
  20
157.811900
  0
VERTEX
  8
C19
  10
258.051600
  20
158.469500
  0
VERTEX
  8
C19
  10
257.443600
  20
159.093400
  0
VERTEX
  8
C19
  10
256.796700
  20
159.681100
  0
VERTEX
  8
C19
  10
256.111500
  20
160.230100
  0
VERTEX
  8
C19
  10
255.388600
  20
160.738100
  0
VERTEX
  8
C19
  10
254.628700
  20
161.202500
  0
VERTEX
  8
C19
  10
253.832200
  20
161.620800
  0
VERTEX
  8
C19
  10
253.000000
  20
161.990700
  0
VERTEX
  8
C19
  10
252.066900
  20
162.325300
  0
VERTEX
  8
C19
  10
251.108200
  20
162.588800
  0
VERTEX
  8
C19
  10
250.128000
  20
162.788800
  0
VERTEX
  8
C19
  10
249.130000
  20
162.933200
  0
VERTEX
  8
C19
  10
248.118300
  20
163.029600
  0
VERTEX
  8
C19
  10
247.096700
  20
163.085700
  0
VERTEX
  8
C19
  10
246.069200
  20
163.109300
  0
VERTEX
  8
C19
  10
245.039700
  20
163.108100
  0
VERTEX
  8
C19
  10
244.012200
  20
163.089700
  0
VERTEX
  8
C19
  10
242.990500
  20
163.062000
  0
VERTEX
  8
C19
  10
241.978600
  20
163.032700
  0
VERTEX
  8
C19
  10
240.980500
  20
163.009400
  0
VERTEX
  8
C19
  10
240.000000
  20
163.000000
  0
VERTEX
  8
C19
  10
215.000000
  20
163.000000
  0
SEQEND
  8
C41
  0
POLYLINE
  8
C41
  66
1
  10
179.000000
  20
157.000000
  0
VERTEX
  8
C41
  10
179.000000
  20
157.000000
  0
VERTEX
  8
C41
  10
171.000000
  20
129.000000
  0
VERTEX
  8
C41
  10
189.000000
  20
129.000000
  0
VERTEX
  8
C41
  10
188.778400
  20
130.018300
  0
VERTEX
  8
C41
  10
188.541100
  20
131.032800
  0
VERTEX
  8
C41
  10
188.289700
  20
132.043600
  0
VERTEX
  8
C41
  10
188.025300
  20
133.051200
  0
VERTEX
  8
C41
  10
187.749300
  20
134.055800
  0
VERTEX
  8
C41
  10
187.463200
  20
135.057800
  0
VERTEX
  8
C41
  10
187.168100
  20
136.057500
  0
VERTEX
  8
C41
  10
186.865500
  20
137.055300
  0
VERTEX
  8
C41
  10
186.556700
  20
138.051500
  0
VERTEX
  8
C41
  10
186.243100
  20
139.046400
  0
VERTEX
  8
C41
  10
185.926000
  20
140.040500
  0
VERTEX
  8
C41
  10
185.606700
  20
141.033900
  0
VERTEX
  8
C41
  10
185.286600
  20
142.027100
  0
VERTEX
  8
C41
  10
184.967000
  20
143.020400
  0
VERTEX
  8
C41
  10
184.649300
  20
144.014100
  0
VERTEX
  8
C41
  10
184.334800
  20
145.008600
  0
VERTEX
  8
C41
  10
184.024900
  20
146.004100
  0
VERTEX
  8
C41
  10
183.721000
  20
147.001200
  0
VERTEX
  8
C41
  10
183.424300
  20
148.000000
  0
VERTEX
  8
C41
  10
183.135400
  20
149.026000
  0
VERTEX
  8
C41
  10
182.859500
  20
150.042000
  0
VERTEX
  8
C41
  10
182.578800
  20
151.041200
  0
VERTEX
  8
C41
  10
182.275700
  20
152.016800
  0
VERTEX
  8
C41
  10
181.932600
  20
152.962200
  0
VERTEX
  8
C41
  10
181.531800
  20
153.870600
  0
VERTEX
  8
C41
  10
181.055800
  20
154.735200
  0
VERTEX
  8
C41
  10
180.486900
  20
155.549500
  0
VERTEX
  8
C41
  10
179.807500
  20
156.306700
  0
VERTEX
  8
C41
  10
179.000000
  20
157.000000
  0
SEQEND
  8
C41
  0
POLYLINE
  8
C41
  66
1
  10
228.000000
  20
153.000000
  0
VERTEX
  8
C41
  10
228.000000
  20
153.000000
  0
VERTEX
  8
C41
  10
228.000000
  20
137.000000
  0
VERTEX
  8
C41
  10
228.908700
  20
136.988100
  0
VERTEX
  8
C41
  10
229.854200
  20
136.955800
  0
VERTEX
  8
C41
  10
230.831400
  20
136.908200
  0
VERTEX
  8
C41
  10
231.835200
  20
136.850200
  0
VERTEX
  8
C41
  10
232.860800
  20
136.786700
  0
VERTEX
  8
C41
  10
233.903100
  20
136.722900
  0
VERTEX
  8
C41
  10
234.957100
  20
136.663600
  0
VERTEX
  8
C41
  10
236.017800
  20
136.613900
  0
VERTEX
  8
C41
  10
237.080200
  20
136.578800
  0
VERTEX
  8
C41
  10
238.139400
  20
136.563200
  0
VERTEX
  8
C41
  10
239.190300
  20
136.572200
  0
VERTEX
  8
C41
  10
240.227900
  20
136.610700
  0
VERTEX
  8
C41
  10
241.247200
  20
136.683800
  0
VERTEX
  8
C41
  10
242.243300
  20
136.796400
  0
VERTEX
  8
C41
  10
243.211100
  20
136.953600
  0
VERTEX
  8
C41
  10
244.145600
  20
137.160200
  0
VERTEX
  8
C41
  10
245.041900
  20
137.421400
  0
VERTEX
  8
C41
  10
245.895000
  20
137.742200
  0
VERTEX
  8
C41
  10
246.703500
  20
138.144000
  0
VERTEX
  8
C41
  10
247.435800
  20
138.625400
  0
VERTEX
  8
C41
  10
248.091100
  20
139.178100
  0
VERTEX
  8
C41
  10
248.668700
  20
139.793800
  0
VERTEX
  8
C41
  10
249.168000
  20
140.464100
  0
VERTEX
  8
C41
  10
249.588200
  20
141.180900
  0
VERTEX
  8
C41
  10
249.928700
  20
141.935600
  0
VERTEX
  8
C41
  10
250.188800
  20
142.720100
  0
VERTEX
  8
C41
  10
250.367700
  20
143.526000
  0
VERTEX
  8
C41
  10
250.464900
  20
144.345000
  0
VERTEX
  8
C41
  10
250.479600
  20
145.168900
  0
VERTEX
  8
C41
  10
250.411100
  20
145.989200
  0
VERTEX
  8
C41
  10
250.258800
  20
146.797600
  0
VERTEX
  8
C41
  10
250.021800
  20
147.585900
  0
VERTEX
  8
C41
  10
249.699700
  20
148.345800
  0
VERTEX
  8
C41
  10
249.291600
  20
149.068900
  0
VERTEX
  8
C41
  10
248.796900
  20
149.746900
  0
VERTEX
  8
C41
  10
248.214900
  20
150.371500
  0
VERTEX
  8
C41
  10
247.544900
  20
150.934500
  0
VERTEX
  8
C41
  10
246.786200
  20
151.427400
  0
VERTEX
  8
C41
  10
245.948500
  20
151.854700
  0
VERTEX
  8
C41
  10
245.069700
  20
152.215800
  0
VERTEX
  8
C41
  10
244.154000
  20
152.515600
  0
VERTEX
  8
C41
  10
243.205600
  20
152.759100
  0
VERTEX
  8
C41
  10
242.229000
  20
152.951100
  0
VERTEX
  8
C41
  10
241.228400
  20
153.096700
  0
VERTEX
  8
C41
  10
240.208100
  20
153.200700
  0
VERTEX
  8
C41
  10
239.172400
  20
153.268000
  0
VERTEX
  8
C41
  10
238.125700
  20
153.303600
  0
VERTEX
  8
C41
  10
237.072300
  20
153.312500
  0
VERTEX
  8
C41
  10
236.016500
  20
153.299400
  0
VERTEX
  8
C41
  10
234.962500
  20
153.269500
  0
VERTEX
  8
C41
  10
233.914800
  20
153.227600
  0
VERTEX
  8
C41
  10
232.877500
  20
153.178600
  0
VERTEX
  8
C41
  10
231.855100
  20
153.127400
  0
VERTEX
  8
C41
  10
230.851800
  20
153.079000
  0
VERTEX
  8
C41
  10
229.872000
  20
153.038400
  0
VERTEX
  8
C41
  10
228.919900
  20
153.010400
  0
VERTEX
  8
C41
  10
228.000000
  20
153.000000
  0
SEQEND
  8
C19
  0
POLYLINE
  8
C19
  66
1
  10
231.000000
  20
150.000000
  0
VERTEX
  8
C19
  10
231.000000
  20
150.000000
  0
VERTEX
  8
C19
  10
231.000000
  20
139.000000
  0
VERTEX
  8
C19
  10
231.908700
  20
138.985300
  0
VERTEX
  8
C19
  10
232.866200
  20
138.947800
  0
VERTEX
  8
C19
  10
233.862900
  20
138.896900
  0
VERTEX
  8
C19
  10
234.889700
  20
138.842100
  0
VERTEX
  8
C19
  10
235.937400
  20
138.793000
  0
VERTEX
  8
C19
  10
236.996500
  20
138.759100
  0
VERTEX
  8
C19
  10
238.057900
  20
138.750000
  0
VERTEX
  8
C19
  10
239.112200
  20
138.775100
  0
VERTEX
  8
C19
  10
240.150300
  20
138.844000
  0
VERTEX
  8
C19
  10
241.162800
  20
138.966200
  0
VERTEX
  8
C19
  10
242.140400
  20
139.151300
  0
VERTEX
  8
C19
  10
243.074000
  20
139.408800
  0
VERTEX
  8
C19
  10
243.954100
  20
139.748100
  0
VERTEX
  8
C19
  10
244.771600
  20
140.179000
  0
VERTEX
  8
C19
  10
245.475600
  20
140.691900
  0
VERTEX
  8
C19
  10
246.087900
  20
141.303000
  0
VERTEX
  8
C19
  10
246.601100
  20
141.994100
  0
VERTEX
  8
C19
  10
247.008100
  20
142.746900
  0
VERTEX
  8
C19
  10
247.301600
  20
143.543500
  0
VERTEX
  8
C19
  10
247.474200
  20
144.365700
  0
VERTEX
  8
C19
  10
247.518700
  20
145.195300
  0
VERTEX
  8
C19
  10
247.427900
  20
146.014300
  0
VERTEX
  8
C19
  10
247.194400
  20
146.804400
  0
VERTEX
  8
C19
  10
246.811000
  20
147.547700
  0
VERTEX
  8
C19
  10
246.270500
  20
148.225800
  0
VERTEX
  8
C19
  10
245.565500
  20
148.820900
  0
VERTEX
  8
C19
  10
244.811800
  20
149.265300
  0
VERTEX
  8
C19
  10
243.980200
  20
149.618700
  0
VERTEX
  8
C19
  10
243.081500
  20
149.890000
  0
VERTEX
  8
C19
  10
242.126500
  20
150.088100
  0
VERTEX
  8
C19
  10
241.126100
  20
150.222000
  0
VERTEX
  8
C19
  10
240.091000
  20
150.300700
  0
VERTEX
  8
C19
  10
239.032000
  20
150.333100
  0
VERTEX
  8
C19
  10
237.960100
  20
150.328100
  0
VERTEX
  8
C19
  10
236.885900
  20
150.294800
  0
VERTEX
  8
C19
  10
235.820300
  20
150.242000
  0
VERTEX
  8
C19
  10
234.774100
  20
150.178700
  0
VERTEX
  8
C19
  10
233.758200
  20
150.113900
  0
VERTEX
  8
C19
  10
232.783300
  20
150.056600
  0
VERTEX
  8
C19
  10
231.860300
  20
150.015600
  0
VERTEX
  8
C19
  10
231.000000
  20
150.000000
  0
SEQEND
  8
C19
  0
POLYLINE
  8
C19
  66
1
  10
179.000000
  20
149.000000
  0
VERTEX
  8
C19
  10
179.000000
  20
149.000000
  0
VERTEX
  8
C19
  10
178.893300
  20
147.974200
  0
VERTEX
  8
C19
  10
178.754900
  20
146.955100
  0
VERTEX
  8
C19
  10
178.587900
  20
145.941800
  0
VERTEX
  8
C19
  10
178.395400
  20
144.933800
  0
VERTEX
  8
C19
  10
178.180500
  20
143.930300
  0
VERTEX
  8
C19
  10
177.946500
  20
142.930700
  0
VERTEX
  8
C19
  10
177.696300
  20
141.934400
  0
VERTEX
  8
C19
  10
177.433300
  20
140.940500
  0
VERTEX
  8
C19
  10
177.160400
  20
139.948600
  0
VERTEX
  8
C19
  10
176.880800
  20
138.957800
  0
VERTEX
  8
C19
  10
176.597700
  20
137.967600
  0
VERTEX
  8
C19
  10
176.314200
  20
136.977300
  0
VERTEX
  8
C19
  10
176.033400
  20
135.986100
  0
VERTEX
  8
C19
  10
175.758400
  20
134.993500
  0
VERTEX
  8
C19
  10
175.492400
  20
133.998700
  0
VERTEX
  8
C19
  10
175.238600
  20
133.001100
  0
VERTEX
  8
C19
  10
175.000000
  20
132.000000
  0
VERTEX
  8
C19
  10
185.000000
  20
132.000000
  0
VERTEX
  8
C19
  10
184.834100
  20
133.017000
  0
VERTEX
  8
C19
  10
184.640800
  20
134.027000
  0
VERTEX
  8
C19
  10
184.423700
  20
135.030900
  0
VERTEX
  8
C19
  10
184.186700
  20
136.029600
  0
VERTEX
  8
C19
  10
183.933400
  20
137.024200
  0
VERTEX
  8
C19
  10
183.667700
  20
138.015700
  0
VERTEX
  8
C19
  10
183.393300
  20
139.005000
  0
VERTEX
  8
C19
  10
183.114000
  20
139.993200
  0
VERTEX
  8
C19
  10
182.833500
  20
140.981200
  0
VERTEX
  8
C19
  10
182.555600
  20
141.970100
  0
VERTEX
  8
C19
  10
182.284100
  20
142.960900
  0
VERTEX
  8
C19
  10
182.022800
  20
143.954500
  0
VERTEX
  8
C19
  10
181.775300
  20
144.951900
  0
VERTEX
  8
C19
  10
181.545500
  20
145.954200
  0
VERTEX
  8
C19
  10
181.337200
  20
146.962300
  0
VERTEX
  8
C19
  10
181.154100
  20
147.977200
  0
VERTEX
  8
C19
  10
181.000000
  20
149.000000
  0
VERTEX
  8
C19
  10
179.000000
  20
149.000000
  0
SEQEND
  8
C41
  0
POLYLINE
  8
C41
  66
1
  10
36.000000
  20
105.000000
  0
VERTEX
  8
C41
  10
36.000000
  20
105.000000
  0
VERTEX
  8
C41
  10
36.205300
  20
104.012300
  0
VERTEX
  8
C41
  10
36.413600
  20
103.025300
  0
VERTEX
  8
C41
  10
36.624500
  20
102.038900
  0
VERTEX
  8
C41
  10
36.838100
  20
101.053200
  0
VERTEX
  8
C41
  10
37.054200
  20
100.068000
  0
VERTEX
  8
C41
  10
37.272700
  20
99.083400
  0
VERTEX
  8
C41
  10
37.493400
  20
98.099300
  0
VERTEX
  8
C41
  10
37.716400
  20
97.115800
  0
VERTEX
  8
C41
  10
37.941400
  20
96.132700
  0
VERTEX
  8
C41
  10
38.168400
  20
95.150000
  0
VERTEX
  8
C41
  10
38.397200
  20
94.167800
  0
VERTEX
  8
C41
  10
38.627800
  20
93.186000
  0
VERTEX
  8
C41
  10
38.859900
  20
92.204500
  0
VERTEX
  8
C41
  10
39.093600
  20
91.223500
  0
VERTEX
  8
C41
  10
39.328700
  20
90.242700
  0
VERTEX
  8
C41
  10
39.565100
  20
89.262200
  0
VERTEX
  8
C41
  10
39.802700
  20
88.282000
  0
VERTEX
  8
C41
  10
40.041300
  20
87.302100
  0
VERTEX
  8
C41
  10
40.280900
  20
86.322400
  0
VERTEX
  8
C41
  10
40.521300
  20
85.342800
  0
VERTEX
  8
C41
  10
40.762500
  20
84.363500
  0
VERTEX
  8
C41
  10
41.004300
  20
83.384200
  0
VERTEX
  8
C41
  10
41.246600
  20
82.405100
  0
VERTEX
  8
C41
  10
41.489300
  20
81.426100
  0
VERTEX
  8
C41
  10
41.732400
  20
80.447200
  0
VERTEX
  8
C41
  10
41.975600
  20
79.468300
  0
VERTEX
  8
C41
  10
42.218800
  20
78.489400
  0
VERTEX
  8
C41
  10
42.462000
  20
77.510500
  0
VERTEX
  8
C41
  10
42.705100
  20
76.531500
  0
VERTEX
  8
C41
  10
42.947900
  20
75.552500
  0
VERTEX
  8
C41
  10
43.190400
  20
74.573400
  0
VERTEX
  8
C41
  10
43.432300
  20
73.594200
  0
VERTEX
  8
C41
  10
43.673700
  20
72.614800
  0
VERTEX
  8
C41
  10
43.914400
  20
71.635300
  0
VERTEX
  8
C41
  10
44.154200
  20
70.655500
  0
VERTEX
  8
C41
  10
44.393100
  20
69.675600
  0
VERTEX
  8
C41
  10
44.631000
  20
68.695400
  0
VERTEX
  8
C41
  10
44.867700
  20
67.714900
  0
VERTEX
  8
C41
  10
45.103200
  20
66.734200
  0
VERTEX
  8
C41
  10
45.337300
  20
65.753100
  0
VERTEX
  8
C41
  10
45.569900
  20
64.771600
  0
VERTEX
  8
C41
  10
45.801000
  20
63.789800
  0
VERTEX
  8
C41
  10
46.030300
  20
62.807600
  0
VERTEX
  8
C41
  10
46.257800
  20
61.825000
  0
VERTEX
  8
C41
  10
46.483400
  20
60.841900
  0
VERTEX
  8
C41
  10
46.706900
  20
59.858300
  0
VERTEX
  8
C41
  10
46.928300
  20
58.874200
  0
VERTEX
  8
C41
  10
47.147500
  20
57.889600
  0
VERTEX
  8
C41
  10
47.364300
  20
56.904500
  0
VERTEX
  8
C41
  10
47.578600
  20
55.918700
  0
VERTEX
  8
C41
  10
47.790300
  20
54.932300
  0
VERTEX
  8
C41
  10
47.999300
  20
53.945300
  0
VERTEX
  8
C41
  10
48.205500
  20
52.957700
  0
VERTEX
  8
C41
  10
48.408800
  20
51.969400
  0
VERTEX
  8
C41
  10
48.609000
  20
50.980300
  0
VERTEX
  8
C41
  10
48.806100
  20
49.990500
  0
VERTEX
  8
C41
  10
49.000000
  20
49.000000
  0
VERTEX
  8
C41
  10
68.000000
  20
49.000000
  0
VERTEX
  8
C41
  10
68.229800
  20
49.994000
  0
VERTEX
  8
C41
  10
68.464200
  20
50.988100
  0
VERTEX
  8
C41
  10
68.702300
  20
51.982400
  0
VERTEX
  8
C41
  10
68.943300
  20
52.976800
  0
VERTEX
  8
C41
  10
69.186400
  20
53.971500
  0
VERTEX
  8
C41
  10
69.430700
  20
54.966600
  0
VERTEX
  8
C41
  10
69.675600
  20
55.962000
  0
VERTEX
  8
C41
  10
69.920100
  20
56.957900
  0
VERTEX
  8
C41
  10
70.163500
  20
57.954400
  0
VERTEX
  8
C41
  10
70.405000
  20
58.951500
  0
VERTEX
  8
C41
  10
70.643700
  20
59.949200
  0
VERTEX
  8
C41
  10
70.878800
  20
60.947700
  0
VERTEX
  8
C41
  10
71.109600
  20
61.947000
  0
VERTEX
  8
C41
  10
71.335200
  20
62.947200
  0
VERTEX
  8
C41
  10
71.554900
  20
63.948300
  0
VERTEX
  8
C41
  10
71.767700
  20
64.950500
  0
VERTEX
  8
C41
  10
71.973000
  20
65.953800
  0
VERTEX
  8
C41
  10
72.169900
  20
66.958200
  0
VERTEX
  8
C41
  10
72.357500
  20
67.963800
  0
VERTEX
  8
C41
  10
72.535200
  20
68.970700
  0
VERTEX
  8
C41
  10
72.702000
  20
69.979000
  0
VERTEX
  8
C41
  10
72.857200
  20
70.988700
  0
VERTEX
  8
C41
  10
73.000000
  20
72.000000
  0
VERTEX
  8
C41
  10
73.319900
  20
71.019600
  0
VERTEX
  8
C41
  10
73.618700
  20
70.033500
  0
VERTEX
  8
C41
  10
73.898800
  20
69.042200
  0
VERTEX
  8
C41
  10
74.162900
  20
68.046400
  0
VERTEX
  8
C41
  10
74.413500
  20
67.046900
  0
VERTEX
  8
C41
  10
74.653100
  20
66.044300
  0
VERTEX
  8
C41
  10
74.884400
  20
65.039300
  0
VERTEX
  8
C41
  10
75.109800
  20
64.032700
  0
VERTEX
  8
C41
  10
75.332000
  20
63.025000
  0
VERTEX
  8
C41
  10
75.553500
  20
62.017000
  0
VERTEX
  8
C41
  10
75.776800
  20
61.009300
  0
VERTEX
  8
C41
  10
76.004600
  20
60.002700
  0
VERTEX
  8
C41
  10
76.239400
  20
58.997900
  0
VERTEX
  8
C41
  10
76.483800
  20
57.995400
  0
VERTEX
  8
C41
  10
76.740300
  20
56.996100
  0
VERTEX
  8
C41
  10
77.011500
  20
56.000700
  0
VERTEX
  8
C41
  10
77.285100
  20
54.970800
  0
VERTEX
  8
C41
  10
77.580500
  20
53.877100
  0
VERTEX
  8
C41
  10
77.935100
  20
52.777800
  0
VERTEX
  8
C41
  10
78.386300
  20
51.730900
  0
VERTEX
  8
C41
  10
78.971300
  20
50.794800
  0
VERTEX
  8
C41
  10
79.727600
  20
50.027700
  0
VERTEX
  8
C41
  10
80.369800
  20
49.606500
  0
VERTEX
  8
C41
  10
81.104800
  20
49.259400
  0
VERTEX
  8
C41
  10
81.922300
  20
48.980200
  0
VERTEX
  8
C41
  10
82.812200
  20
48.763300
  0
VERTEX
  8
C41
  10
83.764600
  20
48.602800
  0
VERTEX
  8
C41
  10
84.769300
  20
48.492800
  0
VERTEX
  8
C41
  10
85.816200
  20
48.427500
  0
VERTEX
  8
C41
  10
86.895200
  20
48.401000
  0
VERTEX
  8
C41
  10
87.996200
  20
48.407500
  0
VERTEX
  8
C41
  10
89.109200
  20
48.441100
  0
VERTEX
  8
C41
  10
90.224100
  20
48.496000
  0
VERTEX
  8
C41
  10
91.330800
  20
48.566400
  0
VERTEX
  8
C41
  10
92.419100
  20
48.646300
  0
VERTEX
  8
C41
  10
93.479100
  20
48.730000
  0
VERTEX
  8
C41
  10
94.500600
  20
48.811600
  0
VERTEX
  8
C41
  10
95.473500
  20
48.885200
  0
VERTEX
  8
C41
  10
96.387700
  20
48.945100
  0
VERTEX
  8
C41
  10
97.233300
  20
48.985300
  0
VERTEX
  8
C41
  10
98.000000
  20
49.000000
  0
VERTEX
  8
C41
  10
98.050200
  20
49.960900
  0
VERTEX
  8
C41
  10
98.112800
  20
50.923200
  0
VERTEX
  8
C41
  10
98.187600
  20
51.886800
  0
VERTEX
  8
C41
  10
98.274100
  20
52.851600
  0
VERTEX
  8
C41
  10
98.372000
  20
53.817500
  0
VERTEX
  8
C41
  10
98.481000
  20
54.784400
  0
VERTEX
  8
C41
  10
98.600800
  20
55.752400
  0
VERTEX
  8
C41
  10
98.731000
  20
56.721300
  0
VERTEX
  8
C41
  10
98.871200
  20
57.691100
  0
VERTEX
  8
C41
  10
99.021100
  20
58.661700
  0
VERTEX
  8
C41
  10
99.180500
  20
59.633100
  0
VERTEX
  8
C41
  10
99.348900
  20
60.605200
  0
VERTEX
  8
C41
  10
99.526000
  20
61.577900
  0
VERTEX
  8
C41
  10
99.711400
  20
62.551200
  0
VERTEX
  8
C41
  10
99.904900
  20
63.525000
  0
VERTEX
  8
C41
  10
100.106100
  20
64.499300
  0
VERTEX
  8
C41
  10
100.314600
  20
65.473900
  0
VERTEX
  8
C41
  10
100.530100
  20
66.448900
  0
VERTEX
  8
C41
  10
100.752300
  20
67.424100
  0
VERTEX
  8
C41
  10
100.980800
  20
68.399500
  0
VERTEX
  8
C41
  10
101.215300
  20
69.375100
  0
VERTEX
  8
C41
  10
101.455500
  20
70.350700
  0
VERTEX
  8
C41
  10
101.701000
  20
71.326400
  0
VERTEX
  8
C41
  10
101.951400
  20
72.302000
  0
VERTEX
  8
C41
  10
102.206500
  20
73.277400
  0
VERTEX
  8
C41
  10
102.465900
  20
74.252800
  0
VERTEX
  8
C41
  10
102.729200
  20
75.227800
  0
VERTEX
  8
C41
  10
102.996100
  20
76.202600
  0
VERTEX
  8
C41
  10
103.266300
  20
77.177100
  0
VERTEX
  8
C41
  10
103.539500
  20
78.151100
  0
VERTEX
  8
C41
  10
103.815200
  20
79.124600
  0
VERTEX
  8
C41
  10
104.093200
  20
80.097600
  0
VERTEX
  8
C41
  10
104.373100
  20
81.069900
  0
VERTEX
  8
C41
  10
104.654600
  20
82.041600
  0
VERTEX
  8
C41
  10
104.937300
  20
83.012600
  0
VERTEX
  8
C41
  10
105.220900
  20
83.982800
  0
VERTEX
  8
C41
  10
105.505000
  20
84.952100
  0
VERTEX
  8
C41
  10
105.789400
  20
85.920500
  0
VERTEX
  8
C41
  10
106.073700
  20
86.887900
  0
VERTEX
  8
C41
  10
106.357500
  20
87.854300
  0
VERTEX
  8
C41
  10
106.640500
  20
88.819600
  0
VERTEX
  8
C41
  10
106.922400
  20
89.783700
  0
VERTEX
  8
C41
  10
107.202700
  20
90.746600
  0
VERTEX
  8
C41
  10
107.481300
  20
91.708100
  0
VERTEX
  8
C41
  10
107.757700
  20
92.668400
  0
VERTEX
  8
C41
  10
108.031600
  20
93.627200
  0
VERTEX
  8
C41
  10
108.302700
  20
94.584500
  0
VERTEX
  8
C41
  10
108.570600
  20
95.540300
  0
VERTEX
  8
C41
  10
108.834900
  20
96.494500
  0
VERTEX
  8
C41
  10
109.095400
  20
97.447100
  0
VERTEX
  8
C41
  10
109.351800
  20
98.397900
  0
VERTEX
  8
C41
  10
109.603500
  20
99.346900
  0
VERTEX
  8
C41
  10
109.850400
  20
100.294000
  0
VERTEX
  8
C41
  10
110.092100
  20
101.239300
  0
VERTEX
  8
C41
  10
110.328300
  20
102.182600
  0
VERTEX
  8
C41
  10
110.558500
  20
103.123800
  0
VERTEX
  8
C41
  10
110.782500
  20
104.063000
  0
VERTEX
  8
C41
  10
111.000000
  20
105.000000
  0
VERTEX
  8
C41
  10
92.000000
  20
105.000000
  0
VERTEX
  8
C41
  10
91.737700
  20
104.010100
  0
VERTEX
  8
C41
  10
91.476300
  20
103.020000
  0
VERTEX
  8
C41
  10
91.216200
  20
102.029500
  0
VERTEX
  8
C41
  10
90.957900
  20
101.038600
  0
VERTEX
  8
C41
  10
90.701800
  20
100.047100
  0
VERTEX
  8
C41
  10
90.448300
  20
99.054900
  0
VERTEX
  8
C41
  10
90.198100
  20
98.062000
  0
VERTEX
  8
C41
  10
89.951400
  20
97.068200
  0
VERTEX
  8
C41
  10
89.708900
  20
96.073600
  0
VERTEX
  8
C41
  10
89.470800
  20
95.077900
  0
VERTEX
  8
C41
  10
89.237800
  20
94.081100
  0
VERTEX
  8
C41
  10
89.010200
  20
93.083100
  0
VERTEX
  8
C41
  10
88.788600
  20
92.083800
  0
VERTEX
  8
C41
  10
88.573300
  20
91.083200
  0
VERTEX
  8
C41
  10
88.365000
  20
90.081000
  0
VERTEX
  8
C41
  10
88.163900
  20
89.077300
  0
VERTEX
  8
C41
  10
87.970600
  20
88.072000
  0
VERTEX
  8
C41
  10
87.785500
  20
87.064900
  0
VERTEX
  8
C41
  10
87.609100
  20
86.055900
  0
VERTEX
  8
C41
  10
87.441900
  20
85.045100
  0
VERTEX
  8
C41
  10
87.284400
  20
84.032200
  0
VERTEX
  8
C41
  10
87.136900
  20
83.017200
  0
VERTEX
  8
C41
  10
87.000000
  20
82.000000
  0
VERTEX
  8
C41
  10
86.679700
  20
82.947900
  0
VERTEX
  8
C41
  10
86.363400
  20
83.905300
  0
VERTEX
  8
C41
  10
86.051600
  20
84.871400
  0
VERTEX
  8
C41
  10
85.745300
  20
85.845600
  0
VERTEX
  8
C41
  10
85.445200
  20
86.827200
  0
VERTEX
  8
C41
  10
85.152000
  20
87.815500
  0
VERTEX
  8
C41
  10
84.866600
  20
88.809900
  0
VERTEX
  8
C41
  10
84.589800
  20
89.809600
  0
VERTEX
  8
C41
  10
84.322300
  20
90.814100
  0
VERTEX
  8
C41
  10
84.065000
  20
91.822600
  0
VERTEX
  8
C41
  10
83.818600
  20
92.834600
  0
VERTEX
  8
C41
  10
83.583900
  20
93.849300
  0
VERTEX
  8
C41
  10
83.361600
  20
94.866000
  0
VERTEX
  8
C41
  10
83.152700
  20
95.884100
  0
VERTEX
  8
C41
  10
82.957800
  20
96.903000
  0
VERTEX
  8
C41
  10
82.777800
  20
97.921900
  0
VERTEX
  8
C41
  10
82.613500
  20
98.940200
  0
VERTEX
  8
C41
  10
82.465600
  20
99.957200
  0
VERTEX
  8
C41
  10
82.334800
  20
100.972300
  0
VERTEX
  8
C41
  10
82.222100
  20
101.984800
  0
VERTEX
  8
C41
  10
82.128200
  20
102.994000
  0
VERTEX
  8
C41
  10
82.053900
  20
103.999300
  0
VERTEX
  8
C41
  10
82.000000
  20
105.000000
  0
VERTEX
  8
C41
  10
65.000000
  20
105.000000
  0
VERTEX
  8
C41
  10
64.801900
  20
104.009600
  0
VERTEX
  8
C41
  10
64.593100
  20
103.018300
  0
VERTEX
  8
C41
  10
64.375200
  20
102.025900
  0
VERTEX
  8
C41
  10
64.150100
  20
101.032600
  0
VERTEX
  8
C41
  10
63.919800
  20
100.038300
  0
VERTEX
  8
C41
  10
63.686100
  20
99.043000
  0
VERTEX
  8
C41
  10
63.450800
  20
98.046700
  0
VERTEX
  8
C41
  10
63.215700
  20
97.049600
  0
VERTEX
  8
C41
  10
62.982900
  20
96.051500
  0
VERTEX
  8
C41
  10
62.754100
  20
95.052500
  0
VERTEX
  8
C41
  10
62.531200
  20
94.052600
  0
VERTEX
  8
C41
  10
62.316000
  20
93.051900
  0
VERTEX
  8
C41
  10
62.110400
  20
92.050200
  0
VERTEX
  8
C41
  10
61.916300
  20
91.047800
  0
VERTEX
  8
C41
  10
61.735600
  20
90.044500
  0
VERTEX
  8
C41
  10
61.570000
  20
89.040500
  0
VERTEX
  8
C41
  10
61.421500
  20
88.035600
  0
VERTEX
  8
C41
  10
61.291900
  20
87.030000
  0
VERTEX
  8
C41
  10
61.183100
  20
86.023600
  0
VERTEX
  8
C41
  10
61.096900
  20
85.016400
  0
VERTEX
  8
C41
  10
61.035200
  20
84.008500
  0
VERTEX
  8
C41
  10
61.000000
  20
83.000000
  0
VERTEX
  8
C41
  10
59.000000
  20
83.000000
  0
VERTEX
  8
C41
  10
58.908000
  20
84.015400
  0
VERTEX
  8
C41
  10
58.795400
  20
85.027200
  0
VERTEX
  8
C41
  10
58.663900
  20
86.035900
  0
VERTEX
  8
C41
  10
58.515300
  20
87.041600
  0
VERTEX
  8
C41
  10
58.351500
  20
88.044700
  0
VERTEX
  8
C41
  10
58.174200
  20
89.045600
  0
VERTEX
  8
C41
  10
57.985400
  20
90.044400
  0
VERTEX
  8
C41
  10
57.786800
  20
91.041600
  0
VERTEX
  8
C41
  10
57.580200
  20
92.037400
  0
VERTEX
  8
C41
  10
57.367500
  20
93.032200
  0
VERTEX
  8
C41
  10
57.150500
  20
94.026200
  0
VERTEX
  8
C41
  10
56.931000
  20
95.019700
  0
VERTEX
  8
C41
  10
56.710800
  20
96.013200
  0
VERTEX
  8
C41
  10
56.491800
  20
97.006800
  0
VERTEX
  8
C41
  10
56.275800
  20
98.001000
  0
VERTEX
  8
C41
  10
56.064500
  20
98.995900
  0
VERTEX
  8
C41
  10
55.859900
  20
99.992000
  0
VERTEX
  8
C41
  10
55.663700
  20
100.989500
  0
VERTEX
  8
C41
  10
55.477800
  20
101.988700
  0
VERTEX
  8
C41
  10
55.304000
  20
102.990000
  0
VERTEX
  8
C41
  10
55.144100
  20
103.993600
  0
VERTEX
  8
C41
  10
55.000000
  20
105.000000
  0
VERTEX
  8
C41
  10
36.000000
  20
105.000000
  0
SEQEND
  8
C41
  0
POLYLINE
  8
C41
  66
1
  10
121.000000
  20
105.000000
  0
VERTEX
  8
C41
  10
121.000000
  20
105.000000
  0
VERTEX
  8
C41
  10
120.897100
  20
104.025000
  0
VERTEX
  8
C41
  10
120.783100
  20
103.050900
  0
VERTEX
  8
C41
  10
120.658300
  20
102.077800
  0
VERTEX
  8
C41
  10
120.523000
  20
101.105500
  0
VERTEX
  8
C41
  10
120.377700
  20
100.134000
  0
VERTEX
  8
C41
  10
120.222600
  20
99.163400
  0
VERTEX
  8
C41
  10
120.058300
  20
98.193500
  0
VERTEX
  8
C41
  10
119.885000
  20
97.224400
  0
VERTEX
  8
C41
  10
119.703100
  20
96.255900
  0
VERTEX
  8
C41
  10
119.512900
  20
95.288200
  0
VERTEX
  8
C41
  10
119.315000
  20
94.321100
  0
VERTEX
  8
C41
  10
119.109600
  20
93.354500
  0
VERTEX
  8
C41
  10
118.897000
  20
92.388600
  0
VERTEX
  8
C41
  10
118.677800
  20
91.423200
  0
VERTEX
  8
C41
  10
118.452100
  20
90.458300
  0
VERTEX
  8
C41
  10
118.220500
  20
89.494000
  0
VERTEX
  8
C41
  10
117.983300
  20
88.530000
  0
VERTEX
  8
C41
  10
117.740800
  20
87.566500
  0
VERTEX
  8
C41
  10
117.493500
  20
86.603400
  0
VERTEX
  8
C41
  10
117.241600
  20
85.640600
  0
VERTEX
  8
C41
  10
116.985700
  20
84.678100
  0
VERTEX
  8
C41
  10
116.725900
  20
83.715900
  0
VERTEX
  8
C41
  10
116.462800
  20
82.754000
  0
VERTEX
  8
C41
  10
116.196600
  20
81.792300
  0
VERTEX
  8
C41
  10
115.927800
  20
80.830800
  0
VERTEX
  8
C41
  10
115.656700
  20
79.869500
  0
VERTEX
  8
C41
  10
115.383800
  20
78.908300
  0
VERTEX
  8
C41
  10
115.109200
  20
77.947200
  0
VERTEX
  8
C41
  10
114.833600
  20
76.986100
  0
VERTEX
  8
C41
  10
114.557100
  20
76.025100
  0
VERTEX
  8
C41
  10
114.280200
  20
75.064100
  0
VERTEX
  8
C41
  10
114.003200
  20
74.103000
  0
VERTEX
  8
C41
  10
113.726600
  20
73.141900
  0
VERTEX
  8
C41
  10
113.450600
  20
72.180700
  0
VERTEX
  8
C41
  10
113.175800
  20
71.219400
  0
VERTEX
  8
C41
  10
112.902300
  20
70.257900
  0
VERTEX
  8
C41
  10
112.630700
  20
69.296200
  0
VERTEX
  8
C41
  10
112.361200
  20
68.334300
  0
VERTEX
  8
C41
  10
112.094300
  20
67.372200
  0
VERTEX
  8
C41
  10
111.830300
  20
66.409700
  0
VERTEX
  8
C41
  10
111.569500
  20
65.446900
  0
VERTEX
  8
C41
  10
111.312500
  20
64.483800
  0
VERTEX
  8
C41
  10
111.059500
  20
63.520300
  0
VERTEX
  8
C41
  10
110.810800
  20
62.556400
  0
VERTEX
  8
C41
  10
110.567000
  20
61.592000
  0
VERTEX
  8
C41
  10
110.328300
  20
60.627200
  0
VERTEX
  8
C41
  10
110.095100
  20
59.661800
  0
VERTEX
  8
C41
  10
109.867800
  20
58.695900
  0
VERTEX
  8
C41
  10
109.646700
  20
57.729500
  0
VERTEX
  8
C41
  10
109.432300
  20
56.762400
  0
VERTEX
  8
C41
  10
109.224800
  20
55.794600
  0
VERTEX
  8
C41
  10
109.024800
  20
54.826200
  0
VERTEX
  8
C41
  10
108.832500
  20
53.857100
  0
VERTEX
  8
C41
  10
108.648300
  20
52.887300
  0
VERTEX
  8
C41
  10
108.472500
  20
51.916700
  0
VERTEX
  8
C41
  10
108.305700
  20
50.945300
  0
VERTEX
  8
C41
  10
108.148000
  20
49.973100
  0
VERTEX
  8
C41
  10
108.000000
  20
49.000000
  0
VERTEX
  8
C41
  10
127.000000
  20
49.000000
  0
VERTEX
  8
C41
  10
128.000000
  20
57.000000
  0
VERTEX
  8
C41
  10
128.831700
  20
57.015100
  0
VERTEX
  8
C41
  10
129.730300
  20
57.056000
  0
VERTEX
  8
C41
  10
130.685900
  20
57.115500
  0
VERTEX
  8
C41
  10
131.688600
  20
57.186700
  0
VERTEX
  8
C41
  10
132.728800
  20
57.262400
  0
VERTEX
  8
C41
  10
133.796700
  20
57.335700
  0
VERTEX
  8
C41
  10
134.882400
  20
57.399600
  0
VERTEX
  8
C41
  10
135.976200
  20
57.446900
  0
VERTEX
  8
C41
  10
137.068300
  20
57.470800
  0
VERTEX
  8
C41
  10
138.149000
  20
57.464100
  0
VERTEX
  8
C41
  10
139.208300
  20
57.419900
  0
VERTEX
  8
C41
  10
140.236600
  20
57.331100
  0
VERTEX
  8
C41
  10
141.224100
  20
57.190600
  0
VERTEX
  8
C41
  10
142.161000
  20
56.991500
  0
VERTEX
  8
C41
  10
143.037500
  20
56.726800
  0
VERTEX
  8
C41
  10
143.843800
  20
56.389300
  0
VERTEX
  8
C41
  10
144.570200
  20
55.972200
  0
VERTEX
  8
C41
  10
145.275700
  20
55.385100
  0
VERTEX
  8
C41
  10
145.847400
  20
54.700400
  0
VERTEX
  8
C41
  10
146.323600
  20
53.948100
  0
VERTEX
  8
C41
  10
146.743100
  20
53.158400
  0
VERTEX
  8
C41
  10
147.144400
  20
52.361200
  0
VERTEX
  8
C41
  10
147.566000
  20
51.586800
  0
VERTEX
  8
C41
  10
148.046600
  20
50.865100
  0
VERTEX
  8
C41
  10
148.624600
  20
50.226400
  0
VERTEX
  8
C41
  10
149.338800
  20
49.700600
  0
VERTEX
  8
C41
  10
150.227600
  20
49.317900
  0
VERTEX
  8
C41
  10
151.112100
  20
49.081000
  0
VERTEX
  8
C41
  10
152.030600
  20
48.895000
  0
VERTEX
  8
C41
  10
152.978800
  20
48.755000
  0
VERTEX
  8
C41
  10
153.952600
  20
48.656400
  0
VERTEX
  8
C41
  10
154.947600
  20
48.594400
  0
VERTEX
  8
C41
  10
155.959700
  20
48.564400
  0
VERTEX
  8
C41
  10
156.984400
  20
48.561700
  0
VERTEX
  8
C41
  10
158.017800
  20
48.581500
  0
VERTEX
  8
C41
  10
159.055300
  20
48.619200
  0
VERTEX
  8
C41
  10
160.092900
  20
48.670100
  0
VERTEX
  8
C41
  10
161.126300
  20
48.729400
  0
VERTEX
  8
C41
  10
162.151200
  20
48.792500
  0
VERTEX
  8
C41
  10
163.163400
  20
48.854600
  0
VERTEX
  8
C41
  10
164.158600
  20
48.911200
  0
VERTEX
  8
C41
  10
165.132600
  20
48.957400
  0
VERTEX
  8
C41
  10
166.081100
  20
48.988500
  0
VERTEX
  8
C41
  10
167.000000
  20
49.000000
  0
VERTEX
  8
C41
  10
166.750400
  20
49.961200
  0
VERTEX
  8
C41
  10
166.499100
  20
50.923900
  0
VERTEX
  8
C41
  10
166.246100
  20
51.888100
  0
VERTEX
  8
C41
  10
165.991700
  20
52.853700
  0
VERTEX
  8
C41
  10
165.735900
  20
53.820600
  0
VERTEX
  8
C41
  10
165.478800
  20
54.788800
  0
VERTEX
  8
C41
  10
165.220700
  20
55.758400
  0
VERTEX
  8
C41
  10
164.961600
  20
56.729200
  0
VERTEX
  8
C41
  10
164.701700
  20
57.701200
  0
VERTEX
  8
C41
  10
164.441200
  20
58.674300
  0
VERTEX
  8
C41
  10
164.180100
  20
59.648600
  0
VERTEX
  8
C41
  10
163.918700
  20
60.624000
  0
VERTEX
  8
C41
  10
163.656900
  20
61.600400
  0
VERTEX
  8
C41
  10
163.395100
  20
62.577800
  0
VERTEX
  8
C41
  10
163.133300
  20
63.556200
  0
VERTEX
  8
C41
  10
162.871700
  20
64.535500
  0
VERTEX
  8
C41
  10
162.610400
  20
65.515800
  0
VERTEX
  8
C41
  10
162.349500
  20
66.496800
  0
VERTEX
  8
C41
  10
162.089200
  20
67.478700
  0
VERTEX
  8
C41
  10
161.829600
  20
68.461300
  0
VERTEX
  8
C41
  10
161.570800
  20
69.444700
  0
VERTEX
  8
C41
  10
161.313100
  20
70.428800
  0
VERTEX
  8
C41
  10
161.056500
  20
71.413500
  0
VERTEX
  8
C41
  10
160.801200
  20
72.398800
  0
VERTEX
  8
C41
  10
160.547300
  20
73.384700
  0
VERTEX
  8
C41
  10
160.295000
  20
74.371200
  0
VERTEX
  8
C41
  10
160.044300
  20
75.358100
  0
VERTEX
  8
C41
  10
159.795500
  20
76.345500
  0
VERTEX
  8
C41
  10
159.548600
  20
77.333300
  0
VERTEX
  8
C41
  10
159.303900
  20
78.321500
  0
VERTEX
  8
C41
  10
159.061400
  20
79.310000
  0
VERTEX
  8
C41
  10
158.821300
  20
80.298800
  0
VERTEX
  8
C41
  10
158.583700
  20
81.287900
  0
VERTEX
  8
C41
  10
158.348800
  20
82.277100
  0
VERTEX
  8
C41
  10
158.116600
  20
83.266600
  0
VERTEX
  8
C41
  10
157.887500
  20
84.256200
  0
VERTEX
  8
C41
  10
157.661400
  20
85.245900
  0
VERTEX
  8
C41
  10
157.438500
  20
86.235700
  0
VERTEX
  8
C41
  10
157.219000
  20
87.225500
  0
VERTEX
  8
C41
  10
157.002900
  20
88.215200
  0
VERTEX
  8
C41
  10
156.790500
  20
89.204900
  0
VERTEX
  8
C41
  10
156.581900
  20
90.194500
  0
VERTEX
  8
C41
  10
156.377200
  20
91.184000
  0
VERTEX
  8
C41
  10
156.176600
  20
92.173300
  0
VERTEX
  8
C41
  10
155.980100
  20
93.162400
  0
VERTEX
  8
C41
  10
155.788000
  20
94.151200
  0
VERTEX
  8
C41
  10
155.600300
  20
95.139700
  0
VERTEX
  8
C41
  10
155.417200
  20
96.127900
  0
VERTEX
  8
C41
  10
155.238900
  20
97.115700
  0
VERTEX
  8
C41
  10
155.065500
  20
98.103100
  0
VERTEX
  8
C41
  10
154.897100
  20
99.090000
  0
VERTEX
  8
C41
  10
154.733900
  20
100.076500
  0
VERTEX
  8
C41
  10
154.575900
  20
101.062400
  0
VERTEX
  8
C41
  10
154.423400
  20
102.047700
  0
VERTEX
  8
C41
  10
154.276500
  20
103.032500
  0
VERTEX
  8
C41
  10
154.135300
  20
104.016600
  0
VERTEX
  8
C41
  10
154.000000
  20
105.000000
  0
VERTEX
  8
C41
  10
121.000000
  20
105.000000
  0
SEQEND
  8
C41
  0
POLYLINE
  8
C41
  66
1
  10
170.000000
  20
105.000000
  0
VERTEX
  8
C41
  10
170.000000
  20
105.000000
  0
VERTEX
  8
C41
  10
170.000000
  20
49.000000
  0
VERTEX
  8
C41
  10
188.000000
  20
49.000000
  0
VERTEX
  8
C41
  10
188.000000
  20
67.000000
  0
VERTEX
  8
C41
  10
188.682300
  20
66.390900
  0
VERTEX
  8
C41
  10
189.362300
  20
65.749300
  0
VERTEX
  8
C41
  10
190.040900
  20
65.078600
  0
VERTEX
  8
C41
  10
190.718700
  20
64.382400
  0
VERTEX
  8
C41
  10
191.396600
  20
63.664300
  0
VERTEX
  8
C41
  10
192.075600
  20
62.927700
  0
VERTEX
  8
C41
  10
192.756300
  20
62.176400
  0
VERTEX
  8
C41
  10
193.439800
  20
61.413700
  0
VERTEX
  8
C41
  10
194.126700
  20
60.643400
  0
VERTEX
  8
C41
  10
194.817900
  20
59.868800
  0
VERTEX
  8
C41
  10
195.514300
  20
59.093700
  0
VERTEX
  8
C41
  10
196.216700
  20
58.321500
  0
VERTEX
  8
C41
  10
196.925900
  20
57.555800
  0
VERTEX
  8
C41
  10
197.642800
  20
56.800100
  0
VERTEX
  8
C41
  10
198.368100
  20
56.058100
  0
VERTEX
  8
C41
  10
199.102800
  20
55.333200
  0
VERTEX
  8
C41
  10
199.847700
  20
54.629100
  0
VERTEX
  8
C41
  10
200.603600
  20
53.949200
  0
VERTEX
  8
C41
  10
201.371300
  20
53.297200
  0
VERTEX
  8
C41
  10
202.151700
  20
52.676600
  0
VERTEX
  8
C41
  10
202.945600
  20
52.090900
  0
VERTEX
  8
C41
  10
203.753800
  20
51.543700
  0
VERTEX
  8
C41
  10
204.577200
  20
51.038600
  0
VERTEX
  8
C41
  10
205.416600
  20
50.579100
  0
VERTEX
  8
C41
  10
206.272900
  20
50.168800
  0
VERTEX
  8
C41
  10
207.146800
  20
49.811200
  0
VERTEX
  8
C41
  10
208.039300
  20
49.510000
  0
VERTEX
  8
C41
  10
208.972200
  20
49.265600
  0
VERTEX
  8
C41
  10
209.932400
  20
49.081200
  0
VERTEX
  8
C41
  10
210.915300
  20
48.949800
  0
VERTEX
  8
C41
  10
211.916500
  20
48.864300
  0
VERTEX
  8
C41
  10
212.931400
  20
48.817700
  0
VERTEX
  8
C41
  10
213.955400
  20
48.802900
  0
VERTEX
  8
C41
  10
214.984100
  20
48.812900
  0
VERTEX
  8
C41
  10
216.012800
  20
48.840700
  0
VERTEX
  8
C41
  10
217.037200
  20
48.879300
  0
VERTEX
  8
C41
  10
218.052600
  20
48.921500
  0
VERTEX
  8
C41
  10
219.054600
  20
48.960400
  0
VERTEX
  8
C41
  10
220.038500
  20
48.988900
  0
VERTEX
  8
C41
  10
221.000000
  20
49.000000
  0
VERTEX
  8
C41
  10
245.000000
  20
49.000000
  0
VERTEX
  8
C41
  10
245.959700
  20
48.990000
  0
VERTEX
  8
C41
  10
246.942000
  20
48.963900
  0
VERTEX
  8
C41
  10
247.943200
  20
48.927100
  0
VERTEX
  8
C41
  10
248.959600
  20
48.885300
  0
VERTEX
  8
C41
  10
249.987500
  20
48.844000
  0
VERTEX
  8
C41
  10
251.023300
  20
48.808600
  0
VERTEX
  8
C41
  10
252.063100
  20
48.784900
  0
VERTEX
  8
C41
  10
253.103500
  20
48.778300
  0
VERTEX
  8
C41
  10
254.140600
  20
48.794400
  0
VERTEX
  8
C41
  10
255.170800
  20
48.838800
  0
VERTEX
  8
C41
  10
256.190300
  20
48.916900
  0
VERTEX
  8
C41
  10
257.195600
  20
49.034500
  0
VERTEX
  8
C41
  10
258.182900
  20
49.196900
  0
VERTEX
  8
C41
  10
259.148500
  20
49.409800
  0
VERTEX
  8
C41
  10
260.088800
  20
49.678700
  0
VERTEX
  8
C41
  10
261.000000
  20
50.009200
  0
VERTEX
  8
C41
  10
261.858200
  20
50.388400
  0
VERTEX
  8
C41
  10
262.683400
  20
50.815100
  0
VERTEX
  8
C41
  10
263.474500
  20
51.287300
  0
VERTEX
  8
C41
  10
264.230700
  20
51.802400
  0
VERTEX
  8
C41
  10
264.951300
  20
52.358300
  0
VERTEX
  8
C41
  10
265.635200
  20
52.952600
  0
VERTEX
  8
C41
  10
266.281800
  20
53.583200
  0
VERTEX
  8
C41
  10
266.890100
  20
54.247600
  0
VERTEX
  8
C41
  10
267.459200
  20
54.943700
  0
VERTEX
  8
C41
  10
267.988400
  20
55.669200
  0
VERTEX
  8
C41
  10
268.476700
  20
56.421700
  0
VERTEX
  8
C41
  10
268.923400
  20
57.199100
  0
VERTEX
  8
C41
  10
269.327500
  20
57.998900
  0
VERTEX
  8
C41
  10
269.688200
  20
58.819000
  0
VERTEX
  8
C41
  10
270.004700
  20
59.657100
  0
VERTEX
  8
C41
  10
270.276100
  20
60.510900
  0
VERTEX
  8
C41
  10
270.501500
  20
61.378000
  0
VERTEX
  8
C41
  10
270.680100
  20
62.256300
  0
VERTEX
  8
C41
  10
270.811100
  20
63.143400
  0
VERTEX
  8
C41
  10
270.893500
  20
64.037100
  0
VERTEX
  8
C41
  10
270.926600
  20
64.935100
  0
VERTEX
  8
C41
  10
270.909400
  20
65.835100
  0
VERTEX
  8
C41
  10
270.841200
  20
66.734800
  0
VERTEX
  8
C41
  10
270.721100
  20
67.632000
  0
VERTEX
  8
C41
  10
270.548200
  20
68.524400
  0
VERTEX
  8
C41
  10
270.321600
  20
69.409600
  0
VERTEX
  8
C41
  10
270.040600
  20
70.285500
  0
VERTEX
  8
C41
  10
269.704200
  20
71.149700
  0
VERTEX
  8
C41
  10
269.311700
  20
72.000000
  0
VERTEX
  8
C41
  10
268.858400
  20
72.861500
  0
VERTEX
  8
C41
  10
268.367600
  20
73.711100
  0
VERTEX
  8
C41
  10
267.842500
  20
74.549300
  0
VERTEX
  8
C41
  10
267.286200
  20
75.376500
  0
VERTEX
  8
C41
  10
266.701900
  20
76.192800
  0
VERTEX
  8
C41
  10
266.092800
  20
76.998900
  0
VERTEX
  8
C41
  10
265.462000
  20
77.794900
  0
VERTEX
  8
C41
  10
264.812700
  20
78.581400
  0
VERTEX
  8
C41
  10
264.148100
  20
79.358600
  0
VERTEX
  8
C41
  10
263.471400
  20
80.127000
  0
VERTEX
  8
C41
  10
262.785600
  20
80.886900
  0
VERTEX
  8
C41
  10
262.094100
  20
81.638600
  0
VERTEX
  8
C41
  10
261.399800
  20
82.382700
  0
VERTEX
  8
C41
  10
260.706100
  20
83.119400
  0
VERTEX
  8
C41
  10
260.016100
  20
83.849100
  0
VERTEX
  8
C41
  10
259.333000
  20
84.572100
  0
VERTEX
  8
C41
  10
258.659900
  20
85.289000
  0
VERTEX
  8
C41
  10
258.000000
  20
86.000000
  0
VERTEX
  8
C41
  10
287.000000
  20
86.000000
  0
VERTEX
  8
C41
  10
287.000000
  20
105.000000
  0
VERTEX
  8
C41
  10
262.000000
  20
105.000000
  0
VERTEX
  8
C41
  10
261.027000
  20
105.009200
  0
VERTEX
  8
C41
  10
260.037100
  20
105.033000
  0
VERTEX
  8
C41
  10
259.033600
  20
105.065700
  0
VERTEX
  8
C41
  10
258.019600
  20
105.101300
  0
VERTEX
  8
C41
  10
256.998200
  20
105.134300
  0
VERTEX
  8
C41
  10
255.972700
  20
105.158600
  0
VERTEX
  8
C41
  10
254.946200
  20
105.168700
  0
VERTEX
  8
C41
  10
253.921900
  20
105.158500
  0
VERTEX
  8
C41
  10
252.903000
  20
105.122500
  0
VERTEX
  8
C41
  10
251.892600
  20
105.054800
  0
VERTEX
  8
C41
  10
250.893900
  20
104.949500
  0
VERTEX
  8
C41
  10
249.910100
  20
104.801000
  0
VERTEX
  8
C41
  10
248.944400
  20
104.603400
  0
VERTEX
  8
C41
  10
248.000000
  20
104.351000
  0
VERTEX
  8
C41
  10
247.093600
  20
104.047300
  0
VERTEX
  8
C41
  10
246.215100
  20
103.693700
  0
VERTEX
  8
C41
  10
245.365700
  20
103.292200
  0
VERTEX
  8
C41
  10
244.546700
  20
102.844900
  0
VERTEX
  8
C41
  10
243.759200
  20
102.353900
  0
VERTEX
  8
C41
  10
243.004400
  20
101.821500
  0
VERTEX
  8
C41
  10
242.283700
  20
101.249600
  0
VERTEX
  8
C41
  10
241.598100
  20
100.640500
  0
VERTEX
  8
C41
  10
240.948900
  20
99.996200
  0
VERTEX
  8
C41
  10
240.337300
  20
99.319000
  0
VERTEX
  8
C41
  10
239.764600
  20
98.610800
  0
VERTEX
  8
C41
  10
239.231900
  20
97.873800
  0
VERTEX
  8
C41
  10
238.740500
  20
97.110200
  0
VERTEX
  8
C41
  10
238.291500
  20
96.322000
  0
VERTEX
  8
C41
  10
237.886300
  20
95.511500
  0
VERTEX
  8
C41
  10
237.526000
  20
94.680600
  0
VERTEX
  8
C41
  10
237.211800
  20
93.831600
  0
VERTEX
  8
C41
  10
236.945000
  20
92.966600
  0
VERTEX
  8
C41
  10
236.726800
  20
92.087600
  0
VERTEX
  8
C41
  10
236.558300
  20
91.196900
  0
VERTEX
  8
C41
  10
236.440800
  20
90.296500
  0
VERTEX
  8
C41
  10
236.375500
  20
89.388500
  0
VERTEX
  8
C41
  10
236.363700
  20
88.475100
  0
VERTEX
  8
C41
  10
236.406500
  20
87.558400
  0
VERTEX
  8
C41
  10
236.505200
  20
86.640600
  0
VERTEX
  8
C41
  10
236.661000
  20
85.723700
  0
VERTEX
  8
C41
  10
236.875100
  20
84.809900
  0
VERTEX
  8
C41
  10
237.148600
  20
83.901300
  0
VERTEX
  8
C41
  10
237.483000
  20
83.000000
  0
VERTEX
  8
C41
  10
237.875300
  20
82.101100
  0
VERTEX
  8
C41
  10
238.308800
  20
81.223700
  0
VERTEX
  8
C41
  10
238.780100
  20
80.365900
  0
VERTEX
  8
C41
  10
239.285200
  20
79.525800
  0
VERTEX
  8
C41
  10
239.820700
  20
78.701600
  0
VERTEX
  8
C41
  10
240.382800
  20
77.891400
  0
VERTEX
  8
C41
  10
240.968000
  20
77.093500
  0
VERTEX
  8
C41
  10
241.572400
  20
76.306100
  0
VERTEX
  8
C41
  10
242.192500
  20
75.527100
  0
VERTEX
  8
C41
  10
242.824600
  20
74.754900
  0
VERTEX
  8
C41
  10
243.465000
  20
73.987600
  0
VERTEX
  8
C41
  10
244.110100
  20
73.223400
  0
VERTEX
  8
C41
  10
244.756200
  20
72.460400
  0
VERTEX
  8
C41
  10
245.399700
  20
71.696800
  0
VERTEX
  8
C41
  10
246.036800
  20
70.930800
  0
VERTEX
  8
C41
  10
246.664000
  20
70.160500
  0
VERTEX
  8
C41
  10
247.277600
  20
69.384100
  0
VERTEX
  8
C41
  10
247.873900
  20
68.599800
  0
VERTEX
  8
C41
  10
248.449200
  20
67.805700
  0
VERTEX
  8
C41
  10
249.000000
  20
67.000000
  0
VERTEX
  8
C41
  10
226.000000
  20
67.000000
  0
VERTEX
  8
C41
  10
224.960800
  20
66.994800
  0
VERTEX
  8
C41
  10
223.938700
  20
66.983200
  0
VERTEX
  8
C41
  10
222.932800
  20
66.971000
  0
VERTEX
  8
C41
  10
221.942000
  20
66.963900
  0
VERTEX
  8
C41
  10
220.965400
  20
66.968000
  0
VERTEX
  8
C41
  10
220.002100
  20
66.988900
  0
VERTEX
  8
C41
  10
219.050900
  20
67.032500
  0
VERTEX
  8
C41
  10
218.111100
  20
67.104700
  0
VERTEX
  8
C41
  10
217.181500
  20
67.211200
  0
VERTEX
  8
C41
  10
216.261300
  20
67.357900
  0
VERTEX
  8
C41
  10
215.349500
  20
67.550600
  0
VERTEX
  8
C41
  10
214.445100
  20
67.795200
  0
VERTEX
  8
C41
  10
213.547100
  20
68.097500
  0
VERTEX
  8
C41
  10
212.654500
  20
68.463200
  0
VERTEX
  8
C41
  10
211.766500
  20
68.898400
  0
VERTEX
  8
C41
  10
210.881900
  20
69.408700
  0
VERTEX
  8
C41
  10
210.000000
  20
70.000000
  0
VERTEX
  8
C41
  10
210.837900
  20
70.308200
  0
VERTEX
  8
C41
  10
211.646900
  20
70.652300
  0
VERTEX
  8
C41
  10
212.426800
  20
71.030900
  0
VERTEX
  8
C41
  10
213.177400
  20
71.442800
  0
VERTEX
  8
C41
  10
213.898500
  20
71.886400
  0
VERTEX
  8
C41
  10
214.589900
  20
72.360500
  0
VERTEX
  8
C41
  10
215.251500
  20
72.863600
  0
VERTEX
  8
C41
  10
215.883100
  20
73.394500
  0
VERTEX
  8
C41
  10
216.484500
  20
73.951600
  0
VERTEX
  8
C41
  10
217.055600
  20
74.533700
  0
VERTEX
  8
C41
  10
217.596100
  20
75.139500
  0
VERTEX
  8
C41
  10
218.105900
  20
75.767400
  0
VERTEX
  8
C41
  10
218.584800
  20
76.416200
  0
VERTEX
  8
C41
  10
219.032700
  20
77.084500
  0
VERTEX
  8
C41
  10
219.449300
  20
77.770900
  0
VERTEX
  8
C41
  10
219.834600
  20
78.474100
  0
VERTEX
  8
C41
  10
220.188200
  20
79.192700
  0
VERTEX
  8
C41
  10
220.510100
  20
79.925200
  0
VERTEX
  8
C41
  10
220.800100
  20
80.670500
  0
VERTEX
  8
C41
  10
221.058000
  20
81.427000
  0
VERTEX
  8
C41
  10
221.283500
  20
82.193400
  0
VERTEX
  8
C41
  10
221.476600
  20
82.968300
  0
VERTEX
  8
C41
  10
221.637100
  20
83.750500
  0
VERTEX
  8
C41
  10
221.764800
  20
84.538400
  0
VERTEX
  8
C41
  10
221.859500
  20
85.330800
  0
VERTEX
  8
C41
  10
221.921100
  20
86.126300
  0
VERTEX
  8
C41
  10
221.949300
  20
86.923500
  0
VERTEX
  8
C41
  10
221.944000
  20
87.721000
  0
VERTEX
  8
C41
  10
221.905000
  20
88.517400
  0
VERTEX
  8
C41
  10
221.832100
  20
89.311500
  0
VERTEX
  8
C41
  10
221.725300
  20
90.101800
  0
VERTEX
  8
C41
  10
221.584200
  20
90.887000
  0
VERTEX
  8
C41
  10
221.408800
  20
91.665700
  0
VERTEX
  8
C41
  10
221.198700
  20
92.436500
  0
VERTEX
  8
C41
  10
220.954000
  20
93.198000
  0
VERTEX
  8
C41
  10
220.674300
  20
93.949000
  0
VERTEX
  8
C41
  10
220.359600
  20
94.688000
  0
VERTEX
  8
C41
  10
220.009600
  20
95.413600
  0
VERTEX
  8
C41
  10
219.624200
  20
96.124500
  0
VERTEX
  8
C41
  10
219.203200
  20
96.819400
  0
VERTEX
  8
C41
  10
218.746400
  20
97.496800
  0
VERTEX
  8
C41
  10
218.253600
  20
98.155400
  0
VERTEX
  8
C41
  10
217.724700
  20
98.793700
  0
VERTEX
  8
C41
  10
217.159500
  20
99.410600
  0
VERTEX
  8
C41
  10
216.557800
  20
100.004500
  0
VERTEX
  8
C41
  10
215.919500
  20
100.574200
  0
VERTEX
  8
C41
  10
215.244300
  20
101.118100
  0
VERTEX
  8
C41
  10
214.532100
  20
101.635100
  0
VERTEX
  8
C41
  10
213.782800
  20
102.123600
  0
VERTEX
  8
C41
  10
212.996100
  20
102.582500
  0
VERTEX
  8
C41
  10
212.060400
  20
103.059600
  0
VERTEX
  8
C41
  10
211.111700
  20
103.471200
  0
VERTEX
  8
C41
  10
210.150900
  20
103.822200
  0
VERTEX
  8
C41
  10
209.179100
  20
104.117200
  0
VERTEX
  8
C41
  10
208.197300
  20
104.360900
  0
VERTEX
  8
C41
  10
207.206500
  20
104.558000
  0
VERTEX
  8
C41
  10
206.207700
  20
104.713200
  0
VERTEX
  8
C41
  10
205.201900
  20
104.831300
  0
VERTEX
  8
C41
  10
204.190000
  20
104.917000
  0
VERTEX
  8
C41
  10
203.173200
  20
104.974900
  0
VERTEX
  8
C41
  10
202.152400
  20
105.009800
  0
VERTEX
  8
C41
  10
201.128600
  20
105.026400
  0
VERTEX
  8
C41
  10
200.102800
  20
105.029500
  0
VERTEX
  8
C41
  10
199.076000
  20
105.023600
  0
VERTEX
  8
C41
  10
198.049300
  20
105.013600
  0
VERTEX
  8
C41
  10
197.023600
  20
105.004200
  0
VERTEX
  8
C41
  10
196.000000
  20
105.000000
  0
VERTEX
  8
C41
  10
170.000000
  20
105.000000
  0
SEQEND
  8
C19
  0
POLYLINE
  8
C19
  66
1
  10
40.000000
  20
102.000000
  0
VERTEX
  8
C19
  10
40.000000
  20
102.000000
  0
VERTEX
  8
C19
  10
40.051000
  20
101.019600
  0
VERTEX
  8
C19
  10
40.119300
  20
100.041200
  0
VERTEX
  8
C19
  10
40.204200
  20
99.064800
  0
VERTEX
  8
C19
  10
40.305000
  20
98.090300
  0
VERTEX
  8
C19
  10
40.421000
  20
97.117500
  0
VERTEX
  8
C19
  10
40.551700
  20
96.146500
  0
VERTEX
  8
C19
  10
40.696300
  20
95.177100
  0
VERTEX
  8
C19
  10
40.854200
  20
94.209300
  0
VERTEX
  8
C19
  10
41.024700
  20
93.243000
  0
VERTEX
  8
C19
  10
41.207200
  20
92.278000
  0
VERTEX
  8
C19
  10
41.401000
  20
91.314400
  0
VERTEX
  8
C19
  10
41.605500
  20
90.352100
  0
VERTEX
  8
C19
  10
41.820000
  20
89.390900
  0
VERTEX
  8
C19
  10
42.043900
  20
88.430800
  0
VERTEX
  8
C19
  10
42.276500
  20
87.471800
  0
VERTEX
  8
C19
  10
42.517100
  20
86.513700
  0
VERTEX
  8
C19
  10
42.765100
  20
85.556400
  0
VERTEX
  8
C19
  10
43.019800
  20
84.600000
  0
VERTEX
  8
C19
  10
43.280600
  20
83.644300
  0
VERTEX
  8
C19
  10
43.546800
  20
82.689200
  0
VERTEX
  8
C19
  10
43.817700
  20
81.734600
  0
VERTEX
  8
C19
  10
44.092800
  20
80.780600
  0
VERTEX
  8
C19
  10
44.371300
  20
79.826900
  0
VERTEX
  8
C19
  10
44.652700
  20
78.873600
  0
VERTEX
  8
C19
  10
44.936100
  20
77.920500
  0
VERTEX
  8
C19
  10
45.221100
  20
76.967600
  0
VERTEX
  8
C19
  10
45.506800
  20
76.014800
  0
VERTEX
  8
C19
  10
45.792800
  20
75.062000
  0
VERTEX
  8
C19
  10
46.078200
  20
74.109100
  0
VERTEX
  8
C19
  10
46.362500
  20
73.156200
  0
VERTEX
  8
C19
  10
46.645000
  20
72.203000
  0
VERTEX
  8
C19
  10
46.925100
  20
71.249500
  0
VERTEX
  8
C19
  10
47.202000
  20
70.295600
  0
VERTEX
  8
C19
  10
47.475200
  20
69.341300
  0
VERTEX
  8
C19
  10
47.743900
  20
68.386500
  0
VERTEX
  8
C19
  10
48.007600
  20
67.431100
  0
VERTEX
  8
C19
  10
48.265500
  20
66.475000
  0
VERTEX
  8
C19
  10
48.517000
  20
65.518100
  0
VERTEX
  8
C19
  10
48.761500
  20
64.560400
  0
VERTEX
  8
C19
  10
48.998300
  20
63.601900
  0
VERTEX
  8
C19
  10
49.226700
  20
62.642300
  0
VERTEX
  8
C19
  10
49.446100
  20
61.681700
  0
VERTEX
  8
C19
  10
49.655900
  20
60.719900
  0
VERTEX
  8
C19
  10
49.855300
  20
59.756900
  0
VERTEX
  8
C19
  10
50.043700
  20
58.792600
  0
VERTEX
  8
C19
  10
50.220500
  20
57.827000
  0
VERTEX
  8
C19
  10
50.385000
  20
56.859900
  0
VERTEX
  8
C19
  10
50.536500
  20
55.891200
  0
VERTEX
  8
C19
  10
50.674400
  20
54.921000
  0
VERTEX
  8
C19
  10
50.798100
  20
53.949100
  0
VERTEX
  8
C19
  10
50.906800
  20
52.975400
  0
VERTEX
  8
C19
  10
51.000000
  20
52.000000
  0
VERTEX
  8
C19
  10
66.000000
  20
52.000000
  0
VERTEX
  8
C19
  10
66.209300
  20
52.998300
  0
VERTEX
  8
C19
  10
66.424900
  20
53.996300
  0
VERTEX
  8
C19
  10
66.646100
  20
54.993800
  0
VERTEX
  8
C19
  10
66.872400
  20
55.990900
  0
VERTEX
  8
C19
  10
67.103200
  20
56.987800
  0
VERTEX
  8
C19
  10
67.337900
  20
57.984500
  0
VERTEX
  8
C19
  10
67.576100
  20
58.980900
  0
VERTEX
  8
C19
  10
67.817000
  20
59.977300
  0
VERTEX
  8
C19
  10
68.060300
  20
60.973500
  0
VERTEX
  8
C19
  10
68.305200
  20
61.969800
  0
VERTEX
  8
C19
  10
68.551300
  20
62.966100
  0
VERTEX
  8
C19
  10
68.798100
  20
63.962500
  0
VERTEX
  8
C19
  10
69.044800
  20
64.959100
  0
VERTEX
  8
C19
  10
69.291100
  20
65.955900
  0
VERTEX
  8
C19
  10
69.536300
  20
66.953000
  0
VERTEX
  8
C19
  10
69.779900
  20
67.950400
  0
VERTEX
  8
C19
  10
70.021200
  20
68.948200
  0
VERTEX
  8
C19
  10
70.259900
  20
69.946400
  0
VERTEX
  8
C19
  10
70.495200
  20
70.945100
  0
VERTEX
  8
C19
  10
70.726600
  20
71.944400
  0
VERTEX
  8
C19
  10
70.953700
  20
72.944300
  0
VERTEX
  8
C19
  10
71.175800
  20
73.944900
  0
VERTEX
  8
C19
  10
71.392300
  20
74.946200
  0
VERTEX
  8
C19
  10
71.602700
  20
75.948300
  0
VERTEX
  8
C19
  10
71.806500
  20
76.951200
  0
VERTEX
  8
C19
  10
72.003100
  20
77.955000
  0
VERTEX
  8
C19
  10
72.191900
  20
78.959800
  0
VERTEX
  8
C19
  10
72.372400
  20
79.965600
  0
VERTEX
  8
C19
  10
72.544000
  20
80.972400
  0
VERTEX
  8
C19
  10
72.706200
  20
81.980400
  0
VERTEX
  8
C19
  10
72.858300
  20
82.989600
  0
VERTEX
  8
C19
  10
73.000000
  20
84.000000
  0
VERTEX
  8
C19
  10
73.361900
  20
83.138400
  0
VERTEX
  8
C19
  10
73.713600
  20
82.261000
  0
VERTEX
  8
C19
  10
74.055100
  20
81.368600
  0
VERTEX
  8
C19
  10
74.386400
  20
80.462000
  0
VERTEX
  8
C19
  10
74.707800
  20
79.542200
  0
VERTEX
  8
C19
  10
75.019200
  20
78.610100
  0
VERTEX
  8
C19
  10
75.320900
  20
77.666500
  0
VERTEX
  8
C19
  10
75.612700
  20
76.712300
  0
VERTEX
  8
C19
  10
75.894900
  20
75.748400
  0
VERTEX
  8
C19
  10
76.167500
  20
74.775600
  0
VERTEX
  8
C19
  10
76.430700
  20
73.795000
  0
VERTEX
  8
C19
  10
76.684500
  20
72.807200
  0
VERTEX
  8
C19
  10
76.928900
  20
71.813400
  0
VERTEX
  8
C19
  10
77.164100
  20
70.814200
  0
VERTEX
  8
C19
  10
77.390200
  20
69.810600
  0
VERTEX
  8
C19
  10
77.607300
  20
68.803500
  0
VERTEX
  8
C19
  10
77.815400
  20
67.793800
  0
VERTEX
  8
C19
  10
78.014700
  20
66.782300
  0
VERTEX
  8
C19
  10
78.205100
  20
65.769900
  0
VERTEX
  8
C19
  10
78.386900
  20
64.757500
  0
VERTEX
  8
C19
  10
78.560100
  20
63.746100
  0
VERTEX
  8
C19
  10
78.724800
  20
62.736400
  0
VERTEX
  8
C19
  10
78.881100
  20
61.729400
  0
VERTEX
  8
C19
  10
79.029000
  20
60.725900
  0
VERTEX
  8
C19
  10
79.168700
  20
59.726900
  0
VERTEX
  8
C19
  10
79.300200
  20
58.733100
  0
VERTEX
  8
C19
  10
79.423700
  20
57.745600
  0
VERTEX
  8
C19
  10
79.539100
  20
56.765100
  0
VERTEX
  8
C19
  10
79.646700
  20
55.792600
  0
VERTEX
  8
C19
  10
79.746500
  20
54.829000
  0
VERTEX
  8
C19
  10
79.838600
  20
53.875100
  0
VERTEX
  8
C19
  10
79.923000
  20
52.931800
  0
VERTEX
  8
C19
  10
80.000000
  20
52.000000
  0
VERTEX
  8
C19
  10
96.000000
  20
52.000000
  0
VERTEX
  8
C19
  10
96.093700
  20
52.999300
  0
VERTEX
  8
C19
  10
96.200300
  20
53.996700
  0
VERTEX
  8
C19
  10
96.319200
  20
54.992100
  0
VERTEX
  8
C19
  10
96.450000
  20
55.985700
  0
VERTEX
  8
C19
  10
96.592100
  20
56.977500
  0
VERTEX
  8
C19
  10
96.745000
  20
57.967600
  0
VERTEX
  8
C19
  10
96.908300
  20
58.956200
  0
VERTEX
  8
C19
  10
97.081600
  20
59.943100
  0
VERTEX
  8
C19
  10
97.264200
  20
60.928600
  0
VERTEX
  8
C19
  10
97.455700
  20
61.912800
  0
VERTEX
  8
C19
  10
97.655700
  20
62.895600
  0
VERTEX
  8
C19
  10
97.863600
  20
63.877100
  0
VERTEX
  8
C19
  10
98.079000
  20
64.857600
  0
VERTEX
  8
C19
  10
98.301400
  20
65.836900
  0
VERTEX
  8
C19
  10
98.530300
  20
66.815200
  0
VERTEX
  8
C19
  10
98.765200
  20
67.792600
  0
VERTEX
  8
C19
  10
99.005600
  20
68.769100
  0
VERTEX
  8
C19
  10
99.251000
  20
69.744800
  0
VERTEX
  8
C19
  10
99.501000
  20
70.719900
  0
VERTEX
  8
C19
  10
99.755000
  20
71.694300
  0
VERTEX
  8
C19
  10
100.012700
  20
72.668100
  0
VERTEX
  8
C19
  10
100.273400
  20
73.641400
  0
VERTEX
  8
C19
  10
100.536800
  20
74.614400
  0
VERTEX
  8
C19
  10
100.802200
  20
75.587000
  0
VERTEX
  8
C19
  10
101.069300
  20
76.559400
  0
VERTEX
  8
C19
  10
101.337600
  20
77.531600
  0
VERTEX
  8
C19
  10
101.606500
  20
78.503700
  0
VERTEX
  8
C19
  10
101.875700
  20
79.475700
  0
VERTEX
  8
C19
  10
102.144500
  20
80.447900
  0
VERTEX
  8
C19
  10
102.412500
  20
81.420100
  0
VERTEX
  8
C19
  10
102.679300
  20
82.392500
  0
VERTEX
  8
C19
  10
102.944300
  20
83.365200
  0
VERTEX
  8
C19
  10
103.207000
  20
84.338300
  0
VERTEX
  8
C19
  10
103.467100
  20
85.311800
  0
VERTEX
  8
C19
  10
103.723900
  20
86.285800
  0
VERTEX
  8
C19
  10
103.977000
  20
87.260400
  0
VERTEX
  8
C19
  10
104.226000
  20
88.235600
  0
VERTEX
  8
C19
  10
104.470200
  20
89.211600
  0
VERTEX
  8
C19
  10
104.709300
  20
90.188300
  0
VERTEX
  8
C19
  10
104.942800
  20
91.166000
  0
VERTEX
  8
C19
  10
105.170200
  20
92.144600
  0
VERTEX
  8
C19
  10
105.390900
  20
93.124200
  0
VERTEX
  8
C19
  10
105.604500
  20
94.105000
  0
VERTEX
  8
C19
  10
105.810600
  20
95.086900
  0
VERTEX
  8
C19
  10
106.008600
  20
96.070100
  0
VERTEX
  8
C19
  10
106.198000
  20
97.054600
  0
VERTEX
  8
C19
  10
106.378400
  20
98.040600
  0
VERTEX
  8
C19
  10
106.549300
  20
99.028000
  0
VERTEX
  8
C19
  10
106.710200
  20
100.017000
  0
VERTEX
  8
C19
  10
106.860600
  20
101.007600
  0
VERTEX
  8
C19
  10
107.000000
  20
102.000000
  0
VERTEX
  8
C19
  10
94.000000
  20
102.000000
  0
VERTEX
  8
C19
  10
93.790500
  20
101.000700
  0
VERTEX
  8
C19
  10
93.574800
  20
100.002100
  0
VERTEX
  8
C19
  10
93.353600
  20
99.004000
  0
VERTEX
  8
C19
  10
93.127300
  20
98.006500
  0
VERTEX
  8
C19
  10
92.896500
  20
97.009400
  0
VERTEX
  8
C19
  10
92.661800
  20
96.012700
  0
VERTEX
  8
C19
  10
92.423600
  20
95.016300
  0
VERTEX
  8
C19
  10
92.182700
  20
94.020100
  0
VERTEX
  8
C19
  10
91.939500
  20
93.024100
  0
VERTEX
  8
C19
  10
91.694600
  20
92.028200
  0
VERTEX
  8
C19
  10
91.448500
  20
91.032300
  0
VERTEX
  8
C19
  10
91.201900
  20
90.036300
  0
VERTEX
  8
C19
  10
90.955200
  20
89.040200
  0
VERTEX
  8
C19
  10
90.709000
  20
88.044000
  0
VERTEX
  8
C19
  10
90.463800
  20
87.047500
  0
VERTEX
  8
C19
  10
90.220400
  20
86.050700
  0
VERTEX
  8
C19
  10
89.979000
  20
85.053400
  0
VERTEX
  8
C19
  10
89.740500
  20
84.055700
  0
VERTEX
  8
C19
  10
89.505200
  20
83.057500
  0
VERTEX
  8
C19
  10
89.273800
  20
82.058600
  0
VERTEX
  8
C19
  10
89.046800
  20
81.059100
  0
VERTEX
  8
C19
  10
88.824700
  20
80.058900
  0
VERTEX
  8
C19
  10
88.608200
  20
79.057800
  0
VERTEX
  8
C19
  10
88.397800
  20
78.055800
  0
VERTEX
  8
C19
  10
88.194000
  20
77.052900
  0
VERTEX
  8
C19
  10
87.997400
  20
76.049000
  0
VERTEX
  8
C19
  10
87.808500
  20
75.044000
  0
VERTEX
  8
C19
  10
87.628000
  20
74.037800
  0
VERTEX
  8
C19
  10
87.456300
  20
73.030300
  0
VERTEX
  8
C19
  10
87.294000
  20
72.021600
  0
VERTEX
  8
C19
  10
87.141700
  20
71.011500
  0
VERTEX
  8
C19
  10
87.000000
  20
70.000000
  0
VERTEX
  8
C19
  10
86.680500
  20
70.862200
  0
VERTEX
  8
C19
  10
86.363000
  20
71.741000
  0
VERTEX
  8
C19
  10
86.047800
  20
72.635500
  0
VERTEX
  8
C19
  10
85.735400
  20
73.544800
  0
VERTEX
  8
C19
  10
85.426300
  20
74.467700
  0
VERTEX
  8
C19
  10
85.121000
  20
75.403500
  0
VERTEX
  8
C19
  10
84.819900
  20
76.351100
  0
VERTEX
  8
C19
  10
84.523500
  20
77.309600
  0
VERTEX
  8
C19
  10
84.232200
  20
78.278000
  0
VERTEX
  8
C19
  10
83.946600
  20
79.255400
  0
VERTEX
  8
C19
  10
83.667000
  20
80.240700
  0
VERTEX
  8
C19
  10
83.394000
  20
81.233100
  0
VERTEX
  8
C19
  10
83.128000
  20
82.231600
  0
VERTEX
  8
C19
  10
82.869500
  20
83.235200
  0
VERTEX
  8
C19
  10
82.619000
  20
84.242900
  0
VERTEX
  8
C19
  10
82.376800
  20
85.253900
  0
VERTEX
  8
C19
  10
82.143600
  20
86.267100
  0
VERTEX
  8
C19
  10
81.919700
  20
87.281500
  0
VERTEX
  8
C19
  10
81.705600
  20
88.296300
  0
VERTEX
  8
C19
  10
81.501800
  20
89.310500
  0
VERTEX
  8
C19
  10
81.308700
  20
90.323000
  0
VERTEX
  8
C19
  10
81.126900
  20
91.333000
  0
VERTEX
  8
C19
  10
80.956700
  20
92.339500
  0
VERTEX
  8
C19
  10
80.798700
  20
93.341500
  0
VERTEX
  8
C19
  10
80.653300
  20
94.338100
  0
VERTEX
  8
C19
  10
80.521000
  20
95.328300
  0
VERTEX
  8
C19
  10
80.402200
  20
96.311100
  0
VERTEX
  8
C19
  10
80.297400
  20
97.285600
  0
VERTEX
  8
C19
  10
80.207100
  20
98.250900
  0
VERTEX
  8
C19
  10
80.131700
  20
99.205900
  0
VERTEX
  8
C19
  10
80.071800
  20
100.149700
  0
VERTEX
  8
C19
  10
80.027700
  20
101.081400
  0
VERTEX
  8
C19
  10
80.000000
  20
102.000000
  0
VERTEX
  8
C19
  10
67.000000
  20
102.000000
  0
VERTEX
  8
C19
  10
66.845600
  20
101.001800
  0
VERTEX
  8
C19
  10
66.676900
  20
100.004000
  0
VERTEX
  8
C19
  10
66.495100
  20
99.006500
  0
VERTEX
  8
C19
  10
66.301400
  20
98.009400
  0
VERTEX
  8
C19
  10
66.097000
  20
97.012400
  0
VERTEX
  8
C19
  10
65.883100
  20
96.015600
  0
VERTEX
  8
C19
  10
65.660900
  20
95.019000
  0
VERTEX
  8
C19
  10
65.431700
  20
94.022400
  0
VERTEX
  8
C19
  10
65.196600
  20
93.025800
  0
VERTEX
  8
C19
  10
64.956900
  20
92.029200
  0
VERTEX
  8
C19
  10
64.713800
  20
91.032500
  0
VERTEX
  8
C19
  10
64.468500
  20
90.035600
  0
VERTEX
  8
C19
  10
64.222200
  20
89.038600
  0
VERTEX
  8
C19
  10
63.976100
  20
88.041300
  0
VERTEX
  8
C19
  10
63.731400
  20
87.043700
  0
VERTEX
  8
C19
  10
63.489300
  20
86.045800
  0
VERTEX
  8
C19
  10
63.251100
  20
85.047500
  0
VERTEX
  8
C19
  10
63.018000
  20
84.048700
  0
VERTEX
  8
C19
  10
62.791200
  20
83.049400
  0
VERTEX
  8
C19
  10
62.571800
  20
82.049600
  0
VERTEX
  8
C19
  10
62.361200
  20
81.049100
  0
VERTEX
  8
C19
  10
62.160400
  20
80.048000
  0
VERTEX
  8
C19
  10
61.970800
  20
79.046200
  0
VERTEX
  8
C19
  10
61.793500
  20
78.043700
  0
VERTEX
  8
C19
  10
61.629800
  20
77.040300
  0
VERTEX
  8
C19
  10
61.480900
  20
76.036000
  0
VERTEX
  8
C19
  10
61.347900
  20
75.030900
  0
VERTEX
  8
C19
  10
61.232100
  20
74.024700
  0
VERTEX
  8
C19
  10
61.134700
  20
73.017600
  0
VERTEX
  8
C19
  10
61.056900
  20
72.009300
  0
VERTEX
  8
C19
  10
61.000000
  20
71.000000
  0
VERTEX
  8
C19
  10
59.000000
  20
71.000000
  0
VERTEX
  8
C19
  10
58.942500
  20
72.008500
  0
VERTEX
  8
C19
  10
58.863200
  20
73.015700
  0
VERTEX
  8
C19
  10
58.763400
  20
74.021600
  0
VERTEX
  8
C19
  10
58.644400
  20
75.026400
  0
VERTEX
  8
C19
  10
58.507500
  20
76.030000
  0
VERTEX
  8
C19
  10
58.354100
  20
77.032600
  0
VERTEX
  8
C19
  10
58.185400
  20
78.034200
  0
VERTEX
  8
C19
  10
58.002900
  20
79.035000
  0
VERTEX
  8
C19
  10
57.807700
  20
80.035000
  0
VERTEX
  8
C19
  10
57.601300
  20
81.034300
  0
VERTEX
  8
C19
  10
57.384900
  20
82.032900
  0
VERTEX
  8
C19
  10
57.159900
  20
83.031000
  0
VERTEX
  8
C19
  10
56.927600
  20
84.028700
  0
VERTEX
  8
C19
  10
56.689300
  20
85.025900
  0
VERTEX
  8
C19
  10
56.446300
  20
86.022900
  0
VERTEX
  8
C19
  10
56.200000
  20
87.019600
  0
VERTEX
  8
C19
  10
55.951600
  20
88.016200
  0
VERTEX
  8
C19
  10
55.702600
  20
89.012800
  0
VERTEX
  8
C19
  10
55.454100
  20
90.009400
  0
VERTEX
  8
C19
  10
55.207500
  20
91.006100
  0
VERTEX
  8
C19
  10
54.964200
  20
92.002900
  0
VERTEX
  8
C19
  10
54.725500
  20
93.000100
  0
VERTEX
  8
C19
  10
54.492600
  20
93.997600
  0
VERTEX
  8
C19
  10
54.267000
  20
94.995500
  0
VERTEX
  8
C19
  10
54.049800
  20
95.994000
  0
VERTEX
  8
C19
  10
53.842600
  20
96.993000
  0
VERTEX
  8
C19
  10
53.646400
  20
97.992700
  0
VERTEX
  8
C19
  10
53.462800
  20
98.993200
  0
VERTEX
  8
C19
  10
53.292900
  20
99.994500
  0
VERTEX
  8
C19
  10
53.138200
  20
100.996700
  0
VERTEX
  8
C19
  10
53.000000
  20
102.000000
  0
VERTEX
  8
C19
  10
40.000000
  20
102.000000
  0
SEQEND
  8
C19
  0
POLYLINE
  8
C19
  66
1
  10
123.000000
  20
102.000000
  0
VERTEX
  8
C19
  10
123.000000
  20
102.000000
  0
VERTEX
  8
C19
  10
122.895600
  20
101.028200
  0
VERTEX
  8
C19
  10
122.776500
  20
100.057900
  0
VERTEX
  8
C19
  10
122.643400
  20
99.088900
  0
VERTEX
  8
C19
  10
122.496800
  20
98.121300
  0
VERTEX
  8
C19
  10
122.337500
  20
97.154900
  0
VERTEX
  8
C19
  10
122.165900
  20
96.189600
  0
VERTEX
  8
C19
  10
121.982800
  20
95.225500
  0
VERTEX
  8
C19
  10
121.788900
  20
94.262500
  0
VERTEX
  8
C19
  10
121.584600
  20
93.300500
  0
VERTEX
  8
C19
  10
121.370600
  20
92.339300
  0
VERTEX
  8
C19
  10
121.147700
  20
91.379100
  0
VERTEX
  8
C19
  10
120.916300
  20
90.419700
  0
VERTEX
  8
C19
  10
120.677200
  20
89.461000
  0
VERTEX
  8
C19
  10
120.430900
  20
88.503000
  0
VERTEX
  8
C19
  10
120.178100
  20
87.545700
  0
VERTEX
  8
C19
  10
119.919500
  20
86.588900
  0
VERTEX
  8
C19
  10
119.655500
  20
85.632600
  0
VERTEX
  8
C19
  10
119.387000
  20
84.676700
  0
VERTEX
  8
C19
  10
119.114500
  20
83.721200
  0
VERTEX
  8
C19
  10
118.838600
  20
82.766100
  0
VERTEX
  8
C19
  10
118.560000
  20
81.811200
  0
VERTEX
  8
C19
  10
118.279200
  20
80.856500
  0
VERTEX
  8
C19
  10
117.997000
  20
79.901900
  0
VERTEX
  8
C19
  10
117.714000
  20
78.947400
  0
VERTEX
  8
C19
  10
117.430700
  20
77.992900
  0
VERTEX
  8
C19
  10
117.147900
  20
77.038400
  0
VERTEX
  8
C19
  10
116.866000
  20
76.083700
  0
VERTEX
  8
C19
  10
116.585900
  20
75.128900
  0
VERTEX
  8
C19
  10
116.308100
  20
74.173800
  0
VERTEX
  8
C19
  10
116.033100
  20
73.218500
  0
VERTEX
  8
C19
  10
115.761800
  20
72.262700
  0
VERTEX
  8
C19
  10
115.494600
  20
71.306600
  0
VERTEX
  8
C19
  10
115.232300
  20
70.350000
  0
VERTEX
  8
C19
  10
114.975400
  20
69.392800
  0
VERTEX
  8
C19
  10
114.724600
  20
68.435000
  0
VERTEX
  8
C19
  10
114.480400
  20
67.476500
  0
VERTEX
  8
C19
  10
114.243600
  20
66.517400
  0
VERTEX
  8
C19
  10
114.014800
  20
65.557400
  0
VERTEX
  8
C19
  10
113.794600
  20
64.596600
  0
VERTEX
  8
C19
  10
113.583600
  20
63.634800
  0
VERTEX
  8
C19
  10
113.382400
  20
62.672100
  0
VERTEX
  8
C19
  10
113.191800
  20
61.708300
  0
VERTEX
  8
C19
  10
113.012200
  20
60.743500
  0
VERTEX
  8
C19
  10
112.844400
  20
59.777400
  0
VERTEX
  8
C19
  10
112.688900
  20
58.810200
  0
VERTEX
  8
C19
  10
112.546500
  20
57.841600
  0
VERTEX
  8
C19
  10
112.417600
  20
56.871800
  0
VERTEX
  8
C19
  10
112.303100
  20
55.900500
  0
VERTEX
  8
C19
  10
112.203400
  20
54.927700
  0
VERTEX
  8
C19
  10
112.119200
  20
53.953400
  0
VERTEX
  8
C19
  10
112.051200
  20
52.977500
  0
VERTEX
  8
C19
  10
112.000000
  20
52.000000
  0
VERTEX
  8
C19
  10
125.000000
  20
52.000000
  0
VERTEX
  8
C19
  10
126.000000
  20
59.000000
  0
VERTEX
  8
C19
  10
149.000000
  20
59.000000
  0
VERTEX
  8
C19
  10
149.000000
  20
52.000000
  0
VERTEX
  8
C19
  10
163.000000
  20
52.000000
  0
VERTEX
  8
C19
  10
162.866000
  20
52.990300
  0
VERTEX
  8
C19
  10
162.720300
  20
53.979500
  0
VERTEX
  8
C19
  10
162.563600
  20
54.967400
  0
VERTEX
  8
C19
  10
162.396200
  20
55.954300
  0
VERTEX
  8
C19
  10
162.218700
  20
56.940000
  0
VERTEX
  8
C19
  10
162.031600
  20
57.924700
  0
VERTEX
  8
C19
  10
161.835500
  20
58.908500
  0
VERTEX
  8
C19
  10
161.630700
  20
59.891300
  0
VERTEX
  8
C19
  10
161.418000
  20
60.873200
  0
VERTEX
  8
C19
  10
161.197600
  20
61.854300
  0
VERTEX
  8
C19
  10
160.970300
  20
62.834700
  0
VERTEX
  8
C19
  10
160.736400
  20
63.814300
  0
VERTEX
  8
C19
  10
160.496500
  20
64.793200
  0
VERTEX
  8
C19
  10
160.251100
  20
65.771500
  0
VERTEX
  8
C19
  10
160.000800
  20
66.749300
  0
VERTEX
  8
C19
  10
159.746000
  20
67.726500
  0
VERTEX
  8
C19
  10
159.487200
  20
68.703200
  0
VERTEX
  8
C19
  10
159.225000
  20
69.679600
  0
VERTEX
  8
C19
  10
158.959800
  20
70.655600
  0
VERTEX
  8
C19
  10
158.692300
  20
71.631200
  0
VERTEX
  8
C19
  10
158.422800
  20
72.606600
  0
VERTEX
  8
C19
  10
158.152000
  20
73.581800
  0
VERTEX
  8
C19
  10
157.880300
  20
74.556800
  0
VERTEX
  8
C19
  10
157.608200
  20
75.531700
  0
VERTEX
  8
C19
  10
157.336300
  20
76.506600
  0
VERTEX
  8
C19
  10
157.065000
  20
77.481500
  0
VERTEX
  8
C19
  10
156.795000
  20
78.456300
  0
VERTEX
  8
C19
  10
156.526600
  20
79.431300
  0
VERTEX
  8
C19
  10
156.260400
  20
80.406500
  0
VERTEX
  8
C19
  10
155.996900
  20
81.381800
  0
VERTEX
  8
C19
  10
155.736700
  20
82.357400
  0
VERTEX
  8
C19
  10
155.480200
  20
83.333300
  0
VERTEX
  8
C19
  10
155.227900
  20
84.309500
  0
VERTEX
  8
C19
  10
154.980400
  20
85.286100
  0
VERTEX
  8
C19
  10
154.738300
  20
86.263200
  0
VERTEX
  8
C19
  10
154.501900
  20
87.240800
  0
VERTEX
  8
C19
  10
154.271800
  20
88.218900
  0
VERTEX
  8
C19
  10
154.048500
  20
89.197700
  0
VERTEX
  8
C19
  10
153.832500
  20
90.177100
  0
VERTEX
  8
C19
  10
153.624400
  20
91.157200
  0
VERTEX
  8
C19
  10
153.424700
  20
92.138100
  0
VERTEX
  8
C19
  10
153.233800
  20
93.119800
  0
VERTEX
  8
C19
  10
153.052400
  20
94.102300
  0
VERTEX
  8
C19
  10
152.880800
  20
95.085800
  0
VERTEX
  8
C19
  10
152.719600
  20
96.070200
  0
VERTEX
  8
C19
  10
152.569400
  20
97.055700
  0
VERTEX
  8
C19
  10
152.430600
  20
98.042200
  0
VERTEX
  8
C19
  10
152.303700
  20
99.029800
  0
VERTEX
  8
C19
  10
152.189300
  20
100.018600
  0
VERTEX
  8
C19
  10
152.087900
  20
101.008700
  0
VERTEX
  8
C19
  10
152.000000
  20
102.000000
  0
VERTEX
  8
C19
  10
123.000000
  20
102.000000
  0
SEQEND
  8
C19
  0
POLYLINE
  8
C19
  66
1
  10
172.000000
  20
102.000000
  0
VERTEX
  8
C19
  10
172.000000
  20
102.000000
  0
VERTEX
  8
C19
  10
172.000000
  20
51.000000
  0
VERTEX
  8
C19
  10
173.004600
  20
51.175700
  0
VERTEX
  8
C19
  10
174.005000
  20
51.330100
  0
VERTEX
  8
C19
  10
175.002000
  20
51.464300
  0
VERTEX
  8
C19
  10
175.996500
  20
51.579800
  0
VERTEX
  8
C19
  10
176.989400
  20
51.677800
  0
VERTEX
  8
C19
  10
177.981600
  20
51.759800
  0
VERTEX
  8
C19
  10
178.973900
  20
51.827100
  0
VERTEX
  8
C19
  10
179.967300
  20
51.881100
  0
VERTEX
  8
C19
  10
180.962600
  20
51.923000
  0
VERTEX
  8
C19
  10
181.960800
  20
51.954300
  0
VERTEX
  8
C19
  10
182.962700
  20
51.976300
  0
VERTEX
  8
C19
  10
183.969300
  20
51.990300
  0
VERTEX
  8
C19
  10
184.981400
  20
51.997800
  0
VERTEX
  8
C19
  10
186.000000
  20
52.000000
  0
VERTEX
  8
C19
  10
185.986900
  20
52.550100
  0
VERTEX
  8
C19
  10
185.951900
  20
53.242100
  0
VERTEX
  8
C19
  10
185.901600
  20
54.057000
  0
VERTEX
  8
C19
  10
185.842500
  20
54.975900
  0
VERTEX
  8
C19
  10
185.781100
  20
55.979900
  0
VERTEX
  8
C19
  10
185.723800
  20
57.050000
  0
VERTEX
  8
C19
  10
185.677200
  20
58.167300
  0
VERTEX
  8
C19
  10
185.647700
  20
59.313000
  0
VERTEX
  8
C19
  10
185.642000
  20
60.468000
  0
VERTEX
  8
C19
  10
185.666400
  20
61.613400
  0
VERTEX
  8
C19
  10
185.727500
  20
62.730300
  0
VERTEX
  8
C19
  10
185.831800
  20
63.799800
  0
VERTEX
  8
C19
  10
185.985900
  20
64.803000
  0
VERTEX
  8
C19
  10
186.196100
  20
65.720900
  0
VERTEX
  8
C19
  10
186.469000
  20
66.534600
  0
VERTEX
  8
C19
  10
186.811100
  20
67.225100
  0
VERTEX
  8
C19
  10
187.229000
  20
67.773600
  0
VERTEX
  8
C19
  10
187.729100
  20
68.161200
  0
VERTEX
  8
C19
  10
188.317900
  20
68.368800
  0
VERTEX
  8
C19
  10
189.250600
  20
68.370800
  0
VERTEX
  8
C19
  10
190.160200
  20
68.093900
  0
VERTEX
  8
C19
  10
191.036300
  20
67.608100
  0
VERTEX
  8
C19
  10
191.868600
  20
66.983400
  0
VERTEX
  8
C19
  10
192.646900
  20
66.289800
  0
VERTEX
  8
C19
  10
193.360800
  20
65.597300
  0
VERTEX
  8
C19
  10
194.000000
  20
64.976000
  0
VERTEX
  8
C19
  10
194.678200
  20
64.321300
  0
VERTEX
  8
C19
  10
195.353400
  20
63.639500
  0
VERTEX
  8
C19
  10
196.027200
  20
62.935300
  0
VERTEX
  8
C19
  10
196.701000
  20
62.213800
  0
VERTEX
  8
C19
  10
197.376400
  20
61.479700
  0
VERTEX
  8
C19
  10
198.054900
  20
60.738000
  0
VERTEX
  8
C19
  10
198.738000
  20
59.993600
  0
VERTEX
  8
C19
  10
199.427400
  20
59.251300
  0
VERTEX
  8
C19
  10
200.124500
  20
58.516200
  0
VERTEX
  8
C19
  10
200.830900
  20
57.793100
  0
VERTEX
  8
C19
  10
201.548000
  20
57.086800
  0
VERTEX
  8
C19
  10
202.277600
  20
56.402400
  0
VERTEX
  8
C19
  10
203.021000
  20
55.744600
  0
VERTEX
  8
C19
  10
203.779800
  20
55.118400
  0
VERTEX
  8
C19
  10
204.555500
  20
54.528700
  0
VERTEX
  8
C19
  10
205.349800
  20
53.980400
  0
VERTEX
  8
C19
  10
206.164100
  20
53.478400
  0
VERTEX
  8
C19
  10
207.000000
  20
53.027700
  0
VERTEX
  8
C19
  10
207.876100
  20
52.646000
  0
VERTEX
  8
C19
  10
208.798900
  20
52.345900
  0
VERTEX
  8
C19
  10
209.761600
  20
52.118700
  0
VERTEX
  8
C19
  10
210.757100
  20
51.956100
  0
VERTEX
  8
C19
  10
211.778500
  20
51.849300
  0
VERTEX
  8
C19
  10
212.819000
  20
51.790000
  0
VERTEX
  8
C19
  10
213.871700
  20
51.769600
  0
VERTEX
  8
C19
  10
214.929600
  20
51.779600
  0
VERTEX
  8
C19
  10
215.985800
  20
51.811400
  0
VERTEX
  8
C19
  10
217.033400
  20
51.856500
  0
VERTEX
  8
C19
  10
218.065600
  20
51.906500
  0
VERTEX
  8
C19
  10
219.075300
  20
51.952700
  0
VERTEX
  8
C19
  10
220.055700
  20
51.986700
  0
VERTEX
  8
C19
  10
221.000000
  20
52.000000
  0
VERTEX
  8
C19
  10
250.000000
  20
52.000000
  0
VERTEX
  8
C19
  10
251.012400
  20
51.993600
  0
VERTEX
  8
C19
  10
252.036600
  20
51.980700
  0
VERTEX
  8
C19
  10
253.068600
  20
51.970200
  0
VERTEX
  8
C19
  10
254.104300
  20
51.971500
  0
VERTEX
  8
C19
  10
255.139800
  20
51.993800
  0
VERTEX
  8
C19
  10
256.171000
  20
52.046100
  0
VERTEX
  8
C19
  10
257.193900
  20
52.137800
  0
VERTEX
  8
C19
  10
258.204500
  20
52.278000
  0
VERTEX
  8
C19
  10
259.198900
  20
52.475900
  0
VERTEX
  8
C19
  10
260.172900
  20
52.740700
  0
VERTEX
  8
C19
  10
261.122700
  20
53.081600
  0
VERTEX
  8
C19
  10
262.044100
  20
53.507700
  0
VERTEX
  8
C19
  10
262.933300
  20
54.028300
  0
VERTEX
  8
C19
  10
263.786200
  20
54.652700
  0
VERTEX
  8
C19
  10
264.577400
  20
55.344900
  0
VERTEX
  8
C19
  10
265.281000
  20
56.058000
  0
VERTEX
  8
C19
  10
265.900000
  20
56.790100
  0
VERTEX
  8
C19
  10
266.437400
  20
57.539700
  0
VERTEX
  8
C19
  10
266.896100
  20
58.305300
  0
VERTEX
  8
C19
  10
267.279200
  20
59.085300
  0
VERTEX
  8
C19
  10
267.589700
  20
59.878100
  0
VERTEX
  8
C19
  10
267.830500
  20
60.682100
  0
VERTEX
  8
C19
  10
268.004800
  20
61.495700
  0
VERTEX
  8
C19
  10
268.115400
  20
62.317300
  0
VERTEX
  8
C19
  10
268.165400
  20
63.145400
  0
VERTEX
  8
C19
  10
268.157700
  20
63.978300
  0
VERTEX
  8
C19
  10
268.095500
  20
64.814600
  0
VERTEX
  8
C19
  10
267.981600
  20
65.652500
  0
VERTEX
  8
C19
  10
267.819100
  20
66.490600
  0
VERTEX
  8
C19
  10
267.611000
  20
67.327200
  0
VERTEX
  8
C19
  10
267.360300
  20
68.160800
  0
VERTEX
  8
C19
  10
267.070000
  20
68.989800
  0
VERTEX
  8
C19
  10
266.743100
  20
69.812500
  0
VERTEX
  8
C19
  10
266.382600
  20
70.627400
  0
VERTEX
  8
C19
  10
265.991400
  20
71.433000
  0
VERTEX
  8
C19
  10
265.572700
  20
72.227600
  0
VERTEX
  8
C19
  10
265.129400
  20
73.009700
  0
VERTEX
  8
C19
  10
264.664500
  20
73.777600
  0
VERTEX
  8
C19
  10
264.180900
  20
74.529800
  0
VERTEX
  8
C19
  10
263.681800
  20
75.264800
  0
VERTEX
  8
C19
  10
263.170100
  20
75.980800
  0
VERTEX
  8
C19
  10
262.648800
  20
76.676400
  0
VERTEX
  8
C19
  10
262.120900
  20
77.350000
  0
VERTEX
  8
C19
  10
261.589500
  20
78.000000
  0
VERTEX
  8
C19
  10
261.113600
  20
78.542500
  0
VERTEX
  8
C19
  10
260.532500
  20
79.175800
  0
VERTEX
  8
C19
  10
259.882300
  20
79.885800
  0
VERTEX
  8
C19
  10
259.199000
  20
80.658400
  0
VERTEX
  8
C19
  10
258.518800
  20
81.479300
  0
VERTEX
  8
C19
  10
257.877900
  20
82.334600
  0
VERTEX
  8
C19
  10
257.312500
  20
83.210200
  0
VERTEX
  8
C19
  10
256.858600
  20
84.091800
  0
VERTEX
  8
C19
  10
256.552500
  20
84.965300
  0
VERTEX
  8
C19
  10
256.430200
  20
85.816700
  0
VERTEX
  8
C19
  10
256.527900
  20
86.631800
  0
VERTEX
  8
C19
  10
256.881900
  20
87.396600
  0
VERTEX
  8
C19
  10
257.493700
  20
88.046000
  0
VERTEX
  8
C19
  10
258.277500
  20
88.499000
  0
VERTEX
  8
C19
  10
259.187000
  20
88.789500
  0
VERTEX
  8
C19
  10
260.176000
  20
88.951600
  0
VERTEX
  8
C19
  10
261.198000
  20
89.019600
  0
VERTEX
  8
C19
  10
262.206900
  20
89.027400
  0
VERTEX
  8
C19
  10
263.156300
  20
89.009200
  0
VERTEX
  8
C19
  10
264.000000
  20
88.999200
  0
VERTEX
  8
C19
  10
264.999800
  20
89.005400
  0
VERTEX
  8
C19
  10
265.999800
  20
89.010300
  0
VERTEX
  8
C19
  10
266.999700
  20
89.014100
  0
VERTEX
  8
C19
  10
267.999700
  20
89.016900
  0
VERTEX
  8
C19
  10
268.999700
  20
89.018600
  0
VERTEX
  8
C19
  10
269.999700
  20
89.019600
  0
VERTEX
  8
C19
  10
270.999700
  20
89.019700
  0
VERTEX
  8
C19
  10
271.999800
  20
89.019300
  0
VERTEX
  8
C19
  10
272.999800
  20
89.018200
  0
VERTEX
  8
C19
  10
273.999800
  20
89.016800
  0
VERTEX
  8
C19
  10
274.999900
  20
89.014900
  0
VERTEX
  8
C19
  10
275.999900
  20
89.012900
  0
VERTEX
  8
C19
  10
277.000000
  20
89.010700
  0
VERTEX
  8
C19
  10
278.000000
  20
89.008500
  0
VERTEX
  8
C19
  10
279.000000
  20
89.006300
  0
VERTEX
  8
C19
  10
280.000100
  20
89.004300
  0
VERTEX
  8
C19
  10
281.000100
  20
89.002500
  0
VERTEX
  8
C19
  10
282.000000
  20
89.001200
  0
VERTEX
  8
C19
  10
283.000000
  20
89.000300
  0
VERTEX
  8
C19
  10
284.000000
  20
89.000000
  0
VERTEX
  8
C19
  10
284.000000
  20
102.000000
  0
VERTEX
  8
C19
  10
261.000000
  20
102.000000
  0
VERTEX
  8
C19
  10
260.026800
  20
102.009800
  0
VERTEX
  8
C19
  10
259.035200
  20
102.034700
  0
VERTEX
  8
C19
  10
258.029000
  20
102.067800
  0
VERTEX
  8
C19
  10
257.012000
  20
102.102400
  0
VERTEX
  8
C19
  10
255.988000
  20
102.131400
  0
VERTEX
  8
C19
  10
254.960900
  20
102.148300
  0
VERTEX
  8
C19
  10
253.934300
  20
102.145900
  0
VERTEX
  8
C19
  10
252.912200
  20
102.117600
  0
VERTEX
  8
C19
  10
251.898200
  20
102.056500
  0
VERTEX
  8
C19
  10
250.896300
  20
101.955800
  0
VERTEX
  8
C19
  10
249.910200
  20
101.808500
  0
VERTEX
  8
C19
  10
248.943700
  20
101.607900
  0
VERTEX
  8
C19
  10
248.000700
  20
101.347200
  0
VERTEX
  8
C19
  10
247.067700
  20
101.011400
  0
VERTEX
  8
C19
  10
246.178800
  20
100.608300
  0
VERTEX
  8
C19
  10
245.335500
  20
100.141600
  0
VERTEX
  8
C19
  10
244.539000
  20
99.614900
  0
VERTEX
  8
C19
  10
243.791000
  20
99.031800
  0
VERTEX
  8
C19
  10
243.093000
  20
98.396100
  0
VERTEX
  8
C19
  10
242.446300
  20
97.711400
  0
VERTEX
  8
C19
  10
241.852400
  20
96.981500
  0
VERTEX
  8
C19
  10
241.312900
  20
96.209900
  0
VERTEX
  8
C19
  10
240.829200
  20
95.400400
  0
VERTEX
  8
C19
  10
240.402700
  20
94.556700
  0
VERTEX
  8
C19
  10
240.035100
  20
93.682300
  0
VERTEX
  8
C19
  10
239.727600
  20
92.781100
  0
VERTEX
  8
C19
  10
239.481800
  20
91.856600
  0
VERTEX
  8
C19
  10
239.299200
  20
90.912600
  0
VERTEX
  8
C19
  10
239.181200
  20
89.952700
  0
VERTEX
  8
C19
  10
239.129300
  20
88.980600
  0
VERTEX
  8
C19
  10
239.145000
  20
88.000000
  0
VERTEX
  8
C19
  10
239.237800
  20
87.006400
  0
VERTEX
  8
C19
  10
239.409500
  20
86.041500
  0
VERTEX
  8
C19
  10
239.654000
  20
85.103600
  0
VERTEX
  8
C19
  10
239.964900
  20
84.190600
  0
VERTEX
  8
C19
  10
240.335900
  20
83.300900
  0
VERTEX
  8
C19
  10
240.760800
  20
82.432400
  0
VERTEX
  8
C19
  10
241.233300
  20
81.583400
  0
VERTEX
  8
C19
  10
241.747200
  20
80.752100
  0
VERTEX
  8
C19
  10
242.296100
  20
79.936500
  0
VERTEX
  8
C19
  10
242.873800
  20
79.134800
  0
VERTEX
  8
C19
  10
243.474100
  20
78.345200
  0
VERTEX
  8
C19
  10
244.090600
  20
77.565800
  0
VERTEX
  8
C19
  10
244.717100
  20
76.794700
  0
VERTEX
  8
C19
  10
245.347300
  20
76.030100
  0
VERTEX
  8
C19
  10
245.975000
  20
75.270200
  0
VERTEX
  8
C19
  10
246.593900
  20
74.513100
  0
VERTEX
  8
C19
  10
247.197600
  20
73.757000
  0
VERTEX
  8
C19
  10
247.780100
  20
73.000000
  0
SEQEND
  8
C19
  0
POLYLINE
  8
C19
  66
1
  10
247.780000
  20
73.000000
  0
VERTEX
  8
C19
  10
247.780000
  20
73.000000
  0
VERTEX
  8
C19
  10
248.273200
  20
72.361900
  0
VERTEX
  8
C19
  10
248.829400
  20
71.637100
  0
VERTEX
  8
C19
  10
249.387800
  20
70.845700
  0
VERTEX
  8
C19
  10
249.888000
  20
70.008100
  0
VERTEX
  8
C19
  10
250.269200
  20
69.144700
  0
VERTEX
  8
C19
  10
250.470900
  20
68.275900
  0
VERTEX
  8
C19
  10
250.432400
  20
67.421900
  0
VERTEX
  8
C19
  10
250.093300
  20
66.603300
  0
VERTEX
  8
C19
  10
249.575100
  20
66.013000
  0
VERTEX
  8
C19
  10
248.887300
  20
65.554500
  0
VERTEX
  8
C19
  10
248.057600
  20
65.213100
  0
VERTEX
  8
C19
  10
247.113300
  20
64.974000
  0
VERTEX
  8
C19
  10
246.081900
  20
64.822500
  0
VERTEX
  8
C19
  10
244.991100
  20
64.743900
  0
VERTEX
  8
C19
  10
243.868300
  20
64.723600
  0
VERTEX
  8
C19
  10
242.740900
  20
64.746700
  0
VERTEX
  8
C19
  10
241.636600
  20
64.798700
  0
VERTEX
  8
C19
  10
240.582900
  20
64.864700
  0
VERTEX
  8
C19
  10
239.607200
  20
64.930000
  0
VERTEX
  8
C19
  10
238.737000
  20
64.980000
  0
VERTEX
  8
C19
  10
238.000000
  20
65.000000
  0
VERTEX
  8
C19
  10
237.016900
  20
64.994200
  0
VERTEX
  8
C19
  10
236.032800
  20
64.978200
  0
VERTEX
  8
C19
  10
235.048000
  20
64.953800
  0
VERTEX
  8
C19
  10
234.063100
  20
64.922900
  0
VERTEX
  8
C19
  10
233.078600
  20
64.887400
  0
VERTEX
  8
C19
  10
232.094700
  20
64.849200
  0
VERTEX
  8
C19
  10
231.112200
  20
64.810100
  0
VERTEX
  8
C19
  10
230.131300
  20
64.772100
  0
VERTEX
  8
C19
  10
229.152600
  20
64.736900
  0
VERTEX
  8
C19
  10
228.176600
  20
64.706600
  0
VERTEX
  8
C19
  10
227.203700
  20
64.682900
  0
VERTEX
  8
C19
  10
226.234300
  20
64.667700
  0
VERTEX
  8
C19
  10
225.269000
  20
64.663000
  0
VERTEX
  8
C19
  10
224.308300
  20
64.670500
  0
VERTEX
  8
C19
  10
223.352400
  20
64.692300
  0
VERTEX
  8
C19
  10
222.402100
  20
64.730100
  0
VERTEX
  8
C19
  10
221.457600
  20
64.785800
  0
VERTEX
  8
C19
  10
220.519500
  20
64.861400
  0
VERTEX
  8
C19
  10
219.588300
  20
64.958600
  0
VERTEX
  8
C19
  10
218.664400
  20
65.079500
  0
VERTEX
  8
C19
  10
217.748200
  20
65.225800
  0
VERTEX
  8
C19
  10
216.840300
  20
65.399400
  0
VERTEX
  8
C19
  10
215.941100
  20
65.602300
  0
VERTEX
  8
C19
  10
215.051100
  20
65.836300
  0
VERTEX
  8
C19
  10
214.170700
  20
66.103200
  0
VERTEX
  8
C19
  10
213.300500
  20
66.405000
  0
VERTEX
  8
C19
  10
212.440800
  20
66.743600
  0
VERTEX
  8
C19
  10
211.592100
  20
67.120700
  0
VERTEX
  8
C19
  10
210.755000
  20
67.538400
  0
VERTEX
  8
C19
  10
209.929800
  20
67.998400
  0
VERTEX
  8
C19
  10
209.117100
  20
68.502700
  0
VERTEX
  8
C19
  10
208.317300
  20
69.053100
  0
VERTEX
  8
C19
  10
207.530800
  20
69.651500
  0
VERTEX
  8
C19
  10
206.758200
  20
70.299800
  0
VERTEX
  8
C19
  10
206.000000
  20
71.000000
  0
VERTEX
  8
C19
  10
206.815800
  20
71.260300
  0
VERTEX
  8
C19
  10
207.614600
  20
71.555500
  0
VERTEX
  8
C19
  10
208.395700
  20
71.884200
  0
VERTEX
  8
C19
  10
209.158000
  20
72.245200
  0
VERTEX
  8
C19
  10
209.900800
  20
72.637100
  0
VERTEX
  8
C19
  10
210.623100
  20
73.058700
  0
VERTEX
  8
C19
  10
211.324200
  20
73.508700
  0
VERTEX
  8
C19
  10
212.003100
  20
73.985700
  0
VERTEX
  8
C19
  10
212.658900
  20
74.488500
  0
VERTEX
  8
C19
  10
213.291000
  20
75.015800
  0
VERTEX
  8
C19
  10
213.898200
  20
75.566300
  0
VERTEX
  8
C19
  10
214.479900
  20
76.138700
  0
VERTEX
  8
C19
  10
215.035100
  20
76.731700
  0
VERTEX
  8
C19
  10
215.562900
  20
77.344000
  0
VERTEX
  8
C19
  10
216.062600
  20
77.974200
  0
VERTEX
  8
C19
  10
216.533200
  20
78.621300
  0
VERTEX
  8
C19
  10
216.973800
  20
79.283700
  0
VERTEX
  8
C19
  10
217.383700
  20
79.960300
  0
VERTEX
  8
C19
  10
217.762000
  20
80.649700
  0
VERTEX
  8
C19
  10
218.107700
  20
81.350600
  0
VERTEX
  8
C19
  10
218.420000
  20
82.061800
  0
VERTEX
  8
C19
  10
218.698100
  20
82.782000
  0
VERTEX
  8
C19
  10
218.941100
  20
83.509800
  0
VERTEX
  8
C19
  10
219.148100
  20
84.244000
  0
VERTEX
  8
C19
  10
219.318300
  20
84.983200
  0
VERTEX
  8
C19
  10
219.450800
  20
85.726300
  0
VERTEX
  8
C19
  10
219.544700
  20
86.471800
  0
VERTEX
  8
C19
  10
219.599300
  20
87.218500
  0
VERTEX
  8
C19
  10
219.613500
  20
87.965000
  0
VERTEX
  8
C19
  10
219.586600
  20
88.710200
  0
VERTEX
  8
C19
  10
219.517600
  20
89.452700
  0
VERTEX
  8
C19
  10
219.405800
  20
90.191300
  0
VERTEX
  8
C19
  10
219.250200
  20
90.924500
  0
VERTEX
  8
C19
  10
219.050100
  20
91.651100
  0
VERTEX
  8
C19
  10
218.804400
  20
92.369900
  0
VERTEX
  8
C19
  10
218.512500
  20
93.079500
  0
VERTEX
  8
C19
  10
218.173300
  20
93.778700
  0
VERTEX
  8
C19
  10
217.786100
  20
94.466100
  0
VERTEX
  8
C19
  10
217.350000
  20
95.140500
  0
VERTEX
  8
C19
  10
216.864100
  20
95.800500
  0
VERTEX
  8
C19
  10
216.327500
  20
96.444900
  0
VERTEX
  8
C19
  10
215.739400
  20
97.072300
  0
VERTEX
  8
C19
  10
215.098900
  20
97.681500
  0
VERTEX
  8
C19
  10
214.405200
  20
98.271300
  0
VERTEX
  8
C19
  10
213.657400
  20
98.840200
  0
VERTEX
  8
C19
  10
212.854700
  20
99.387000
  0
VERTEX
  8
C19
  10
211.996100
  20
99.910400
  0
VERTEX
  8
C19
  10
211.078500
  20
100.391800
  0
VERTEX
  8
C19
  10
210.138900
  20
100.796300
  0
VERTEX
  8
C19
  10
209.179600
  20
101.130200
  0
VERTEX
  8
C19
  10
208.202900
  20
101.400100
  0
VERTEX
  8
C19
  10
207.211400
  20
101.612500
  0
VERTEX
  8
C19
  10
206.207300
  20
101.773800
  0
VERTEX
  8
C19
  10
205.193100
  20
101.890500
  0
VERTEX
  8
C19
  10
204.171000
  20
101.969200
  0
VERTEX
  8
C19
  10
203.143700
  20
102.016300
  0
VERTEX
  8
C19
  10
202.113300
  20
102.038400
  0
VERTEX
  8
C19
  10
201.082300
  20
102.041900
  0
VERTEX
  8
C19
  10
200.053100
  20
102.033300
  0
VERTEX
  8
C19
  10
199.028000
  20
102.019100
  0
VERTEX
  8
C19
  10
198.009500
  20
102.005800
  0
VERTEX
  8
C19
  10
197.000000
  20
102.000000
  0
VERTEX
  8
C19
  10
172.000000
  20
102.000000
  0
SEQEND
  8
C41
  0
POLYLINE
  8
C41
  66
1
  10
137.000000
  20
97.000000
  0
VERTEX
  8
C41
  10
137.000000
  20
97.000000
  0
VERTEX
  8
C41
  10
128.000000
  20
68.000000
  0
VERTEX
  8
C41
  10
146.000000
  20
68.000000
  0
VERTEX
  8
C41
  10
145.784100
  20
68.945700
  0
VERTEX
  8
C41
  10
145.567200
  20
69.901900
  0
VERTEX
  8
C41
  10
145.348800
  20
70.867500
  0
VERTEX
  8
C41
  10
145.128400
  20
71.841500
  0
VERTEX
  8
C41
  10
144.905400
  20
72.823100
  0
VERTEX
  8
C41
  10
144.679400
  20
73.811200
  0
VERTEX
  8
C41
  10
144.449800
  20
74.804900
  0
VERTEX
  8
C41
  10
144.216200
  20
75.803200
  0
VERTEX
  8
C41
  10
143.977900
  20
76.805200
  0
VERTEX
  8
C41
  10
143.734600
  20
77.809900
  0
VERTEX
  8
C41
  10
143.485500
  20
78.816400
  0
VERTEX
  8
C41
  10
143.230400
  20
79.823600
  0
VERTEX
  8
C41
  10
142.968600
  20
80.830800
  0
VERTEX
  8
C41
  10
142.699600
  20
81.836800
  0
VERTEX
  8
C41
  10
142.422900
  20
82.840700
  0
VERTEX
  8
C41
  10
142.138100
  20
83.841600
  0
VERTEX
  8
C41
  10
141.844500
  20
84.838500
  0
VERTEX
  8
C41
  10
141.541600
  20
85.830500
  0
VERTEX
  8
C41
  10
141.229100
  20
86.816600
  0
VERTEX
  8
C41
  10
140.906200
  20
87.795800
  0
VERTEX
  8
C41
  10
140.572600
  20
88.767200
  0
VERTEX
  8
C41
  10
140.227700
  20
89.729800
  0
VERTEX
  8
C41
  10
139.871000
  20
90.682700
  0
VERTEX
  8
C41
  10
139.501900
  20
91.624900
  0
VERTEX
  8
C41
  10
139.120000
  20
92.555500
  0
VERTEX
  8
C41
  10
138.724800
  20
93.473400
  0
VERTEX
  8
C41
  10
138.315700
  20
94.377800
  0
VERTEX
  8
C41
  10
137.892200
  20
95.267600
  0
VERTEX
  8
C41
  10
137.453800
  20
96.142000
  0
VERTEX
  8
C41
  10
137.000000
  20
97.000000
  0
SEQEND
  8
C41
  0
POLYLINE
  8
C41
  66
1
  10
186.000000
  20
92.000000
  0
VERTEX
  8
C41
  10
186.000000
  20
92.000000
  0
VERTEX
  8
C41
  10
186.000000
  20
75.000000
  0
VERTEX
  8
C41
  10
186.937200
  20
74.988200
  0
VERTEX
  8
C41
  10
187.905600
  20
74.956900
  0
VERTEX
  8
C41
  10
188.900300
  20
74.911900
  0
VERTEX
  8
C41
  10
189.916300
  20
74.859100
  0
VERTEX
  8
C41
  10
190.948700
  20
74.804200
  0
VERTEX
  8
C41
  10
191.992600
  20
74.753200
  0
VERTEX
  8
C41
  10
193.043100
  20
74.711800
  0
VERTEX
  8
C41
  10
194.095400
  20
74.686100
  0
VERTEX
  8
C41
  10
195.144400
  20
74.681700
  0
VERTEX
  8
C41
  10
196.185200
  20
74.704600
  0
VERTEX
  8
C41
  10
197.213000
  20
74.760600
  0
VERTEX
  8
C41
  10
198.222900
  20
74.855600
  0
VERTEX
  8
C41
  10
199.209900
  20
74.995400
  0
VERTEX
  8
C41
  10
200.169100
  20
75.185800
  0
VERTEX
  8
C41
  10
201.095600
  20
75.432800
  0
VERTEX
  8
C41
  10
201.984500
  20
75.742200
  0
VERTEX
  8
C41
  10
202.796100
  20
76.110800
  0
VERTEX
  8
C41
  10
203.553900
  20
76.551500
  0
VERTEX
  8
C41
  10
204.255600
  20
77.057800
  0
VERTEX
  8
C41
  10
204.898900
  20
77.623100
  0
VERTEX
  8
C41
  10
205.481300
  20
78.240800
  0
VERTEX
  8
C41
  10
206.000600
  20
78.904500
  0
VERTEX
  8
C41
  10
206.454400
  20
79.607600
  0
VERTEX
  8
C41
  10
206.840400
  20
80.343400
  0
VERTEX
  8
C41
  10
207.156200
  20
81.105600
  0
VERTEX
  8
C41
  10
207.399500
  20
81.887500
  0
VERTEX
  8
C41
  10
207.568000
  20
82.682600
  0
VERTEX
  8
C41
  10
207.659200
  20
83.484300
  0
VERTEX
  8
C41
  10
207.670900
  20
84.286200
  0
VERTEX
  8
C41
  10
207.600800
  20
85.081600
  0
VERTEX
  8
C41
  10
207.446400
  20
85.864000
  0
VERTEX
  8
C41
  10
207.205500
  20
86.626900
  0
VERTEX
  8
C41
  10
206.875600
  20
87.363700
  0
VERTEX
  8
C41
  10
206.454500
  20
88.067800
  0
VERTEX
  8
C41
  10
205.939800
  20
88.732800
  0
VERTEX
  8
C41
  10
205.329200
  20
89.352100
  0
VERTEX
  8
C41
  10
204.620300
  20
89.919100
  0
VERTEX
  8
C41
  10
203.810900
  20
90.427400
  0
VERTEX
  8
C41
  10
202.956800
  20
90.853100
  0
VERTEX
  8
C41
  10
202.064300
  20
91.210700
  0
VERTEX
  8
C41
  10
201.137600
  20
91.505500
  0
VERTEX
  8
C41
  10
200.180900
  20
91.742700
  0
VERTEX
  8
C41
  10
199.198500
  20
91.927800
  0
VERTEX
  8
C41
  10
198.194400
  20
92.066000
  0
VERTEX
  8
C41
  10
197.173100
  20
92.162500
  0
VERTEX
  8
C41
  10
196.138600
  20
92.222900
  0
VERTEX
  8
C41
  10
195.095200
  20
92.252200
  0
VERTEX
  8
C41
  10
194.047100
  20
92.255900
  0
VERTEX
  8
C41
  10
192.998500
  20
92.239300
  0
VERTEX
  8
C41
  10
191.953700
  20
92.207700
  0
VERTEX
  8
C41
  10
190.916900
  20
92.166300
  0
VERTEX
  8
C41
  10
189.892200
  20
92.120600
  0
VERTEX
  8
C41
  10
188.884000
  20
92.075800
  0
VERTEX
  8
C41
  10
187.896400
  20
92.037200
  0
VERTEX
  8
C41
  10
186.933600
  20
92.010100
  0
VERTEX
  8
C41
  10
186.000000
  20
92.000000
  0
SEQEND
  8
C19
  0
POLYLINE
  8
C19
  66
1
  10
188.000000
  20
89.000000
  0
VERTEX
  8
C19
  10
188.000000
  20
89.000000
  0
VERTEX
  8
C19
  10
188.000000
  20
78.000000
  0
VERTEX
  8
C19
  10
188.907100
  20
77.985500
  0
VERTEX
  8
C19
  10
189.858900
  20
77.947700
  0
VERTEX
  8
C19
  10
190.847300
  20
77.895000
  0
VERTEX
  8
C19
  10
191.863900
  20
77.835800
  0
VERTEX
  8
C19
  10
192.900500
  20
77.778600
  0
VERTEX
  8
C19
  10
193.948900
  20
77.731800
  0
VERTEX
  8
C19
  10
195.000900
  20
77.703700
  0
VERTEX
  8
C19
  10
196.048100
  20
77.703000
  0
VERTEX
  8
C19
  10
197.082400
  20
77.737800
  0
VERTEX
  8
C19
  10
198.095600
  20
77.816800
  0
VERTEX
  8
C19
  10
199.079300
  20
77.948300
  0
VERTEX
  8
C19
  10
200.025300
  20
78.140700
  0
VERTEX
  8
C19
  10
200.925500
  20
78.402500
  0
VERTEX
  8
C19
  10
201.771600
  20
78.742200
  0
VERTEX
  8
C19
  10
202.509500
  20
79.172100
  0
VERTEX
  8
C19
  10
203.149900
  20
79.715400
  0
VERTEX
  8
C19
  10
203.688900
  20
80.353500
  0
VERTEX
  8
C19
  10
204.122800
  20
81.067500
  0
VERTEX
  8
C19
  10
204.447900
  20
81.838700
  0
VERTEX
  8
C19
  10
204.660500
  20
82.648500
  0
VERTEX
  8
C19
  10
204.756800
  20
83.477900
  0
VERTEX
  8
C19
  10
204.732900
  20
84.308500
  0
VERTEX
  8
C19
  10
204.585300
  20
85.121300
  0
VERTEX
  8
C19
  10
204.310200
  20
85.897700
  0
VERTEX
  8
C19
  10
203.903800
  20
86.618900
  0
VERTEX
  8
C19
  10
203.362300
  20
87.266200
  0
VERTEX
  8
C19
  10
202.682100
  20
87.820900
  0
SEQEND
  8
C19
  0
POLYLINE
  8
C19
  66
1
  10
202.682000
  20
87.820900
  0
VERTEX
  8
C19
  10
202.682000
  20
87.820900
  0
VERTEX
  8
C19
  10
201.910700
  20
88.261500
  0
VERTEX
  8
C19
  10
201.065200
  20
88.612100
  0
VERTEX
  8
C19
  10
200.155700
  20
88.881600
  0
VERTEX
  8
C19
  10
199.192400
  20
89.078700
  0
VERTEX
  8
C19
  10
198.185700
  20
89.212300
  0
VERTEX
  8
C19
  10
197.145900
  20
89.291200
  0
VERTEX
  8
C19
  10
196.083400
  20
89.324300
  0
VERTEX
  8
C19
  10
195.008400
  20
89.320500
  0
VERTEX
  8
C19
  10
193.931200
  20
89.288500
  0
VERTEX
  8
C19
  10
192.862100
  20
89.237100
  0
VERTEX
  8
C19
  10
191.811500
  20
89.175300
  0
VERTEX
  8
C19
  10
190.789700
  20
89.111800
  0
VERTEX
  8
C19
  10
189.807000
  20
89.055600
  0
VERTEX
  8
C19
  10
188.873600
  20
89.015300
  0
VERTEX
  8
C19
  10
188.000000
  20
89.000000
  0
SEQEND
  8
C19
  0
POLYLINE
  8
C19
  66
1
  10
137.000000
  20
87.000000
  0
VERTEX
  8
C19
  10
137.000000
  20
87.000000
  0
VERTEX
  8
C19
  10
136.682800
  20
86.010200
  0
VERTEX
  8
C19
  10
136.364700
  20
85.019200
  0
VERTEX
  8
C19
  10
136.046200
  20
84.027000
  0
VERTEX
  8
C19
  10
135.728300
  20
83.033500
  0
VERTEX
  8
C19
  10
135.411600
  20
82.038800
  0
VERTEX
  8
C19
  10
135.097100
  20
81.042800
  0
VERTEX
  8
C19
  10
134.785400
  20
80.045500
  0
VERTEX
  8
C19
  10
134.477400
  20
79.046900
  0
VERTEX
  8
C19
  10
134.173800
  20
78.047100
  0
VERTEX
  8
C19
  10
133.875500
  20
77.045900
  0
VERTEX
  8
C19
  10
133.583100
  20
76.043400
  0
VERTEX
  8
C19
  10
133.297600
  20
75.039500
  0
VERTEX
  8
C19
  10
133.019700
  20
74.034400
  0
VERTEX
  8
C19
  10
132.750200
  20
73.027800
  0
VERTEX
  8
C19
  10
132.489900
  20
72.019900
  0
VERTEX
  8
C19
  10
132.239600
  20
71.010600
  0
VERTEX
  8
C19
  10
132.000000
  20
70.000000
  0
VERTEX
  8
C19
  10
142.000000
  20
70.000000
  0
VERTEX
  8
C19
  10
141.869000
  20
70.949100
  0
VERTEX
  8
C19
  10
141.728700
  20
71.911100
  0
VERTEX
  8
C19
  10
141.577600
  20
72.883600
  0
VERTEX
  8
C19
  10
141.414300
  20
73.863900
  0
VERTEX
  8
C19
  10
141.237100
  20
74.849600
  0
VERTEX
  8
C19
  10
141.044700
  20
75.838000
  0
VERTEX
  8
C19
  10
140.835500
  20
76.826800
  0
VERTEX
  8
C19
  10
140.608100
  20
77.813400
  0
VERTEX
  8
C19
  10
140.360800
  20
78.795200
  0
VERTEX
  8
C19
  10
140.092400
  20
79.769600
  0
VERTEX
  8
C19
  10
139.801100
  20
80.734300
  0
VERTEX
  8
C19
  10
139.485700
  20
81.686700
  0
VERTEX
  8
C19
  10
139.144500
  20
82.624100
  0
VERTEX
  8
C19
  10
138.776000
  20
83.544200
  0
VERTEX
  8
C19
  10
138.378800
  20
84.444300
  0
VERTEX
  8
C19
  10
137.951400
  20
85.322000
  0
VERTEX
  8
C19
  10
137.492300
  20
86.174700
  0
VERTEX
  8
C19
  10
137.000000
  20
87.000000
  0
SEQEND
  8
0
  0
ENDSEC
  0
EOF
