  0
SECTION
  2
HEADER
  9
$ACADVER
  1
AC1009
  9
$EXTMIN
 10
1.08353446
 20
0.61377957
 30
0.0
  9
$EXTMAX
 10
18.91646554
 20
19.38622043
 30
0.0
  0
ENDSEC
  0
SECTION
  2
TABLES
  0
TABLE
  2
LAYER
 70
1
 0
LAYER
 2
Default_Layer
 70
0
 62
1
 6
CONTINUOUS
 0
ENDTAB
 0
ENDSEC
  0
SECTION
  2
ENTITIES
  0
POLYLINE
  8
Default_Layer
 66
   1
 39
0.000000
 70
    1
  0
VERTEX
  8
0
 10
11.37079654
 20
15.01417103
  0
VERTEX
  8
0
 10
11.53495197
 20
15.09758358
  0
VERTEX
  8
0
 10
11.68904933
 20
15.20757751
  0
VERTEX
  8
0
 10
11.98511455
 20
15.46883463
  0
VERTEX
  8
0
 10
12.13610475
 20
15.60086035
  0
VERTEX
  8
0
 10
12.29508157
 20
15.72099254
  0
VERTEX
  8
0
 10
12.46655620
 20
15.81961245
  0
VERTEX
  8
0
 10
12.65503981
 20
15.88710137
  0
VERTEX
  8
0
 10
12.75251881
 20
15.89950291
  0
VERTEX
  8
0
 10
12.84503980
 20
15.89040663
  0
VERTEX
  8
0
 10
12.93058828
 20
15.86226395
  0
VERTEX
  8
0
 10
13.00714980
 20
15.81752629
  0
VERTEX
  8
0
 10
13.07270987
 20
15.75864506
  0
VERTEX
  8
0
 10
13.12525401
 20
15.68807170
  0
VERTEX
  8
0
 10
13.16276776
 20
15.60825763
  0
VERTEX
  8
0
 10
13.18323664
 20
15.52165426
  0
VERTEX
  8
0
 10
13.18568875
 20
15.34248935
  0
VERTEX
  8
0
 10
13.15346867
 20
15.16888047
  0
VERTEX
  8
0
 10
13.09362812
 20
15.00293100
  0
VERTEX
  8
0
 10
13.01321883
 20
14.84674431
  0
VERTEX
  8
0
 10
12.81890086
 20
14.57207270
  0
VERTEX
  8
0
 10
12.62692849
 20
14.36169259
  0
VERTEX
  8
0
 10
12.39493428
 20
14.14264668
  0
VERTEX
  8
0
 10
12.15975153
 20
13.94926591
  0
VERTEX
  8
0
 10
11.91366279
 20
13.78011470
  0
VERTEX
  8
0
 10
11.64895061
 20
13.63375747
  0
VERTEX
  8
0
 10
11.62578159
 20
13.45721109
  0
VERTEX
  8
0
 10
11.58027468
 20
13.28830045
  0
VERTEX
  8
0
 10
11.51880128
 20
13.13158790
  0
VERTEX
  8
0
 10
11.44773277
 20
12.99163583
  0
VERTEX
  8
0
 10
11.37949133
 20
12.91785679
  0
VERTEX
  8
0
 10
11.32197162
 20
12.84664062
  0
VERTEX
  8
0
 10
11.33078502
 20
12.81465774
  0
VERTEX
  8
0
 10
11.35743909
 20
12.78869162
  0
VERTEX
  8
0
 10
11.37856566
 20
12.76321880
  0
VERTEX
  8
0
 10
11.37079654
 20
12.73271581
  0
VERTEX
  8
0
 10
11.29103922
 20
12.68256210
  0
VERTEX
  8
0
 10
11.19915454
 20
12.64484607
  0
VERTEX
  8
0
 10
11.00682897
 20
12.57884335
  0
VERTEX
  8
0
 10
10.92232269
 20
12.39910522
  0
VERTEX
  8
0
 10
10.82531474
 20
12.22805672
  0
VERTEX
  8
0
 10
10.60291375
 20
11.89825360
  0
VERTEX
  8
0
 10
10.52579725
 20
11.78634470
  0
VERTEX
  8
0
 10
10.48517283
 20
11.73915472
  0
VERTEX
  8
0
 10
10.44016403
 20
11.70591301
  0
VERTEX
  8
0
 10
10.31844409
 20
11.66939276
  0
VERTEX
  8
0
 10
10.17223800
 20
11.65685847
  0
VERTEX
  8
0
 10
9.88385588
 20
11.66744490
  0
VERTEX
  8
0
 10
9.59338846
 20
11.68286610
  0
VERTEX
  8
0
 10
9.45228958
 20
11.70041799
  0
VERTEX
  8
0
 10
9.33790453
 20
11.73550387
  0
VERTEX
  8
0
 10
9.24580105
 20
11.80357944
  0
VERTEX
  8
0
 10
9.15666709
 20
11.90470342
  0
VERTEX
  8
0
 10
9.01240509
 20
12.11870549
  0
VERTEX
  8
0
 10
8.88403067
 20
12.35967577
  0
VERTEX
  8
0
 10
8.78159639
 20
12.59807741
  0
VERTEX
  8
0
 10
8.58970414
 20
12.66961468
  0
VERTEX
  8
0
 10
8.43222122
 20
12.77574063
  0
VERTEX
  8
0
 10
8.30554034
 20
12.91287795
  0
VERTEX
  8
0
 10
8.20605418
 20
13.07744932
  0
VERTEX
  8
0
 10
8.25428895
 20
13.09181393
  0
VERTEX
  8
0
 10
8.27606882
 20
13.10100365
  0
VERTEX
  8
0
 10
8.28299042
 20
13.12479469
  0
VERTEX
  8
0
 10
8.19300191
 20
13.35604605
  0
VERTEX
  8
0
 10
8.15914223
 20
13.48267918
  0
VERTEX
  8
0
 10
8.13947475
 20
13.62340067
  0
VERTEX
  8
0
 10
7.78788928
 20
13.83792005
  0
VERTEX
  8
0
 10
7.43434193
 20
14.10126023
  0
VERTEX
  8
0
 10
7.26648201
 20
14.24974186
  0
VERTEX
  8
0
 10
7.10971098
 20
14.40863321
  0
VERTEX
  8
0
 10
6.96788860
 20
14.57733576
  0
VERTEX
  8
0
 10
6.84487468
 20
14.75525102
  0
VERTEX
  8
0
 10
6.72108372
 20
14.98600408
  0
VERTEX
  8
0
 10
6.66518746
 20
15.12342312
  0
VERTEX
  8
0
 10
6.62339089
 20
15.26783266
  0
VERTEX
  8
0
 10
6.60326914
 20
15.41345432
  0
VERTEX
  8
0
 10
6.61239738
 20
15.55450974
  0
VERTEX
  8
0
 10
6.65835074
 20
15.68522054
  0
VERTEX
  8
0
 10
6.74870438
 20
15.79980833
  0
VERTEX
  8
0
 10
6.86576661
 20
15.86666594
  0
VERTEX
  8
0
 10
7.00935578
 20
15.89258964
  0
VERTEX
  8
0
 10
7.16169629
 20
15.88173971
  0
VERTEX
  8
0
 10
7.30501253
 20
15.83827645
  0
VERTEX
  8
0
 10
7.45262626
 20
15.75576446
  0
VERTEX
  8
0
 10
7.59356559
 20
15.64899934
  0
VERTEX
  8
0
 10
7.86132068
 20
15.41660671
  0
VERTEX
  8
0
 10
8.12883303
 20
15.18917886
  0
VERTEX
  8
0
 10
8.26775957
 20
15.08708353
  0
VERTEX
  8
0
 10
8.41762882
 20
15.00381423
  0
VERTEX
  8
0
 10
8.39997625
 20
15.46704743
  0
VERTEX
  8
0
 10
8.41318033
 20
15.91197330
  0
VERTEX
  8
0
 10
8.46676545
 20
16.32661614
  0
VERTEX
  8
0
 10
8.51167727
 20
16.51883901
  0
VERTEX
  8
0
 10
8.57025601
 20
16.69900022
  0
VERTEX
  8
0
 10
8.64369222
 20
16.86560283
  0
VERTEX
  8
0
 10
8.73317643
 20
17.01714986
  0
VERTEX
  8
0
 10
8.83989921
 20
17.15214435
  0
VERTEX
  8
0
 10
8.96505110
 20
17.26908933
  0
VERTEX
  8
0
 10
9.10982265
 20
17.36648784
  0
VERTEX
  8
0
 10
9.27540441
 20
17.44284293
  0
VERTEX
  8
0
 10
9.46298694
 20
17.49665762
  0
VERTEX
  8
0
 10
9.67376078
 20
17.52643495
  0
VERTEX
  8
0
 10
10.04135685
 20
17.52616827
  0
VERTEX
  8
0
 10
10.21760216
 20
17.50480291
  0
VERTEX
  8
0
 10
10.38535347
 20
17.46944697
  0
VERTEX
  8
0
 10
10.54201664
 20
17.42022350
  0
VERTEX
  8
0
 10
10.68499754
 20
17.35725559
  0
VERTEX
  8
0
 10
10.81170202
 20
17.28066630
  0
VERTEX
  8
0
 10
10.91953594
 20
17.19057870
  0
VERTEX
  8
0
 10
11.07507728
 20
16.99875726
  0
VERTEX
  8
0
 10
11.19209661
 20
16.77605261
  0
VERTEX
  8
0
 10
11.27569298
 20
16.52644499
  0
VERTEX
  8
0
 10
11.33096541
 20
16.25391465
  0
VERTEX
  8
0
 10
11.36301295
 20
15.96244184
  0
VERTEX
  8
0
 10
11.37693462
 20
15.65600680
  0
VERTEX
  8
0
 10
11.37079654
 20
15.01417103
  0
SEQEND
  0
POLYLINE
  8
Default_Layer
 66
   1
 39
0.000000
 70
    1
  0
VERTEX
  8
0
 10
10.91065868
 20
15.86786731
  0
VERTEX
  8
0
 10
10.82087269
 20
16.14078802
  0
VERTEX
  8
0
 10
10.77602027
 20
16.44192997
  0
VERTEX
  8
0
 10
10.77762819
 20
16.64308907
  0
VERTEX
  8
0
 10
10.76873451
 20
16.74000180
  0
VERTEX
  8
0
 10
10.75667115
 20
16.77234043
  0
VERTEX
  8
0
 10
10.73755216
 20
16.78814302
  0
VERTEX
  8
0
 10
10.70274248
 20
16.78556119
  0
VERTEX
  8
0
 10
10.67669298
 20
16.76141792
  0
VERTEX
  8
0
 10
10.64574202
 20
16.66968963
  0
VERTEX
  8
0
 10
10.63250461
 20
16.46116403
  0
VERTEX
  8
0
 10
10.64016980
 20
16.30728684
  0
VERTEX
  8
0
 10
10.66637584
 20
16.14378823
  0
VERTEX
  8
0
 10
10.71034788
 20
15.97899349
  0
VERTEX
  8
0
 10
10.77131107
 20
15.82122794
  0
VERTEX
  8
0
 10
10.84849059
 20
15.67881686
  0
VERTEX
  8
0
 10
10.94111160
 20
15.56008556
  0
VERTEX
  8
0
 10
11.04839924
 20
15.47335935
  0
VERTEX
  8
0
 10
11.16957870
 20
15.42696351
  0
VERTEX
  8
0
 10
11.11164382
 20
15.53663301
  0
VERTEX
  8
0
 10
11.04302937
 20
15.64176282
  0
VERTEX
  8
0
 10
10.97295958
 20
15.74971892
  0
VERTEX
  8
0
 10
10.91065868
 20
15.86786731
  0
SEQEND
  0
POLYLINE
  8
Default_Layer
 66
   1
 39
0.000000
 70
    1
  0
VERTEX
  8
0
 10
9.14556395
 20
16.40346185
  0
VERTEX
  8
0
 10
9.14830666
 20
16.53336855
  0
VERTEX
  8
0
 10
9.14041122
 20
16.65029752
  0
VERTEX
  8
0
 10
9.10661095
 20
16.73738975
  0
VERTEX
  8
0
 10
9.07522565
 20
16.76447864
  0
VERTEX
  8
0
 10
9.03163914
 20
16.77778622
  0
VERTEX
  8
0
 10
9.02128234
 20
16.74967490
  0
VERTEX
  8
0
 10
9.01973058
 20
16.52611120
  0
VERTEX
  8
0
 10
8.99660873
 20
16.31208913
  0
VERTEX
  8
0
 10
8.95475328
 20
16.11046371
  0
VERTEX
  8
0
 10
8.89700074
 20
15.92408994
  0
VERTEX
  8
0
 10
8.83796404
 20
15.78948688
  0
VERTEX
  8
0
 10
8.76947325
 20
15.66586977
  0
VERTEX
  8
0
 10
8.62920346
 20
15.42696351
  0
VERTEX
  8
0
 10
8.74333090
 20
15.48100419
  0
VERTEX
  8
0
 10
8.84436030
 20
15.56231299
  0
VERTEX
  8
0
 10
8.93175749
 20
15.66697324
  0
VERTEX
  8
0
 10
9.00498829
 20
15.79106823
  0
VERTEX
  8
0
 10
9.06351851
 20
15.93068128
  0
VERTEX
  8
0
 10
9.10681398
 20
16.08189569
  0
VERTEX
  8
0
 10
9.13434052
 20
16.24079478
  0
VERTEX
  8
0
 10
9.14556395
 20
16.40346185
  0
SEQEND
  0
POLYLINE
  8
Default_Layer
 66
   1
 39
0.000000
 70
    1
  0
VERTEX
  8
0
 10
10.30700516
 20
13.56569849
  0
VERTEX
  8
0
 10
10.31381679
 20
13.44455244
  0
VERTEX
  8
0
 10
10.30700516
 20
13.31713528
  0
VERTEX
  8
0
 10
10.45610929
 20
13.31663168
  0
VERTEX
  8
0
 10
10.57226277
 20
13.28312002
  0
VERTEX
  8
0
 10
10.66432610
 20
13.22546152
  0
VERTEX
  8
0
 10
10.74115980
 20
13.15251739
  0
VERTEX
  8
0
 10
10.88458032
 20
12.99621707
  0
VERTEX
  8
0
 10
10.96888816
 20
12.93058330
  0
VERTEX
  8
0
 10
11.07340840
 20
12.88510874
  0
VERTEX
  8
0
 10
11.13177821
 20
13.01868017
  0
VERTEX
  8
0
 10
11.17699894
 20
13.16536783
  0
VERTEX
  8
0
 10
11.20889251
 20
13.32542853
  0
VERTEX
  8
0
 10
11.22728087
 20
13.49911906
  0
VERTEX
  8
0
 10
11.12762942
 20
13.50550055
  0
VERTEX
  8
0
 10
11.04381755
 20
13.52723037
  0
VERTEX
  8
0
 10
11.11627925
 20
13.72619607
  0
VERTEX
  8
0
 10
11.13646751
 20
13.83251274
  0
VERTEX
  8
0
 10
11.13111058
 20
13.94002286
  0
VERTEX
  8
0
 10
10.73786834
 20
13.73394523
  0
VERTEX
  8
0
 10
10.52919960
 20
13.64303277
  0
VERTEX
  8
0
 10
10.30700516
 20
13.56569849
  0
SEQEND
  0
POLYLINE
  8
Default_Layer
 66
   1
 39
0.000000
 70
    1
  0
VERTEX
  8
0
 10
8.55226723
 20
13.16326281
  0
VERTEX
  8
0
 10
8.50070599
 20
13.35181578
  0
VERTEX
  8
0
 10
8.47533100
 20
13.54646443
  0
VERTEX
  8
0
 10
8.46629979
 20
13.69142293
  0
VERTEX
  8
0
 10
8.43451858
 20
13.82525268
  0
VERTEX
  8
0
 10
8.40485758
 20
13.87646189
  0
VERTEX
  8
0
 10
8.36322209
 20
13.91105008
  0
VERTEX
  8
0
 10
8.30751647
 20
13.92440427
  0
VERTEX
  8
0
 10
8.23564504
 20
13.91191154
  0
VERTEX
  8
0
 10
8.19332579
 20
13.83866085
  0
VERTEX
  8
0
 10
8.17130121
 20
13.75487381
  0
VERTEX
  8
0
 10
8.16649996
 20
13.66360118
  0
VERTEX
  8
0
 10
8.17585072
 20
13.56789373
  0
VERTEX
  8
0
 10
8.22472294
 20
13.37537740
  0
VERTEX
  8
0
 10
8.29334722
 20
13.20173093
  0
VERTEX
  8
0
 10
8.35195208
 20
13.07258627
  0
VERTEX
  8
0
 10
8.42159849
 20
12.95307245
  0
VERTEX
  8
0
 10
8.51108333
 20
12.86911529
  0
VERTEX
  8
0
 10
8.56601418
 20
12.84857228
  0
VERTEX
  8
0
 10
8.62920346
 20
12.84664062
  0
VERTEX
  8
0
 10
8.63694410
 20
12.90743211
  0
VERTEX
  8
0
 10
8.61880451
 20
12.98075636
  0
VERTEX
  8
0
 10
8.55226723
 20
13.16326281
  0
SEQEND
  0
POLYLINE
  8
Default_Layer
 66
   1
 39
0.000000
 70
    1
  0
VERTEX
  8
0
 10
11.30273756
 20
13.40294877
  0
VERTEX
  8
0
 10
11.26159131
 20
13.24135820
  0
VERTEX
  8
0
 10
11.20542388
 20
13.09282303
  0
VERTEX
  8
0
 10
11.16203437
 20
12.96027369
  0
VERTEX
  8
0
 10
11.15922190
 20
12.84664062
  0
VERTEX
  8
0
 10
11.20389028
 20
12.84263625
  0
VERTEX
  8
0
 10
11.24625788
 20
12.85271804
  0
VERTEX
  8
0
 10
11.32303563
 20
12.90500258
  0
VERTEX
  8
0
 10
11.38744504
 20
12.98321911
  0
VERTEX
  8
0
 10
11.43737597
 20
13.06709252
  0
VERTEX
  8
0
 10
11.52507199
 20
13.25573898
  0
VERTEX
  8
0
 10
11.59124843
 20
13.44141688
  0
VERTEX
  8
0
 10
11.61582117
 20
13.56505358
  0
VERTEX
  8
0
 10
11.62318949
 20
13.69517257
  0
VERTEX
  8
0
 10
11.60718957
 20
13.81825670
  0
VERTEX
  8
0
 10
11.56165758
 20
13.92078880
  0
VERTEX
  8
0
 10
11.46595982
 20
13.92697202
  0
VERTEX
  8
0
 10
11.39952471
 20
13.89881087
  0
VERTEX
  8
0
 10
11.35676845
 20
13.84334706
  0
VERTEX
  8
0
 10
11.33210726
 20
13.76762233
  0
VERTEX
  8
0
 10
11.31473498
 20
13.58355702
  0
VERTEX
  8
0
 10
11.30273756
 20
13.40294877
  0
SEQEND
  0
POLYLINE
  8
Default_Layer
 66
   1
 39
0.000000
 70
    1
  0
VERTEX
  8
0
 10
8.67654884
 20
13.91191154
  0
VERTEX
  8
0
 10
8.65731478
 20
13.90155474
  0
VERTEX
  8
0
 10
8.65499461
 20
13.79708863
  0
VERTEX
  8
0
 10
8.67889058
 20
13.70052367
  0
VERTEX
  8
0
 10
8.71123272
 20
13.60645453
  0
VERTEX
  8
0
 10
8.73425101
 20
13.50947586
  0
VERTEX
  8
0
 10
8.65106980
 20
13.50552679
  0
VERTEX
  8
0
 10
8.57150129
 20
13.49911906
  0
VERTEX
  8
0
 10
8.57565420
 20
13.33361847
  0
VERTEX
  8
0
 10
8.60496779
 20
13.17567274
  0
VERTEX
  8
0
 10
8.65342705
 20
13.03075610
  0
VERTEX
  8
0
 10
8.71501695
 20
12.90434280
  0
VERTEX
  8
0
 10
8.81612056
 20
12.93325202
  0
VERTEX
  8
0
 10
8.90033620
 20
12.98928678
  0
VERTEX
  8
0
 10
9.04335367
 20
13.14208158
  0
VERTEX
  8
0
 10
9.11478054
 20
13.21851592
  0
VERTEX
  8
0
 10
9.19456953
 20
13.28142442
  0
VERTEX
  8
0
 10
9.28903316
 20
13.32064424
  0
VERTEX
  8
0
 10
9.40448397
 20
13.32601253
  0
VERTEX
  8
0
 10
9.47094657
 20
13.30044855
  0
VERTEX
  8
0
 10
9.50401949
 20
13.28775466
  0
VERTEX
  8
0
 10
9.53912237
 20
13.28754442
  0
VERTEX
  8
0
 10
9.49999216
 20
13.34468307
  0
VERTEX
  8
0
 10
9.46750820
 20
13.41709471
  0
VERTEX
  8
0
 10
9.45640579
 20
13.49426973
  0
VERTEX
  8
0
 10
9.48142020
 20
13.56569849
  0
VERTEX
  8
0
 10
9.26155585
 20
13.63631301
  0
VERTEX
  8
0
 10
9.05852710
 20
13.73027552
  0
VERTEX
  8
0
 10
8.86572706
 20
13.82850278
  0
VERTEX
  8
0
 10
8.67654884
 20
13.91191154
  0
SEQEND
  0
POLYLINE
  8
Default_Layer
 66
   1
 39
0.000000
 70
    1
  0
VERTEX
  8
0
 10
9.53912237
 20
13.53758718
  0
VERTEX
  8
0
 10
9.52399417
 20
13.45476087
  0
VERTEX
  8
0
 10
9.53204108
 20
13.38301862
  0
VERTEX
  8
0
 10
9.55949070
 20
13.32162290
  0
VERTEX
  8
0
 10
9.60257059
 20
13.26983618
  0
VERTEX
  8
0
 10
9.72053154
 20
13.19213962
  0
VERTEX
  8
0
 10
9.85574456
 20
13.14402875
  0
VERTEX
  8
0
 10
9.85092361
 20
13.08149090
  0
VERTEX
  8
0
 10
9.83307759
 20
13.02826911
  0
VERTEX
  8
0
 10
9.76798697
 20
12.94288776
  0
VERTEX
  8
0
 10
9.58794729
 20
12.80817250
  0
VERTEX
  8
0
 10
9.44377652
 20
12.68995682
  0
VERTEX
  8
0
 10
9.36769242
 20
12.63570620
  0
VERTEX
  8
0
 10
9.29055916
 20
12.59807741
  0
VERTEX
  8
0
 10
9.18672742
 20
12.57564263
  0
VERTEX
  8
0
 10
9.07548527
 20
12.56944152
  0
VERTEX
  8
0
 10
8.85853262
 20
12.57884335
  0
VERTEX
  8
0
 10
8.92232649
 20
12.40775692
  0
VERTEX
  8
0
 10
9.00206954
 20
12.23947008
  0
VERTEX
  8
0
 10
9.09622750
 20
12.08033946
  0
VERTEX
  8
0
 10
9.20326613
 20
11.93672171
  0
VERTEX
  8
0
 10
9.27447516
 20
11.87039254
  0
VERTEX
  8
0
 10
9.36208975
 20
11.81787671
  0
VERTEX
  8
0
 10
9.46400936
 20
11.77814998
  0
VERTEX
  8
0
 10
9.57813348
 20
11.75018809
  0
VERTEX
  8
0
 10
9.83459315
 20
11.72546182
  0
VERTEX
  8
0
 10
10.11466458
 20
11.73550387
  0
VERTEX
  8
0
 10
10.24131868
 20
11.75311431
  0
VERTEX
  8
0
 10
10.34703923
 20
11.78238518
  0
VERTEX
  8
0
 10
10.43532257
 20
11.82284376
  0
VERTEX
  8
0
 10
10.50966500
 20
11.87401735
  0
VERTEX
  8
0
 10
10.63051245
 20
12.00661873
  0
VERTEX
  8
0
 10
10.73755216
 20
12.17640767
  0
VERTEX
  8
0
 10
10.84673619
 20
12.35826902
  0
VERTEX
  8
0
 10
10.88654105
 20
12.45549350
  0
VERTEX
  8
0
 10
10.90030188
 20
12.55960929
  0
VERTEX
  8
0
 10
10.77795460
 20
12.57177661
  0
VERTEX
  8
0
 10
10.65640973
 20
12.57372740
  0
VERTEX
  8
0
 10
10.53955716
 20
12.58304469
  0
VERTEX
  8
0
 10
10.43128677
 20
12.61731147
  0
VERTEX
  8
0
 10
10.35510155
 20
12.67301459
  0
VERTEX
  8
0
 10
10.27741430
 20
12.74159307
  0
VERTEX
  8
0
 10
10.03846629
 20
12.92956218
  0
VERTEX
  8
0
 10
9.93736087
 20
13.03483159
  0
VERTEX
  8
0
 10
9.87497862
 20
13.15438555
  0
VERTEX
  8
0
 10
9.96452054
 20
13.15793314
  0
VERTEX
  8
0
 10
10.04350623
 20
13.17525396
  0
VERTEX
  8
0
 10
10.11110647
 20
13.20561255
  0
VERTEX
  8
0
 10
10.16649202
 20
13.24827343
  0
VERTEX
  8
0
 10
10.20883368
 20
13.30250112
  0
VERTEX
  8
0
 10
10.23730221
 20
13.36756016
  0
VERTEX
  8
0
 10
10.25106838
 20
13.44271507
  0
VERTEX
  8
0
 10
10.24930299
 20
13.52723037
  0
VERTEX
  8
0
 10
9.90846606
 20
13.54806709
  0
VERTEX
  8
0
 10
9.53912237
 20
13.53758718
  0
SEQEND
  0
POLYLINE
  8
Default_Layer
 66
   1
 39
0.000000
 70
    1
  0
VERTEX
  8
0
 10
8.37916071
 20
16.27918025
  0
VERTEX
  8
0
 10
7.84502605
 20
16.11392316
  0
VERTEX
  8
0
 10
7.59146283
 20
16.01794525
  0
VERTEX
  8
0
 10
7.35383745
 20
15.90633543
  0
VERTEX
  8
0
 10
7.23070421
 20
15.94105752
  0
VERTEX
  8
0
 10
7.16814394
 20
15.95726848
  0
VERTEX
  8
0
 10
7.09491743
 20
15.96255806
  0
VERTEX
  8
0
 10
7.23295081
 20
16.05227464
  0
VERTEX
  8
0
 10
7.38198978
 20
16.13096875
  0
VERTEX
  8
0
 10
7.70530261
 20
16.26305648
  0
VERTEX
  8
0
 10
8.39839476
 20
16.48039809
  0
VERTEX
  8
0
 10
8.41167667
 20
16.44208441
  0
VERTEX
  8
0
 10
8.40266815
 20
16.38995635
  0
VERTEX
  8
0
 10
8.37916071
 20
16.27918025
  0
SEQEND
  0
POLYLINE
  8
Default_Layer
 66
   1
 39
0.000000
 70
    1
  0
VERTEX
  8
0
 10
6.43356174
 20
12.87623148
  0
VERTEX
  8
0
 10
6.56075382
 20
12.88334063
  0
VERTEX
  8
0
 10
6.67214630
 20
12.86552845
  0
VERTEX
  8
0
 10
6.76764400
 20
12.82616721
  0
VERTEX
  8
0
 10
6.84715170
 20
12.76862921
  0
VERTEX
  8
0
 10
6.91057423
 20
12.69628672
  0
VERTEX
  8
0
 10
6.95781639
 20
12.61251204
  0
VERTEX
  8
0
 10
6.98878299
 20
12.52067744
  0
VERTEX
  8
0
 10
7.00337883
 20
12.42415521
  0
VERTEX
  8
0
 10
7.00150873
 20
12.32631764
  0
VERTEX
  8
0
 10
6.98307748
 20
12.23053700
  0
VERTEX
  8
0
 10
6.94798989
 20
12.14018558
  0
VERTEX
  8
0
 10
6.89615079
 20
12.05863568
  0
VERTEX
  8
0
 10
6.82746496
 20
11.98925956
  0
VERTEX
  8
0
 10
6.74183722
 20
11.93542952
  0
VERTEX
  8
0
 10
6.63917237
 20
11.90051783
  0
VERTEX
  8
0
 10
6.51937523
 20
11.88789679
  0
VERTEX
  8
0
 10
6.42930444
 20
11.89681432
  0
VERTEX
  8
0
 10
6.33618982
 20
11.92362278
  0
VERTEX
  8
0
 10
6.24551686
 20
11.96856524
  0
VERTEX
  8
0
 10
6.16277105
 20
12.03188480
  0
VERTEX
  8
0
 10
6.09343790
 20
12.11382455
  0
VERTEX
  8
0
 10
6.04300288
 20
12.21462758
  0
VERTEX
  8
0
 10
6.01695151
 20
12.33453696
  0
VERTEX
  8
0
 10
6.02076926
 20
12.47379580
  0
VERTEX
  8
0
 10
6.06822000
 20
12.62129396
  0
VERTEX
  8
0
 10
6.15982817
 20
12.74218385
  0
VERTEX
  8
0
 10
6.28510500
 20
12.82948864
  0
VERTEX
  8
0
 10
6.43356174
 20
12.87623148
  0
SEQEND
  0
POLYLINE
  8
Default_Layer
 66
   1
 39
0.000000
 70
    1
  0
VERTEX
  8
0
 10
9.31867048
 20
11.64821084
  0
VERTEX
  8
0
 10
9.58500507
 20
11.61281345
  0
VERTEX
  8
0
 10
9.87900986
 20
11.58397223
  0
VERTEX
  8
0
 10
10.17802686
 20
11.58503099
  0
VERTEX
  8
0
 10
10.32233431
 20
11.60406782
  0
VERTEX
  8
0
 10
10.45939808
 20
11.63933358
  0
VERTEX
  8
0
 10
10.41789666
 20
11.48222018
  0
VERTEX
  8
0
 10
10.34517180
 20
11.33542277
  0
VERTEX
  8
0
 10
10.23856819
 20
11.22073779
  0
VERTEX
  8
0
 10
10.17173207
 20
11.18224884
  0
VERTEX
  8
0
 10
10.09543052
 20
11.15996167
  0
VERTEX
  8
0
 10
9.94866672
 20
11.15140741
  0
VERTEX
  8
0
 10
9.81922241
 20
11.17346699
  0
VERTEX
  8
0
 10
9.70553339
 20
11.22077425
  0
VERTEX
  8
0
 10
9.60603546
 20
11.28796307
  0
VERTEX
  8
0
 10
9.51916441
 20
11.36966728
  0
VERTEX
  8
0
 10
9.44335603
 20
11.46052074
  0
VERTEX
  8
0
 10
9.31867048
 20
11.64821084
  0
SEQEND
  0
POLYLINE
  8
Default_Layer
 66
   1
 39
0.000000
 70
    1
  0
VERTEX
  8
0
 10
9.71222890
 20
11.37005676
  0
VERTEX
  8
0
 10
9.93334060
 20
11.32655177
  0
VERTEX
  8
0
 10
10.04930791
 20
11.32073218
  0
VERTEX
  8
0
 10
10.15313269
 20
11.35230225
  0
VERTEX
  8
0
 10
10.23930046
 20
11.44370682
  0
VERTEX
  8
0
 10
10.27741430
 20
11.53428603
  0
VERTEX
  8
0
 10
9.97166844
 20
11.47528617
  0
VERTEX
  8
0
 10
9.83065930
 20
11.43398955
  0
VERTEX
  8
0
 10
9.71222890
 20
11.37005676
  0
SEQEND
  0
POLYLINE
  8
Default_Layer
 66
   1
 39
0.000000
 70
    1
  0
VERTEX
  8
0
 10
8.96358017
 20
11.55352009
  0
VERTEX
  8
0
 10
9.36601585
 20
11.17919573
  0
VERTEX
  8
0
 10
9.56098338
 20
10.97147359
  0
VERTEX
  8
0
 10
9.65914701
 20
10.87698373
  0
VERTEX
  8
0
 10
9.75957427
 20
10.80487136
  0
VERTEX
  8
0
 10
9.90482564
 20
10.74760373
  0
VERTEX
  8
0
 10
9.98640239
 20
10.73446448
  0
VERTEX
  8
0
 10
10.06731920
 20
10.73829193
  0
VERTEX
  8
0
 10
10.16297894
 20
10.78239516
  0
VERTEX
  8
0
 10
10.23942950
 20
10.85744758
  0
VERTEX
  8
0
 10
10.31119977
 20
10.93506299
  0
VERTEX
  8
0
 10
10.39281865
 20
10.98685514
  0
VERTEX
  8
0
 10
10.33116437
 20
10.84273996
  0
VERTEX
  8
0
 10
10.25452577
 20
10.71957928
  0
VERTEX
  8
0
 10
10.20243261
 20
10.67263548
  0
VERTEX
  8
0
 10
10.13680767
 20
10.63906464
  0
VERTEX
  8
0
 10
10.05438905
 20
10.62157819
  0
VERTEX
  8
0
 10
9.95191485
 20
10.62288758
  0
VERTEX
  8
0
 10
9.78154686
 20
10.66545743
  0
VERTEX
  8
0
 10
9.62812305
 20
10.74962614
  0
VERTEX
  8
0
 10
9.48986077
 20
10.86513132
  0
VERTEX
  8
0
 10
9.36497740
 20
11.00171055
  0
VERTEX
  8
0
 10
9.14821680
 20
11.29704160
  0
VERTEX
  8
0
 10
8.96358017
 20
11.55352009
  0
SEQEND
  0
POLYLINE
  8
Default_Layer
 66
   1
 39
0.000000
 70
    1
  0
VERTEX
  8
0
 10
14.94685183
 20
9.98076594
  0
VERTEX
  8
0
 10
14.95096051
 20
9.76852390
  0
VERTEX
  8
0
 10
14.97697035
 20
9.56221558
  0
VERTEX
  8
0
 10
15.02860835
 20
9.37580094
  0
VERTEX
  8
0
 10
15.10960155
 20
9.22323996
  0
VERTEX
  8
0
 10
15.38372182
 20
9.12357869
  0
VERTEX
  8
0
 10
15.69993510
 20
9.05253266
  0
VERTEX
  8
0
 10
16.03982310
 20
9.00211027
  0
VERTEX
  8
0
 10
16.38496757
 20
8.96431994
  0
VERTEX
  8
0
 10
16.72821839
 20
8.92569656
  0
VERTEX
  8
0
 10
16.86946248
 20
8.88199903
  0
VERTEX
  8
0
 10
16.97974383
 20
8.80157022
  0
VERTEX
  8
0
 10
16.99193760
 20
8.35931534
  0
VERTEX
  8
0
 10
16.95126067
 20
7.92663135
  0
VERTEX
  8
0
 10
16.86407065
 20
7.50933547
  0
VERTEX
  8
0
 10
16.73672517
 20
7.11324490
  0
VERTEX
  8
0
 10
16.57558184
 20
6.74417684
  0
VERTEX
  8
0
 10
16.38699830
 20
6.40794849
  0
VERTEX
  8
0
 10
16.17733215
 20
6.11037706
  0
VERTEX
  8
0
 10
15.95294103
 20
5.85727976
  0
VERTEX
  8
0
 10
15.99049083
 20
6.03513438
  0
VERTEX
  8
0
 10
16.00922297
 20
6.21276758
  0
VERTEX
  8
0
 10
16.00165692
 20
6.56826981
  0
VERTEX
  8
0
 10
15.95308807
 20
6.92558664
  0
VERTEX
  8
0
 10
15.88636160
 20
7.28651824
  0
VERTEX
  8
0
 10
15.78044084
 20
7.30472729
  0
VERTEX
  8
0
 10
15.72421677
 20
7.31586664
  0
VERTEX
  8
0
 10
15.66590970
 20
7.31462956
  0
VERTEX
  8
0
 10
15.61978065
 20
7.29421919
  0
VERTEX
  8
0
 10
15.57261447
 20
7.25495895
  0
VERTEX
  8
0
 10
15.47356912
 20
7.16223664
  0
VERTEX
  8
0
 10
15.24200624
 20
6.99196954
  0
VERTEX
  8
0
 10
14.99327441
 20
6.84657164
  0
VERTEX
  8
0
 10
14.71393358
 20
6.72954623
  0
VERTEX
  8
0
 10
14.39054368
 20
6.64439661
  0
VERTEX
  8
0
 10
14.53430023
 20
6.87627592
  0
VERTEX
  8
0
 10
14.59843865
 20
7.00163818
  0
VERTEX
  8
0
 10
14.65834095
 20
7.15187984
  0
VERTEX
  8
0
 10
14.73611816
 20
7.46059104
  0
VERTEX
  8
0
 10
14.75765129
 20
7.63899442
  0
VERTEX
  8
0
 10
14.76486805
 20
7.83246959
  0
VERTEX
  8
0
 10
14.75448451
 20
8.04531901
  0
VERTEX
  8
0
 10
14.72975308
 20
8.25681610
  0
VERTEX
  8
0
 10
14.66162463
 20
8.67878631
  0
VERTEX
  8
0
 10
14.60923898
 20
9.10444630
  0
VERTEX
  8
0
 10
14.60418603
 20
9.32055561
  0
VERTEX
  8
0
 10
14.62135238
 20
9.53986214
  0
VERTEX
  8
0
 10
14.64934382
 20
9.65694401
  0
VERTEX
  8
0
 10
14.69262313
 20
9.76679766
  0
VERTEX
  8
0
 10
14.77374530
 20
9.98076594
  0
VERTEX
  8
0
 10
14.86686058
 20
10.00277915
  0
VERTEX
  8
0
 10
14.90901721
 20
10.00223230
  0
VERTEX
  8
0
 10
14.94685183
 20
9.98076594
  0
SEQEND
  0
POLYLINE
  8
Default_Layer
 66
   1
 39
0.000000
 70
    1
  0
VERTEX
  8
0
 10
16.11569075
 20
8.68616587
  0
VERTEX
  8
0
 10
16.05881848
 20
8.55913158
  0
VERTEX
  8
0
 10
15.98324229
 20
8.43705254
  0
VERTEX
  8
0
 10
15.80942536
 20
8.20679395
  0
VERTEX
  8
0
 10
15.34041025
 20
8.35030962
  0
VERTEX
  8
0
 10
15.32926968
 20
8.39757691
  0
VERTEX
  8
0
 10
15.28270808
 20
8.40801179
  0
VERTEX
  8
0
 10
15.25864179
 20
8.38385678
  0
VERTEX
  8
0
 10
15.25311722
 20
8.34143236
  0
VERTEX
  8
0
 10
15.28379776
 20
8.32369786
  0
VERTEX
  8
0
 10
15.33005345
 20
8.32219830
  0
VERTEX
  8
0
 10
15.47615678
 20
8.12302950
  0
VERTEX
  8
0
 10
15.61708478
 20
7.91976262
  0
VERTEX
  8
0
 10
15.34041025
 20
7.51732694
  0
VERTEX
  8
0
 10
15.28575928
 20
7.51331694
  0
VERTEX
  8
0
 10
15.26910291
 20
7.50137913
  0
VERTEX
  8
0
 10
15.26347402
 20
7.47885883
  0
VERTEX
  8
0
 10
15.27903579
 20
7.43676431
  0
VERTEX
  8
0
 10
15.33005345
 20
7.43003391
  0
VERTEX
  8
0
 10
15.34532238
 20
7.43651297
  0
VERTEX
  8
0
 10
15.34813162
 20
7.45528266
  0
VERTEX
  8
0
 10
15.35816477
 20
7.48773608
  0
VERTEX
  8
0
 10
15.82865942
 20
7.65048581
  0
VERTEX
  8
0
 10
15.98268184
 20
7.45502089
  0
VERTEX
  8
0
 10
16.13492481
 20
7.25840693
  0
VERTEX
  8
0
 10
16.11786877
 20
7.23569797
  0
VERTEX
  8
0
 10
16.11645594
 20
7.21383735
  0
VERTEX
  8
0
 10
16.14451526
 20
7.18119328
  0
VERTEX
  8
0
 10
16.18701342
 20
7.17753901
  0
VERTEX
  8
0
 10
16.20364913
 20
7.19191563
  0
VERTEX
  8
0
 10
16.21186104
 20
7.21993881
  0
VERTEX
  8
0
 10
16.20569996
 20
7.23966110
  0
VERTEX
  8
0
 10
16.19034642
 20
7.25046842
  0
VERTEX
  8
0
 10
16.16451567
 20
7.27764099
  0
VERTEX
  8
0
 10
16.15415887
 20
7.76589016
  0
VERTEX
  8
0
 10
16.43162629
 20
7.86693112
  0
VERTEX
  8
0
 10
16.56867347
 20
7.90664122
  0
VERTEX
  8
0
 10
16.70158976
 20
7.90940582
  0
VERTEX
  8
0
 10
16.70844672
 20
7.93588446
  0
VERTEX
  8
0
 10
16.71046702
 20
7.96710800
  0
VERTEX
  8
0
 10
16.68238912
 20
7.98670497
  0
VERTEX
  8
0
 10
16.65649495
 20
7.98789005
  0
VERTEX
  8
0
 10
16.59506267
 20
7.96710800
  0
VERTEX
  8
0
 10
16.36797224
 20
8.04162091
  0
VERTEX
  8
0
 10
16.25146423
 20
8.07609934
  0
VERTEX
  8
0
 10
16.14528161
 20
8.12098046
  0
VERTEX
  8
0
 10
16.14622259
 20
8.28353355
  0
VERTEX
  8
0
 10
16.13762178
 20
8.41615616
  0
VERTEX
  8
0
 10
16.13987871
 20
8.53545944
  0
VERTEX
  8
0
 10
16.17339293
 20
8.65805455
  0
VERTEX
  8
0
 10
16.15260494
 20
8.67964817
  0
VERTEX
  8
0
 10
16.11569075
 20
8.68616587
  0
SEQEND
  0
POLYLINE
  8
Default_Layer
 66
   1
 39
0.000000
 70
    1
  0
VERTEX
  8
0
 10
5.54139734
 20
6.58669443
  0
VERTEX
  8
0
 10
5.31649836
 20
6.64463106
  0
VERTEX
  8
0
 10
5.10805645
 20
6.71903410
  0
VERTEX
  8
0
 10
4.91479286
 20
6.80863827
  0
VERTEX
  8
0
 10
4.73542881
 20
6.91217827
  0
VERTEX
  8
0
 10
4.56868555
 20
7.02838881
  0
VERTEX
  8
0
 10
4.41328432
 20
7.15600459
  0
VERTEX
  8
0
 10
4.13139292
 20
7.44039071
  0
VERTEX
  8
0
 10
4.05565651
 20
7.28077900
  0
VERTEX
  8
0
 10
3.99653479
 20
7.10296448
  0
VERTEX
  8
0
 10
3.95260327
 20
6.91058039
  0
VERTEX
  8
0
 10
3.92243744
 20
6.70725996
  0
VERTEX
  8
0
 10
3.89770485
 20
6.28234308
  0
VERTEX
  8
0
 10
3.91094102
 20
5.85727976
  0
VERTEX
  8
0
 10
3.88342175
 20
5.86047524
  0
VERTEX
  8
0
 10
3.86451979
 20
5.87866598
  0
VERTEX
  8
0
 10
3.83548433
 20
5.92533874
  0
VERTEX
  8
0
 10
3.54845923
 20
6.25913750
  0
VERTEX
  8
0
 10
3.41420728
 20
6.44585021
  0
VERTEX
  8
0
 10
3.29841024
 20
6.64439661
  0
VERTEX
  8
0
 10
3.19969455
 20
6.85905613
  0
VERTEX
  8
0
 10
3.11488151
 20
7.08976771
  0
VERTEX
  8
0
 10
3.04528312
 20
7.33464331
  0
VERTEX
  8
0
 10
2.99221140
 20
7.59179487
  0
VERTEX
  8
0
 10
2.95697834
 20
7.85933436
  0
VERTEX
  8
0
 10
2.94089596
 20
8.13537373
  0
VERTEX
  8
0
 10
2.94527626
 20
8.41802493
  0
VERTEX
  8
0
 10
2.97143125
 20
8.70539993
  0
VERTEX
  8
0
 10
3.95976594
 20
8.82968153
  0
VERTEX
  8
0
 10
4.20960112
 20
8.85415967
  0
VERTEX
  8
0
 10
4.47140567
 20
8.88781607
  0
VERTEX
  8
0
 10
4.59200353
 20
8.91717163
  0
VERTEX
  8
0
 10
4.69784224
 20
8.95972440
  0
VERTEX
  8
0
 10
4.78300463
 20
9.01910856
  0
VERTEX
  8
0
 10
4.84157353
 20
9.09895835
  0
VERTEX
  8
0
 10
4.89685195
 20
9.27010217
  0
VERTEX
  8
0
 10
4.92758759
 20
9.46221299
  0
VERTEX
  8
0
 10
4.95378432
 20
9.66207799
  0
VERTEX
  8
0
 10
4.99544600
 20
9.85648433
  0
VERTEX
  8
0
 10
4.99544600
 20
9.88459565
  0
VERTEX
  8
0
 10
5.05244762
 20
9.87285826
  0
VERTEX
  8
0
 10
5.10388168
 20
9.84433133
  0
VERTEX
  8
0
 10
5.18911212
 20
9.74908372
  0
VERTEX
  8
0
 10
5.24926733
 20
9.62320247
  0
VERTEX
  8
0
 10
5.28247733
 20
9.49103723
  0
VERTEX
  8
0
 10
5.29430262
 20
9.25425831
  0
VERTEX
  8
0
 10
5.27026518
 20
9.01720519
  0
VERTEX
  8
0
 10
5.18630704
 20
8.54265020
  0
VERTEX
  8
0
 10
5.12312160
 20
8.08018122
  0
VERTEX
  8
0
 10
5.10920464
 20
7.84549355
  0
VERTEX
  8
0
 10
5.11972760
 20
7.61201769
  0
VERTEX
  8
0
 10
5.14472746
 20
7.45494044
  0
VERTEX
  8
0
 10
5.18166407
 20
7.31344169
  0
VERTEX
  8
0
 10
5.28330767
 20
7.06254374
  0
VERTEX
  8
0
 10
5.54139734
 20
6.58669443
  0
SEQEND
  0
POLYLINE
  8
Default_Layer
 66
   1
 39
0.000000
 70
    1
  0
VERTEX
  8
0
 10
3.83548433
 20
8.65805455
  0
VERTEX
  8
0
 10
3.86624198
 20
8.54844519
  0
VERTEX
  8
0
 10
3.86942764
 20
8.40269189
  0
VERTEX
  8
0
 10
3.85323885
 20
8.10174640
  0
VERTEX
  8
0
 10
3.71442876
 20
8.06929110
  0
VERTEX
  8
0
 10
3.57942279
 20
8.02079549
  0
VERTEX
  8
0
 10
3.44742622
 20
7.98651345
  0
VERTEX
  8
0
 10
3.38230810
 20
7.98415685
  0
VERTEX
  8
0
 10
3.31764430
 20
7.99669886
  0
VERTEX
  8
0
 10
3.29777448
 20
7.95643474
  0
VERTEX
  8
0
 10
3.30728750
 20
7.90940582
  0
VERTEX
  8
0
 10
3.43968805
 20
7.90636376
  0
VERTEX
  8
0
 10
3.57981049
 20
7.86606864
  0
VERTEX
  8
0
 10
3.85323885
 20
7.75701290
  0
VERTEX
  8
0
 10
3.84488829
 20
7.51165214
  0
VERTEX
  8
0
 10
3.83548433
 20
7.26728419
  0
VERTEX
  8
0
 10
3.79866881
 20
7.23109719
  0
VERTEX
  8
0
 10
3.79701621
 20
7.18147069
  0
VERTEX
  8
0
 10
3.82979604
 20
7.16774117
  0
VERTEX
  8
0
 10
3.86359565
 20
7.17111389
  0
VERTEX
  8
0
 10
3.88121551
 20
7.21346389
  0
VERTEX
  8
0
 10
3.86359565
 20
7.25840693
  0
VERTEX
  8
0
 10
4.02132506
 20
7.45475724
  0
VERTEX
  8
0
 10
4.18021784
 20
7.65048581
  0
VERTEX
  8
0
 10
4.64923295
 20
7.48773608
  0
VERTEX
  8
0
 10
4.65104522
 20
7.44600831
  0
VERTEX
  8
0
 10
4.65957192
 20
7.43272836
  0
VERTEX
  8
0
 10
4.67882381
 20
7.43003391
  0
VERTEX
  8
0
 10
4.72551408
 20
7.44084308
  0
VERTEX
  8
0
 10
4.73652598
 20
7.48773608
  0
VERTEX
  8
0
 10
4.70973235
 20
7.51429477
  0
VERTEX
  8
0
 10
4.65958975
 20
7.51732694
  0
VERTEX
  8
0
 10
4.38143568
 20
7.92863988
  0
VERTEX
  8
0
 10
4.67882381
 20
8.31184150
  0
VERTEX
  8
0
 10
4.72837973
 20
8.31526511
  0
VERTEX
  8
0
 10
4.75576004
 20
8.34143236
  0
VERTEX
  8
0
 10
4.74950477
 20
8.37377987
  0
VERTEX
  8
0
 10
4.73652598
 20
8.39913454
  0
VERTEX
  8
0
 10
4.69829956
 20
8.40081038
  0
VERTEX
  8
0
 10
4.67537457
 20
8.38745845
  0
VERTEX
  8
0
 10
4.64923295
 20
8.34143236
  0
VERTEX
  8
0
 10
4.18909509
 20
8.20679395
  0
VERTEX
  8
0
 10
4.02603393
 20
8.42876129
  0
VERTEX
  8
0
 10
3.95327058
 20
8.54503543
  0
VERTEX
  8
0
 10
3.91094102
 20
8.67728861
  0
VERTEX
  8
0
 10
3.86689118
 20
8.68280941
  0
VERTEX
  8
0
 10
3.83548433
 20
8.65805455
  0
SEQEND
  0
POLYLINE
  8
Default_Layer
 66
   1
 39
0.000000
 70
    1
  0
VERTEX
  8
0
 10
16.10681349
 20
8.56188426
  0
VERTEX
  8
0
 10
16.10907267
 20
8.45311310
  0
VERTEX
  8
0
 10
16.12198573
 20
8.34081695
  0
VERTEX
  8
0
 10
16.12953198
 20
8.23104781
  0
VERTEX
  8
0
 10
16.11569075
 20
8.12985772
  0
VERTEX
  8
0
 10
16.08128222
 20
8.07590984
  0
VERTEX
  8
0
 10
16.02777539
 20
8.03706798
  0
VERTEX
  8
0
 10
15.97051097
 20
8.00393356
  0
VERTEX
  8
0
 10
15.92482971
 20
7.96710800
  0
VERTEX
  8
0
 10
16.10681349
 20
8.56188426
  0
SEQEND
  0
POLYLINE
  8
Default_Layer
 66
   1
 39
0.000000
 70
    1
  0
VERTEX
  8
0
 10
3.91094102
 20
8.55152746
  0
VERTEX
  8
0
 10
4.15062698
 20
8.19791670
  0
VERTEX
  8
0
 10
4.08404755
 20
7.96710800
  0
VERTEX
  8
0
 10
3.91094102
 20
8.55152746
  0
SEQEND
  0
POLYLINE
  8
Default_Layer
 66
   1
 39
0.000000
 70
    1
  0
VERTEX
  8
0
 10
15.40698968
 20
8.29260744
  0
VERTEX
  8
0
 10
15.60385417
 20
8.24333358
  0
VERTEX
  8
0
 10
15.80942536
 20
8.17868264
  0
VERTEX
  8
0
 10
15.87600480
 20
7.96710800
  0
VERTEX
  8
0
 10
15.40698968
 20
8.29260744
  0
SEQEND
  0
POLYLINE
  8
Default_Layer
 66
   1
 39
0.000000
 70
    1
  0
VERTEX
  8
0
 10
4.03670217
 20
7.94787394
  0
VERTEX
  8
0
 10
3.89772924
 20
7.93886322
  0
VERTEX
  8
0
 10
3.75657282
 20
7.94304199
  0
VERTEX
  8
0
 10
3.45080317
 20
7.94787394
  0
VERTEX
  8
0
 10
3.54793650
 20
7.98773492
  0
VERTEX
  8
0
 10
3.65469363
 20
8.01781887
  0
VERTEX
  8
0
 10
3.86359565
 20
8.08251235
  0
VERTEX
  8
0
 10
4.03670217
 20
7.94787394
  0
SEQEND
  0
POLYLINE
  8
Default_Layer
 66
   1
 39
0.000000
 70
    1
  0
VERTEX
  8
0
 10
16.54771729
 20
7.93899668
  0
VERTEX
  8
0
 10
16.13492481
 20
7.79400147
  0
VERTEX
  8
0
 10
15.94406377
 20
7.91976262
  0
VERTEX
  8
0
 10
16.24211953
 20
7.93527404
  0
VERTEX
  8
0
 10
16.54771729
 20
7.93899668
  0
SEQEND
  0
POLYLINE
  8
Default_Layer
 66
   1
 39
0.000000
 70
    1
  0
VERTEX
  8
0
 10
15.86712754
 20
7.91976262
  0
VERTEX
  8
0
 10
15.64106924
 20
7.73766231
  0
VERTEX
  8
0
 10
15.41586694
 20
7.55431552
  0
VERTEX
  8
0
 10
15.46149969
 20
7.64508289
  0
VERTEX
  8
0
 10
15.52414097
 20
7.73707658
  0
VERTEX
  8
0
 10
15.65555290
 20
7.91976262
  0
VERTEX
  8
0
 10
15.86712754
 20
7.91976262
  0
SEQEND
  0
POLYLINE
  8
Default_Layer
 66
   1
 39
0.000000
 70
    1
  0
VERTEX
  8
0
 10
4.04557943
 20
7.89017176
  0
VERTEX
  8
0
 10
4.01472223
 20
7.75199669
  0
VERTEX
  8
0
 10
3.96828581
 20
7.61066030
  0
VERTEX
  8
0
 10
3.87247290
 20
7.32498636
  0
VERTEX
  8
0
 10
3.87064158
 20
7.53570096
  0
VERTEX
  8
0
 10
3.87247290
 20
7.76589016
  0
VERTEX
  8
0
 10
3.96256631
 20
7.82489479
  0
VERTEX
  8
0
 10
4.04557943
 20
7.89017176
  0
SEQEND
  0
POLYLINE
  8
Default_Layer
 66
   1
 39
0.000000
 70
    1
  0
VERTEX
  8
0
 10
4.11215886
 20
7.89017176
  0
VERTEX
  8
0
 10
4.58265352
 20
7.54543826
  0
VERTEX
  8
0
 10
4.38457811
 20
7.60385052
  0
VERTEX
  8
0
 10
4.18021784
 20
7.68007667
  0
VERTEX
  8
0
 10
4.11215886
 20
7.89017176
  0
SEQEND
  0
POLYLINE
  8
Default_Layer
 66
   1
 39
0.000000
 70
    1
  0
VERTEX
  8
0
 10
15.90559565
 20
7.89017176
  0
VERTEX
  8
0
 10
16.01606682
 20
7.61295679
  0
VERTEX
  8
0
 10
16.11569075
 20
7.32498636
  0
VERTEX
  8
0
 10
15.84789348
 20
7.66971987
  0
VERTEX
  8
0
 10
15.90559565
 20
7.89017176
  0
SEQEND
  0
POLYLINE
  8
Default_Layer
 66
   1
 39
0.000000
 70
    1
  0
VERTEX
  8
0
 10
8.31258127
 20
7.10453446
  0
VERTEX
  8
0
 10
8.33823740
 20
6.71728568
  0
VERTEX
  8
0
 10
8.34378814
 20
6.51571430
  0
VERTEX
  8
0
 10
8.33181533
 20
6.32777442
  0
VERTEX
  8
0
 10
8.18265566
 20
6.29071109
  0
VERTEX
  8
0
 10
8.01563331
 20
6.27757965
  0
VERTEX
  8
0
 10
7.65122558
 20
6.28042904
  0
VERTEX
  8
0
 10
7.27141102
 20
6.27815508
  0
VERTEX
  8
0
 10
6.90257685
 20
6.28930630
  0
VERTEX
  8
0
 10
6.89165427
 20
6.70719470
  0
VERTEX
  8
0
 10
6.89369959
 20
7.11341172
  0
VERTEX
  8
0
 10
7.61720512
 20
7.13654519
  0
VERTEX
  8
0
 10
7.97992381
 20
7.12975223
  0
VERTEX
  8
0
 10
8.31258127
 20
7.10453446
  0
SEQEND
  0
POLYLINE
  8
Default_Layer
 66
   1
 39
0.000000
 70
    1
  0
VERTEX
  8
0
 10
7.06532657
 20
6.98913011
  0
VERTEX
  8
0
 10
7.04570388
 20
6.71191951
  0
VERTEX
  8
0
 10
7.04609252
 20
6.41358791
  0
VERTEX
  8
0
 10
7.59506476
 20
6.39214484
  0
VERTEX
  8
0
 10
8.19717692
 20
6.40471065
  0
VERTEX
  8
0
 10
8.20120535
 20
6.68029333
  0
VERTEX
  8
0
 10
8.18682012
 20
6.98913011
  0
VERTEX
  8
0
 10
7.63787527
 20
7.00093237
  0
VERTEX
  8
0
 10
7.06532657
 20
6.98913011
  0
SEQEND
  0
POLYLINE
  8
Default_Layer
 66
   1
 39
0.000000
 70
    1
  0
VERTEX
  8
0
 10
12.99089606
 20
7.10453446
  0
VERTEX
  8
0
 10
12.99216660
 20
6.70258862
  0
VERTEX
  8
0
 10
12.98053926
 20
6.28930630
  0
VERTEX
  8
0
 10
12.43742917
 20
6.27773113
  0
VERTEX
  8
0
 10
11.87827977
 20
6.28042904
  0
VERTEX
  8
0
 10
11.70415633
 20
6.28375644
  0
VERTEX
  8
0
 10
11.61727073
 20
6.29481159
  0
VERTEX
  8
0
 10
11.56165758
 20
6.31889716
  0
VERTEX
  8
0
 10
11.53123405
 20
6.39591355
  0
VERTEX
  8
0
 10
11.53034283
 20
6.50649799
  0
VERTEX
  8
0
 10
11.55278032
 20
6.71097604
  0
VERTEX
  8
0
 10
11.55530642
 20
6.92362130
  0
VERTEX
  8
0
 10
11.57201438
 20
7.10453446
  0
VERTEX
  8
0
 10
11.90553894
 20
7.12876357
  0
VERTEX
  8
0
 10
12.27282880
 20
7.13784887
  0
VERTEX
  8
0
 10
12.64443187
 20
7.13027696
  0
VERTEX
  8
0
 10
12.99089606
 20
7.10453446
  0
SEQEND
  0
POLYLINE
  8
Default_Layer
 66
   1
 39
0.000000
 70
    1
  0
VERTEX
  8
0
 10
11.69629598
 20
6.98913011
  0
VERTEX
  8
0
 10
11.67952806
 20
6.70348145
  0
VERTEX
  8
0
 10
11.68741873
 20
6.40471065
  0
VERTEX
  8
0
 10
12.27835114
 20
6.39337661
  0
VERTEX
  8
0
 10
12.82814633
 20
6.40471065
  0
VERTEX
  8
0
 10
12.83884941
 20
6.54707079
  0
VERTEX
  8
0
 10
12.83701144
 20
6.69424905
  0
VERTEX
  8
0
 10
12.82814633
 20
6.98913011
  0
VERTEX
  8
0
 10
12.25069848
 20
7.00091739
  0
VERTEX
  8
0
 10
11.69629598
 20
6.98913011
  0
SEQEND
  0
POLYLINE
  8
Default_Layer
 66
   1
 39
0.000000
 70
    1
  0
VERTEX
  8
0
 10
10.76714302
 20
6.90331662
  0
VERTEX
  8
0
 10
10.76131983
 20
6.50898155
  0
VERTEX
  8
0
 10
10.72867490
 20
6.16502469
  0
VERTEX
  8
0
 10
10.55585578
 20
6.15305809
  0
VERTEX
  8
0
 10
10.45570884
 20
6.15663071
  0
VERTEX
  8
0
 10
10.37358459
 20
6.17390195
  0
VERTEX
  8
0
 10
10.41205271
 20
6.90331662
  0
VERTEX
  8
0
 10
10.59584401
 20
6.91650002
  0
VERTEX
  8
0
 10
10.76714302
 20
6.90331662
  0
SEQEND
  0
POLYLINE
  8
Default_Layer
 66
   1
 39
0.000000
 70
    1
  0
VERTEX
  8
0
 10
11.26574899
 20
6.91219388
  0
VERTEX
  8
0
 10
11.24917474
 20
6.52815565
  0
VERTEX
  8
0
 10
11.23253355
 20
6.33487105
  0
VERTEX
  8
0
 10
11.19769001
 20
6.17390195
  0
VERTEX
  8
0
 10
11.13722886
 20
6.15951088
  0
VERTEX
  8
0
 10
11.06696603
 20
6.16097223
  0
VERTEX
  8
0
 10
10.91065868
 20
6.16502469
  0
VERTEX
  8
0
 10
10.92001796
 20
6.55098013
  0
VERTEX
  8
0
 10
10.94912680
 20
6.91219388
  0
VERTEX
  8
0
 10
11.10364381
 20
6.92059188
  0
VERTEX
  8
0
 10
11.26574899
 20
6.91219388
  0
SEQEND
  0
POLYLINE
  8
Default_Layer
 66
   1
 39
0.000000
 70
    1
  0
VERTEX
  8
0
 10
8.96358017
 20
6.91219388
  0
VERTEX
  8
0
 10
9.03163914
 20
6.17390195
  0
VERTEX
  8
0
 10
8.86200250
 20
6.15540672
  0
VERTEX
  8
0
 10
8.66619204
 20
6.15466789
  0
VERTEX
  8
0
 10
8.57150129
 20
6.90331662
  0
VERTEX
  8
0
 10
8.76155724
 20
6.91374623
  0
VERTEX
  8
0
 10
8.96358017
 20
6.91219388
  0
SEQEND
  0
POLYLINE
  8
Default_Layer
 66
   1
 39
0.000000
 70
    1
  0
VERTEX
  8
0
 10
9.49177700
 20
6.90331662
  0
VERTEX
  8
0
 10
9.50012557
 20
6.72334650
  0
VERTEX
  8
0
 10
9.52355655
 20
6.54129721
  0
VERTEX
  8
0
 10
9.53590626
 20
6.35568464
  0
VERTEX
  8
0
 10
9.51101106
 20
6.16502469
  0
VERTEX
  8
0
 10
9.33931752
 20
6.15452356
  0
VERTEX
  8
0
 10
9.16479801
 20
6.16502469
  0
VERTEX
  8
0
 10
9.13651958
 20
6.52867325
  0
VERTEX
  8
0
 10
9.12632989
 20
6.90331662
  0
VERTEX
  8
0
 10
9.21402344
 20
6.91431197
  0
VERTEX
  8
0
 10
9.30602691
 20
6.91184711
  0
VERTEX
  8
0
 10
9.49177700
 20
6.90331662
  0
SEQEND
  0
POLYLINE
  8
Default_Layer
 66
   1
 39
0.000000
 70
    1
  0
VERTEX
  8
0
 10
10.20047807
 20
6.90331662
  0
VERTEX
  8
0
 10
10.19024122
 20
6.52425215
  0
VERTEX
  8
0
 10
10.18467107
 20
6.34232009
  0
VERTEX
  8
0
 10
10.16200995
 20
6.17390195
  0
VERTEX
  8
0
 10
9.95074992
 20
6.15929143
  0
VERTEX
  8
0
 10
9.74034021
 20
6.16502469
  0
VERTEX
  8
0
 10
9.70643194
 20
6.53308907
  0
VERTEX
  8
0
 10
9.70187210
 20
6.91219388
  0
VERTEX
  8
0
 10
9.96249753
 20
6.91316200
  0
VERTEX
  8
0
 10
10.20047807
 20
6.90331662
  0
SEQEND
  0
POLYLINE
  8
Default_Layer
 66
   1
 39
0.000000
 70
    1
  0
VERTEX
  8
0
 10
18.91646554
 20
3.46042019
  0
VERTEX
  8
0
 10
18.91646554
 20
3.42343162
  0
VERTEX
  8
0
 10
18.82840742
 20
3.20674668
  0
VERTEX
  8
0
 10
18.76711179
 20
3.11530421
  0
VERTEX
  8
0
 10
18.67677959
 20
3.04910726
  0
VERTEX
  8
0
 10
18.54777949
 20
3.01416507
  0
VERTEX
  8
0
 10
18.40196573
 20
3.00761632
  0
VERTEX
  8
0
 10
18.11011464
 20
3.02987320
  0
VERTEX
  8
0
 10
18.08530387
 20
2.89656812
  0
VERTEX
  8
0
 10
18.04353521
 20
2.77983044
  0
VERTEX
  8
0
 10
18.08931955
 20
2.75636096
  0
VERTEX
  8
0
 10
18.15642816
 20
2.74739046
  0
VERTEX
  8
0
 10
18.32168928
 20
2.74136232
  0
VERTEX
  8
0
 10
18.45986198
 20
2.72412722
  0
VERTEX
  8
0
 10
18.62436228
 20
2.68552491
  0
VERTEX
  8
0
 10
18.76217758
 20
2.62231753
  0
VERTEX
  8
0
 10
18.80451190
 20
2.58047511
  0
VERTEX
  8
0
 10
18.82029525
 20
2.53126723
  0
VERTEX
  8
0
 10
18.80431713
 20
2.48399528
  0
VERTEX
  8
0
 10
18.76076471
 20
2.44172876
  0
VERTEX
  8
0
 10
18.61748759
 20
2.37135345
  0
VERTEX
  8
0
 10
18.29209842
 20
2.28122447
  0
VERTEX
  8
0
 10
17.94428305
 20
2.21953851
  0
VERTEX
  8
0
 10
17.78863468
 20
2.19382394
  0
VERTEX
  8
0
 10
17.64109953
 20
2.15694286
  0
VERTEX
  8
0
 10
17.57422019
 20
2.12260813
  0
VERTEX
  8
0
 10
17.51533838
 20
2.09036343
  0
VERTEX
  8
0
 10
17.36516882
 20
2.06209996
  0
VERTEX
  8
0
 10
17.21942979
 20
2.04153851
  0
VERTEX
  8
0
 10
17.06151361
 20
1.99493093
  0
VERTEX
  8
0
 10
16.91016812
 20
1.92794829
  0
VERTEX
  8
0
 10
16.78399345
 20
1.84119441
  0
VERTEX
  8
0
 10
16.70158976
 20
1.73527312
  0
VERTEX
  8
0
 10
16.68320387
 20
1.66432689
  0
VERTEX
  8
0
 10
16.66312164
 20
1.59175746
  0
VERTEX
  8
0
 10
16.60610712
 20
1.52080027
  0
VERTEX
  8
0
 10
16.52979942
 20
1.47256960
  0
VERTEX
  8
0
 10
16.34649945
 20
1.39941688
  0
VERTEX
  8
0
 10
16.24134504
 20
1.35340204
  0
VERTEX
  8
0
 10
16.14528161
 20
1.32248064
  0
VERTEX
  8
0
 10
15.98514394
 20
1.32274232
  0
VERTEX
  8
0
 10
15.83469981
 20
1.36217713
  0
VERTEX
  8
0
 10
15.69913896
 20
1.43468838
  0
VERTEX
  8
0
 10
15.58365109
 20
1.53417936
  0
VERTEX
  8
0
 10
15.49342591
 20
1.65455338
  0
VERTEX
  8
0
 10
15.43365315
 20
1.78971373
  0
VERTEX
  8
0
 10
15.40952252
 20
1.93356372
  0
VERTEX
  8
0
 10
15.42622374
 20
2.08000663
  0
VERTEX
  8
0
 10
15.46693761
 20
2.19338240
  0
VERTEX
  8
0
 10
15.52450234
 20
2.30531906
  0
VERTEX
  8
0
 10
15.66534485
 20
2.52732720
  0
VERTEX
  8
0
 10
15.79907206
 20
2.75093548
  0
VERTEX
  8
0
 10
15.84774269
 20
2.86487229
  0
VERTEX
  8
0
 10
15.87600480
 20
2.98104828
  0
VERTEX
  8
0
 10
15.88419181
 20
3.13887443
  0
VERTEX
  8
0
 10
15.87597008
 20
3.28834304
  0
VERTEX
  8
0
 10
15.87257423
 20
3.44728389
  0
VERTEX
  8
0
 10
15.89523885
 20
3.63352672
  0
VERTEX
  8
0
 10
15.72561372
 20
3.80038283
  0
VERTEX
  8
0
 10
15.63438537
 20
3.91336301
  0
VERTEX
  8
0
 10
15.55150374
 20
4.03905709
  0
VERTEX
  8
0
 10
15.48643678
 20
4.17222439
  0
VERTEX
  8
0
 10
15.44865240
 20
4.30762429
  0
VERTEX
  8
0
 10
15.44761856
 20
4.44001612
  0
VERTEX
  8
0
 10
15.49280317
 20
4.56415923
  0
VERTEX
  8
0
 10
15.59306825
 20
4.66393897
  0
VERTEX
  8
0
 10
15.76160796
 20
4.77051702
  0
VERTEX
  8
0
 10
15.95627569
 20
4.85048252
  0
VERTEX
  8
0
 10
16.05023674
 20
4.87004467
  0
VERTEX
  8
0
 10
16.13492481
 20
4.87042462
  0
VERTEX
  8
0
 10
16.23191826
 20
4.83033204
  0
VERTEX
  8
0
 10
16.26664071
 20
4.79527958
  0
VERTEX
  8
0
 10
16.27992002
 20
4.75502027
  0
VERTEX
  8
0
 10
16.26843814
 20
4.72030071
  0
VERTEX
  8
0
 10
16.24018346
 20
4.69049069
  0
VERTEX
  8
0
 10
16.15634193
 20
4.63649155
  0
VERTEX
  8
0
 10
16.07436796
 20
4.57480745
  0
VERTEX
  8
0
 10
16.04844772
 20
4.53539123
  0
VERTEX
  8
0
 10
16.04023406
 20
4.48722300
  0
VERTEX
  8
0
 10
16.05201177
 20
4.44169729
  0
VERTEX
  8
0
 10
16.08085398
 20
4.40339345
  0
VERTEX
  8
0
 10
16.17349661
 20
4.34078827
  0
VERTEX
  8
0
 10
16.28569133
 20
4.28408124
  0
VERTEX
  8
0
 10
16.38496757
 20
4.21794618
  0
VERTEX
  8
0
 10
16.48140319
 20
4.22901063
  0
VERTEX
  8
0
 10
16.56433282
 20
4.22258074
  0
VERTEX
  8
0
 10
16.70406403
 20
4.17565297
  0
VERTEX
  8
0
 10
16.83294108
 20
4.11399288
  0
VERTEX
  8
0
 10
16.97974383
 20
4.07443052
  0
VERTEX
  8
0
 10
17.14004240
 20
4.08708845
  0
VERTEX
  8
0
 10
17.22993074
 20
4.09664824
  0
VERTEX
  8
0
 10
17.32447734
 20
4.09366457
  0
VERTEX
  8
0
 10
17.39503830
 20
4.07538783
  0
VERTEX
  8
0
 10
17.45719700
 20
4.04443419
  0
VERTEX
  8
0
 10
17.56416329
 20
3.96938297
  0
VERTEX
  8
0
 10
17.66751074
 20
3.88097343
  0
VERTEX
  8
0
 10
17.77425839
 20
3.80663324
  0
VERTEX
  8
0
 10
17.88427162
 20
3.77149637
  0
VERTEX
  8
0
 10
18.03095815
 20
3.74317001
  0
VERTEX
  8
0
 10
18.17875480
 20
3.73436903
  0
VERTEX
  8
0
 10
18.29209842
 20
3.75780833
  0
VERTEX
  8
0
 10
18.33688321
 20
3.79587681
  0
VERTEX
  8
0
 10
18.36046987
 20
3.84752200
  0
VERTEX
  8
0
 10
18.36708898
 20
3.97624241
  0
VERTEX
  8
0
 10
18.35803607
 20
4.11336944
  0
VERTEX
  8
0
 10
18.36203270
 20
4.17552290
  0
VERTEX
  8
0
 10
18.37939145
 20
4.22830298
  0
VERTEX
  8
0
 10
18.43192929
 20
4.21574229
  0
VERTEX
  8
0
 10
18.47794604
 20
4.18913783
  0
VERTEX
  8
0
 10
18.55467884
 20
4.10507296
  0
VERTEX
  8
0
 10
18.67677959
 20
3.89244673
  0
VERTEX
  8
0
 10
18.80902431
 20
3.66733439
  0
VERTEX
  8
0
 10
18.91646554
 20
3.46042019
  0
SEQEND
  0
POLYLINE
  8
Default_Layer
 66
   1
 39
0.000000
 70
    1
  0
VERTEX
  8
0
 10
15.59785072
 20
4.29488241
  0
VERTEX
  8
0
 10
15.65486403
 20
4.14946502
  0
VERTEX
  8
0
 10
15.75265887
 20
4.02279776
  0
VERTEX
  8
0
 10
15.87143924
 20
3.91491904
  0
VERTEX
  8
0
 10
15.99140915
 20
3.82586730
  0
VERTEX
  8
0
 10
16.04242905
 20
3.91616918
  0
VERTEX
  8
0
 10
16.11463637
 20
3.98544890
  0
VERTEX
  8
0
 10
16.20216632
 20
4.03966782
  0
VERTEX
  8
0
 10
16.29915408
 20
4.08478732
  0
VERTEX
  8
0
 10
16.25928699
 20
4.13178872
  0
VERTEX
  8
0
 10
16.20281921
 20
4.16986957
  0
VERTEX
  8
0
 10
16.06520509
 20
4.23413682
  0
VERTEX
  8
0
 10
15.93655883
 20
4.30732349
  0
VERTEX
  8
0
 10
15.89130087
 20
4.35655362
  0
VERTEX
  8
0
 10
15.86712754
 20
4.41916402
  0
VERTEX
  8
0
 10
15.87209546
 20
4.49546674
  0
VERTEX
  8
0
 10
15.90489552
 20
4.56844386
  0
VERTEX
  8
0
 10
16.01064320
 20
4.68844084
  0
VERTEX
  8
0
 10
15.84594158
 20
4.64306445
  0
VERTEX
  8
0
 10
15.70510508
 20
4.55990149
  0
VERTEX
  8
0
 10
15.65166932
 20
4.50529588
  0
VERTEX
  8
0
 10
15.61383952
 20
4.44261861
  0
VERTEX
  8
0
 10
15.59482891
 20
4.37232801
  0
VERTEX
  8
0
 10
15.59785072
 20
4.29488241
  0
SEQEND
  0
POLYLINE
  8
Default_Layer
 66
   1
 39
0.000000
 70
    1
  0
VERTEX
  8
0
 10
16.46190380
 20
4.07443052
  0
VERTEX
  8
0
 10
16.38454580
 20
4.05222116
  0
VERTEX
  8
0
 10
16.30196382
 20
4.01151422
  0
VERTEX
  8
0
 10
16.22029119
 20
3.95445372
  0
VERTEX
  8
0
 10
16.14566121
 20
3.88318367
  0
VERTEX
  8
0
 10
16.08420719
 20
3.79984809
  0
VERTEX
  8
0
 10
16.04206245
 20
3.70659099
  0
VERTEX
  8
0
 10
16.02536030
 20
3.60555639
  0
VERTEX
  8
0
 10
16.04023406
 20
3.49888831
  0
VERTEX
  8
0
 10
16.16874903
 20
3.67313264
  0
VERTEX
  8
0
 10
16.25641513
 20
3.73754337
  0
VERTEX
  8
0
 10
16.31099720
 20
3.75164082
  0
VERTEX
  8
0
 10
16.37461077
 20
3.74893107
  0
VERTEX
  8
0
 10
16.43291308
 20
3.71786646
  0
VERTEX
  8
0
 10
16.48485547
 20
3.65576889
  0
VERTEX
  8
0
 10
16.52014363
 20
3.57774172
  0
VERTEX
  8
0
 10
16.52848323
 20
3.49888831
  0
VERTEX
  8
0
 10
16.50248747
 20
3.42093195
  0
VERTEX
  8
0
 10
16.44813924
 20
3.32410260
  0
VERTEX
  8
0
 10
16.30803133
 20
3.13492075
  0
VERTEX
  8
0
 10
16.24915883
 20
3.07740423
  0
VERTEX
  8
0
 10
16.18049290
 20
3.03277819
  0
VERTEX
  8
0
 10
16.10383835
 20
3.00815303
  0
VERTEX
  8
0
 10
16.02100000
 20
3.01063914
  0
VERTEX
  8
0
 10
16.00583507
 20
2.85524396
  0
VERTEX
  8
0
 10
15.96077675
 20
2.71327225
  0
VERTEX
  8
0
 10
15.89487992
 20
2.58137384
  0
VERTEX
  8
0
 10
15.81719949
 20
2.45619855
  0
VERTEX
  8
0
 10
15.66270734
 20
2.21261661
  0
VERTEX
  8
0
 10
15.60400541
 20
2.08750961
  0
VERTEX
  8
0
 10
15.56973941
 20
1.95572502
  0
VERTEX
  8
0
 10
15.57407405
 20
1.81703593
  0
VERTEX
  8
0
 10
15.61939527
 20
1.69224768
  0
VERTEX
  8
0
 10
15.69500153
 20
1.59378067
  0
VERTEX
  8
0
 10
15.79019130
 20
1.53405528
  0
VERTEX
  8
0
 10
15.97217509
 20
1.50594397
  0
VERTEX
  8
0
 10
16.05742687
 20
1.47303448
  0
VERTEX
  8
0
 10
16.13492481
 20
1.45711905
  0
VERTEX
  8
0
 10
16.24480985
 20
1.50429078
  0
VERTEX
  8
0
 10
16.36337112
 20
1.60438602
  0
VERTEX
  8
0
 10
16.45907102
 20
1.72923739
  0
VERTEX
  8
0
 10
16.48849245
 20
1.79214430
  0
VERTEX
  8
0
 10
16.50037192
 20
1.85067747
  0
VERTEX
  8
0
 10
16.48233279
 20
1.92752316
  0
VERTEX
  8
0
 10
16.47078106
 20
2.00454994
  0
VERTEX
  8
0
 10
16.49865578
 20
2.06297714
  0
VERTEX
  8
0
 10
16.55323967
 20
2.12336952
  0
VERTEX
  8
0
 10
16.68235570
 20
2.23387910
  0
VERTEX
  8
0
 10
16.82169084
 20
2.33760240
  0
VERTEX
  8
0
 10
16.89517656
 20
2.37512434
  0
VERTEX
  8
0
 10
16.96938703
 20
2.39662882
  0
VERTEX
  8
0
 10
17.03920878
 20
2.39954877
  0
VERTEX
  8
0
 10
17.09809243
 20
2.38639113
  0
VERTEX
  8
0
 10
17.19239502
 20
2.33007066
  0
VERTEX
  8
0
 10
17.27099402
 20
2.26412252
  0
VERTEX
  8
0
 10
17.35258865
 20
2.22500184
  0
VERTEX
  8
0
 10
17.41813865
 20
2.22642713
  0
VERTEX
  8
0
 10
17.48122794
 20
2.24665171
  0
VERTEX
  8
0
 10
17.58339735
 20
2.31081533
  0
VERTEX
  8
0
 10
17.71616954
 20
2.45433499
  0
VERTEX
  8
0
 10
17.82472181
 20
2.64159780
  0
VERTEX
  8
0
 10
17.89657591
 20
2.85285087
  0
VERTEX
  8
0
 10
17.91925360
 20
3.06834132
  0
VERTEX
  8
0
 10
17.78985464
 20
3.07002530
  0
VERTEX
  8
0
 10
17.67928560
 20
3.11881065
  0
VERTEX
  8
0
 10
17.58974776
 20
3.20356149
  0
VERTEX
  8
0
 10
17.52344244
 20
3.31314194
  0
VERTEX
  8
0
 10
17.48257095
 20
3.43641613
  0
VERTEX
  8
0
 10
17.46933457
 20
3.56224818
  0
VERTEX
  8
0
 10
17.48593464
 20
3.67950223
  0
VERTEX
  8
0
 10
17.53457243
 20
3.77704238
  0
VERTEX
  8
0
 10
17.44216608
 20
3.85669153
  0
VERTEX
  8
0
 10
17.32973948
 20
3.91341152
  0
VERTEX
  8
0
 10
17.19766707
 20
3.94263438
  0
VERTEX
  8
0
 10
17.04632326
 20
3.93979211
  0
VERTEX
  8
0
 10
16.93594367
 20
3.91129698
  0
VERTEX
  8
0
 10
16.83454681
 20
3.86493833
  0
VERTEX
  8
0
 10
16.73842926
 20
3.81790835
  0
VERTEX
  8
0
 10
16.64388758
 20
3.78739919
  0
VERTEX
  8
0
 10
16.61205308
 20
3.81614274
  0
VERTEX
  8
0
 10
16.59925027
 20
3.84514043
  0
VERTEX
  8
0
 10
16.61636294
 20
3.90133775
  0
VERTEX
  8
0
 10
16.66647199
 20
3.95087025
  0
VERTEX
  8
0
 10
16.72082382
 20
3.98861703
  0
VERTEX
  8
0
 10
16.58590457
 20
4.05177906
  0
VERTEX
  8
0
 10
16.51978221
 20
4.07204058
  0
VERTEX
  8
0
 10
16.46190380
 20
4.07443052
  0
SEQEND
  0
POLYLINE
  8
Default_Layer
 66
   1
 39
0.000000
 70
    1
  0
VERTEX
  8
0
 10
18.24475305
 20
3.55659049
  0
VERTEX
  8
0
 10
18.07628047
 20
3.57312987
  0
VERTEX
  8
0
 10
17.90649851
 20
3.62385779
  0
VERTEX
  8
0
 10
17.74272421
 20
3.66980315
  0
VERTEX
  8
0
 10
17.66537651
 20
3.67880390
  0
VERTEX
  8
0
 10
17.59227461
 20
3.67199484
  0
VERTEX
  8
0
 10
17.58465308
 20
3.60938871
  0
VERTEX
  8
0
 10
17.59178868
 20
3.53394258
  0
VERTEX
  8
0
 10
17.64303235
 20
3.37111029
  0
VERTEX
  8
0
 10
17.73140783
 20
3.23665798
  0
VERTEX
  8
0
 10
17.78495820
 20
3.19668682
  0
VERTEX
  8
0
 10
17.84231737
 20
3.18374566
  0
VERTEX
  8
0
 10
17.89556342
 20
3.20496129
  0
VERTEX
  8
0
 10
17.94736491
 20
3.23109104
  0
VERTEX
  8
0
 10
18.09847264
 20
3.23002261
  0
VERTEX
  8
0
 10
18.23888677
 20
3.19590126
  0
VERTEX
  8
0
 10
18.37742552
 20
3.16272994
  0
VERTEX
  8
0
 10
18.52290712
 20
3.16451161
  0
VERTEX
  8
0
 10
18.63124680
 20
3.21069937
  0
VERTEX
  8
0
 10
18.69783218
 20
3.29116716
  0
VERTEX
  8
0
 10
18.72787838
 20
3.39620595
  0
VERTEX
  8
0
 10
18.72660049
 20
3.51610671
  0
VERTEX
  8
0
 10
18.69921364
 20
3.64116042
  0
VERTEX
  8
0
 10
18.65093292
 20
3.76165804
  0
VERTEX
  8
0
 10
18.58697344
 20
3.86789055
  0
VERTEX
  8
0
 10
18.51255032
 20
3.95014891
  0
VERTEX
  8
0
 10
18.49746708
 20
3.79333218
  0
VERTEX
  8
0
 10
18.44711337
 20
3.67248090
  0
VERTEX
  8
0
 10
18.36252882
 20
3.59207403
  0
VERTEX
  8
0
 10
18.24475305
 20
3.55659049
  0
SEQEND
  0
POLYLINE
  8
Default_Layer
 66
   1
 39
0.000000
 70
    1
  0
VERTEX
  8
0
 10
16.06834538
 20
3.26955916
  0
VERTEX
  8
0
 10
16.19935177
 20
3.44034984
  0
VERTEX
  8
0
 10
16.28744011
 20
3.50319951
  0
VERTEX
  8
0
 10
16.41307888
 20
3.52847917
  0
VERTEX
  8
0
 10
16.37752827
 20
3.61765267
  0
VERTEX
  8
0
 10
16.32447496
 20
3.64642180
  0
VERTEX
  8
0
 10
16.26159299
 20
3.62762609
  0
VERTEX
  8
0
 10
16.19655643
 20
3.57410509
  0
VERTEX
  8
0
 10
16.13703933
 20
3.49869836
  0
VERTEX
  8
0
 10
16.09071575
 20
3.41424543
  0
VERTEX
  8
0
 10
16.06525975
 20
3.33358584
  0
VERTEX
  8
0
 10
16.06834538
 20
3.26955916
  0
SEQEND
  0
POLYLINE
  8
Default_Layer
 66
   1
 39
0.000000
 70
    1
  0
VERTEX
  8
0
 10
17.12325950
 20
3.49001105
  0
VERTEX
  8
0
 10
17.19604506
 20
3.47642858
  0
VERTEX
  8
0
 10
17.27876484
 20
3.43513430
  0
VERTEX
  8
0
 10
17.36442906
 20
3.37183187
  0
VERTEX
  8
0
 10
17.44604794
 20
3.29222496
  0
VERTEX
  8
0
 10
17.51663171
 20
3.20201722
  0
VERTEX
  8
0
 10
17.56919060
 20
3.10691231
  0
VERTEX
  8
0
 10
17.59673482
 20
3.01261390
  0
VERTEX
  8
0
 10
17.59227461
 20
2.92482565
  0
VERTEX
  8
0
 10
17.56888025
 20
2.87639836
  0
VERTEX
  8
0
 10
17.52841270
 20
2.83292320
  0
VERTEX
  8
0
 10
17.41164542
 20
2.76485911
  0
VERTEX
  8
0
 10
17.27274747
 20
2.72869315
  0
VERTEX
  8
0
 10
17.14249355
 20
2.73248507
  0
VERTEX
  8
0
 10
17.08237466
 20
2.76288895
  0
VERTEX
  8
0
 10
17.02308438
 20
2.82225622
  0
VERTEX
  8
0
 10
16.92319971
 20
2.99844636
  0
VERTEX
  8
0
 10
16.89071040
 20
3.10055191
  0
VERTEX
  8
0
 10
16.87525980
 20
3.20218626
  0
VERTEX
  8
0
 10
16.88090044
 20
3.29599074
  0
VERTEX
  8
0
 10
16.91168486
 20
3.37460670
  0
VERTEX
  8
0
 10
16.95417697
 20
3.41695927
  0
VERTEX
  8
0
 10
17.00506005
 20
3.43988029
  0
VERTEX
  8
0
 10
17.12325950
 20
3.49001105
  0
SEQEND
  0
POLYLINE
  8
Default_Layer
 66
   1
 39
0.000000
 70
    1
  0
VERTEX
  8
0
 10
17.18096167
 20
3.39384076
  0
VERTEX
  8
0
 10
17.11339682
 20
3.38835692
  0
VERTEX
  8
0
 10
17.04093149
 20
3.36254543
  0
VERTEX
  8
0
 10
16.98558759
 20
3.32131121
  0
VERTEX
  8
0
 10
16.96938703
 20
3.26955916
  0
VERTEX
  8
0
 10
17.06674531
 20
3.29004192
  0
VERTEX
  8
0
 10
17.15134821
 20
3.28092082
  0
VERTEX
  8
0
 10
17.22406679
 20
3.24722878
  0
VERTEX
  8
0
 10
17.28577210
 20
3.19399875
  0
VERTEX
  8
0
 10
17.37962713
 20
3.04905648
  0
VERTEX
  8
0
 10
17.43988169
 20
2.88635753
  0
VERTEX
  8
0
 10
17.48948306
 20
2.93931636
  0
VERTEX
  8
0
 10
17.49768338
 20
3.01046149
  0
VERTEX
  8
0
 10
17.47347370
 20
3.09219643
  0
VERTEX
  8
0
 10
17.42584506
 20
3.17692468
  0
VERTEX
  8
0
 10
17.29629505
 20
3.32497509
  0
VERTEX
  8
0
 10
17.23235576
 20
3.37310427
  0
VERTEX
  8
0
 10
17.18096167
 20
3.39384076
  0
SEQEND
  0
POLYLINE
  8
Default_Layer
 66
   1
 39
0.000000
 70
    1
  0
VERTEX
  8
0
 10
16.17339293
 20
2.10959749
  0
VERTEX
  8
0
 10
16.23234731
 20
2.11228654
  0
VERTEX
  8
0
 10
16.28251050
 20
2.08288474
  0
VERTEX
  8
0
 10
16.32175830
 20
2.03021049
  0
VERTEX
  8
0
 10
16.34796653
 20
1.96308216
  0
VERTEX
  8
0
 10
16.35901100
 20
1.89031815
  0
VERTEX
  8
0
 10
16.35276753
 20
1.82073684
  0
VERTEX
  8
0
 10
16.32711193
 20
1.76315661
  0
VERTEX
  8
0
 10
16.27992002
 20
1.72639587
  0
VERTEX
  8
0
 10
16.20470297
 20
1.72071881
  0
VERTEX
  8
0
 10
16.12078572
 20
1.75240063
  0
VERTEX
  8
0
 10
16.05392494
 20
1.81879532
  0
VERTEX
  8
0
 10
16.03493967
 20
1.86418313
  0
VERTEX
  8
0
 10
16.02987726
 20
1.91725691
  0
VERTEX
  8
0
 10
16.08280466
 20
2.02297208
  0
VERTEX
  8
0
 10
16.12909460
 20
2.07782979
  0
VERTEX
  8
0
 10
16.17339293
 20
2.10959749
  0
SEQEND
  0
POLYLINE
  8
Default_Layer
 66
   1
 39
0.000000
 70
    1
  0
VERTEX
  8
0
 10
9.57759049
 20
17.60189164
  0
VERTEX
  8
0
 10
9.36445783
 20
17.56240080
  0
VERTEX
  8
0
 10
9.17685954
 20
17.49731118
  0
VERTEX
  8
0
 10
9.01279277
 20
17.40863022
  0
VERTEX
  8
0
 10
8.87025463
 20
17.29836536
  0
VERTEX
  8
0
 10
8.74724226
 20
17.16852406
  0
VERTEX
  8
0
 10
8.64175278
 20
17.02111376
  0
VERTEX
  8
0
 10
8.55178331
 20
16.85814190
  0
VERTEX
  8
0
 10
8.47533100
 20
16.68161593
  0
VERTEX
  8
0
 10
8.15887801
 20
16.60839446
  0
VERTEX
  8
0
 10
7.85681269
 20
16.51843086
  0
VERTEX
  8
0
 10
7.56794089
 20
16.41343598
  0
VERTEX
  8
0
 10
7.29106845
 20
16.29512066
  0
VERTEX
  8
0
 10
6.76854505
 20
16.02537213
  0
VERTEX
  8
0
 10
6.27968927
 20
15.72287210
  0
VERTEX
  8
0
 10
6.04850180
 20
15.56005471
  0
VERTEX
  8
0
 10
5.82991176
 20
15.38577834
  0
VERTEX
  8
0
 10
5.42583646
 20
15.00583146
  0
VERTEX
  8
0
 10
5.05808822
 20
14.58899705
  0
VERTEX
  8
0
 10
4.71729192
 20
14.14124070
  0
VERTEX
  8
0
 10
4.56898247
 20
13.90377753
  0
VERTEX
  8
0
 10
4.42878105
 20
13.64263472
  0
VERTEX
  8
0
 10
4.23820934
 20
13.24394648
  0
VERTEX
  8
0
 10
4.07518408
 20
12.81689694
  0
VERTEX
  8
0
 10
3.94063314
 20
12.36181250
  0
VERTEX
  8
0
 10
3.83548433
 20
11.87901954
  0
VERTEX
  8
0
 10
3.78758551
 20
11.53962784
  0
VERTEX
  8
0
 10
3.76490812
 20
11.19184763
  0
VERTEX
  8
0
 10
3.76527731
 20
10.83955920
  0
VERTEX
  8
0
 10
3.78651823
 20
10.48664283
  0
VERTEX
  8
0
 10
3.82645603
 20
10.13697881
  0
VERTEX
  8
0
 10
3.88291585
 20
9.79444743
  0
VERTEX
  8
0
 10
3.95372285
 20
9.46292897
  0
VERTEX
  8
0
 10
4.03670217
 20
9.14630372
  0
VERTEX
  8
0
 10
4.17238275
 20
9.14933338
  0
VERTEX
  8
0
 10
4.29562219
 20
9.16553778
  0
VERTEX
  8
0
 10
4.27275248
 20
9.25030358
  0
VERTEX
  8
0
 10
4.23617872
 20
9.33090513
  0
VERTEX
  8
0
 10
4.16098378
 20
9.49103723
  0
VERTEX
  8
0
 10
4.09690585
 20
9.71353870
  0
VERTEX
  8
0
 10
4.04792524
 20
9.95339876
  0
VERTEX
  8
0
 10
3.97900000
 20
10.44978105
  0
VERTEX
  8
0
 10
3.95642961
 20
10.70609455
  0
VERTEX
  8
0
 10
3.94854039
 20
10.96228650
  0
VERTEX
  8
0
 10
3.96864320
 20
11.45734980
  0
VERTEX
  8
0
 10
4.03240855
 20
11.94748792
  0
VERTEX
  8
0
 10
4.13552698
 20
12.42067285
  0
VERTEX
  8
0
 10
4.27282719
 20
12.86271707
  0
VERTEX
  8
0
 10
4.43913785
 20
13.25943310
  0
VERTEX
  8
0
 10
4.63357917
 20
13.63493725
  0
VERTEX
  8
0
 10
4.84629988
 20
13.98936323
  0
VERTEX
  8
0
 10
5.08069999
 20
14.32170822
  0
VERTEX
  8
0
 10
5.34017950
 20
14.63096941
  0
VERTEX
  8
0
 10
5.62289375
 20
14.92240673
  0
VERTEX
  8
0
 10
5.92180202
 20
15.19515886
  0
VERTEX
  8
0
 10
6.23653430
 20
15.44214708
  0
VERTEX
  8
0
 10
6.56672060
 20
15.65629267
  0
VERTEX
  8
0
 10
6.53907285
 20
15.55017045
  0
VERTEX
  8
0
 10
6.51937523
 20
15.43584077
  0
VERTEX
  8
0
 10
6.24076844
 20
15.21985906
  0
VERTEX
  8
0
 10
5.97816371
 20
14.98815434
  0
VERTEX
  8
0
 10
5.48369517
 20
14.48597420
  0
VERTEX
  8
0
 10
5.25819180
 20
14.21538315
  0
VERTEX
  8
0
 10
5.05581423
 20
13.92299406
  0
VERTEX
  8
0
 10
4.87096781
 20
13.61248758
  0
VERTEX
  8
0
 10
4.69805787
 20
13.28754442
  0
VERTEX
  8
0
 10
4.54386347
 20
12.94981996
  0
VERTEX
  8
0
 10
4.41318006
 20
12.58338002
  0
VERTEX
  8
0
 10
4.30840663
 20
12.19212254
  0
VERTEX
  8
0
 10
4.23194218
 20
11.77994546
  0
VERTEX
  8
0
 10
4.18618570
 20
11.35074672
  0
VERTEX
  8
0
 10
4.17353619
 20
10.90842428
  0
VERTEX
  8
0
 10
4.19639265
 20
10.45687605
  0
VERTEX
  8
0
 10
4.25715407
 20
10.00000000
  0
VERTEX
  8
0
 10
4.45637394
 20
10.01198470
  0
VERTEX
  8
0
 10
4.64820542
 20
10.04990526
  0
VERTEX
  8
0
 10
4.84092056
 20
10.08691577
  0
VERTEX
  8
0
 10
5.04279137
 20
10.09617029
  0
VERTEX
  8
0
 10
5.16500547
 20
10.07200315
  0
VERTEX
  8
0
 10
5.27075878
 20
10.02002645
  0
VERTEX
  8
0
 10
5.36022820
 20
9.94422868
  0
VERTEX
  8
0
 10
5.43359065
 20
9.84859835
  0
VERTEX
  8
0
 10
5.49102302
 20
9.73712397
  0
VERTEX
  8
0
 10
5.53270221
 20
9.61379404
  0
VERTEX
  8
0
 10
5.55880512
 20
9.48259707
  0
VERTEX
  8
0
 10
5.56950866
 20
9.34752156
  0
VERTEX
  8
0
 10
5.56287790
 20
9.15352604
  0
VERTEX
  8
0
 10
5.53765837
 20
8.95653764
  0
VERTEX
  8
0
 10
5.45804685
 20
8.55470117
  0
VERTEX
  8
0
 10
5.38386177
 20
8.14425002
  0
VERTEX
  8
0
 10
5.36542530
 20
7.93649327
  0
VERTEX
  8
0
 10
5.36829082
 20
7.72742204
  0
VERTEX
  8
0
 10
5.39017389
 20
7.56146138
  0
VERTEX
  8
0
 10
5.42811737
 20
7.40325007
  0
VERTEX
  8
0
 10
5.54254075
 20
7.11131271
  0
VERTEX
  8
0
 10
5.69227135
 20
6.85408446
  0
VERTEX
  8
0
 10
5.85801953
 20
6.63403981
  0
VERTEX
  8
0
 10
5.98562702
 20
6.49841138
  0
VERTEX
  8
0
 10
6.12581681
 20
6.36624253
  0
VERTEX
  8
0
 10
6.16936362
 20
6.32780686
  0
VERTEX
  8
0
 10
6.17949820
 20
6.30169610
  0
VERTEX
  8
0
 10
6.16428492
 20
6.27007224
  0
VERTEX
  8
0
 10
6.11352710
 20
6.23233181
  0
VERTEX
  8
0
 10
6.04846473
 20
6.22743292
  0
VERTEX
  8
0
 10
5.91572171
 20
6.25083818
  0
VERTEX
  8
0
 10
5.66064731
 20
6.29044808
  0
VERTEX
  8
0
 10
5.41839060
 20
6.34791398
  0
VERTEX
  8
0
 10
5.18883624
 20
6.42133113
  0
VERTEX
  8
0
 10
4.97186891
 20
6.50879476
  0
VERTEX
  8
0
 10
4.76737327
 20
6.60840010
  0
VERTEX
  8
0
 10
4.57523399
 20
6.71824240
  0
VERTEX
  8
0
 10
4.22756321
 20
6.96101880
  0
VERTEX
  8
0
 10
4.18500265
 20
6.78753997
  0
VERTEX
  8
0
 10
4.16005154
 20
6.60931494
  0
VERTEX
  8
0
 10
4.14174972
 20
6.24196093
  0
VERTEX
  8
0
 10
4.14839990
 20
5.90160263
  0
VERTEX
  8
0
 10
4.16931065
 20
5.72979941
  0
VERTEX
  8
0
 10
4.20832915
 20
5.57024843
  0
VERTEX
  8
0
 10
4.31472125
 20
5.37524336
  0
VERTEX
  8
0
 10
4.35196344
 20
5.27084823
  0
VERTEX
  8
0
 10
4.34860293
 20
5.22810544
  0
VERTEX
  8
0
 10
4.32373350
 20
5.19592407
  0
VERTEX
  8
0
 10
4.28458158
 20
5.18681064
  0
VERTEX
  8
0
 10
4.23704359
 20
5.20194008
  0
VERTEX
  8
0
 10
4.12784279
 20
5.28151762
  0
VERTEX
  8
0
 10
3.93017508
 20
5.47407814
  0
VERTEX
  8
0
 10
3.74988516
 20
5.64242562
  0
VERTEX
  8
0
 10
3.58241837
 20
5.82002458
  0
VERTEX
  8
0
 10
3.42743564
 20
6.00747345
  0
VERTEX
  8
0
 10
3.28459791
 20
6.20537066
  0
VERTEX
  8
0
 10
3.15356611
 20
6.41431466
  0
VERTEX
  8
0
 10
3.03400117
 20
6.63490388
  0
VERTEX
  8
0
 10
2.92556402
 20
6.86773675
  0
VERTEX
  8
0
 10
2.82791559
 20
7.11341172
  0
VERTEX
  8
0
 10
2.73170458
 20
7.45859733
  0
VERTEX
  8
0
 10
2.67080880
 20
7.86313106
  0
VERTEX
  8
0
 10
2.65480682
 20
8.29080217
  0
VERTEX
  8
0
 10
2.66663429
 20
8.50199839
  0
VERTEX
  8
0
 10
2.69327718
 20
8.70539993
  0
VERTEX
  8
0
 10
2.11023475
 20
8.60823588
  0
VERTEX
  8
0
 10
1.53331551
 20
8.50418209
  0
VERTEX
  8
0
 10
1.36820408
 20
8.99865285
  0
VERTEX
  8
0
 10
1.23538851
 20
9.53094864
  0
VERTEX
  8
0
 10
1.13909118
 20
10.09396307
  0
VERTEX
  8
0
 10
1.08353446
 20
10.68058975
  0
VERTEX
  8
0
 10
1.08353446
 20
11.02532326
  0
VERTEX
  8
0
 10
1.10387497
 20
11.51398086
  0
VERTEX
  8
0
 10
1.14854750
 20
11.99392247
  0
VERTEX
  8
0
 10
1.22063499
 20
12.45931936
  0
VERTEX
  8
0
 10
1.32322041
 20
12.90434280
  0
VERTEX
  8
0
 10
1.43297683
 20
13.32652547
  0
VERTEX
  8
0
 10
1.56290637
 20
13.72992776
  0
VERTEX
  8
0
 10
1.87925989
 20
14.46925627
  0
VERTEX
  8
0
 10
2.05668252
 20
14.82355891
  0
VERTEX
  8
0
 10
2.25237338
 20
15.15768670
  0
VERTEX
  8
0
 10
2.67404312
 20
15.79093108
  0
VERTEX
  8
0
 10
2.90725983
 20
16.08765817
  0
VERTEX
  8
0
 10
3.15341503
 20
16.37535054
  0
VERTEX
  8
0
 10
3.52540092
 20
16.79373172
  0
VERTEX
  8
0
 10
3.93401455
 20
17.18753056
  0
VERTEX
  8
0
 10
4.37177885
 20
17.55141319
  0
VERTEX
  8
0
 10
4.83121673
 20
17.88004571
  0
VERTEX
  8
0
 10
5.31762692
 20
18.18004889
  0
VERTEX
  8
0
 10
5.83770637
 20
18.45620419
  0
VERTEX
  8
0
 10
6.39142234
 20
18.70447392
  0
VERTEX
  8
0
 10
6.97874207
 20
18.92082041
  0
VERTEX
  8
0
 10
7.59963285
 20
19.10120598
  0
VERTEX
  8
0
 10
8.25406192
 20
19.24159296
  0
VERTEX
  8
0
 10
8.94199654
 20
19.33794367
  0
VERTEX
  8
0
 10
9.66340398
 20
19.38622043
  0
VERTEX
  8
0
 10
10.35435053
 20
19.38622043
  0
VERTEX
  8
0
 10
10.35435053
 20
19.37586363
  0
VERTEX
  8
0
 10
10.92039450
 20
19.33581914
  0
VERTEX
  8
0
 10
11.46247331
 20
19.26586659
  0
VERTEX
  8
0
 10
11.98137673
 20
19.16802785
  0
VERTEX
  8
0
 10
12.47789454
 20
19.04432478
  0
VERTEX
  8
0
 10
12.95281652
 20
18.89677922
  0
VERTEX
  8
0
 10
13.40693246
 20
18.72741306
  0
VERTEX
  8
0
 10
13.84103211
 20
18.53824813
  0
VERTEX
  8
0
 10
14.25590527
 20
18.33130631
  0
VERTEX
  8
0
 10
14.64661035
 20
18.11057231
  0
VERTEX
  8
0
 10
15.02255593
 20
17.87131660
  0
VERTEX
  8
0
 10
15.38376178
 20
17.61462359
  0
VERTEX
  8
0
 10
15.73024768
 20
17.34157769
  0
VERTEX
  8
0
 10
16.06203338
 20
17.05326330
  0
VERTEX
  8
0
 10
16.37913867
 20
16.75076482
  0
VERTEX
  8
0
 10
16.68158329
 20
16.43516668
  0
VERTEX
  8
0
 10
16.96938703
 20
16.10755327
  0
VERTEX
  8
0
 10
17.23554553
 20
15.76204746
  0
VERTEX
  8
0
 10
17.47900803
 20
15.39312215
  0
VERTEX
  8
0
 10
17.70734599
 20
15.00264940
  0
VERTEX
  8
0
 10
17.92813086
 20
14.59250129
  0
VERTEX
  8
0
 10
18.12814469
 20
14.17717558
  0
VERTEX
  8
0
 10
18.30631643
 20
13.73530123
  0
VERTEX
  8
0
 10
18.46023830
 20
13.26859885
  0
VERTEX
  8
0
 10
18.58750250
 20
12.77878904
  0
VERTEX
  8
0
 10
18.68570127
 20
12.26759241
  0
VERTEX
  8
0
 10
18.75242682
 20
11.73672955
  0
VERTEX
  8
0
 10
18.78527137
 20
11.18792107
  0
VERTEX
  8
0
 10
18.78182713
 20
10.62288758
  0
VERTEX
  8
0
 10
18.75503296
 20
10.24015585
  0
VERTEX
  8
0
 10
18.70379158
 20
9.85102170
  0
VERTEX
  8
0
 10
18.62683798
 20
9.46424897
  0
VERTEX
  8
0
 10
18.52290712
 20
9.08860155
  0
VERTEX
  8
0
 10
18.43690837
 20
8.85548767
  0
VERTEX
  8
0
 10
18.37749762
 20
8.74662859
  0
VERTEX
  8
0
 10
18.31133248
 20
8.68616587
  0
VERTEX
  8
0
 10
18.19938082
 20
8.67987104
  0
VERTEX
  8
0
 10
18.04918497
 20
8.70649775
  0
VERTEX
  8
0
 10
17.78461519
 20
8.77197936
  0
VERTEX
  8
0
 10
17.24754110
 20
8.86814965
  0
VERTEX
  8
0
 10
17.25359641
 20
8.63432372
  0
VERTEX
  8
0
 10
17.26677516
 20
8.36954368
  0
VERTEX
  8
0
 10
17.25432947
 20
8.09806604
  0
VERTEX
  8
0
 10
17.21983249
 20
7.83640522
  0
VERTEX
  8
0
 10
17.16599523
 20
7.58472288
  0
VERTEX
  8
0
 10
17.09552868
 20
7.34318071
  0
VERTEX
  8
0
 10
17.01114386
 20
7.11194035
  0
VERTEX
  8
0
 10
16.91555176
 20
6.89116348
  0
VERTEX
  8
0
 10
16.70158976
 20
6.48164688
  0
VERTEX
  8
0
 10
16.49038693
 20
6.15284800
  0
VERTEX
  8
0
 10
16.25978157
 20
5.85214850
  0
VERTEX
  8
0
 10
16.01261366
 20
5.56659075
  0
VERTEX
  8
0
 10
15.75172319
 20
5.28321710
  0
VERTEX
  8
0
 10
15.70568300
 20
5.23957938
  0
VERTEX
  8
0
 10
15.65698589
 20
5.21092602
  0
VERTEX
  8
0
 10
15.60054445
 20
5.19918414
  0
VERTEX
  8
0
 10
15.53127129
 20
5.20628087
  0
VERTEX
  8
0
 10
15.63152582
 20
5.60232707
  0
VERTEX
  8
0
 10
15.70883362
 20
6.04485150
  0
VERTEX
  8
0
 10
15.73033053
 20
6.27577438
  0
VERTEX
  8
0
 10
15.73582838
 20
6.50899441
  0
VERTEX
  8
0
 10
15.72190638
 20
6.74140412
  0
VERTEX
  8
0
 10
15.68514376
 20
6.96989605
  0
VERTEX
  8
0
 10
15.50454511
 20
6.84442430
  0
VERTEX
  8
0
 10
15.30900310
 20
6.72540288
  0
VERTEX
  8
0
 10
15.09550507
 20
6.61840209
  0
VERTEX
  8
0
 10
14.86103834
 20
6.52899226
  0
VERTEX
  8
0
 10
14.61371976
 20
6.45825938
  0
VERTEX
  8
0
 10
14.35342265
 20
6.40091677
  0
VERTEX
  8
0
 10
14.08061566
 20
6.35952675
  0
VERTEX
  8
0
 10
13.79576742
 20
6.33665167
  0
VERTEX
  8
0
 10
13.78227202
 20
6.32917756
  0
VERTEX
  8
0
 10
13.77777355
 20
6.33692595
  0
VERTEX
  8
0
 10
13.79576742
 20
6.35588573
  0
VERTEX
  8
0
 10
14.04545848
 20
6.66184655
  0
VERTEX
  8
0
 10
14.15956335
 20
6.81979180
  0
VERTEX
  8
0
 10
14.26261668
 20
6.98618259
  0
VERTEX
  8
0
 10
14.35170014
 20
7.16487062
  0
VERTEX
  8
0
 10
14.42389541
 20
7.35970764
  0
VERTEX
  8
0
 10
14.47628414
 20
7.57454537
  0
VERTEX
  8
0
 10
14.50594803
 20
7.81323553
  0
VERTEX
  8
0
 10
14.50575460
 20
8.05337976
  0
VERTEX
  8
0
 10
14.48044683
 20
8.29297729
  0
VERTEX
  8
0
 10
14.39942094
 20
8.77197936
  0
VERTEX
  8
0
 10
14.32593112
 20
9.26293863
  0
VERTEX
  8
0
 10
14.31217130
 20
9.51353531
  0
VERTEX
  8
0
 10
14.33284151
 20
9.76031404
  0
VERTEX
  8
0
 10
14.36283784
 20
9.86117068
  0
VERTEX
  8
0
 10
14.40877801
 20
9.95141033
  0
VERTEX
  8
0
 10
14.51482529
 20
10.12428161
  0
VERTEX
  8
0
 10
14.65838876
 20
10.21352312
  0
VERTEX
  8
0
 10
14.73462378
 20
10.26077098
  0
VERTEX
  8
0
 10
14.82257022
 20
10.29738813
  0
VERTEX
  8
0
 10
14.92640540
 20
10.31926630
  0
VERTEX
  8
0
 10
15.03312741
 20
10.32710346
  0
VERTEX
  8
0
 10
15.24824878
 20
10.30936568
  0
VERTEX
  8
0
 10
15.45396803
 20
10.26159655
  0
VERTEX
  8
0
 10
15.63631884
 20
10.20121784
  0
VERTEX
  8
0
 10
15.67705175
 20
10.71318469
  0
VERTEX
  8
0
 10
15.67757238
 20
11.23036457
  0
VERTEX
  8
0
 10
15.63601286
 20
11.73860489
  0
VERTEX
  8
0
 10
15.55050535
 20
12.22375304
  0
VERTEX
  8
0
 10
15.39918765
 20
12.75298451
  0
VERTEX
  8
0
 10
15.20044374
 20
13.24517471
  0
VERTEX
  8
0
 10
14.95867830
 20
13.70110049
  0
VERTEX
  8
0
 10
14.67829607
 20
14.12153868
  0
VERTEX
  8
0
 10
14.36370174
 20
14.50726610
  0
VERTEX
  8
0
 10
14.01930004
 20
14.85905958
  0
VERTEX
  8
0
 10
13.64949566
 20
15.17769597
  0
VERTEX
  8
0
 10
13.25869333
 20
15.46395209
  0
VERTEX
  8
0
 10
13.24608352
 20
15.60006003
  0
VERTEX
  8
0
 10
13.20099116
 20
15.70363804
  0
VERTEX
  8
0
 10
13.61780264
 20
15.41103587
  0
VERTEX
  8
0
 10
14.01542802
 20
15.08423636
  0
VERTEX
  8
0
 10
14.38912117
 20
14.72256046
  0
VERTEX
  8
0
 10
14.73413596
 20
14.32532913
  0
VERTEX
  8
0
 10
15.04572628
 20
13.89186333
  0
VERTEX
  8
0
 10
15.31914599
 20
13.42148402
  0
VERTEX
  8
0
 10
15.54964899
 20
12.91351216
  0
VERTEX
  8
0
 10
15.64732355
 20
12.64521682
  0
VERTEX
  8
0
 10
15.73248913
 20
12.36726871
  0
VERTEX
  8
0
 10
15.78934765
 20
12.12607943
  0
VERTEX
  8
0
 10
15.83047732
 20
11.87283453
  0
VERTEX
  8
0
 10
15.87600480
 20
11.34194545
  0
VERTEX
  8
0
 10
15.88327523
 20
10.80162188
  0
VERTEX
  8
0
 10
15.84426740
 20
10.28355738
  0
VERTEX
  8
0
 10
15.80509927
 20
10.03547510
  0
VERTEX
  8
0
 10
15.75158975
 20
9.79608095
  0
VERTEX
  8
0
 10
15.68281488
 20
9.56641606
  0
VERTEX
  8
0
 10
15.59785072
 20
9.34752156
  0
VERTEX
  8
0
 10
15.82865942
 20
9.34752156
  0
VERTEX
  8
0
 10
15.91575839
 20
9.60204733
  0
VERTEX
  8
0
 10
15.98703689
 20
9.87791113
  0
VERTEX
  8
0
 10
16.04224256
 20
10.17106912
  0
VERTEX
  8
0
 10
16.08112303
 20
10.47747747
  0
VERTEX
  8
0
 10
16.10342591
 20
10.79309236
  0
VERTEX
  8
0
 10
16.10889885
 20
11.11386995
  0
VERTEX
  8
0
 10
16.09728946
 20
11.43576642
  0
VERTEX
  8
0
 10
16.06834538
 20
11.75473793
  0
VERTEX
  8
0
 10
15.98353029
 20
12.25839722
  0
VERTEX
  8
0
 10
15.85325902
 20
12.73631874
  0
VERTEX
  8
0
 10
15.67961755
 20
13.18099852
  0
VERTEX
  8
0
 10
15.46469186
 20
13.58493255
  0
VERTEX
  8
0
 10
15.22808813
 20
13.96083782
  0
VERTEX
  8
0
 10
14.98470575
 20
14.32264185
  0
VERTEX
  8
0
 10
14.72720493
 20
14.66809234
  0
VERTEX
  8
0
 10
14.44824586
 20
14.99493697
  0
VERTEX
  8
0
 10
14.13927419
 20
15.29561954
  0
VERTEX
  8
0
 10
13.80126982
 20
15.56767380
  0
VERTEX
  8
0
 10
13.44165008
 20
15.81449897
  0
VERTEX
  8
0
 10
13.06783229
 20
16.03949429
  0
VERTEX
  8
0
 10
12.66015909
 20
16.25050512
  0
VERTEX
  8
0
 10
12.22904239
 20
16.43359156
  0
VERTEX
  8
0
 10
11.77863616
 20
16.58755749
  0
VERTEX
  8
0
 10
11.31309436
 20
16.71120679
  0
VERTEX
  8
0
 10
11.16872318
 20
16.99341735
  0
VERTEX
  8
0
 10
11.08060175
 20
17.11862983
  0
VERTEX
  8
0
 10
10.98050737
 20
17.23191060
  0
VERTEX
  8
0
 10
10.86742821
 20
17.33225728
  0
VERTEX
  8
0
 10
10.74035247
 20
17.41866750
  0
VERTEX
  8
0
 10
10.59826835
 20
17.49013886
  0
VERTEX
  8
0
 10
10.44016403
 20
17.54566901
  0
VERTEX
  8
0
 10
10.22822604
 20
17.59256647
  0
VERTEX
  8
0
 10
10.01264005
 20
17.61596801
  0
VERTEX
  8
0
 10
9.79517266
 20
17.61827570
  0
VERTEX
  8
0
 10
9.57759049
 20
17.60189164
  0
SEQEND
  0
POLYLINE
  8
Default_Layer
 66
   1
 39
0.000000
 70
    1
  0
VERTEX
  8
0
 10
1.77300147
 20
8.78233616
  0
VERTEX
  8
0
 10
1.62948580
 20
9.09895835
  0
VERTEX
  8
0
 10
1.52290815
 20
9.45270183
  0
VERTEX
  8
0
 10
1.45815780
 20
9.83589661
  0
VERTEX
  8
0
 10
1.42173917
 20
10.23419376
  0
VERTEX
  8
0
 10
1.40015665
 20
10.63324438
  0
VERTEX
  8
0
 10
1.39226903
 20
10.97665024
  0
VERTEX
  8
0
 10
1.40134871
 20
11.32090153
  0
VERTEX
  8
0
 10
1.46486666
 20
12.00022867
  0
VERTEX
  8
0
 10
1.57962378
 20
12.64780233
  0
VERTEX
  8
0
 10
1.73453335
 20
13.24019904
  0
VERTEX
  8
0
 10
1.80337364
 20
13.48039300
  0
VERTEX
  8
0
 10
1.87952856
 20
13.71069370
  0
VERTEX
  8
0
 10
2.06714277
 20
14.13452117
  0
VERTEX
  8
0
 10
2.27529602
 20
14.54081507
  0
VERTEX
  8
0
 10
2.49640040
 20
14.92967545
  0
VERTEX
  8
0
 10
2.72286804
 20
15.30120236
  0
VERTEX
  8
0
 10
2.97897202
 20
15.65721738
  0
VERTEX
  8
0
 10
3.24958533
 20
15.99214892
  0
VERTEX
  8
0
 10
3.52125277
 20
16.32003788
  0
VERTEX
  8
0
 10
3.81611839
 20
16.64089193
  0
VERTEX
  8
0
 10
4.12991412
 20
16.94179044
  0
VERTEX
  8
0
 10
4.45837191
 20
17.20981276
  0
VERTEX
  8
0
 10
5.17065125
 20
17.71976927
  0
VERTEX
  8
0
 10
5.54379497
 20
17.95614589
  0
VERTEX
  8
0
 10
5.93495577
 20
18.16855658
  0
VERTEX
  8
0
 10
6.56950627
 20
18.45200115
  0
VERTEX
  8
0
 10
6.90265896
 20
18.57829052
  0
VERTEX
  8
0
 10
7.24692765
 20
18.69284087
  0
VERTEX
  8
0
 10
7.60271064
 20
18.79456441
  0
VERTEX
  8
0
 10
7.97040622
 20
18.88237332
  0
VERTEX
  8
0
 10
8.35041266
 20
18.95517981
  0
VERTEX
  8
0
 10
8.74312827
 20
19.01189606
  0
VERTEX
  8
0
 10
9.28284497
 20
19.06251731
  0
VERTEX
  8
0
 10
9.83651050
 20
19.09770955
  0
VERTEX
  8
0
 10
10.10905080
 20
19.10672793
  0
VERTEX
  8
0
 10
10.38080602
 20
19.10124801
  0
VERTEX
  8
0
 10
10.91986993
 20
19.05488995
  0
VERTEX
  8
0
 10
11.44951970
 20
18.97482872
  0
VERTEX
  8
0
 10
11.96557280
 20
18.87725765
  0
VERTEX
  8
0
 10
12.46204442
 20
18.76076205
  0
VERTEX
  8
0
 10
12.92871579
 20
18.61607419
  0
VERTEX
  8
0
 10
13.36861211
 20
18.44603249
  0
VERTEX
  8
0
 10
13.78475864
 20
18.25347534
  0
VERTEX
  8
0
 10
14.18018059
 20
18.04124115
  0
VERTEX
  8
0
 10
14.55790319
 20
17.81216831
  0
VERTEX
  8
0
 10
14.92095168
 20
17.56909523
  0
VERTEX
  8
0
 10
15.27235128
 20
17.31486031
  0
VERTEX
  8
0
 10
15.61465235
 20
17.04529979
  0
VERTEX
  8
0
 10
15.93766575
 20
16.76199017
  0
VERTEX
  8
0
 10
16.24464410
 20
16.46290590
  0
VERTEX
  8
0
 10
16.53884003
 20
16.14602138
  0
VERTEX
  8
0
 10
16.81346150
 20
15.82080100
  0
VERTEX
  8
0
 10
17.07651204
 20
15.47738073
  0
VERTEX
  8
0
 10
17.32224888
 20
15.11319048
  0
VERTEX
  8
0
 10
17.54492923
 20
14.72566016
  0
VERTEX
  8
0
 10
17.74636522
 20
14.31840532
  0
VERTEX
  8
0
 10
17.93082692
 20
13.89270591
  0
VERTEX
  8
0
 10
18.09470653
 20
13.44738834
  0
VERTEX
  8
0
 10
18.23439625
 20
12.98127903
  0
VERTEX
  8
0
 10
18.34649682
 20
12.47893667
  0
VERTEX
  8
0
 10
18.42431193
 20
11.95313569
  0
VERTEX
  8
0
 10
18.46967989
 20
11.41875783
  0
VERTEX
  8
0
 10
18.48443900
 20
10.89068485
  0
VERTEX
  8
0
 10
18.46243825
 20
10.39381696
  0
VERTEX
  8
0
 10
18.40262832
 20
9.92293947
  0
VERTEX
  8
0
 10
18.31418522
 20
9.47838601
  0
VERTEX
  8
0
 10
18.20628493
 20
9.06049023
  0
VERTEX
  8
0
 10
18.17971280
 20
8.95859674
  0
VERTEX
  8
0
 10
18.19805328
 20
8.91651175
  0
VERTEX
  8
0
 10
18.26398710
 20
8.88738371
  0
VERTEX
  8
0
 10
18.27576929
 20
8.87211625
  0
VERTEX
  8
0
 10
18.28526524
 20
8.87849332
  0
VERTEX
  8
0
 10
18.29209842
 20
8.89774051
  0
VERTEX
  8
0
 10
18.36437735
 20
9.10393022
  0
VERTEX
  8
0
 10
18.41785957
 20
9.30905345
  0
VERTEX
  8
0
 10
18.52287993
 20
9.75891942
  0
VERTEX
  8
0
 10
18.58779637
 20
10.23287697
  0
VERTEX
  8
0
 10
18.61594061
 20
10.72225000
  0
VERTEX
  8
0
 10
18.61064439
 20
11.21836239
  0
VERTEX
  8
0
 10
18.57523941
 20
11.71253803
  0
VERTEX
  8
0
 10
18.51305742
 20
12.19610082
  0
VERTEX
  8
0
 10
18.42743014
 20
12.66037464
  0
VERTEX
  8
0
 10
18.32168928
 20
13.09668338
  0
VERTEX
  8
0
 10
18.17655893
 20
13.57557019
  0
VERTEX
  8
0
 10
18.00942283
 20
14.03478534
  0
VERTEX
  8
0
 10
17.82102561
 20
14.47379788
  0
VERTEX
  8
0
 10
17.61211193
 20
14.89207691
  0
VERTEX
  8
0
 10
17.38342643
 20
15.28909148
  0
VERTEX
  8
0
 10
17.13571374
 20
15.66431068
  0
VERTEX
  8
0
 10
16.86971852
 20
16.01720357
  0
VERTEX
  8
0
 10
16.58618541
 20
16.34723922
  0
VERTEX
  8
0
 10
16.28304791
 20
16.66166014
  0
VERTEX
  8
0
 10
15.96287044
 20
16.96280875
  0
VERTEX
  8
0
 10
15.62558866
 20
17.24955104
  0
VERTEX
  8
0
 10
15.27113822
 20
17.52075297
  0
VERTEX
  8
0
 10
14.89945478
 20
17.77528051
  0
VERTEX
  8
0
 10
14.51047400
 20
18.01199965
  0
VERTEX
  8
0
 10
14.10413155
 20
18.22977636
  0
VERTEX
  8
0
 10
13.68036307
 20
18.42747660
  0
VERTEX
  8
0
 10
13.24605936
 20
18.61208215
  0
VERTEX
  8
0
 10
12.79317743
 20
18.78804647
  0
VERTEX
  8
0
 10
12.31894195
 20
18.94166706
  0
VERTEX
  8
0
 10
11.82057759
 20
19.05924144
  0
VERTEX
  8
0
 10
11.29207778
 20
19.14793212
  0
VERTEX
  8
0
 10
10.74382583
 20
19.21358745
  0
VERTEX
  8
0
 10
10.17579218
 20
19.24793560
  0
VERTEX
  8
0
 10
9.58794729
 20
19.24270476
  0
VERTEX
  8
0
 10
9.02405480
 20
19.19986058
  0
VERTEX
  8
0
 10
8.47139689
 20
19.12769591
  0
VERTEX
  8
0
 10
7.93994010
 20
19.02907161
  0
VERTEX
  8
0
 10
7.43965094
 20
18.90684851
  0
VERTEX
  8
0
 10
6.98316752
 20
18.76108629
  0
VERTEX
  8
0
 10
6.54462309
 20
18.58759403
  0
VERTEX
  8
0
 10
6.12230582
 20
18.39396455
  0
VERTEX
  8
0
 10
5.71450387
 20
18.18779064
  0
VERTEX
  8
0
 10
5.33179012
 20
17.97348779
  0
VERTEX
  8
0
 10
4.95836682
 20
17.73728572
  0
VERTEX
  8
0
 10
4.59608540
 20
17.48184164
  0
VERTEX
  8
0
 10
4.24679727
 20
17.20981276
  0
VERTEX
  8
0
 10
3.91081972
 20
16.92327470
  0
VERTEX
  8
0
 10
3.58971684
 20
16.62351171
  0
VERTEX
  8
0
 10
3.29051890
 20
16.31248328
  0
VERTEX
  8
0
 10
3.02025617
 20
15.99214892
  0
VERTEX
  8
0
 10
2.64386880
 20
15.47342443
  0
VERTEX
  8
0
 10
2.29293402
 20
14.90502315
  0
VERTEX
  8
0
 10
1.97731909
 20
14.28881839
  0
VERTEX
  8
0
 10
1.83584007
 20
13.96337511
  0
VERTEX
  8
0
 10
1.70689124
 20
13.62668346
  0
VERTEX
  8
0
 10
1.59170598
 20
13.27897758
  0
VERTEX
  8
0
 10
1.49151771
 20
12.92049166
  0
VERTEX
  8
0
 10
1.40755983
 20
12.55145984
  0
VERTEX
  8
0
 10
1.34106575
 20
12.17211630
  0
VERTEX
  8
0
 10
1.29326887
 20
11.78269520
  0
VERTEX
  8
0
 10
1.26540260
 20
11.38343070
  0
VERTEX
  8
0
 10
1.25870034
 20
10.97455696
  0
VERTEX
  8
0
 10
1.27439550
 20
10.55630815
  0
VERTEX
  8
0
 10
1.30837440
 20
10.08099998
  0
VERTEX
  8
0
 10
1.36307623
 20
9.59560178
  0
VERTEX
  8
0
 10
1.40410474
 20
9.36228820
  0
VERTEX
  8
0
 10
1.45740176
 20
9.14225525
  0
VERTEX
  8
0
 10
1.52532990
 20
8.94077065
  0
VERTEX
  8
0
 10
1.61025175
 20
8.76310210
  0
VERTEX
  8
0
 10
1.64504124
 20
8.71112361
  0
VERTEX
  8
0
 10
1.68075461
 20
8.68614121
  0
VERTEX
  8
0
 10
1.72930170
 20
8.68521371
  0
VERTEX
  8
0
 10
1.80259233
 20
8.70539993
  0
VERTEX
  8
0
 10
1.81168424
 20
8.72864480
  0
VERTEX
  8
0
 10
1.80279258
 20
8.74852538
  0
VERTEX
  8
0
 10
1.77300147
 20
8.78233616
  0
SEQEND
  0
POLYLINE
  8
Default_Layer
 66
   1
 39
0.000000
 70
    1
  0
VERTEX
  8
0
 10
14.90838371
 20
10.18198378
  0
VERTEX
  8
0
 10
14.85551100
 20
10.17439831
  0
VERTEX
  8
0
 10
14.80150486
 20
10.15379723
  0
VERTEX
  8
0
 10
14.74323597
 20
10.13545308
  0
VERTEX
  8
0
 10
14.67757501
 20
10.13463841
  0
VERTEX
  8
0
 10
14.55820245
 20
9.87690648
  0
VERTEX
  8
0
 10
14.50529998
 20
9.74423249
  0
VERTEX
  8
0
 10
14.46747991
 20
9.60644158
  0
VERTEX
  8
0
 10
14.43922337
 20
9.34893262
  0
VERTEX
  8
0
 10
14.44618346
 20
9.08040487
  0
VERTEX
  8
0
 10
14.47684931
 20
8.80413177
  0
VERTEX
  8
0
 10
14.51971004
 20
8.52338677
  0
VERTEX
  8
0
 10
14.59597264
 20
7.96157485
  0
VERTEX
  8
0
 10
14.60635276
 20
7.68705482
  0
VERTEX
  8
0
 10
14.58288426
 20
7.42115665
  0
VERTEX
  8
0
 10
14.54902195
 20
7.32218442
  0
VERTEX
  8
0
 10
14.50594803
 20
7.21993881
  0
VERTEX
  8
0
 10
14.43788906
 20
7.00836417
  0
VERTEX
  8
0
 10
14.33430701
 20
6.85045202
  0
VERTEX
  8
0
 10
14.21743716
 20
6.70209878
  0
VERTEX
  8
0
 10
14.11238961
 20
6.54822632
  0
VERTEX
  8
0
 10
14.05531193
 20
6.48209084
  0
VERTEX
  8
0
 10
14.03313946
 20
6.44627833
  0
VERTEX
  8
0
 10
14.02657612
 20
6.40471065
  0
VERTEX
  8
0
 10
14.40546105
 20
6.48436681
  0
VERTEX
  8
0
 10
14.75461500
 20
6.58031827
  0
VERTEX
  8
0
 10
15.07042735
 20
6.70350038
  0
VERTEX
  8
0
 10
15.34928751
 20
6.86484851
  0
VERTEX
  8
0
 10
15.53630532
 20
7.01777911
  0
VERTEX
  8
0
 10
15.63063854
 20
7.09154721
  0
VERTEX
  8
0
 10
15.73248913
 20
7.15187984
  0
VERTEX
  8
0
 10
15.79763762
 20
6.92200347
  0
VERTEX
  8
0
 10
15.83491643
 20
6.68887824
  0
VERTEX
  8
0
 10
15.84757961
 20
6.45410108
  0
VERTEX
  8
0
 10
15.83888121
 20
6.21926890
  0
VERTEX
  8
0
 10
15.81207529
 20
5.98597862
  0
VERTEX
  8
0
 10
15.77041590
 20
5.75582717
  0
VERTEX
  8
0
 10
15.65555290
 20
5.31132842
  0
VERTEX
  8
0
 10
15.67035007
 20
5.30362154
  0
VERTEX
  8
0
 10
15.68450896
 20
5.30964675
  0
VERTEX
  8
0
 10
15.70437781
 20
5.33056247
  0
VERTEX
  8
0
 10
16.07722264
 20
5.73299815
  0
VERTEX
  8
0
 10
16.31379539
 20
6.01713651
  0
VERTEX
  8
0
 10
16.53341028
 20
6.33754013
  0
VERTEX
  8
0
 10
16.72958790
 20
6.69165500
  0
VERTEX
  8
0
 10
16.89584881
 20
7.07692706
  0
VERTEX
  8
0
 10
17.02571358
 20
7.49080228
  0
VERTEX
  8
0
 10
17.11270277
 20
7.93072661
  0
VERTEX
  8
0
 10
17.15033698
 20
8.39414601
  0
VERTEX
  8
0
 10
17.13213675
 20
8.87850645
  0
VERTEX
  8
0
 10
17.02810576
 20
8.96532152
  0
VERTEX
  8
0
 10
16.92204166
 20
9.05013343
  0
VERTEX
  8
0
 10
16.49015006
 20
9.11729898
  0
VERTEX
  8
0
 10
16.04094446
 20
9.16683269
  0
VERTEX
  8
0
 10
15.60802852
 20
9.23236381
  0
VERTEX
  8
0
 10
15.40818032
 20
9.28163753
  0
VERTEX
  8
0
 10
15.22500590
 20
9.34752156
  0
VERTEX
  8
0
 10
15.15864402
 20
9.48527367
  0
VERTEX
  8
0
 10
15.12296587
 20
9.65348488
  0
VERTEX
  8
0
 10
15.10945665
 20
9.84367039
  0
VERTEX
  8
0
 10
15.10960155
 20
10.04734537
  0
VERTEX
  8
0
 10
15.01540717
 20
10.12868870
  0
VERTEX
  8
0
 10
14.96621078
 20
10.16434780
  0
VERTEX
  8
0
 10
14.90838371
 20
10.18198378
  0
SEQEND
  0
POLYLINE
  8
Default_Layer
 66
   1
 39
0.000000
 70
    1
  0
VERTEX
  8
0
 10
15.20577184
 20
9.52062809
  0
VERTEX
  8
0
 10
15.28413482
 20
9.45529635
  0
VERTEX
  8
0
 10
15.37739882
 20
9.40522374
  0
VERTEX
  8
0
 10
15.48319123
 20
9.52802355
  0
VERTEX
  8
0
 10
15.56001681
 20
9.68581985
  0
VERTEX
  8
0
 10
15.59842706
 20
9.87605474
  0
VERTEX
  8
0
 10
15.58897346
 20
10.09617029
  0
VERTEX
  8
0
 10
15.53188951
 20
9.98276225
  0
VERTEX
  8
0
 10
15.49037926
 20
9.85400506
  0
VERTEX
  8
0
 10
15.45267016
 20
9.72167900
  0
VERTEX
  8
0
 10
15.40698968
 20
9.59756432
  0
VERTEX
  8
0
 10
15.32117619
 20
9.59756432
  0
VERTEX
  8
0
 10
15.31793282
 20
9.75804476
  0
VERTEX
  8
0
 10
15.29535606
 20
9.92070789
  0
VERTEX
  8
0
 10
15.23982353
 20
10.06087628
  0
VERTEX
  8
0
 10
15.19544187
 20
10.11481324
  0
VERTEX
  8
0
 10
15.13771287
 20
10.15387247
  0
VERTEX
  8
0
 10
15.17295199
 20
9.83798065
  0
VERTEX
  8
0
 10
15.20577184
 20
9.52062809
  0
SEQEND
  0
POLYLINE
  8
Default_Layer
 66
   1
 39
0.000000
 70
    1
  0
VERTEX
  8
0
 10
4.11215886
 20
5.41637596
  0
VERTEX
  8
0
 10
4.07110630
 20
5.83955072
  0
VERTEX
  8
0
 10
4.05806403
 20
6.30447940
  0
VERTEX
  8
0
 10
4.08908393
 20
6.75923233
  0
VERTEX
  8
0
 10
4.12613339
 20
6.96656486
  0
VERTEX
  8
0
 10
4.18021784
 20
7.15187984
  0
VERTEX
  8
0
 10
4.34162505
 20
6.99353291
  0
VERTEX
  8
0
 10
4.52165146
 20
6.85374502
  0
VERTEX
  8
0
 10
4.71907895
 20
6.73129999
  0
VERTEX
  8
0
 10
4.93268943
 20
6.62498166
  0
VERTEX
  8
0
 10
5.16126477
 20
6.53357383
  0
VERTEX
  8
0
 10
5.40358688
 20
6.45586034
  0
VERTEX
  8
0
 10
5.92459897
 20
6.33665167
  0
VERTEX
  8
0
 10
5.92876970
 20
6.36461026
  0
VERTEX
  8
0
 10
5.91513061
 20
6.38781429
  0
VERTEX
  8
0
 10
5.87725359
 20
6.42394471
  0
VERTEX
  8
0
 10
5.69072010
 20
6.67487693
  0
VERTEX
  8
0
 10
5.51500300
 20
6.95733052
  0
VERTEX
  8
0
 10
5.37171713
 20
7.27269865
  0
VERTEX
  8
0
 10
5.31899054
 20
7.44316103
  0
VERTEX
  8
0
 10
5.28247733
 20
7.62237449
  0
VERTEX
  8
0
 10
5.26654127
 20
7.87108007
  0
VERTEX
  8
0
 10
5.28420209
 20
8.11358306
  0
VERTEX
  8
0
 10
5.35941356
 20
8.58111832
  0
VERTEX
  8
0
 10
5.43582369
 20
9.05841273
  0
VERTEX
  8
0
 10
5.45381290
 20
9.30504756
  0
VERTEX
  8
0
 10
5.43634979
 20
9.54873940
  0
VERTEX
  8
0
 10
5.40458846
 20
9.66525906
  0
VERTEX
  8
0
 10
5.35129198
 20
9.79182648
  0
VERTEX
  8
0
 10
5.28541143
 20
9.90485699
  0
VERTEX
  8
0
 10
5.21589790
 20
9.98076594
  0
VERTEX
  8
0
 10
5.08202857
 20
10.04144313
  0
VERTEX
  8
0
 10
4.99887061
 20
10.06026913
  0
VERTEX
  8
0
 10
4.92738702
 20
10.05770217
  0
VERTEX
  8
0
 10
4.87897805
 20
10.02307877
  0
VERTEX
  8
0
 10
4.85418495
 20
9.96313107
  0
VERTEX
  8
0
 10
4.83121673
 20
9.80765942
  0
VERTEX
  8
0
 10
4.77365047
 20
9.47421899
  0
VERTEX
  8
0
 10
4.73229923
 20
9.29020151
  0
VERTEX
  8
0
 10
4.68770107
 20
9.16553778
  0
VERTEX
  8
0
 10
4.65134612
 20
9.12212002
  0
VERTEX
  8
0
 10
4.60162897
 20
9.09029452
  0
VERTEX
  8
0
 10
4.47261811
 20
9.05279481
  0
VERTEX
  8
0
 10
4.16986104
 20
9.02202212
  0
VERTEX
  8
0
 10
2.81903833
 20
8.84891559
  0
VERTEX
  8
0
 10
2.78644504
 20
8.55491376
  0
VERTEX
  8
0
 10
2.77428611
 20
8.27144564
  0
VERTEX
  8
0
 10
2.78142313
 20
7.99852452
  0
VERTEX
  8
0
 10
2.80671768
 20
7.73616370
  0
VERTEX
  8
0
 10
2.84903137
 20
7.48437647
  0
VERTEX
  8
0
 10
2.90722577
 20
7.24317613
  0
VERTEX
  8
0
 10
2.98016247
 20
7.01257597
  0
VERTEX
  8
0
 10
3.06670307
 20
6.79258927
  0
VERTEX
  8
0
 10
3.16570916
 20
6.58322935
  0
VERTEX
  8
0
 10
3.27604232
 20
6.38450948
  0
VERTEX
  8
0
 10
3.52613622
 20
6.01904310
  0
VERTEX
  8
0
 10
3.80787750
 20
5.69629648
  0
VERTEX
  8
0
 10
4.11215886
 20
5.41637596
  0
SEQEND
  0
POLYLINE
  8
Default_Layer
 66
   1
 39
0.000000
 70
    1
  0
VERTEX
  8
0
 10
4.71729192
 20
9.88459565
  0
VERTEX
  8
0
 10
4.62112163
 20
9.45256911
  0
VERTEX
  8
0
 10
4.49684003
 20
9.45256911
  0
VERTEX
  8
0
 10
4.40066973
 20
9.82689348
  0
VERTEX
  8
0
 10
4.27638813
 20
9.82689348
  0
VERTEX
  8
0
 10
4.35702481
 20
9.50088827
  0
VERTEX
  8
0
 10
4.40540280
 20
9.34571383
  0
VERTEX
  8
0
 10
4.46724917
 20
9.20400590
  0
VERTEX
  8
0
 10
4.56166435
 20
9.21514870
  0
VERTEX
  8
0
 10
4.64923295
 20
9.23211721
  0
VERTEX
  8
0
 10
4.70991143
 20
9.57223902
  0
VERTEX
  8
0
 10
4.73919522
 20
9.73659981
  0
VERTEX
  8
0
 10
4.74540324
 20
9.88459565
  0
VERTEX
  8
0
 10
4.71729192
 20
9.88459565
  0
SEQEND
  0
POLYLINE
  8
Default_Layer
 66
   1
 39
0.000000
 70
    1
  0
VERTEX
  8
0
 10
15.41586694
 20
0.61377957
  0
VERTEX
  8
0
 10
15.19808730
 20
0.69429059
  0
VERTEX
  8
0
 10
14.99188170
 20
0.79859847
  0
VERTEX
  8
0
 10
14.59913455
 20
1.04799103
  0
VERTEX
  8
0
 10
14.20750939
 20
1.30072976
  0
VERTEX
  8
0
 10
14.00270629
 20
1.40922035
  0
VERTEX
  8
0
 10
13.78689016
 20
1.49558717
  0
VERTEX
  8
0
 10
13.58011428
 20
1.54806674
  0
VERTEX
  8
0
 10
13.36509025
 20
1.57784095
  0
VERTEX
  8
0
 10
12.91749965
 20
1.59568655
  0
VERTEX
  8
0
 10
12.45852211
 20
1.60195058
  0
VERTEX
  8
0
 10
12.22926440
 20
1.61724781
  0
VERTEX
  8
0
 10
12.00256137
 20
1.64945963
  0
VERTEX
  8
0
 10
11.97537002
 20
1.75615767
  0
VERTEX
  8
0
 10
11.97676027
 20
1.86668663
  0
VERTEX
  8
0
 10
11.98180392
 20
1.97623883
  0
VERTEX
  8
0
 10
11.96557280
 20
2.08000663
  0
VERTEX
  8
0
 10
11.91427449
 20
2.14412540
  0
VERTEX
  8
0
 10
11.84322094
 20
2.19063746
  0
VERTEX
  8
0
 10
11.79006669
 20
2.23953628
  0
VERTEX
  8
0
 10
11.78196884
 20
2.27112868
  0
VERTEX
  8
0
 10
11.79246627
 20
2.31081533
  0
VERTEX
  8
0
 10
11.51347490
 20
2.45023494
  0
VERTEX
  8
0
 10
11.21998502
 20
2.58118560
  0
VERTEX
  8
0
 10
11.06295528
 20
2.63382389
  0
VERTEX
  8
0
 10
10.89648347
 20
2.67275153
  0
VERTEX
  8
0
 10
10.71863044
 20
2.69410404
  0
VERTEX
  8
0
 10
10.52745706
 20
2.69401695
  0
VERTEX
  8
0
 10
10.14537477
 20
2.64254032
  0
VERTEX
  8
0
 10
9.78916513
 20
2.55937854
  0
VERTEX
  8
0
 10
9.46788231
 20
2.45547201
  0
VERTEX
  8
0
 10
9.16746026
 20
2.32279569
  0
VERTEX
  8
0
 10
8.59961261
 20
2.02230445
  0
VERTEX
  8
0
 10
8.31258127
 20
1.87878879
  0
VERTEX
  8
0
 10
8.12240412
 20
1.76349067
  0
VERTEX
  8
0
 10
8.02032757
 20
1.71303634
  0
VERTEX
  8
0
 10
7.89978879
 20
1.67757095
  0
VERTEX
  8
0
 10
7.86757750
 20
1.65263181
  0
VERTEX
  8
0
 10
7.83320936
 20
1.63022558
  0
VERTEX
  8
0
 10
7.48189407
 20
1.60688706
  0
VERTEX
  8
0
 10
7.08073587
 20
1.59377028
  0
VERTEX
  8
0
 10
6.26933247
 20
1.57252340
  0
VERTEX
  8
0
 10
6.07884098
 20
1.56379924
  0
VERTEX
  8
0
 10
5.99651176
 20
1.56963656
  0
VERTEX
  8
0
 10
5.93495577
 20
1.59175746
  0
VERTEX
  8
0
 10
5.87408417
 20
1.66415532
  0
VERTEX
  8
0
 10
5.84055617
 20
1.75967745
  0
VERTEX
  8
0
 10
5.81095134
 20
1.86001215
  0
VERTEX
  8
0
 10
5.76184924
 20
1.94684776
  0
VERTEX
  8
0
 10
5.46637411
 20
1.84124543
  0
VERTEX
  8
0
 10
5.19692877
 20
1.70332680
  0
VERTEX
  8
0
 10
4.94621514
 20
1.54550241
  0
VERTEX
  8
0
 10
4.70693512
 20
1.38018282
  0
VERTEX
  8
0
 10
4.00711131
 20
0.86234279
  0
VERTEX
  8
0
 10
3.89257764
 20
0.76756425
  0
VERTEX
  8
0
 10
3.82572772
 20
0.73572762
  0
VERTEX
  8
0
 10
3.74819130
 20
0.73806118
  0
VERTEX
  8
0
 10
3.72281539
 20
0.77351319
  0
VERTEX
  8
0
 10
3.71938703
 20
0.80810129
  0
VERTEX
  8
0
 10
3.75996924
 20
0.87327569
  0
VERTEX
  8
0
 10
3.90206376
 20
0.97774714
  0
VERTEX
  8
0
 10
4.53530814
 20
1.45711905
  0
VERTEX
  8
0
 10
4.16800011
 20
1.54464242
  0
VERTEX
  8
0
 10
3.77125789
 20
1.60006082
  0
VERTEX
  8
0
 10
2.99066531
 20
1.68792775
  0
VERTEX
  8
0
 10
3.02413002
 20
1.72293743
  0
VERTEX
  8
0
 10
3.07685087
 20
1.73606444
  0
VERTEX
  8
0
 10
3.20223995
 20
1.73527312
  0
VERTEX
  8
0
 10
3.60467563
 20
1.72639587
  0
VERTEX
  8
0
 10
3.47002844
 20
1.99623502
  0
VERTEX
  8
0
 10
3.40528548
 20
2.14907614
  0
VERTEX
  8
0
 10
3.36498968
 20
2.31969259
  0
VERTEX
  8
0
 10
3.43801024
 20
2.30676809
  0
VERTEX
  8
0
 10
3.49962808
 20
2.28122447
  0
VERTEX
  8
0
 10
2.94769415
 20
3.36951484
  0
VERTEX
  8
0
 10
2.37813453
 20
4.43839808
  0
VERTEX
  8
0
 10
1.91799668
 20
4.51533431
  0
VERTEX
  8
0
 10
1.69350291
 20
5.02780538
  0
VERTEX
  8
0
 10
1.58417030
 20
5.28413251
  0
VERTEX
  8
0
 10
1.49484740
 20
5.54213711
  0
VERTEX
  8
0
 10
1.58536310
 20
5.54173160
  0
VERTEX
  8
0
 10
1.67089518
 20
5.52151531
  0
VERTEX
  8
0
 10
1.83323194
 20
5.45326051
  0
VERTEX
  8
0
 10
1.99430456
 20
5.40059292
  0
VERTEX
  8
0
 10
2.07825645
 20
5.39986065
  0
VERTEX
  8
0
 10
2.16655989
 20
5.42673277
  0
VERTEX
  8
0
 10
2.24913466
 20
5.66045927
  0
VERTEX
  8
0
 10
2.29536879
 20
5.77259315
  0
VERTEX
  8
0
 10
2.35890047
 20
5.86763656
  0
VERTEX
  8
0
 10
2.46140725
 20
5.80654839
  0
VERTEX
  8
0
 10
2.53588706
 20
5.70842324
  0
VERTEX
  8
0
 10
2.65480906
 20
5.46520088
  0
VERTEX
  8
0
 10
2.75097935
 20
5.29209436
  0
VERTEX
  8
0
 10
2.84887346
 20
5.10580405
  0
VERTEX
  8
0
 10
2.89194516
 20
5.00998542
  0
VERTEX
  8
0
 10
2.91372908
 20
4.92812679
  0
VERTEX
  8
0
 10
2.90380458
 20
4.80830328
  0
VERTEX
  8
0
 10
2.86286383
 20
4.69569324
  0
VERTEX
  8
0
 10
2.81406599
 20
4.58426552
  0
VERTEX
  8
0
 10
2.78057021
 20
4.46798894
  0
VERTEX
  8
0
 10
3.26078841
 20
3.55354266
  0
VERTEX
  8
0
 10
3.74819130
 20
2.64667158
  0
VERTEX
  8
0
 10
3.80126969
 20
2.60345756
  0
VERTEX
  8
0
 10
3.84286424
 20
2.54906770
  0
VERTEX
  8
0
 10
3.91094102
 20
2.42621968
  0
VERTEX
  8
0
 10
3.96044556
 20
2.48499713
  0
VERTEX
  8
0
 10
4.00995029
 20
2.49119734
  0
VERTEX
  8
0
 10
4.05803702
 20
2.45687324
  0
VERTEX
  8
0
 10
4.10328752
 20
2.39407775
  0
VERTEX
  8
0
 10
4.17960705
 20
2.23128438
  0
VERTEX
  8
0
 10
4.22756321
 20
2.09924069
  0
VERTEX
  8
0
 10
4.30883968
 20
1.83168179
  0
VERTEX
  8
0
 10
4.36220162
 20
1.60063472
  0
VERTEX
  8
0
 10
4.62999889
 20
1.52517803
  0
VERTEX
  8
0
 10
5.07768181
 20
1.81539337
  0
VERTEX
  8
0
 10
5.31139727
 20
1.95042789
  0
VERTEX
  8
0
 10
5.56950866
 20
2.06077257
  0
VERTEX
  8
0
 10
5.68491301
 20
2.33004939
  0
VERTEX
  8
0
 10
5.55027460
 20
2.89523479
  0
VERTEX
  8
0
 10
5.43668062
 20
2.95874360
  0
VERTEX
  8
0
 10
5.32982270
 20
3.02987320
  0
VERTEX
  8
0
 10
5.37585067
 20
3.25730166
  0
VERTEX
  8
0
 10
5.44522705
 20
3.46042019
  0
VERTEX
  8
0
 10
5.38604820
 20
3.79949572
  0
VERTEX
  8
0
 10
5.32094544
 20
4.13213269
  0
VERTEX
  8
0
 10
5.23115472
 20
4.17666677
  0
VERTEX
  8
0
 10
5.18913228
 20
4.20152155
  0
VERTEX
  8
0
 10
5.15819572
 20
4.23718024
  0
VERTEX
  8
0
 10
5.16818694
 20
4.35671462
  0
VERTEX
  8
0
 10
5.19564103
 20
4.45873051
  0
VERTEX
  8
0
 10
5.26324327
 20
4.64997272
  0
VERTEX
  8
0
 10
5.21695597
 20
4.77620971
  0
VERTEX
  8
0
 10
5.18755322
 20
4.91927950
  0
VERTEX
  8
0
 10
5.13896166
 20
5.21515812
  0
VERTEX
  8
0
 10
5.04368050
 20
5.27397586
  0
VERTEX
  8
0
 10
4.96585514
 20
5.34979653
  0
VERTEX
  8
0
 10
5.00038063
 20
5.43496274
  0
VERTEX
  8
0
 10
5.04442371
 20
5.50550219
  0
VERTEX
  8
0
 10
5.08284211
 20
5.57475516
  0
VERTEX
  8
0
 10
5.10049355
 20
5.65606192
  0
VERTEX
  8
0
 10
5.08742045
 20
5.71864384
  0
VERTEX
  8
0
 10
5.05801663
 20
5.78350757
  0
VERTEX
  8
0
 10
5.03061720
 20
5.84715917
  0
VERTEX
  8
0
 10
5.02355731
 20
5.90610468
  0
VERTEX
  8
0
 10
5.05344165
 20
5.95423043
  0
VERTEX
  8
0
 10
5.10361070
 20
6.00027496
  0
VERTEX
  8
0
 10
5.14260415
 20
6.06137516
  0
VERTEX
  8
0
 10
5.14807867
 20
6.10292640
  0
VERTEX
  8
0
 10
5.13896166
 20
6.15466789
  0
VERTEX
  8
0
 10
5.22116811
 20
6.17451984
  0
VERTEX
  8
0
 10
5.32493794
 20
6.17853680
  0
VERTEX
  8
0
 10
5.56063140
 20
6.16502469
  0
VERTEX
  8
0
 10
5.70719563
 20
6.15953817
  0
VERTEX
  8
0
 10
5.85440159
 20
6.14579563
  0
VERTEX
  8
0
 10
5.91809135
 20
6.12869808
  0
VERTEX
  8
0
 10
5.96975692
 20
6.10098019
  0
VERTEX
  8
0
 10
6.00533673
 20
6.05978986
  0
VERTEX
  8
0
 10
6.02076926
 20
6.00227497
  0
VERTEX
  8
0
 10
6.32703465
 20
6.00227497
  0
VERTEX
  8
0
 10
6.33589774
 20
6.03012605
  0
VERTEX
  8
0
 10
6.32664760
 20
6.06298432
  0
VERTEX
  8
0
 10
6.31759098
 20
6.09655831
  0
VERTEX
  8
0
 10
6.32703465
 20
6.12655658
  0
VERTEX
  8
0
 10
6.50300497
 20
6.16243179
  0
VERTEX
  8
0
 10
6.68212495
 20
6.18425875
  0
VERTEX
  8
0
 10
6.10658275
 20
6.65327386
  0
VERTEX
  8
0
 10
5.99829685
 20
6.73263220
  0
VERTEX
  8
0
 10
5.95292757
 20
6.77281076
  0
VERTEX
  8
0
 10
5.92459897
 20
6.81602359
  0
VERTEX
  8
0
 10
5.89875631
 20
6.96945113
  0
VERTEX
  8
0
 10
5.90620962
 20
7.13882603
  0
VERTEX
  8
0
 10
5.92063828
 20
7.30991933
  0
VERTEX
  8
0
 10
5.91572171
 20
7.46850203
  0
VERTEX
  8
0
 10
6.26969650
 20
7.48842832
  0
VERTEX
  8
0
 10
6.63174050
 20
7.48992009
  0
VERTEX
  8
0
 10
7.36271471
 20
7.48773608
  0
VERTEX
  8
0
 10
7.57462212
 20
7.75537918
  0
VERTEX
  8
0
 10
7.80346139
 20
8.00597136
  0
VERTEX
  8
0
 10
8.05161328
 20
8.23713185
  0
VERTEX
  8
0
 10
8.32145853
 20
8.44647991
  0
VERTEX
  8
0
 10
8.17794287
 20
9.20400590
  0
VERTEX
  8
0
 10
7.46776225
 20
9.13742646
  0
VERTEX
  8
0
 10
7.27491556
 20
9.11361008
  0
VERTEX
  8
0
 10
7.19347659
 20
9.12300091
  0
VERTEX
  8
0
 10
7.12302875
 20
9.16553778
  0
VERTEX
  8
0
 10
6.81245286
 20
9.09402772
  0
VERTEX
  8
0
 10
6.65439027
 20
9.06844502
  0
VERTEX
  8
0
 10
6.47202985
 20
9.06936749
  0
VERTEX
  8
0
 10
6.27856162
 20
9.10569923
  0
VERTEX
  8
0
 10
6.11571816
 20
9.17332107
  0
VERTEX
  8
0
 10
5.98245667
 20
9.27126585
  0
VERTEX
  8
0
 10
5.87773437
 20
9.39856642
  0
VERTEX
  8
0
 10
5.80050846
 20
9.55425565
  0
VERTEX
  8
0
 10
5.74973614
 20
9.73736638
  0
VERTEX
  8
0
 10
5.72437463
 20
9.94693148
  0
VERTEX
  8
0
 10
5.72338113
 20
10.18198378
  0
VERTEX
  8
0
 10
5.74730776
 20
10.35763702
  0
VERTEX
  8
0
 10
5.75723467
 20
10.44866751
  0
VERTEX
  8
0
 10
5.75297198
 20
10.53707409
  0
VERTEX
  8
0
 10
5.72326261
 20
10.61156054
  0
VERTEX
  8
0
 10
5.66834191
 20
10.69218062
  0
VERTEX
  8
0
 10
5.53314556
 20
10.87173381
  0
VERTEX
  8
0
 10
5.47800941
 20
10.97062299
  0
VERTEX
  8
0
 10
5.44794094
 20
11.07555795
  0
VERTEX
  8
0
 10
5.45550989
 20
11.18651671
  0
VERTEX
  8
0
 10
5.51328603
 20
11.30347733
  0
VERTEX
  8
0
 10
5.47824401
 20
11.41607150
  0
VERTEX
  8
0
 10
5.46498712
 20
11.53287920
  0
VERTEX
  8
0
 10
5.47122197
 20
11.64992295
  0
VERTEX
  8
0
 10
5.49465518
 20
11.76322531
  0
VERTEX
  8
0
 10
5.53299335
 20
11.86880880
  0
VERTEX
  8
0
 10
5.58394312
 20
11.96269596
  0
VERTEX
  8
0
 10
5.64521108
 20
12.04090933
  0
VERTEX
  8
0
 10
5.71450387
 20
12.09947144
  0
VERTEX
  8
0
 10
5.67349739
 20
12.27462474
  0
VERTEX
  8
0
 10
5.66984354
 20
12.44624798
  0
VERTEX
  8
0
 10
5.69944281
 20
12.61042403
  0
VERTEX
  8
0
 10
5.75819568
 20
12.76323575
  0
VERTEX
  8
0
 10
5.84200264
 20
12.90076603
  0
VERTEX
  8
0
 10
5.94676420
 20
13.01909772
  0
VERTEX
  8
0
 10
6.06838083
 20
13.11431371
  0
VERTEX
  8
0
 10
6.20275304
 20
13.18249687
  0
VERTEX
  8
0
 10
6.21016792
 20
13.50013815
  0
VERTEX
  8
0
 10
6.21908497
 20
13.65024154
  0
VERTEX
  8
0
 10
6.24122115
 20
13.79650719
  0
VERTEX
  8
0
 10
6.32347054
 20
13.81348346
  0
VERTEX
  8
0
 10
6.42280598
 20
13.81803709
  0
VERTEX
  8
0
 10
6.61554552
 20
13.80538445
  0
VERTEX
  8
0
 10
6.68800192
 20
13.52395487
  0
VERTEX
  8
0
 10
6.73982713
 20
13.22096499
  0
VERTEX
  8
0
 10
6.86062596
 20
13.18005633
  0
VERTEX
  8
0
 10
6.96840276
 20
13.12609816
  0
VERTEX
  8
0
 10
7.06371950
 20
13.05964941
  0
VERTEX
  8
0
 10
7.14713816
 20
12.98126899
  0
VERTEX
  8
0
 10
7.21922072
 20
12.89151584
  0
VERTEX
  8
0
 10
7.28052914
 20
12.79094888
  0
VERTEX
  8
0
 10
7.37307151
 20
12.55960929
  0
VERTEX
  8
0
 10
7.40176177
 20
12.61068647
  0
VERTEX
  8
0
 10
7.40481732
 20
12.67574252
  0
VERTEX
  8
0
 10
7.40118282
 20
12.79929525
  0
VERTEX
  8
0
 10
7.43483832
 20
12.86323968
  0
VERTEX
  8
0
 10
7.49435462
 20
12.92930818
  0
VERTEX
  8
0
 10
7.62163472
 20
13.03010395
  0
VERTEX
  8
0
 10
7.73071709
 20
13.08320007
  0
VERTEX
  8
0
 10
7.85158865
 20
13.12192336
  0
VERTEX
  8
0
 10
8.10100663
 20
13.16326281
  0
VERTEX
  8
0
 10
8.10271776
 20
13.11712681
  0
VERTEX
  8
0
 10
8.11654810
 20
13.08298758
  0
VERTEX
  8
0
 10
8.14983155
 20
13.01974715
  0
VERTEX
  8
0
 10
7.98455151
 20
13.00808081
  0
VERTEX
  8
0
 10
7.83145113
 20
12.96596596
  0
VERTEX
  8
0
 10
7.69846392
 20
12.89784805
  0
VERTEX
  8
0
 10
7.59352340
 20
12.80817250
  0
VERTEX
  8
0
 10
8.15870881
 20
13.01086989
  0
VERTEX
  8
0
 10
8.22528824
 20
12.89546554
  0
VERTEX
  8
0
 10
7.87512862
 20
12.77600493
  0
VERTEX
  8
0
 10
7.53582123
 20
12.64542278
  0
VERTEX
  8
0
 10
7.53767158
 20
12.60006242
  0
VERTEX
  8
0
 10
7.54469849
 20
12.55960929
  0
VERTEX
  8
0
 10
7.91128617
 20
12.68228136
  0
VERTEX
  8
0
 10
8.26375636
 20
12.81852931
  0
VERTEX
  8
0
 10
8.36158616
 20
12.71940085
  0
VERTEX
  8
0
 10
8.47533100
 20
12.63654552
  0
VERTEX
  8
0
 10
8.59249549
 20
12.20695133
  0
VERTEX
  8
0
 10
8.72712356
 20
11.80476431
  0
VERTEX
  8
0
 10
8.88935792
 20
11.43267707
  0
VERTEX
  8
0
 10
9.08934132
 20
11.09338223
  0
VERTEX
  8
0
 10
9.32391694
 20
10.78632976
  0
VERTEX
  8
0
 10
9.58300127
 20
10.50724796
  0
VERTEX
  8
0
 10
9.86342278
 20
10.25010705
  0
VERTEX
  8
0
 10
10.16200995
 20
10.00887726
  0
VERTEX
  8
0
 10
10.36058974
 20
10.19870665
  0
VERTEX
  8
0
 10
10.53958556
 20
10.41524902
  0
VERTEX
  8
0
 10
10.69616741
 20
10.65810914
  0
VERTEX
  8
0
 10
10.82750532
 20
10.92689182
  0
VERTEX
  8
0
 10
10.93076927
 20
11.22120184
  0
VERTEX
  8
0
 10
11.00312929
 20
11.54064400
  0
VERTEX
  8
0
 10
11.04175538
 20
11.88482309
  0
VERTEX
  8
0
 10
11.04381755
 20
12.25334390
  0
VERTEX
  8
0
 10
11.03399654
 20
12.38178952
  0
VERTEX
  8
0
 10
11.03874692
 20
12.45605865
  0
VERTEX
  8
0
 10
11.06305160
 20
12.52114117
  0
VERTEX
  8
0
 10
11.11747261
 20
12.52974888
  0
VERTEX
  8
0
 10
11.15922190
 20
12.55073203
  0
VERTEX
  8
0
 10
11.18931218
 20
12.14312433
  0
VERTEX
  8
0
 10
11.17747965
 20
11.75955578
  0
VERTEX
  8
0
 10
11.12720331
 20
11.40103115
  0
VERTEX
  8
0
 10
11.04196218
 20
11.06855523
  0
VERTEX
  8
0
 10
10.92523527
 20
10.76313278
  0
VERTEX
  8
0
 10
10.78050158
 20
10.48576859
  0
VERTEX
  8
0
 10
10.61124015
 20
10.23746742
  0
VERTEX
  8
0
 10
10.42092997
 20
10.01923406
  0
VERTEX
  8
0
 10
10.73048214
 20
9.75763827
  0
VERTEX
  8
0
 10
10.88778647
 20
9.62945956
  0
VERTEX
  8
0
 10
11.05417435
 20
9.51027129
  0
VERTEX
  8
0
 10
11.09299771
 20
9.57370238
  0
VERTEX
  8
0
 10
11.10914991
 20
9.64621837
  0
VERTEX
  8
0
 10
11.12407622
 20
9.72029933
  0
VERTEX
  8
0
 10
11.15922190
 20
9.78842536
  0
VERTEX
  8
0
 10
11.21398154
 20
9.81285846
  0
VERTEX
  8
0
 10
11.26574899
 20
9.83725028
  0
VERTEX
  8
0
 10
11.27502861
 20
9.90333110
  0
VERTEX
  8
0
 10
11.28350350
 20
9.98964320
  0
VERTEX
  8
0
 10
11.32460335
 20
10.09307915
  0
VERTEX
  8
0
 10
11.37844261
 20
10.18047051
  0
VERTEX
  8
0
 10
11.50543494
 20
10.34473351
  0
VERTEX
  8
0
 10
11.50641714
 20
10.87068322
  0
VERTEX
  8
0
 10
11.51558469
 20
11.12536106
  0
VERTEX
  8
0
 10
11.55278032
 20
11.35230225
  0
VERTEX
  8
0
 10
11.63632317
 20
11.30870225
  0
VERTEX
  8
0
 10
11.70572245
 20
11.24673083
  0
VERTEX
  8
0
 10
11.82057759
 20
11.10225949
  0
VERTEX
  8
0
 10
11.92800691
 20
10.95448511
  0
VERTEX
  8
0
 10
12.02179543
 20
10.79599410
  0
VERTEX
  8
0
 10
12.20160087
 20
10.85671522
  0
VERTEX
  8
0
 10
12.42376407
 20
10.88296789
  0
VERTEX
  8
0
 10
12.64875000
 20
10.87054218
  0
VERTEX
  8
0
 10
12.74994678
 20
10.84850933
  0
VERTEX
  8
0
 10
12.83702359
 20
10.81522816
  0
VERTEX
  8
0
 10
12.70747322
 20
11.11146442
  0
VERTEX
  8
0
 10
12.59104521
 20
11.40590600
  0
VERTEX
  8
0
 10
12.46333787
 20
11.68538204
  0
VERTEX
  8
0
 10
12.38762892
 20
11.81539210
  0
VERTEX
  8
0
 10
12.29994950
 20
11.93672171
  0
VERTEX
  8
0
 10
12.19993980
 20
12.04588801
  0
VERTEX
  8
0
 10
12.09017951
 20
12.14198406
  0
VERTEX
  8
0
 10
11.84756710
 20
12.30596486
  0
VERTEX
  8
0
 10
11.31309436
 20
12.59807741
  0
VERTEX
  8
0
 10
11.37682611
 20
12.64171483
  0
VERTEX
  8
0
 10
11.43566506
 20
12.69850010
  0
VERTEX
  8
0
 10
11.54902056
 20
12.82976801
  0
VERTEX
  8
0
 10
11.67387297
 20
12.94838873
  0
VERTEX
  8
0
 10
11.74708305
 20
12.98936503
  0
VERTEX
  8
0
 10
11.83093439
 20
13.01086989
  0
VERTEX
  8
0
 10
11.89997734
 20
13.00120331
  0
VERTEX
  8
0
 10
11.97772277
 20
12.96426299
  0
VERTEX
  8
0
 10
12.03718699
 20
12.90476029
  0
VERTEX
  8
0
 10
12.05163123
 20
12.86802035
  0
VERTEX
  8
0
 10
12.05138629
 20
12.82740656
  0
VERTEX
  8
0
 10
12.03795614
 20
12.79753791
  0
VERTEX
  8
0
 10
12.01523940
 20
12.77906620
  0
VERTEX
  8
0
 10
11.95656871
 20
12.77470911
  0
VERTEX
  8
0
 10
11.90461938
 20
12.81112629
  0
VERTEX
  8
0
 10
11.89030434
 20
12.84362242
  0
VERTEX
  8
0
 10
11.88863657
 20
12.88510874
  0
VERTEX
  8
0
 10
11.77728922
 20
12.85505586
  0
VERTEX
  8
0
 10
11.68931596
 20
12.80167080
  0
VERTEX
  8
0
 10
11.55278032
 20
12.65577958
  0
VERTEX
  8
0
 10
11.60143472
 20
12.61324834
  0
VERTEX
  8
0
 10
11.65782787
 20
12.57884335
  0
VERTEX
  8
0
 10
11.80601533
 20
12.60210380
  0
VERTEX
  8
0
 10
11.93305715
 20
12.64649713
  0
VERTEX
  8
0
 10
12.04069484
 20
12.71028736
  0
VERTEX
  8
0
 10
12.13066993
 20
12.79173854
  0
VERTEX
  8
0
 10
12.20472392
 20
12.88911467
  0
VERTEX
  8
0
 10
12.26459832
 20
13.00067979
  0
VERTEX
  8
0
 10
12.34877442
 20
13.25943310
  0
VERTEX
  8
0
 10
12.13723581
 20
13.26136043
  0
VERTEX
  8
0
 10
11.91553577
 20
13.21983911
  0
VERTEX
  8
0
 10
11.71367584
 20
13.14078250
  0
VERTEX
  8
0
 10
11.62956140
 20
13.08902638
  0
VERTEX
  8
0
 10
11.56165758
 20
13.03010395
  0
VERTEX
  8
0
 10
11.59475767
 20
13.12865068
  0
VERTEX
  8
0
 10
11.63859381
 20
13.24019904
  0
VERTEX
  8
0
 10
11.81147701
 20
13.31756663
  0
VERTEX
  8
0
 10
12.02947367
 20
13.37100838
  0
VERTEX
  8
0
 10
12.26064594
 20
13.38789655
  0
VERTEX
  8
0
 10
12.37119237
 20
13.37868687
  0
VERTEX
  8
0
 10
12.47305603
 20
13.35560339
  0
VERTEX
  8
0
 10
12.45526169
 20
13.19825159
  0
VERTEX
  8
0
 10
12.42017662
 20
13.05202408
  0
VERTEX
  8
0
 10
12.36802377
 20
12.91824950
  0
VERTEX
  8
0
 10
12.29902608
 20
12.79825650
  0
VERTEX
  8
0
 10
12.21340649
 20
12.69337371
  0
VERTEX
  8
0
 10
12.11138794
 20
12.60492978
  0
VERTEX
  8
0
 10
11.99319336
 20
12.53425335
  0
VERTEX
  8
0
 10
11.85904571
 20
12.48267306
  0
VERTEX
  8
0
 10
12.16150196
 20
12.26729433
  0
VERTEX
  8
0
 10
12.30592513
 20
12.15552794
  0
VERTEX
  8
0
 10
12.43458791
 20
12.02253520
  0
VERTEX
  8
0
 10
12.52595112
 20
11.88889933
  0
VERTEX
  8
0
 10
12.60735895
 20
11.73766262
  0
VERTEX
  8
0
 10
12.75121010
 20
11.41888168
  0
VERTEX
  8
0
 10
13.01900737
 20
10.76640324
  0
VERTEX
  8
0
 10
13.27507329
 20
10.59489628
  0
VERTEX
  8
0
 10
13.39330322
 20
10.49307017
  0
VERTEX
  8
0
 10
13.49753733
 20
10.37715007
  0
VERTEX
  8
0
 10
13.58218027
 20
10.24460178
  0
VERTEX
  8
0
 10
13.64163669
 20
10.09289112
  0
VERTEX
  8
0
 10
13.67031123
 20
9.91948389
  0
VERTEX
  8
0
 10
13.66260855
 20
9.72184593
  0
VERTEX
  8
0
 10
13.74768741
 20
9.66584025
  0
VERTEX
  8
0
 10
13.84597312
 20
9.62287212
  0
VERTEX
  8
0
 10
13.94097924
 20
9.57649724
  0
VERTEX
  8
0
 10
14.01621932
 20
9.51027129
  0
VERTEX
  8
0
 10
13.94965681
 20
9.43786216
  0
VERTEX
  8
0
 10
13.85483701
 20
9.35976903
  0
VERTEX
  8
0
 10
13.66260855
 20
9.20400590
  0
VERTEX
  8
0
 10
13.60882513
 20
9.13413028
  0
VERTEX
  8
0
 10
13.57823240
 20
9.09843183
  0
VERTEX
  8
0
 10
13.54720420
 20
9.07972429
  0
VERTEX
  8
0
 10
13.50734529
 20
9.08265084
  0
VERTEX
  8
0
 10
13.47227014
 20
9.10109923
  0
VERTEX
  8
0
 10
13.40368854
 20
9.13742646
  0
VERTEX
  8
0
 10
13.37969716
 20
9.04066195
  0
VERTEX
  8
0
 10
13.36522042
 20
8.93620862
  0
VERTEX
  8
0
 10
13.27129988
 20
8.90501522
  0
VERTEX
  8
0
 10
13.16224908
 20
8.89601606
  0
VERTEX
  8
0
 10
13.05148584
 20
8.89268765
  0
VERTEX
  8
0
 10
12.95242794
 20
8.87850645
  0
VERTEX
  8
0
 10
12.97356862
 20
8.79817295
  0
VERTEX
  8
0
 10
12.97817529
 20
8.72758419
  0
VERTEX
  8
0
 10
12.96805616
 20
8.66650075
  0
VERTEX
  8
0
 10
12.94501941
 20
8.61468321
  0
VERTEX
  8
0
 10
12.86742577
 20
8.53788813
  0
VERTEX
  8
0
 10
12.75985988
 20
8.49528360
  0
VERTEX
  8
0
 10
12.63678722
 20
8.48495425
  0
VERTEX
  8
0
 10
12.51267329
 20
8.50498472
  0
VERTEX
  8
0
 10
12.40198357
 20
8.55345966
  0
VERTEX
  8
0
 10
12.31918356
 20
8.62846369
  0
VERTEX
  8
0
 10
12.18677806
 20
8.59761129
  0
VERTEX
  8
0
 10
12.04248403
 20
8.59515117
  0
VERTEX
  8
0
 10
11.90966895
 20
8.62377286
  0
VERTEX
  8
0
 10
11.81170033
 20
8.68616587
  0
VERTEX
  8
0
 10
11.72313425
 20
8.65482839
  0
VERTEX
  8
0
 10
11.61048249
 20
8.64769775
  0
VERTEX
  8
0
 10
11.59503100
 20
8.55829478
  0
VERTEX
  8
0
 10
11.58700326
 20
8.51198993
  0
VERTEX
  8
0
 10
11.59124843
 20
8.46571397
  0
VERTEX
  8
0
 10
11.63034256
 20
8.40600455
  0
VERTEX
  8
0
 10
11.70016295
 20
8.34344330
  0
VERTEX
  8
0
 10
11.83981165
 20
8.23638481
  0
VERTEX
  8
0
 10
12.20850521
 20
7.87531725
  0
VERTEX
  8
0
 10
12.37466732
 20
7.68237143
  0
VERTEX
  8
0
 10
12.52040140
 20
7.48773608
  0
VERTEX
  8
0
 10
13.24726717
 20
7.48835464
  0
VERTEX
  8
0
 10
13.60373880
 20
7.48485719
  0
VERTEX
  8
0
 10
13.96887394
 20
7.46850203
  0
VERTEX
  8
0
 10
13.97997956
 20
7.30739709
  0
VERTEX
  8
0
 10
13.97775120
 20
7.14300258
  0
VERTEX
  8
0
 10
13.98433885
 20
6.97054178
  0
VERTEX
  8
0
 10
13.98252218
 20
6.88762712
  0
VERTEX
  8
0
 10
13.96887394
 20
6.81602359
  0
VERTEX
  8
0
 10
13.93920978
 20
6.77467751
  0
VERTEX
  8
0
 10
13.88802985
 20
6.73263370
  0
VERTEX
  8
0
 10
13.77653336
 20
6.65327386
  0
VERTEX
  8
0
 10
13.20099116
 20
6.18425875
  0
VERTEX
  8
0
 10
13.38491684
 20
6.16123336
  0
VERTEX
  8
0
 10
13.55608146
 20
6.12655658
  0
VERTEX
  8
0
 10
13.55446573
 20
6.06704999
  0
VERTEX
  8
0
 10
13.53684740
 20
6.00227497
  0
VERTEX
  8
0
 10
13.70135998
 20
6.00299756
  0
VERTEX
  8
0
 10
13.85346959
 20
5.99191817
  0
VERTEX
  8
0
 10
13.88820769
 20
6.06985066
  0
VERTEX
  8
0
 10
13.96660139
 20
6.12138527
  0
VERTEX
  8
0
 10
14.07760687
 20
6.15167891
  0
VERTEX
  8
0
 10
14.21018031
 20
6.16588851
  0
VERTEX
  8
0
 10
14.49585577
 20
6.16668321
  0
VERTEX
  8
0
 10
14.73527719
 20
6.16502469
  0
VERTEX
  8
0
 10
14.75425573
 20
6.09716596
  0
VERTEX
  8
0
 10
14.75451125
 20
6.01115223
  0
VERTEX
  8
0
 10
14.80656393
 20
5.96229138
  0
VERTEX
  8
0
 10
14.86103834
 20
5.91498194
  0
VERTEX
  8
0
 10
14.80603202
 20
5.76855053
  0
VERTEX
  8
0
 10
14.80288662
 20
5.62118832
  0
VERTEX
  8
0
 10
14.84287274
 20
5.48201576
  0
VERTEX
  8
0
 10
14.91726097
 20
5.36015333
  0
VERTEX
  8
0
 10
14.84444722
 20
5.27950570
  0
VERTEX
  8
0
 10
14.74563399
 20
5.22551493
  0
VERTEX
  8
0
 10
14.70511966
 20
4.99809358
  0
VERTEX
  8
0
 10
14.66869775
 20
4.77425433
  0
VERTEX
  8
0
 10
14.64122033
 20
4.71515226
  0
VERTEX
  8
0
 10
14.62135238
 20
4.64997272
  0
VERTEX
  8
0
 10
14.63955684
 20
4.55273124
  0
VERTEX
  8
0
 10
14.68048660
 20
4.45482084
  0
VERTEX
  8
0
 10
14.71811115
 20
4.35868598
  0
VERTEX
  8
0
 10
14.72639993
 20
4.26677110
  0
VERTEX
  8
0
 10
14.70315081
 20
4.21738255
  0
VERTEX
  8
0
 10
14.65996797
 20
4.18195384
  0
VERTEX
  8
0
 10
14.55329341
 20
4.14248949
  0
VERTEX
  8
0
 10
14.53309875
 20
3.98020101
  0
VERTEX
  8
0
 10
14.49202141
 20
3.81709187
  0
VERTEX
  8
0
 10
14.45272898
 20
3.65097274
  0
VERTEX
  8
0
 10
14.43788906
 20
3.47965425
  0
VERTEX
  8
0
 10
14.46172961
 20
3.36983483
  0
VERTEX
  8
0
 10
14.50668159
 20
3.25430510
  0
VERTEX
  8
0
 10
14.54386907
 20
3.14122401
  0
VERTEX
  8
0
 10
14.54441615
 20
3.03875046
  0
VERTEX
  8
0
 10
14.50732643
 20
2.98903705
  0
VERTEX
  8
0
 10
14.44714744
 20
2.95871954
  0
VERTEX
  8
0
 10
14.38270915
 20
2.93512777
  0
VERTEX
  8
0
 10
14.33284151
 20
2.90559159
  0
VERTEX
  8
0
 10
14.28369956
 20
2.69289256
  0
VERTEX
  8
0
 10
14.22883398
 20
2.47511147
  0
VERTEX
  8
0
 10
14.21509845
 20
2.36947611
  0
VERTEX
  8
0
 10
14.21894434
 20
2.26876340
  0
VERTEX
  8
0
 10
14.24670911
 20
2.17503771
  0
VERTEX
  8
0
 10
14.30473019
 20
2.09036343
  0
VERTEX
  8
0
 10
14.21308541
 20
2.00404138
  0
VERTEX
  8
0
 10
14.10351235
 20
1.93649096
  0
VERTEX
  8
0
 10
14.03817625
 20
1.76653507
  0
VERTEX
  8
0
 10
14.00300587
 20
1.68412681
  0
VERTEX
  8
0
 10
13.95851714
 20
1.61099152
  0
VERTEX
  8
0
 10
14.23822132
 20
1.46326557
  0
VERTEX
  8
0
 10
14.50393709
 20
1.29871611
  0
VERTEX
  8
0
 10
15.04302212
 20
0.95851308
  0
VERTEX
  8
0
 10
15.28117349
 20
0.82838541
  0
VERTEX
  8
0
 10
15.41399248
 20
0.78381337
  0
VERTEX
  8
0
 10
15.55050535
 20
0.77652930
  0
VERTEX
  8
0
 10
15.72297236
 20
0.81789268
  0
VERTEX
  8
0
 10
15.89477524
 20
0.88887081
  0
VERTEX
  8
0
 10
16.23109510
 20
1.06356063
  0
VERTEX
  8
0
 10
16.41728729
 20
1.16293724
  0
VERTEX
  8
0
 10
16.61274786
 20
1.25605584
  0
VERTEX
  8
0
 10
16.82340841
 20
1.32024604
  0
VERTEX
  8
0
 10
16.93629230
 20
1.33440849
  0
VERTEX
  8
0
 10
17.05520052
 20
1.33283744
  0
VERTEX
  8
0
 10
17.27908943
 20
1.28315029
  0
VERTEX
  8
0
 10
17.50646112
 20
1.17896498
  0
VERTEX
  8
0
 10
17.70040623
 20
1.06552124
  0
VERTEX
  8
0
 10
17.79098512
 20
0.98154156
  0
VERTEX
  8
0
 10
17.81348746
 20
0.93685315
  0
VERTEX
  8
0
 10
17.81272651
 20
0.89193365
  0
VERTEX
  8
0
 10
17.78620895
 20
0.85425177
  0
VERTEX
  8
0
 10
17.74467108
 20
0.84726213
  0
VERTEX
  8
0
 10
17.63573025
 20
0.89575871
  0
VERTEX
  8
0
 10
17.44875894
 20
1.03544931
  0
VERTEX
  8
0
 10
17.34197478
 20
1.08990126
  0
VERTEX
  8
0
 10
17.21643264
 20
1.13807354
  0
VERTEX
  8
0
 10
17.07537433
 20
1.16859330
  0
VERTEX
  8
0
 10
16.92204166
 20
1.17008772
  0
VERTEX
  8
0
 10
16.74113414
 20
1.12956713
  0
VERTEX
  8
0
 10
16.56954122
 20
1.05911453
  0
VERTEX
  8
0
 10
16.25032916
 20
0.89193365
  0
VERTEX
  8
0
 10
15.92816211
 20
0.73818739
  0
VERTEX
  8
0
 10
15.58009621
 20
0.61377957
  0
VERTEX
  8
0
 10
15.41586694
 20
0.61377957
  0
SEQEND
  0
POLYLINE
  8
Default_Layer
 66
   1
 39
0.000000
 70
    1
  0
VERTEX
  8
0
 10
6.34626870
 20
13.66186878
  0
VERTEX
  8
0
 10
6.33739145
 20
13.22096499
  0
VERTEX
  8
0
 10
6.46903764
 20
13.23484981
  0
VERTEX
  8
0
 10
6.60518872
 20
13.23132179
  0
VERTEX
  8
0
 10
6.51937523
 20
13.67222558
  0
VERTEX
  8
0
 10
6.34626870
 20
13.66186878
  0
SEQEND
  0
POLYLINE
  8
Default_Layer
 66
   1
 39
0.000000
 70
    1
  0
VERTEX
  8
0
 10
5.92459897
 20
12.79041799
  0
VERTEX
  8
0
 10
5.84115336
 20
12.61080471
  0
VERTEX
  8
0
 10
5.81054155
 20
12.42575538
  0
VERTEX
  8
0
 10
5.82769952
 20
12.24359396
  0
VERTEX
  8
0
 10
5.88756327
 20
12.07264444
  0
VERTEX
  8
0
 10
5.98506878
 20
11.92123079
  0
VERTEX
  8
0
 10
6.11515205
 20
11.79767700
  0
VERTEX
  8
0
 10
6.27274906
 20
11.71030704
  0
VERTEX
  8
0
 10
6.45279580
 20
11.66744490
  0
VERTEX
  8
0
 10
6.59716106
 20
11.66801390
  0
VERTEX
  8
0
 10
6.73961231
 20
11.69577830
  0
VERTEX
  8
0
 10
6.87467070
 20
11.75024291
  0
VERTEX
  8
0
 10
6.99685740
 20
11.83091251
  0
VERTEX
  8
0
 10
7.10069355
 20
11.93729191
  0
VERTEX
  8
0
 10
7.18070032
 20
12.06888590
  0
VERTEX
  8
0
 10
7.23139887
 20
12.22519927
  0
VERTEX
  8
0
 10
7.24731036
 20
12.40573682
  0
VERTEX
  8
0
 10
7.22975393
 20
12.55407430
  0
VERTEX
  8
0
 10
7.18326418
 20
12.69214171
  0
VERTEX
  8
0
 10
7.11044312
 20
12.81622137
  0
VERTEX
  8
0
 10
7.01389278
 20
12.92259555
  0
VERTEX
  8
0
 10
6.89621517
 20
13.00754655
  0
VERTEX
  8
0
 10
6.76001233
 20
13.06735666
  0
VERTEX
  8
0
 10
6.60788626
 20
13.09830817
  0
VERTEX
  8
0
 10
6.44243900
 20
13.09668338
  0
VERTEX
  8
0
 10
6.27172815
 20
13.05768959
  0
VERTEX
  8
0
 10
6.12729387
 20
12.98790512
  0
VERTEX
  8
0
 10
6.01097215
 20
12.89594344
  0
VERTEX
  8
0
 10
5.92459897
 20
12.79041799
  0
SEQEND
  0
POLYLINE
  8
Default_Layer
 66
   1
 39
0.000000
 70
    1
  0
VERTEX
  8
0
 10
8.30222447
 20
12.69424770
  0
VERTEX
  8
0
 10
7.94134721
 20
12.57093863
  0
VERTEX
  8
0
 10
7.59352340
 20
12.43532768
  0
VERTEX
  8
0
 10
7.60301083
 20
12.37774302
  0
VERTEX
  8
0
 10
7.62163472
 20
12.32880059
  0
VERTEX
  8
0
 10
7.97875563
 20
12.45659108
  0
VERTEX
  8
0
 10
8.32145853
 20
12.59807741
  0
VERTEX
  8
0
 10
8.31826797
 20
12.65220003
  0
VERTEX
  8
0
 10
8.30222447
 20
12.69424770
  0
SEQEND
  0
POLYLINE
  8
Default_Layer
 66
   1
 39
0.000000
 70
    1
  0
VERTEX
  8
0
 10
8.35992665
 20
12.46343900
  0
VERTEX
  8
0
 10
8.00847961
 20
12.33599208
  0
VERTEX
  8
0
 10
7.67045964
 20
12.19564173
  0
VERTEX
  8
0
 10
7.68324757
 20
12.13683616
  0
VERTEX
  8
0
 10
7.70744821
 20
12.08911463
  0
VERTEX
  8
0
 10
8.06022115
 20
12.23138197
  0
VERTEX
  8
0
 10
8.23070621
 20
12.30821011
  0
VERTEX
  8
0
 10
8.38951751
 20
12.39685957
  0
VERTEX
  8
0
 10
8.35992665
 20
12.46343900
  0
SEQEND
  0
POLYLINE
  8
Default_Layer
 66
   1
 39
0.000000
 70
    1
  0
VERTEX
  8
0
 10
7.39230556
 20
12.44420494
  0
VERTEX
  8
0
 10
7.36498368
 20
12.22204480
  0
VERTEX
  8
0
 10
7.31536933
 20
12.02253520
  0
VERTEX
  8
0
 10
7.40858104
 20
11.96372437
  0
VERTEX
  8
0
 10
7.48573323
 20
11.88882142
  0
VERTEX
  8
0
 10
7.54854110
 20
11.79955780
  0
VERTEX
  8
0
 10
7.59871987
 20
11.69766493
  0
VERTEX
  8
0
 10
7.66805097
 20
11.46291722
  0
VERTEX
  8
0
 10
7.70744821
 20
11.19842978
  0
VERTEX
  8
0
 10
7.79503680
 20
11.24057051
  0
VERTEX
  8
0
 10
7.89978879
 20
11.26500922
  0
VERTEX
  8
0
 10
8.03961095
 20
10.61897064
  0
VERTEX
  8
0
 10
8.16758607
 20
9.96153188
  0
VERTEX
  8
0
 10
8.35104939
 20
9.97040914
  0
VERTEX
  8
0
 10
8.38278249
 20
9.93332375
  0
VERTEX
  8
0
 10
8.40653290
 20
9.88793866
  0
VERTEX
  8
0
 10
8.43102275
 20
9.84310138
  0
VERTEX
  8
0
 10
8.46497420
 20
9.80765942
  0
VERTEX
  8
0
 10
8.69578290
 20
9.82689348
  0
VERTEX
  8
0
 10
8.76655112
 20
9.69092709
  0
VERTEX
  8
0
 10
8.82448902
 20
9.54325827
  0
VERTEX
  8
0
 10
8.92511205
 20
9.23211721
  0
VERTEX
  8
0
 10
9.02342855
 20
8.91791800
  0
VERTEX
  8
0
 10
9.13668669
 20
8.61958643
  0
VERTEX
  8
0
 10
9.18085535
 20
8.66153788
  0
VERTEX
  8
0
 10
9.20746548
 20
8.72108731
  0
VERTEX
  8
0
 10
9.22475728
 20
8.87619026
  0
VERTEX
  8
0
 10
9.22205636
 20
9.05131548
  0
VERTEX
  8
0
 10
9.23285698
 20
9.21288315
  0
VERTEX
  8
0
 10
9.38028987
 20
9.22391072
  0
VERTEX
  8
0
 10
9.53912237
 20
9.22323996
  0
VERTEX
  8
0
 10
9.21189467
 20
9.56555751
  0
VERTEX
  8
0
 10
8.89695507
 20
9.91825867
  0
VERTEX
  8
0
 10
8.59868317
 20
10.28778793
  0
VERTEX
  8
0
 10
8.32145853
 20
10.68058975
  0
VERTEX
  8
0
 10
8.09411284
 20
11.03798427
  0
VERTEX
  8
0
 10
7.87539910
 20
11.41065644
  0
VERTEX
  8
0
 10
7.67590804
 20
11.79927758
  0
VERTEX
  8
0
 10
7.50623037
 20
12.20451898
  0
VERTEX
  8
0
 10
7.47247364
 20
12.32967755
  0
VERTEX
  8
0
 10
7.44957614
 20
12.39040148
  0
VERTEX
  8
0
 10
7.41153962
 20
12.44420494
  0
VERTEX
  8
0
 10
7.39230556
 20
12.44420494
  0
SEQEND
  0
POLYLINE
  8
Default_Layer
 66
   1
 39
0.000000
 70
    1
  0
VERTEX
  8
0
 10
8.41762882
 20
12.24298710
  0
VERTEX
  8
0
 10
8.08427587
 20
12.11138488
  0
VERTEX
  8
0
 10
7.76515039
 20
11.96483303
  0
VERTEX
  8
0
 10
7.78909858
 20
11.88333570
  0
VERTEX
  8
0
 10
7.80984547
 20
11.85161778
  0
VERTEX
  8
0
 10
7.84208662
 20
11.83167416
  0
VERTEX
  8
0
 10
8.45609694
 20
12.11870549
  0
VERTEX
  8
0
 10
8.44042272
 20
12.18454079
  0
VERTEX
  8
0
 10
8.41762882
 20
12.24298710
  0
SEQEND
  0
POLYLINE
  8
Default_Layer
 66
   1
 39
0.000000
 70
    1
  0
VERTEX
  8
0
 10
8.50344231
 20
11.98406709
  0
VERTEX
  8
0
 10
8.18397792
 20
11.85345901
  0
VERTEX
  8
0
 10
7.88055474
 20
11.70591301
  0
VERTEX
  8
0
 10
7.92790011
 20
11.58163141
  0
VERTEX
  8
0
 10
8.24429114
 20
11.72597745
  0
VERTEX
  8
0
 10
8.54191043
 20
11.88789679
  0
VERTEX
  8
0
 10
8.50344231
 20
11.98406709
  0
SEQEND
  0
POLYLINE
  8
Default_Layer
 66
   1
 39
0.000000
 70
    1
  0
VERTEX
  8
0
 10
5.75297198
 20
11.94559897
  0
VERTEX
  8
0
 10
5.67344820
 20
11.85595588
  0
VERTEX
  8
0
 10
5.62302965
 20
11.73294528
  0
VERTEX
  8
0
 10
5.60133346
 20
11.58680151
  0
VERTEX
  8
0
 10
5.60797678
 20
11.42775894
  0
VERTEX
  8
0
 10
5.67183579
 20
11.45117825
  0
VERTEX
  8
0
 10
5.73373793
 20
11.47658386
  0
VERTEX
  8
0
 10
5.71837822
 20
11.58656051
  0
VERTEX
  8
0
 10
5.74609511
 20
11.68128251
  0
VERTEX
  8
0
 10
5.80832083
 20
11.75281073
  0
VERTEX
  8
0
 10
5.89648765
 20
11.79320605
  0
VERTEX
  8
0
 10
5.85737854
 20
11.82827881
  0
VERTEX
  8
0
 10
5.82607222
 20
11.87109851
  0
VERTEX
  8
0
 10
5.79409470
 20
11.91307021
  0
VERTEX
  8
0
 10
5.75297198
 20
11.94559897
  0
SEQEND
  0
POLYLINE
  8
Default_Layer
 66
   1
 39
0.000000
 70
    1
  0
VERTEX
  8
0
 10
7.50623037
 20
10.89068485
  0
VERTEX
  8
0
 10
7.55147033
 20
11.02761660
  0
VERTEX
  8
0
 10
7.57062418
 20
11.17673000
  0
VERTEX
  8
0
 10
7.56564855
 20
11.33036484
  0
VERTEX
  8
0
 10
7.53850007
 20
11.48086092
  0
VERTEX
  8
0
 10
7.49113538
 20
11.62055804
  0
VERTEX
  8
0
 10
7.42551111
 20
11.74179599
  0
VERTEX
  8
0
 10
7.34358389
 20
11.83691458
  0
VERTEX
  8
0
 10
7.24731036
 20
11.89825360
  0
VERTEX
  8
0
 10
7.22169616
 20
11.85457340
  0
VERTEX
  8
0
 10
7.18653726
 20
11.82027956
  0
VERTEX
  8
0
 10
7.15069451
 20
11.78650462
  0
VERTEX
  8
0
 10
7.12302875
 20
11.74438113
  0
VERTEX
  8
0
 10
7.19644393
 20
11.71724070
  0
VERTEX
  8
0
 10
7.26234785
 20
11.67101375
  0
VERTEX
  8
0
 10
7.31794489
 20
11.60953015
  0
VERTEX
  8
0
 10
7.36043945
 20
11.53661973
  0
VERTEX
  8
0
 10
7.38703591
 20
11.45611236
  0
VERTEX
  8
0
 10
7.39493867
 20
11.37183789
  0
VERTEX
  8
0
 10
7.38135212
 20
11.28762617
  0
VERTEX
  8
0
 10
7.34348065
 20
11.20730704
  0
VERTEX
  8
0
 10
7.38672214
 20
11.11796682
  0
VERTEX
  8
0
 10
7.39888666
 20
11.00753536
  0
VERTEX
  8
0
 10
7.38334818
 20
10.89638082
  0
VERTEX
  8
0
 10
7.34348065
 20
10.80487136
  0
VERTEX
  8
0
 10
7.39188292
 20
10.77120319
  0
VERTEX
  8
0
 10
7.43551404
 20
10.78455139
  0
VERTEX
  8
0
 10
7.47381590
 20
10.82951295
  0
VERTEX
  8
0
 10
7.50623037
 20
10.89068485
  0
SEQEND
  0
POLYLINE
  8
Default_Layer
 66
   1
 39
0.000000
 70
    1
  0
VERTEX
  8
0
 10
8.58037855
 20
11.74438113
  0
VERTEX
  8
0
 10
8.29136221
 20
11.61193047
  0
VERTEX
  8
0
 10
8.01519314
 20
11.46622706
  0
VERTEX
  8
0
 10
8.05072500
 20
11.38264100
  0
VERTEX
  8
0
 10
8.10100663
 20
11.31383413
  0
VERTEX
  8
0
 10
8.64695798
 20
11.59198821
  0
VERTEX
  8
0
 10
8.61796286
 20
11.67199101
  0
VERTEX
  8
0
 10
8.58037855
 20
11.74438113
  0
SEQEND
  0
POLYLINE
  8
Default_Layer
 66
   1
 39
0.000000
 70
    1
  0
VERTEX
  8
0
 10
6.41432768
 20
11.53428603
  0
VERTEX
  8
0
 10
6.41302089
 20
11.01527293
  0
VERTEX
  8
0
 10
6.42320494
 20
10.50748323
  0
VERTEX
  8
0
 10
6.95140177
 20
10.54595135
  0
VERTEX
  8
0
 10
6.76793844
 20
11.55352009
  0
VERTEX
  8
0
 10
6.74870438
 20
11.55352009
  0
VERTEX
  8
0
 10
6.58743511
 20
11.52689451
  0
VERTEX
  8
0
 10
6.41432768
 20
11.53428603
  0
SEQEND
  0
POLYLINE
  8
Default_Layer
 66
   1
 39
0.000000
 70
    1
  0
VERTEX
  8
0
 10
8.68542610
 20
11.46622706
  0
VERTEX
  8
0
 10
8.41545323
 20
11.32961862
  0
VERTEX
  8
0
 10
8.28199656
 20
11.25950772
  0
VERTEX
  8
0
 10
8.15870881
 20
11.17919573
  0
VERTEX
  8
0
 10
8.18518723
 20
11.14327152
  0
VERTEX
  8
0
 10
8.21641098
 20
11.11261629
  0
VERTEX
  8
0
 10
8.73425101
 20
11.38041357
  0
VERTEX
  8
0
 10
8.71920378
 20
11.43270174
  0
VERTEX
  8
0
 10
8.68542610
 20
11.46622706
  0
SEQEND
  0
POLYLINE
  8
Default_Layer
 66
   1
 39
0.000000
 70
    1
  0
VERTEX
  8
0
 10
5.65680169
 20
11.27536602
  0
VERTEX
  8
0
 10
5.61077645
 20
11.20360553
  0
VERTEX
  8
0
 10
5.59567224
 20
11.12729054
  0
VERTEX
  8
0
 10
5.60566836
 20
11.05004612
  0
VERTEX
  8
0
 10
5.63494409
 20
10.97549734
  0
VERTEX
  8
0
 10
5.72805149
 20
10.84898698
  0
VERTEX
  8
0
 10
5.82842867
 20
10.77676004
  0
VERTEX
  8
0
 10
5.93005456
 20
10.75179154
  0
VERTEX
  8
0
 10
6.03973369
 20
10.74786927
  0
VERTEX
  8
0
 10
6.27968927
 20
10.75752599
  0
VERTEX
  8
0
 10
6.27968927
 20
11.38929082
  0
VERTEX
  8
0
 10
6.10043801
 20
11.39616587
  0
VERTEX
  8
0
 10
5.92105320
 20
11.38184310
  0
VERTEX
  8
0
 10
5.76526454
 20
11.34276299
  0
VERTEX
  8
0
 10
5.65680169
 20
11.27536602
  0
SEQEND
  0
POLYLINE
  8
Default_Layer
 66
   1
 39
0.000000
 70
    1
  0
VERTEX
  8
0
 10
7.03721526
 20
10.81522816
  0
VERTEX
  8
0
 10
7.14462683
 20
10.84430851
  0
VERTEX
  8
0
 10
7.20912416
 20
10.90886692
  0
VERTEX
  8
0
 10
7.23510253
 20
10.99710261
  0
VERTEX
  8
0
 10
7.22695723
 20
11.09721482
  0
VERTEX
  8
0
 10
7.18908353
 20
11.19740279
  0
VERTEX
  8
0
 10
7.12587674
 20
11.28586575
  0
VERTEX
  8
0
 10
7.04173212
 20
11.35080293
  0
VERTEX
  8
0
 10
6.94104497
 20
11.38041357
  0
VERTEX
  8
0
 10
6.98881275
 20
11.09734665
  0
VERTEX
  8
0
 10
7.03721526
 20
10.81522816
  0
SEQEND
  0
POLYLINE
  8
Default_Layer
 66
   1
 39
0.000000
 70
    1
  0
VERTEX
  8
0
 10
8.80083045
 20
11.25613196
  0
VERTEX
  8
0
 10
8.66422514
 20
11.20086261
  0
VERTEX
  8
0
 10
8.53727811
 20
11.13592344
  0
VERTEX
  8
0
 10
8.28299042
 20
11.00608920
  0
VERTEX
  8
0
 10
8.30257154
 20
10.95850797
  0
VERTEX
  8
0
 10
8.34069259
 20
10.92915297
  0
VERTEX
  8
0
 10
8.83042130
 20
11.18807298
  0
VERTEX
  8
0
 10
8.80083045
 20
11.25613196
  0
SEQEND
  0
POLYLINE
  8
Default_Layer
 66
   1
 39
0.000000
 70
    1
  0
VERTEX
  8
0
 10
7.83320936
 20
11.13037081
  0
VERTEX
  8
0
 10
7.76435656
 20
11.10831450
  0
VERTEX
  8
0
 10
7.69857095
 20
11.08302543
  0
VERTEX
  8
0
 10
7.63946517
 20
10.85920271
  0
VERTEX
  8
0
 10
7.59117850
 20
10.76577101
  0
VERTEX
  8
0
 10
7.52546443
 20
10.68946701
  0
VERTEX
  8
0
 10
7.58572098
 20
10.62829040
  0
VERTEX
  8
0
 10
7.64172838
 20
10.54178645
  0
VERTEX
  8
0
 10
7.68665966
 20
10.43973336
  0
VERTEX
  8
0
 10
7.71368785
 20
10.33190935
  0
VERTEX
  8
0
 10
7.71598599
 20
10.22809261
  0
VERTEX
  8
0
 10
7.68672710
 20
10.13806135
  0
VERTEX
  8
0
 10
7.61908421
 20
10.07159379
  0
VERTEX
  8
0
 10
7.50623037
 20
10.03846812
  0
VERTEX
  8
0
 10
7.48679208
 20
10.00184944
  0
VERTEX
  8
0
 10
7.45451358
 20
9.96611358
  0
VERTEX
  8
0
 10
7.42922930
 20
9.93548459
  0
VERTEX
  8
0
 10
7.43077368
 20
9.91418651
  0
VERTEX
  8
0
 10
8.05366126
 20
9.95117508
  0
VERTEX
  8
0
 10
7.83320936
 20
11.13037081
  0
SEQEND
  0
POLYLINE
  8
Default_Layer
 66
   1
 39
0.000000
 70
    1
  0
VERTEX
  8
0
 10
8.89700074
 20
11.07414818
  0
VERTEX
  8
0
 10
8.64491856
 20
10.94700280
  0
VERTEX
  8
0
 10
8.39839476
 20
10.81522816
  0
VERTEX
  8
0
 10
8.42966792
 20
10.74545003
  0
VERTEX
  8
0
 10
8.48420826
 20
10.69982381
  0
VERTEX
  8
0
 10
8.97393697
 20
10.97797788
  0
VERTEX
  8
0
 10
8.94651044
 20
11.03690188
  0
VERTEX
  8
0
 10
8.89700074
 20
11.07414818
  0
SEQEND
  0
POLYLINE
  8
Default_Layer
 66
   1
 39
0.000000
 70
    1
  0
VERTEX
  8
0
 10
11.62971655
 20
10.54595135
  0
VERTEX
  8
0
 10
11.87827977
 20
10.73829193
  0
VERTEX
  8
0
 10
11.76226932
 20
10.90945187
  0
VERTEX
  8
0
 10
11.63859381
 20
11.07414818
  0
VERTEX
  8
0
 10
11.62828077
 20
10.81578952
  0
VERTEX
  8
0
 10
11.62971655
 20
10.54595135
  0
SEQEND
  0
POLYLINE
  8
Default_Layer
 66
   1
 39
0.000000
 70
    1
  0
VERTEX
  8
0
 10
9.04051640
 20
10.86257354
  0
VERTEX
  8
0
 10
8.79376886
 20
10.72609726
  0
VERTEX
  8
0
 10
8.67232575
 20
10.65591849
  0
VERTEX
  8
0
 10
8.56114449
 20
10.57554220
  0
VERTEX
  8
0
 10
8.58693338
 20
10.52869884
  0
VERTEX
  8
0
 10
8.62920346
 20
10.49860597
  0
VERTEX
  8
0
 10
8.87385847
 20
10.65107949
  0
VERTEX
  8
0
 10
9.10857538
 20
10.81522816
  0
VERTEX
  8
0
 10
9.07985205
 20
10.84420701
  0
VERTEX
  8
0
 10
9.04051640
 20
10.86257354
  0
SEQEND
  0
POLYLINE
  8
Default_Layer
 66
   1
 39
0.000000
 70
    1
  0
VERTEX
  8
0
 10
13.52797015
 20
10.02811132
  0
VERTEX
  8
0
 10
13.47784500
 20
10.16670341
  0
VERTEX
  8
0
 10
13.39213473
 20
10.29773447
  0
VERTEX
  8
0
 10
13.27679635
 20
10.41786795
  0
VERTEX
  8
0
 10
13.13778689
 20
10.52376728
  0
VERTEX
  8
0
 10
12.98106338
 20
10.61209591
  0
VERTEX
  8
0
 10
12.81258284
 20
10.67951726
  0
VERTEX
  8
0
 10
12.63830230
 20
10.72269479
  0
VERTEX
  8
0
 10
12.46417877
 20
10.73829193
  0
VERTEX
  8
0
 10
12.25956523
 20
10.71246274
  0
VERTEX
  8
0
 10
12.06603460
 20
10.64417569
  0
VERTEX
  8
0
 10
11.89403090
 20
10.54859972
  0
VERTEX
  8
0
 10
11.75399816
 20
10.44090380
  0
VERTEX
  8
0
 10
11.72678439
 20
10.41610307
  0
VERTEX
  8
0
 10
11.71553004
 20
10.38320162
  0
VERTEX
  8
0
 10
11.99588596
 20
10.41395409
  0
VERTEX
  8
0
 10
12.26606405
 20
10.41160130
  0
VERTEX
  8
0
 10
12.51934579
 20
10.37511889
  0
VERTEX
  8
0
 10
12.74901268
 20
10.30348250
  0
VERTEX
  8
0
 10
12.94834621
 20
10.19566775
  0
VERTEX
  8
0
 10
13.11062785
 20
10.05065028
  0
VERTEX
  8
0
 10
13.17577468
 20
9.96387041
  0
VERTEX
  8
0
 10
13.22913910
 20
9.86740572
  0
VERTEX
  8
0
 10
13.26988130
 20
9.76112816
  0
VERTEX
  8
0
 10
13.29716145
 20
9.64490969
  0
VERTEX
  8
0
 10
13.35071582
 20
9.60718666
  0
VERTEX
  8
0
 10
13.39333174
 20
9.55909620
  0
VERTEX
  8
0
 10
13.47037012
 20
9.64084291
  0
VERTEX
  8
0
 10
13.52157334
 20
9.74886099
  0
VERTEX
  8
0
 10
13.54231537
 20
9.87925046
  0
VERTEX
  8
0
 10
13.52797015
 20
10.02811132
  0
SEQEND
  0
POLYLINE
  8
Default_Layer
 66
   1
 39
0.000000
 70
    1
  0
VERTEX
  8
0
 10
7.45888500
 20
10.53707409
  0
VERTEX
  8
0
 10
7.34414389
 20
10.63905353
  0
VERTEX
  8
0
 10
7.22807630
 20
10.71905787
  0
VERTEX
  8
0
 10
7.21919904
 20
10.72793513
  0
VERTEX
  8
0
 10
7.15608322
 20
10.69557455
  0
VERTEX
  8
0
 10
7.07568337
 20
10.68058975
  0
VERTEX
  8
0
 10
7.08342786
 20
10.59256192
  0
VERTEX
  8
0
 10
7.09491743
 20
10.50748323
  0
VERTEX
  8
0
 10
7.26070170
 20
10.48438036
  0
VERTEX
  8
0
 10
7.38550266
 20
10.41997276
  0
VERTEX
  8
0
 10
7.47523696
 20
10.32016485
  0
VERTEX
  8
0
 10
7.53582123
 20
10.19086104
  0
VERTEX
  8
0
 10
7.56103604
 20
10.23621953
  0
VERTEX
  8
0
 10
7.57156288
 20
10.28317159
  0
VERTEX
  8
0
 10
7.55802467
 20
10.37747964
  0
VERTEX
  8
0
 10
7.51415069
 20
10.46503165
  0
VERTEX
  8
0
 10
7.45888500
 20
10.53707409
  0
SEQEND
  0
POLYLINE
  8
Default_Layer
 66
   1
 39
0.000000
 70
    1
  0
VERTEX
  8
0
 10
9.17515481
 20
10.69982381
  0
VERTEX
  8
0
 10
8.93204839
 20
10.54002250
  0
VERTEX
  8
0
 10
8.69578290
 20
10.37432436
  0
VERTEX
  8
0
 10
8.73211698
 20
10.32865627
  0
VERTEX
  8
0
 10
8.77271913
 20
10.28703133
  0
VERTEX
  8
0
 10
9.02519522
 20
10.45628407
  0
VERTEX
  8
0
 10
9.14829487
 20
10.54402172
  0
VERTEX
  8
0
 10
9.26096830
 20
10.64212164
  0
VERTEX
  8
0
 10
9.22588913
 20
10.67869533
  0
VERTEX
  8
0
 10
9.17515481
 20
10.69982381
  0
SEQEND
  0
POLYLINE
  8
Default_Layer
 66
   1
 39
0.000000
 70
    1
  0
VERTEX
  8
0
 10
6.02964651
 20
10.48824917
  0
VERTEX
  8
0
 10
6.02383297
 20
10.44291731
  0
VERTEX
  8
0
 10
5.99308124
 20
10.41669563
  0
VERTEX
  8
0
 10
5.88613085
 20
10.40243568
  0
VERTEX
  8
0
 10
5.86757570
 20
10.19400070
  0
VERTEX
  8
0
 10
5.85801953
 20
10.01923406
  0
VERTEX
  8
0
 10
5.86689241
 20
9.79055625
  0
VERTEX
  8
0
 10
5.88628182
 20
9.66986762
  0
VERTEX
  8
0
 10
5.92459897
 20
9.55909620
  0
VERTEX
  8
0
 10
6.01695655
 20
9.43555139
  0
VERTEX
  8
0
 10
6.15432238
 20
9.33083267
  0
VERTEX
  8
0
 10
6.31812286
 20
9.25369246
  0
VERTEX
  8
0
 10
6.48978437
 20
9.21288315
  0
VERTEX
  8
0
 10
6.63228791
 20
9.20861499
  0
VERTEX
  8
0
 10
6.76710995
 20
9.22399844
  0
VERTEX
  8
0
 10
7.02685846
 20
9.28981939
  0
VERTEX
  8
0
 10
7.18816681
 20
9.34502542
  0
VERTEX
  8
0
 10
7.31373580
 20
9.42044496
  0
VERTEX
  8
0
 10
7.35650990
 20
9.47195078
  0
VERTEX
  8
0
 10
7.38241938
 20
9.53596915
  0
VERTEX
  8
0
 10
7.38882100
 20
9.61498647
  0
VERTEX
  8
0
 10
7.37307151
 20
9.71148913
  0
VERTEX
  8
0
 10
7.23722725
 20
9.76436909
  0
VERTEX
  8
0
 10
7.08316298
 20
9.77653000
  0
VERTEX
  8
0
 10
6.73982713
 20
9.74995724
  0
VERTEX
  8
0
 10
6.51607968
 20
9.72458979
  0
VERTEX
  8
0
 10
6.46424133
 20
9.73015985
  0
VERTEX
  8
0
 10
6.42120449
 20
9.74821862
  0
VERTEX
  8
0
 10
6.39055022
 20
9.78262811
  0
VERTEX
  8
0
 10
6.37585956
 20
9.83725028
  0
VERTEX
  8
0
 10
6.42793342
 20
9.86382226
  0
VERTEX
  8
0
 10
6.48807331
 20
9.87640473
  0
VERTEX
  8
0
 10
6.61554552
 20
9.88459565
  0
VERTEX
  8
0
 10
6.84030293
 20
9.90004765
  0
VERTEX
  8
0
 10
7.10136328
 20
9.93763427
  0
VERTEX
  8
0
 10
7.21662596
 20
9.97345069
  0
VERTEX
  8
0
 10
7.30630705
 20
10.02526792
  0
VERTEX
  8
0
 10
7.35885411
 20
10.09657502
  0
VERTEX
  8
0
 10
7.36271471
 20
10.19086104
  0
VERTEX
  8
0
 10
7.34172519
 20
10.24523159
  0
VERTEX
  8
0
 10
7.30714583
 20
10.28787330
  0
VERTEX
  8
0
 10
7.20366626
 20
10.34304618
  0
VERTEX
  8
0
 10
7.06517350
 20
10.36653168
  0
VERTEX
  8
0
 10
6.90456500
 20
10.36848176
  0
VERTEX
  8
0
 10
6.56859075
 20
10.34838361
  0
VERTEX
  8
0
 10
6.41901995
 20
10.34663933
  0
VERTEX
  8
0
 10
6.29892333
 20
10.36396756
  0
VERTEX
  8
0
 10
6.28134501
 20
10.48776993
  0
VERTEX
  8
0
 10
6.27968927
 20
10.61401032
  0
VERTEX
  8
0
 10
5.85801953
 20
10.64212164
  0
VERTEX
  8
0
 10
5.85911267
 20
10.60631239
  0
VERTEX
  8
0
 10
5.87463345
 20
10.58195748
  0
VERTEX
  8
0
 10
5.93173709
 20
10.55417350
  0
VERTEX
  8
0
 10
5.99488870
 20
10.53189548
  0
VERTEX
  8
0
 10
6.01796944
 20
10.51442300
  0
VERTEX
  8
0
 10
6.02964651
 20
10.48824917
  0
SEQEND
  0
POLYLINE
  8
Default_Layer
 66
   1
 39
0.000000
 70
    1
  0
VERTEX
  8
0
 10
9.34826133
 20
10.51784003
  0
VERTEX
  8
0
 10
8.85853262
 20
10.19086104
  0
VERTEX
  8
0
 10
8.88880792
 20
10.14011207
  0
VERTEX
  8
0
 10
8.93546885
 20
10.10504755
  0
VERTEX
  8
0
 10
9.41484077
 20
10.46013786
  0
VERTEX
  8
0
 10
9.39272696
 20
10.50029951
  0
VERTEX
  8
0
 10
9.34826133
 20
10.51784003
  0
SEQEND
  0
POLYLINE
  8
Default_Layer
 66
   1
 39
0.000000
 70
    1
  0
VERTEX
  8
0
 10
9.51101106
 20
10.36396756
  0
VERTEX
  8
0
 10
9.01240509
 20
9.98964320
  0
VERTEX
  8
0
 10
9.04368072
 20
9.95936254
  0
VERTEX
  8
0
 10
9.05668746
 20
9.94113667
  0
VERTEX
  8
0
 10
9.07898452
 20
9.93194102
  0
VERTEX
  8
0
 10
9.33290451
 20
10.11979926
  0
VERTEX
  8
0
 10
9.57759049
 20
10.31662219
  0
VERTEX
  8
0
 10
9.51101106
 20
10.36396756
  0
SEQEND
  0
POLYLINE
  8
Default_Layer
 66
   1
 39
0.000000
 70
    1
  0
VERTEX
  8
0
 10
11.93598194
 20
10.25892001
  0
VERTEX
  8
0
 10
11.80795744
 20
10.23987743
  0
VERTEX
  8
0
 10
11.67911442
 20
10.20357991
  0
VERTEX
  8
0
 10
11.56625990
 20
10.14945650
  0
VERTEX
  8
0
 10
11.48620089
 20
10.07693623
  0
VERTEX
  8
0
 10
11.44310312
 20
9.98203057
  0
VERTEX
  8
0
 10
11.41215407
 20
9.84943154
  0
VERTEX
  8
0
 10
11.37967379
 20
9.54873940
  0
VERTEX
  8
0
 10
11.38564503
 20
9.25848891
  0
VERTEX
  8
0
 10
11.40657125
 20
9.11200038
  0
VERTEX
  8
0
 10
11.44186677
 20
8.98104791
  0
VERTEX
  8
0
 10
11.49333827
 20
8.87796519
  0
VERTEX
  8
0
 10
11.56279243
 20
8.81508591
  0
VERTEX
  8
0
 10
11.60482759
 20
8.80257683
  0
VERTEX
  8
0
 10
11.65203592
 20
8.80474374
  0
VERTEX
  8
0
 10
11.76287542
 20
8.85927239
  0
VERTEX
  8
0
 10
11.74512090
 20
9.00278806
  0
VERTEX
  8
0
 10
11.73888241
 20
9.15283459
  0
VERTEX
  8
0
 10
11.74271696
 20
9.34850812
  0
VERTEX
  8
0
 10
11.77142616
 20
9.51520717
  0
VERTEX
  8
0
 10
11.79973427
 20
9.56437830
  0
VERTEX
  8
0
 10
11.83981165
 20
9.57833026
  0
VERTEX
  8
0
 10
11.88026889
 20
9.54762853
  0
VERTEX
  8
0
 10
11.89106925
 20
9.48476733
  0
VERTEX
  8
0
 10
11.87827977
 20
9.32828750
  0
VERTEX
  8
0
 10
11.86668683
 20
9.05495787
  0
VERTEX
  8
0
 10
11.87806553
 20
8.91315677
  0
VERTEX
  8
0
 10
11.91674788
 20
8.81044747
  0
VERTEX
  8
0
 10
11.99109548
 20
8.75871926
  0
VERTEX
  8
0
 10
12.09083251
 20
8.74324637
  0
VERTEX
  8
0
 10
12.19451913
 20
8.76618255
  0
VERTEX
  8
0
 10
12.28071545
 20
8.82968153
  0
VERTEX
  8
0
 10
12.28071545
 20
9.04125617
  0
VERTEX
  8
0
 10
12.28388476
 20
9.28296148
  0
VERTEX
  8
0
 10
12.30490868
 20
9.41399413
  0
VERTEX
  8
0
 10
12.32643594
 20
9.45580209
  0
VERTEX
  8
0
 10
12.35765168
 20
9.47180317
  0
VERTEX
  8
0
 10
12.39063167
 20
9.46120332
  0
VERTEX
  8
0
 10
12.41179487
 20
9.43066776
  0
VERTEX
  8
0
 10
12.42758033
 20
9.33109416
  0
VERTEX
  8
0
 10
12.41535385
 20
9.12706966
  0
VERTEX
  8
0
 10
12.40760843
 20
8.89965552
  0
VERTEX
  8
0
 10
12.41656624
 20
8.78865606
  0
VERTEX
  8
0
 10
12.44494471
 20
8.70539993
  0
VERTEX
  8
0
 10
12.51347025
 20
8.64713571
  0
VERTEX
  8
0
 10
12.60603620
 20
8.63020937
  0
VERTEX
  8
0
 10
12.70904830
 20
8.64606979
  0
VERTEX
  8
0
 10
12.80891228
 20
8.68616587
  0
VERTEX
  8
0
 10
12.79297245
 20
9.01342668
  0
VERTEX
  8
0
 10
12.79889595
 20
9.17412456
  0
VERTEX
  8
0
 10
12.81900605
 20
9.32531934
  0
VERTEX
  8
0
 10
12.85699602
 20
9.46134993
  0
VERTEX
  8
0
 10
12.91655911
 20
9.57655527
  0
VERTEX
  8
0
 10
13.00138857
 20
9.66527430
  0
VERTEX
  8
0
 10
13.11517767
 20
9.72184593
  0
VERTEX
  8
0
 10
13.04635781
 20
9.85742499
  0
VERTEX
  8
0
 10
12.94451426
 20
9.97446609
  0
VERTEX
  8
0
 10
12.81493320
 20
10.07246037
  0
VERTEX
  8
0
 10
12.66290083
 20
10.15089899
  0
VERTEX
  8
0
 10
12.49370332
 20
10.20927311
  0
VERTEX
  8
0
 10
12.31262688
 20
10.24707388
  0
VERTEX
  8
0
 10
12.12495769
 20
10.26379247
  0
VERTEX
  8
0
 10
11.93598194
 20
10.25892001
  0
SEQEND
  0
POLYLINE
  8
Default_Layer
 66
   1
 39
0.000000
 70
    1
  0
VERTEX
  8
0
 10
9.65452672
 20
10.20121784
  0
VERTEX
  8
0
 10
9.17515481
 20
9.83725028
  0
VERTEX
  8
0
 10
9.20229394
 20
9.78252189
  0
VERTEX
  8
0
 10
9.25209104
 20
9.74995724
  0
VERTEX
  8
0
 10
9.50101229
 20
9.95168399
  0
VERTEX
  8
0
 10
9.74034021
 20
10.16274972
  0
VERTEX
  8
0
 10
9.70185151
 20
10.18631156
  0
VERTEX
  8
0
 10
9.65452672
 20
10.20121784
  0
SEQEND
  0
POLYLINE
  8
Default_Layer
 66
   1
 39
0.000000
 70
    1
  0
VERTEX
  8
0
 10
9.83651050
 20
10.06657943
  0
VERTEX
  8
0
 10
9.58366107
 20
9.85963430
  0
VERTEX
  8
0
 10
9.45997446
 20
9.75364497
  0
VERTEX
  8
0
 10
9.34826133
 20
9.63603244
  0
VERTEX
  8
0
 10
9.37662007
 20
9.60221946
  0
VERTEX
  8
0
 10
9.39087230
 20
9.58539181
  0
VERTEX
  8
0
 10
9.41484077
 20
9.57833026
  0
VERTEX
  8
0
 10
9.67334902
 20
9.78424913
  0
VERTEX
  8
0
 10
9.91344674
 20
10.00887726
  0
VERTEX
  8
0
 10
9.87901333
 20
10.04214633
  0
VERTEX
  8
0
 10
9.83651050
 20
10.06657943
  0
SEQEND
  0
POLYLINE
  8
Default_Layer
 66
   1
 39
0.000000
 70
    1
  0
VERTEX
  8
0
 10
10.02885109
 20
9.91418651
  0
VERTEX
  8
0
 10
9.61605861
 20
9.56797346
  0
VERTEX
  8
0
 10
9.54906370
 20
9.51171207
  0
VERTEX
  8
0
 10
9.52913190
 20
9.47575358
  0
VERTEX
  8
0
 10
9.53912237
 20
9.43481460
  0
VERTEX
  8
0
 10
9.58070961
 20
9.43891256
  0
VERTEX
  8
0
 10
9.61768812
 20
9.46316236
  0
VERTEX
  8
0
 10
9.68263804
 20
9.52950534
  0
VERTEX
  8
0
 10
9.95191485
 20
9.77954810
  0
VERTEX
  8
0
 10
10.01989355
 20
9.83641182
  0
VERTEX
  8
0
 10
10.04410979
 20
9.86794628
  0
VERTEX
  8
0
 10
10.04808515
 20
9.90382971
  0
VERTEX
  8
0
 10
10.02885109
 20
9.91418651
  0
SEQEND
  0
POLYLINE
  8
Default_Layer
 66
   1
 39
0.000000
 70
    1
  0
VERTEX
  8
0
 10
10.24930299
 20
9.87571839
  0
VERTEX
  8
0
 10
9.94805075
 20
9.60061186
  0
VERTEX
  8
0
 10
9.80037766
 20
9.46025689
  0
VERTEX
  8
0
 10
9.66340398
 20
9.30905345
  0
VERTEX
  8
0
 10
9.72110616
 20
9.25135127
  0
VERTEX
  8
0
 10
10.03707507
 20
9.52099144
  0
VERTEX
  8
0
 10
10.33511648
 20
9.80765942
  0
VERTEX
  8
0
 10
10.29539972
 20
9.84501355
  0
VERTEX
  8
0
 10
10.24930299
 20
9.87571839
  0
SEQEND
  0
POLYLINE
  8
Default_Layer
 66
   1
 39
0.000000
 70
    1
  0
VERTEX
  8
0
 10
10.44016403
 20
9.70261187
  0
VERTEX
  8
0
 10
9.92232400
 20
9.23211721
  0
VERTEX
  8
0
 10
10.09543052
 20
9.23211721
  0
VERTEX
  8
0
 10
10.52745706
 20
9.64490969
  0
VERTEX
  8
0
 10
10.48859905
 20
9.67868394
  0
VERTEX
  8
0
 10
10.44016403
 20
9.70261187
  0
SEQEND
  0
POLYLINE
  8
Default_Layer
 66
   1
 39
0.000000
 70
    1
  0
VERTEX
  8
0
 10
10.63250461
 20
9.55909620
  0
VERTEX
  8
0
 10
10.49348855
 20
9.42690172
  0
VERTEX
  8
0
 10
10.35435053
 20
9.30017619
  0
VERTEX
  8
0
 10
10.31686622
 20
9.26311728
  0
VERTEX
  8
0
 10
10.30501312
 20
9.24318193
  0
VERTEX
  8
0
 10
10.30700516
 20
9.22323996
  0
VERTEX
  8
0
 10
10.39281865
 20
9.22323996
  0
VERTEX
  8
0
 10
10.54724964
 20
9.37053225
  0
VERTEX
  8
0
 10
10.69020678
 20
9.52950534
  0
VERTEX
  8
0
 10
10.65971928
 20
9.54296336
  0
VERTEX
  8
0
 10
10.63250461
 20
9.55909620
  0
SEQEND
  0
POLYLINE
  8
Default_Layer
 66
   1
 39
0.000000
 70
    1
  0
VERTEX
  8
0
 10
13.08706635
 20
9.53986214
  0
VERTEX
  8
0
 10
13.04722691
 20
9.50345704
  0
VERTEX
  8
0
 10
13.01791073
 20
9.44996841
  0
VERTEX
  8
0
 10
12.98231591
 20
9.30898221
  0
VERTEX
  8
0
 10
12.94355068
 20
9.01166531
  0
VERTEX
  8
0
 10
13.23058201
 20
9.02202212
  0
VERTEX
  8
0
 10
13.26544559
 20
9.18157246
  0
VERTEX
  8
0
 10
13.26411412
 20
9.38216462
  0
VERTEX
  8
0
 10
13.24473464
 20
9.46920979
  0
VERTEX
  8
0
 10
13.21013768
 20
9.53214553
  0
VERTEX
  8
0
 10
13.15826699
 20
9.55951519
  0
VERTEX
  8
0
 10
13.08706635
 20
9.53986214
  0
SEQEND
  0
POLYLINE
  8
Default_Layer
 66
   1
 39
0.000000
 70
    1
  0
VERTEX
  8
0
 10
10.60291375
 20
9.23211721
  0
VERTEX
  8
0
 10
10.64648812
 20
9.20876755
  0
VERTEX
  8
0
 10
10.67984998
 20
9.17589458
  0
VERTEX
  8
0
 10
10.77297780
 20
9.27894086
  0
VERTEX
  8
0
 10
10.86183376
 20
9.38598968
  0
VERTEX
  8
0
 10
10.82421211
 20
9.40939365
  0
VERTEX
  8
0
 10
10.78866113
 20
9.41022144
  0
VERTEX
  8
0
 10
10.72263363
 20
9.36493623
  0
VERTEX
  8
0
 10
10.66147619
 20
9.29170962
  0
VERTEX
  8
0
 10
10.60291375
 20
9.23211721
  0
SEQEND
  0
POLYLINE
  8
Default_Layer
 66
   1
 39
0.000000
 70
    1
  0
VERTEX
  8
0
 10
8.64695798
 20
8.90661777
  0
VERTEX
  8
0
 10
8.56841443
 20
9.15345524
  0
VERTEX
  8
0
 10
8.51148758
 20
9.27153119
  0
VERTEX
  8
0
 10
8.47957818
 20
9.30736884
  0
VERTEX
  8
0
 10
8.44574014
 20
9.31941025
  0
VERTEX
  8
0
 10
8.40830142
 20
9.30009446
  0
VERTEX
  8
0
 10
8.38021416
 20
9.26057250
  0
VERTEX
  8
0
 10
8.35160017
 20
9.21939901
  0
VERTEX
  8
0
 10
8.31258127
 20
9.19512864
  0
VERTEX
  8
0
 10
8.45609694
 20
8.44647991
  0
VERTEX
  8
0
 10
8.61783762
 20
8.43592790
  0
VERTEX
  8
0
 10
8.79195319
 20
8.43760265
  0
VERTEX
  8
0
 10
8.73321633
 20
8.65141316
  0
VERTEX
  8
0
 10
8.64695798
 20
8.90661777
  0
SEQEND
  0
POLYLINE
  8
Default_Layer
 66
   1
 39
0.000000
 70
    1
  0
VERTEX
  8
0
 10
10.67984998
 20
8.91697457
  0
VERTEX
  8
0
 10
10.76230762
 20
8.98718043
  0
VERTEX
  8
0
 10
10.86192808
 20
9.06543965
  0
VERTEX
  8
0
 10
10.94263721
 20
9.16267754
  0
VERTEX
  8
0
 10
10.96462685
 20
9.22182763
  0
VERTEX
  8
0
 10
10.96836086
 20
9.28981939
  0
VERTEX
  8
0
 10
10.88747536
 20
9.19919781
  0
VERTEX
  8
0
 10
10.78952795
 20
9.11428765
  0
VERTEX
  8
0
 10
10.70886927
 20
9.02393216
  0
VERTEX
  8
0
 10
10.68575778
 20
8.97322592
  0
VERTEX
  8
0
 10
10.67984998
 20
8.91697457
  0
SEQEND
  0
POLYLINE
  8
Default_Layer
 66
   1
 39
0.000000
 70
    1
  0
VERTEX
  8
0
 10
9.40448397
 20
9.09895835
  0
VERTEX
  8
0
 10
9.38846291
 20
8.97533830
  0
VERTEX
  8
0
 10
9.38480567
 20
8.82720136
  0
VERTEX
  8
0
 10
9.38524991
 20
8.51305934
  0
VERTEX
  8
0
 10
9.94819567
 20
8.49708365
  0
VERTEX
  8
0
 10
10.53633432
 20
8.49382528
  0
VERTEX
  8
0
 10
10.53662266
 20
8.80146367
  0
VERTEX
  8
0
 10
10.52745706
 20
9.09895835
  0
VERTEX
  8
0
 10
9.97672309
 20
9.11009204
  0
VERTEX
  8
0
 10
9.40448397
 20
9.09895835
  0
SEQEND
  0
POLYLINE
  8
Default_Layer
 66
   1
 39
0.000000
 70
    1
  0
VERTEX
  8
0
 10
11.08228566
 20
8.43760265
  0
VERTEX
  8
0
 10
11.26435629
 20
8.42688285
  0
VERTEX
  8
0
 10
11.45661003
 20
8.42724585
  0
VERTEX
  8
0
 10
11.46382559
 20
8.55460811
  0
VERTEX
  8
0
 10
11.46696683
 20
8.68616587
  0
VERTEX
  8
0
 10
11.40751247
 20
8.74694161
  0
VERTEX
  8
0
 10
11.36145283
 20
8.82086148
  0
VERTEX
  8
0
 10
11.31784573
 20
8.89697206
  0
VERTEX
  8
0
 10
11.26574899
 20
8.96431994
  0
VERTEX
  8
0
 10
11.08228566
 20
8.43760265
  0
SEQEND
  0
POLYLINE
  8
Default_Layer
 66
   1
 39
0.000000
 70
    1
  0
VERTEX
  8
0
 10
10.69020678
 20
8.72463398
  0
VERTEX
  8
0
 10
10.72677078
 20
8.68004805
  0
VERTEX
  8
0
 10
10.76714302
 20
8.63882049
  0
VERTEX
  8
0
 10
10.80202664
 20
8.74192803
  0
VERTEX
  8
0
 10
10.83372245
 20
8.84891559
  0
VERTEX
  8
0
 10
10.81448839
 20
8.85927239
  0
VERTEX
  8
0
 10
10.69020678
 20
8.72463398
  0
SEQEND
  0
POLYLINE
  8
Default_Layer
 66
   1
 39
0.000000
 70
    1
  0
VERTEX
  8
0
 10
10.55556837
 20
8.34143236
  0
VERTEX
  8
0
 10
10.24729194
 20
8.32318279
  0
VERTEX
  8
0
 10
9.90784380
 20
8.33457013
  0
VERTEX
  8
0
 10
9.57341645
 20
8.35160790
  0
VERTEX
  8
0
 10
9.28020236
 20
8.35030962
  0
VERTEX
  8
0
 10
9.24798640
 20
8.38050378
  0
VERTEX
  8
0
 10
9.21362293
 20
8.40801179
  0
VERTEX
  8
0
 10
8.56114449
 20
7.42115665
  0
VERTEX
  8
0
 10
8.63369985
 20
7.32540810
  0
VERTEX
  8
0
 10
8.71501695
 20
7.23917287
  0
VERTEX
  8
0
 10
11.18881275
 20
7.23917287
  0
VERTEX
  8
0
 10
11.26450687
 20
7.32559835
  0
VERTEX
  8
0
 10
11.33232842
 20
7.42115665
  0
VERTEX
  8
0
 10
11.00349504
 20
7.91185541
  0
VERTEX
  8
0
 10
10.67097272
 20
8.39913454
  0
VERTEX
  8
0
 10
10.62028242
 20
8.35733591
  0
VERTEX
  8
0
 10
10.55556837
 20
8.34143236
  0
SEQEND
  0
POLYLINE
  8
Default_Layer
 66
   1
 39
0.000000
 70
    1
  0
VERTEX
  8
0
 10
11.45661003
 20
7.33386362
  0
VERTEX
  8
0
 10
11.40607222
 20
7.28448639
  0
VERTEX
  8
0
 10
11.37079654
 20
7.21993881
  0
VERTEX
  8
0
 10
11.36506180
 20
7.15443192
  0
VERTEX
  8
0
 10
11.31632558
 20
7.11113693
  0
VERTEX
  8
0
 10
11.23441101
 20
7.08590175
  0
VERTEX
  8
0
 10
11.12914123
 20
7.07457431
  0
VERTEX
  8
0
 10
10.88782858
 20
7.07703434
  0
VERTEX
  8
0
 10
10.67097272
 20
7.08530040
  0
VERTEX
  8
0
 10
9.27132510
 20
7.08530040
  0
VERTEX
  8
0
 10
8.89784829
 20
7.06913100
  0
VERTEX
  8
0
 10
8.70924892
 20
7.07255573
  0
VERTEX
  8
0
 10
8.58037855
 20
7.10453446
  0
VERTEX
  8
0
 10
8.54358761
 20
7.14737296
  0
VERTEX
  8
0
 10
8.52077041
 20
7.20462256
  0
VERTEX
  8
0
 10
8.49187836
 20
7.26213258
  0
VERTEX
  8
0
 10
8.43686288
 20
7.30575230
  0
VERTEX
  8
0
 10
8.31773771
 20
7.33250677
  0
VERTEX
  8
0
 10
8.16769352
 20
7.33842845
  0
VERTEX
  8
0
 10
7.86132068
 20
7.33386362
  0
VERTEX
  8
0
 10
6.92665467
 20
7.34224946
  0
VERTEX
  8
0
 10
6.04888057
 20
7.33386362
  0
VERTEX
  8
0
 10
6.05601994
 20
7.21713716
  0
VERTEX
  8
0
 10
6.04860506
 20
7.10808958
  0
VERTEX
  8
0
 10
6.04391714
 20
7.00170307
  0
VERTEX
  8
0
 10
6.05923737
 20
6.89295982
  0
VERTEX
  8
0
 10
6.09882322
 20
6.83247113
  0
VERTEX
  8
0
 10
6.17039869
 20
6.77018492
  0
VERTEX
  8
0
 10
6.31815739
 20
6.66363067
  0
VERTEX
  8
0
 10
6.73863622
 20
6.32421588
  0
VERTEX
  8
0
 10
7.14226281
 20
6.01115223
  0
VERTEX
  8
0
 10
9.58143431
 20
6.01251590
  0
VERTEX
  8
0
 10
12.04102949
 20
6.02150903
  0
VERTEX
  8
0
 10
12.40452844
 20
6.00608662
  0
VERTEX
  8
0
 10
12.59433840
 20
6.00430829
  0
VERTEX
  8
0
 10
12.75121010
 20
6.02150903
  0
VERTEX
  8
0
 10
12.81694845
 20
6.05158169
  0
VERTEX
  8
0
 10
12.88975040
 20
6.10508760
  0
VERTEX
  8
0
 10
13.02936417
 20
6.22272687
  0
VERTEX
  8
0
 10
13.57531552
 20
6.65327386
  0
VERTEX
  8
0
 10
13.72066249
 20
6.76773534
  0
VERTEX
  8
0
 10
13.78634511
 20
6.83096613
  0
VERTEX
  8
0
 10
13.82535828
 20
6.89295982
  0
VERTEX
  8
0
 10
13.84093320
 20
6.99843027
  0
VERTEX
  8
0
 10
13.83733553
 20
7.11798591
  0
VERTEX
  8
0
 10
13.82996855
 20
7.23784365
  0
VERTEX
  8
0
 10
13.83423554
 20
7.34422042
  0
VERTEX
  8
0
 10
13.23825315
 20
7.34083036
  0
VERTEX
  8
0
 10
12.62830216
 20
7.34810858
  0
VERTEX
  8
0
 10
12.02691148
 20
7.35085352
  0
VERTEX
  8
0
 10
11.45661003
 20
7.33386362
  0
SEQEND
  0
POLYLINE
  8
Default_Layer
 66
   1
 39
0.000000
 70
    1
  0
VERTEX
  8
0
 10
5.52216328
 20
3.83474456
  0
VERTEX
  8
0
 10
5.72245391
 20
3.72816502
  0
VERTEX
  8
0
 10
5.93495577
 20
3.62464946
  0
VERTEX
  8
0
 10
6.20995549
 20
3.51589708
  0
VERTEX
  8
0
 10
6.36201926
 20
3.47788261
  0
VERTEX
  8
0
 10
6.51937523
 20
3.47077700
  0
VERTEX
  8
0
 10
6.64562444
 20
3.48956324
  0
VERTEX
  8
0
 10
6.76730441
 20
3.52223596
  0
VERTEX
  8
0
 10
6.99767871
 20
3.61609648
  0
VERTEX
  8
0
 10
7.41153962
 20
3.82586730
  0
VERTEX
  8
0
 10
7.47687038
 20
3.84072894
  0
VERTEX
  8
0
 10
7.50418767
 20
3.85801501
  0
VERTEX
  8
0
 10
7.50623037
 20
3.89244673
  0
VERTEX
  8
0
 10
7.42945077
 20
3.88417747
  0
VERTEX
  8
0
 10
7.35017978
 20
3.85510699
  0
VERTEX
  8
0
 10
7.19108772
 20
3.77704238
  0
VERTEX
  8
0
 10
6.85523148
 20
3.63352672
  0
VERTEX
  8
0
 10
6.76246949
 20
3.72326985
  0
VERTEX
  8
0
 10
6.69457484
 20
3.83773577
  0
VERTEX
  8
0
 10
6.59631146
 20
4.10402137
  0
VERTEX
  8
0
 10
6.60680099
 20
4.12895281
  0
VERTEX
  8
0
 10
6.62952500
 20
4.14181719
  0
VERTEX
  8
0
 10
6.65228710
 20
4.15464783
  0
VERTEX
  8
0
 10
6.66289089
 20
4.17947806
  0
VERTEX
  8
0
 10
6.63052401
 20
4.25865921
  0
VERTEX
  8
0
 10
6.62409764
 20
4.30296631
  0
VERTEX
  8
0
 10
6.63477958
 20
4.35258459
  0
VERTEX
  8
0
 10
7.01549449
 20
4.54205293
  0
VERTEX
  8
0
 10
7.37307151
 20
4.75502027
  0
VERTEX
  8
0
 10
7.32424659
 20
4.95623811
  0
VERTEX
  8
0
 10
7.18173191
 20
4.89989138
  0
VERTEX
  8
0
 10
7.04616594
 20
4.83001960
  0
VERTEX
  8
0
 10
6.89872691
 20
4.77776112
  0
VERTEX
  8
0
 10
6.81467320
 20
4.76796762
  0
VERTEX
  8
0
 10
6.72059307
 20
4.77425433
  0
VERTEX
  8
0
 10
6.64062964
 20
4.89822776
  0
VERTEX
  8
0
 10
6.57877187
 20
5.04020406
  0
VERTEX
  8
0
 10
6.46167305
 20
5.33056247
  0
VERTEX
  8
0
 10
6.84296682
 20
5.51491867
  0
VERTEX
  8
0
 10
7.20884224
 20
5.71376410
  0
VERTEX
  8
0
 10
7.19761695
 20
5.78869658
  0
VERTEX
  8
0
 10
7.19108772
 20
5.88687062
  0
VERTEX
  8
0
 10
7.13670240
 20
5.88449603
  0
VERTEX
  8
0
 10
7.08846774
 20
5.89666970
  0
VERTEX
  8
0
 10
7.00449692
 20
5.94854718
  0
VERTEX
  8
0
 10
6.92726824
 20
6.01027381
  0
VERTEX
  8
0
 10
6.84487468
 20
6.04962034
  0
VERTEX
  8
0
 10
6.75088106
 20
6.05148419
  0
VERTEX
  8
0
 10
6.65757218
 20
6.03011634
  0
VERTEX
  8
0
 10
6.56211414
 20
6.00185563
  0
VERTEX
  8
0
 10
6.46167305
 20
5.98304091
  0
VERTEX
  8
0
 10
6.45691516
 20
5.95917184
  0
VERTEX
  8
0
 10
6.46457059
 20
5.92801734
  0
VERTEX
  8
0
 10
6.47077725
 20
5.89552354
  0
VERTEX
  8
0
 10
6.46167305
 20
5.86763656
  0
VERTEX
  8
0
 10
6.35578231
 20
5.84575082
  0
VERTEX
  8
0
 10
6.22706587
 20
5.83587860
  0
VERTEX
  8
0
 10
5.96306708
 20
5.83952525
  0
VERTEX
  8
0
 10
5.90326148
 20
5.89875477
  0
VERTEX
  8
0
 10
5.88425905
 20
5.93939313
  0
VERTEX
  8
0
 10
5.87725359
 20
5.99191817
  0
VERTEX
  8
0
 10
5.32094544
 20
6.03038629
  0
VERTEX
  8
0
 10
5.31946284
 20
5.94081210
  0
VERTEX
  8
0
 10
5.28639736
 20
5.88283813
  0
VERTEX
  8
0
 10
5.18630704
 20
5.80105713
  0
VERTEX
  8
0
 10
5.23430090
 20
5.75405078
  0
VERTEX
  8
0
 10
5.29501501
 20
5.71797528
  0
VERTEX
  8
0
 10
5.43634979
 20
5.65606192
  0
VERTEX
  8
0
 10
5.98230114
 20
5.41637596
  0
VERTEX
  8
0
 10
6.08559669
 20
5.37182877
  0
VERTEX
  8
0
 10
6.18265206
 20
5.31657554
  0
VERTEX
  8
0
 10
6.21670771
 20
5.28295196
  0
VERTEX
  8
0
 10
6.23464495
 20
5.24427321
  0
VERTEX
  8
0
 10
6.23161099
 20
5.19974642
  0
VERTEX
  8
0
 10
6.20275304
 20
5.14857869
  0
VERTEX
  8
0
 10
6.25115214
 20
5.13457367
  0
VERTEX
  8
0
 10
6.27458588
 20
5.12698844
  0
VERTEX
  8
0
 10
6.28856653
 20
5.11011058
  0
VERTEX
  8
0
 10
6.19387578
 20
4.88078142
  0
VERTEX
  8
0
 10
6.14275596
 20
4.76252704
  0
VERTEX
  8
0
 10
6.10847482
 20
4.70665417
  0
VERTEX
  8
0
 10
6.06811463
 20
4.67808404
  0
VERTEX
  8
0
 10
5.97700750
 20
4.70581611
  0
VERTEX
  8
0
 10
5.87725359
 20
4.75502027
  0
VERTEX
  8
0
 10
5.32094544
 20
5.01394028
  0
VERTEX
  8
0
 10
5.35017078
 20
4.84692504
  0
VERTEX
  8
0
 10
5.39788168
 20
4.69731809
  0
VERTEX
  8
0
 10
5.72803063
 20
4.55326014
  0
VERTEX
  8
0
 10
6.08734869
 20
4.40140951
  0
VERTEX
  8
0
 10
6.19336031
 20
4.36307885
  0
VERTEX
  8
0
 10
6.28278555
 20
4.31930325
  0
VERTEX
  8
0
 10
6.31245378
 20
4.29187232
  0
VERTEX
  8
0
 10
6.32738602
 20
4.25887861
  0
VERTEX
  8
0
 10
6.32405247
 20
4.21892161
  0
VERTEX
  8
0
 10
6.29892333
 20
4.17060081
  0
VERTEX
  8
0
 10
6.36266700
 20
4.14591868
  0
VERTEX
  8
0
 10
6.39896074
 20
4.10909424
  0
VERTEX
  8
0
 10
6.41292526
 20
4.06200990
  0
VERTEX
  8
0
 10
6.40968129
 20
4.00654807
  0
VERTEX
  8
0
 10
6.37205068
 20
3.87802163
  0
VERTEX
  8
0
 10
6.32703465
 20
3.73857427
  0
VERTEX
  8
0
 10
6.29455030
 20
3.62849796
  0
VERTEX
  8
0
 10
6.26997468
 20
3.59390351
  0
VERTEX
  8
0
 10
6.23234390
 20
3.57582454
  0
VERTEX
  8
0
 10
6.17490038
 20
3.60571845
  0
VERTEX
  8
0
 10
6.12581681
 20
3.64388352
  0
VERTEX
  8
0
 10
6.08298474
 20
3.63382324
  0
VERTEX
  8
0
 10
6.04000331
 20
3.62464946
  0
VERTEX
  8
0
 10
5.77755875
 20
3.77161531
  0
VERTEX
  8
0
 10
5.51328603
 20
3.89244673
  0
VERTEX
  8
0
 10
5.52332105
 20
3.86960472
  0
VERTEX
  8
0
 10
5.52216328
 20
3.83474456
  0
SEQEND
  0
POLYLINE
  8
Default_Layer
 66
   1
 39
0.000000
 70
    1
  0
VERTEX
  8
0
 10
13.02936417
 20
6.04962034
  0
VERTEX
  8
0
 10
12.96774619
 20
6.01866876
  0
VERTEX
  8
0
 10
12.91432063
 20
5.97044510
  0
VERTEX
  8
0
 10
12.86071466
 20
5.92334094
  0
VERTEX
  8
0
 10
12.79855548
 20
5.89574788
  0
VERTEX
  8
0
 10
12.69350793
 20
5.88687062
  0
VERTEX
  8
0
 10
12.67427387
 20
5.71376410
  0
VERTEX
  8
0
 10
12.82290701
 20
5.63687687
  0
VERTEX
  8
0
 10
12.96922464
 20
5.54831713
  0
VERTEX
  8
0
 10
13.11676094
 20
5.46110601
  0
VERTEX
  8
0
 10
13.26905013
 20
5.38826465
  0
VERTEX
  8
0
 10
13.35002860
 20
5.37119962
  0
VERTEX
  8
0
 10
13.38612451
 20
5.35606036
  0
VERTEX
  8
0
 10
13.41256580
 20
5.32168522
  0
VERTEX
  8
0
 10
13.29716145
 20
5.03317434
  0
VERTEX
  8
0
 10
13.23894726
 20
4.88422570
  0
VERTEX
  8
0
 10
13.20091848
 20
4.81579530
  0
VERTEX
  8
0
 10
13.15364578
 20
4.77425433
  0
VERTEX
  8
0
 10
13.07301405
 20
4.75466374
  0
VERTEX
  8
0
 10
12.99431239
 20
4.76006559
  0
VERTEX
  8
0
 10
12.84243038
 20
4.82079498
  0
VERTEX
  8
0
 10
12.69746201
 20
4.90633918
  0
VERTEX
  8
0
 10
12.55886952
 20
4.96659491
  0
VERTEX
  8
0
 10
12.50116734
 20
4.73578621
  0
VERTEX
  8
0
 10
12.86907399
 20
4.54270617
  0
VERTEX
  8
0
 10
13.23945927
 20
4.35258459
  0
VERTEX
  8
0
 10
13.25575144
 20
4.30654250
  0
VERTEX
  8
0
 10
13.25107348
 20
4.26451054
  0
VERTEX
  8
0
 10
13.22022521
 20
4.17947806
  0
VERTEX
  8
0
 10
13.23254416
 20
4.15348158
  0
VERTEX
  8
0
 10
13.25444118
 20
4.13699621
  0
VERTEX
  8
0
 10
13.27624496
 20
4.12029840
  0
VERTEX
  8
0
 10
13.28828419
 20
4.09366457
  0
VERTEX
  8
0
 10
13.21141420
 20
3.90385508
  0
VERTEX
  8
0
 10
13.12553447
 20
3.71934021
  0
VERTEX
  8
0
 10
13.08241086
 20
3.67551647
  0
VERTEX
  8
0
 10
13.03338016
 20
3.65518113
  0
VERTEX
  8
0
 10
12.97968316
 20
3.65388092
  0
VERTEX
  8
0
 10
12.92256061
 20
3.66716257
  0
VERTEX
  8
0
 10
12.68463067
 20
3.77704238
  0
VERTEX
  8
0
 10
12.52040140
 20
3.85397862
  0
VERTEX
  8
0
 10
12.44422747
 20
3.89437955
  0
VERTEX
  8
0
 10
12.40372715
 20
3.90210238
  0
VERTEX
  8
0
 10
12.36800848
 20
3.88356948
  0
VERTEX
  8
0
 10
12.38497666
 20
3.85709275
  0
VERTEX
  8
0
 10
12.41216705
 20
3.83952461
  0
VERTEX
  8
0
 10
12.47305603
 20
3.81551050
  0
VERTEX
  8
0
 10
12.81778953
 20
3.64388352
  0
VERTEX
  8
0
 10
12.97273755
 20
3.57192812
  0
VERTEX
  8
0
 10
13.15510287
 20
3.50340597
  0
VERTEX
  8
0
 10
13.35116519
 20
3.46406527
  0
VERTEX
  8
0
 10
13.45004513
 20
3.46338429
  0
VERTEX
  8
0
 10
13.54720420
 20
3.47965425
  0
VERTEX
  8
0
 10
13.88680146
 20
3.59925104
  0
VERTEX
  8
0
 10
14.19820310
 20
3.74893107
  0
VERTEX
  8
0
 10
14.30330628
 20
3.80536365
  0
VERTEX
  8
0
 10
14.34492411
 20
3.84296540
  0
VERTEX
  8
0
 10
14.36243237
 20
3.89244673
  0
VERTEX
  8
0
 10
14.09656948
 20
3.76725602
  0
VERTEX
  8
0
 10
13.82535828
 20
3.62464946
  0
VERTEX
  8
0
 10
13.75729930
 20
3.64388352
  0
VERTEX
  8
0
 10
13.70375115
 20
3.60627572
  0
VERTEX
  8
0
 10
13.64337450
 20
3.57582454
  0
VERTEX
  8
0
 10
13.60136598
 20
3.59584496
  0
VERTEX
  8
0
 10
13.57881166
 20
3.63446614
  0
VERTEX
  8
0
 10
13.55608146
 20
3.73857427
  0
VERTEX
  8
0
 10
13.47003616
 20
4.00783638
  0
VERTEX
  8
0
 10
13.46514872
 20
4.06154433
  0
VERTEX
  8
0
 10
13.47752730
 20
4.10738311
  0
VERTEX
  8
0
 10
13.51248016
 20
4.14413962
  0
VERTEX
  8
0
 10
13.57531552
 20
4.17060081
  0
VERTEX
  8
0
 10
13.55904055
 20
4.22127075
  0
VERTEX
  8
0
 10
13.55608146
 20
4.28600516
  0
VERTEX
  8
0
 10
13.66377058
 20
4.35221035
  0
VERTEX
  8
0
 10
13.78242684
 20
4.40112773
  0
VERTEX
  8
0
 10
14.02657612
 20
4.48722300
  0
VERTEX
  8
0
 10
14.25829832
 20
4.60088977
  0
VERTEX
  8
0
 10
14.48671397
 20
4.70767490
  0
VERTEX
  8
0
 10
14.52973760
 20
4.84639392
  0
VERTEX
  8
0
 10
14.55329341
 20
5.00506303
  0
VERTEX
  8
0
 10
14.17947983
 20
4.84183069
  0
VERTEX
  8
0
 10
13.80612422
 20
4.67808404
  0
VERTEX
  8
0
 10
13.73869827
 20
4.77427351
  0
VERTEX
  8
0
 10
13.68252396
 20
4.88150865
  0
VERTEX
  8
0
 10
13.59454958
 20
5.12046738
  0
VERTEX
  8
0
 10
13.63513082
 20
5.13689293
  0
VERTEX
  8
0
 10
13.68036307
 20
5.14857869
  0
VERTEX
  8
0
 10
13.65600907
 20
5.20981476
  0
VERTEX
  8
0
 10
13.64337450
 20
5.28321710
  0
VERTEX
  8
0
 10
14.03885327
 20
5.47634805
  0
VERTEX
  8
0
 10
14.43788906
 20
5.65606192
  0
VERTEX
  8
0
 10
14.57471242
 20
5.71282503
  0
VERTEX
  8
0
 10
14.63736445
 20
5.74931062
  0
VERTEX
  8
0
 10
14.68793181
 20
5.80105713
  0
VERTEX
  8
0
 10
14.59143445
 20
5.88636451
  0
VERTEX
  8
0
 10
14.55968969
 20
5.94566799
  0
VERTEX
  8
0
 10
14.55329341
 20
6.03038629
  0
VERTEX
  8
0
 10
14.00734206
 20
5.99191817
  0
VERTEX
  8
0
 10
13.98431706
 20
5.91072985
  0
VERTEX
  8
0
 10
13.93363624
 20
5.85982538
  0
VERTEX
  8
0
 10
13.86198072
 20
5.83344185
  0
VERTEX
  8
0
 10
13.77603165
 20
5.82581636
  0
VERTEX
  8
0
 10
13.58797740
 20
5.84378784
  0
VERTEX
  8
0
 10
13.42292260
 20
5.86763656
  0
VERTEX
  8
0
 10
13.41233002
 20
5.89351748
  0
VERTEX
  8
0
 10
13.41485572
 20
5.92143646
  0
VERTEX
  8
0
 10
13.42292260
 20
5.98304091
  0
VERTEX
  8
0
 10
13.32272333
 20
6.00022090
  0
VERTEX
  8
0
 10
13.22470910
 20
6.03023319
  0
VERTEX
  8
0
 10
13.12741201
 20
6.05329420
  0
VERTEX
  8
0
 10
13.02936417
 20
6.04962034
  0
SEQEND
  0
POLYLINE
  8
Default_Layer
 66
   1
 39
0.000000
 70
    1
  0
VERTEX
  8
0
 10
12.26148139
 20
4.54492517
  0
VERTEX
  8
0
 10
12.32897268
 20
4.69808102
  0
VERTEX
  8
0
 10
12.36117466
 20
4.77606004
  0
VERTEX
  8
0
 10
12.37688574
 20
4.87042462
  0
VERTEX
  8
0
 10
12.27624993
 20
4.87027655
  0
VERTEX
  8
0
 10
12.19490195
 20
4.88965868
  0
VERTEX
  8
0
 10
12.09067729
 20
5.29932714
  0
VERTEX
  8
0
 10
11.95521600
 20
5.67529598
  0
VERTEX
  8
0
 10
11.91236048
 20
5.79610456
  0
VERTEX
  8
0
 10
11.88330405
 20
5.84902958
  0
VERTEX
  8
0
 10
11.83981165
 20
5.88687062
  0
VERTEX
  8
0
 10
11.82057759
 20
5.89574788
  0
VERTEX
  8
0
 10
12.03556149
 20
5.21447925
  0
VERTEX
  8
0
 10
12.26148139
 20
4.54492517
  0
SEQEND
  0
POLYLINE
  8
Default_Layer
 66
   1
 39
0.000000
 70
    1
  0
VERTEX
  8
0
 10
8.02407040
 20
5.88687062
  0
VERTEX
  8
0
 10
7.91923093
 20
5.65631373
  0
VERTEX
  8
0
 10
7.83488263
 20
5.40518193
  0
VERTEX
  8
0
 10
7.67933689
 20
4.88965868
  0
VERTEX
  8
0
 10
7.58922877
 20
4.88850868
  0
VERTEX
  8
0
 10
7.48699631
 20
4.89853593
  0
VERTEX
  8
0
 10
7.54741424
 20
4.70017001
  0
VERTEX
  8
0
 10
7.64086878
 20
4.53456837
  0
VERTEX
  8
0
 10
7.86144124
 20
5.21080167
  0
VERTEX
  8
0
 10
8.08177258
 20
5.88687062
  0
VERTEX
  8
0
 10
8.02407040
 20
5.88687062
  0
SEQEND
  0
POLYLINE
  8
Default_Layer
 66
   1
 39
0.000000
 70
    1
  0
VERTEX
  8
0
 10
8.17794287
 20
4.68844084
  0
VERTEX
  8
0
 10
8.76236233
 20
5.04353114
  0
VERTEX
  8
0
 10
8.71074707
 20
5.46929239
  0
VERTEX
  8
0
 10
8.64695798
 20
5.87651382
  0
VERTEX
  8
0
 10
8.40615051
 20
5.27722210
  0
VERTEX
  8
0
 10
8.28482082
 20
4.98080187
  0
VERTEX
  8
0
 10
8.17794287
 20
4.68844084
  0
SEQEND
  0
POLYLINE
  8
Default_Layer
 66
   1
 39
0.000000
 70
    1
  0
VERTEX
  8
0
 10
11.13111058
 20
5.06276520
  0
VERTEX
  8
0
 10
11.72588684
 20
4.68844084
  0
VERTEX
  8
0
 10
11.37079654
 20
5.58948249
  0
VERTEX
  8
0
 10
11.31432334
 20
5.73938934
  0
VERTEX
  8
0
 10
11.23615813
 20
5.87651382
  0
VERTEX
  8
0
 10
11.21692407
 20
5.87651382
  0
VERTEX
  8
0
 10
11.13111058
 20
5.06276520
  0
SEQEND
  0
POLYLINE
  8
Default_Layer
 66
   1
 39
0.000000
 70
    1
  0
VERTEX
  8
0
 10
2.38701179
 20
5.20628087
  0
VERTEX
  8
0
 10
2.42891822
 20
5.42119726
  0
VERTEX
  8
0
 10
2.43208573
 20
5.52753422
  0
VERTEX
  8
0
 10
2.41728446
 20
5.57241380
  0
VERTEX
  8
0
 10
2.38701179
 20
5.60871655
  0
VERTEX
  8
0
 10
2.36497516
 20
5.49942299
  0
VERTEX
  8
0
 10
2.33452989
 20
5.38661207
  0
VERTEX
  8
0
 10
2.33032556
 20
5.28424447
  0
VERTEX
  8
0
 10
2.34889176
 20
5.24133963
  0
VERTEX
  8
0
 10
2.38701179
 20
5.20628087
  0
SEQEND
  0
POLYLINE
  8
Default_Layer
 66
   1
 39
0.000000
 70
    1
  0
VERTEX
  8
0
 10
5.22477515
 20
5.57024843
  0
VERTEX
  8
0
 10
5.18844764
 20
5.46304408
  0
VERTEX
  8
0
 10
5.15819572
 20
5.34979653
  0
VERTEX
  8
0
 10
5.53653447
 20
5.16036911
  0
VERTEX
  8
0
 10
5.74168819
 20
5.06625110
  0
VERTEX
  8
0
 10
5.96306708
 20
4.99470623
  0
VERTEX
  8
0
 10
6.02659057
 20
5.09937268
  0
VERTEX
  8
0
 10
6.07847143
 20
5.21515812
  0
VERTEX
  8
0
 10
5.65922999
 20
5.40054212
  0
VERTEX
  8
0
 10
5.44807847
 20
5.49149090
  0
VERTEX
  8
0
 10
5.22477515
 20
5.57024843
  0
SEQEND
  0
POLYLINE
  8
Default_Layer
 66
   1
 39
0.000000
 70
    1
  0
VERTEX
  8
0
 10
7.25766716
 20
5.57024843
  0
VERTEX
  8
0
 10
7.11345971
 20
5.47233591
  0
VERTEX
  8
0
 10
6.95184195
 20
5.39193170
  0
VERTEX
  8
0
 10
6.78741490
 20
5.31450247
  0
VERTEX
  8
0
 10
6.63477958
 20
5.22551493
  0
VERTEX
  8
0
 10
6.64558842
 20
5.16031223
  0
VERTEX
  8
0
 10
6.67500027
 20
5.09563876
  0
VERTEX
  8
0
 10
6.75906118
 20
4.98582897
  0
VERTEX
  8
0
 10
7.10738138
 20
5.15023567
  0
VERTEX
  8
0
 10
7.43077368
 20
5.34091927
  0
VERTEX
  8
0
 10
7.35634758
 20
5.46784418
  0
VERTEX
  8
0
 10
7.31372065
 20
5.52580060
  0
VERTEX
  8
0
 10
7.25766716
 20
5.57024843
  0
SEQEND
  0
POLYLINE
  8
Default_Layer
 66
   1
 39
0.000000
 70
    1
  0
VERTEX
  8
0
 10
12.59733764
 20
5.57024843
  0
VERTEX
  8
0
 10
12.52200593
 20
5.45909714
  0
VERTEX
  8
0
 10
12.45382197
 20
5.34091927
  0
VERTEX
  8
0
 10
12.77775656
 20
5.14657746
  0
VERTEX
  8
0
 10
12.94957336
 20
5.05959612
  0
VERTEX
  8
0
 10
13.13441172
 20
4.98582897
  0
VERTEX
  8
0
 10
13.20442416
 20
5.09783000
  0
VERTEX
  8
0
 10
13.23488244
 20
5.15837340
  0
VERTEX
  8
0
 10
13.24981607
 20
5.23439218
  0
VERTEX
  8
0
 10
12.91698704
 20
5.39588013
  0
VERTEX
  8
0
 10
12.59733764
 20
5.57024843
  0
SEQEND
  0
POLYLINE
  8
Default_Layer
 66
   1
 39
0.000000
 70
    1
  0
VERTEX
  8
0
 10
13.80612422
 20
5.22551493
  0
VERTEX
  8
0
 10
13.85083667
 20
5.09780004
  0
VERTEX
  8
0
 10
13.92004903
 20
4.99470623
  0
VERTEX
  8
0
 10
14.13940846
 20
5.06840944
  0
VERTEX
  8
0
 10
14.34161033
 20
5.15906013
  0
VERTEX
  8
0
 10
14.72639993
 20
5.36015333
  0
VERTEX
  8
0
 10
14.70247379
 20
5.41029790
  0
VERTEX
  8
0
 10
14.68906958
 20
5.47114127
  0
VERTEX
  8
0
 10
14.67250729
 20
5.52901444
  0
VERTEX
  8
0
 10
14.63910690
 20
5.57024843
  0
VERTEX
  8
0
 10
14.42527682
 20
5.48974947
  0
VERTEX
  8
0
 10
14.22116346
 20
5.39936496
  0
VERTEX
  8
0
 10
13.80612422
 20
5.22551493
  0
SEQEND
  0
POLYLINE
  8
Default_Layer
 66
   1
 39
0.000000
 70
    1
  0
VERTEX
  8
0
 10
2.51129340
 20
4.94736085
  0
VERTEX
  8
0
 10
2.58822963
 20
5.25362624
  0
VERTEX
  8
0
 10
2.51129340
 20
5.36903059
  0
VERTEX
  8
0
 10
2.45669593
 20
5.14171454
  0
VERTEX
  8
0
 10
2.45671803
 20
5.03327467
  0
VERTEX
  8
0
 10
2.47548315
 20
4.98660917
  0
VERTEX
  8
0
 10
2.51129340
 20
4.94736085
  0
SEQEND
  0
POLYLINE
  8
Default_Layer
 66
   1
 39
0.000000
 70
    1
  0
VERTEX
  8
0
 10
1.80259233
 20
5.20628087
  0
VERTEX
  8
0
 10
2.02304423
 20
5.19592407
  0
VERTEX
  8
0
 10
2.00413124
 20
5.23361091
  0
VERTEX
  8
0
 10
1.97339456
 20
5.25940472
  0
VERTEX
  8
0
 10
1.88966293
 20
5.28855485
  0
VERTEX
  8
0
 10
1.79827491
 20
5.30985770
  0
VERTEX
  8
0
 10
1.72565609
 20
5.34979653
  0
VERTEX
  8
0
 10
1.75843628
 20
5.27245574
  0
VERTEX
  8
0
 10
1.80259233
 20
5.20628087
  0
SEQEND
  0
POLYLINE
  8
Default_Layer
 66
   1
 39
0.000000
 70
    1
  0
VERTEX
  8
0
 10
7.99595908
 20
5.19592407
  0
VERTEX
  8
0
 10
7.71780501
 20
4.41916402
  0
VERTEX
  8
0
 10
7.86744876
 20
4.49953640
  0
VERTEX
  8
0
 10
7.93929032
 20
4.54420654
  0
VERTEX
  8
0
 10
7.99595908
 20
4.60262735
  0
VERTEX
  8
0
 10
8.05749352
 20
4.74201769
  0
VERTEX
  8
0
 10
8.11136343
 20
4.89853593
  0
VERTEX
  8
0
 10
8.17730025
 20
5.05208349
  0
VERTEX
  8
0
 10
8.22528824
 20
5.20628087
  0
VERTEX
  8
0
 10
8.10518379
 20
5.21852114
  0
VERTEX
  8
0
 10
8.04120735
 20
5.21379579
  0
VERTEX
  8
0
 10
7.99595908
 20
5.19592407
  0
SEQEND
  0
POLYLINE
  8
Default_Layer
 66
   1
 39
0.000000
 70
    1
  0
VERTEX
  8
0
 10
11.67706193
 20
5.17669001
  0
VERTEX
  8
0
 10
11.78329879
 20
4.87277639
  0
VERTEX
  8
0
 10
11.84742839
 20
4.70726144
  0
VERTEX
  8
0
 10
11.90787062
 20
4.59227055
  0
VERTEX
  8
0
 10
11.96545518
 20
4.53640718
  0
VERTEX
  8
0
 10
12.03504535
 20
4.49408963
  0
VERTEX
  8
0
 10
12.17566790
 20
4.41028676
  0
VERTEX
  8
0
 10
11.89751382
 20
5.20628087
  0
VERTEX
  8
0
 10
11.79310764
 20
5.21643429
  0
VERTEX
  8
0
 10
11.67706193
 20
5.21515812
  0
VERTEX
  8
0
 10
11.67706193
 20
5.17669001
  0
SEQEND
  0
POLYLINE
  8
Default_Layer
 66
   1
 39
0.000000
 70
    1
  0
VERTEX
  8
0
 10
9.04051640
 20
4.02708514
  0
VERTEX
  8
0
 10
10.86183376
 20
4.02708514
  0
VERTEX
  8
0
 10
10.98759491
 20
5.16781275
  0
VERTEX
  8
0
 10
8.90587799
 20
5.16781275
  0
VERTEX
  8
0
 10
8.96851555
 20
4.60426934
  0
VERTEX
  8
0
 10
9.04051640
 20
4.02708514
  0
SEQEND
  0
POLYLINE
  8
Default_Layer
 66
   1
 39
0.000000
 70
    1
  0
VERTEX
  8
0
 10
2.65480906
 20
4.64997272
  0
VERTEX
  8
0
 10
2.69439903
 20
4.77191404
  0
VERTEX
  8
0
 10
2.71981550
 20
4.90005334
  0
VERTEX
  8
0
 10
2.71050944
 20
5.02077599
  0
VERTEX
  8
0
 10
2.68641388
 20
5.07410150
  0
VERTEX
  8
0
 10
2.64593181
 20
5.12046738
  0
VERTEX
  8
0
 10
2.59119402
 20
4.86892262
  0
VERTEX
  8
0
 10
2.59675884
 20
4.75083722
  0
VERTEX
  8
0
 10
2.61779220
 20
4.69768534
  0
VERTEX
  8
0
 10
2.65480906
 20
4.64997272
  0
SEQEND
  0
POLYLINE
  8
Default_Layer
 66
   1
 39
0.000000
 70
    1
  0
VERTEX
  8
0
 10
1.90763988
 20
4.98582897
  0
VERTEX
  8
0
 10
2.02143600
 20
4.96974051
  0
VERTEX
  8
0
 10
2.13844858
 20
4.95623811
  0
VERTEX
  8
0
 10
2.11778506
 20
5.03382971
  0
VERTEX
  8
0
 10
2.05379876
 20
5.08594082
  0
VERTEX
  8
0
 10
1.95779034
 20
5.11166869
  0
VERTEX
  8
0
 10
1.84106044
 20
5.11011058
  0
VERTEX
  8
0
 10
1.86883872
 20
5.04251891
  0
VERTEX
  8
0
 10
1.90763988
 20
4.98582897
  0
SEQEND
  0
POLYLINE
  8
Default_Layer
 66
   1
 39
0.000000
 70
    1
  0
VERTEX
  8
0
 10
2.23313932
 20
4.76537707
  0
VERTEX
  8
0
 10
2.21266032
 20
4.83058130
  0
VERTEX
  8
0
 10
2.17543715
 20
4.88078142
  0
VERTEX
  8
0
 10
2.06667417
 20
4.88333036
  0
VERTEX
  8
0
 10
1.94610799
 20
4.89853593
  0
VERTEX
  8
0
 10
1.95411136
 20
4.85406179
  0
VERTEX
  8
0
 10
1.97573232
 20
4.82315597
  0
VERTEX
  8
0
 10
2.04852068
 20
4.79081513
  0
VERTEX
  8
0
 10
2.23313932
 20
4.76537707
  0
SEQEND
  0
POLYLINE
  8
Default_Layer
 66
   1
 39
0.000000
 70
    1
  0
VERTEX
  8
0
 10
11.15922190
 20
4.06555326
  0
VERTEX
  8
0
 10
11.66651330
 20
3.85303082
  0
VERTEX
  8
0
 10
12.18602470
 20
3.65276078
  0
VERTEX
  8
0
 10
12.22486549
 20
3.91549213
  0
VERTEX
  8
0
 10
12.27183819
 20
4.17060081
  0
VERTEX
  8
0
 10
11.29386030
 20
4.77425433
  0
VERTEX
  8
0
 10
11.23041303
 20
4.41610594
  0
VERTEX
  8
0
 10
11.15922190
 20
4.06555326
  0
SEQEND
  0
POLYLINE
  8
Default_Layer
 66
   1
 39
0.000000
 70
    1
  0
VERTEX
  8
0
 10
8.59073535
 20
4.76537707
  0
VERTEX
  8
0
 10
8.09756555
 20
4.46689831
  0
VERTEX
  8
0
 10
7.61275746
 20
4.16172355
  0
VERTEX
  8
0
 10
7.65444958
 20
3.90131959
  0
VERTEX
  8
0
 10
7.70744821
 20
3.65276078
  0
VERTEX
  8
0
 10
8.21496425
 20
3.85056964
  0
VERTEX
  8
0
 10
8.72389421
 20
4.04631920
  0
VERTEX
  8
0
 10
8.66667596
 20
4.41499188
  0
VERTEX
  8
0
 10
8.63449243
 20
4.59597076
  0
VERTEX
  8
0
 10
8.59073535
 20
4.76537707
  0
SEQEND
  0
POLYLINE
  8
Default_Layer
 66
   1
 39
0.000000
 70
    1
  0
VERTEX
  8
0
 10
2.35890047
 20
4.57303649
  0
VERTEX
  8
0
 10
2.30719625
 20
4.63687089
  0
VERTEX
  8
0
 10
2.23054167
 20
4.67557516
  0
VERTEX
  8
0
 10
2.03192148
 20
4.70767490
  0
VERTEX
  8
0
 10
2.08870327
 20
4.64634743
  0
VERTEX
  8
0
 10
2.17734937
 20
4.61040305
  0
VERTEX
  8
0
 10
2.35890047
 20
4.57303649
  0
SEQEND
  0
POLYLINE
  8
Default_Layer
 66
   1
 39
0.000000
 70
    1
  0
VERTEX
  8
0
 10
7.43077368
 20
4.63073866
  0
VERTEX
  8
0
 10
7.12077814
 20
4.42718344
  0
VERTEX
  8
0
 10
6.79752930
 20
4.23718024
  0
VERTEX
  8
0
 10
6.83166659
 20
4.18817635
  0
VERTEX
  8
0
 10
6.85832520
 20
4.12367875
  0
VERTEX
  8
0
 10
6.88343695
 20
4.06081892
  0
VERTEX
  8
0
 10
6.91293365
 20
4.01672834
  0
VERTEX
  8
0
 10
6.94372858
 20
4.00440575
  0
VERTEX
  8
0
 10
6.98466865
 20
4.00763064
  0
VERTEX
  8
0
 10
7.08435475
 20
4.04628641
  0
VERTEX
  8
0
 10
7.26654441
 20
4.15136675
  0
VERTEX
  8
0
 10
7.44140442
 20
4.24277759
  0
VERTEX
  8
0
 10
7.51139589
 20
4.28611151
  0
VERTEX
  8
0
 10
7.56393255
 20
4.33335053
  0
VERTEX
  8
0
 10
7.50728316
 20
4.48023896
  0
VERTEX
  8
0
 10
7.43077368
 20
4.63073866
  0
SEQEND
  0
POLYLINE
  8
Default_Layer
 66
   1
 39
0.000000
 70
    1
  0
VERTEX
  8
0
 10
12.31918356
 20
4.34370733
  0
VERTEX
  8
0
 10
12.36073272
 20
4.29028305
  0
VERTEX
  8
0
 10
12.44577326
 20
4.23444580
  0
VERTEX
  8
0
 10
12.60769444
 20
4.15136675
  0
VERTEX
  8
0
 10
12.77879407
 20
4.05096966
  0
VERTEX
  8
0
 10
12.86822629
 20
4.01216876
  0
VERTEX
  8
0
 10
12.94355068
 20
4.00785108
  0
VERTEX
  8
0
 10
12.98711198
 20
4.04798336
  0
VERTEX
  8
0
 10
13.01995080
 20
4.11842852
  0
VERTEX
  8
0
 10
13.04787928
 20
4.19091725
  0
VERTEX
  8
0
 10
13.07670955
 20
4.23718024
  0
VERTEX
  8
0
 10
12.43458791
 20
4.63073866
  0
VERTEX
  8
0
 10
12.41426600
 20
4.56328592
  0
VERTEX
  8
0
 10
12.37233431
 20
4.48321736
  0
VERTEX
  8
0
 10
12.33267833
 20
4.40515161
  0
VERTEX
  8
0
 10
12.31918356
 20
4.34370733
  0
SEQEND
  0
POLYLINE
  8
Default_Layer
 66
   1
 39
0.000000
 70
    1
  0
VERTEX
  8
0
 10
5.31058864
 20
4.29488241
  0
VERTEX
  8
0
 10
5.68793612
 20
4.11099047
  0
VERTEX
  8
0
 10
6.07847143
 20
3.93979211
  0
VERTEX
  8
0
 10
6.12260185
 20
4.07340209
  0
VERTEX
  8
0
 10
6.15540766
 20
4.21794618
  0
VERTEX
  8
0
 10
5.36829082
 20
4.54492517
  0
VERTEX
  8
0
 10
5.36459796
 20
4.48246693
  0
VERTEX
  8
0
 10
5.34403582
 20
4.42598250
  0
VERTEX
  8
0
 10
5.32117563
 20
4.36645871
  0
VERTEX
  8
0
 10
5.31058864
 20
4.29488241
  0
SEQEND
  0
POLYLINE
  8
Default_Layer
 66
   1
 39
0.000000
 70
    1
  0
VERTEX
  8
0
 10
13.71883119
 20
4.21794618
  0
VERTEX
  8
0
 10
13.75749490
 20
4.06959857
  0
VERTEX
  8
0
 10
13.81500148
 20
3.93979211
  0
VERTEX
  8
0
 10
14.20117842
 20
4.11537102
  0
VERTEX
  8
0
 10
14.39285569
 20
4.20430807
  0
VERTEX
  8
0
 10
14.57252746
 20
4.30523921
  0
VERTEX
  8
0
 10
14.49559123
 20
4.54492517
  0
VERTEX
  8
0
 10
14.10727180
 20
4.37001919
  0
VERTEX
  8
0
 10
13.71883119
 20
4.21794618
  0
SEQEND
  0
POLYLINE
  8
Default_Layer
 66
   1
 39
0.000000
 70
    1
  0
VERTEX
  8
0
 10
8.87776668
 20
3.96938297
  0
VERTEX
  8
0
 10
7.75627313
 20
3.52847917
  0
VERTEX
  8
0
 10
7.83536117
 20
3.40042715
  0
VERTEX
  8
0
 10
7.86894808
 20
3.34007629
  0
VERTEX
  8
0
 10
7.88055474
 20
3.26955916
  0
VERTEX
  8
0
 10
7.86703076
 20
3.22558459
  0
VERTEX
  8
0
 10
7.83968582
 20
3.18974852
  0
VERTEX
  8
0
 10
7.81132197
 20
3.15534965
  0
VERTEX
  8
0
 10
7.79474124
 20
3.11568669
  0
VERTEX
  8
0
 10
7.81104653
 20
3.01848297
  0
VERTEX
  8
0
 10
7.84208662
 20
2.91446885
  0
VERTEX
  8
0
 10
7.86296364
 20
2.81032443
  0
VERTEX
  8
0
 10
7.87167748
 20
2.69401695
  0
VERTEX
  8
0
 10
7.95434452
 20
2.60932167
  0
VERTEX
  8
0
 10
8.00763199
 20
2.49506372
  0
VERTEX
  8
0
 10
8.05027450
 20
2.37005643
  0
VERTEX
  8
0
 10
8.10100663
 20
2.25311315
  0
VERTEX
  8
0
 10
8.00441552
 20
2.16769829
  0
VERTEX
  8
0
 10
7.91014559
 20
2.08000663
  0
VERTEX
  8
0
 10
7.89978879
 20
1.85067747
  0
VERTEX
  8
0
 10
8.34149922
 20
2.06710542
  0
VERTEX
  8
0
 10
8.78370636
 20
2.30894561
  0
VERTEX
  8
0
 10
9.24409257
 20
2.53729512
  0
VERTEX
  8
0
 10
9.48662857
 20
2.63425370
  0
VERTEX
  8
0
 10
9.74034021
 20
2.71325101
  0
VERTEX
  8
0
 10
10.02753972
 20
2.78197234
  0
VERTEX
  8
0
 10
10.31520889
 20
2.83090813
  0
VERTEX
  8
0
 10
10.60062563
 20
2.84986645
  0
VERTEX
  8
0
 10
10.88106782
 20
2.82865536
  0
VERTEX
  8
0
 10
11.14710461
 20
2.76819856
  0
VERTEX
  8
0
 10
11.39469950
 20
2.68232270
  0
VERTEX
  8
0
 10
11.86940251
 20
2.46468779
  0
VERTEX
  8
0
 10
11.91681378
 20
2.60332465
  0
VERTEX
  8
0
 10
12.00256137
 20
2.70437375
  0
VERTEX
  8
0
 10
12.03562620
 20
2.92550480
  0
VERTEX
  8
0
 10
12.08985441
 20
3.12604349
  0
VERTEX
  8
0
 10
12.03888313
 20
3.16673762
  0
VERTEX
  8
0
 10
12.01160337
 20
3.21415871
  0
VERTEX
  8
0
 10
12.00395297
 20
3.26631618
  0
VERTEX
  8
0
 10
12.01186977
 20
3.32121947
  0
VERTEX
  8
0
 10
12.05815631
 20
3.43130116
  0
VERTEX
  8
0
 10
12.11796572
 20
3.52847917
  0
VERTEX
  8
0
 10
11.56560542
 20
3.75210946
  0
VERTEX
  8
0
 10
11.00682897
 20
3.96938297
  0
VERTEX
  8
0
 10
10.97941186
 20
3.64028960
  0
VERTEX
  8
0
 10
10.95840217
 20
3.49083273
  0
VERTEX
  8
0
 10
10.91065868
 20
3.36572945
  0
VERTEX
  8
0
 10
9.91009526
 20
3.35219363
  0
VERTEX
  8
0
 10
9.40840071
 20
3.35601081
  0
VERTEX
  8
0
 10
8.94434611
 20
3.37460670
  0
VERTEX
  8
0
 10
8.91764465
 20
3.67842474
  0
VERTEX
  8
0
 10
8.87776668
 20
3.96938297
  0
SEQEND
  0
POLYLINE
  8
Default_Layer
 66
   1
 39
0.000000
 70
    1
  0
VERTEX
  8
0
 10
9.07010726
 20
3.95014891
  0
VERTEX
  8
0
 10
9.05975046
 20
3.93091485
  0
VERTEX
  8
0
 10
9.07010726
 20
3.91168079
  0
VERTEX
  8
0
 10
10.62214781
 20
3.91168079
  0
VERTEX
  8
0
 10
10.74019821
 20
3.90633715
  0
VERTEX
  8
0
 10
10.79148910
 20
3.91356751
  0
VERTEX
  8
0
 10
10.82336565
 20
3.93979211
  0
VERTEX
  8
0
 10
9.95273521
 20
3.95120018
  0
VERTEX
  8
0
 10
9.07010726
 20
3.95014891
  0
SEQEND
  0
POLYLINE
  8
Default_Layer
 66
   1
 39
0.000000
 70
    1
  0
VERTEX
  8
0
 10
9.07898452
 20
3.84510136
  0
VERTEX
  8
0
 10
9.07010726
 20
3.82586730
  0
VERTEX
  8
0
 10
9.07010726
 20
3.80663324
  0
VERTEX
  8
0
 10
10.62214781
 20
3.80663324
  0
VERTEX
  8
0
 10
10.74019821
 20
3.80098938
  0
VERTEX
  8
0
 10
10.79148910
 20
3.80829423
  0
VERTEX
  8
0
 10
10.82336565
 20
3.83474456
  0
VERTEX
  8
0
 10
9.95744315
 20
3.84583893
  0
VERTEX
  8
0
 10
9.07898452
 20
3.84510136
  0
SEQEND
  0
POLYLINE
  8
Default_Layer
 66
   1
 39
0.000000
 70
    1
  0
VERTEX
  8
0
 10
7.42041688
 20
3.06834132
  0
VERTEX
  8
0
 10
7.58402357
 20
3.16932476
  0
VERTEX
  8
0
 10
7.67396948
 20
3.23488042
  0
VERTEX
  8
0
 10
7.71780501
 20
3.28879321
  0
VERTEX
  8
0
 10
7.71098006
 20
3.34131521
  0
VERTEX
  8
0
 10
7.68124976
 20
3.39364674
  0
VERTEX
  8
0
 10
7.61275746
 20
3.49888831
  0
VERTEX
  8
0
 10
7.29482534
 20
3.28949953
  0
VERTEX
  8
0
 10
7.12878793
 20
3.19178937
  0
VERTEX
  8
0
 10
6.94104497
 20
3.11568669
  0
VERTEX
  8
0
 10
6.99680310
 20
2.99420887
  0
VERTEX
  8
0
 10
7.07568337
 20
2.89523479
  0
VERTEX
  8
0
 10
7.23719163
 20
2.96303978
  0
VERTEX
  8
0
 10
7.42041688
 20
3.06834132
  0
SEQEND
  0
POLYLINE
  8
Default_Layer
 66
   1
 39
0.000000
 70
    1
  0
VERTEX
  8
0
 10
12.26148139
 20
3.49001105
  0
VERTEX
  8
0
 10
12.20050241
 20
3.39315847
  0
VERTEX
  8
0
 10
12.15643384
 20
3.27843641
  0
VERTEX
  8
0
 10
12.46532656
 20
3.06508138
  0
VERTEX
  8
0
 10
12.63100467
 20
2.96958631
  0
VERTEX
  8
0
 10
12.81778953
 20
2.89523479
  0
VERTEX
  8
0
 10
12.94355068
 20
3.10680943
  0
VERTEX
  8
0
 10
12.75890105
 20
3.18840441
  0
VERTEX
  8
0
 10
12.59238448
 20
3.28811312
  0
VERTEX
  8
0
 10
12.43093368
 20
3.39297039
  0
VERTEX
  8
0
 10
12.26148139
 20
3.49001105
  0
SEQEND
  0
POLYLINE
  8
Default_Layer
 66
   1
 39
0.000000
 70
    1
  0
VERTEX
  8
0
 10
5.56950866
 20
3.33613859
  0
VERTEX
  8
0
 10
5.55080862
 20
3.27252335
  0
VERTEX
  8
0
 10
5.52298462
 20
3.21344091
  0
VERTEX
  8
0
 10
5.50177778
 20
3.15578581
  0
VERTEX
  8
0
 10
5.50292923
 20
3.09645263
  0
VERTEX
  8
0
 10
5.55614114
 20
3.03828988
  0
VERTEX
  8
0
 10
5.65641152
 20
2.99156663
  0
VERTEX
  8
0
 10
5.86689679
 20
2.92482565
  0
VERTEX
  8
0
 10
6.08613191
 20
2.84284665
  0
VERTEX
  8
0
 10
6.26933247
 20
2.79018724
  0
VERTEX
  8
0
 10
6.29086426
 20
2.91739853
  0
VERTEX
  8
0
 10
6.32703465
 20
3.04910726
  0
VERTEX
  8
0
 10
6.11936641
 20
3.10228197
  0
VERTEX
  8
0
 10
5.92640369
 20
3.17039388
  0
VERTEX
  8
0
 10
5.56950866
 20
3.33613859
  0
SEQEND
  0
POLYLINE
  8
Default_Layer
 66
   1
 39
0.000000
 70
    1
  0
VERTEX
  8
0
 10
14.01621932
 20
2.92482565
  0
VERTEX
  8
0
 10
14.23162782
 20
2.99564159
  0
VERTEX
  8
0
 10
14.33097704
 20
3.04484330
  0
VERTEX
  8
0
 10
14.36442404
 20
3.07406353
  0
VERTEX
  8
0
 10
14.38166642
 20
3.10680943
  0
VERTEX
  8
0
 10
14.37819083
 20
3.16237180
  0
VERTEX
  8
0
 10
14.35439919
 20
3.21537966
  0
VERTEX
  8
0
 10
14.32722642
 20
3.27143469
  0
VERTEX
  8
0
 10
14.31360745
 20
3.33613859
  0
VERTEX
  8
0
 10
13.95528029
 20
3.17244170
  0
VERTEX
  8
0
 10
13.76309244
 20
3.10340044
  0
VERTEX
  8
0
 10
13.55608146
 20
3.04910726
  0
VERTEX
  8
0
 10
13.56264217
 20
2.99347942
  0
VERTEX
  8
0
 10
13.58320559
 20
2.93411962
  0
VERTEX
  8
0
 10
13.60241317
 20
2.86752363
  0
VERTEX
  8
0
 10
13.60490638
 20
2.79018724
  0
VERTEX
  8
0
 10
13.79310167
 20
2.84362413
  0
VERTEX
  8
0
 10
14.01621932
 20
2.92482565
  0
SEQEND
  0
POLYLINE
  8
Default_Layer
 66
   1
 39
0.000000
 70
    1
  0
VERTEX
  8
0
 10
3.67125506
 20
2.51203317
  0
VERTEX
  8
0
 10
3.62017643
 20
2.48823117
  0
VERTEX
  8
0
 10
3.59579837
 20
2.43509694
  0
VERTEX
  8
0
 10
3.60423936
 20
2.37702309
  0
VERTEX
  8
0
 10
3.63708189
 20
2.32399593
  0
VERTEX
  8
0
 10
3.72007998
 20
2.22500184
  0
VERTEX
  8
0
 10
3.80956176
 20
2.04383658
  0
VERTEX
  8
0
 10
3.85991674
 20
1.96244210
  0
VERTEX
  8
0
 10
3.93017508
 20
1.90837965
  0
VERTEX
  8
0
 10
3.97997810
 20
1.93536350
  0
VERTEX
  8
0
 10
4.00293714
 20
1.95088435
  0
VERTEX
  8
0
 10
4.03670217
 20
1.95572502
  0
VERTEX
  8
0
 10
4.05920849
 20
1.91121545
  0
VERTEX
  8
0
 10
4.05067509
 20
1.86729764
  0
VERTEX
  8
0
 10
4.02072968
 20
1.83171461
  0
VERTEX
  8
0
 10
3.97900000
 20
1.81220936
  0
VERTEX
  8
0
 10
3.89785396
 20
1.81345558
  0
VERTEX
  8
0
 10
3.83518894
 20
1.84760730
  0
VERTEX
  8
0
 10
3.78529850
 20
1.90453316
  0
VERTEX
  8
0
 10
3.74247619
 20
1.97410180
  0
VERTEX
  8
0
 10
3.65521019
 20
2.11064197
  0
VERTEX
  8
0
 10
3.59935362
 20
2.15735078
  0
VERTEX
  8
0
 10
3.52773940
 20
2.17617692
  0
VERTEX
  8
0
 10
3.58957314
 20
2.02230354
  0
VERTEX
  8
0
 10
3.67435003
 20
1.89139581
  0
VERTEX
  8
0
 10
3.77681349
 20
1.77822714
  0
VERTEX
  8
0
 10
3.89170696
 20
1.67757095
  0
VERTEX
  8
0
 10
4.22756321
 20
1.63022558
  0
VERTEX
  8
0
 10
4.18649087
 20
1.82610752
  0
VERTEX
  8
0
 10
4.12993433
 20
2.00664085
  0
VERTEX
  8
0
 10
4.05746223
 20
2.17133329
  0
VERTEX
  8
0
 10
3.96864320
 20
2.31969259
  0
VERTEX
  8
0
 10
3.94878494
 20
2.23013274
  0
VERTEX
  8
0
 10
3.93593828
 20
2.18814548
  0
VERTEX
  8
0
 10
3.90206376
 20
2.16729966
  0
VERTEX
  8
0
 10
3.86638287
 20
2.19386588
  0
VERTEX
  8
0
 10
3.83655290
 20
2.23812663
  0
VERTEX
  8
0
 10
3.78664665
 20
2.35378581
  0
VERTEX
  8
0
 10
3.73674678
 20
2.46238528
  0
VERTEX
  8
0
 10
3.70692479
 20
2.49782142
  0
VERTEX
  8
0
 10
3.67125506
 20
2.51203317
  0
SEQEND
  0
POLYLINE
  8
Default_Layer
 66
   1
 39
0.000000
 70
    1
  0
VERTEX
  8
0
 10
7.84208662
 20
2.48392185
  0
VERTEX
  8
0
 10
7.81397530
 20
2.46468779
  0
VERTEX
  8
0
 10
7.57559711
 20
2.30335954
  0
VERTEX
  8
0
 10
7.32424659
 20
2.14806560
  0
VERTEX
  8
0
 10
7.23738431
 20
2.10175621
  0
VERTEX
  8
0
 10
7.21000001
 20
2.06578699
  0
VERTEX
  8
0
 10
7.21919904
 20
2.01342720
  0
VERTEX
  8
0
 10
7.49061019
 20
2.16104880
  0
VERTEX
  8
0
 10
7.73703907
 20
2.33004939
  0
VERTEX
  8
0
 10
7.82216964
 20
2.38798085
  0
VERTEX
  8
0
 10
7.85414705
 20
2.42883654
  0
VERTEX
  8
0
 10
7.86132068
 20
2.48392185
  0
VERTEX
  8
0
 10
7.84208662
 20
2.48392185
  0
SEQEND
  0
POLYLINE
  8
Default_Layer
 66
   1
 39
0.000000
 70
    1
  0
VERTEX
  8
0
 10
12.02179543
 20
2.42621968
  0
VERTEX
  8
0
 10
12.05767457
 20
2.38179935
  0
VERTEX
  8
0
 10
12.12521321
 20
2.32838518
  0
VERTEX
  8
0
 10
12.26148139
 20
2.23387910
  0
VERTEX
  8
0
 10
12.41708490
 20
2.14490125
  0
VERTEX
  8
0
 10
12.54999226
 20
2.08000663
  0
VERTEX
  8
0
 10
12.60374439
 20
2.03484747
  0
VERTEX
  8
0
 10
12.63111930
 20
2.01969856
  0
VERTEX
  8
0
 10
12.66539661
 20
2.02230445
  0
VERTEX
  8
0
 10
12.66297075
 20
2.07240377
  0
VERTEX
  8
0
 10
12.63311940
 20
2.10895050
  0
VERTEX
  8
0
 10
12.54999226
 20
2.15694286
  0
VERTEX
  8
0
 10
12.28537467
 20
2.31395618
  0
VERTEX
  8
0
 10
12.05138629
 20
2.48392185
  0
VERTEX
  8
0
 10
12.02179543
 20
2.48392185
  0
VERTEX
  8
0
 10
12.02179543
 20
2.42621968
  0
SEQEND
  0
POLYLINE
  8
Default_Layer
 66
   1
 39
0.000000
 70
    1
  0
VERTEX
  8
0
 10
6.35662550
 20
2.04153851
  0
VERTEX
  8
0
 10
6.46576462
 20
2.00474798
  0
VERTEX
  8
0
 10
6.51465924
 20
1.99703553
  0
VERTEX
  8
0
 10
6.54748654
 20
2.01342720
  0
VERTEX
  8
0
 10
6.51233069
 20
2.04921830
  0
VERTEX
  8
0
 10
6.46293453
 20
2.07693353
  0
VERTEX
  8
0
 10
6.34626870
 20
2.11847475
  0
VERTEX
  8
0
 10
6.06516400
 20
2.19443001
  0
VERTEX
  8
0
 10
5.94049417
 20
2.23744212
  0
VERTEX
  8
0
 10
5.83878547
 20
2.30045853
  0
VERTEX
  8
0
 10
5.80919462
 20
2.30045853
  0
VERTEX
  8
0
 10
5.91230758
 20
2.20742206
  0
VERTEX
  8
0
 10
6.04852689
 20
2.13780906
  0
VERTEX
  8
0
 10
6.35662550
 20
2.04153851
  0
SEQEND
  0
POLYLINE
  8
Default_Layer
 66
   1
 39
0.000000
 70
    1
  0
VERTEX
  8
0
 10
13.51761335
 20
2.10959749
  0
VERTEX
  8
0
 10
13.39778790
 20
2.07134183
  0
VERTEX
  8
0
 10
13.34743141
 20
2.04041638
  0
VERTEX
  8
0
 10
13.32675231
 20
1.99419314
  0
VERTEX
  8
0
 10
13.52297272
 20
2.03897808
  0
VERTEX
  8
0
 10
13.72376531
 20
2.09778367
  0
VERTEX
  8
0
 10
13.91062438
 20
2.17655183
  0
VERTEX
  8
0
 10
14.06504423
 20
2.28122447
  0
VERTEX
  8
0
 10
14.06079523
 20
2.29700398
  0
VERTEX
  8
0
 10
14.04581018
 20
2.30045853
  0
VERTEX
  8
0
 10
13.93192490
 20
2.23634392
  0
VERTEX
  8
0
 10
13.80127973
 20
2.19046809
  0
VERTEX
  8
0
 10
13.51761335
 20
2.10959749
  0
SEQEND
  0
POLYLINE
  8
Default_Layer
 66
   1
 39
0.000000
 70
    1
  0
VERTEX
  8
0
 10
11.39890785
 20
16.29841431
  0
VERTEX
  8
0
 10
11.38800467
 20
16.39770889
  0
VERTEX
  8
0
 10
11.37079654
 20
16.49075489
  0
VERTEX
  8
0
 10
11.74316681
 20
16.39092747
  0
VERTEX
  8
0
 10
12.09733056
 20
16.27283438
  0
VERTEX
  8
0
 10
12.43333069
 20
16.13646084
  0
VERTEX
  8
0
 10
12.75121010
 20
15.98179212
  0
VERTEX
  8
0
 10
12.68482924
 20
15.97709221
  0
VERTEX
  8
0
 10
12.61698027
 20
15.95317467
  0
VERTEX
  8
0
 10
12.54892701
 20
15.92692099
  0
VERTEX
  8
0
 10
12.48193329
 20
15.91521268
  0
VERTEX
  8
0
 10
12.35362261
 20
15.95657053
  0
VERTEX
  8
0
 10
12.21413601
 20
16.02026023
  0
VERTEX
  8
0
 10
11.81235424
 20
16.17047723
  0
VERTEX
  8
0
 10
11.39890785
 20
16.29841431
  0
SEQEND
  0
POLYLINE
  8
Default_Layer
 66
   1
 39
0.000000
 70
    1
  0
VERTEX
  8
0
 10
4.60188757
 20
8.28373019
  0
VERTEX
  8
0
 10
4.55306463
 20
8.19905898
  0
VERTEX
  8
0
 10
4.48720554
 20
8.11292983
  0
VERTEX
  8
0
 10
4.35184482
 20
7.93899668
  0
VERTEX
  8
0
 10
4.12251566
 20
7.93899668
  0
VERTEX
  8
0
 10
4.36181862
 20
8.11139434
  0
VERTEX
  8
0
 10
4.60188757
 20
8.28373019
  0
SEQEND
  0
ENDSEC
  0
EOF
