  0
SECTION
  2
HEADER
  9
$ACADVER
  1
AC1009
  9
$EXTMIN
 10
39.84400000
 20
17.11111111
 30
0.0
  9
$EXTMAX
 10
95.82200000
 20
197.40709924
 30
0.0
  0
ENDSEC
  0
SECTION
  2
TABLES
  0
TABLE
  2
LAYER
 70
1
 0
LAYER
 2
�� ���������
 70
0
 62
1
 6
CONTINUOUS
 0
ENDTAB
 0
ENDSEC
  0
SECTION
  2
ENTITIES
  0
POLYLINE
  8
�� ���������
 66
   1
 39
0.000000
 70
    1
  0
VERTEX
  8
0
 10
86.59731731
 20
190.24822781
 42
-0.20484820
  0
VERTEX
  8
0
 10
95.80631705
 20
170.57516797
  0
VERTEX
  8
0
 10
95.82200000
 20
163.57516797
  0
VERTEX
  8
0
 10
95.82200000
 20
133.57516797
  0
VERTEX
  8
0
 10
95.82200000
 20
126.57516797
  0
VERTEX
  8
0
 10
95.82200000
 20
110.57516797
  0
VERTEX
  8
0
 10
95.82200000
 20
94.57516797
  0
VERTEX
  8
0
 10
95.82200000
 20
87.57516797
  0
VERTEX
  8
0
 10
95.82200000
 20
57.57516797
  0
VERTEX
  8
0
 10
95.82200000
 20
54.07516797
  0
VERTEX
  8
0
 10
95.82200000
 20
43.53430983
  0
VERTEX
  8
0
 10
95.82200000
 20
17.11111111
  0
VERTEX
  8
0
 10
90.68900000
 20
17.11111111
  0
VERTEX
  8
0
 10
44.73300000
 20
17.11111111
  0
VERTEX
  8
0
 10
39.84400000
 20
17.11111111
  0
VERTEX
  8
0
 10
39.84400000
 20
43.53430983
  0
VERTEX
  8
0
 10
39.84400000
 20
54.07516797
  0
VERTEX
  8
0
 10
39.84400000
 20
57.57516797
  0
VERTEX
  8
0
 10
39.84400000
 20
87.57516797
  0
VERTEX
  8
0
 10
39.84400000
 20
94.57516797
  0
VERTEX
  8
0
 10
39.84400000
 20
110.57516797
  0
VERTEX
  8
0
 10
39.84400000
 20
126.57516797
  0
VERTEX
  8
0
 10
39.84400000
 20
133.57516797
  0
VERTEX
  8
0
 10
39.84400000
 20
163.57516797
  0
VERTEX
  8
0
 10
39.85968295
 20
170.57516797
 42
-0.19898637
  0
VERTEX
  8
0
 10
48.60921431
 20
189.82856593
  0
VERTEX
  8
0
 10
49.11243862
 20
190.28759750
  0
VERTEX
  8
0
 10
49.62393982
 20
190.73232026
  0
VERTEX
  8
0
 10
50.14345617
 20
191.16273154
  0
VERTEX
  8
0
 10
50.67072596
 20
191.57882866
  0
VERTEX
  8
0
 10
51.20548746
 20
191.98060892
  0
VERTEX
  8
0
 10
51.74747895
 20
192.36806964
  0
VERTEX
  8
0
 10
52.29643870
 20
192.74120814
  0
VERTEX
  8
0
 10
52.85210500
 20
193.10002174
  0
VERTEX
  8
0
 10
53.41421611
 20
193.44450775
  0
VERTEX
  8
0
 10
53.98251031
 20
193.77466349
  0
VERTEX
  8
0
 10
54.55672589
 20
194.09048627
  0
VERTEX
  8
0
 10
55.13660111
 20
194.39197342
  0
VERTEX
  8
0
 10
55.72187425
 20
194.67912224
  0
VERTEX
  8
0
 10
56.31228360
 20
194.95193006
  0
VERTEX
  8
0
 10
56.90756742
 20
195.21039418
  0
VERTEX
  8
0
 10
57.50746399
 20
195.45451194
  0
VERTEX
  8
0
 10
58.72004851
 20
195.89969759
  0
VERTEX
  8
0
 10
59.94794335
 20
196.28746553
  0
VERTEX
  8
0
 10
61.18905474
 20
196.61779431
  0
VERTEX
  8
0
 10
62.44128888
 20
196.89066246
  0
VERTEX
  8
0
 10
63.70255199
 20
197.10604849
  0
VERTEX
  8
0
 10
64.97075028
 20
197.26393094
  0
VERTEX
  8
0
 10
66.24378996
 20
197.36428835
  0
VERTEX
  8
0
 10
67.51957724
 20
197.40709924
  0
VERTEX
  8
0
 10
68.79601835
 20
197.39234214
  0
VERTEX
  8
0
 10
70.07101948
 20
197.31999558
  0
VERTEX
  8
0
 10
71.34248685
 20
197.19003810
  0
VERTEX
  8
0
 10
72.60832668
 20
197.00244822
  0
VERTEX
  8
0
 10
73.86644518
 20
196.75720448
  0
VERTEX
  8
0
 10
75.11474855
 20
196.45428540
  0
VERTEX
  8
0
 10
76.35114301
 20
196.09366951
  0
VERTEX
  8
0
 10
77.57353478
 20
195.67533535
  0
VERTEX
  8
0
 10
78.17882534
 20
195.44451721
  0
VERTEX
  8
0
 10
78.77983006
 20
195.19926145
  0
VERTEX
  8
0
 10
79.37628721
 20
194.93956538
  0
VERTEX
  8
0
 10
79.96793507
 20
194.66542633
  0
VERTEX
  8
0
 10
80.55451192
 20
194.37684161
  0
VERTEX
  8
0
 10
81.13575602
 20
194.07380853
  0
VERTEX
  8
0
 10
81.71140567
 20
193.75632441
  0
VERTEX
  8
0
 10
82.28119913
 20
193.42438657
  0
VERTEX
  8
0
 10
82.84487468
 20
193.07799233
  0
VERTEX
  8
0
 10
83.40217059
 20
192.71713899
  0
VERTEX
  8
0
 10
83.95282516
 20
192.34182388
  0
VERTEX
  8
0
 10
84.49657664
 20
191.95204432
  0
VERTEX
  8
0
 10
85.03316332
 20
191.54779761
  0
VERTEX
  8
0
 10
85.56232347
 20
191.12908108
  0
VERTEX
  8
0
 10
86.08379538
 20
190.69589204
  0
VERTEX
  8
0
 10
86.59731731
 20
190.24822781
  0
SEQEND
  0
POLYLINE
  8
�� ���������
 66
   1
 39
0.000000
 70
    1
  0
VERTEX
  8
0
 10
63.96699167
 20
20.57516797
  0
VERTEX
  8
0
 10
63.96699167
 20
50.57516797
  0
VERTEX
  8
0
 10
44.73300000
 20
50.57516797
  0
VERTEX
  8
0
 10
44.73300000
 20
20.57516797
  0
VERTEX
  8
0
 10
63.96699167
 20
20.57516797
  0
SEQEND
  0
POLYLINE
  8
�� ���������
 66
   1
 39
0.000000
 70
    1
  0
VERTEX
  8
0
 10
63.96699167
 20
87.57516797
  0
VERTEX
  8
0
 10
63.96699167
 20
57.57516797
  0
VERTEX
  8
0
 10
44.73300000
 20
57.57516797
  0
VERTEX
  8
0
 10
44.73300000
 20
87.57516797
  0
VERTEX
  8
0
 10
63.96699167
 20
87.57516797
  0
SEQEND
  0
POLYLINE
  8
�� ���������
 66
   1
 39
0.000000
 70
    1
  0
VERTEX
  8
0
 10
90.68900000
 20
20.57516797
  0
VERTEX
  8
0
 10
90.68900000
 20
50.57516797
  0
VERTEX
  8
0
 10
70.96700833
 20
50.57516797
  0
VERTEX
  8
0
 10
70.96700833
 20
20.57516797
  0
VERTEX
  8
0
 10
90.68900000
 20
20.57516797
  0
SEQEND
  0
POLYLINE
  8
�� ���������
 66
   1
 39
0.000000
 70
    1
  0
VERTEX
  8
0
 10
90.68900000
 20
87.57516797
  0
VERTEX
  8
0
 10
90.68900000
 20
57.57516797
  0
VERTEX
  8
0
 10
70.96700833
 20
57.57516797
  0
VERTEX
  8
0
 10
70.96700833
 20
87.57516797
  0
VERTEX
  8
0
 10
90.68900000
 20
87.57516797
  0
SEQEND
  0
POLYLINE
  8
�� ���������
 66
   1
 39
0.000000
 70
    1
  0
VERTEX
  8
0
 10
70.96700833
 20
133.57516797
  0
VERTEX
  8
0
 10
70.96700833
 20
163.57516797
  0
VERTEX
  8
0
 10
90.68900000
 20
163.57516797
  0
VERTEX
  8
0
 10
90.68900000
 20
133.57516797
  0
VERTEX
  8
0
 10
70.96700833
 20
133.57516797
  0
SEQEND
  0
POLYLINE
  8
�� ���������
 66
   1
 39
0.000000
 70
    1
  0
VERTEX
  8
0
 10
63.96699167
 20
133.57516797
  0
VERTEX
  8
0
 10
63.96699167
 20
163.57516797
  0
VERTEX
  8
0
 10
44.73300000
 20
163.57516797
  0
VERTEX
  8
0
 10
44.73300000
 20
133.57516797
  0
VERTEX
  8
0
 10
63.96699167
 20
133.57516797
  0
SEQEND
  0
POLYLINE
  8
�� ���������
 66
   1
 39
0.000000
 70
    1
  0
VERTEX
  8
0
 10
44.73300000
 20
94.57516797
  0
VERTEX
  8
0
 10
44.73300000
 20
110.57516797
  0
VERTEX
  8
0
 10
44.73300000
 20
126.57516797
  0
VERTEX
  8
0
 10
63.96699167
 20
126.57516797
  0
VERTEX
  8
0
 10
63.96699167
 20
110.57516797
  0
VERTEX
  8
0
 10
63.96699167
 20
94.57516797
  0
VERTEX
  8
0
 10
44.73300000
 20
94.57516797
  0
SEQEND
  0
POLYLINE
  8
�� ���������
 66
   1
 39
0.000000
 70
    1
  0
VERTEX
  8
0
 10
70.96700833
 20
94.57516797
  0
VERTEX
  8
0
 10
70.96700833
 20
110.57516797
  0
VERTEX
  8
0
 10
70.96700833
 20
126.57516797
  0
VERTEX
  8
0
 10
90.68900000
 20
126.57516797
  0
VERTEX
  8
0
 10
90.68900000
 20
110.57516797
  0
VERTEX
  8
0
 10
90.68900000
 20
94.57516797
  0
VERTEX
  8
0
 10
70.96700833
 20
94.57516797
  0
SEQEND
  0
POLYLINE
  8
�� ���������
 66
   1
 39
0.000000
 70
    1
  0
VERTEX
  8
0
 10
45.08726755
 20
173.64270223
 42
-0.15224297
  0
VERTEX
  8
0
 10
51.32248098
 20
185.65050164
  0
VERTEX
  8
0
 10
59.12043709
 20
173.64270223
  0
VERTEX
  8
0
 10
45.08726755
 20
173.64270223
  0
SEQEND
  0
POLYLINE
  8
�� ���������
 66
   1
 39
0.000000
 70
    1
  0
VERTEX
  8
0
 10
75.81356291
 20
173.64270223
  0
VERTEX
  8
0
 10
83.80251471
 20
185.94460921
 42
-0.15694957
  0
VERTEX
  8
0
 10
90.33473245
 20
173.64270223
  0
VERTEX
  8
0
 10
75.81356291
 20
173.64270223
  0
SEQEND
  0
POLYLINE
  8
�� ���������
 66
   1
 39
0.000000
 70
    1
  0
VERTEX
  8
0
 10
74.46911027
 20
191.42500651
 42
0.07277219
  0
VERTEX
  8
0
 10
67.95600000
 20
192.37800000
  0
VERTEX
  8
0
 10
67.46600000
 20
192.37800000
 42
0.07747660
  0
VERTEX
  8
0
 10
60.54650662
 20
191.29932752
  0
VERTEX
  8
0
 10
67.46700000
 20
180.64270223
  0
VERTEX
  8
0
 10
74.46911027
 20
191.42500651
  0
SEQEND
  0
POLYLINE
  8
�� ���������
 66
   1
 39
0.000000
 70
    1
  0
VERTEX
  8
0
 10
75.96700833
 20
99.57516797
  0
VERTEX
  8
0
 10
85.68900000
 20
99.57516797
  0
VERTEX
  8
0
 10
85.68900000
 20
121.57516797
  0
VERTEX
  8
0
 10
75.96700833
 20
121.57516797
  0
VERTEX
  8
0
 10
75.96700833
 20
99.57516797
  0
SEQEND
  0
POLYLINE
  8
�� ���������
 66
   1
 39
0.000000
 70
    1
  0
VERTEX
  8
0
 10
75.96700833
 20
138.57516797
  0
VERTEX
  8
0
 10
85.68900000
 20
138.57516797
  0
VERTEX
  8
0
 10
85.68900000
 20
158.57516797
  0
VERTEX
  8
0
 10
75.96700833
 20
158.57516797
  0
VERTEX
  8
0
 10
75.96700833
 20
138.57516797
  0
SEQEND
  0
POLYLINE
  8
�� ���������
 66
   1
 39
0.000000
 70
    1
  0
VERTEX
  8
0
 10
58.96699167
 20
138.57516797
  0
VERTEX
  8
0
 10
58.96699167
 20
158.57516797
  0
VERTEX
  8
0
 10
49.73300000
 20
158.57516797
  0
VERTEX
  8
0
 10
49.73300000
 20
138.57516797
  0
VERTEX
  8
0
 10
58.96699167
 20
138.57516797
  0
SEQEND
  0
POLYLINE
  8
�� ���������
 66
   1
 39
0.000000
 70
    1
  0
VERTEX
  8
0
 10
49.73300000
 20
99.57516797
  0
VERTEX
  8
0
 10
58.96699167
 20
99.57516797
  0
VERTEX
  8
0
 10
58.96699167
 20
121.57516797
  0
VERTEX
  8
0
 10
49.73300000
 20
121.57516797
  0
VERTEX
  8
0
 10
49.73300000
 20
99.57516797
  0
SEQEND
  0
POLYLINE
  8
�� ���������
 66
   1
 39
0.000000
 70
    1
  0
VERTEX
  8
0
 10
58.96699167
 20
82.57516797
  0
VERTEX
  8
0
 10
49.73300000
 20
82.57516797
  0
VERTEX
  8
0
 10
49.73300000
 20
62.57516797
  0
VERTEX
  8
0
 10
58.96699167
 20
62.57516797
  0
VERTEX
  8
0
 10
58.96699167
 20
82.57516797
  0
SEQEND
  0
POLYLINE
  8
�� ���������
 66
   1
 39
0.000000
 70
    1
  0
VERTEX
  8
0
 10
85.68900000
 20
82.57516797
  0
VERTEX
  8
0
 10
75.96700833
 20
82.57516797
  0
VERTEX
  8
0
 10
75.96700833
 20
62.57516797
  0
VERTEX
  8
0
 10
85.68900000
 20
62.57516797
  0
VERTEX
  8
0
 10
85.68900000
 20
82.57516797
  0
SEQEND
  0
POLYLINE
  8
�� ���������
 66
   1
 39
0.000000
 70
    1
  0
VERTEX
  8
0
 10
58.96699167
 20
25.57516797
  0
VERTEX
  8
0
 10
58.96699167
 20
45.57516797
  0
VERTEX
  8
0
 10
49.73300000
 20
45.57516797
  0
VERTEX
  8
0
 10
49.73300000
 20
25.57516797
  0
VERTEX
  8
0
 10
58.96699167
 20
25.57516797
  0
SEQEND
  0
POLYLINE
  8
�� ���������
 66
   1
 39
0.000000
 70
    1
  0
VERTEX
  8
0
 10
85.68900000
 20
25.57516797
  0
VERTEX
  8
0
 10
85.68900000
 20
45.57516797
  0
VERTEX
  8
0
 10
75.96700833
 20
45.57516797
  0
VERTEX
  8
0
 10
75.96700833
 20
25.57516797
  0
VERTEX
  8
0
 10
85.68900000
 20
25.57516797
  0
SEQEND
  0
ENDSEC
  0
EOF
