  0
SECTION
  2
HEADER
  9
$ACADVER
  1
AC1009
  9
$LIMMIN
 10
-0.000000
 20
-0.000000
  9
$LIMMAX
 10
23.747500
 20
24.507501
  0
ENDSEC
  0
SECTION
  2
TABLES
  0
TABLE
  2
LTYPE
 70
     4
  0
LTYPE
  2
CONTINUOUS
 70
     0
  3
Solid line
 72
     65
 73
     0
 40
0.000000
  0
LTYPE
  2
HIDDEN
 70
     0
  3
 _ _ _ _ _ _ _ _ _ _ _
 72
     65
 73
     2
 40
0.375000
 49
0.250000
 49
-0.125000
  0
LTYPE
  2
DASHED
 70
     0
  3
 ___ ___ ___ ___ ___ ___ ___ 
 72
     65
 73
     2
 40
0.750000
 49
0.500000
 49
-0.250000
  0
LTYPE
  2
CENTER
 70
     0
  3
___ _ ___ _ ___ _ ___
 72
     65
 73
     4
 40
2.000000
 49
1.250000
 49
-0.250000
 49
0.250000
 49
-0.250000
  0
LTYPE
  2
BORDER
 70
     0
  3
___ ___ . ___ ___ . ___ ___
 72
     65
 73
     6
 40
1.750000
 49
0.500000
 49
-0.250000
 49
0.500000
 49
-0.250000
 49
0.000000
 49
-0.250000
  0
LTYPE
  2
DOT
 70
     0
  3
.................
 72
     65
 73
     2
 40
0.250000
 49
0.000000
 49
-0.250000
  0
LTYPE
  2
DASHDOT
 70
     0
  3
__ . __ . __ . __
 72
     65
 73
     4
 40
1.000000
 49
0.500000
 49
-0.250000
 49
0.000000
 49
-0.250000
  0
LTYPE
  2
DIVIDE
 70
     0
  3
___ .. ___ .. ___ .. ___
 72
     65
 73
     6
 40
1.250000
 49
0.500000
 49
-0.250000
 49
0.000000
 49
-0.250000
 49
0.000000
 49
-0.250000
  0
ENDTAB
  0
TABLE
  2
LAYER
 70
     8
  0
LAYER
  2
BLACK
 70
     0
 62
     1
  6
CONTINUOUS
  0
LAYER
  2
WHITE
 70
     0
 62
     7
  6
CONTINUOUS
  0
LAYER
  2
RED
 70
     0
 62
     1
  6
CONTINUOUS
  0
LAYER
  2
YELLOW
 70
     0
 62
     2
  6
CONTINUOUS
  0
LAYER
  2
GREEN
 70
     0
 62
     3
  6
CONTINUOUS
  0
LAYER
  2
CYAN
 70
     0
 62
     4
  6
CONTINUOUS
  0
LAYER
  2
BLUE
 70
     0
 62
     5
  6
CONTINUOUS
  0
LAYER
  2
MAGENTA
 70
     0
 62
     6
  6
CONTINUOUS
  0
ENDTAB
  0
TABLE
  2
APPID
 70
     1
  0
APPID
  2
TC_BEND_DATA
 70
     0
  0
ENDTAB
  0
ENDSEC
  0
SECTION
  2
BLOCKS
  0
ENDSEC
  0
SECTION
  2
ENTITIES
  0
ARC
  8
WHITE
 10
11.873750
 20
11.873750
 30
0.000000
 40
11.873750
 50
-134.097613
 51
-45.902386
  6
CONTINUOUS
  0
LINE
  8
WHITE
 10
20.136489
 20
3.346554
 30
0.000000
 11
20.385017
 21
3.098026
 31
0.000000
  6
CONTINUOUS
  0
ARC
  8
WHITE
 10
20.406231
 20
3.119238
 30
0.000000
 40
0.030000
 50
-135.002701
 51
-45.000000
  6
CONTINUOUS
  0
LINE
  8
WHITE
 10
20.427444
 20
3.098025
 30
0.000000
 11
20.649475
 21
3.320056
 31
0.000000
  6
CONTINUOUS
  0
ARC
  8
WHITE
 10
20.628262
 20
3.341269
 30
0.000000
 40
0.030000
 50
-45.000007
 51
45.000001
  6
CONTINUOUS
  0
LINE
  8
WHITE
 10
20.649475
 20
3.362482
 30
0.000000
 11
20.400947
 21
3.611011
 31
0.000000
  6
CONTINUOUS
  0
ARC
  8
WHITE
 10
11.873750
 20
11.873750
 30
0.000000
 40
11.873750
 50
-44.097610
 51
89.097610
  6
CONTINUOUS
  0
LINE
  8
WHITE
 10
12.060750
 20
23.746027
 30
0.000000
 11
12.060750
 21
24.477500
 31
0.000000
  6
CONTINUOUS
  0
ARC
  8
WHITE
 10
12.030749
 20
24.477501
 30
0.000000
 40
0.030001
 50
-0.001910
 51
89.998090
  6
CONTINUOUS
  0
LINE
  8
WHITE
 10
12.030750
 20
24.507500
 30
0.000000
 11
11.981750
 21
24.507500
 31
0.000000
  6
CONTINUOUS
  0
ARC
  8
WHITE
 10
11.981750
 20
24.477500
 30
0.000000
 40
0.030000
 50
90.000002
 51
179.998090
  6
CONTINUOUS
  0
LINE
  8
WHITE
 10
11.951749
 20
24.477501
 30
0.000000
 11
11.951750
 21
24.257500
 31
0.000000
  6
CONTINUOUS
  0
ARC
  8
WHITE
 10
11.873750
 20
24.257500
 30
0.000000
 40
0.078000
 50
180.000000
 51
360.000000
  6
CONTINUOUS
  0
LINE
  8
WHITE
 10
11.795750
 20
24.257500
 30
0.000000
 11
11.795749
 21
24.477500
 31
0.000000
  6
CONTINUOUS
  0
ARC
  8
WHITE
 10
11.765750
 20
24.477501
 30
0.000000
 40
0.029999
 50
-0.001910
 51
90.000002
  6
CONTINUOUS
  0
LINE
  8
WHITE
 10
11.765750
 20
24.507501
 30
0.000000
 11
11.716750
 21
24.507500
 31
0.000000
  6
CONTINUOUS
  0
ARC
  8
WHITE
 10
11.716750
 20
24.477501
 30
0.000000
 40
0.029999
 50
90.000000
 51
180.001910
  6
CONTINUOUS
  0
LINE
  8
WHITE
 10
11.686750
 20
24.477500
 30
0.000000
 11
11.686750
 21
23.746027
 31
0.000000
  6
CONTINUOUS
  0
ARC
  8
WHITE
 10
11.873750
 20
11.873750
 30
0.000000
 40
11.873750
 50
90.902390
 51
224.097606
  6
CONTINUOUS
  0
LINE
  8
WHITE
 10
3.346553
 20
3.611012
 30
0.000000
 11
3.098025
 21
3.362483
 31
0.000000
  6
CONTINUOUS
  0
ARC
  8
WHITE
 10
3.119237
 20
3.341269
 30
0.000000
 40
0.030000
 50
134.997299
 51
225.000000
  6
CONTINUOUS
  0
LINE
  8
WHITE
 10
3.098024
 20
3.320056
 30
0.000000
 11
3.320055
 21
3.098025
 31
0.000000
  6
CONTINUOUS
  0
ARC
  8
WHITE
 10
3.341269
 20
3.119238
 30
0.000000
 40
0.030000
 50
-135.000004
 51
-45.000000
  6
CONTINUOUS
  0
LINE
  8
WHITE
 10
3.362482
 20
3.098025
 30
0.000000
 11
3.611010
 21
3.346554
 31
0.000000
  6
CONTINUOUS
  0
ARC
  8
WHITE
 10
15.038501
 20
12.161905
 30
0.000000
 40
2.354385
 50
64.072598
 51
95.667202
  6
CONTINUOUS
  0
ARC
  8
WHITE
 10
15.389570
 20
12.298102
 30
0.000000
 40
2.282539
 50
104.812996
 51
123.035873
  6
CONTINUOUS
  0
ARC
  8
WHITE
 10
14.101597
 20
14.278687
 30
0.000000
 40
0.080000
 50
-101.639106
 51
-56.962210
  6
CONTINUOUS
  0
ARC
  8
WHITE
 10
11.353710
 20
0.941512
 30
0.000000
 40
13.537310
 50
78.358118
 51
85.711638
  6
CONTINUOUS
  0
ARC
  8
WHITE
 10
12.331901
 20
14.072660
 30
0.000000
 40
0.369835
 50
84.713101
 51
113.719595
  6
CONTINUOUS
  0
ARC
  8
WHITE
 10
12.150950
 20
14.484495
 30
0.000000
 40
0.080000
 50
-144.948461
 51
-66.280364
  6
CONTINUOUS
  0
ARC
  8
WHITE
 10
18.446766
 20
18.901319
 30
0.000000
 40
7.770620
 50
-157.675604
 51
-144.948455
  6
CONTINUOUS
  0
ARC
  8
WHITE
 10
1.467552
 20
12.369501
 30
0.000000
 40
10.425040
 50
20.085261
 51
23.195223
  6
CONTINUOUS
  0
ARC
  8
WHITE
 10
9.410008
 20
15.408469
 30
0.000000
 40
1.956525
 50
33.052163
 51
54.223502
  6
CONTINUOUS
  0
ARC
  8
WHITE
 10
17.410410
 20
26.693884
 30
0.000000
 40
11.877090
 50
-127.324862
 51
-125.260414
  6
CONTINUOUS
  0
ARC
  8
WHITE
 10
10.173959
 20
17.191083
 30
0.000000
 40
0.067735
 50
58.918147
 51
185.658598
  6
CONTINUOUS
  0
ARC
  8
WHITE
 10
14.332313
 20
17.851785
 30
0.000000
 40
4.278135
 50
-171.025311
 51
-169.339569
  6
CONTINUOUS
  0
ARC
  8
WHITE
 10
10.409386
 20
18.063040
 30
0.000000
 40
1.041390
 50
-132.271712
 51
-105.675393
  6
CONTINUOUS
  0
ARC
  8
WHITE
 10
7.784341
 20
15.122973
 30
0.000000
 40
2.900094
 50
48.423557
 51
65.098172
  6
CONTINUOUS
  0
ARC
  8
WHITE
 10
1.195051
 20
8.059635
 30
0.000000
 40
12.448800
 50
51.141202
 51
59.095200
  6
CONTINUOUS
  0
ARC
  8
WHITE
 10
9.964823
 20
21.783516
 30
0.000000
 40
3.860307
 50
-155.062033
 51
-127.986130
  6
CONTINUOUS
  0
ARC
  8
WHITE
 10
6.412724
 20
20.131878
 30
0.000000
 40
0.057004
 50
24.889272
 51
168.746039
  6
CONTINUOUS
  0
ARC
  8
WHITE
 10
8.165391
 20
19.781115
 30
0.000000
 40
1.844425
 50
168.684799
 51
181.388166
  6
CONTINUOUS
  0
ARC
  8
WHITE
 10
6.301513
 20
19.735948
 30
0.000000
 40
0.020000
 50
-139.148004
 51
1.388155
  6
CONTINUOUS
  0
ARC
  8
WHITE
 10
1.521470
 20
15.602350
 30
0.000000
 40
6.299450
 50
40.851994
 51
43.952701
  6
CONTINUOUS
  0
ARC
  8
WHITE
 10
6.015474
 20
19.934983
 30
0.000000
 40
0.057032
 50
43.962194
 51
176.815269
  6
CONTINUOUS
  0
ARC
  8
WHITE
 10
8.301536
 20
19.809140
 30
0.000000
 40
2.346554
 50
176.848337
 51
193.321500
  6
CONTINUOUS
  0
ARC
  8
WHITE
 10
5.998660
 20
19.263852
 30
0.000000
 40
0.020000
 50
-116.467173
 51
13.317043
  6
CONTINUOUS
  0
ARC
  8
WHITE
 10
6.325715
 20
19.920765
 30
0.000000
 40
0.753825
 50
-127.848209
 51
-116.467177
  6
CONTINUOUS
  0
ARC
  8
WHITE
 10
5.828271
 20
19.280409
 30
0.000000
 40
0.057042
 50
52.255543
 51
186.180778
  6
CONTINUOUS
  0
ARC
  8
WHITE
 10
7.458211
 20
19.459540
 30
0.000000
 40
1.696795
 50
-173.731411
 51
-151.275319
  6
CONTINUOUS
  0
ARC
  8
WHITE
 10
5.952686
 20
18.634446
 30
0.000000
 40
0.020000
 50
-100.715965
 51
28.724701
  6
CONTINUOUS
  0
ARC
  8
WHITE
 10
6.871681
 20
23.490675
 30
0.000000
 40
4.962420
 50
-103.447604
 51
-100.715959
  6
CONTINUOUS
  0
ARC
  8
WHITE
 10
5.704358
 20
18.608924
 30
0.000000
 40
0.056956
 50
76.515288
 51
198.102965
  6
CONTINUOUS
  0
ARC
  8
WHITE
 10
7.345351
 20
19.146989
 30
0.000000
 40
1.783910
 50
-161.847811
 51
-142.081091
  6
CONTINUOUS
  0
ARC
  8
WHITE
 10
5.922280
 20
18.038404
 30
0.000000
 40
0.020000
 50
-66.445682
 51
37.918906
  6
CONTINUOUS
  0
ARC
  8
WHITE
 10
8.560401
 20
11.986839
 30
0.000000
 40
6.581600
 50
113.554327
 51
115.252202
  6
CONTINUOUS
  0
ARC
  8
WHITE
 10
5.777042
 20
17.887977
 30
0.000000
 40
0.056992
 50
115.320932
 51
213.406574
  6
CONTINUOUS
  0
ARC
  8
WHITE
 10
6.601026
 20
18.430215
 30
0.000000
 40
1.043385
 50
-146.649110
 51
-122.378620
  6
CONTINUOUS
  0
ARC
  8
WHITE
 10
6.031571
 20
17.532157
 30
0.000000
 40
0.020000
 50
-49.165629
 51
57.621315
  6
CONTINUOUS
  0
ARC
  8
WHITE
 10
5.101261
 20
18.608625
 30
0.000000
 40
1.442765
 50
-54.709013
 51
-49.165621
  6
CONTINUOUS
  0
ARC
  8
WHITE
 10
5.967696
 20
17.384508
 30
0.000000
 40
0.056959
 50
125.292189
 51
221.518662
  6
CONTINUOUS
  0
ARC
  8
WHITE
 10
7.646311
 20
18.870635
 30
0.000000
 40
2.298905
 50
-138.480600
 51
-126.923089
  6
CONTINUOUS
  0
ARC
  8
WHITE
 10
6.253246
 20
17.016803
 30
0.000000
 40
0.020000
 50
-38.936767
 51
53.076915
  6
CONTINUOUS
  0
ARC
  8
WHITE
 10
6.101801
 20
17.139165
 30
0.000000
 40
0.214700
 50
-46.142617
 51
-38.936923
  6
CONTINUOUS
  0
ARC
  8
WHITE
 10
6.290044
 20
16.943226
 30
0.000000
 40
0.057012
 50
133.834009
 51
234.839560
  6
CONTINUOUS
  0
ARC
  8
WHITE
 10
6.986916
 20
17.930895
 30
0.000000
 40
1.265780
 50
-125.203696
 51
-98.727224
  6
CONTINUOUS
  0
ARC
  8
WHITE
 10
6.791824
 20
16.660002
 30
0.000000
 40
0.020000
 50
-33.547203
 51
81.272795
  6
CONTINUOUS
  0
ARC
  8
WHITE
 10
4.754511
 20
18.010885
 30
0.000000
 40
2.464490
 50
-37.747194
 51
-33.547201
  6
CONTINUOUS
  0
ARC
  8
WHITE
 10
6.748370
 20
16.467324
 30
0.000000
 40
0.057028
 50
142.327008
 51
225.659258
  6
CONTINUOUS
  0
ARC
  8
WHITE
 10
7.042966
 20
16.769425
 30
0.000000
 40
0.478990
 50
-134.286700
 51
-85.680960
  6
CONTINUOUS
  0
ARC
  8
WHITE
 10
7.080545
 20
16.271852
 30
0.000000
 40
0.020000
 50
-17.031340
 51
94.319072
  6
CONTINUOUS
  0
ARC
  8
WHITE
 10
6.805276
 20
16.356175
 30
0.000000
 40
0.307895
 50
-29.147412
 51
-17.031367
  6
CONTINUOUS
  0
ARC
  8
WHITE
 10
7.124001
 20
16.178525
 30
0.000000
 40
0.056996
 50
150.936582
 51
242.960104
  6
CONTINUOUS
  0
ARC
  8
WHITE
 10
7.364826
 20
16.650865
 30
0.000000
 40
0.587195
 50
-117.017414
 51
-83.095102
  6
CONTINUOUS
  0
ARC
  8
WHITE
 10
7.437824
 20
16.048074
 30
0.000000
 40
0.020000
 50
-12.048008
 51
96.904857
  6
CONTINUOUS
  0
ARC
  8
WHITE
 10
7.956296
 20
15.937415
 30
0.000000
 40
0.510150
 50
167.951966
 51
191.988790
  6
CONTINUOUS
  0
ARC
  8
WHITE
 10
7.513026
 20
15.843269
 30
0.000000
 40
0.056992
 50
-168.027626
 51
-112.668414
  6
CONTINUOUS
  0
ARC
  8
WHITE
 10
7.714532
 20
16.325904
 30
0.000000
 40
0.580012
 50
-112.661872
 51
-79.367054
  6
CONTINUOUS
  0
ARC
  8
WHITE
 10
6.981084
 20
15.649957
 30
0.000000
 40
0.847115
 50
-2.350719
 51
7.181063
  6
CONTINUOUS
  0
ARC
  8
WHITE
 10
7.842297
 20
16.456972
 30
0.000000
 40
0.841890
 50
-134.386375
 51
-91.008021
  6
CONTINUOUS
  0
ARC
  8
WHITE
 10
7.426610
 20
25.670526
 30
0.000000
 40
9.816730
 50
-97.217865
 51
-91.010997
  6
CONTINUOUS
  0
ARC
  8
WHITE
 10
3.643453
 20
8.953449
 30
0.000000
 40
7.429380
 50
69.928096
 51
75.746130
  6
CONTINUOUS
  0
ARC
  8
WHITE
 10
14.093200
 20
41.212545
 30
0.000000
 40
26.499775
 50
-112.307015
 51
-108.984018
  6
CONTINUOUS
  0
ARC
  8
WHITE
 10
-1.810559
 20
3.720890
 30
0.000000
 40
14.230902
 50
65.748435
 51
68.552901
  6
CONTINUOUS
  0
ARC
  8
WHITE
 10
5.351835
 20
21.115557
 30
0.000000
 40
4.588380
 50
-130.005343
 51
-115.273721
  6
CONTINUOUS
  0
ARC
  8
WHITE
 10
11.873750
 20
11.873750
 30
0.000000
 40
11.068501
 50
-20.182411
 51
148.839953
  6
CONTINUOUS
  0
ARC
  8
WHITE
 10
22.243861
 20
8.061906
 30
0.000000
 40
0.020000
 50
-96.059360
 51
-20.182406
  6
CONTINUOUS
  0
LINE
  8
WHITE
 10
22.241749
 20
8.042018
 30
0.000000
 11
21.941600
 21
8.073879
 31
0.000000
  6
CONTINUOUS
  0
LINE
  8
WHITE
 10
21.941600
 20
8.073879
 30
0.000000
 11
21.880611
 21
8.072815
 31
0.000000
  6
CONTINUOUS
  0
LINE
  8
WHITE
 10
21.880611
 20
8.072815
 30
0.000000
 11
21.379227
 21
7.990288
 31
0.000000
  6
CONTINUOUS
  0
ARC
  8
WHITE
 10
21.584651
 20
8.208545
 30
0.000000
 40
0.299725
 50
150.078900
 51
226.734891
  6
CONTINUOUS
  0
ARC
  8
WHITE
 10
21.842008
 20
7.573780
 30
0.000000
 40
0.939418
 50
87.717511
 51
123.400095
  6
CONTINUOUS
  0
ARC
  8
WHITE
 10
21.882447
 20
8.588385
 30
0.000000
 40
0.076000
 50
-92.281610
 51
-33.135915
  6
CONTINUOUS
  0
LINE
  8
WHITE
 10
21.946087
 20
8.546841
 30
0.000000
 11
22.021599
 21
8.662557
 31
0.000000
  6
CONTINUOUS
  0
ARC
  8
WHITE
 10
21.957959
 20
8.704101
 30
0.000000
 40
0.076000
 50
-33.135915
 51
9.595900
  6
CONTINUOUS
  0
LINE
  8
WHITE
 10
22.032895
 20
8.716770
 30
0.000000
 11
22.003180
 21
8.892909
 31
0.000000
  6
CONTINUOUS
  0
ARC
  8
WHITE
 10
21.975079
 20
8.888158
 30
0.000000
 40
0.028500
 50
9.595899
 51
130.805596
  6
CONTINUOUS
  0
LINE
  8
WHITE
 10
21.956454
 20
8.909731
 30
0.000000
 11
21.915466
 21
8.874341
 31
0.000000
  6
CONTINUOUS
  0
ARC
  8
WHITE
 10
21.896842
 20
8.895914
 30
0.000000
 40
0.028500
 50
-176.878898
 51
-49.194400
  6
CONTINUOUS
  0
LINE
  8
WHITE
 10
21.868384
 20
8.894362
 30
0.000000
 11
21.860631
 21
9.036863
 31
0.000000
  6
CONTINUOUS
  0
ARC
  8
WHITE
 10
21.832174
 20
9.035311
 30
0.000000
 40
0.028500
 50
3.121099
 51
156.613587
  6
CONTINUOUS
  0
LINE
  8
WHITE
 10
21.806015
 20
9.046624
 30
0.000000
 11
21.756718
 21
8.932709
 31
0.000000
  6
CONTINUOUS
  0
LINE
  8
WHITE
 10
21.756718
 20
8.932709
 30
0.000000
 11
21.753493
 21
9.117455
 31
0.000000
  6
CONTINUOUS
  0
ARC
  8
WHITE
 10
21.724998
 20
9.116958
 30
0.000000
 40
0.028500
 50
1.000001
 51
157.929601
  6
CONTINUOUS
  0
LINE
  8
WHITE
 10
21.698586
 20
9.127667
 30
0.000000
 11
21.641380
 21
8.986606
 31
0.000000
  6
CONTINUOUS
  0
ARC
  8
WHITE
 10
21.614969
 20
8.997315
 30
0.000000
 40
0.028500
 50
-149.395501
 51
-22.070408
  6
CONTINUOUS
  0
LINE
  8
WHITE
 10
21.590439
 20
8.982805
 30
0.000000
 11
21.543038
 21
9.062949
 31
0.000000
  6
CONTINUOUS
  0
LINE
  8
WHITE
 10
21.543038
 20
9.062949
 30
0.000000
 11
21.537178
 21
9.213121
 31
0.000000
  6
CONTINUOUS
  0
ARC
  8
WHITE
 10
21.508701
 20
9.211998
 30
0.000000
 40
0.028500
 50
2.259000
 51
155.680296
  6
CONTINUOUS
  0
LINE
  8
WHITE
 10
21.482730
 20
9.223735
 30
0.000000
 11
21.406268
 21
9.054576
 31
0.000000
  6
CONTINUOUS
  0
LINE
  8
WHITE
 10
21.406268
 20
9.054576
 30
0.000000
 11
21.412103
 21
8.867135
 31
0.000000
  6
CONTINUOUS
  0
ARC
  8
WHITE
 10
21.383617
 20
8.866242
 30
0.000000
 40
0.028500
 50
-84.732093
 51
1.795700
  6
CONTINUOUS
  0
LINE
  8
WHITE
 10
21.386233
 20
8.837862
 30
0.000000
 11
21.213839
 21
8.821947
 31
0.000000
  6
CONTINUOUS
  0
LINE
  8
WHITE
 10
21.213839
 20
8.821947
 30
0.000000
 11
21.033690
 21
8.935003
 31
0.000000
  6
CONTINUOUS
  0
ARC
  8
WHITE
 10
21.044322
 20
8.951943
 30
0.000000
 40
0.020000
 50
121.064925
 51
237.888743
  6
CONTINUOUS
  0
LINE
  8
WHITE
 10
21.034001
 20
8.969075
 30
0.000000
 11
21.067541
 21
8.989279
 31
0.000000
  6
CONTINUOUS
  0
ARC
  8
WHITE
 10
21.052815
 20
9.013699
 30
0.000000
 40
0.028516
 50
-58.909603
 51
83.054142
  6
CONTINUOUS
  0
LINE
  8
WHITE
 10
21.056264
 20
9.042006
 30
0.000000
 11
20.957170
 21
9.053956
 31
0.000000
  6
CONTINUOUS
  0
ARC
  8
WHITE
 10
20.959565
 20
9.073812
 30
0.000000
 40
0.020000
 50
-160.856668
 51
-96.876442
  6
CONTINUOUS
  0
LINE
  8
WHITE
 10
20.940671
 20
9.067253
 30
0.000000
 11
20.886748
 21
9.222563
 31
0.000000
  6
CONTINUOUS
  0
ARC
  8
WHITE
 10
20.859821
 20
9.213226
 30
0.000000
 40
0.028500
 50
19.125906
 51
72.125970
  6
CONTINUOUS
  0
LINE
  8
WHITE
 10
20.868569
 20
9.240350
 30
0.000000
 11
20.699433
 21
9.295357
 31
0.000000
  6
CONTINUOUS
  0
LINE
  8
WHITE
 10
20.699433
 20
9.295357
 30
0.000000
 11
20.607349
 21
9.481308
 31
0.000000
  6
CONTINUOUS
  0
LINE
  8
WHITE
 10
20.607349
 20
9.481308
 30
0.000000
 11
20.319365
 21
9.666120
 31
0.000000
  6
CONTINUOUS
  0
LINE
  8
WHITE
 10
20.319365
 20
9.666120
 30
0.000000
 11
20.276060
 21
9.741797
 31
0.000000
  6
CONTINUOUS
  0
ARC
  8
WHITE
 10
20.300789
 20
9.755965
 30
0.000000
 40
0.028500
 50
91.000003
 51
209.810790
  6
CONTINUOUS
  0
LINE
  8
WHITE
 10
20.300291
 20
9.784461
 30
0.000000
 11
20.382549
 21
9.785896
 31
0.000000
  6
CONTINUOUS
  0
LINE
  8
WHITE
 10
20.382549
 20
9.785896
 30
0.000000
 11
20.517879
 21
9.687409
 31
0.000000
  6
CONTINUOUS
  0
ARC
  8
WHITE
 10
20.534654
 20
9.710449
 30
0.000000
 40
0.028500
 50
-126.056512
 51
-71.349894
  6
CONTINUOUS
  0
LINE
  8
WHITE
 10
20.543768
 20
9.683446
 30
0.000000
 11
20.650419
 21
9.719394
 31
0.000000
  6
CONTINUOUS
  0
ARC
  8
WHITE
 10
20.659533
 20
9.692391
 30
0.000000
 40
0.028500
 50
71.277703
 51
108.650100
  6
CONTINUOUS
  0
LINE
  8
WHITE
 10
20.668681
 20
9.719383
 30
0.000000
 11
20.807940
 21
9.672216
 31
0.000000
  6
CONTINUOUS
  0
ARC
  8
WHITE
 10
20.798792
 20
9.645224
 30
0.000000
 40
0.028500
 50
31.630001
 51
71.277703
  6
CONTINUOUS
  0
LINE
  8
WHITE
 10
20.823058
 20
9.660170
 30
0.000000
 11
20.929031
 21
9.488078
 31
0.000000
  6
CONTINUOUS
  0
ARC
  8
WHITE
 10
20.953298
 20
9.503024
 30
0.000000
 40
0.028500
 50
-148.370003
 51
-28.134303
  6
CONTINUOUS
  0
LINE
  8
WHITE
 10
20.978430
 20
9.489585
 30
0.000000
 11
21.031425
 21
9.588665
 31
0.000000
  6
CONTINUOUS
  0
ARC
  8
WHITE
 10
21.056581
 20
9.575285
 30
0.000000
 40
0.028493
 50
36.330456
 51
151.993611
  6
CONTINUOUS
  0
LINE
  8
WHITE
 10
21.079536
 20
9.592166
 30
0.000000
 11
21.186397
 21
9.446948
 31
0.000000
  6
CONTINUOUS
  0
LINE
  8
WHITE
 10
21.186397
 20
9.446948
 30
0.000000
 11
21.222085
 21
9.435342
 31
0.000000
  6
CONTINUOUS
  0
ARC
  8
WHITE
 10
21.230878
 20
9.462452
 30
0.000000
 40
0.028500
 50
-107.970417
 51
23.270300
  6
CONTINUOUS
  0
LINE
  8
WHITE
 10
21.257059
 20
9.473711
 30
0.000000
 11
21.152021
 21
9.717995
 31
0.000000
  6
CONTINUOUS
  0
ARC
  8
WHITE
 10
21.178272
 20
9.729204
 30
0.000000
 40
0.028544
 50
172.718564
 51
203.121301
  6
CONTINUOUS
  0
LINE
  8
WHITE
 10
21.149958
 20
9.732822
 30
0.000000
 11
21.162126
 21
9.830383
 31
0.000000
  6
CONTINUOUS
  0
ARC
  8
WHITE
 10
21.133852
 20
9.833932
 30
0.000000
 40
0.028495
 50
-7.154182
 51
102.945086
  6
CONTINUOUS
  0
LINE
  8
WHITE
 10
21.127469
 20
9.861703
 30
0.000000
 11
21.033128
 21
9.839960
 31
0.000000
  6
CONTINUOUS
  0
ARC
  8
WHITE
 10
21.026744
 20
9.867736
 30
0.000000
 40
0.028500
 50
-147.477803
 51
-77.055807
  6
CONTINUOUS
  0
LINE
  8
WHITE
 10
21.002713
 20
9.852414
 30
0.000000
 11
20.880548
 21
10.044082
 31
0.000000
  6
CONTINUOUS
  0
ARC
  8
WHITE
 10
20.856518
 20
10.028760
 30
0.000000
 40
0.028500
 50
32.522202
 51
83.405399
  6
CONTINUOUS
  0
LINE
  8
WHITE
 10
20.859791
 20
10.057071
 30
0.000000
 11
20.613082
 21
10.085570
 31
0.000000
  6
CONTINUOUS
  0
ARC
  8
WHITE
 10
20.616355
 20
10.113881
 30
0.000000
 40
0.028500
 50
-125.573018
 51
-96.594601
  6
CONTINUOUS
  0
LINE
  8
WHITE
 10
20.599775
 20
10.090700
 30
0.000000
 11
20.335181
 21
10.280006
 31
0.000000
  6
CONTINUOUS
  0
ARC
  8
WHITE
 10
20.351761
 20
10.303187
 30
0.000000
 40
0.028500
 50
-167.012008
 51
-125.573018
  6
CONTINUOUS
  0
LINE
  8
WHITE
 10
20.323990
 20
10.296782
 30
0.000000
 11
20.290325
 21
10.442547
 31
0.000000
  6
CONTINUOUS
  0
LINE
  8
WHITE
 10
20.290325
 20
10.442547
 30
0.000000
 11
20.304201
 21
10.528141
 31
0.000000
  6
CONTINUOUS
  0
ARC
  8
WHITE
 10
20.332332
 20
10.523567
 30
0.000000
 40
0.028500
 50
37.995300
 51
170.765193
  6
CONTINUOUS
  0
LINE
  8
WHITE
 10
20.354791
 20
10.541112
 30
0.000000
 11
20.405403
 21
10.476430
 31
0.000000
  6
CONTINUOUS
  0
ARC
  8
WHITE
 10
20.427863
 20
10.493975
 30
0.000000
 40
0.028500
 50
-142.004704
 51
-29.774014
  6
CONTINUOUS
  0
LINE
  8
WHITE
 10
20.452600
 20
10.479822
 30
0.000000
 11
20.531384
 21
10.617638
 31
0.000000
  6
CONTINUOUS
  0
ARC
  8
WHITE
 10
20.556122
 20
10.603485
 30
0.000000
 40
0.028500
 50
98.275002
 51
150.225995
  6
CONTINUOUS
  0
LINE
  8
WHITE
 10
20.552020
 20
10.631688
 30
0.000000
 11
20.620637
 21
10.641627
 31
0.000000
  6
CONTINUOUS
  0
ARC
  8
WHITE
 10
20.624739
 20
10.613424
 30
0.000000
 40
0.028500
 50
42.257002
 51
98.275002
  6
CONTINUOUS
  0
LINE
  8
WHITE
 10
20.645833
 20
10.632589
 30
0.000000
 11
20.733209
 21
10.536376
 31
0.000000
  6
CONTINUOUS
  0
ARC
  8
WHITE
 10
20.754303
 20
10.555541
 30
0.000000
 40
0.028500
 50
-137.743008
 51
-91.161103
  6
CONTINUOUS
  0
LINE
  8
WHITE
 10
20.753725
 20
10.527047
 30
0.000000
 11
20.830364
 21
10.525514
 31
0.000000
  6
CONTINUOUS
  0
ARC
  8
WHITE
 10
20.829797
 20
10.497000
 30
0.000000
 40
0.028519
 50
15.522935
 51
88.860641
  6
CONTINUOUS
  0
LINE
  8
WHITE
 10
20.857276
 20
10.504633
 30
0.000000
 11
20.886431
 21
10.399838
 31
0.000000
  6
CONTINUOUS
  0
ARC
  8
WHITE
 10
20.913864
 20
10.407397
 30
0.000000
 40
0.028456
 50
-164.595845
 51
-50.615194
  6
CONTINUOUS
  0
LINE
  8
WHITE
 10
20.931921
 20
10.385403
 30
0.000000
 11
21.008441
 21
10.448145
 31
0.000000
  6
CONTINUOUS
  0
ARC
  8
WHITE
 10
21.026463
 20
10.426007
 30
0.000000
 40
0.028546
 50
28.139487
 51
129.149106
  6
CONTINUOUS
  0
LINE
  8
WHITE
 10
21.051635
 20
10.439470
 30
0.000000
 11
21.083852
 21
10.379151
 31
0.000000
  6
CONTINUOUS
  0
ARC
  8
WHITE
 10
21.108972
 20
10.392810
 30
0.000000
 40
0.028594
 50
-151.464350
 51
-8.204132
  6
CONTINUOUS
  0
LINE
  8
WHITE
 10
21.137273
 20
10.388730
 30
0.000000
 11
21.163328
 21
10.580975
 31
0.000000
  6
CONTINUOUS
  0
ARC
  8
WHITE
 10
21.135086
 20
10.584801
 30
0.000000
 40
0.028500
 50
-7.714716
 51
14.851399
  6
CONTINUOUS
  0
LINE
  8
WHITE
 10
21.162634
 20
10.592106
 30
0.000000
 11
21.128869
 21
10.719311
 31
0.000000
  6
CONTINUOUS
  0
ARC
  8
WHITE
 10
21.101321
 20
10.712006
 30
0.000000
 40
0.028500
 50
14.851399
 51
81.537699
  6
CONTINUOUS
  0
LINE
  8
WHITE
 10
21.105515
 20
10.740196
 30
0.000000
 11
21.024129
 21
10.752370
 31
0.000000
  6
CONTINUOUS
  0
LINE
  8
WHITE
 10
21.024129
 20
10.752370
 30
0.000000
 11
20.693510
 21
10.985477
 31
0.000000
  6
CONTINUOUS
  0
ARC
  8
WHITE
 10
20.677085
 20
10.962186
 30
0.000000
 40
0.028500
 50
54.806800
 51
117.565095
  6
CONTINUOUS
  0
LINE
  8
WHITE
 10
20.663896
 20
10.987451
 30
0.000000
 11
20.632652
 21
10.971101
 31
0.000000
  6
CONTINUOUS
  0
ARC
  8
WHITE
 10
20.619524
 20
10.996454
 30
0.000000
 40
0.028550
 50
-136.856396
 51
-62.624983
  6
CONTINUOUS
  0
LINE
  8
WHITE
 10
20.598692
 20
10.976931
 30
0.000000
 11
20.471220
 21
11.112801
 31
0.000000
  6
CONTINUOUS
  0
ARC
  8
WHITE
 10
20.518452
 20
11.253771
 30
0.000000
 40
0.148672
 50
149.827494
 51
251.476574
  6
CONTINUOUS
  0
ARC
  8
WHITE
 10
20.432105
 20
11.290650
 30
0.000000
 40
0.056673
 50
51.562835
 51
138.103423
  6
CONTINUOUS
  0
ARC
  8
WHITE
 10
20.722252
 20
11.498583
 30
0.000000
 40
0.302860
 50
-147.318279
 51
-82.994359
  6
CONTINUOUS
  0
ARC
  8
WHITE
 10
20.301518
 20
9.186176
 30
0.000000
 40
2.063210
 50
65.779100
 51
77.183699
  6
CONTINUOUS
  0
ARC
  8
WHITE
 10
21.159677
 20
11.093733
 30
0.000000
 40
0.028491
 50
-114.280425
 51
15.286588
  6
CONTINUOUS
  0
ARC
  8
WHITE
 10
20.930525
 20
11.031281
 30
0.000000
 40
0.266000
 50
15.249363
 51
63.918605
  6
CONTINUOUS
  0
ARC
  8
WHITE
 10
21.172050
 20
11.715461
 30
0.000000
 40
0.462365
 50
-137.119338
 51
-105.630727
  6
CONTINUOUS
  0
ARC
  8
WHITE
 10
20.590835
 20
11.249334
 30
0.000000
 40
0.285855
 50
32.004600
 51
84.874499
  6
CONTINUOUS
  0
ARC
  8
WHITE
 10
20.423002
 20
11.457381
 30
0.000000
 40
0.208013
 50
21.626733
 51
72.667307
  6
CONTINUOUS
  0
ARC
  8
WHITE
 10
21.573419
 20
12.605235
 30
0.000000
 40
1.444250
 50
-146.149571
 51
-138.906713
  6
CONTINUOUS
  0
ARC
  8
WHITE
 10
20.397650
 20
11.816619
 30
0.000000
 40
0.028500
 50
101.466401
 51
213.836995
  6
CONTINUOUS
  0
ARC
  8
WHITE
 10
20.501672
 20
11.304323
 30
0.000000
 40
0.551250
 50
76.247441
 51
101.477314
  6
CONTINUOUS
  0
ARC
  8
WHITE
 10
20.749396
 20
12.172045
 30
0.000000
 40
0.352165
 50
-109.348414
 51
-87.101284
  6
CONTINUOUS
  0
ARC
  8
WHITE
 10
20.765745
 20
11.848793
 30
0.000000
 40
0.028500
 50
-87.061707
 51
46.569800
  6
CONTINUOUS
  0
ARC
  8
WHITE
 10
19.161685
 20
10.155034
 30
0.000000
 40
2.361272
 50
46.558172
 51
52.566305
  6
CONTINUOUS
  0
ARC
  8
WHITE
 10
20.572205
 20
11.342313
 30
0.000000
 40
0.688152
 50
81.624028
 51
87.937796
  6
CONTINUOUS
  0
ARC
  8
WHITE
 10
20.676602
 20
12.051328
 30
0.000000
 40
0.028500
 50
-98.381105
 51
43.178901
  6
CONTINUOUS
  0
ARC
  8
WHITE
 10
20.293571
 20
11.691690
 30
0.000000
 40
0.553906
 50
43.195024
 51
80.938993
  6
CONTINUOUS
  0
ARC
  8
WHITE
 10
19.519459
 20
11.085641
 30
0.000000
 40
1.439244
 50
53.239570
 51
64.275099
  6
CONTINUOUS
  0
ARC
  8
WHITE
 10
20.331896
 20
12.567422
 30
0.000000
 40
0.263691
 50
-174.701235
 51
-135.392238
  6
CONTINUOUS
  0
LINE
  8
WHITE
 10
20.069332
 20
12.543070
 30
0.000000
 11
20.063169
 21
12.711350
 31
0.000000
  6
CONTINUOUS
  0
ARC
  8
WHITE
 10
20.091650
 20
12.712395
 30
0.000000
 40
0.028500
 50
114.749498
 51
182.101695
  6
CONTINUOUS
  0
LINE
  8
WHITE
 10
20.079718
 20
12.738277
 30
0.000000
 11
20.139195
 21
12.765634
 31
0.000000
  6
CONTINUOUS
  0
ARC
  8
WHITE
 10
20.151127
 20
12.739752
 30
0.000000
 40
0.028500
 50
62.975497
 51
114.749498
  6
CONTINUOUS
  0
LINE
  8
WHITE
 10
20.164076
 20
12.765140
 30
0.000000
 11
20.288519
 21
12.701786
 31
0.000000
  6
CONTINUOUS
  0
ARC
  8
WHITE
 10
20.301469
 20
12.727174
 30
0.000000
 40
0.028500
 50
-117.024517
 51
31.011401
  6
CONTINUOUS
  0
LINE
  8
WHITE
 10
20.325895
 20
12.741857
 30
0.000000
 11
20.247659
 21
12.871974
 31
0.000000
  6
CONTINUOUS
  0
ARC
  8
WHITE
 10
20.312796
 20
12.911130
 30
0.000000
 40
0.076000
 50
169.407789
 51
211.011400
  6
CONTINUOUS
  0
LINE
  8
WHITE
 10
20.238091
 20
12.925100
 30
0.000000
 11
20.251155
 21
12.995115
 31
0.000000
  6
CONTINUOUS
  0
ARC
  8
WHITE
 10
20.176450
 20
13.009085
 30
0.000000
 40
0.076000
 50
-10.592193
 51
29.926402
  6
CONTINUOUS
  0
LINE
  8
WHITE
 10
20.242316
 20
13.047000
 30
0.000000
 11
20.200672
 21
13.119339
 31
0.000000
  6
CONTINUOUS
  0
ARC
  8
WHITE
 10
20.134772
 20
13.081482
 30
0.000000
 40
0.076000
 50
29.875726
 51
70.715643
  6
CONTINUOUS
  0
LINE
  8
WHITE
 10
20.159872
 20
13.153218
 30
0.000000
 11
20.086497
 21
13.178762
 31
0.000000
  6
CONTINUOUS
  0
ARC
  8
WHITE
 10
20.111522
 20
13.250524
 30
0.000000
 40
0.076000
 50
-144.799509
 51
-109.224905
  6
CONTINUOUS
  0
LINE
  8
WHITE
 10
20.049419
 20
13.206715
 30
0.000000
 11
19.848497
 21
13.491450
 31
0.000000
  6
CONTINUOUS
  0
ARC
  8
WHITE
 10
19.871779
 20
13.507906
 30
0.000000
 40
0.028510
 50
125.824286
 51
215.252581
  6
CONTINUOUS
  0
LINE
  8
WHITE
 10
19.855091
 20
13.531022
 30
0.000000
 11
19.893530
 21
13.558720
 31
0.000000
  6
CONTINUOUS
  0
ARC
  8
WHITE
 10
19.876849
 20
13.581828
 30
0.000000
 40
0.028500
 50
-54.175492
 51
0.428203
  6
CONTINUOUS
  0
LINE
  8
WHITE
 10
19.905349
 20
13.582041
 30
0.000000
 11
19.903979
 21
13.823679
 31
0.000000
  6
CONTINUOUS
  0
ARC
  8
WHITE
 10
19.875480
 20
13.823521
 30
0.000000
 40
0.028500
 50
0.317893
 51
53.174726
  6
CONTINUOUS
  0
LINE
  8
WHITE
 10
19.892565
 20
13.846338
 30
0.000000
 11
19.840539
 21
13.885110
 31
0.000000
  6
CONTINUOUS
  0
ARC
  8
WHITE
 10
19.857569
 20
13.907962
 30
0.000000
 40
0.028500
 50
-167.157901
 51
-126.694206
  6
CONTINUOUS
  0
LINE
  8
WHITE
 10
19.829782
 20
13.901627
 30
0.000000
 11
19.807379
 21
13.999684
 31
0.000000
  6
CONTINUOUS
  0
ARC
  8
WHITE
 10
19.779592
 20
13.993349
 30
0.000000
 40
0.028500
 50
12.842099
 51
158.714389
  6
CONTINUOUS
  0
LINE
  8
WHITE
 10
19.753036
 20
14.003695
 30
0.000000
 11
19.712312
 21
13.899082
 31
0.000000
  6
CONTINUOUS
  0
ARC
  8
WHITE
 10
19.685757
 20
13.909428
 30
0.000000
 40
0.028500
 50
-49.440314
 51
-21.285619
  6
CONTINUOUS
  0
LINE
  8
WHITE
 10
19.704288
 20
13.887776
 30
0.000000
 11
19.645492
 21
13.837465
 31
0.000000
  6
CONTINUOUS
  0
ARC
  8
WHITE
 10
19.663989
 20
13.815817
 30
0.000000
 40
0.028475
 50
130.512259
 51
174.693892
  6
CONTINUOUS
  0
LINE
  8
WHITE
 10
19.635636
 20
13.818450
 30
0.000000
 11
19.616236
 21
13.607179
 31
0.000000
  6
CONTINUOUS
  0
ARC
  8
WHITE
 10
19.644617
 20
13.604569
 30
0.000000
 40
0.028500
 50
174.745991
 51
222.987194
  6
CONTINUOUS
  0
LINE
  8
WHITE
 10
19.623769
 20
13.585137
 30
0.000000
 11
19.663271
 21
13.542820
 31
0.000000
  6
CONTINUOUS
  0
ARC
  8
WHITE
 10
19.642393
 20
13.523420
 30
0.000000
 40
0.028500
 50
-15.727445
 51
42.898623
  6
CONTINUOUS
  0
LINE
  8
WHITE
 10
19.669826
 20
13.515695
 30
0.000000
 11
19.580872
 21
13.198034
 31
0.000000
  6
CONTINUOUS
  0
ARC
  8
WHITE
 10
19.553429
 20
13.205722
 30
0.000000
 40
0.028500
 50
-66.870902
 51
-15.650111
  6
CONTINUOUS
  0
ARC
  8
WHITE
 10
20.176045
 20
11.747167
 30
0.000000
 40
1.557386
 50
113.116057
 51
121.048962
  6
CONTINUOUS
  0
ARC
  8
WHITE
 10
19.618549
 20
12.799979
 30
0.000000
 40
0.373640
 50
131.127654
 51
181.609048
  6
CONTINUOUS
  0
ARC
  8
WHITE
 10
19.273546
 20
12.790279
 30
0.000000
 40
0.028500
 50
-178.407509
 51
-64.415011
  6
CONTINUOUS
  0
ARC
  8
WHITE
 10
18.996697
 20
13.368240
 30
0.000000
 40
0.669346
 50
-64.405543
 51
-40.805655
  6
CONTINUOUS
  0
ARC
  8
WHITE
 10
19.524917
 20
12.912199
 30
0.000000
 40
0.028500
 50
83.020498
 51
139.190389
  6
CONTINUOUS
  0
ARC
  8
WHITE
 10
19.595661
 20
13.494236
 30
0.000000
 40
0.557821
 50
-96.927586
 51
-88.825802
  6
CONTINUOUS
  0
ARC
  8
WHITE
 10
19.607652
 20
12.908038
 30
0.000000
 40
0.028500
 50
6.721200
 51
91.124796
  6
CONTINUOUS
  0
ARC
  8
WHITE
 10
19.247814
 20
12.865556
 30
0.000000
 40
0.390837
 50
-86.072504
 51
6.732230
  6
CONTINUOUS
  0
ARC
  8
WHITE
 10
19.463112
 20
11.603705
 30
0.000000
 40
0.892087
 50
102.200555
 51
131.512623
  6
CONTINUOUS
  0
LINE
  8
WHITE
 10
18.871850
 20
12.271709
 30
0.000000
 11
18.743574
 21
12.058955
 31
0.000000
  6
CONTINUOUS
  0
ARC
  8
WHITE
 10
18.768044
 20
12.044344
 30
0.000000
 40
0.028500
 50
149.157975
 51
295.897799
  6
CONTINUOUS
  0
LINE
  8
WHITE
 10
18.780492
 20
12.018706
 30
0.000000
 11
19.086858
 21
12.168856
 31
0.000000
  6
CONTINUOUS
  0
LINE
  8
WHITE
 10
19.086858
 20
12.168856
 30
0.000000
 11
19.081473
 21
12.080019
 31
0.000000
  6
CONTINUOUS
  0
ARC
  8
WHITE
 10
19.109910
 20
12.078309
 30
0.000000
 40
0.028489
 50
176.558782
 51
325.498581
  6
CONTINUOUS
  0
LINE
  8
WHITE
 10
19.133389
 20
12.062172
 30
0.000000
 11
19.184065
 21
12.135778
 31
0.000000
  6
CONTINUOUS
  0
LINE
  8
WHITE
 10
19.184065
 20
12.135778
 30
0.000000
 11
19.188536
 21
12.072408
 31
0.000000
  6
CONTINUOUS
  0
ARC
  8
WHITE
 10
19.216967
 20
12.074402
 30
0.000000
 40
0.028500
 50
-175.987204
 51
-36.184693
  6
CONTINUOUS
  0
LINE
  8
WHITE
 10
19.239969
 20
12.057576
 30
0.000000
 11
19.268088
 21
12.095943
 31
0.000000
  6
CONTINUOUS
  0
ARC
  8
WHITE
 10
19.291068
 20
12.079087
 30
0.000000
 40
0.028500
 50
11.095509
 51
143.739633
  6
CONTINUOUS
  0
ARC
  8
WHITE
 10
19.098854
 20
12.042316
 30
0.000000
 40
0.224200
 50
-58.416494
 51
10.863600
  6
CONTINUOUS
  0
ARC
  8
WHITE
 10
18.467196
 20
12.966058
 30
0.000000
 40
1.343038
 50
-85.508918
 51
-56.099622
  6
CONTINUOUS
  0
ARC
  8
WHITE
 10
18.574571
 20
11.598756
 30
0.000000
 40
0.028474
 50
94.451562
 51
137.554409
  6
CONTINUOUS
  0
ARC
  8
WHITE
 10
16.708823
 20
13.301821
 30
0.000000
 40
2.497679
 50
-49.133729
 51
-42.389354
  6
CONTINUOUS
  0
ARC
  8
WHITE
 10
18.361691
 20
11.391427
 30
0.000000
 40
0.028500
 50
130.866698
 51
262.861196
  6
CONTINUOUS
  0
ARC
  8
WHITE
 10
18.487646
 20
12.398814
 30
0.000000
 40
1.043731
 50
-97.127151
 51
-80.980360
  6
CONTINUOUS
  0
ARC
  8
WHITE
 10
18.655711
 20
11.339835
 30
0.000000
 40
0.028502
 50
4.092500
 51
98.952866
  6
CONTINUOUS
  0
ARC
  8
WHITE
 10
18.935915
 20
11.360176
 30
0.000000
 40
0.252442
 50
-175.841308
 51
-166.897782
  6
CONTINUOUS
  0
ARC
  8
WHITE
 10
18.717800
 20
11.309425
 30
0.000000
 40
0.028500
 50
-166.867214
 51
-59.495450
  6
CONTINUOUS
  0
ARC
  8
WHITE
 10
18.462418
 20
11.743793
 30
0.000000
 40
0.532380
 50
-59.544315
 51
-37.052825
  6
CONTINUOUS
  0
ARC
  8
WHITE
 10
18.910080
 20
11.405880
 30
0.000000
 40
0.028500
 50
78.646768
 51
143.061530
  6
CONTINUOUS
  0
ARC
  8
WHITE
 10
18.963817
 20
11.669207
 30
0.000000
 40
0.240255
 50
-101.555487
 51
-45.347918
  6
CONTINUOUS
  0
ARC
  8
WHITE
 10
19.152695
 20
11.478015
 30
0.000000
 40
0.028500
 50
69.599599
 51
134.642193
  6
CONTINUOUS
  0
ARC
  8
WHITE
 10
19.216340
 20
11.649096
 30
0.000000
 40
0.154036
 50
-110.407059
 51
-24.310650
  6
CONTINUOUS
  0
ARC
  8
WHITE
 10
19.439820
 20
11.445876
 30
0.000000
 40
0.162640
 50
88.413104
 51
120.727801
  6
CONTINUOUS
  0
ARC
  8
WHITE
 10
19.323320
 20
11.508688
 30
0.000000
 40
0.156828
 50
-70.734172
 51
39.505180
  6
CONTINUOUS
  0
ARC
  8
WHITE
 10
19.384483
 20
11.333743
 30
0.000000
 40
0.028500
 50
109.293797
 51
181.303396
  6
CONTINUOUS
  0
ARC
  8
WHITE
 10
19.056243
 20
11.326303
 30
0.000000
 40
0.299824
 50
-75.817303
 51
1.297994
  6
CONTINUOUS
  0
ARC
  8
WHITE
 10
19.103269
 20
10.263434
 30
0.000000
 40
0.772640
 50
88.039375
 51
136.874395
  6
CONTINUOUS
  0
ARC
  8
WHITE
 10
18.741923
 20
9.710322
 30
0.000000
 40
1.100100
 50
100.610899
 51
120.085490
  6
CONTINUOUS
  0
LINE
  8
WHITE
 10
18.190452
 20
10.662215
 30
0.000000
 11
18.073645
 21
10.447561
 31
0.000000
  6
CONTINUOUS
  0
ARC
  8
WHITE
 10
18.098681
 20
10.433936
 30
0.000000
 40
0.028503
 50
151.444246
 51
267.583398
  6
CONTINUOUS
  0
LINE
  8
WHITE
 10
18.097479
 20
10.405461
 30
0.000000
 11
18.209001
 21
10.400801
 31
0.000000
  6
CONTINUOUS
  0
ARC
  8
WHITE
 10
18.210215
 20
10.429232
 30
0.000000
 40
0.028457
 50
-92.445037
 51
-29.931142
  6
CONTINUOUS
  0
LINE
  8
WHITE
 10
18.234882
 20
10.415030
 30
0.000000
 11
18.290008
 21
10.510659
 31
0.000000
  6
CONTINUOUS
  0
ARC
  8
WHITE
 10
18.314689
 20
10.496409
 30
0.000000
 40
0.028500
 50
25.450173
 51
149.998618
  6
CONTINUOUS
  0
LINE
  8
WHITE
 10
18.340424
 20
10.508656
 30
0.000000
 11
18.365577
 21
10.455697
 31
0.000000
  6
CONTINUOUS
  0
ARC
  8
WHITE
 10
18.391329
 20
10.467873
 30
0.000000
 40
0.028486
 50
-154.695256
 51
-47.744457
  6
CONTINUOUS
  0
LINE
  8
WHITE
 10
18.410484
 20
10.446789
 30
0.000000
 11
18.502097
 21
10.529795
 31
0.000000
  6
CONTINUOUS
  0
ARC
  8
WHITE
 10
18.521236
 20
10.508677
 30
0.000000
 40
0.028500
 50
36.340100
 51
132.185893
  6
CONTINUOUS
  0
LINE
  8
WHITE
 10
18.544193
 20
10.525565
 30
0.000000
 11
18.603296
 21
10.445214
 31
0.000000
  6
CONTINUOUS
  0
ARC
  8
WHITE
 10
18.626267
 20
10.462164
 30
0.000000
 40
0.028548
 50
-143.577182
 51
-29.422429
  6
CONTINUOUS
  0
LINE
  8
WHITE
 10
18.651133
 20
10.448140
 30
0.000000
 11
18.710569
 21
10.553978
 31
0.000000
  6
CONTINUOUS
  0
ARC
  8
WHITE
 10
18.735440
 20
10.540000
 30
0.000000
 40
0.028530
 50
34.712819
 51
150.663865
  6
CONTINUOUS
  0
LINE
  8
WHITE
 10
18.758892
 20
10.556247
 30
0.000000
 11
18.779595
 21
10.526260
 31
0.000000
  6
CONTINUOUS
  0
ARC
  8
WHITE
 10
18.803029
 20
10.542480
 30
0.000000
 40
0.028500
 50
-145.309901
 51
-72.072501
  6
CONTINUOUS
  0
LINE
  8
WHITE
 10
18.811801
 20
10.515364
 30
0.000000
 11
18.970214
 21
10.566586
 31
0.000000
  6
CONTINUOUS
  0
LINE
  8
WHITE
 10
18.970214
 20
10.566586
 30
0.000000
 11
19.083037
 21
10.662240
 31
0.000000
  6
CONTINUOUS
  0
LINE
  8
WHITE
 10
19.083037
 20
10.662240
 30
0.000000
 11
19.116851
 21
10.662830
 31
0.000000
  6
CONTINUOUS
  0
ARC
  8
WHITE
 10
19.117349
 20
10.634334
 30
0.000000
 40
0.028500
 50
-31.600296
 51
91.000003
  6
CONTINUOUS
  0
LINE
  8
WHITE
 10
19.141623
 20
10.619400
 30
0.000000
 11
19.035488
 21
10.446867
 31
0.000000
  6
CONTINUOUS
  0
ARC
  8
WHITE
 10
19.011219
 20
10.461886
 30
0.000000
 40
0.028540
 50
-73.915757
 51
-31.751266
  6
CONTINUOUS
  0
LINE
  8
WHITE
 10
19.019126
 20
10.434463
 30
0.000000
 11
18.888761
 21
10.396652
 31
0.000000
  6
CONTINUOUS
  0
ARC
  8
WHITE
 10
18.880823
 20
10.424024
 30
0.000000
 40
0.028500
 50
-120.429610
 51
-73.827093
  6
CONTINUOUS
  0
LINE
  8
WHITE
 10
18.866388
 20
10.399450
 30
0.000000
 11
18.801193
 21
10.437740
 31
0.000000
  6
CONTINUOUS
  0
ARC
  8
WHITE
 10
18.786759
 20
10.413166
 30
0.000000
 40
0.028500
 50
59.570401
 51
134.500494
  6
CONTINUOUS
  0
LINE
  8
WHITE
 10
18.766783
 20
10.433493
 30
0.000000
 11
18.531617
 21
10.202436
 31
0.000000
  6
CONTINUOUS
  0
LINE
  8
WHITE
 10
18.531617
 20
10.202436
 30
0.000000
 11
18.058535
 21
10.017176
 31
0.000000
  6
CONTINUOUS
  0
ARC
  8
WHITE
 10
18.853020
 20
9.061127
 30
0.000000
 40
1.243075
 50
129.726889
 51
141.372294
  6
CONTINUOUS
  0
ARC
  8
WHITE
 10
17.913726
 20
9.818780
 30
0.000000
 40
0.036729
 50
150.034156
 51
274.422822
  6
CONTINUOUS
  0
ARC
  8
WHITE
 10
-63.774813
 20
56.039296
 30
0.000000
 40
93.878660
 50
-29.619448
 51
-29.520388
  6
CONTINUOUS
  0
ARC
  8
WHITE
 10
17.856708
 20
9.623299
 30
0.000000
 40
0.026888
 50
138.851703
 51
310.761659
  6
CONTINUOUS
  0
ARC
  8
WHITE
 10
17.802202
 20
9.913307
 30
0.000000
 40
0.318630
 50
-76.928711
 51
-55.093798
  6
CONTINUOUS
  0
ARC
  8
WHITE
 10
18.030304
 20
9.751727
 30
0.000000
 40
0.109727
 50
-114.653937
 51
-33.348880
  6
CONTINUOUS
  0
ARC
  8
WHITE
 10
18.176487
 20
9.639833
 30
0.000000
 40
0.075050
 50
67.564300
 51
136.592799
  6
CONTINUOUS
  0
ARC
  8
WHITE
 10
18.197497
 20
9.690716
 30
0.000000
 40
0.020000
 50
-28.216740
 51
67.565468
  6
CONTINUOUS
  0
LINE
  8
WHITE
 10
18.215120
 20
9.681260
 30
0.000000
 11
18.034188
 21
9.344039
 31
0.000000
  6
CONTINUOUS
  0
ARC
  8
WHITE
 10
18.009060
 20
9.357473
 30
0.000000
 40
0.028494
 50
-100.309896
 51
-28.129973
  6
CONTINUOUS
  0
LINE
  8
WHITE
 10
18.003959
 20
9.329433
 30
0.000000
 11
17.959699
 21
9.337530
 31
0.000000
  6
CONTINUOUS
  0
ARC
  8
WHITE
 10
17.954561
 20
9.309497
 30
0.000000
 40
0.028500
 50
79.614186
 51
172.388014
  6
CONTINUOUS
  0
LINE
  8
WHITE
 10
17.926313
 20
9.313272
 30
0.000000
 11
17.903960
 21
9.145941
 31
0.000000
  6
CONTINUOUS
  0
ARC
  8
WHITE
 10
17.875757
 20
9.149633
 30
0.000000
 40
0.028443
 50
-45.589038
 51
-7.458639
  6
CONTINUOUS
  0
LINE
  8
WHITE
 10
17.895662
 20
9.129315
 30
0.000000
 11
17.589357
 21
8.830798
 31
0.000000
  6
CONTINUOUS
  0
LINE
  8
WHITE
 10
17.589357
 20
8.830798
 30
0.000000
 11
17.465120
 21
8.772404
 31
0.000000
  6
CONTINUOUS
  0
ARC
  8
WHITE
 10
17.452933
 20
8.798167
 30
0.000000
 40
0.028500
 50
164.865249
 51
295.315604
  6
CONTINUOUS
  0
LINE
  8
WHITE
 10
17.425422
 20
8.805608
 30
0.000000
 11
17.659135
 21
9.677834
 31
0.000000
  6
CONTINUOUS
  0
ARC
  8
WHITE
 10
17.631498
 20
9.685056
 30
0.000000
 40
0.028565
 50
-14.644710
 51
141.334854
  6
CONTINUOUS
  0
LINE
  8
WHITE
 10
17.609195
 20
9.702902
 30
0.000000
 11
17.498576
 21
9.562630
 31
0.000000
  6
CONTINUOUS
  0
LINE
  8
WHITE
 10
17.498576
 20
9.562630
 30
0.000000
 11
17.577883
 21
9.771241
 31
0.000000
  6
CONTINUOUS
  0
ARC
  8
WHITE
 10
17.551180
 20
9.781275
 30
0.000000
 40
0.028525
 50
-20.594967
 51
131.452342
  6
CONTINUOUS
  0
LINE
  8
WHITE
 10
17.532297
 20
9.802655
 30
0.000000
 11
17.376971
 21
9.665308
 31
0.000000
  6
CONTINUOUS
  0
LINE
  8
WHITE
 10
17.376971
 20
9.665308
 30
0.000000
 11
17.837107
 21
10.629850
 31
0.000000
  6
CONTINUOUS
  0
ARC
  8
WHITE
 10
17.811473
 20
10.642226
 30
0.000000
 40
0.028465
 50
-25.771717
 51
134.421854
  6
CONTINUOUS
  0
LINE
  8
WHITE
 10
17.791549
 20
10.662556
 30
0.000000
 11
17.611279
 21
10.487092
 31
0.000000
  6
CONTINUOUS
  0
LINE
  8
WHITE
 10
17.611279
 20
10.487092
 30
0.000000
 11
17.678565
 21
10.725708
 31
0.000000
  6
CONTINUOUS
  0
ARC
  8
WHITE
 10
17.650994
 20
10.733135
 30
0.000000
 40
0.028553
 50
-15.077164
 51
140.104677
  6
CONTINUOUS
  0
LINE
  8
WHITE
 10
17.629088
 20
10.751449
 30
0.000000
 11
17.452143
 21
10.535338
 31
0.000000
  6
CONTINUOUS
  0
ARC
  8
WHITE
 10
17.430081
 20
10.553398
 30
0.000000
 40
0.028512
 50
-177.553546
 51
-39.304651
  6
CONTINUOUS
  0
LINE
  8
WHITE
 10
17.401595
 20
10.552181
 30
0.000000
 11
17.393640
 21
10.740688
 31
0.000000
  6
CONTINUOUS
  0
ARC
  8
WHITE
 10
17.365157
 20
10.739499
 30
0.000000
 40
0.028508
 50
2.390915
 51
149.257294
  6
CONTINUOUS
  0
ARC
  8
WHITE
 10
14.860665
 20
12.225827
 30
0.000000
 40
2.883820
 50
-50.622511
 51
-30.687101
  6
CONTINUOUS
  0
ARC
  8
WHITE
 10
16.672098
 20
10.018664
 30
0.000000
 40
0.028499
 50
166.658105
 51
309.531882
  6
CONTINUOUS
  0
ARC
  8
WHITE
 10
21.817965
 20
8.807560
 30
0.000000
 40
5.314965
 50
162.443957
 51
166.755669
  6
CONTINUOUS
  0
ARC
  8
WHITE
 10
16.779332
 20
10.530176
 30
0.000000
 40
0.122835
 50
-103.547443
 51
-32.871748
  6
CONTINUOUS
  0
ARC
  8
WHITE
 10
13.831154
 20
12.815380
 30
0.000000
 40
3.852535
 50
-37.623814
 51
-17.272910
  6
CONTINUOUS
  0
ARC
  8
WHITE
 10
17.399732
 20
11.740168
 30
0.000000
 40
0.129869
 50
-31.935286
 51
55.786189
  6
CONTINUOUS
  0
LINE
  8
WHITE
 10
17.472755
 20
11.847562
 30
0.000000
 11
17.560191
 21
12.057666
 31
0.000000
  6
CONTINUOUS
  0
ARC
  8
WHITE
 10
17.622651
 20
12.142863
 30
0.000000
 40
0.105640
 50
-126.246053
 51
22.309601
  6
CONTINUOUS
  0
ARC
  8
WHITE
 10
-22.846141
 20
-5.131072
 30
0.000000
 40
44.106901
 50
23.113082
 51
23.801153
  6
CONTINUOUS
  0
ARC
  8
WHITE
 10
19.837084
 20
13.432086
 30
0.000000
 40
2.449483
 50
178.173312
 51
198.154563
  6
CONTINUOUS
  0
ARC
  8
WHITE
 10
16.855541
 20
13.555750
 30
0.000000
 40
0.535252
 50
-4.885403
 51
51.044353
  6
CONTINUOUS
  0
ARC
  8
WHITE
 10
16.574620
 20
12.785950
 30
0.000000
 40
1.337125
 50
62.498662
 51
91.851567
  6
CONTINUOUS
  0
ARC
  8
WHITE
 10
16.798625
 20
15.674453
 30
0.000000
 40
1.574910
 50
-117.643606
 51
-99.768338
  6
CONTINUOUS
  0
ARC
  8
WHITE
 10
7.142430
 20
13.259745
 30
0.000000
 40
0.199405
 50
-175.317832
 51
-67.390379
  6
CONTINUOUS
  0
ARC
  8
WHITE
 10
7.226780
 20
13.057202
 30
0.000000
 40
0.020000
 50
12.550401
 51
112.608508
  6
CONTINUOUS
  0
ARC
  8
WHITE
 10
7.441870
 20
13.105085
 30
0.000000
 40
0.200355
 50
-167.449557
 51
-81.433330
  6
CONTINUOUS
  0
ARC
  8
WHITE
 10
7.474694
 20
12.887188
 30
0.000000
 40
0.020000
 50
13.578643
 51
98.566159
  6
CONTINUOUS
  0
ARC
  8
WHITE
 10
7.676331
 20
12.935890
 30
0.000000
 40
0.187435
 50
-166.421230
 51
-91.147690
  6
CONTINUOUS
  0
ARC
  8
WHITE
 10
7.672176
 20
12.728497
 30
0.000000
 40
0.020000
 50
24.178987
 51
88.851846
  6
CONTINUOUS
  0
ARC
  8
WHITE
 10
8.330881
 20
13.024240
 30
0.000000
 40
0.702050
 50
-155.821046
 51
-132.346708
  6
CONTINUOUS
  0
ARC
  8
WHITE
 10
7.896368
 20
12.547419
 30
0.000000
 40
0.056945
 50
-132.400355
 51
-83.722446
  6
CONTINUOUS
  0
ARC
  8
WHITE
 10
7.878301
 20
12.711879
 30
0.000000
 40
0.222395
 50
-83.728711
 51
-55.441619
  6
CONTINUOUS
  0
ARC
  8
WHITE
 10
8.015799
 20
12.512255
 30
0.000000
 40
0.020000
 50
24.886852
 51
124.559635
  6
CONTINUOUS
  0
ARC
  8
WHITE
 10
10.281531
 20
13.564543
 30
0.000000
 40
2.478170
 50
-155.087932
 51
-149.357728
  6
CONTINUOUS
  0
ARC
  8
WHITE
 10
8.167196
 20
12.372920
 30
0.000000
 40
0.073625
 50
-103.989593
 51
-59.268268
  6
CONTINUOUS
  0
ARC
  8
WHITE
 10
8.215040
 20
12.292443
 30
0.000000
 40
0.020000
 50
42.736706
 51
120.731612
  6
CONTINUOUS
  0
ARC
  8
WHITE
 10
9.455966
 20
13.439009
 30
0.000000
 40
1.669530
 50
-137.263303
 51
-133.588108
  6
CONTINUOUS
  0
ARC
  8
WHITE
 10
8.344202
 20
12.270964
 30
0.000000
 40
0.056971
 50
-133.652528
 51
-59.724248
  6
CONTINUOUS
  0
ARC
  8
WHITE
 10
6.287055
 20
15.793097
 30
0.000000
 40
4.135853
 50
-59.712542
 51
-52.256657
  6
CONTINUOUS
  0
ARC
  8
WHITE
 10
8.853611
 20
12.477472
 30
0.000000
 40
0.057068
 50
26.837699
 51
127.696609
  6
CONTINUOUS
  0
LINE
  8
WHITE
 10
8.904532
 20
12.503236
 30
0.000000
 11
8.932897
 21
12.447171
 31
0.000000
  6
CONTINUOUS
  0
ARC
  8
WHITE
 10
8.882071
 20
12.421369
 30
0.000000
 40
0.057000
 50
-46.445604
 51
26.914599
  6
CONTINUOUS
  0
ARC
  8
WHITE
 10
13.571009
 20
7.489936
 30
0.000000
 40
6.747790
 50
133.556102
 51
150.786501
  6
CONTINUOUS
  0
ARC
  8
WHITE
 10
7.708535
 20
10.126265
 30
0.000000
 40
0.657590
 50
92.357101
 51
174.299092
  6
CONTINUOUS
  0
ARC
  8
WHITE
 10
7.802725
 20
9.424926
 30
0.000000
 40
1.071477
 50
134.314339
 51
157.332328
  6
CONTINUOUS
  0
ARC
  8
WHITE
 10
6.866665
 20
9.815946
 30
0.000000
 40
0.057029
 50
157.405039
 51
192.649311
  6
CONTINUOUS
  0
ARC
  8
WHITE
 10
7.764331
 20
10.016169
 30
0.000000
 40
0.976754
 50
-167.421677
 51
-159.690722
  6
CONTINUOUS
  0
ARC
  8
WHITE
 10
7.740645
 20
9.064640
 30
0.000000
 40
1.082335
 50
145.534092
 51
165.240799
  6
CONTINUOUS
  0
ARC
  8
WHITE
 10
6.749280
 20
9.326007
 30
0.000000
 40
0.057096
 50
165.427758
 51
191.401071
  6
CONTINUOUS
  0
ARC
  8
WHITE
 10
6.911105
 20
9.357810
 30
0.000000
 40
0.222015
 50
-168.808908
 51
-129.362598
  6
CONTINUOUS
  0
ARC
  8
WHITE
 10
10.697045
 20
8.611870
 30
0.000000
 40
3.968521
 50
171.679441
 51
174.220475
  6
CONTINUOUS
  0
ARC
  8
WHITE
 10
7.061953
 20
8.960145
 30
0.000000
 40
0.317446
 50
170.689323
 51
238.062224
  6
CONTINUOUS
  0
ARC
  8
WHITE
 10
7.160305
 20
8.752812
 30
0.000000
 40
0.273416
 50
-166.880964
 51
-99.108931
  6
CONTINUOUS
  0
ARC
  8
WHITE
 10
7.954768
 20
9.412120
 30
0.000000
 40
1.251150
 50
-132.034862
 51
-128.535568
  6
CONTINUOUS
  0
ARC
  8
WHITE
 10
7.210831
 20
8.478015
 30
0.000000
 40
0.057000
 50
-128.559504
 51
-47.933552
  6
CONTINUOUS
  0
ARC
  8
WHITE
 10
6.616693
 20
9.137298
 30
0.000000
 40
0.944490
 50
-47.972696
 51
-37.835869
  6
CONTINUOUS
  0
ARC
  8
WHITE
 10
7.508170
 20
8.599745
 30
0.000000
 40
0.151430
 50
-163.976800
 51
-50.716466
  6
CONTINUOUS
  0
ARC
  8
WHITE
 10
7.141346
 20
8.992585
 30
0.000000
 40
0.688655
 50
-47.786508
 51
-34.047593
  6
CONTINUOUS
  0
ARC
  8
WHITE
 10
7.870605
 20
8.635619
 30
0.000000
 40
0.161215
 50
-169.781800
 51
-108.389409
  6
CONTINUOUS
  0
ARC
  8
WHITE
 10
7.844106
 20
8.576219
 30
0.000000
 40
0.096701
 50
-104.591155
 51
-18.458807
  6
CONTINUOUS
  0
ARC
  8
WHITE
 10
10.917569
 20
7.137121
 30
0.000000
 40
3.297662
 50
151.711501
 51
154.715399
  6
CONTINUOUS
  0
ARC
  8
WHITE
 10
8.586051
 20
9.557405
 30
0.000000
 40
1.030932
 50
-123.720355
 51
-114.802602
  6
CONTINUOUS
  0
ARC
  8
WHITE
 10
8.177580
 20
8.673226
 30
0.000000
 40
0.056969
 50
-114.917484
 51
-39.608344
  6
CONTINUOUS
  0
ARC
  8
WHITE
 10
9.525442
 20
7.558377
 30
0.000000
 40
1.692208
 50
132.583227
 51
140.405477
  6
CONTINUOUS
  0
ARC
  8
WHITE
 10
8.489220
 20
8.852467
 30
0.000000
 40
0.118995
 50
-156.144479
 51
-37.223617
  6
CONTINUOUS
  0
ARC
  8
WHITE
 10
7.962065
 20
9.160168
 30
0.000000
 40
0.728650
 50
-31.404612
 51
-4.964161
  6
CONTINUOUS
  0
ARC
  8
WHITE
 10
8.918551
 20
9.236305
 30
0.000000
 40
0.269325
 50
-148.881612
 51
-118.360502
  6
CONTINUOUS
  0
ARC
  8
WHITE
 10
8.817751
 20
9.049391
 30
0.000000
 40
0.056964
 50
-118.446899
 51
-43.194256
  6
CONTINUOUS
  0
ARC
  8
WHITE
 10
8.428851
 20
9.414546
 30
0.000000
 40
0.590425
 50
-43.196149
 51
3.640474
  6
CONTINUOUS
  0
ARC
  8
WHITE
 10
8.909716
 20
10.308950
 30
0.000000
 40
0.863740
 50
-82.792401
 51
-62.354809
  6
CONTINUOUS
  0
ARC
  8
WHITE
 10
10.168246
 20
10.067033
 30
0.000000
 40
1.004743
 50
-148.617602
 51
-125.236026
  6
CONTINUOUS
  0
ARC
  8
WHITE
 10
10.087336
 20
8.987974
 30
0.000000
 40
0.561734
 50
152.612240
 51
172.528188
  6
CONTINUOUS
  0
ARC
  8
WHITE
 10
9.599292
 20
9.024686
 30
0.000000
 40
0.077913
 50
152.202210
 51
303.626640
  6
CONTINUOUS
  0
ARC
  8
WHITE
 10
9.195630
 20
9.562577
 30
0.000000
 40
0.750310
 50
-53.451763
 51
-43.068498
  6
CONTINUOUS
  0
ARC
  8
WHITE
 10
9.763006
 20
8.973060
 30
0.000000
 40
0.079515
 50
-22.616003
 51
104.007101
  6
CONTINUOUS
  0
ARC
  8
WHITE
 10
15.637821
 20
8.369971
 30
0.000000
 40
5.829595
 50
174.364027
 51
179.587457
  6
CONTINUOUS
  0
LINE
  8
WHITE
 10
9.808377
 20
8.411945
 30
0.000000
 11
9.570615
 21
8.265770
 31
0.000000
  6
CONTINUOUS
  0
LINE
  8
WHITE
 10
9.570615
 20
8.265770
 30
0.000000
 11
9.463898
 21
8.140484
 31
0.000000
  6
CONTINUOUS
  0
LINE
  8
WHITE
 10
9.463898
 20
8.140484
 30
0.000000
 11
9.361449
 21
7.668082
 31
0.000000
  6
CONTINUOUS
  0
ARC
  8
WHITE
 10
9.333581
 20
7.674053
 30
0.000000
 40
0.028500
 50
-108.234127
 51
-12.094280
  6
CONTINUOUS
  0
LINE
  8
WHITE
 10
9.324664
 20
7.646984
 30
0.000000
 11
9.152955
 21
7.703133
 31
0.000000
  6
CONTINUOUS
  0
ARC
  8
WHITE
 10
9.144118
 20
7.676037
 30
0.000000
 40
0.028500
 50
71.935891
 51
130.332661
  6
CONTINUOUS
  0
LINE
  8
WHITE
 10
9.125672
 20
7.697763
 30
0.000000
 11
8.890124
 21
7.496782
 31
0.000000
  6
CONTINUOUS
  0
ARC
  8
WHITE
 10
8.871682
 20
7.518496
 30
0.000000
 40
0.028488
 50
-158.381868
 51
-49.659223
  6
CONTINUOUS
  0
LINE
  8
WHITE
 10
8.845198
 20
7.508000
 30
0.000000
 11
8.700165
 21
7.873809
 31
0.000000
  6
CONTINUOUS
  0
ARC
  8
WHITE
 10
8.673662
 20
7.863334
 30
0.000000
 40
0.028498
 50
21.565761
 51
139.346295
  6
CONTINUOUS
  0
LINE
  8
WHITE
 10
8.652042
 20
7.881900
 30
0.000000
 11
8.286128
 21
7.457190
 31
0.000000
  6
CONTINUOUS
  0
ARC
  8
WHITE
 10
8.264535
 20
7.475791
 30
0.000000
 40
0.028500
 50
-160.565101
 51
-40.742806
  6
CONTINUOUS
  0
LINE
  8
WHITE
 10
8.237659
 20
7.466308
 30
0.000000
 11
8.198533
 21
7.577349
 31
0.000000
  6
CONTINUOUS
  0
LINE
  8
WHITE
 10
8.198533
 20
7.577349
 30
0.000000
 11
8.181988
 21
7.871985
 31
0.000000
  6
CONTINUOUS
  0
ARC
  8
WHITE
 10
8.153513
 20
7.870408
 30
0.000000
 40
0.028519
 50
3.169224
 51
150.475745
  6
CONTINUOUS
  0
LINE
  8
WHITE
 10
8.128697
 20
7.884462
 30
0.000000
 11
8.103406
 21
7.839639
 31
0.000000
  6
CONTINUOUS
  0
LINE
  8
WHITE
 10
8.103406
 20
7.839639
 30
0.000000
 11
8.073343
 21
7.968891
 31
0.000000
  6
CONTINUOUS
  0
ARC
  8
WHITE
 10
8.045584
 20
7.962434
 30
0.000000
 40
0.028500
 50
13.094800
 51
155.118603
  6
CONTINUOUS
  0
LINE
  8
WHITE
 10
8.019721
 20
7.974429
 30
0.000000
 11
7.782731
 21
7.460042
 31
0.000000
  6
CONTINUOUS
  0
ARC
  8
WHITE
 10
7.756845
 20
7.471965
 30
0.000000
 40
0.028500
 50
-140.340201
 51
-24.730712
  6
CONTINUOUS
  0
LINE
  8
WHITE
 10
7.734904
 20
7.453776
 30
0.000000
 11
7.664490
 21
7.538706
 31
0.000000
  6
CONTINUOUS
  0
ARC
  8
WHITE
 10
7.642550
 20
7.520517
 30
0.000000
 40
0.028500
 50
39.659801
 51
145.246089
  6
CONTINUOUS
  0
LINE
  8
WHITE
 10
7.619134
 20
7.536764
 30
0.000000
 11
7.534692
 21
7.415041
 31
0.000000
  6
CONTINUOUS
  0
ARC
  8
WHITE
 10
7.511299
 20
7.431320
 30
0.000000
 40
0.028500
 50
-151.970587
 51
-34.831890
  6
CONTINUOUS
  0
LINE
  8
WHITE
 10
7.486142
 20
7.417927
 30
0.000000
 11
7.349418
 21
7.674316
 31
0.000000
  6
CONTINUOUS
  0
ARC
  8
WHITE
 10
7.324271
 20
7.660904
 30
0.000000
 40
0.028500
 50
28.072100
 51
142.008990
  6
CONTINUOUS
  0
LINE
  8
WHITE
 10
7.301810
 20
7.678447
 30
0.000000
 11
7.235392
 21
7.593435
 31
0.000000
  6
CONTINUOUS
  0
ARC
  8
WHITE
 10
7.212967
 20
7.611025
 30
0.000000
 40
0.028500
 50
-160.441819
 51
-38.110410
  6
CONTINUOUS
  0
LINE
  8
WHITE
 10
7.186112
 20
7.601484
 30
0.000000
 11
7.098351
 21
7.850030
 31
0.000000
  6
CONTINUOUS
  0
ARC
  8
WHITE
 10
7.071514
 20
7.840587
 30
0.000000
 40
0.028449
 50
19.386628
 51
131.232772
  6
CONTINUOUS
  0
LINE
  8
WHITE
 10
7.052763
 20
7.861981
 30
0.000000
 11
6.674268
 21
7.530790
 31
0.000000
  6
CONTINUOUS
  0
ARC
  8
WHITE
 10
6.655555
 20
7.552317
 30
0.000000
 40
0.028523
 50
-136.970626
 51
-49.000206
  6
CONTINUOUS
  0
LINE
  8
WHITE
 10
6.634706
 20
7.532855
 30
0.000000
 11
6.596848
 21
7.573460
 31
0.000000
  6
CONTINUOUS
  0
ARC
  8
WHITE
 10
6.617655
 20
7.592935
 30
0.000000
 40
0.028500
 50
157.726030
 51
223.106805
  6
CONTINUOUS
  0
LINE
  8
WHITE
 10
6.591282
 20
7.603738
 30
0.000000
 11
6.760743
 21
8.014593
 31
0.000000
  6
CONTINUOUS
  0
ARC
  8
WHITE
 10
6.734293
 20
8.025349
 30
0.000000
 40
0.028553
 50
-22.128482
 51
121.511897
  6
CONTINUOUS
  0
LINE
  8
WHITE
 10
6.719369
 20
8.049691
 30
0.000000
 11
6.592747
 21
7.971659
 31
0.000000
  6
CONTINUOUS
  0
LINE
  8
WHITE
 10
6.592747
 20
7.971659
 30
0.000000
 11
6.323444
 21
7.938583
 31
0.000000
  6
CONTINUOUS
  0
ARC
  8
WHITE
 10
6.326988
 20
7.910304
 30
0.000000
 40
0.028500
 50
97.143330
 51
158.267570
  6
CONTINUOUS
  0
LINE
  8
WHITE
 10
6.300514
 20
7.920857
 30
0.000000
 11
6.221953
 21
7.723946
 31
0.000000
  6
CONTINUOUS
  0
LINE
  8
WHITE
 10
6.221953
 20
7.723946
 30
0.000000
 11
6.043157
 21
7.731361
 31
0.000000
  6
CONTINUOUS
  0
LINE
  8
WHITE
 10
6.043157
 20
7.731361
 30
0.000000
 11
5.945049
 21
7.736650
 31
0.000000
  6
CONTINUOUS
  0
LINE
  8
WHITE
 10
5.945049
 20
7.736650
 30
0.000000
 11
5.848879
 21
7.765008
 31
0.000000
  6
CONTINUOUS
  0
ARC
  8
WHITE
 10
5.857365
 20
7.793783
 30
0.000000
 40
0.030000
 50
174.046909
 51
253.570065
  6
CONTINUOUS
  0
LINE
  8
WHITE
 10
5.827526
 20
7.796894
 30
0.000000
 11
5.840766
 21
7.923858
 31
0.000000
  6
CONTINUOUS
  0
LINE
  8
WHITE
 10
5.840766
 20
7.923858
 30
0.000000
 11
5.934385
 21
7.946496
 31
0.000000
  6
CONTINUOUS
  0
LINE
  8
WHITE
 10
5.934385
 20
7.946496
 30
0.000000
 11
5.990103
 21
8.020479
 31
0.000000
  6
CONTINUOUS
  0
LINE
  8
WHITE
 10
5.990103
 20
8.020479
 30
0.000000
 11
6.082448
 21
8.116105
 31
0.000000
  6
CONTINUOUS
  0
LINE
  8
WHITE
 10
6.082448
 20
8.116105
 30
0.000000
 11
6.247794
 21
8.154997
 31
0.000000
  6
CONTINUOUS
  0
LINE
  8
WHITE
 10
6.247794
 20
8.154997
 30
0.000000
 11
6.309598
 21
8.224086
 31
0.000000
  6
CONTINUOUS
  0
LINE
  8
WHITE
 10
6.309598
 20
8.224086
 30
0.000000
 11
6.413041
 21
8.256897
 31
0.000000
  6
CONTINUOUS
  0
LINE
  8
WHITE
 10
6.413041
 20
8.256897
 30
0.000000
 11
6.578255
 21
8.294967
 31
0.000000
  6
CONTINUOUS
  0
ARC
  8
WHITE
 10
6.571519
 20
8.324201
 30
0.000000
 40
0.030000
 50
-77.023923
 51
68.249094
  6
CONTINUOUS
  0
LINE
  8
WHITE
 10
6.582636
 20
8.352065
 30
0.000000
 11
6.441401
 21
8.408415
 31
0.000000
  6
CONTINUOUS
  0
LINE
  8
WHITE
 10
6.441401
 20
8.408415
 30
0.000000
 11
6.384235
 21
8.417418
 31
0.000000
  6
CONTINUOUS
  0
LINE
  8
WHITE
 10
6.384235
 20
8.417418
 30
0.000000
 11
6.305880
 21
8.437054
 31
0.000000
  6
CONTINUOUS
  0
LINE
  8
WHITE
 10
6.305880
 20
8.437054
 30
0.000000
 11
6.289517
 21
8.457771
 31
0.000000
  6
CONTINUOUS
  0
LINE
  8
WHITE
 10
6.289517
 20
8.457771
 30
0.000000
 11
6.294723
 21
8.516430
 31
0.000000
  6
CONTINUOUS
  0
ARC
  8
WHITE
 10
6.324606
 20
8.513777
 30
0.000000
 40
0.030000
 50
101.885761
 51
174.927402
  6
CONTINUOUS
  0
LINE
  8
WHITE
 10
6.318427
 20
8.543134
 30
0.000000
 11
6.391773
 21
8.558571
 31
0.000000
  6
CONTINUOUS
  0
LINE
  8
WHITE
 10
6.391773
 20
8.558571
 30
0.000000
 11
6.465381
 21
8.608200
 31
0.000000
  6
CONTINUOUS
  0
ARC
  8
WHITE
 10
6.448611
 20
8.633074
 30
0.000000
 40
0.030000
 50
-56.011422
 51
74.951053
  6
CONTINUOUS
  0
LINE
  8
WHITE
 10
6.456400
 20
8.662045
 30
0.000000
 11
6.394678
 21
8.678640
 31
0.000000
  6
CONTINUOUS
  0
LINE
  8
WHITE
 10
6.394678
 20
8.678640
 30
0.000000
 11
6.353424
 21
8.678190
 31
0.000000
  6
CONTINUOUS
  0
LINE
  8
WHITE
 10
6.353424
 20
8.678190
 30
0.000000
 11
6.166085
 21
8.691950
 31
0.000000
  6
CONTINUOUS
  0
ARC
  8
WHITE
 10
6.168170
 20
8.720374
 30
0.000000
 40
0.028500
 50
160.550495
 51
265.805583
  6
CONTINUOUS
  0
LINE
  8
WHITE
 10
6.141296
 20
8.729864
 30
0.000000
 11
6.210391
 21
8.925694
 31
0.000000
  6
CONTINUOUS
  0
ARC
  8
WHITE
 10
6.183504
 20
8.935147
 30
0.000000
 40
0.028500
 50
-19.369962
 51
87.341028
  6
CONTINUOUS
  0
LINE
  8
WHITE
 10
6.184827
 20
8.963616
 30
0.000000
 11
6.130559
 21
8.966050
 31
0.000000
  6
CONTINUOUS
  0
ARC
  8
WHITE
 10
6.131809
 20
8.994522
 30
0.000000
 40
0.028500
 50
145.319123
 51
267.485048
  6
CONTINUOUS
  0
LINE
  8
WHITE
 10
6.108373
 20
9.010739
 30
0.000000
 11
6.154861
 21
9.077862
 31
0.000000
  6
CONTINUOUS
  0
ARC
  8
WHITE
 10
6.131432
 20
9.094089
 30
0.000000
 40
0.028500
 50
-34.706694
 51
79.640900
  6
CONTINUOUS
  0
LINE
  8
WHITE
 10
6.136556
 20
9.122124
 30
0.000000
 11
5.897381
 21
9.165884
 31
0.000000
  6
CONTINUOUS
  0
ARC
  8
WHITE
 10
5.214943
 20
8.907826
 30
0.000000
 40
0.729600
 50
20.713700
 51
70.718303
  6
CONTINUOUS
  0
ARC
  8
WHITE
 10
5.465222
 20
9.623299
 30
0.000000
 40
0.028385
 50
-138.896619
 51
-109.245761
  6
CONTINUOUS
  0
ARC
  8
WHITE
 10
5.641585
 20
9.777244
 30
0.000000
 40
0.262485
 50
160.617800
 51
221.115900
  6
CONTINUOUS
  0
ARC
  8
WHITE
 10
5.420862
 20
9.854976
 30
0.000000
 40
0.028475
 50
62.692291
 51
160.769990
  6
CONTINUOUS
  0
ARC
  8
WHITE
 10
5.954696
 20
10.890959
 30
0.000000
 40
1.136960
 50
-117.260514
 51
-73.142819
  6
CONTINUOUS
  0
ARC
  8
WHITE
 10
6.276354
 20
9.830102
 30
0.000000
 40
0.028412
 50
-73.551454
 51
69.659683
  6
CONTINUOUS
  0
ARC
  8
WHITE
 10
6.455244
 20
10.304415
 30
0.000000
 40
0.478515
 50
-145.343612
 51
-110.683448
  6
CONTINUOUS
  0
ARC
  8
WHITE
 10
6.038255
 20
10.015999
 30
0.000000
 40
0.028500
 50
34.902628
 51
79.627802
  6
CONTINUOUS
  0
ARC
  8
WHITE
 10
6.354567
 20
11.693685
 30
0.000000
 40
1.678745
 50
-114.226298
 51
-100.682415
  6
CONTINUOUS
  0
ARC
  8
WHITE
 10
5.123215
 20
9.816535
 30
0.000000
 40
0.643573
 50
32.548244
 51
70.336035
  6
CONTINUOUS
  0
ARC
  8
WHITE
 10
5.035998
 20
10.119065
 30
0.000000
 40
0.429421
 50
44.974588
 51
94.307904
  6
CONTINUOUS
  0
ARC
  8
WHITE
 10
5.001656
 20
10.575696
 30
0.000000
 40
0.028500
 50
-126.104647
 51
-85.803706
  6
CONTINUOUS
  0
ARC
  8
WHITE
 10
5.178812
 20
10.819932
 30
0.000000
 40
0.330220
 50
-174.425399
 51
-125.967994
  6
CONTINUOUS
  0
ARC
  8
WHITE
 10
4.878504
 20
10.790603
 30
0.000000
 40
0.028484
 50
86.093878
 51
185.538278
  6
CONTINUOUS
  0
ARC
  8
WHITE
 10
4.668344
 20
7.785381
 30
0.000000
 40
3.041045
 50
80.130202
 51
86.000599
  6
CONTINUOUS
  0
ARC
  8
WHITE
 10
5.413699
 20
11.126342
 30
0.000000
 40
0.411326
 50
-123.010970
 51
-89.128682
  6
CONTINUOUS
  0
ARC
  8
WHITE
 10
5.420386
 20
10.686567
 30
0.000000
 40
0.028500
 50
41.774202
 51
90.868802
  6
CONTINUOUS
  0
ARC
  8
WHITE
 10
6.048383
 20
11.247509
 30
0.000000
 40
0.813543
 50
-138.228091
 51
-95.193480
  6
CONTINUOUS
  0
ARC
  8
WHITE
 10
5.977332
 20
10.465688
 30
0.000000
 40
0.028500
 50
-95.216470
 51
23.367660
  6
CONTINUOUS
  0
ARC
  8
WHITE
 10
5.262937
 20
10.159149
 30
0.000000
 40
0.805885
 50
23.228700
 51
53.695300
  6
CONTINUOUS
  0
ARC
  8
WHITE
 10
5.944997
 20
11.683933
 30
0.000000
 40
0.899002
 50
-122.587671
 51
-103.175413
  6
CONTINUOUS
  0
ARC
  8
WHITE
 10
5.156338
 20
10.576982
 30
0.000000
 40
0.463504
 50
48.937751
 51
92.080205
  6
CONTINUOUS
  0
ARC
  8
WHITE
 10
5.128776
 20
11.402161
 30
0.000000
 40
0.362140
 50
-122.361636
 51
-88.300951
  6
CONTINUOUS
  0
ARC
  8
WHITE
 10
4.395603
 20
10.656087
 30
0.000000
 40
0.696160
 50
39.219772
 51
72.398381
  6
CONTINUOUS
  0
ARC
  8
WHITE
 10
4.614731
 20
11.346822
 30
0.000000
 40
0.028500
 50
-179.132410
 51
-107.586315
  6
CONTINUOUS
  0
ARC
  8
WHITE
 10
4.976070
 20
11.352274
 30
0.000000
 40
0.389880
 50
155.728257
 51
180.864663
  6
CONTINUOUS
  0
ARC
  8
WHITE
 10
4.646628
 20
11.500828
 30
0.000000
 40
0.028500
 50
69.662300
 51
155.729694
  6
CONTINUOUS
  0
ARC
  8
WHITE
 10
5.158526
 20
12.881631
 30
0.000000
 40
1.444136
 50
-110.341090
 51
-85.203096
  6
CONTINUOUS
  0
ARC
  8
WHITE
 10
5.434245
 20
11.704199
 30
0.000000
 40
0.304088
 50
-120.635332
 51
-79.295399
  6
CONTINUOUS
  0
ARC
  8
WHITE
 10
4.887551
 20
9.858812
 30
0.000000
 40
1.660050
 50
61.357063
 51
68.693983
  6
CONTINUOUS
  0
ARC
  8
WHITE
 10
5.696957
 20
11.340724
 30
0.000000
 40
0.028500
 50
-118.643107
 51
24.326000
  6
CONTINUOUS
  0
ARC
  8
WHITE
 10
3.682214
 20
10.429673
 30
0.000000
 40
2.239654
 50
24.332027
 51
28.024861
  6
CONTINUOUS
  0
ARC
  8
WHITE
 10
5.493392
 20
11.473896
 30
0.000000
 40
0.166060
 50
2.792100
 51
67.682803
  6
CONTINUOUS
  0
ARC
  8
WHITE
 10
5.385209
 20
11.512321
 30
0.000000
 40
0.206383
 50
33.929279
 51
119.127894
  6
CONTINUOUS
  0
ARC
  8
WHITE
 10
5.275879
 20
12.481149
 30
0.000000
 40
0.788595
 50
-123.920699
 51
-89.355530
  6
CONTINUOUS
  0
ARC
  8
WHITE
 10
4.802004
 20
12.196005
 30
0.000000
 40
0.370785
 50
-155.921311
 51
-84.769113
  6
CONTINUOUS
  0
ARC
  8
WHITE
 10
4.489599
 20
12.056309
 30
0.000000
 40
0.028570
 50
74.943486
 51
203.913996
  6
CONTINUOUS
  0
ARC
  8
WHITE
 10
4.874567
 20
13.475331
 30
0.000000
 40
1.441745
 50
-105.180921
 51
-90.137795
  6
CONTINUOUS
  0
ARC
  8
WHITE
 10
4.871125
 20
12.005185
 30
0.000000
 40
0.028406
 50
54.543494
 51
90.051134
  6
CONTINUOUS
  0
ARC
  8
WHITE
 10
5.132097
 20
12.369467
 30
0.000000
 40
0.419710
 50
-125.628698
 51
-71.985594
  6
CONTINUOUS
  0
ARC
  8
WHITE
 10
5.270803
 20
11.943324
 30
0.000000
 40
0.028439
 50
63.307607
 51
108.255137
  6
CONTINUOUS
  0
ARC
  8
WHITE
 10
5.703836
 20
12.799056
 30
0.000000
 40
0.930620
 50
-116.845691
 51
-98.946363
  6
CONTINUOUS
  0
ARC
  8
WHITE
 10
5.563538
 20
11.907912
 30
0.000000
 40
0.028500
 50
-98.927002
 51
43.547900
  6
CONTINUOUS
  0
ARC
  8
WHITE
 10
6.730243
 20
13.017048
 30
0.000000
 40
1.581277
 50
-143.370401
 51
-136.448973
  6
CONTINUOUS
  0
ARC
  8
WHITE
 10
5.242526
 20
12.035745
 30
0.000000
 40
0.221979
 50
9.818147
 51
91.439145
  6
CONTINUOUS
  0
ARC
  8
WHITE
 10
5.236262
 20
12.286153
 30
0.000000
 40
0.028508
 50
-120.299892
 51
-88.613483
  6
CONTINUOUS
  0
ARC
  8
WHITE
 10
4.255590
 20
10.608119
 30
0.000000
 40
1.915083
 50
59.697210
 51
69.061220
  6
CONTINUOUS
  0
ARC
  8
WHITE
 10
4.929800
 20
12.370117
 30
0.000000
 40
0.028500
 50
69.063703
 51
113.754302
  6
CONTINUOUS
  0
ARC
  8
WHITE
 10
4.638755
 20
13.029437
 30
0.000000
 40
0.692201
 50
-72.359000
 51
-66.179206
  6
CONTINUOUS
  0
ARC
  8
WHITE
 10
4.839922
 20
12.396957
 30
0.000000
 40
0.028500
 50
-126.568613
 51
-72.423709
  6
CONTINUOUS
  0
ARC
  8
WHITE
 10
5.232497
 20
12.926036
 30
0.000000
 40
0.687317
 50
-154.668236
 51
-126.575103
  6
CONTINUOUS
  0
ARC
  8
WHITE
 10
4.637027
 20
12.644159
 30
0.000000
 40
0.028500
 50
70.870002
 51
205.341196
  6
CONTINUOUS
  0
ARC
  8
WHITE
 10
4.760292
 20
12.999365
 30
0.000000
 40
0.347486
 50
-109.138749
 51
-71.511363
  6
CONTINUOUS
  0
ARC
  8
WHITE
 10
4.879528
 20
12.642786
 30
0.000000
 40
0.028500
 50
67.179301
 51
108.497302
  6
CONTINUOUS
  0
ARC
  8
WHITE
 10
6.215514
 20
15.818516
 30
0.000000
 40
3.416804
 50
-112.815780
 51
-105.958882
  6
CONTINUOUS
  0
ARC
  8
WHITE
 10
5.283891
 20
12.560823
 30
0.000000
 40
0.028517
 50
-105.912545
 51
29.854025
  6
CONTINUOUS
  0
ARC
  8
WHITE
 10
4.669315
 20
12.207625
 30
0.000000
 40
0.737355
 50
29.884805
 51
58.035986
  6
CONTINUOUS
  0
ARC
  8
WHITE
 10
5.044608
 20
12.808939
 30
0.000000
 40
0.028537
 50
58.164549
 51
96.789505
  6
CONTINUOUS
  0
ARC
  8
WHITE
 10
5.011341
 20
13.092985
 30
0.000000
 40
0.257450
 50
-147.764002
 51
-83.332013
  6
CONTINUOUS
  0
ARC
  8
WHITE
 10
4.224026
 20
12.555523
 30
0.000000
 40
0.696057
 50
35.089935
 51
71.365593
  6
CONTINUOUS
  0
ARC
  8
WHITE
 10
4.703767
 20
14.525280
 30
0.000000
 40
1.335225
 50
-114.737415
 51
-101.111897
  6
CONTINUOUS
  0
ARC
  8
WHITE
 10
4.265624
 20
13.503733
 30
0.000000
 40
0.226013
 50
165.793990
 51
237.752540
  6
CONTINUOUS
  0
ARC
  8
WHITE
 10
3.709511
 20
13.760092
 30
0.000000
 40
0.392353
 50
-30.799042
 51
5.747842
  6
CONTINUOUS
  0
ARC
  8
WHITE
 10
4.128250
 20
13.802227
 30
0.000000
 40
0.028500
 50
62.568302
 51
185.719043
  6
CONTINUOUS
  0
ARC
  8
WHITE
 10
4.579016
 20
14.671571
 30
0.000000
 40
0.950760
 50
-117.406597
 51
-100.063424
  6
CONTINUOUS
  0
ARC
  8
WHITE
 10
4.417937
 20
13.763487
 30
0.000000
 40
0.028500
 50
-100.217179
 51
19.888055
  6
CONTINUOUS
  0
ARC
  8
WHITE
 10
3.828810
 20
13.551386
 30
0.000000
 40
0.654645
 50
19.804036
 51
62.361343
  6
CONTINUOUS
  0
ARC
  8
WHITE
 10
4.145762
 20
14.156554
 30
0.000000
 40
0.028500
 50
-175.761593
 51
-117.741673
  6
CONTINUOUS
  0
ARC
  8
WHITE
 10
-7.508053
 20
13.272759
 30
0.000000
 40
11.658780
 50
4.337100
 51
4.609900
  6
CONTINUOUS
  0
ARC
  8
WHITE
 10
4.084595
 20
14.207468
 30
0.000000
 40
0.028510
 50
4.669239
 51
56.586675
  6
CONTINUOUS
  0
ARC
  8
WHITE
 10
-0.428500
 20
7.370705
 30
0.000000
 40
8.220540
 50
56.570391
 51
57.549098
  6
CONTINUOUS
  0
ARC
  8
WHITE
 10
3.997703
 20
14.331712
 30
0.000000
 40
0.028514
 50
176.939873
 51
237.659740
  6
CONTINUOUS
  0
ARC
  8
WHITE
 10
3.319580
 20
14.369380
 30
0.000000
 40
0.650655
 50
-3.184621
 51
11.234540
  6
CONTINUOUS
  0
ARC
  8
WHITE
 10
3.929780
 20
14.490761
 30
0.000000
 40
0.028500
 50
10.887167
 51
156.138122
  6
CONTINUOUS
  0
ARC
  8
WHITE
 10
4.965583
 20
14.027034
 30
0.000000
 40
1.163370
 50
155.888290
 51
178.519589
  6
CONTINUOUS
  0
ARC
  8
WHITE
 10
3.774230
 20
14.057690
 30
0.000000
 40
0.028378
 50
-55.737388
 51
-1.211516
  6
CONTINUOUS
  0
ARC
  8
WHITE
 10
2.053379
 20
16.596890
 30
0.000000
 40
3.095765
 50
-64.121505
 51
-55.872713
  6
CONTINUOUS
  0
ARC
  8
WHITE
 10
3.413299
 20
13.793569
 30
0.000000
 40
0.020000
 50
115.879748
 51
258.292011
  6
CONTINUOUS
  0
ARC
  8
WHITE
 10
3.586043
 20
14.627199
 30
0.000000
 40
0.871340
 50
-101.707107
 51
-76.540073
  6
CONTINUOUS
  0
ARC
  8
WHITE
 10
3.795843
 20
13.750616
 30
0.000000
 40
0.030000
 50
-28.628263
 51
103.458732
  6
CONTINUOUS
  0
ARC
  8
WHITE
 10
3.288089
 20
14.027778
 30
0.000000
 40
0.608475
 50
-51.690397
 51
-28.628306
  6
CONTINUOUS
  0
ARC
  8
WHITE
 10
4.169939
 20
12.755488
 30
0.000000
 40
0.941508
 50
122.411900
 51
144.980720
  6
CONTINUOUS
  0
ARC
  8
WHITE
 10
3.375547
 20
13.312135
 30
0.000000
 40
0.028500
 50
-66.827709
 51
-35.034298
  6
CONTINUOUS
  0
ARC
  8
WHITE
 10
3.557215
 20
12.887551
 30
0.000000
 40
0.433317
 50
113.164276
 51
140.222956
  6
CONTINUOUS
  0
LINE
  8
WHITE
 10
3.224196
 20
13.164786
 30
0.000000
 11
3.217166
 21
13.138048
 31
0.000000
  6
CONTINUOUS
  0
ARC
  8
WHITE
 10
3.244741
 20
13.130844
 30
0.000000
 40
0.028500
 50
165.357800
 51
298.255292
  6
CONTINUOUS
  0
LINE
  8
WHITE
 10
3.258233
 20
13.105740
 30
0.000000
 11
3.302684
 21
13.129641
 31
0.000000
  6
CONTINUOUS
  0
ARC
  8
WHITE
 10
3.316176
 20
13.104537
 30
0.000000
 40
0.028500
 50
56.491499
 51
118.255299
  6
CONTINUOUS
  0
LINE
  8
WHITE
 10
3.331909
 20
13.128300
 30
0.000000
 11
3.362774
 21
13.107896
 31
0.000000
  6
CONTINUOUS
  0
ARC
  8
WHITE
 10
3.378508
 20
13.131659
 30
0.000000
 40
0.028500
 50
-123.508496
 51
-66.520596
  6
CONTINUOUS
  0
LINE
  8
WHITE
 10
3.389863
 20
13.105519
 30
0.000000
 11
3.469224
 21
13.140008
 31
0.000000
  6
CONTINUOUS
  0
ARC
  8
WHITE
 10
3.480579
 20
13.113868
 30
0.000000
 40
0.028500
 50
73.255301
 51
113.479398
  6
CONTINUOUS
  0
LINE
  8
WHITE
 10
3.488790
 20
13.141160
 30
0.000000
 11
3.560059
 21
13.119651
 31
0.000000
  6
CONTINUOUS
  0
ARC
  8
WHITE
 10
3.568270
 20
13.146943
 30
0.000000
 40
0.028500
 50
-106.744700
 51
-71.474395
  6
CONTINUOUS
  0
LINE
  8
WHITE
 10
3.577325
 20
13.119920
 30
0.000000
 11
3.588123
 21
13.123543
 31
0.000000
  6
CONTINUOUS
  0
ARC
  8
WHITE
 10
3.597179
 20
13.096520
 30
0.000000
 40
0.028500
 50
-21.720592
 51
108.525599
  6
CONTINUOUS
  0
ARC
  8
WHITE
 10
3.447851
 20
13.156126
 30
0.000000
 40
0.189285
 50
-56.296323
 51
-21.754092
  6
CONTINUOUS
  0
ARC
  8
WHITE
 10
3.912011
 20
11.587133
 30
0.000000
 40
1.456493
 50
104.274617
 51
127.802747
  6
CONTINUOUS
  0
ARC
  8
WHITE
 10
3.001828
 20
12.760540
 30
0.000000
 40
0.028539
 50
-113.006206
 51
-52.347256
  6
CONTINUOUS
  0
LINE
  8
WHITE
 10
2.990674
 20
12.734271
 30
0.000000
 11
2.950919
 21
12.751088
 31
0.000000
  6
CONTINUOUS
  0
ARC
  8
WHITE
 10
2.939801
 20
12.724846
 30
0.000000
 40
0.028500
 50
67.037501
 51
107.460000
  6
CONTINUOUS
  0
LINE
  8
WHITE
 10
2.931249
 20
12.752033
 30
0.000000
 11
2.802545
 21
12.711590
 31
0.000000
  6
CONTINUOUS
  0
ARC
  8
WHITE
 10
2.811097
 20
12.684403
 30
0.000000
 40
0.028500
 50
107.460000
 51
174.367490
  6
CONTINUOUS
  0
LINE
  8
WHITE
 10
2.782734
 20
12.687200
 30
0.000000
 11
2.771028
 21
12.568485
 31
0.000000
  6
CONTINUOUS
  0
ARC
  8
WHITE
 10
2.742666
 20
12.571282
 30
0.000000
 40
0.028500
 50
-67.039416
 51
-5.632520
  6
CONTINUOUS
  0
LINE
  8
WHITE
 10
2.753783
 20
12.545040
 30
0.000000
 11
2.675559
 21
12.511889
 31
0.000000
  6
CONTINUOUS
  0
ARC
  8
WHITE
 10
2.686850
 20
12.485721
 30
0.000000
 40
0.028500
 50
113.339509
 51
273.322401
  6
CONTINUOUS
  0
LINE
  8
WHITE
 10
2.688502
 20
12.457269
 30
0.000000
 11
2.748035
 21
12.421500
 31
0.000000
  6
CONTINUOUS
  0
ARC
  8
WHITE
 10
2.762716
 20
12.445928
 30
0.000000
 40
0.028500
 50
-121.005397
 51
-24.346199
  6
CONTINUOUS
  0
LINE
  8
WHITE
 10
2.788681
 20
12.434179
 30
0.000000
 11
2.800290
 21
12.459791
 31
0.000000
  6
CONTINUOUS
  0
ARC
  8
WHITE
 10
2.826309
 20
12.448018
 30
0.000000
 40
0.028559
 50
99.891787
 51
155.654361
  6
CONTINUOUS
  0
LINE
  8
WHITE
 10
2.821403
 20
12.476152
 30
0.000000
 11
3.213539
 21
12.545106
 31
0.000000
  6
CONTINUOUS
  0
LINE
  8
WHITE
 10
3.213539
 20
12.545106
 30
0.000000
 11
3.255266
 21
12.535938
 31
0.000000
  6
CONTINUOUS
  0
ARC
  8
WHITE
 10
3.249150
 20
12.508102
 30
0.000000
 40
0.028500
 50
-24.618998
 51
77.607498
  6
CONTINUOUS
  0
ARC
  8
WHITE
 10
2.563145
 20
12.822352
 30
0.000000
 40
0.783056
 50
-68.307797
 51
-24.612169
  6
CONTINUOUS
  0
ARC
  8
WHITE
 10
3.058471
 20
11.168205
 30
0.000000
 40
0.949145
 50
102.528400
 51
130.250888
  6
CONTINUOUS
  0
LINE
  8
WHITE
 10
2.445194
 20
11.892614
 30
0.000000
 11
2.259534
 21
11.786485
 31
0.000000
  6
CONTINUOUS
  0
LINE
  8
WHITE
 10
2.259534
 20
11.786485
 30
0.000000
 11
2.157854
 21
11.666922
 31
0.000000
  6
CONTINUOUS
  0
ARC
  8
WHITE
 10
2.179565
 20
11.648459
 30
0.000000
 40
0.028500
 50
139.621499
 51
259.111287
  6
CONTINUOUS
  0
LINE
  8
WHITE
 10
2.174181
 20
11.620472
 30
0.000000
 11
2.266351
 21
11.602751
 31
0.000000
  6
CONTINUOUS
  0
LINE
  8
WHITE
 10
2.266351
 20
11.602751
 30
0.000000
 11
2.320632
 21
11.562102
 31
0.000000
  6
CONTINUOUS
  0
ARC
  8
WHITE
 10
2.337711
 20
11.584917
 30
0.000000
 40
0.028500
 50
-126.819175
 51
-68.058663
  6
CONTINUOUS
  0
LINE
  8
WHITE
 10
2.348361
 20
11.558481
 30
0.000000
 11
2.480249
 21
11.611393
 31
0.000000
  6
CONTINUOUS
  0
ARC
  8
WHITE
 10
2.469640
 20
11.637845
 30
0.000000
 40
0.028500
 50
-68.145498
 51
-40.347802
  6
CONTINUOUS
  0
LINE
  8
WHITE
 10
2.491360
 20
11.619393
 30
0.000000
 11
2.558539
 21
11.698514
 31
0.000000
  6
CONTINUOUS
  0
ARC
  8
WHITE
 10
2.580260
 20
11.680062
 30
0.000000
 40
0.028500
 50
96.271824
 51
139.652191
  6
CONTINUOUS
  0
ARC
  8
WHITE
 10
2.522977
 20
12.191095
 30
0.000000
 40
0.485735
 50
-83.596997
 51
-57.330394
  6
CONTINUOUS
  0
ARC
  8
WHITE
 10
2.800565
 20
11.758208
 30
0.000000
 40
0.028500
 50
24.139002
 51
122.675797
  6
CONTINUOUS
  0
ARC
  8
WHITE
 10
2.596207
 20
11.666576
 30
0.000000
 40
0.252461
 50
-5.214865
 51
24.149713
  6
CONTINUOUS
  0
ARC
  8
WHITE
 10
2.819242
 20
11.646227
 30
0.000000
 40
0.028500
 50
-38.518704
 51
-5.229593
  6
CONTINUOUS
  0
ARC
  8
WHITE
 10
2.043794
 20
12.263283
 30
0.000000
 40
1.019498
 50
-54.918731
 51
-38.510947
  6
CONTINUOUS
  0
ARC
  8
WHITE
 10
2.809086
 20
11.005917
 30
0.000000
 40
0.459517
 50
112.972956
 51
159.644287
  6
CONTINUOUS
  0
ARC
  8
WHITE
 10
2.404987
 20
11.155848
 30
0.000000
 40
0.028500
 50
159.649893
 51
246.151795
  6
CONTINUOUS
  0
ARC
  8
WHITE
 10
2.517857
 20
11.411135
 30
0.000000
 40
0.307625
 50
-113.851371
 51
-59.272388
  6
CONTINUOUS
  0
ARC
  8
WHITE
 10
2.692025
 20
11.841839
 30
0.000000
 40
0.695348
 50
-91.399676
 51
-82.603287
  6
CONTINUOUS
  0
ARC
  8
WHITE
 10
2.953344
 20
10.973280
 30
0.000000
 40
0.248103
 50
90.904712
 51
133.824796
  6
CONTINUOUS
  0
ARC
  8
WHITE
 10
2.991263
 20
11.333402
 30
0.000000
 40
0.119605
 50
-110.474311
 51
-59.354416
  6
CONTINUOUS
  0
ARC
  8
WHITE
 10
3.101422
 20
11.046187
 30
0.000000
 40
0.190767
 50
57.702119
 51
104.943914
  6
CONTINUOUS
  0
ARC
  8
WHITE
 10
2.098911
 20
14.014926
 30
0.000000
 40
3.016915
 50
-68.525749
 51
-64.352133
  6
CONTINUOUS
  0
ARC
  8
WHITE
 10
3.417091
 20
11.269574
 30
0.000000
 40
0.028500
 50
-6.156804
 51
115.658898
  6
CONTINUOUS
  0
ARC
  8
WHITE
 10
3.266789
 20
11.285844
 30
0.000000
 40
0.179679
 50
-31.185351
 51
-6.174667
  6
CONTINUOUS
  0
ARC
  8
WHITE
 10
2.702260
 20
11.654202
 30
0.000000
 40
0.853676
 50
-84.677511
 51
-32.716580
  6
CONTINUOUS
  0
ARC
  8
WHITE
 10
2.693829
 20
10.359124
 30
0.000000
 40
0.453625
 50
78.863133
 51
121.868071
  6
CONTINUOUS
  0
ARC
  8
WHITE
 10
2.758958
 20
10.146417
 30
0.000000
 40
0.671080
 50
116.996400
 51
151.634298
  6
CONTINUOUS
  0
ARC
  8
WHITE
 10
2.465932
 20
10.355367
 30
0.000000
 40
0.317124
 50
159.727626
 51
190.623178
  6
CONTINUOUS
  0
ARC
  8
WHITE
 10
2.182257
 20
10.302151
 30
0.000000
 40
0.028500
 50
-169.394802
 51
-90.032019
  6
CONTINUOUS
  0
ARC
  8
WHITE
 10
2.182652
 20
10.923550
 30
0.000000
 40
0.649899
 50
-90.036288
 51
-58.827548
  6
CONTINUOUS
  0
ARC
  8
WHITE
 10
2.551068
 20
10.781401
 30
0.000000
 40
0.415150
 50
-94.423172
 51
-67.909260
  6
CONTINUOUS
  0
ARC
  8
WHITE
 10
2.717899
 20
10.370314
 30
0.000000
 40
0.028500
 50
0.812890
 51
112.059499
  6
CONTINUOUS
  0
ARC
  8
WHITE
 10
2.467219
 20
10.366699
 30
0.000000
 40
0.279206
 50
-37.676106
 51
0.824834
  6
CONTINUOUS
  0
ARC
  8
WHITE
 10
3.820276
 20
8.174372
 30
0.000000
 40
2.317061
 50
119.247378
 51
131.460343
  6
CONTINUOUS
  0
ARC
  8
WHITE
 10
2.792159
 20
8.825185
 30
0.000000
 40
1.197760
 50
114.990341
 51
152.580370
  6
CONTINUOUS
  0
ARC
  8
WHITE
 10
1.754256
 20
9.363633
 30
0.000000
 40
0.028500
 50
152.577793
 51
282.975962
  6
CONTINUOUS
  0
ARC
  8
WHITE
 10
1.481020
 20
10.548825
 30
0.000000
 40
1.244785
 50
-77.017913
 51
-53.293907
  6
CONTINUOUS
  0
ARC
  8
WHITE
 10
2.242023
 20
9.527957
 30
0.000000
 40
0.028517
 50
79.751753
 51
126.550182
  6
CONTINUOUS
  0
ARC
  8
WHITE
 10
2.339027
 20
10.066407
 30
0.000000
 40
0.518601
 50
-100.210487
 51
-39.188219
  6
CONTINUOUS
  0
ARC
  8
WHITE
 10
2.614988
 20
10.087845
 30
0.000000
 40
0.371165
 50
-70.156415
 51
-48.181347
  6
CONTINUOUS
  0
ARC
  8
WHITE
 10
2.882475
 20
9.788873
 30
0.000000
 40
0.030000
 50
-13.544091
 51
131.818636
  6
CONTINUOUS
  0
ARC
  8
WHITE
 10
2.395636
 20
9.906149
 30
0.000000
 40
0.530765
 50
-75.634718
 51
-13.544090
  6
CONTINUOUS
  0
ARC
  8
WHITE
 10
1.252180
 20
10.552731
 30
0.000000
 40
1.724333
 50
-57.288563
 51
-42.311392
  6
CONTINUOUS
  0
ARC
  8
WHITE
 10
2.278421
 20
8.728489
 30
0.000000
 40
0.385130
 50
104.187904
 51
160.659491
  6
CONTINUOUS
  0
ARC
  8
WHITE
 10
1.503201
 20
9.054920
 30
0.000000
 40
0.457333
 50
-67.556517
 51
-25.777387
  6
CONTINUOUS
  0
ARC
  8
WHITE
 10
1.684334
 20
8.352504
 30
0.000000
 40
0.279802
 50
91.338941
 51
147.783316
  6
CONTINUOUS
  0
LINE
  8
WHITE
 10
1.447611
 20
8.501673
 30
0.000000
 11
1.412280
 21
8.394892
 31
0.000000
  6
CONTINUOUS
  0
ARC
  8
WHITE
 10
1.439366
 20
8.386026
 30
0.000000
 40
0.028500
 50
161.875729
 51
292.659122
  6
CONTINUOUS
  0
ARC
  8
WHITE
 10
1.616123
 20
8.147331
 30
0.000000
 40
0.269432
 50
54.568542
 51
127.972419
  6
CONTINUOUS
  0
ARC
  8
WHITE
 10
1.572730
 20
8.170352
 30
0.000000
 40
0.280097
 50
-17.785174
 51
44.555117
  6
CONTINUOUS
  0
ARC
  8
WHITE
 10
1.810874
 20
8.093961
 30
0.000000
 40
0.030001
 50
-113.344048
 51
-17.786455
  6
CONTINUOUS
  0
ARC
  8
WHITE
 10
1.335887
 20
6.993346
 30
0.000000
 40
1.168735
 50
66.656677
 51
84.492671
  6
CONTINUOUS
  0
ARC
  8
WHITE
 10
11.873750
 20
11.873750
 30
0.000000
 40
11.068500
 50
152.082290
 51
199.622630
  6
CONTINUOUS
  0
ARC
  8
WHITE
 10
3.531861
 20
17.854895
 30
0.000000
 40
1.645400
 50
-150.954820
 51
-115.097535
  6
CONTINUOUS
  0
ARC
  8
WHITE
 10
2.825464
 20
16.346730
 30
0.000000
 40
0.020000
 50
-89.870362
 51
64.902450
  6
CONTINUOUS
  0
ARC
  8
WHITE
 10
2.819741
 20
18.876049
 30
0.000000
 40
2.549325
 50
-101.665416
 51
-89.870359
  6
CONTINUOUS
  0
ARC
  8
WHITE
 10
2.292648
 20
16.323616
 30
0.000000
 40
0.056964
 50
78.220966
 51
223.552366
  6
CONTINUOUS
  0
ARC
  8
WHITE
 10
3.339201
 20
17.314724
 30
0.000000
 40
1.498340
 50
-136.554405
 51
-99.621550
  6
CONTINUOUS
  0
ARC
  8
WHITE
 10
3.085426
 20
15.817742
 30
0.000000
 40
0.020000
 50
-81.477398
 51
80.377713
  6
CONTINUOUS
  0
ARC
  8
WHITE
 10
4.364535
 20
7.282060
 30
0.000000
 40
8.610990
 50
98.522603
 51
100.236400
  6
CONTINUOUS
  0
ARC
  8
WHITE
 10
2.844423
 20
15.699912
 30
0.000000
 40
0.056987
 50
100.256697
 51
233.744034
  6
CONTINUOUS
  0
ARC
  8
WHITE
 10
3.158938
 20
16.128684
 30
0.000000
 40
0.588743
 50
-126.260481
 51
-93.707828
  6
CONTINUOUS
  0
ARC
  8
WHITE
 10
3.064746
 20
14.820690
 30
0.000000
 40
0.722665
 50
55.502633
 51
85.546200
  6
CONTINUOUS
  0
ARC
  8
WHITE
 10
3.462713
 20
15.399793
 30
0.000000
 40
0.020000
 50
-65.322880
 51
55.501964
  6
CONTINUOUS
  0
ARC
  8
WHITE
 10
-16.911949
 20
59.744100
 30
0.000000
 40
48.821070
 50
-65.524098
 51
-65.322869
  6
CONTINUOUS
  0
ARC
  8
WHITE
 10
3.338789
 20
15.258384
 30
0.000000
 40
0.057058
 50
114.495489
 51
238.931988
  6
CONTINUOUS
  0
ARC
  8
WHITE
 10
3.729417
 20
15.908143
 30
0.000000
 40
0.815198
 50
-121.017627
 51
-83.455589
  6
CONTINUOUS
  0
ARC
  8
WHITE
 10
3.824605
 20
15.078387
 30
0.000000
 40
0.020000
 50
-38.324919
 51
96.535480
  6
CONTINUOUS
  0
ARC
  8
WHITE
 10
33.728466
 20
-8.559381
 30
0.000000
 40
38.098040
 50
141.675085
 51
141.962996
  6
CONTINUOUS
  0
ARC
  8
WHITE
 10
3.766965
 20
14.880446
 30
0.000000
 40
0.057049
 50
142.089387
 51
254.037393
  6
CONTINUOUS
  0
ARC
  8
WHITE
 10
4.095496
 20
16.034885
 30
0.000000
 40
1.257325
 50
-105.888795
 51
-75.013171
  6
CONTINUOUS
  0
ARC
  8
WHITE
 10
4.425809
 20
14.801008
 30
0.000000
 40
0.020000
 50
-26.922411
 51
104.988599
  6
CONTINUOUS
  0
ARC
  8
WHITE
 10
8.505111
 20
12.729454
 30
0.000000
 40
4.555155
 50
153.077597
 51
155.876392
  6
CONTINUOUS
  0
ARC
  8
WHITE
 10
4.399770
 20
14.567873
 30
0.000000
 40
0.056977
 50
155.858782
 51
230.312870
  6
CONTINUOUS
  0
ARC
  8
WHITE
 10
4.565030
 20
14.767247
 30
0.000000
 40
0.315938
 50
-129.660878
 51
-87.356990
  6
CONTINUOUS
  0
ARC
  8
WHITE
 10
4.475401
 20
15.125259
 30
0.000000
 40
0.681625
 50
-81.206896
 51
-66.553135
  6
CONTINUOUS
  0
ARC
  8
WHITE
 10
4.754577
 20
14.481568
 30
0.000000
 40
0.020000
 50
3.201624
 51
113.448726
  6
CONTINUOUS
  0
ARC
  8
WHITE
 10
5.618536
 20
14.529895
 30
0.000000
 40
0.845310
 50
-176.798401
 51
-168.041304
  6
CONTINUOUS
  0
ARC
  8
WHITE
 10
5.321053
 20
15.266206
 30
0.000000
 40
1.054096
 50
-120.152856
 51
-98.813739
  6
CONTINUOUS
  0
ARC
  8
WHITE
 10
5.200565
 20
14.460746
 30
0.000000
 40
0.239726
 50
-99.853365
 51
-62.716700
  6
CONTINUOUS
  0
ARC
  8
WHITE
 10
5.319617
 20
14.229913
 30
0.000000
 40
0.020000
 50
4.233833
 51
117.270644
  6
CONTINUOUS
  0
ARC
  8
WHITE
 10
5.563056
 20
14.247935
 30
0.000000
 40
0.224105
 50
-175.766058
 51
-97.990692
  6
CONTINUOUS
  0
ARC
  8
WHITE
 10
5.753509
 20
15.719145
 30
0.000000
 40
1.707580
 50
-97.456768
 51
-88.126805
  6
CONTINUOUS
  0
ARC
  8
WHITE
 10
5.809976
 20
13.992488
 30
0.000000
 40
0.020000
 50
31.400907
 51
91.862911
  6
CONTINUOUS
  0
ARC
  8
WHITE
 10
6.132581
 20
14.189414
 30
0.000000
 40
0.357960
 50
-148.599085
 51
-89.433831
  6
CONTINUOUS
  0
ARC
  8
WHITE
 10
6.136316
 20
13.811472
 30
0.000000
 40
0.020000
 50
10.445513
 51
90.566855
  6
CONTINUOUS
  0
ARC
  8
WHITE
 10
6.501846
 20
13.878860
 30
0.000000
 40
0.351690
 50
-169.554406
 51
-111.978018
  6
CONTINUOUS
  0
ARC
  8
WHITE
 10
8.391136
 20
15.628279
 30
0.000000
 40
2.896894
 50
-134.235818
 51
-127.362833
  6
CONTINUOUS
  0
ARC
  8
WHITE
 10
6.829290
 20
13.529565
 30
0.000000
 40
0.282841
 50
-133.911528
 51
-71.823831
  6
CONTINUOUS
  0
ARC
  8
WHITE
 10
6.923757
 20
13.241835
 30
0.000000
 40
0.020000
 50
4.683087
 51
108.172544
  6
CONTINUOUS
  0
LINE
  8
WHITE
 10
16.636958
 20
10.478651
 30
0.000000
 11
16.496006
 21
9.998654
 31
0.000000
  6
CONTINUOUS
  0
LINE
  8
WHITE
 10
16.496006
 20
9.998654
 30
0.000000
 11
16.390126
 21
9.638706
 31
0.000000
  6
CONTINUOUS
  0
LINE
  8
WHITE
 10
16.390126
 20
9.638706
 30
0.000000
 11
16.310621
 21
9.368772
 31
0.000000
  6
CONTINUOUS
  0
LINE
  8
WHITE
 10
16.310621
 20
9.368772
 30
0.000000
 11
16.191214
 21
8.963916
 31
0.000000
  6
CONTINUOUS
  0
LINE
  8
WHITE
 10
16.191214
 20
8.963916
 30
0.000000
 11
16.071624
 21
8.559114
 31
0.000000
  6
CONTINUOUS
  0
ARC
  8
WHITE
 10
16.052463
 20
8.564843
 30
0.000000
 40
0.020000
 50
172.553679
 51
343.353950
  6
CONTINUOUS
  0
ARC
  8
WHITE
 10
42.346525
 20
5.132734
 30
0.000000
 40
26.537110
 50
168.179692
 51
172.563337
  6
CONTINUOUS
  0
ARC
  8
WHITE
 10
16.361227
 20
10.692359
 30
0.000000
 40
0.124165
 50
-84.958113
 51
-17.262002
  6
CONTINUOUS
  0
ARC
  8
WHITE
 10
2.889603
 20
14.163629
 30
0.000000
 40
14.035680
 50
-14.474117
 51
-9.196754
  6
CONTINUOUS
  0
ARC
  8
WHITE
 10
16.654886
 20
11.960986
 30
0.000000
 40
0.098705
 50
-24.295711
 51
65.603400
  6
CONTINUOUS
  0
LINE
  8
WHITE
 10
16.695656
 20
12.050877
 30
0.000000
 11
16.715100
 21
12.305324
 31
0.000000
  6
CONTINUOUS
  0
ARC
  8
WHITE
 10
16.686653
 20
12.307488
 30
0.000000
 40
0.028529
 50
-4.350186
 51
156.398917
  6
CONTINUOUS
  0
LINE
  8
WHITE
 10
16.660515
 20
12.318908
 30
0.000000
 11
16.561642
 21
12.093613
 31
0.000000
  6
CONTINUOUS
  0
ARC
  8
WHITE
 10
16.545555
 20
11.952335
 30
0.000000
 40
0.142191
 50
83.503986
 51
157.847795
  6
CONTINUOUS
  0
ARC
  8
WHITE
 10
19.727104
 20
10.720199
 30
0.000000
 40
3.553976
 50
158.790552
 51
180.481147
  6
CONTINUOUS
  0
ARC
  8
WHITE
 10
16.275881
 20
10.692241
 30
0.000000
 40
0.102645
 50
-178.946809
 51
-101.155918
  6
CONTINUOUS
  0
LINE
  8
WHITE
 10
16.256021
 20
10.591536
 30
0.000000
 11
16.163987
 21
10.260304
 31
0.000000
  6
CONTINUOUS
  0
LINE
  8
WHITE
 10
16.163987
 20
10.260304
 30
0.000000
 11
16.115026
 21
10.211618
 31
0.000000
  6
CONTINUOUS
  0
ARC
  8
WHITE
 10
16.094933
 20
10.231830
 30
0.000000
 40
0.028500
 50
-171.635308
 51
-45.169095
  6
CONTINUOUS
  0
LINE
  8
WHITE
 10
16.066736
 20
10.227684
 30
0.000000
 11
16.021233
 21
10.537673
 31
0.000000
  6
CONTINUOUS
  0
ARC
  8
WHITE
 10
15.993037
 20
10.533527
 30
0.000000
 40
0.028500
 50
8.364700
 51
169.003099
  6
CONTINUOUS
  0
LINE
  8
WHITE
 10
15.965060
 20
10.538964
 30
0.000000
 11
15.883839
 21
10.121349
 31
0.000000
  6
CONTINUOUS
  0
LINE
  8
WHITE
 10
15.883839
 20
10.121349
 30
0.000000
 11
15.861281
 21
10.242378
 31
0.000000
  6
CONTINUOUS
  0
ARC
  8
WHITE
 10
15.833266
 20
10.237144
 30
0.000000
 40
0.028500
 50
10.582901
 51
170.354289
  6
CONTINUOUS
  0
LINE
  8
WHITE
 10
15.805169
 20
10.241919
 30
0.000000
 11
15.696921
 21
9.604778
 31
0.000000
  6
CONTINUOUS
  0
ARC
  8
WHITE
 10
15.668824
 20
9.609553
 30
0.000000
 40
0.028500
 50
-169.811102
 51
-9.645693
  6
CONTINUOUS
  0
ARC
  8
WHITE
 10
11.781594
 20
8.910539
 30
0.000000
 40
3.921079
 50
10.194202
 51
19.314746
  6
CONTINUOUS
  0
ARC
  8
WHITE
 10
15.412423
 20
10.320157
 30
0.000000
 40
0.132430
 50
-58.316418
 51
16.713599
  6
CONTINUOUS
  0
ARC
  8
WHITE
 10
3.453172
 20
7.214436
 30
0.000000
 40
12.488274
 50
14.580537
 51
19.609768
  6
CONTINUOUS
  0
ARC
  8
WHITE
 10
15.112248
 20
11.344874
 30
0.000000
 40
0.121220
 50
30.092400
 51
110.073720
  6
CONTINUOUS
  0
LINE
  8
WHITE
 10
15.070640
 20
11.458735
 30
0.000000
 11
15.037490
 21
11.535014
 31
0.000000
  6
CONTINUOUS
  0
ARC
  8
WHITE
 10
15.011358
 20
11.523640
 30
0.000000
 40
0.028500
 50
23.520600
 51
192.546694
  6
CONTINUOUS
  0
LINE
  8
WHITE
 10
14.983538
 20
11.517449
 30
0.000000
 11
15.007347
 21
11.410503
 31
0.000000
  6
CONTINUOUS
  0
ARC
  8
WHITE
 10
15.185269
 20
11.243331
 30
0.000000
 40
0.244137
 50
136.784208
 51
185.241932
  6
CONTINUOUS
  0
ARC
  8
WHITE
 10
19.294127
 20
11.950071
 30
0.000000
 40
4.412617
 50
-170.490081
 51
-157.230109
  6
CONTINUOUS
  0
ARC
  8
WHITE
 10
15.362268
 20
10.348873
 30
0.000000
 40
0.173497
 50
-142.080993
 51
-90.789089
  6
CONTINUOUS
  0
ARC
  8
WHITE
 10
6.512970
 20
7.436191
 30
0.000000
 40
9.261265
 50
14.613600
 51
17.203699
  6
CONTINUOUS
  0
ARC
  8
WHITE
 10
15.447113
 20
9.765509
 30
0.000000
 40
0.028462
 50
-139.143949
 51
14.840191
  6
CONTINUOUS
  0
ARC
  8
WHITE
 10
3.476874
 20
-0.641732
 30
0.000000
 40
15.833357
 50
41.004822
 51
43.481417
  6
CONTINUOUS
  0
ARC
  8
WHITE
 10
14.944842
 20
10.233893
 30
0.000000
 40
0.028500
 50
43.486602
 51
187.008995
  6
CONTINUOUS
  0
LINE
  8
WHITE
 10
14.916555
 20
10.230415
 30
0.000000
 11
14.936089
 21
10.071266
 31
0.000000
  6
CONTINUOUS
  0
LINE
  8
WHITE
 10
14.936089
 20
10.071266
 30
0.000000
 11
14.691806
 21
10.382554
 31
0.000000
  6
CONTINUOUS
  0
ARC
  8
WHITE
 10
14.669388
 20
10.364956
 30
0.000000
 40
0.028500
 50
38.130899
 51
199.152690
  6
CONTINUOUS
  0
LINE
  8
WHITE
 10
14.642465
 20
10.355606
 30
0.000000
 11
14.818954
 21
9.847406
 31
0.000000
  6
CONTINUOUS
  0
ARC
  8
WHITE
 10
14.792032
 20
9.838056
 30
0.000000
 40
0.028500
 50
-134.000010
 51
19.152702
  6
CONTINUOUS
  0
LINE
  8
WHITE
 10
14.772234
 20
9.817555
 30
0.000000
 11
14.680062
 21
9.906520
 31
0.000000
  6
CONTINUOUS
  0
ARC
  8
WHITE
 10
14.660265
 20
9.886019
 30
0.000000
 40
0.028500
 50
46.000002
 51
206.144795
  6
CONTINUOUS
  0
LINE
  8
WHITE
 10
14.634681
 20
9.873461
 30
0.000000
 11
14.716800
 21
9.706288
 31
0.000000
  6
CONTINUOUS
  0
ARC
  8
WHITE
 10
13.487968
 20
8.866622
 30
0.000000
 40
1.488310
 50
34.344968
 51
44.705492
  6
CONTINUOUS
  0
ARC
  8
WHITE
 10
14.525633
 20
9.893413
 30
0.000000
 40
0.028500
 50
45.078416
 51
203.210513
  6
CONTINUOUS
  0
ARC
  8
WHITE
 10
20.441688
 20
12.488950
 30
0.000000
 40
6.488880
 50
-156.313705
 51
-152.560202
  6
CONTINUOUS
  0
ARC
  8
WHITE
 10
13.343055
 20
8.982991
 30
0.000000
 40
1.435632
 50
17.647074
 51
21.055279
  6
CONTINUOUS
  0
ARC
  8
WHITE
 10
14.683974
 20
9.409555
 30
0.000000
 40
0.028500
 50
-133.670903
 51
17.671998
  6
CONTINUOUS
  0
ARC
  8
WHITE
 10
14.154528
 20
8.854759
 30
0.000000
 40
0.738384
 50
46.339782
 51
64.199329
  6
CONTINUOUS
  0
ARC
  8
WHITE
 10
14.463717
 20
9.493773
 30
0.000000
 40
0.028500
 50
64.685079
 51
221.906397
  6
CONTINUOUS
  0
ARC
  8
WHITE
 10
11.158076
 20
6.475913
 30
0.000000
 40
4.447520
 50
25.756601
 51
42.397402
  6
CONTINUOUS
  0
LINE
  8
WHITE
 10
15.163726
 20
8.408578
 30
0.000000
 11
15.155886
 21
8.294567
 31
0.000000
  6
CONTINUOUS
  0
ARC
  8
WHITE
 10
15.127461
 20
8.296639
 30
0.000000
 40
0.028500
 50
-128.821353
 51
-4.170117
  6
CONTINUOUS
  0
LINE
  8
WHITE
 10
15.109595
 20
8.274435
 30
0.000000
 11
14.997317
 21
8.365304
 31
0.000000
  6
CONTINUOUS
  0
ARC
  8
WHITE
 10
14.979446
 20
8.343073
 30
0.000000
 40
0.028523
 50
51.204564
 51
209.509082
  6
CONTINUOUS
  0
LINE
  8
WHITE
 10
14.954623
 20
8.329024
 30
0.000000
 11
15.159243
 21
7.972111
 31
0.000000
  6
CONTINUOUS
  0
ARC
  8
WHITE
 10
15.134587
 20
7.957921
 30
0.000000
 40
0.028447
 50
-71.888651
 51
29.922439
  6
CONTINUOUS
  0
LINE
  8
WHITE
 10
15.143431
 20
7.930883
 30
0.000000
 11
15.064547
 21
7.904898
 31
0.000000
  6
CONTINUOUS
  0
ARC
  8
WHITE
 10
15.055644
 20
7.931895
 30
0.000000
 40
0.028427
 50
-161.070180
 51
-71.750258
  6
CONTINUOUS
  0
LINE
  8
WHITE
 10
15.028755
 20
7.922673
 30
0.000000
 11
14.991861
 21
8.030093
 31
0.000000
  6
CONTINUOUS
  0
ARC
  8
WHITE
 10
14.964927
 20
8.020929
 30
0.000000
 40
0.028450
 50
18.790078
 51
112.376772
  6
CONTINUOUS
  0
LINE
  8
WHITE
 10
14.954096
 20
8.047237
 30
0.000000
 11
14.895165
 21
8.022989
 31
0.000000
  6
CONTINUOUS
  0
ARC
  8
WHITE
 10
14.884308
 20
8.049293
 30
0.000000
 40
0.028457
 50
-149.933642
 51
-67.572861
  6
CONTINUOUS
  0
LINE
  8
WHITE
 10
14.859680
 20
8.035036
 30
0.000000
 11
14.800949
 21
8.136474
 31
0.000000
  6
CONTINUOUS
  0
ARC
  8
WHITE
 10
14.776281
 20
8.122200
 30
0.000000
 40
0.028500
 50
30.054600
 51
156.224894
  6
CONTINUOUS
  0
LINE
  8
WHITE
 10
14.750199
 20
8.133690
 30
0.000000
 11
14.689456
 21
7.995930
 31
0.000000
  6
CONTINUOUS
  0
LINE
  8
WHITE
 10
14.689456
 20
7.995930
 30
0.000000
 11
14.646919
 21
8.157567
 31
0.000000
  6
CONTINUOUS
  0
ARC
  8
WHITE
 10
14.619325
 20
8.150157
 30
0.000000
 40
0.028571
 50
15.031397
 51
153.274697
  6
CONTINUOUS
  0
LINE
  8
WHITE
 10
14.593806
 20
8.163006
 30
0.000000
 11
14.537814
 21
8.050712
 31
0.000000
  6
CONTINUOUS
  0
ARC
  8
WHITE
 10
14.512311
 20
8.063434
 30
0.000000
 40
0.028500
 50
-155.250503
 51
-26.511997
  6
CONTINUOUS
  0
LINE
  8
WHITE
 10
14.486428
 20
8.051502
 30
0.000000
 11
14.450105
 21
8.130362
 31
0.000000
  6
CONTINUOUS
  0
ARC
  8
WHITE
 10
14.424223
 20
8.118430
 30
0.000000
 40
0.028500
 50
24.749500
 51
177.308595
  6
CONTINUOUS
  0
LINE
  8
WHITE
 10
14.395754
 20
8.119768
 30
0.000000
 11
14.388022
 21
7.955133
 31
0.000000
  6
CONTINUOUS
  0
ARC
  8
WHITE
 10
14.359588
 20
7.956400
 30
0.000000
 40
0.028462
 50
-65.762889
 51
-2.550571
  6
CONTINUOUS
  0
LINE
  8
WHITE
 10
14.371272
 20
7.930446
 30
0.000000
 11
14.331565
 21
7.912626
 31
0.000000
  6
CONTINUOUS
  0
ARC
  8
WHITE
 10
14.319805
 20
7.938645
 30
0.000000
 40
0.028553
 50
-112.324579
 51
-65.678107
  6
CONTINUOUS
  0
LINE
  8
WHITE
 10
14.308959
 20
7.912232
 30
0.000000
 11
14.163306
 21
7.972243
 31
0.000000
  6
CONTINUOUS
  0
ARC
  8
WHITE
 10
14.152490
 20
7.945875
 30
0.000000
 40
0.028500
 50
67.696974
 51
148.279684
  6
CONTINUOUS
  0
LINE
  8
WHITE
 10
14.128248
 20
7.960860
 30
0.000000
 11
14.047296
 21
7.829133
 31
0.000000
  6
CONTINUOUS
  0
ARC
  8
WHITE
 10
14.023015
 20
7.844056
 30
0.000000
 40
0.028500
 50
-118.128200
 51
-31.574097
  6
CONTINUOUS
  0
LINE
  8
WHITE
 10
14.009582
 20
7.818928
 30
0.000000
 11
13.830619
 21
7.914334
 31
0.000000
  6
CONTINUOUS
  0
ARC
  8
WHITE
 10
13.843931
 20
7.939475
 30
0.000000
 40
0.028448
 50
177.008061
 51
242.098600
  6
CONTINUOUS
  0
LINE
  8
WHITE
 10
13.815522
 20
7.940960
 30
0.000000
 11
13.825429
 21
8.130021
 31
0.000000
  6
CONTINUOUS
  0
LINE
  8
WHITE
 10
13.825429
 20
8.130021
 30
0.000000
 11
13.856023
 21
8.315168
 31
0.000000
  6
CONTINUOUS
  0
ARC
  8
WHITE
 10
13.827911
 20
8.319904
 30
0.000000
 40
0.028508
 50
-9.562767
 51
140.497196
  6
CONTINUOUS
  0
LINE
  8
WHITE
 10
13.805920
 20
8.338033
 30
0.000000
 11
13.680043
 21
8.185252
 31
0.000000
  6
CONTINUOUS
  0
LINE
  8
WHITE
 10
13.680043
 20
8.185252
 30
0.000000
 11
13.662508
 21
8.263570
 31
0.000000
  6
CONTINUOUS
  0
ARC
  8
WHITE
 10
13.634689
 20
8.257377
 30
0.000000
 40
0.028500
 50
12.550894
 51
156.463820
  6
CONTINUOUS
  0
LINE
  8
WHITE
 10
13.608560
 20
8.268758
 30
0.000000
 11
13.537008
 21
8.105794
 31
0.000000
  6
CONTINUOUS
  0
LINE
  8
WHITE
 10
13.537008
 20
8.105794
 30
0.000000
 11
13.445817
 21
7.899265
 31
0.000000
  6
CONTINUOUS
  0
ARC
  8
WHITE
 10
13.419744
 20
7.910773
 30
0.000000
 40
0.028500
 50
-161.121310
 51
-23.814894
  6
CONTINUOUS
  0
LINE
  8
WHITE
 10
13.392777
 20
7.901551
 30
0.000000
 11
13.350327
 21
8.025584
 31
0.000000
  6
CONTINUOUS
  0
ARC
  8
WHITE
 10
13.323361
 20
8.016362
 30
0.000000
 40
0.028500
 50
18.878700
 51
152.260189
  6
CONTINUOUS
  0
LINE
  8
WHITE
 10
13.298136
 20
8.029628
 30
0.000000
 11
13.224301
 21
7.889094
 31
0.000000
  6
CONTINUOUS
  0
ARC
  8
WHITE
 10
13.199077
 20
7.902360
 30
0.000000
 40
0.028500
 50
-162.442912
 51
-27.739792
  6
CONTINUOUS
  0
LINE
  8
WHITE
 10
13.171904
 20
7.893763
 30
0.000000
 11
13.125156
 21
8.041453
 31
0.000000
  6
CONTINUOUS
  0
ARC
  8
WHITE
 10
13.097984
 20
8.032856
 30
0.000000
 40
0.028500
 50
17.557100
 51
164.810799
  6
CONTINUOUS
  0
LINE
  8
WHITE
 10
13.070479
 20
8.040323
 30
0.000000
 11
13.031036
 21
7.895186
 31
0.000000
  6
CONTINUOUS
  0
ARC
  8
WHITE
 10
13.003549
 20
7.902718
 30
0.000000
 40
0.028500
 50
-86.362012
 51
-15.323762
  6
CONTINUOUS
  0
LINE
  8
WHITE
 10
13.005358
 20
7.874275
 30
0.000000
 11
12.858211
 21
7.864990
 31
0.000000
  6
CONTINUOUS
  0
ARC
  8
WHITE
 10
12.856324
 20
7.893428
 30
0.000000
 40
0.028500
 50
-141.180590
 51
-86.202150
  6
CONTINUOUS
  0
LINE
  8
WHITE
 10
12.834119
 20
7.875562
 30
0.000000
 11
12.642685
 21
8.113937
 31
0.000000
  6
CONTINUOUS
  0
ARC
  8
WHITE
 10
12.620462
 20
8.096060
 30
0.000000
 40
0.028521
 50
38.814269
 51
186.529225
  6
CONTINUOUS
  0
LINE
  8
WHITE
 10
12.592126
 20
8.092817
 30
0.000000
 11
12.609755
 21
7.942906
 31
0.000000
  6
CONTINUOUS
  0
LINE
  8
WHITE
 10
12.609755
 20
7.942906
 30
0.000000
 11
12.497680
 21
7.635669
 31
0.000000
  6
CONTINUOUS
  0
ARC
  8
WHITE
 10
12.470905
 20
7.645463
 30
0.000000
 40
0.028510
 50
-89.000803
 51
-20.091963
  6
CONTINUOUS
  0
LINE
  8
WHITE
 10
12.471402
 20
7.616967
 30
0.000000
 11
12.405292
 21
7.615813
 31
0.000000
  6
CONTINUOUS
  0
ARC
  8
WHITE
 10
12.404833
 20
7.644310
 30
0.000000
 40
0.028500
 50
177.368771
 51
270.923684
  6
CONTINUOUS
  0
LINE
  8
WHITE
 10
12.376363
 20
7.645618
 30
0.000000
 11
12.390676
 21
7.946969
 31
0.000000
  6
CONTINUOUS
  0
ARC
  8
WHITE
 10
12.362244
 20
7.948419
 30
0.000000
 40
0.028469
 50
-2.920351
 51
118.212450
  6
CONTINUOUS
  0
LINE
  8
WHITE
 10
12.348786
 20
7.973506
 30
0.000000
 11
12.115522
 21
7.848481
 31
0.000000
  6
CONTINUOUS
  0
ARC
  8
WHITE
 10
12.102046
 20
7.873604
 30
0.000000
 40
0.028509
 50
-154.827735
 51
-61.791657
  6
CONTINUOUS
  0
LINE
  8
WHITE
 10
12.076245
 20
7.861478
 30
0.000000
 11
12.024608
 21
7.971526
 31
0.000000
  6
CONTINUOUS
  0
ARC
  8
WHITE
 10
11.998809
 20
7.959416
 30
0.000000
 40
0.028500
 50
25.145500
 51
176.601288
  6
CONTINUOUS
  0
LINE
  8
WHITE
 10
11.970359
 20
7.961106
 30
0.000000
 11
11.968104
 21
7.922774
 31
0.000000
  6
CONTINUOUS
  0
ARC
  8
WHITE
 10
11.939653
 20
7.924445
 30
0.000000
 40
0.028500
 50
-136.727410
 51
-3.360222
  6
CONTINUOUS
  0
LINE
  8
WHITE
 10
11.918903
 20
7.904909
 30
0.000000
 11
11.764374
 21
8.068499
 31
0.000000
  6
CONTINUOUS
  0
ARC
  8
WHITE
 10
11.743703
 20
8.048878
 30
0.000000
 40
0.028500
 50
43.507473
 51
188.358263
  6
CONTINUOUS
  0
LINE
  8
WHITE
 10
11.715506
 20
8.044735
 30
0.000000
 11
11.763291
 21
7.724040
 31
0.000000
  6
CONTINUOUS
  0
ARC
  8
WHITE
 10
11.735036
 20
7.719934
 30
0.000000
 40
0.028551
 50
-138.080582
 51
8.268400
  6
CONTINUOUS
  0
LINE
  8
WHITE
 10
11.713791
 20
7.700859
 30
0.000000
 11
11.608011
 21
7.819279
 31
0.000000
  6
CONTINUOUS
  0
ARC
  8
WHITE
 10
11.586753
 20
7.800296
 30
0.000000
 40
0.028500
 50
41.763600
 51
173.405389
  6
CONTINUOUS
  0
LINE
  8
WHITE
 10
11.558441
 20
7.803569
 30
0.000000
 11
11.553142
 21
7.757366
 31
0.000000
  6
CONTINUOUS
  0
ARC
  8
WHITE
 10
11.524831
 20
7.760639
 30
0.000000
 40
0.028500
 50
-163.744909
 51
-6.594593
  6
CONTINUOUS
  0
LINE
  8
WHITE
 10
11.497470
 20
7.752661
 30
0.000000
 11
11.466686
 21
7.858344
 31
0.000000
  6
CONTINUOUS
  0
ARC
  8
WHITE
 10
11.439334
 20
7.850148
 30
0.000000
 40
0.028553
 50
16.681890
 51
170.602219
  6
CONTINUOUS
  0
LINE
  8
WHITE
 10
11.411165
 20
7.854810
 30
0.000000
 11
11.400413
 21
7.787244
 31
0.000000
  6
CONTINUOUS
  0
ARC
  8
WHITE
 10
11.372271
 20
7.791745
 30
0.000000
 40
0.028500
 50
-154.080446
 51
-9.086577
  6
CONTINUOUS
  0
LINE
  8
WHITE
 10
11.346638
 20
7.779287
 30
0.000000
 11
11.206206
 21
8.069104
 31
0.000000
  6
CONTINUOUS
  0
ARC
  8
WHITE
 10
11.180587
 20
8.056616
 30
0.000000
 40
0.028500
 50
25.987905
 51
137.975983
  6
CONTINUOUS
  0
LINE
  8
WHITE
 10
11.159416
 20
8.075695
 30
0.000000
 11
11.148089
 21
8.047882
 31
0.000000
  6
CONTINUOUS
  0
ARC
  8
WHITE
 10
11.123359
 20
8.062048
 30
0.000000
 40
0.028500
 50
-132.109906
 51
-29.804395
  6
CONTINUOUS
  0
LINE
  8
WHITE
 10
11.104250
 20
8.040907
 30
0.000000
 11
10.917236
 21
8.209458
 31
0.000000
  6
CONTINUOUS
  0
ARC
  8
WHITE
 10
10.898157
 20
8.188287
 30
0.000000
 40
0.028500
 50
47.974899
 51
157.370590
  6
CONTINUOUS
  0
LINE
  8
WHITE
 10
10.871851
 20
8.199253
 30
0.000000
 11
10.847930
 21
8.141780
 31
0.000000
  6
CONTINUOUS
  0
ARC
  8
WHITE
 10
10.821631
 20
8.152761
 30
0.000000
 40
0.028500
 50
-134.798169
 51
-22.662982
  6
CONTINUOUS
  0
LINE
  8
WHITE
 10
10.801550
 20
8.132538
 30
0.000000
 11
10.687687
 21
8.245350
 31
0.000000
  6
CONTINUOUS
  0
ARC
  8
WHITE
 10
10.664239
 20
8.280868
 30
0.000000
 40
0.042560
 50
-56.568332
 51
31.138136
  6
CONTINUOUS
  0
ARC
  8
WHITE
 10
6.084796
 20
5.296180
 30
0.000000
 40
5.508765
 50
33.079501
 51
37.536343
  6
CONTINUOUS
  0
ARC
  8
WHITE
 10
11.092722
 20
9.191635
 30
0.000000
 40
0.836570
 50
-160.426992
 51
-139.872835
  6
CONTINUOUS
  0
ARC
  8
WHITE
 10
9.033121
 20
8.278990
 30
0.000000
 40
1.419965
 50
26.446001
 51
58.582498
  6
CONTINUOUS
  0
ARC
  8
WHITE
 10
9.890344
 20
9.760023
 30
0.000000
 40
0.293584
 50
-165.199758
 51
-113.493998
  6
CONTINUOUS
  0
ARC
  8
WHITE
 10
8.856695
 20
11.405394
 30
0.000000
 40
1.876665
 50
-66.450463
 51
-48.722240
  6
CONTINUOUS
  0
ARC
  8
WHITE
 10
10.758692
 20
9.750585
 30
0.000000
 40
0.707516
 50
159.786773
 51
188.408338
  6
CONTINUOUS
  0
ARC
  8
WHITE
 10
10.115185
 20
9.655350
 30
0.000000
 40
0.057000
 50
-171.704923
 51
-125.281021
  6
CONTINUOUS
  0
ARC
  8
WHITE
 10
7.406341
 20
5.813645
 30
0.000000
 40
4.643695
 50
46.051700
 51
54.812900
  6
CONTINUOUS
  0
ARC
  8
WHITE
 10
11.115045
 20
9.121070
 30
0.000000
 40
0.487261
 50
175.777254
 51
197.950398
  6
CONTINUOUS
  0
ARC
  8
WHITE
 10
10.705743
 20
8.988581
 30
0.000000
 40
0.057045
 50
-161.945393
 51
-47.359701
  6
CONTINUOUS
  0
ARC
  8
WHITE
 10
10.468121
 20
9.246113
 30
0.000000
 40
0.407455
 50
-47.310643
 51
-20.490251
  6
CONTINUOUS
  0
ARC
  8
WHITE
 10
10.903196
 20
9.083545
 30
0.000000
 40
0.057000
 50
31.358700
 51
159.523890
  6
CONTINUOUS
  0
ARC
  8
WHITE
 10
10.489047
 20
8.831295
 30
0.000000
 40
0.541922
 50
0.581461
 51
31.346280
  6
CONTINUOUS
  0
ARC
  8
WHITE
 10
11.597366
 20
8.793767
 30
0.000000
 40
0.568057
 50
175.655956
 51
225.175145
  6
CONTINUOUS
  0
ARC
  8
WHITE
 10
11.237067
 20
8.431423
 30
0.000000
 40
0.057069
 50
-134.708141
 51
-21.392752
  6
CONTINUOUS
  0
ARC
  8
WHITE
 10
9.800357
 20
8.992852
 30
0.000000
 40
1.599579
 50
-21.345986
 51
-15.158524
  6
CONTINUOUS
  0
ARC
  8
WHITE
 10
12.364866
 20
9.466585
 30
0.000000
 40
1.355460
 50
-138.846002
 51
-112.302315
  6
CONTINUOUS
  0
ARC
  8
WHITE
 10
11.872107
 20
8.265345
 30
0.000000
 40
0.057081
 50
-112.267639
 51
9.501284
  6
CONTINUOUS
  0
ARC
  8
WHITE
 10
11.583223
 20
8.216568
 30
0.000000
 40
0.350055
 50
9.570326
 51
31.549804
  6
CONTINUOUS
  0
ARC
  8
WHITE
 10
12.087448
 20
8.817317
 30
0.000000
 40
0.465595
 50
-116.248118
 51
-101.367488
  6
CONTINUOUS
  0
ARC
  8
WHITE
 10
12.006905
 20
8.416739
 30
0.000000
 40
0.057000
 50
-101.358495
 51
35.596402
  6
CONTINUOUS
  0
ARC
  8
WHITE
 10
11.610398
 20
8.132621
 30
0.000000
 40
0.544791
 50
35.620721
 51
45.352491
  6
CONTINUOUS
  0
ARC
  8
WHITE
 10
14.440979
 20
10.924748
 30
0.000000
 40
3.431210
 50
-143.866317
 51
-135.510022
  6
CONTINUOUS
  0
ARC
  8
WHITE
 10
10.849406
 20
8.541330
 30
0.000000
 40
0.895945
 50
23.700627
 51
70.988704
  6
CONTINUOUS
  0
ARC
  8
WHITE
 10
15.427190
 20
19.262414
 30
0.000000
 40
10.764070
 50
-116.660304
 51
-113.463803
  6
CONTINUOUS
  0
ARC
  8
WHITE
 10
10.696891
 20
9.794277
 30
0.000000
 40
0.181294
 50
155.466430
 51
236.698207
  6
CONTINUOUS
  0
ARC
  8
WHITE
 10
11.452309
 20
9.638685
 30
0.000000
 40
0.948860
 50
138.343857
 51
165.917821
  6
CONTINUOUS
  0
ARC
  8
WHITE
 10
14.547016
 20
7.206725
 30
0.000000
 40
4.883380
 50
122.880800
 51
141.159588
  6
CONTINUOUS
  0
ARC
  8
WHITE
 10
10.603053
 20
13.772445
 30
0.000000
 40
2.783136
 50
-62.321149
 51
-45.369895
  6
CONTINUOUS
  0
ARC
  8
WHITE
 10
16.901306
 20
5.954909
 30
0.000000
 40
7.275385
 50
111.457602
 51
126.651597
  6
CONTINUOUS
  0
ARC
  8
WHITE
 10
13.991699
 20
13.379523
 30
0.000000
 40
0.699036
 50
-69.204662
 51
-5.205709
  6
CONTINUOUS
  0
ARC
  8
WHITE
 10
13.642046
 20
13.396545
 30
0.000000
 40
1.048895
 50
-4.398714
 51
10.254150
  6
CONTINUOUS
  0
ARC
  8
WHITE
 10
14.752910
 20
13.597505
 30
0.000000
 40
0.080000
 50
146.017874
 51
190.254127
  6
CONTINUOUS
  0
ARC
  8
WHITE
 10
15.168722
 20
13.317323
 30
0.000000
 40
0.581400
 50
77.597319
 51
146.025935
  6
CONTINUOUS
  0
ARC
  8
WHITE
 10
14.953335
 20
12.088628
 30
0.000000
 40
1.828465
 50
54.482398
 51
79.275255
  6
CONTINUOUS
  0
ARC
  8
WHITE
 10
15.274886
 20
12.768268
 30
0.000000
 40
1.096585
 50
24.213371
 51
47.509947
  6
CONTINUOUS
  0
ARC
  8
WHITE
 10
17.137485
 20
13.635834
 30
0.000000
 40
0.958360
 50
-154.152899
 51
-114.465636
  6
CONTINUOUS
  0
ARC
  8
WHITE
 10
16.217345
 20
11.422348
 30
0.000000
 40
1.439630
 50
45.384899
 51
68.687599
  6
CONTINUOUS
  0
ARC
  8
WHITE
 10
13.159586
 20
8.625869
 30
0.000000
 40
5.581915
 50
38.524979
 51
43.202571
  6
CONTINUOUS
  0
LINE
  8
WHITE
 10
17.526523
 20
12.102597
 30
0.000000
 11
17.375121
 21
11.894220
 31
0.000000
  6
CONTINUOUS
  0
ARC
  8
WHITE
 10
17.333700
 20
11.774159
 30
0.000000
 40
0.127005
 50
70.965585
 51
157.014985
  6
CONTINUOUS
  0
ARC
  8
WHITE
 10
21.289234
 20
8.976997
 30
0.000000
 40
4.968785
 50
145.045392
 51
160.713299
  6
CONTINUOUS
  0
ARC
  8
WHITE
 10
16.693479
 20
10.568740
 30
0.000000
 40
0.106352
 50
152.308300
 51
237.896310
  6
CONTINUOUS
  0
ARC
  8
WHITE
 10
12.493685
 20
11.477070
 30
0.000000
 40
3.724095
 50
-123.578302
 51
-121.611208
  6
CONTINUOUS
  0
LINE
  8
WHITE
 10
10.541691
 20
8.305540
 30
0.000000
 11
10.703280
 21
7.703922
 31
0.000000
  6
CONTINUOUS
  0
ARC
  8
WHITE
 10
10.675767
 20
7.696568
 30
0.000000
 40
0.028478
 50
-125.210899
 51
14.965250
  6
CONTINUOUS
  0
LINE
  8
WHITE
 10
10.659347
 20
7.673300
 30
0.000000
 11
10.526115
 21
7.767171
 31
0.000000
  6
CONTINUOUS
  0
ARC
  8
WHITE
 10
10.509704
 20
7.743870
 30
0.000000
 40
0.028500
 50
54.841801
 51
138.202595
  6
CONTINUOUS
  0
LINE
  8
WHITE
 10
10.488457
 20
7.762865
 30
0.000000
 11
10.323421
 21
7.578239
 31
0.000000
  6
CONTINUOUS
  0
ARC
  8
WHITE
 10
10.302186
 20
7.597251
 30
0.000000
 40
0.028502
 50
-138.969709
 51
-41.838541
  6
CONTINUOUS
  0
LINE
  8
WHITE
 10
10.280686
 20
7.578542
 30
0.000000
 11
10.161272
 21
7.715836
 31
0.000000
  6
CONTINUOUS
  0
ARC
  8
WHITE
 10
10.139751
 20
7.697152
 30
0.000000
 40
0.028500
 50
40.964873
 51
167.557841
  6
CONTINUOUS
  0
LINE
  8
WHITE
 10
10.111921
 20
7.703292
 30
0.000000
 11
10.103042
 21
7.663232
 31
0.000000
  6
CONTINUOUS
  0
ARC
  8
WHITE
 10
10.083516
 20
7.667560
 30
0.000000
 40
0.020000
 50
-172.878485
 51
-12.497077
  6
CONTINUOUS
  0
LINE
  8
WHITE
 10
10.063670
 20
7.665081
 30
0.000000
 11
10.057910
 21
7.711185
 31
0.000000
  6
CONTINUOUS
  0
ARC
  8
WHITE
 10
10.029653
 20
7.707692
 30
0.000000
 40
0.028472
 50
7.046245
 51
143.653909
  6
CONTINUOUS
  0
LINE
  8
WHITE
 10
10.006720
 20
7.724567
 30
0.000000
 11
9.919526
 21
7.606416
 31
0.000000
  6
CONTINUOUS
  0
ARC
  8
WHITE
 10
9.896589
 20
7.623331
 30
0.000000
 40
0.028500
 50
167.138992
 51
323.594583
  6
CONTINUOUS
  0
LINE
  8
WHITE
 10
9.868804
 20
7.629675
 30
0.000000
 11
9.992071
 21
8.169438
 31
0.000000
  6
CONTINUOUS
  0
LINE
  8
WHITE
 10
9.992071
 20
8.169438
 30
0.000000
 11
9.933147
 21
8.480276
 31
0.000000
  6
CONTINUOUS
  0
ARC
  8
WHITE
 10
10.075141
 20
8.207721
 30
0.000000
 40
0.307325
 50
80.722575
 51
117.518330
  6
CONTINUOUS
  0
ARC
  8
WHITE
 10
12.981796
 20
10.934810
 30
0.000000
 40
3.746705
 50
-139.690910
 51
-133.391167
  6
CONTINUOUS
  0
ARC
  8
WHITE
 10
10.428511
 20
8.233952
 30
0.000000
 40
0.030000
 50
-133.392324
 51
9.031599
  6
CONTINUOUS
  0
ARC
  8
WHITE
 10
6.780211
 20
7.654086
 30
0.000000
 40
3.724095
 50
9.031133
 51
11.152622
  6
CONTINUOUS
  0
LINE
  8
WHITE
 10
10.853083
 20
4.064459
 30
0.000000
 11
9.719096
 21
3.791801
 31
0.000000
  6
CONTINUOUS
  0
LINE
  8
WHITE
 10
9.719096
 20
3.791801
 30
0.000000
 11
8.318344
 21
3.709233
 31
0.000000
  6
CONTINUOUS
  0
ARC
  8
WHITE
 10
8.379817
 20
6.708446
 30
0.000000
 40
2.999843
 50
-113.081683
 51
-91.174191
  6
CONTINUOUS
  0
ARC
  8
WHITE
 10
7.293860
 20
4.153348
 30
0.000000
 40
0.223562
 50
160.361028
 51
246.230013
  6
CONTINUOUS
  0
ARC
  8
WHITE
 10
7.869971
 20
3.921470
 30
0.000000
 40
0.844456
 50
132.481177
 51
158.680635
  6
CONTINUOUS
  0
ARC
  8
WHITE
 10
9.010555
 20
2.380129
 30
0.000000
 40
2.758727
 50
95.092086
 51
128.328709
  6
CONTINUOUS
  0
LINE
  8
WHITE
 10
8.765699
 20
5.127968
 30
0.000000
 11
9.571721
 21
5.221996
 31
0.000000
  6
CONTINUOUS
  0
LINE
  8
WHITE
 10
9.571721
 20
5.221996
 30
0.000000
 11
9.542524
 21
5.174871
 31
0.000000
  6
CONTINUOUS
  0
LINE
  8
WHITE
 10
9.542524
 20
5.174871
 30
0.000000
 11
8.781473
 21
5.086089
 31
0.000000
  6
CONTINUOUS
  0
ARC
  8
WHITE
 10
9.026329
 20
2.338250
 30
0.000000
 40
2.758727
 50
95.092086
 51
128.328709
  6
CONTINUOUS
  0
ARC
  8
WHITE
 10
7.907133
 20
3.899874
 30
0.000000
 40
0.844456
 50
134.481219
 51
156.255221
  6
CONTINUOUS
  0
ARC
  8
WHITE
 10
7.317231
 20
4.159372
 30
0.000000
 40
0.200000
 50
156.254976
 51
246.063903
  6
CONTINUOUS
  0
ARC
  8
WHITE
 10
8.363812
 20
6.756374
 30
0.000000
 40
2.999843
 50
-112.081668
 51
-90.721334
  6
CONTINUOUS
  0
LINE
  8
WHITE
 10
8.326046
 20
3.756769
 30
0.000000
 11
9.712165
 21
3.838474
 31
0.000000
  6
CONTINUOUS
  0
LINE
  8
WHITE
 10
9.712165
 20
3.838474
 30
0.000000
 11
10.844298
 21
4.110686
 31
0.000000
  6
CONTINUOUS
  0
LINE
  8
WHITE
 10
10.844298
 20
4.110686
 30
0.000000
 11
12.407658
 21
4.330402
 31
0.000000
  6
CONTINUOUS
  0
LINE
  8
WHITE
 10
12.407658
 20
4.330402
 30
0.000000
 11
12.331291
 21
4.272207
 31
0.000000
  6
CONTINUOUS
  0
LINE
  8
WHITE
 10
12.331291
 20
4.272207
 30
0.000000
 11
10.853083
 21
4.064459
 31
0.000000
  6
CONTINUOUS
  0
LINE
  8
WHITE
 10
14.637800
 20
5.358675
 30
0.000000
 11
14.769826
 21
5.442180
 31
0.000000
  6
CONTINUOUS
  0
LINE
  8
WHITE
 10
14.769826
 20
5.442180
 30
0.000000
 11
13.776731
 21
5.258981
 31
0.000000
  6
CONTINUOUS
  0
ARC
  8
WHITE
 10
13.822084
 20
5.013129
 30
0.000000
 40
0.250000
 50
100.452007
 51
127.122306
  6
CONTINUOUS
  0
ARC
  8
WHITE
 10
13.894188
 20
4.917868
 30
0.000000
 40
0.369472
 50
127.122350
 51
247.450732
  6
CONTINUOUS
  0
ARC
  8
WHITE
 10
13.848373
 20
4.807529
 30
0.000000
 40
0.249999
 50
-112.549291
 51
-92.047709
  6
CONTINUOUS
  0
ARC
  8
WHITE
 10
14.356053
 20
19.011354
 30
0.000000
 40
14.462895
 50
-92.047034
 51
-81.760496
  6
CONTINUOUS
  0
ARC
  8
WHITE
 10
17.895423
 20
-10.549290
 30
0.000000
 40
15.317420
 50
91.614946
 51
95.494603
  6
CONTINUOUS
  0
LINE
  8
WHITE
 10
17.463741
 20
4.762046
 30
0.000000
 11
17.526749
 21
4.808751
 31
0.000000
  6
CONTINUOUS
  0
ARC
  8
WHITE
 10
17.907724
 20
-10.503931
 30
0.000000
 40
15.317420
 50
91.425207
 51
95.492101
  6
CONTINUOUS
  0
ARC
  8
WHITE
 10
14.369020
 20
19.056777
 30
0.000000
 40
14.462895
 50
-91.992775
 51
-81.760496
  6
CONTINUOUS
  0
ARC
  8
WHITE
 10
13.874791
 20
4.852478
 30
0.000000
 40
0.250000
 50
-136.334010
 51
-91.993396
  6
CONTINUOUS
  0
ARC
  8
WHITE
 10
13.951994
 20
4.926166
 30
0.000000
 40
0.356725
 50
-175.843688
 51
-136.334145
  6
CONTINUOUS
  0
ARC
  8
WHITE
 10
13.893822
 20
4.923244
 30
0.000000
 40
0.298498
 50
102.196341
 51
184.406196
  6
CONTINUOUS
  0
ARC
  8
WHITE
 10
15.983166
 20
-4.537166
 30
0.000000
 40
9.986875
 50
97.742048
 51
102.446233
  6
CONTINUOUS
  0
LINE
  8
WHITE
 10
9.305510
 20
6.220678
 30
0.000000
 11
11.517609
 21
6.497314
 31
0.000000
  6
CONTINUOUS
  0
LINE
  8
WHITE
 10
11.517609
 20
6.497314
 30
0.000000
 11
12.631749
 21
6.441750
 31
0.000000
  6
CONTINUOUS
  0
LINE
  8
WHITE
 10
12.631749
 20
6.441750
 30
0.000000
 11
12.540574
 21
6.399239
 31
0.000000
  6
CONTINUOUS
  0
LINE
  8
WHITE
 10
12.540574
 20
6.399239
 30
0.000000
 11
11.519368
 21
6.450168
 31
0.000000
  6
CONTINUOUS
  0
LINE
  8
WHITE
 10
11.519368
 20
6.450168
 30
0.000000
 11
9.450650
 21
6.191462
 31
0.000000
  6
CONTINUOUS
  0
LINE
  8
WHITE
 10
9.450650
 20
6.191462
 30
0.000000
 11
9.305510
 21
6.220678
 31
0.000000
  6
CONTINUOUS
  0
ARC
  8
WHITE
 10
9.400455
 20
13.140214
 30
0.000000
 40
0.580450
 50
152.035872
 51
189.757886
  6
CONTINUOUS
  0
LINE
  8
WHITE
 10
8.828402
 20
13.041836
 30
0.000000
 11
8.886863
 21
13.072120
 31
0.000000
  6
CONTINUOUS
  0
ARC
  8
WHITE
 10
9.463280
 20
13.140424
 30
0.000000
 40
0.580450
 50
148.210993
 51
186.757896
  6
CONTINUOUS
  0
ARC
  8
WHITE
 10
8.840121
 20
12.877032
 30
0.000000
 40
0.583777
 50
77.155224
 51
81.480332
  6
CONTINUOUS
  0
ARC
  8
WHITE
 10
8.935132
 20
13.510726
 30
0.000000
 40
0.057000
 50
168.433024
 51
261.398836
  6
CONTINUOUS
  0
ARC
  8
WHITE
 10
16.548856
 20
11.958055
 30
0.000000
 40
7.827430
 50
166.247993
 51
168.473391
  6
CONTINUOUS
  0
ARC
  8
WHITE
 10
8.902166
 20
14.300517
 30
0.000000
 40
0.483699
 50
-89.322950
 51
-84.823371
  6
CONTINUOUS
  0
ARC
  8
WHITE
 10
8.907197
 20
13.873824
 30
0.000000
 40
0.056977
 50
-170.993420
 51
-89.310741
  6
CONTINUOUS
  0
ARC
  8
WHITE
 10
9.705721
 20
14.000270
 30
0.000000
 40
0.865450
 50
171.731856
 51
188.998588
  6
CONTINUOUS
  0
ARC
  8
WHITE
 10
8.809682
 20
14.130479
 30
0.000000
 40
0.040000
 50
-8.267858
 51
66.081314
  6
CONTINUOUS
  0
ARC
  8
WHITE
 10
8.849010
 20
14.219149
 30
0.000000
 40
0.057000
 50
173.752691
 51
246.081072
  6
CONTINUOUS
  0
ARC
  8
WHITE
 10
12.860945
 20
13.780747
 30
0.000000
 40
4.092818
 50
168.843867
 51
173.763628
  6
CONTINUOUS
  0
ARC
  8
WHITE
 10
8.891919
 20
14.857999
 30
0.000000
 40
0.289116
 50
-110.569041
 51
-99.245611
  6
CONTINUOUS
  0
ARC
  8
WHITE
 10
8.810315
 20
14.640677
 30
0.000000
 40
0.056978
 50
-174.102007
 51
-110.520199
  6
CONTINUOUS
  0
ARC
  8
WHITE
 10
9.851546
 20
14.748775
 30
0.000000
 40
1.103805
 50
175.158589
 51
185.925590
  6
CONTINUOUS
  0
ARC
  8
WHITE
 10
8.794847
 20
15.098075
 30
0.000000
 40
0.259753
 50
-115.982966
 51
-99.566413
  6
CONTINUOUS
  0
ARC
  8
WHITE
 10
8.706013
 20
14.915796
 30
0.000000
 40
0.056980
 50
-170.757766
 51
-115.984834
  6
CONTINUOUS
  0
ARC
  8
WHITE
 10
9.792836
 20
15.092389
 30
0.000000
 40
1.158055
 50
176.343190
 51
189.229730
  6
CONTINUOUS
  0
ARC
  8
WHITE
 10
8.567620
 20
15.688705
 30
0.000000
 40
0.527061
 50
-110.136599
 51
-82.420110
  6
CONTINUOUS
  0
ARC
  8
WHITE
 10
8.405650
 20
15.247368
 30
0.000000
 40
0.056941
 50
-148.082404
 51
-110.001130
  6
CONTINUOUS
  0
ARC
  8
WHITE
 10
9.062926
 20
15.655342
 30
0.000000
 40
0.830539
 50
-169.580371
 51
-148.165820
  6
CONTINUOUS
  0
LINE
  8
WHITE
 10
8.246083
 20
15.505134
 30
0.000000
 11
8.204751
 21
15.496750
 31
0.000000
  6
CONTINUOUS
  0
ARC
  8
WHITE
 10
9.021428
 20
15.647590
 30
0.000000
 40
0.830490
 50
-169.535394
 51
-147.461736
  6
CONTINUOUS
  0
ARC
  8
WHITE
 10
8.388740
 20
15.243929
 30
0.000000
 40
0.080000
 50
-147.461752
 51
-112.259531
  6
CONTINUOUS
  0
ARC
  8
WHITE
 10
8.555843
 20
15.658586
 30
0.000000
 40
0.527060
 50
-111.996142
 51
-86.093627
  6
CONTINUOUS
  0
ARC
  8
WHITE
 10
9.747442
 20
15.058890
 30
0.000000
 40
1.158050
 50
176.343190
 51
187.852833
  6
CONTINUOUS
  0
ARC
  8
WHITE
 10
8.679594
 20
14.910905
 30
0.000000
 40
0.080000
 50
-172.647173
 51
-123.517841
  6
CONTINUOUS
  0
ARC
  8
WHITE
 10
8.779004
 20
15.060640
 30
0.000000
 40
0.259730
 50
-123.561141
 51
-106.611702
  6
CONTINUOUS
  0
ARC
  8
WHITE
 10
9.804618
 20
14.718591
 30
0.000000
 40
1.103805
 50
175.158589
 51
185.233995
  6
CONTINUOUS
  0
ARC
  8
WHITE
 10
8.785245
 20
14.623108
 30
0.000000
 40
0.080000
 50
-176.266013
 51
-108.201077
  6
CONTINUOUS
  0
ARC
  8
WHITE
 10
8.850555
 20
14.821731
 30
0.000000
 40
0.289085
 50
-108.201443
 51
-101.898080
  6
CONTINUOUS
  0
LINE
  8
WHITE
 10
8.790954
 20
14.538857
 30
0.000000
 11
8.749421
 21
14.231965
 31
0.000000
  6
CONTINUOUS
  0
ARC
  8
WHITE
 10
8.881938
 20
14.225247
 30
0.000000
 40
0.132687
 50
177.097666
 51
226.571551
  6
CONTINUOUS
  0
ARC
  8
WHITE
 10
8.773536
 20
14.110729
 30
0.000000
 40
0.025000
 50
-6.909083
 51
46.571637
  6
CONTINUOUS
  0
ARC
  8
WHITE
 10
9.657519
 20
14.003601
 30
0.000000
 40
0.865450
 50
173.090121
 51
193.280939
  6
CONTINUOUS
  0
ARC
  8
WHITE
 10
8.854145
 20
13.813974
 30
0.000000
 40
0.040000
 50
-166.718518
 51
-97.583758
  6
CONTINUOUS
  0
LINE
  8
WHITE
 10
8.848866
 20
13.774324
 30
0.000000
 11
8.887067
 21
13.769237
 31
0.000000
  6
CONTINUOUS
  0
LINE
  8
WHITE
 10
8.887067
 20
13.769237
 30
0.000000
 11
8.828081
 21
13.506200
 31
0.000000
  6
CONTINUOUS
  0
ARC
  8
WHITE
 10
8.911200
 20
13.493201
 30
0.000000
 40
0.084129
 50
171.111498
 51
253.834692
  6
CONTINUOUS
  0
ARC
  8
WHITE
 10
2.672815
 20
16.941730
 30
0.000000
 40
0.020000
 50
-108.539345
 51
46.714668
  6
CONTINUOUS
  0
ARC
  8
WHITE
 10
3.695925
 20
18.027985
 30
0.000000
 40
1.472214
 50
-158.242755
 51
-133.285331
  6
CONTINUOUS
  0
ARC
  8
WHITE
 10
11.772354
 20
11.709320
 30
0.000000
 40
11.068501
 50
148.562657
 51
150.324670
  6
CONTINUOUS
  0
ARC
  8
WHITE
 10
3.252086
 20
18.669045
 30
0.000000
 40
1.841860
 50
-126.537167
 51
-108.539352
  6
CONTINUOUS
  0
LINE
  8
WHITE
 10
16.358211
 20
8.533132
 30
0.000000
 11
16.330499
 21
8.586813
 31
0.000000
  6
CONTINUOUS
  0
ARC
  8
WHITE
 10
18.362164
 20
7.664610
 30
0.000000
 40
2.231170
 50
155.585994
 51
206.461620
  6
CONTINUOUS
  0
LINE
  8
WHITE
 10
16.364747
 20
6.670405
 30
0.000000
 11
16.433438
 21
6.635231
 31
0.000000
  6
CONTINUOUS
  0
ARC
  8
WHITE
 10
18.413200
 20
7.664145
 30
0.000000
 40
2.231170
 50
157.078103
 51
207.461614
  6
CONTINUOUS
  0
ARC
  8
WHITE
 10
8.273596
 20
9.983385
 30
0.000000
 40
0.820800
 50
154.968099
 51
196.524200
  6
CONTINUOUS
  0
ARC
  8
WHITE
 10
7.895517
 20
9.919964
 30
0.000000
 40
0.442771
 50
-157.417335
 51
-90.056787
  6
CONTINUOUS
  0
ARC
  8
WHITE
 10
7.577341
 20
11.503290
 30
0.000000
 40
2.050860
 50
-81.087313
 51
-51.480906
  6
CONTINUOUS
  0
LINE
  8
WHITE
 10
8.854566
 20
9.898696
 30
0.000000
 11
8.799751
 21
9.910750
 31
0.000000
  6
CONTINUOUS
  0
ARC
  8
WHITE
 10
7.550724
 20
11.537390
 30
0.000000
 40
2.050860
 50
-79.180051
 51
-52.480896
  6
CONTINUOUS
  0
ARC
  8
WHITE
 10
7.944423
 20
9.999915
 30
0.000000
 40
0.477004
 50
-150.710432
 51
-91.045639
  6
CONTINUOUS
  0
ARC
  8
WHITE
 10
8.164514
 20
9.994981
 30
0.000000
 40
0.675885
 50
153.102354
 51
199.753144
  6
CONTINUOUS
  0
LINE
  8
WHITE
 10
7.561749
 20
10.300750
 30
0.000000
 11
7.529891
 21
10.330684
 31
0.000000
  6
CONTINUOUS
  0
LINE
  8
WHITE
 10
17.860749
 20
7.640750
 30
0.000000
 11
17.821143
 21
7.644030
 31
0.000000
  6
CONTINUOUS
  0
ARC
  8
WHITE
 10
16.898990
 20
7.120307
 30
0.000000
 40
1.060496
 50
-64.952001
 51
29.593761
  6
CONTINUOUS
  0
LINE
  8
WHITE
 10
17.347980
 20
6.159547
 30
0.000000
 11
17.413566
 21
6.148235
 31
0.000000
  6
CONTINUOUS
  0
ARC
  8
WHITE
 10
16.947877
 20
7.101013
 30
0.000000
 40
1.060496
 50
-63.952017
 51
30.593769
  6
CONTINUOUS
  0
ARC
  8
WHITE
 10
9.383703
 20
12.206858
 30
0.000000
 40
0.058543
 50
169.268015
 51
280.667537
  6
CONTINUOUS
  0
ARC
  8
WHITE
 10
13.417845
 20
12.117654
 30
0.000000
 40
4.092885
 50
173.832891
 51
178.598491
  6
CONTINUOUS
  0
LINE
  8
WHITE
 10
9.348646
 20
12.557347
 30
0.000000
 11
9.391749
 21
12.567750
 31
0.000000
  6
CONTINUOUS
  0
ARC
  8
WHITE
 10
13.460948
 20
12.128057
 30
0.000000
 40
4.092885
 50
173.832891
 51
178.529916
  6
CONTINUOUS
  0
ARC
  8
WHITE
 10
9.425906
 20
12.240620
 30
0.000000
 40
0.056999
 50
-172.378164
 51
-75.005706
  6
CONTINUOUS
  0
ARC
  8
WHITE
 10
10.298684
 20
12.072483
 30
0.000000
 40
0.865450
 50
172.492370
 51
192.077760
  6
CONTINUOUS
  0
ARC
  8
WHITE
 10
9.507058
 20
11.907538
 30
0.000000
 40
0.057000
 50
-163.550271
 51
-102.692950
  6
CONTINUOUS
  0
ARC
  8
WHITE
 10
9.470785
 20
12.335088
 30
0.000000
 40
0.483740
 50
-87.186006
 51
-79.025497
  6
CONTINUOUS
  0
ARC
  8
WHITE
 10
17.293724
 20
10.634373
 30
0.000000
 40
7.827430
 50
170.990055
 51
173.312649
  6
CONTINUOUS
  0
ARC
  8
WHITE
 10
9.576380
 20
11.550271
 30
0.000000
 40
0.057000
 50
-175.590670
 51
-93.596998
  6
CONTINUOUS
  0
ARC
  8
WHITE
 10
9.536669
 20
10.910826
 30
0.000000
 40
0.583680
 50
80.737453
 51
86.450599
  6
CONTINUOUS
  0
ARC
  8
WHITE
 10
10.132149
 20
11.194683
 30
0.000000
 40
0.580450
 50
149.773203
 51
188.928032
  6
CONTINUOUS
  0
ARC
  8
WHITE
 10
9.612554
 20
11.123366
 30
0.000000
 40
0.057000
 50
-160.778839
 51
-97.566701
  6
CONTINUOUS
  0
ARC
  8
WHITE
 10
9.640405
 20
11.330711
 30
0.000000
 40
0.266207
 50
-97.632520
 51
-82.738478
  6
CONTINUOUS
  0
LINE
  8
WHITE
 10
9.674053
 20
11.066639
 30
0.000000
 11
9.638019
 21
11.020963
 31
0.000000
  6
CONTINUOUS
  0
ARC
  8
WHITE
 10
9.604371
 20
11.285113
 30
0.000000
 40
0.266285
 50
-97.630328
 51
-82.740670
  6
CONTINUOUS
  0
ARC
  8
WHITE
 10
9.576564
 20
11.077684
 30
0.000000
 40
0.057000
 50
-168.169301
 51
-97.611852
  6
CONTINUOUS
  0
ARC
  8
WHITE
 10
10.089017
 20
11.184418
 30
0.000000
 40
0.580450
 50
153.223755
 51
191.771766
  6
CONTINUOUS
  0
ARC
  8
WHITE
 10
9.490830
 20
10.867740
 30
0.000000
 40
0.583680
 50
82.124398
 51
86.445951
  6
CONTINUOUS
  0
ARC
  8
WHITE
 10
9.530541
 20
11.507185
 30
0.000000
 40
0.057000
 50
173.464201
 51
266.450598
  6
CONTINUOUS
  0
ARC
  8
WHITE
 10
17.250764
 20
10.625220
 30
0.000000
 40
7.827430
 50
171.256421
 51
173.482603
  6
CONTINUOUS
  0
ARC
  8
WHITE
 10
9.428665
 20
12.291188
 30
0.000000
 40
0.483740
 50
-84.296151
 51
-79.803397
  6
CONTINUOUS
  0
ARC
  8
WHITE
 10
9.471128
 20
11.866566
 30
0.000000
 40
0.057000
 50
-165.950639
 51
-84.347557
  6
CONTINUOUS
  0
ARC
  8
WHITE
 10
10.255581
 20
12.062080
 30
0.000000
 40
0.865450
 50
174.214097
 51
193.998601
  6
CONTINUOUS
  0
LINE
  8
WHITE
 10
11.212750
 20
12.489750
 30
0.000000
 11
11.211543
 21
12.554999
 31
0.000000
  6
CONTINUOUS
  0
ARC
  8
WHITE
 10
17.990861
 20
5.465184
 30
0.000000
 40
9.809415
 50
133.717498
 51
144.211795
  6
CONTINUOUS
  0
LINE
  8
WHITE
 10
10.033618
 20
11.201639
 30
0.000000
 11
10.034825
 21
11.136390
 31
0.000000
  6
CONTINUOUS
  0
ARC
  8
WHITE
 10
17.992068
 20
5.399935
 30
0.000000
 40
9.809415
 50
133.717498
 51
144.211795
  6
CONTINUOUS
  0
LINE
  8
WHITE
 10
17.315697
 20
8.401891
 30
0.000000
 11
17.260751
 21
8.408750
 31
0.000000
  6
CONTINUOUS
  0
ARC
  8
WHITE
 10
18.788981
 20
7.563938
 30
0.000000
 40
1.746194
 50
151.065997
 51
197.905018
  6
CONTINUOUS
  0
LINE
  8
WHITE
 10
17.127358
 20
7.027088
 30
0.000000
 11
17.182305
 21
7.020229
 31
0.000000
  6
CONTINUOUS
  0
ARC
  8
WHITE
 10
18.843928
 20
7.557079
 30
0.000000
 40
1.746195
 50
151.066013
 51
197.905018
  6
CONTINUOUS
  0
LINE
  8
WHITE
 10
15.459750
 20
7.790750
 30
0.000000
 11
15.405370
 21
7.805360
 31
0.000000
  6
CONTINUOUS
  0
ARC
  8
WHITE
 10
12.334607
 20
6.123992
 30
0.000000
 40
3.500940
 50
5.914938
 51
28.702503
  6
CONTINUOUS
  0
LINE
  8
WHITE
 10
15.816908
 20
6.484770
 30
0.000000
 11
15.871288
 21
6.470161
 31
0.000000
  6
CONTINUOUS
  0
ARC
  8
WHITE
 10
12.388987
 20
6.109383
 30
0.000000
 40
3.500940
 50
5.914938
 51
28.702489
  6
CONTINUOUS
  0
LINE
  8
WHITE
 10
15.080750
 20
7.026750
 30
0.000000
 11
15.051915
 21
7.038930
 31
0.000000
  6
CONTINUOUS
  0
ARC
  8
WHITE
 10
15.790813
 20
6.613765
 30
0.000000
 40
0.852488
 50
150.083697
 51
254.839549
  6
CONTINUOUS
  0
LINE
  8
WHITE
 10
15.567867
 20
5.790946
 30
0.000000
 11
15.642802
 21
5.800068
 31
0.000000
  6
CONTINUOUS
  0
ARC
  8
WHITE
 10
15.835540
 20
6.630482
 30
0.000000
 40
0.852488
 50
152.300334
 51
256.933138
  6
CONTINUOUS
  0
ARC
  8
WHITE
 10
13.084057
 20
12.664402
 30
0.000000
 40
1.404100
 50
126.455201
 51
167.320797
  6
CONTINUOUS
  0
LINE
  8
WHITE
 10
11.714197
 20
12.972591
 30
0.000000
 11
11.675206
 21
13.043749
 31
0.000000
  6
CONTINUOUS
  0
ARC
  8
WHITE
 10
13.033476
 20
12.687940
 30
0.000000
 40
1.404100
 50
124.455199
 51
165.320795
  6
CONTINUOUS
  0
LINE
  8
WHITE
 10
12.239090
 20
13.845717
 30
0.000000
 11
12.249749
 21
13.793750
 31
0.000000
  6
CONTINUOUS
  0
ARC
  8
WHITE
 10
16.019357
 20
13.242622
 30
0.000000
 40
0.731215
 50
-14.853384
 51
16.383800
  6
CONTINUOUS
  0
ARC
  8
WHITE
 10
16.092268
 20
13.626486
 30
0.000000
 40
0.653222
 50
-15.777274
 51
11.771600
  6
CONTINUOUS
  0
ARC
  8
WHITE
 10
16.608639
 20
13.722601
 30
0.000000
 40
0.128593
 50
16.791230
 51
100.622261
  6
CONTINUOUS
  0
ARC
  8
WHITE
 10
16.580940
 20
13.501599
 30
0.000000
 40
0.347415
 50
89.341101
 51
172.291535
  6
CONTINUOUS
  0
LINE
  8
WHITE
 10
16.236664
 20
13.548199
 30
0.000000
 11
16.258845
 21
13.492859
 31
0.000000
  6
CONTINUOUS
  0
ARC
  8
WHITE
 10
16.605680
 20
13.472780
 30
0.000000
 40
0.347415
 50
90.841099
 51
176.686708
  6
CONTINUOUS
  0
ARC
  8
WHITE
 10
16.608453
 20
13.723224
 30
0.000000
 40
0.097253
 50
25.846280
 51
94.643315
  6
CONTINUOUS
  0
ARC
  8
WHITE
 10
16.056495
 20
13.632358
 30
0.000000
 40
0.653220
 50
-15.777274
 51
11.771600
  6
CONTINUOUS
  0
ARC
  8
WHITE
 10
15.983584
 20
13.248494
 30
0.000000
 40
0.731215
 50
-18.770006
 51
16.383800
  6
CONTINUOUS
  0
LINE
  8
WHITE
 10
16.675911
 20
13.013211
 30
0.000000
 11
16.726138
 21
13.055178
 31
0.000000
  6
CONTINUOUS
  0
LINE
  8
WHITE
 10
17.399659
 20
7.572536
 30
0.000000
 11
17.445614
 21
7.553685
 31
0.000000
  6
CONTINUOUS
  0
ARC
  8
WHITE
 10
16.709522
 20
7.194910
 30
0.000000
 40
0.818872
 50
-55.629506
 51
25.984840
  6
CONTINUOUS
  0
LINE
  8
WHITE
 10
17.171810
 20
6.519009
 30
0.000000
 11
17.122924
 21
6.523546
 31
0.000000
  6
CONTINUOUS
  0
ARC
  8
WHITE
 10
16.668143
 20
7.204520
 30
0.000000
 40
0.818872
 50
-56.263455
 51
26.706362
  6
CONTINUOUS
  0
LINE
  8
WHITE
 10
15.381244
 20
6.849512
 30
0.000000
 11
15.366088
 21
6.899942
 31
0.000000
  6
CONTINUOUS
  0
ARC
  8
WHITE
 10
15.743550
 20
6.610436
 30
0.000000
 40
0.475701
 50
142.512497
 51
253.208691
  6
CONTINUOUS
  0
LINE
  8
WHITE
 10
15.606126
 20
6.155017
 30
0.000000
 11
15.604276
 21
6.193671
 31
0.000000
  6
CONTINUOUS
  0
ARC
  8
WHITE
 10
15.801470
 20
6.626575
 30
0.000000
 40
0.475701
 50
152.053293
 51
245.510166
  6
CONTINUOUS
  0
CIRCLE
  8
WHITE
 10
3.344090
 20
3.344091
 30
0.000000
 40
0.078000
  6
CONTINUOUS
  0
CIRCLE
  8
WHITE
 10
20.403409
 20
3.344091
 30
0.000000
 40
0.078000
  6
CONTINUOUS
  0
ARC
  8
WHITE
 10
16.751349
 20
13.572673
 30
0.000000
 40
0.811965
 50
-71.603295
 51
-51.567946
  6
CONTINUOUS
  0
LINE
  8
WHITE
 10
17.256055
 20
12.936624
 30
0.000000
 11
17.266592
 21
12.998918
 31
0.000000
  6
CONTINUOUS
  0
ARC
  8
WHITE
 10
16.735192
 20
13.612840
 30
0.000000
 40
0.811965
 50
-73.310596
 51
-49.121099
  6
CONTINUOUS
  0
LINE
  8
WHITE
 10
16.968374
 20
12.835079
 30
0.000000
 11
17.007600
 21
12.802204
 31
0.000000
  6
CONTINUOUS
  0
CIRCLE
  8
WHITE
 10
17.015843
 20
13.480605
 30
0.000000
 40
0.059375
  6
CONTINUOUS
  0
LINE
  8
WHITE
 10
2.109750
 20
6.671750
 30
0.000000
 11
2.577750
 21
6.610750
 31
0.000000
  6
CONTINUOUS
  0
LINE
  8
WHITE
 10
2.577750
 20
6.610750
 30
0.000000
 11
3.358902
 21
6.563754
 31
0.000000
  6
CONTINUOUS
  0
ARC
  8
WHITE
 10
3.334881
 20
6.164476
 30
0.000000
 40
0.400000
 50
-7.022840
 51
86.557116
  6
CONTINUOUS
  0
LINE
  8
WHITE
 10
3.731880
 20
6.115570
 30
0.000000
 11
3.699750
 21
5.854750
 31
0.000000
  6
CONTINUOUS
  0
ARC
  8
WHITE
 10
4.803031
 20
5.732612
 30
0.000000
 40
1.110021
 50
173.682831
 51
272.618866
  6
CONTINUOUS
  0
LINE
  8
WHITE
 10
4.853750
 20
4.623750
 30
0.000000
 11
5.278239
 21
4.568530
 31
0.000000
  6
CONTINUOUS
  0
LINE
  8
WHITE
 10
5.278239
 20
4.568530
 30
0.000000
 11
5.878914
 21
4.469937
 31
0.000000
  6
CONTINUOUS
  0
ARC
  8
WHITE
 10
5.830324
 20
4.173898
 30
0.000000
 40
0.300000
 50
-36.875007
 51
80.678768
  6
CONTINUOUS
  0
LINE
  8
WHITE
 10
6.070308
 20
3.993877
 30
0.000000
 11
5.939612
 21
3.819648
 31
0.000000
  6
CONTINUOUS
  0
ARC
  8
WHITE
 10
6.339586
 20
3.519613
 30
0.000000
 40
0.500000
 50
143.125106
 51
266.556633
  6
CONTINUOUS
  0
LINE
  8
WHITE
 10
6.309555
 20
3.020515
 30
0.000000
 11
9.501186
 21
2.828477
 31
0.000000
  6
CONTINUOUS
  0
ARC
  8
WHITE
 10
9.531217
 20
3.327575
 30
0.000000
 40
0.500001
 50
-93.443367
 51
-80.155909
  6
CONTINUOUS
  0
LINE
  8
WHITE
 10
9.616701
 20
2.834936
 30
0.000000
 11
11.135787
 21
3.098534
 31
0.000000
  6
CONTINUOUS
  0
LINE
  8
WHITE
 10
11.135787
 20
3.098534
 30
0.000000
 11
12.462471
 21
3.242710
 31
0.000000
  6
CONTINUOUS
  0
LINE
  8
WHITE
 10
12.462471
 20
3.242710
 30
0.000000
 11
13.799284
 21
3.342044
 31
0.000000
  6
CONTINUOUS
  0
LINE
  8
WHITE
 10
13.799284
 20
3.342044
 30
0.000000
 11
15.671823
 21
3.148549
 31
0.000000
  6
CONTINUOUS
  0
ARC
  8
WHITE
 10
15.877394
 20
5.137956
 30
0.000000
 40
2.000000
 50
-95.899595
 51
-71.857105
  6
CONTINUOUS
  0
LINE
  8
WHITE
 10
16.500170
 20
3.237390
 30
0.000000
 11
17.663535
 21
3.618601
 31
0.000000
  6
CONTINUOUS
  0
ARC
  8
WHITE
 10
17.788090
 20
3.238487
 30
0.000000
 40
0.400001
 50
77.478727
 51
108.142832
  6
CONTINUOUS
  0
LINE
  8
WHITE
 10
17.874811
 20
3.628974
 30
0.000000
 11
18.142586
 21
3.569505
 31
0.000000
  6
CONTINUOUS
  0
ARC
  8
WHITE
 10
18.055865
 20
3.179019
 30
0.000000
 40
0.400000
 50
-54.586479
 51
77.478696
  6
CONTINUOUS
  0
ARC
  8
WHITE
 10
11.873750
 20
11.873750
 30
0.000000
 40
11.068500
 50
-151.971685
 51
-54.586468
  6
CONTINUOUS
  0
ENDSEC
  0
EOF
