0
SECTION
2
ENTITIES
0
CIRCLE
8
1
62
7
10
0.0
20
0.0
30
0.0
40
4.0
0
ARC
8
1
62
7
10
0.375086
20
-0.832495
30
0.0
40
2.0
50
229.417528
51
258.358702
0
ARC
8
1
62
7
10
-1.034095
20
0.939662
30
0.0
40
2.5
50
272.585597
51
293.569937
0
LINE
8
1
62
7
10
-0.949962
20
-1.587762
30
0.0
11
-0.949962
21
-1.697439
31
0.0
0
ARC
8
1
62
7
10
-1.487
20
-2.025299
30
0.0
40
0.625
50
15.282783
51
30.036389
0
ARC
8
1
62
7
10
-1.487
20
-2.025299
30
0.0
40
0.625
50
332.410463
51
344.826009
0
ARC
8
1
62
7
10
-0.419943
20
-0.832495
30
0.0
40
2.0
50
281.641298
51
310.582472
0
ARC
8
1
62
7
10
1.442144
20
-2.025299
30
0.0
40
0.625
50
149.96361
51
164.717217
0
LINE
8
1
62
7
10
0.905105
20
-1.587762
30
0.0
11
0.905105
21
-1.697439
31
0.0
0
ARC
8
1
62
7
10
0.989238
20
0.939662
30
0.0
40
2.5
50
246.430063
51
267.414403
0
ARC
8
1
62
7
10
-0.022428
20
-1.379267
30
0.0
40
0.03
50
66.430063
51
113.569937
0
ARC
8
1
62
7
10
0.875105
20
-1.587762
30
0.0
40
0.03
50
0.0
51
87.414403
0
ARC
8
1
62
7
10
0.875105
20
-1.697439
30
0.0
40
0.03
50
329.96361
51
360.0
0
ARC
8
1
62
7
10
0.861625
20
-2.328652
30
0.0
40
0.03
50
310.582472
51
387.589537
0
ARC
8
1
62
7
10
-0.906482
20
-2.328652
30
0.0
40
0.03
50
152.410463
51
229.417528
0
ARC
8
1
62
7
10
-0.022428
20
-2.761973
30
0.0
40
0.03
50
258.358702
51
281.641298
0
ARC
8
1
62
7
10
-0.919962
20
-1.697439
30
0.0
40
0.03
50
180.0
51
210.03641
0
ARC
8
1
62
7
10
-0.919962
20
-1.587762
30
0.0
40
0.03
50
92.585597
51
180.0
0
LINE
8
1
62
7
10
0.602572
20
-0.73871
30
0.0
11
0.628593
21
-0.851121
31
0.0
0
LINE
8
1
62
7
10
0.628593
20
-0.851121
30
0.0
11
0.63067
21
-0.890773
31
0.0
0
LINE
8
1
62
7
10
0.63067
20
-0.890773
30
0.0
11
0.626937
21
-0.911303
31
0.0
0
LINE
8
1
62
7
10
0.626937
20
-0.911303
30
0.0
11
0.591476
21
-0.875842
31
0.0
0
LINE
8
1
62
7
10
0.591476
20
-0.875842
30
0.0
11
0.580278
21
-0.855313
31
0.0
0
LINE
8
1
62
7
10
0.580278
20
-0.855313
30
0.0
11
0.561615
21
-0.831983
31
0.0
0
LINE
8
1
62
7
10
0.561615
20
-0.831983
30
0.0
11
0.539218
21
-0.82825
31
0.0
0
LINE
8
1
62
7
10
0.539218
20
-0.82825
30
0.0
11
0.51029
21
-0.829184
31
0.0
0
LINE
8
1
62
7
10
0.51029
20
-0.829184
30
0.0
11
0.486027
21
-0.818919
31
0.0
0
LINE
8
1
62
7
10
0.486027
20
-0.818919
30
0.0
11
0.458032
21
-0.817052
31
0.0
0
LINE
8
1
62
7
10
0.443978
20
-0.821099
30
0.0
11
0.415106
21
-0.829184
31
0.0
0
LINE
8
1
62
7
10
0.415106
20
-0.829184
30
0.0
11
0.378712
21
-0.839449
31
0.0
0
LINE
8
1
62
7
10
0.378712
20
-0.839449
30
0.0
11
0.350716
21
-0.846914
31
0.0
0
LINE
8
1
62
7
10
0.350717
20
-0.846914
30
0.0
11
0.291926
21
-0.866511
31
0.0
0
LINE
8
1
62
7
10
0.291926
20
-0.866511
30
0.0
11
0.249
21
-0.877709
31
0.0
0
LINE
8
1
62
7
10
0.249
20
-0.877709
30
0.0
11
0.206712
21
-0.890395
31
0.0
0
LINE
8
1
62
7
10
0.186011
20
-0.896839
30
0.0
11
0.151016
21
-0.907571
31
0.0
0
LINE
8
1
62
7
10
0.151016
20
-0.907571
30
0.0
11
0.113689
21
-0.919702
31
0.0
0
LINE
8
1
62
7
10
0.113689
20
-0.919702
30
0.0
11
0.051166
21
-0.945831
31
0.0
0
LINE
8
1
62
7
10
0.051166
20
-0.945831
30
0.0
11
0.055832
21
-0.932766
31
0.0
0
LINE
8
1
62
7
10
0.055832
20
-0.932766
30
0.0
11
0.105291
21
-0.900105
31
0.0
0
LINE
8
1
62
7
10
0.105291
20
-0.900105
30
0.0
11
0.172479
21
-0.871177
31
0.0
0
LINE
8
1
62
7
10
0.172479
20
-0.871177
30
0.0
11
0.225671
21
-0.853446
31
0.0
0
LINE
8
1
62
7
10
0.225671
20
-0.853446
30
0.0
11
0.292859
21
-0.831983
31
0.0
0
LINE
8
1
62
7
10
0.29286
20
-0.831983
30
0.0
11
0.332053
21
-0.819852
31
0.0
0
LINE
8
1
62
7
10
0.332053
20
-0.819852
30
0.0
11
0.374979
21
-0.805854
31
0.0
0
LINE
8
1
62
7
10
0.374979
20
-0.805854
30
0.0
11
0.355382
21
-0.775059
31
0.0
0
LINE
8
1
62
7
10
0.355382
20
-0.775059
30
0.0
11
0.344184
21
-0.760128
31
0.0
0
LINE
8
1
62
7
10
0.344184
20
-0.760128
30
0.0
11
0.326454
21
-0.745198
31
0.0
0
LINE
8
1
62
7
10
0.326454
20
-0.745198
30
0.0
11
0.32832
21
-0.7312
31
0.0
0
LINE
8
1
62
7
10
0.32832
20
-0.7312
30
0.0
11
0.345117
21
-0.719069
31
0.0
0
LINE
8
1
62
7
10
0.345117
20
-0.719069
30
0.0
11
0.363781
21
-0.711603
31
0.0
0
LINE
8
1
62
7
10
0.363781
20
-0.711603
30
0.0
11
0.398309
21
-0.703205
31
0.0
0
LINE
8
1
62
7
10
0.398308
20
-0.703205
30
0.0
11
0.425371
21
-0.696672
31
0.0
0
LINE
8
1
62
7
10
0.425371
20
-0.696672
30
0.0
11
0.450566
21
-0.691073
31
0.0
0
ARC
8
1
62
7
10
-0.034168
20
-2.096857
30
0.0
40
1.5
50
64.881424
51
70.305013
0
ARC
8
1
62
7
10
-0.034168
20
-2.096857
30
0.0
40
1.5
50
70.305013
51
85.846048
0
LINE
8
1
62
7
10
0.450566
20
-0.691073
30
0.0
11
0.463701
21
-0.686987
31
0.0
0
LINE
8
1
62
7
10
0.458032
20
-0.817052
30
0.0
11
0.475762
21
-0.945831
31
0.0
0
LINE
8
1
62
7
10
0.475762
20
-0.945831
30
0.0
11
0.48976
21
-0.999021
31
0.0
0
LINE
8
1
62
7
10
0.48976
20
-0.999021
30
0.0
11
0.51309
21
-1.069011
31
0.0
0
LINE
8
1
62
7
10
0.51309
20
-1.069011
30
0.0
11
0.526154
21
-1.099805
31
0.0
0
LINE
8
1
62
7
10
0.526154
20
-1.099805
30
0.0
11
0.445959
21
-1.064598
31
0.0
0
LINE
8
1
62
7
10
0.425428
20
-1.050709
30
0.0
11
0.36658
21
-1.013019
31
0.0
0
LINE
8
1
62
7
10
0.36658
20
-1.013019
30
0.0
11
0.308723
21
-0.972893
31
0.0
0
LINE
8
1
62
7
10
0.308723
20
-0.972893
30
0.0
11
0.255533
21
-0.938366
31
0.0
0
LINE
8
1
62
7
10
0.255533
20
-0.938366
30
0.0
11
0.186011
21
-0.896839
31
0.0
0
LINE
8
1
62
7
10
0.501891
20
-1.069944
30
0.0
11
0.455232
21
-1.04848
31
0.0
0
LINE
8
1
62
7
10
0.455232
20
-1.04848
30
0.0
11
0.38711
21
-1.002755
31
0.0
0
LINE
8
1
62
7
10
0.38711
20
-1.002755
30
0.0
11
0.326454
21
-0.960762
31
0.0
0
LINE
8
1
62
7
10
0.501891
20
-1.069944
30
0.0
11
0.468297
21
-0.978492
31
0.0
0
LINE
8
1
62
7
10
0.468297
20
-0.978492
30
0.0
11
0.462698
21
-0.953296
31
0.0
0
LINE
8
1
62
7
10
0.462698
20
-0.953296
30
0.0
11
0.453366
21
-0.907571
31
0.0
0
LINE
8
1
62
7
10
0.453366
20
-0.907571
30
0.0
11
0.4487
21
-0.873043
31
0.0
0
LINE
8
1
62
7
10
0.4487
20
-0.873043
30
0.0
11
0.443978
21
-0.821099
31
0.0
0
LINE
8
1
62
7
10
0.240047
20
-0.90516
30
0.0
11
0.312229
21
-0.88676
31
0.0
0
LINE
8
1
62
7
10
0.312229
20
-0.88676
30
0.0
11
0.353499
21
-0.895931
31
0.0
0
LINE
8
1
62
7
10
0.353499
20
-0.895931
30
0.0
11
0.406232
21
-0.916566
31
0.0
0
LINE
8
1
62
7
10
0.406232
20
-0.916566
30
0.0
11
0.418352
21
-0.930044
31
0.0
0
LINE
8
1
62
7
10
0.418352
20
-0.930044
30
0.0
11
0.427568
21
-0.943356
31
0.0
0
LINE
8
1
62
7
10
0.427568
20
-0.943356
30
0.0
11
0.423984
21
-0.953083
31
0.0
0
LINE
8
1
62
7
10
0.423984
20
-0.953083
30
0.0
11
0.406577
21
-0.947452
31
0.0
0
LINE
8
1
62
7
10
0.406577
20
-0.947451
30
0.0
11
0.371251
21
-0.926461
31
0.0
0
LINE
8
1
62
7
10
0.371251
20
-0.926461
30
0.0
11
0.336437
21
-0.919293
31
0.0
0
LINE
8
1
62
7
10
0.336436
20
-0.919293
30
0.0
11
0.31647
21
-0.918781
31
0.0
0
ARC
8
1
62
7
10
0.143697
20
-2.599599
30
0.0
40
2.0
50
91.983117
51
104.408727
0
ARC
8
1
62
7
10
-0.695763
20
-0.297566
30
0.0
40
0.5
50
243.550318
51
259.785499
0
ARC
8
1
62
7
10
-1.007551
20
-0.924294
30
0.0
40
0.2
50
63.550318
51
111.360902
0
ARC
8
1
62
7
10
0.62709
20
1.28881
30
0.0
40
2.5
50
185.662837
51
217.943095
0
LINE
8
1
62
7
10
-1.246207
20
-0.374408
30
0.0
11
-1.344465
21
-0.248386
31
0.0
0
LINE
8
1
62
7
10
-1.807491
20
1.482587
30
0.0
11
-1.923554
21
1.232788
31
0.0
0
LINE
8
1
62
7
10
-1.923554
20
1.232788
30
0.0
11
-1.958148
21
1.111707
31
0.0
0
LINE
8
1
62
7
10
-1.958148
20
1.111707
30
0.0
11
-1.975445
21
0.938735
31
0.0
0
LINE
8
1
62
7
10
-1.975445
20
0.938735
30
0.0
11
-1.984094
21
0.765763
31
0.0
0
LINE
8
1
62
7
10
-1.984094
20
0.765763
30
0.0
11
-1.923554
21
0.847925
31
0.0
0
LINE
8
1
62
7
10
-1.923554
20
0.847925
30
0.0
11
-1.910581
21
0.718195
31
0.0
0
LINE
8
1
62
7
10
-1.910581
20
0.718195
30
0.0
11
-1.884635
21
0.571169
31
0.0
0
LINE
8
1
62
7
10
-1.884635
20
0.571169
30
0.0
11
-1.815446
21
0.324684
31
0.0
0
LINE
8
1
62
7
10
-1.815446
20
0.324684
30
0.0
11
-1.746257
21
0.169009
31
0.0
0
LINE
8
1
62
7
10
-1.328963
20
-2.136276
30
0.0
11
-1.328963
21
-2.187632
31
0.0
0
ARC
8
1
62
7
10
-1.325069
20
-0.435896
30
0.0
40
0.1
50
337.0441
51
397.943095
0
ARC
8
1
62
7
10
-1.135035
20
-0.598338
30
0.0
40
0.15
50
139.476021
51
141.123619
0
ARC
8
1
62
7
10
-1.135035
20
-0.598338
30
0.0
40
0.15
50
108.546243
51
291.360902
0
LINE
8
1
62
7
10
-1.746257
20
0.169008
30
0.0
11
-1.680259
21
0.033713
31
0.0
0
ARC
8
1
62
7
10
-0.731531
20
0.349804
30
0.0
40
1.0
50
198.426701
51
213.58
0
ARC
8
1
62
7
10
-0.731531
20
0.349804
30
0.0
40
1.0
50
213.58
51
236.944912
0
ARC
8
1
62
7
10
-1.260612
20
-0.463198
30
0.0
40
0.03
50
236.944912
51
337.0441
0
ARC
8
1
62
7
10
-1.800202
20
-1.775742
30
0.0
40
0.015
50
137.707611
51
312.052653
0
ARC
8
1
62
7
10
-1.450272
20
-1.417731
30
0.0
40
0.015
50
319.255259
51
493.600277
0
ARC
8
1
62
7
10
-1.605675
20
-1.272662
30
0.0
40
0.015
50
309.691836
51
483.979955
0
ARC
8
1
62
7
10
-2.014478
20
-1.570267
30
0.0
40
0.015
50
128.128608
51
302.416705
0
ARC
8
1
62
7
10
-2.212924
20
-1.349465
30
0.0
40
0.015
50
118.736832
51
292.912471
0
ARC
8
1
62
7
10
-1.751984
20
-1.118425
30
0.0
40
0.015
50
300.330879
51
474.506548
0
ARC
8
1
62
7
10
-2.394448
20
-1.114554
30
0.0
40
0.015
50
109.622273
51
283.633048
0
ARC
8
1
62
7
10
-1.888659
20
-0.95559
30
0.0
40
0.015
50
291.261527
51
465.272322
0
ARC
8
1
62
7
10
-2.558048
20
-0.866826
30
0.0
40
0.015
50
100.849106
51
274.646841
0
ARC
8
1
62
7
10
-2.015196
20
-0.784758
30
0.0
40
0.015
50
282.546804
51
456.344499
0
ARC
8
1
62
7
10
-2.702825
20
-0.607647
30
0.0
40
0.015
50
92.453963
51
265.995635
0
ARC
8
1
62
7
10
-2.131128
20
-0.606559
30
0.0
40
0.015
50
274.222465
51
447.763644
0
ARC
8
1
62
7
10
-2.236027
20
-0.421649
30
0.0
40
0.015
50
266.30022
51
439.54641
0
ARC
8
1
62
7
10
-2.827981
20
-0.338443
30
0.0
40
0.015
50
84.451253
51
257.697482
0
ARC
8
1
62
7
10
-2.329506
20
-0.230713
30
0.0
40
0.015
50
258.773101
51
431.690689
0
ARC
8
1
62
7
10
-2.411221
20
-0.034453
30
0.0
40
0.015
50
251.621601
51
424.181339
0
ARC
8
1
62
7
10
-2.932825
20
-0.060699
30
0.0
40
0.015
50
76.833993
51
249.751545
0
ARC
8
1
62
7
10
-2.480869
20
0.166406
30
0.0
40
0.015
50
244.818524
51
416.995296
0
ARC
8
1
62
7
10
-3.016782
20
0.224056
30
0.0
40
0.015
50
69.58424
51
242.144018
0
ARC
8
1
62
7
10
-2.538194
20
0.371123
30
0.0
40
0.015
50
238.333345
51
410.105574
0
ARC
8
1
62
7
10
-3.079387
20
0.514254
30
0.0
40
0.015
50
62.676001
51
234.8528
0
ARC
8
1
62
7
10
-2.582985
20
0.578943
30
0.0
40
0.015
50
232.134843
51
403.484369
0
ARC
8
1
62
7
10
-3.120297
20
0.808296
30
0.0
40
0.015
50
56.079692
51
227.85192
0
ARC
8
1
62
7
10
-2.615076
20
0.789099
30
0.0
40
0.015
50
226.19293
51
397.102868
0
ARC
8
1
62
7
10
-3.139286
20
1.104562
30
0.0
40
0.015
50
49.764879
51
221.113941
0
ARC
8
1
62
7
10
-3.136249
20
1.40142
30
0.0
40
0.015
50
43.702207
51
214.612179
0
ARC
8
1
62
7
10
-1.571277
20
-1.964759
30
0.0
40
0.015
50
147.364921
51
323.514712
0
ARC
8
1
62
7
10
-1.286347
20
-1.553097
30
0.0
40
0.015
50
327.107627
51
503.257371
0
ARC
8
1
62
7
10
-1.286347
20
-1.553097
30
0.0
40
0.015
50
327.107627
51
360.0
0
ARC
8
1
62
7
10
-7.991289
20
2.783258
30
0.0
40
8.0
50
323.514666
51
327.107627
0
ARC
8
1
62
7
10
-4.469407
20
1.18324
30
0.0
40
4.0
50
312.052629
51
319.255259
0
ARC
8
1
62
7
10
-4.150729
20
1.793757
30
0.0
40
4.0
50
302.416705
51
309.691858
0
ARC
8
1
62
7
10
-3.764382
20
2.321121
30
0.0
40
4.0
50
292.912471
51
300.330908
0
ARC
8
1
62
7
10
-3.333723
20
2.75817
30
0.0
40
4.0
50
283.633048
51
291.261546
0
ARC
8
1
62
7
10
-2.880886
20
3.105076
30
0.0
40
4.0
50
274.646801
51
282.546804
0
ARC
8
1
62
7
10
-2.42454
20
3.367625
30
0.0
40
4.0
50
265.995598
51
274.222465
0
ARC
8
1
62
7
10
-1.978881
20
3.555045
30
0.0
40
4.0
50
257.697444
51
266.30022
0
ARC
8
1
62
7
10
-1.55365
20
3.67803
30
0.0
40
4.0
50
249.751545
51
258.773137
0
ARC
8
1
62
7
10
-1.154785
20
3.747292
30
0.0
40
4.0
50
242.143978
51
251.621601
0
ARC
8
1
62
7
10
-0.785304
20
3.772691
30
0.0
40
4.0
50
234.852773
51
244.818524
0
ARC
8
1
62
7
10
-0.446164
20
3.762824
30
0.0
40
4.0
50
227.851878
51
238.333362
0
ARC
8
1
62
7
10
-0.136973
20
3.724933
30
0.0
40
4.0
50
221.113941
51
232.134877
0
ARC
8
1
62
7
10
0.14347
20
3.664973
30
0.0
40
4.0
50
214.612146
51
226.19293
0
ARC
8
1
62
7
10
-8.185989
20
-3.424588
30
0.0
40
7.0
50
37.102868
51
43.702207
0
ARC
8
1
62
7
10
-7.651075
20
-4.227791
30
0.0
40
7.0
50
43.483915
51
49.764905
0
ARC
8
1
62
7
10
-7.018201
20
-4.987959
30
0.0
40
7.0
50
50.105548
51
56.079692
0
ARC
8
1
62
7
10
-6.285654
20
-5.691395
30
0.0
40
7.0
50
56.995296
51
62.676001
0
ARC
8
1
62
7
10
-5.453358
20
-6.322189
30
0.0
40
7.0
50
64.181339
51
69.58424
0
ARC
8
1
62
7
10
-4.523821
20
-6.862093
30
0.0
40
7.0
50
71.690689
51
76.833993
0
ARC
8
1
62
7
10
-3.503378
20
-7.290714
30
0.0
40
7.0
50
79.54641
51
84.451253
0
ARC
8
1
62
7
10
-2.403695
20
-7.586239
30
0.0
40
7.0
50
87.763644
51
92.454418
0
ARC
8
1
62
7
10
-1.24331
20
-7.726978
30
0.0
40
7.0
50
96.344499
51
100.849106
0
ARC
8
1
62
7
10
-0.048761
20
-7.693914
30
0.0
40
7.0
50
105.272322
51
109.622273
0
ARC
8
1
62
7
10
1.145375
20
-7.474174
30
0.0
40
7.0
50
114.506548
51
118.736832
0
ARC
8
1
62
7
10
2.298261
20
-7.064855
30
0.0
40
7.0
50
123.979955
51
128.128608
0
ARC
8
1
62
7
10
3.366745
20
-6.476048
30
0.0
40
7.0
50
133.600277
51
137.707611
0
ARC
8
1
62
7
10
4.310948
20
-5.731675
30
0.0
40
7.0
50
143.257371
51
147.364921
0
ARC
8
1
62
7
10
-2.63743
20
1.444432
30
0.0
40
0.015
50
209.407012
51
389.012393
0
ARC
8
1
62
7
10
-2.619776
20
1.676668
30
0.0
40
0.015
50
192.816063
51
368.079819
0
ARC
8
1
62
7
10
-2.498833
20
1.875712
30
0.0
40
0.015
50
177.728788
51
353.960203
0
ARC
8
1
62
7
10
-2.300844
20
1.998373
30
0.0
40
0.015
50
164.424434
51
341.508667
0
ARC
8
1
62
7
10
-2.068769
20
2.018038
30
0.0
40
0.015
50
152.964344
51
330.687635
0
ARC
8
1
62
7
10
-1.852964
20
1.930438
30
0.0
40
0.015
50
142.945263
51
320.981552
0
ARC
8
1
62
7
10
-1.700255
20
1.754582
30
0.0
40
0.015
50
133.426374
51
315.003335
0
ARC
8
1
62
7
10
0.834117
20
3.401108
30
0.0
40
4.0
50
198.67207
51
209.407012
0
ARC
8
1
62
7
10
1.265947
20
2.560628
30
0.0
40
4.0
50
183.110438
51
192.816063
0
ARC
8
1
62
7
10
1.483037
20
1.717787
30
0.0
40
4.0
50
168.954554
51
177.728788
0
ARC
8
1
62
7
10
1.537816
20
0.928366
30
0.0
40
4.0
50
156.425012
51
164.424456
0
ARC
8
1
62
7
10
1.480766
20
0.206678
30
0.0
40
4.0
50
145.514304
51
152.964369
0
ARC
8
1
62
7
10
1.327306
20
-0.470834
30
0.0
40
4.0
50
135.753949
51
142.945263
0
ARC
8
1
62
7
10
1.039121
20
-1.139557
30
0.0
40
4.0
50
126.166168
51
133.426374
0
ARC
8
1
62
7
10
-8.056853
20
6.957563
30
0.0
40
8.0
50
320.981515
51
324.572024
0
ARC
8
1
62
7
10
-9.031398
20
5.927262
30
0.0
40
8.0
50
330.687617
51
334.407181
0
ARC
8
1
62
7
10
-9.873592
20
4.530905
30
0.0
40
8.0
50
341.508667
51
345.502194
0
ARC
8
1
62
7
10
-10.439508
20
2.715894
30
0.0
40
8.0
50
353.960153
51
358.339932
0
ARC
8
1
62
7
10
-10.525511
20
0.554362
30
0.0
40
8.0
50
8.079777
51
12.923677
0
LINE
8
1
62
7
10
-1.540861
20
2.314965
30
0.0
11
-1.714572
21
1.759056
31
0.0
0
LINE
8
1
62
7
10
-1.818216
20
2.465338
30
0.0
11
-1.8679
21
1.931829
31
0.0
0
LINE
8
1
62
7
10
-2.12905
20
2.521912
30
0.0
11
-2.083709
21
2.016697
31
0.0
0
LINE
8
1
62
7
10
-2.442416
20
2.478662
30
0.0
11
-2.315353
21
1.994565
31
0.0
0
LINE
8
1
62
7
10
-2.726899
20
2.339457
30
0.0
11
-2.51248
21
1.869485
31
0.0
0
LINE
8
1
62
7
10
-2.953772
20
2.117863
30
0.0
11
-2.631976
21
1.667942
31
0.0
0
LINE
8
1
62
7
10
-3.099974
20
1.835919
30
0.0
11
-2.647401
21
1.433226
31
0.0
0
LINE
8
1
62
7
10
-3.131339
20
1.415594
30
0.0
11
-2.852956
21
1.319165
31
0.0
0
LINE
8
1
62
7
10
-3.13093
20
1.117019
30
0.0
11
-2.623431
21
0.776641
31
0.0
0
LINE
8
1
62
7
10
-3.113707
20
0.821771
30
0.0
11
-2.589574
21
0.565468
31
0.0
0
LINE
8
1
62
7
10
-3.07478
20
0.528529
30
0.0
11
-2.542801
21
0.356848
31
0.0
0
LINE
8
1
62
7
10
-3.01435
20
0.238857
30
0.0
11
-2.483301
21
0.151605
31
0.0
0
LINE
8
1
62
7
10
-2.932717
20
-0.0457
30
0.0
11
-2.411329
21
-0.049452
31
0.0
0
LINE
8
1
62
7
10
-2.830281
20
-0.323621
30
0.0
11
-2.327205
21
-0.245535
31
0.0
0
LINE
8
1
62
7
10
-2.707536
20
-0.593405
30
0.0
11
-2.231316
21
-0.435891
31
0.0
0
LINE
8
1
62
7
10
-2.565074
20
-0.853573
30
0.0
11
-2.124102
21
-0.619812
31
0.0
0
LINE
8
1
62
7
10
-2.403597
20
-1.102667
30
0.0
11
-2.006046
21
-0.796644
31
0.0
0
LINE
8
1
62
7
10
-2.223924
20
-1.339267
30
0.0
11
-1.877659
21
-0.965789
31
0.0
0
LINE
8
1
62
7
10
-2.026994
20
-1.562
30
0.0
11
-1.739468
21
-1.126692
31
0.0
0
LINE
8
1
62
7
10
-1.81387
20
-1.769562
30
0.0
11
-1.592007
21
-1.278841
31
0.0
0
LINE
8
1
62
7
10
-1.585728
20
-1.960739
30
0.0
11
-1.43582
21
-1.42175
31
0.0
0
LINE
8
1
62
7
10
-3.106558
20
1.84802
30
0.0
11
-2.864698
21
1.343651
31
0.0
0
ARC
8
1
62
7
10
-2.845569
20
1.337814
30
0.0
40
0.02
50
163.029254
51
431.683556
0
LINE
8
1
62
7
10
-1.884867
20
1.691376
30
0.0
11
-2.0222
21
1.504995
31
0.0
0
LINE
8
1
62
7
10
-2.0222
20
1.504995
30
0.0
11
-1.982962
21
1.823804
31
0.0
0
LINE
8
1
62
7
10
-1.982962
20
1.823804
30
0.0
11
-2.110486
21
1.539329
31
0.0
0
LINE
8
1
62
7
10
-2.110486
20
1.539328
30
0.0
11
-2.120295
21
1.80909
31
0.0
0
LINE
8
1
62
7
10
-2.120295
20
1.80909
30
0.0
11
-2.198771
21
1.495186
31
0.0
0
LINE
8
1
62
7
10
-2.198771
20
1.495186
30
0.0
11
-2.31158
21
1.818899
31
0.0
0
LINE
8
1
62
7
10
-2.31158
20
1.818899
30
0.0
11
-2.287057
21
1.397091
31
0.0
0
LINE
8
1
62
7
10
-2.287057
20
1.397091
30
0.0
11
-2.483247
21
1.696281
31
0.0
0
LINE
8
1
62
7
10
-2.483247
20
1.696281
30
0.0
11
-2.331199
21
1.22052
31
0.0
0
LINE
8
1
62
7
10
-2.331199
20
1.22052
30
0.0
11
-2.551913
21
1.534424
31
0.0
0
LINE
8
1
62
7
10
-2.551913
20
1.534424
30
0.0
11
-2.336104
21
0.980187
31
0.0
0
LINE
8
1
62
7
10
-2.336104
20
0.980187
30
0.0
11
-2.645103
21
1.294091
31
0.0
0
LINE
8
1
62
7
10
-2.645103
20
1.294091
30
0.0
11
-2.385152
21
0.867378
31
0.0
0
LINE
8
1
62
7
10
-2.385152
20
0.867378
30
0.0
11
-2.654913
21
1.102806
31
0.0
0
LINE
8
1
62
7
10
-2.654913
20
1.102806
30
0.0
11
-2.267438
21
0.582902
31
0.0
0
LINE
8
1
62
7
10
-2.267438
20
0.582902
30
0.0
11
-2.547008
21
0.710426
31
0.0
0
LINE
8
1
62
7
10
-2.547008
20
0.710426
30
0.0
11
-2.164438
21
0.386712
31
0.0
0
LINE
8
1
62
7
10
-2.164438
20
0.386712
30
0.0
11
-2.473437
21
0.465188
31
0.0
0
LINE
8
1
62
7
10
-2.473437
20
0.465188
30
0.0
11
-2.061438
21
0.151284
31
0.0
0
LINE
8
1
62
7
10
-2.061438
20
0.151284
30
0.0
11
-2.41458
21
0.273903
31
0.0
0
LINE
8
1
62
7
10
-2.41458
20
0.273903
30
0.0
11
-1.958438
21
-0.030192
31
0.0
0
LINE
8
1
62
7
10
-1.958438
20
-0.030192
30
0.0
11
-2.341009
21
0.062999
31
0.0
0
LINE
8
1
62
7
10
-2.341009
20
0.062999
30
0.0
11
-1.879962
21
-0.216572
31
0.0
0
LINE
8
1
62
7
10
-1.879962
20
-0.216572
30
0.0
11
-2.21839
21
-0.123382
31
0.0
0
LINE
8
1
62
7
10
-2.21839
20
-0.123382
30
0.0
11
-1.811296
21
-0.353905
31
0.0
0
LINE
8
1
62
7
10
-1.811296
20
-0.353905
30
0.0
11
-2.135009
21
-0.319572
31
0.0
0
LINE
8
1
62
7
10
-2.135009
20
-0.319572
30
0.0
11
-1.703391
21
-0.456905
31
0.0
0
LINE
8
1
62
7
10
-1.703391
20
-0.456905
30
0.0
11
-2.027105
21
-0.481429
31
0.0
0
LINE
8
1
62
7
10
-2.027105
20
-0.481429
30
0.0
11
-1.610201
21
-0.540286
31
0.0
0
LINE
8
1
62
7
10
-1.610201
20
-0.540286
30
0.0
11
-1.948629
21
-0.643286
31
0.0
0
LINE
8
1
62
7
10
-1.948629
20
-0.643286
30
0.0
11
-1.546439
21
-0.653095
31
0.0
0
LINE
8
1
62
7
10
-1.546439
20
-0.653095
30
0.0
11
-1.879962
21
-0.801157
31
0.0
0
LINE
8
1
62
7
10
-1.879962
20
-0.801157
30
0.0
11
-1.507201
21
-0.771729
31
0.0
0
LINE
8
1
62
7
10
-1.507201
20
-0.771729
30
0.0
11
-1.776963
21
-0.963014
31
0.0
0
LINE
8
1
62
7
10
-1.776963
20
-0.963014
30
0.0
11
-1.497392
21
-0.904157
31
0.0
0
LINE
8
1
62
7
10
-1.497392
20
-0.904157
30
0.0
11
-1.659249
21
-1.13468
31
0.0
0
LINE
8
1
62
7
10
-1.659249
20
-1.13468
30
0.0
11
-1.43363
21
-1.002252
31
0.0
0
LINE
8
1
62
7
10
-1.43363
20
-1.002252
30
0.0
11
-1.517011
21
-1.24749
31
0.0
0
LINE
8
1
62
7
10
-1.517011
20
-1.24749
30
0.0
11
-1.369868
21
-1.110156
31
0.0
0
LINE
8
1
62
7
10
-1.369868
20
-1.110156
30
0.0
11
-1.355154
21
-1.355394
31
0.0
0
LINE
8
1
62
7
10
-2.110486
20
1.303287
30
0.0
11
-2.11539
21
0.930526
31
0.0
0
LINE
8
1
62
7
10
-2.11539
20
0.930526
30
0.0
11
-2.257628
21
1.092383
31
0.0
0
LINE
8
1
62
7
10
-2.257628
20
1.092383
30
0.0
11
-2.002581
21
0.454766
31
0.0
0
LINE
8
1
62
7
10
-2.002581
20
0.454766
30
0.0
11
-2.179152
21
0.538146
31
0.0
0
LINE
8
1
62
7
10
-2.179152
20
0.538146
30
0.0
11
-1.767153
21
-0.006281
31
0.0
0
LINE
8
1
62
7
10
-1.767153
20
-0.006281
30
0.0
11
-1.973153
21
0.101623
31
0.0
0
LINE
8
1
62
7
10
-1.973153
20
0.101623
30
0.0
11
-1.580773
21
-0.374137
31
0.0
0
LINE
8
1
62
7
10
-1.580773
20
-0.374137
30
0.0
11
-1.752439
21
-0.295661
31
0.0
0
LINE
8
1
62
7
10
-1.752439
20
-0.295661
30
0.0
11
-1.399297
21
-0.629184
31
0.0
0
LINE
8
1
62
7
10
-1.399297
20
-0.629184
30
0.0
11
-1.502297
21
-0.702756
31
0.0
0
LINE
8
1
62
7
10
-1.502296
20
-0.702756
30
0.0
11
-1.281583
21
-0.879327
31
0.0
0
ARC
8
1
62
7
10
0.650906
20
-0.297566
30
0.0
40
0.5
50
273.053436
51
296.449682
0
ARC
8
1
62
7
10
0.962694
20
-0.924294
30
0.0
40
0.2
50
68.639098
51
116.449682
0
LINE
8
1
62
7
10
1.762634
20
1.482587
30
0.0
11
1.878697
21
1.232788
31
0.0
0
LINE
8
1
62
7
10
1.878697
20
1.232788
30
0.0
11
1.913292
21
1.111707
31
0.0
0
LINE
8
1
62
7
10
1.913292
20
1.111707
30
0.0
11
1.930589
21
0.938735
31
0.0
0
LINE
8
1
62
7
10
1.930589
20
0.938735
30
0.0
11
1.939237
21
0.765763
31
0.0
0
LINE
8
1
62
7
10
1.939237
20
0.765763
30
0.0
11
1.878697
21
0.847925
31
0.0
0
LINE
8
1
62
7
10
1.878697
20
0.847925
30
0.0
11
1.865724
21
0.718195
31
0.0
0
LINE
8
1
62
7
10
1.865724
20
0.718195
30
0.0
11
1.839778
21
0.571169
31
0.0
0
LINE
8
1
62
7
10
1.839778
20
0.571169
30
0.0
11
1.770589
21
0.324684
31
0.0
0
LINE
8
1
62
7
10
1.770589
20
0.324684
30
0.0
11
1.7014
21
0.169009
31
0.0
0
LINE
8
1
62
7
10
1.20135
20
-0.374408
30
0.0
11
1.299608
21
-0.248386
31
0.0
0
ARC
8
1
62
7
10
1.090179
20
-0.598338
30
0.0
40
0.15
50
38.876381
51
58.786266
0
ARC
8
1
62
7
10
1.090179
20
-0.598338
30
0.0
40
0.15
50
-111.360902
51
38.876381
0
LINE
8
1
62
7
10
1.7014
20
0.169008
30
0.0
11
1.635403
21
0.033713
31
0.0
0
ARC
8
1
62
7
10
0.686674
20
0.349804
30
0.0
40
1.0
50
326.42
51
341.573299
0
ARC
8
1
62
7
10
0.686674
20
0.349804
30
0.0
40
1.0
50
303.055088
51
326.42
0
ARC
8
1
62
7
10
1.280212
20
-0.435896
30
0.0
40
0.1
50
142.056905
51
202.9559
0
ARC
8
1
62
7
10
1.215756
20
-0.463198
30
0.0
40
0.03
50
202.9559
51
303.055088
0
ARC
8
1
62
7
10
1.241491
20
-1.553097
30
0.0
40
0.015
50
180.0
51
212.892373
0
ARC
8
1
62
7
10
7.946433
20
2.783258
30
0.0
40
8.0
50
212.892373
51
216.485334
0
ARC
8
1
62
7
10
1.52642
20
-1.964759
30
0.0
40
0.015
50
-143.514666
51
32.635079
0
ARC
8
1
62
7
10
-4.355805
20
-5.731675
30
0.0
40
7.0
50
32.635079
51
36.742629
0
ARC
8
1
62
7
10
1.241491
20
-1.553097
30
0.0
40
0.015
50
36.742629
51
212.892373
0
ARC
8
1
62
7
10
1.755346
20
-1.775742
30
0.0
40
0.015
50
-132.052629
51
42.292389
0
ARC
8
1
62
7
10
-3.411602
20
-6.476048
30
0.0
40
7.0
50
42.292389
51
46.399723
0
ARC
8
1
62
7
10
1.405415
20
-1.417731
30
0.0
40
0.015
50
46.399723
51
220.744741
0
ARC
8
1
62
7
10
4.42455
20
1.18324
30
0.0
40
4.0
50
220.744741
51
227.947371
0
ARC
8
1
62
7
10
1.969622
20
-1.570267
30
0.0
40
0.015
50
-122.416705
51
51.871392
0
ARC
8
1
62
7
10
-2.343118
20
-7.064855
30
0.0
40
7.0
50
51.871392
51
56.020045
0
ARC
8
1
62
7
10
4.105872
20
1.793757
30
0.0
40
4.0
50
230.308142
51
237.583295
0
ARC
8
1
62
7
10
1.560818
20
-1.272662
30
0.0
40
0.015
50
56.020045
51
230.308142
0
ARC
8
1
62
7
10
2.168068
20
-1.349465
30
0.0
40
0.015
50
-112.912471
51
61.263168
0
ARC
8
1
62
7
10
-1.190231
20
-7.474174
30
0.0
40
7.0
50
61.263168
51
65.493452
0
ARC
8
1
62
7
10
1.707127
20
-1.118425
30
0.0
40
0.015
50
65.493452
51
239.669121
0
ARC
8
1
62
7
10
3.719526
20
2.321121
30
0.0
40
4.0
50
239.669092
51
247.087529
0
ARC
8
1
62
7
10
2.349591
20
-1.114554
30
0.0
40
0.015
50
-103.633088
51
70.377727
0
ARC
8
1
62
7
10
0.003904
20
-7.693914
30
0.0
40
7.0
50
70.377727
51
74.727678
0
ARC
8
1
62
7
10
1.843802
20
-0.95559
30
0.0
40
0.015
50
74.727678
51
248.738454
0
ARC
8
1
62
7
10
3.288866
20
2.75817
30
0.0
40
4.0
50
248.738454
51
256.366951
0
ARC
8
1
62
7
10
2.513192
20
-0.866826
30
0.0
40
0.015
50
-94.646801
51
79.150894
0
ARC
8
1
62
7
10
1.198453
20
-7.726978
30
0.0
40
7.0
50
79.150894
51
83.655501
0
ARC
8
1
62
7
10
1.970339
20
-0.784758
30
0.0
40
0.015
50
83.655501
51
257.453234
0
ARC
8
1
62
7
10
2.836029
20
3.105076
30
0.0
40
4.0
50
257.453196
51
265.353199
0
ARC
8
1
62
7
10
2.358839
20
-7.586239
30
0.0
40
7.0
50
87.545581
51
92.236356
0
ARC
8
1
62
7
10
2.086271
20
-0.606559
30
0.0
40
0.015
50
92.236356
51
265.777572
0
ARC
8
1
62
7
10
2.379684
20
3.367625
30
0.0
40
4.0
50
265.777535
51
274.004402
0
ARC
8
1
62
7
10
2.657969
20
-0.607647
30
0.0
40
0.015
50
-85.995598
51
87.545581
0
ARC
8
1
62
7
10
2.783124
20
-0.338443
30
0.0
40
0.015
50
-77.697671
51
95.548747
0
ARC
8
1
62
7
10
1.934024
20
3.555045
30
0.0
40
4.0
50
273.699781
51
282.302555
0
ARC
8
1
62
7
10
2.19117
20
-0.421649
30
0.0
40
0.015
50
100.45359
51
273.69982
0
ARC
8
1
62
7
10
3.458522
20
-7.290714
30
0.0
40
7.0
50
95.548747
51
100.45359
0
ARC
8
1
62
7
10
1.508793
20
3.67803
30
0.0
40
4.0
50
281.226862
51
290.248455
0
ARC
8
1
62
7
10
2.28465
20
-0.230713
30
0.0
40
0.015
50
108.309311
51
281.226862
0
ARC
8
1
62
7
10
4.478964
20
-6.862093
30
0.0
40
7.0
50
103.166007
51
108.309311
0
ARC
8
1
62
7
10
2.887969
20
-0.060699
30
0.0
40
0.015
50
-69.75158
51
103.166007
0
ARC
8
1
62
7
10
2.971925
20
0.224056
30
0.0
40
0.015
50
-62.144016
51
110.41576
0
ARC
8
1
62
7
10
1.109928
20
3.747292
30
0.0
40
4.0
50
288.378399
51
297.856022
0
ARC
8
1
62
7
10
2.366364
20
-0.034453
30
0.0
40
0.015
50
115.818661
51
288.378626
0
ARC
8
1
62
7
10
5.408501
20
-6.322189
30
0.0
40
7.0
50
110.41576
51
115.818661
0
ARC
8
1
62
7
10
0.740448
20
3.772691
30
0.0
40
4.0
50
295.181476
51
305.147227
0
ARC
8
1
62
7
10
3.03453
20
0.514254
30
0.0
40
0.015
50
-54.8528
51
117.323999
0
ARC
8
1
62
7
10
6.240797
20
-5.691395
30
0.0
40
7.0
50
117.323999
51
123.004704
0
ARC
8
1
62
7
10
2.436012
20
0.166406
30
0.0
40
0.015
50
123.004704
51
295.181476
0
ARC
8
1
62
7
10
2.493338
20
0.371123
30
0.0
40
0.015
50
129.894452
51
301.666638
0
ARC
8
1
62
7
10
2.538128
20
0.578943
30
0.0
40
0.015
50
136.516086
51
307.865123
0
ARC
8
1
62
7
10
2.570219
20
0.789099
30
0.0
40
0.015
50
132.051414
51
313.80707
0
ARC
8
1
62
7
10
6.973345
20
-4.987959
30
0.0
40
7.0
50
123.920308
51
129.894452
0
ARC
8
1
62
7
10
3.07544
20
0.808296
30
0.0
40
0.015
50
-47.85192
51
123.920308
0
ARC
8
1
62
7
10
0.401308
20
3.762824
30
0.0
40
4.0
50
301.666638
51
312.148122
0
ARC
8
1
62
7
10
0.092116
20
3.724933
30
0.0
40
4.0
50
307.865123
51
318.886059
0
ARC
8
1
62
7
10
3.094429
20
1.104562
30
0.0
40
0.015
50
-41.113973
51
130.235095
0
ARC
8
1
62
7
10
7.606218
20
-4.227791
30
0.0
40
7.0
50
130.235095
51
136.516086
0
ARC
8
1
62
7
10
3.091392
20
1.40142
30
0.0
40
0.015
50
-34.612174
51
109.105587
0
ARC
8
1
62
7
10
-0.188326
20
3.664973
30
0.0
40
4.0
50
313.80707
51
325.387854
0
ARC
8
1
62
7
10
2.592574
20
1.444432
30
0.0
40
0.015
50
156.344094
51
330.593216
0
ARC
8
1
62
7
10
9.906608
20
-1.759491
30
0.0
40
8.0
50
150.987576
51
156.344107
0
ARC
8
1
62
7
10
-0.878974
20
3.401108
30
0.0
40
4.0
50
330.592989
51
341.327917
0
ARC
8
1
62
7
10
2.574919
20
1.676668
30
0.0
40
0.015
50
171.920223
51
347.183937
0
ARC
8
1
62
7
10
10.480655
20
0.554362
30
0.0
40
8.0
50
167.076323
51
171.920223
0
ARC
8
1
62
7
10
-1.310803
20
2.560628
30
0.0
40
4.0
50
347.183937
51
356.889562
0
ARC
8
1
62
7
10
2.453976
20
1.875712
30
0.0
40
0.015
50
-173.960176
51
2.271212
0
ARC
8
1
62
7
10
10.394651
20
2.715894
30
0.0
40
8.0
50
181.660068
51
186.039847
0
ARC
8
1
62
7
10
-1.527893
20
1.717787
30
0.0
40
4.0
50
2.271212
51
11.045446
0
ARC
8
1
62
7
10
2.255987
20
1.998373
30
0.0
40
0.015
50
-161.508667
51
15.575544
0
ARC
8
1
62
7
10
9.828735
20
4.530905
30
0.0
40
8.0
50
194.497806
51
198.491333
0
ARC
8
1
62
7
10
-1.582673
20
0.928366
30
0.0
40
4.0
50
15.575544
51
23.574988
0
ARC
8
1
62
7
10
2.023913
20
2.018038
30
0.0
40
0.015
50
-150.687635
51
27.035655
0
ARC
8
1
62
7
10
8.986541
20
5.927262
30
0.0
40
8.0
50
205.592819
51
209.312383
0
ARC
8
1
62
7
10
-1.525623
20
0.206678
30
0.0
40
4.0
50
27.035631
51
34.485696
0
ARC
8
1
62
7
10
1.808108
20
1.930438
30
0.0
40
0.015
50
-140.981515
51
37.054737
0
ARC
8
1
62
7
10
8.011997
20
6.957563
30
0.0
40
8.0
50
215.427976
51
219.018485
0
ARC
8
1
62
7
10
-1.372162
20
-0.470834
30
0.0
40
4.0
50
37.054737
51
44.246051
0
ARC
8
1
62
7
10
1.655398
20
1.754582
30
0.0
40
0.015
50
-131.378457
51
46.573645
0
ARC
8
1
62
7
10
-1.083978
20
-1.139557
30
0.0
40
4.0
50
46.573626
51
53.833835
0
LINE
8
1
62
7
10
1.496004
20
2.314965
30
0.0
11
1.669716
21
1.759056
31
0.0
0
LINE
8
1
62
7
10
1.773359
20
2.465338
30
0.0
11
1.823043
21
1.931829
31
0.0
0
LINE
8
1
62
7
10
2.084193
20
2.521912
30
0.0
11
2.038852
21
2.016697
31
0.0
0
LINE
8
1
62
7
10
2.397559
20
2.478662
30
0.0
11
2.270496
21
1.994565
31
0.0
0
LINE
8
1
62
7
10
2.682042
20
2.339457
30
0.0
11
2.467623
21
1.869485
31
0.0
0
LINE
8
1
62
7
10
2.908915
20
2.117863
30
0.0
11
2.58712
21
1.667942
31
0.0
0
LINE
8
1
62
7
10
3.055118
20
1.835919
30
0.0
11
2.602545
21
1.433226
31
0.0
0
LINE
8
1
62
7
10
3.086074
20
1.117019
30
0.0
11
2.578574
21
0.776641
31
0.0
0
LINE
8
1
62
7
10
3.068851
20
0.821771
30
0.0
11
2.544718
21
0.565468
31
0.0
0
LINE
8
1
62
7
10
3.029924
20
0.528529
30
0.0
11
2.497945
21
0.356848
31
0.0
0
LINE
8
1
62
7
10
2.969493
20
0.238857
30
0.0
11
2.438444
21
0.151605
31
0.0
0
LINE
8
1
62
7
10
2.887861
20
-0.0457
30
0.0
11
2.366472
21
-0.049452
31
0.0
0
LINE
8
1
62
7
10
2.785425
20
-0.323621
30
0.0
11
2.282349
21
-0.245535
31
0.0
0
LINE
8
1
62
7
10
2.662679
20
-0.593405
30
0.0
11
2.18646
21
-0.435891
31
0.0
0
LINE
8
1
62
7
10
2.520217
20
-0.853573
30
0.0
11
2.079246
21
-0.619812
31
0.0
0
LINE
8
1
62
7
10
2.358741
20
-1.102667
30
0.0
11
1.96119
21
-0.796644
31
0.0
0
LINE
8
1
62
7
10
2.179067
20
-1.339267
30
0.0
11
1.832803
21
-0.965789
31
0.0
0
LINE
8
1
62
7
10
1.982138
20
-1.562
30
0.0
11
1.694611
21
-1.126692
31
0.0
0
LINE
8
1
62
7
10
1.769014
20
-1.769562
30
0.0
11
1.54715
21
-1.278841
31
0.0
0
LINE
8
1
62
7
10
1.540872
20
-1.960739
30
0.0
11
1.390963
21
-1.42175
31
0.0
0
LINE
8
1
62
7
10
3.056548
20
1.837273
30
0.0
11
2.819842
21
1.343651
31
0.0
0
LINE
8
1
62
7
10
3.086483
20
1.415594
30
0.0
11
2.807272
21
1.318878
31
0.0
0
ARC
8
1
62
7
10
-0.671947
20
1.28881
30
0.0
40
2.5
50
322.056905
51
354.337163
0
ARC
8
1
62
7
10
2.800713
20
1.337814
30
0.0
40
0.02
50
-165.418039
51
16.970746
0
LINE
8
1
62
7
10
1.84001
20
1.691376
30
0.0
11
1.977343
21
1.504995
31
0.0
0
LINE
8
1
62
7
10
1.977344
20
1.504995
30
0.0
11
1.938105
21
1.823804
31
0.0
0
LINE
8
1
62
7
10
1.938106
20
1.823804
30
0.0
11
2.065629
21
1.539329
31
0.0
0
LINE
8
1
62
7
10
2.065629
20
1.539328
30
0.0
11
2.075439
21
1.80909
31
0.0
0
LINE
8
1
62
7
10
2.075439
20
1.80909
30
0.0
11
2.153915
21
1.495186
31
0.0
0
LINE
8
1
62
7
10
2.153915
20
1.495186
30
0.0
11
2.266724
21
1.818899
31
0.0
0
LINE
8
1
62
7
10
2.266724
20
1.818899
30
0.0
11
2.2422
21
1.397091
31
0.0
0
LINE
8
1
62
7
10
2.2422
20
1.397091
30
0.0
11
2.43839
21
1.696281
31
0.0
0
LINE
8
1
62
7
10
2.43839
20
1.696281
30
0.0
11
2.286343
21
1.22052
31
0.0
0
LINE
8
1
62
7
10
2.286343
20
1.22052
30
0.0
11
2.507057
21
1.534424
31
0.0
0
LINE
8
1
62
7
10
2.507057
20
1.534424
30
0.0
11
2.291248
21
0.980187
31
0.0
0
LINE
8
1
62
7
10
2.291248
20
0.980187
30
0.0
11
2.600247
21
1.294091
31
0.0
0
LINE
8
1
62
7
10
2.600247
20
1.294091
30
0.0
11
2.340295
21
0.867378
31
0.0
0
LINE
8
1
62
7
10
2.340295
20
0.867378
30
0.0
11
2.610056
21
1.102806
31
0.0
0
LINE
8
1
62
7
10
2.610056
20
1.102806
30
0.0
11
2.222581
21
0.582902
31
0.0
0
LINE
8
1
62
7
10
2.222581
20
0.582902
30
0.0
11
2.502152
21
0.710426
31
0.0
0
LINE
8
1
62
7
10
2.502152
20
0.710426
30
0.0
11
2.119581
21
0.386712
31
0.0
0
LINE
8
1
62
7
10
2.119581
20
0.386712
30
0.0
11
2.428581
21
0.465188
31
0.0
0
LINE
8
1
62
7
10
2.428581
20
0.465188
30
0.0
11
2.016582
21
0.151284
31
0.0
0
LINE
8
1
62
7
10
2.016581
20
0.151284
30
0.0
11
2.369724
21
0.273903
31
0.0
0
LINE
8
1
62
7
10
2.369724
20
0.273903
30
0.0
11
1.913582
21
-0.030192
31
0.0
0
LINE
8
1
62
7
10
1.913582
20
-0.030192
30
0.0
11
2.296152
21
0.062999
31
0.0
0
LINE
8
1
62
7
10
2.296152
20
0.062999
30
0.0
11
1.835106
21
-0.216572
31
0.0
0
LINE
8
1
62
7
10
1.835106
20
-0.216572
30
0.0
11
2.173534
21
-0.123382
31
0.0
0
LINE
8
1
62
7
10
2.173534
20
-0.123382
30
0.0
11
1.766439
21
-0.353905
31
0.0
0
LINE
8
1
62
7
10
1.766439
20
-0.353905
30
0.0
11
2.090153
21
-0.319572
31
0.0
0
LINE
8
1
62
7
10
2.090153
20
-0.319572
30
0.0
11
1.658535
21
-0.456905
31
0.0
0
LINE
8
1
62
7
10
1.658535
20
-0.456905
30
0.0
11
1.982248
21
-0.481429
31
0.0
0
LINE
8
1
62
7
10
1.982248
20
-0.481429
30
0.0
11
1.565344
21
-0.540286
31
0.0
0
LINE
8
1
62
7
10
1.565344
20
-0.540286
30
0.0
11
1.903772
21
-0.643286
31
0.0
0
LINE
8
1
62
7
10
1.903772
20
-0.643286
30
0.0
11
1.501583
21
-0.653095
31
0.0
0
LINE
8
1
62
7
10
1.501583
20
-0.653095
30
0.0
11
1.835106
21
-0.801157
31
0.0
0
LINE
8
1
62
7
10
1.835106
20
-0.801157
30
0.0
11
1.462345
21
-0.771729
31
0.0
0
LINE
8
1
62
7
10
1.462345
20
-0.771729
30
0.0
11
1.732106
21
-0.963014
31
0.0
0
LINE
8
1
62
7
10
1.732106
20
-0.963014
30
0.0
11
1.452535
21
-0.904157
31
0.0
0
LINE
8
1
62
7
10
1.452535
20
-0.904157
30
0.0
11
1.614392
21
-1.13468
31
0.0
0
LINE
8
1
62
7
10
1.614392
20
-1.13468
30
0.0
11
1.388773
21
-1.002252
31
0.0
0
LINE
8
1
62
7
10
1.388773
20
-1.002252
30
0.0
11
1.472154
21
-1.24749
31
0.0
0
LINE
8
1
62
7
10
1.472154
20
-1.24749
30
0.0
11
1.325012
21
-1.110156
31
0.0
0
LINE
8
1
62
7
10
1.325012
20
-1.110156
30
0.0
11
1.310297
21
-1.355394
31
0.0
0
LINE
8
1
62
7
10
2.065629
20
1.303287
30
0.0
11
2.070534
21
0.930526
31
0.0
0
LINE
8
1
62
7
10
2.070534
20
0.930526
30
0.0
11
2.212772
21
1.092383
31
0.0
0
LINE
8
1
62
7
10
1.957725
20
0.454766
30
0.0
11
2.134296
21
0.538146
31
0.0
0
LINE
8
1
62
7
10
2.134296
20
0.538146
30
0.0
11
1.722296
21
-0.006281
31
0.0
0
LINE
8
1
62
7
10
1.722296
20
-0.006281
30
0.0
11
1.928296
21
0.101623
31
0.0
0
LINE
8
1
62
7
10
1.928296
20
0.101623
30
0.0
11
1.535916
21
-0.374137
31
0.0
0
LINE
8
1
62
7
10
1.535916
20
-0.374137
30
0.0
11
1.707582
21
-0.295661
31
0.0
0
LINE
8
1
62
7
10
1.707582
20
-0.295661
30
0.0
11
1.35444
21
-0.629184
31
0.0
0
LINE
8
1
62
7
10
1.35444
20
-0.629184
30
0.0
11
1.45744
21
-0.702756
31
0.0
0
LINE
8
1
62
7
10
1.45744
20
-0.702756
30
0.0
11
1.236726
21
-0.879327
31
0.0
0
LINE
8
1
62
7
10
2.212772
20
1.092383
30
0.0
11
1.957724
21
0.454766
31
0.0
0
ARC
8
1
62
7
10
-0.188554
20
-2.599599
30
0.0
40
2.0
50
64.338934
51
66.148782
0
ARC
8
1
62
7
10
-0.86559
20
1.140799
30
0.0
40
1.0
50
160.060645
51
185.662837
0
ARC
8
1
62
7
10
0.820733
20
1.140799
30
0.0
40
1.0
50
354.337163
51
379.939355
0
LINE
8
1
62
7
10
0.445898
20
-0.720731
30
0.0
11
0.402389
21
-0.740171
31
0.0
0
LINE
8
1
62
7
10
0.402389
20
-0.740171
30
0.0
11
0.449601
21
-0.757759
31
0.0
0
LINE
8
1
62
7
10
0.412636
20
-0.739701
30
0.0
11
0.466714
21
-0.738523
31
0.0
0
LINE
8
1
62
7
10
0.344606
20
-0.784289
30
0.0
11
0.278277
21
-0.72231
31
0.0
0
LINE
8
1
62
7
10
0.278277
20
-0.72231
30
0.0
11
0.259792
21
-0.716874
31
0.0
0
LINE
8
1
62
7
10
0.259793
20
-0.716874
30
0.0
11
0.210862
21
-0.709262
31
0.0
0
LINE
8
1
62
7
10
0.210862
20
-0.709262
30
0.0
11
0.168455
21
-0.706
31
0.0
0
LINE
8
1
62
7
10
0.168455
20
-0.706
30
0.0
11
0.128224
21
-0.703826
31
0.0
0
LINE
8
1
62
7
10
0.128224
20
-0.703826
30
0.0
11
0.081468
21
-0.709262
31
0.0
0
LINE
8
1
62
7
10
0.344605
20
-0.784289
30
0.0
11
0.29785
21
-0.764717
31
0.0
0
LINE
8
1
62
7
10
0.29785
20
-0.764717
30
0.0
11
0.264142
21
-0.735359
31
0.0
0
LINE
8
1
62
7
10
0.264142
20
-0.735359
30
0.0
11
0.149971
21
-0.72231
31
0.0
0
LINE
8
1
62
7
10
0.14997
20
-0.72231
30
0.0
11
0.19129
21
-0.747319
31
0.0
0
LINE
8
1
62
7
10
0.19129
20
-0.747319
30
0.0
11
0.161931
21
-0.751669
31
0.0
0
LINE
8
1
62
7
10
0.161931
20
-0.751669
30
0.0
11
0.183678
21
-0.764717
31
0.0
0
LINE
8
1
62
7
10
0.183678
20
-0.764717
30
0.0
11
0.095603
21
-0.777765
31
0.0
0
LINE
8
1
62
7
10
0.095603
20
-0.777765
30
0.0
11
0.33047
21
-0.79625
31
0.0
0
LINE
8
1
62
7
10
0.33047
20
-0.79625
30
0.0
11
0.096691
21
-0.839744
31
0.0
0
LINE
8
1
62
7
10
0.096691
20
-0.839744
30
0.0
11
0.037974
21
-0.862578
31
0.0
0
LINE
8
1
62
7
10
0.037974
20
-0.862578
30
0.0
11
-0.029442
21
-0.899548
31
0.0
0
LINE
8
1
62
7
10
-0.508083
20
-0.708784
30
0.0
11
-0.689652
21
-0.84607
31
0.0
0
LINE
8
1
62
7
10
-0.689652
20
-0.84607
30
0.0
11
-0.50855
21
-0.81198
31
0.0
0
LINE
8
1
62
7
10
-0.50855
20
-0.81198
30
0.0
11
-0.693913
21
-0.884421
31
0.0
0
LINE
8
1
62
7
10
-0.693913
20
-0.884421
30
0.0
11
-0.759962
21
-0.920641
31
0.0
0
LINE
8
1
62
7
10
-0.759962
20
-0.920641
30
0.0
11
-0.819619
21
-0.967514
31
0.0
0
LINE
8
1
62
7
10
-0.819619
20
-0.967514
30
0.0
11
-0.713089
21
-0.937686
31
0.0
0
LINE
8
1
62
7
10
-0.713089
20
-0.937686
30
0.0
11
-0.644909
21
-0.914249
31
0.0
0
LINE
8
1
62
7
10
-0.644909
20
-0.914249
30
0.0
11
-0.531987
21
-0.873768
31
0.0
0
LINE
8
1
62
7
10
-0.531987
20
-0.873768
30
0.0
11
-0.527725
21
-0.901465
31
0.0
0
LINE
8
1
62
7
10
-0.527725
20
-0.901465
30
0.0
11
-0.623603
21
-0.967514
31
0.0
0
LINE
8
1
62
7
10
-0.623603
20
-0.967514
30
0.0
11
-0.700305
21
-0.995212
31
0.0
0
LINE
8
1
62
7
10
-0.700305
20
-0.995212
30
0.0
11
-0.798313
21
-1.046347
31
0.0
0
LINE
8
1
62
7
10
-0.798313
20
-1.046347
30
0.0
11
-0.879276
21
-1.146486
31
0.0
0
LINE
8
1
62
7
10
-0.879276
20
-1.146486
30
0.0
11
-0.913366
21
-1.216796
31
0.0
0
LINE
8
1
62
7
10
-0.913366
20
-1.216796
30
0.0
11
-0.838795
21
-1.152878
31
0.0
0
LINE
8
1
62
7
10
-0.838795
20
-1.152878
30
0.0
11
-0.732264
21
-1.080437
31
0.0
0
LINE
8
1
62
7
10
-0.732264
20
-1.080437
30
0.0
11
-0.664084
21
-1.046347
31
0.0
0
LINE
8
1
62
7
10
-0.664084
20
-1.046347
30
0.0
11
-0.61508
21
-1.027172
31
0.0
0
LINE
8
1
62
7
10
-0.61508
20
-1.027172
30
0.0
11
-0.546901
21
-1.012257
31
0.0
0
LINE
8
1
62
7
10
-0.546901
20
-1.012257
30
0.0
11
-0.540509
21
-1.046347
31
0.0
0
LINE
8
1
62
7
10
-0.540509
20
-1.046347
30
0.0
11
-0.580991
21
-1.063392
31
0.0
0
LINE
8
1
62
7
10
-0.580991
20
-1.063392
30
0.0
11
-0.689652
21
-1.101743
31
0.0
0
LINE
8
1
62
7
10
-0.689652
20
-1.101743
30
0.0
11
-0.770615
21
-1.155008
31
0.0
0
LINE
8
1
62
7
10
-0.770615
20
-1.155008
30
0.0
11
-0.82175
21
-1.189098
31
0.0
0
LINE
8
1
62
7
10
-0.82175
20
-1.189098
30
0.0
11
-0.89206
21
-1.248755
31
0.0
0
LINE
8
1
62
7
10
-0.89206
20
-1.248755
30
0.0
11
-0.945325
21
-1.327588
31
0.0
0
LINE
8
1
62
7
10
-0.945325
20
-1.327588
30
0.0
11
-0.992199
21
-1.397898
31
0.0
0
LINE
8
1
62
7
10
-0.992199
20
-1.397898
30
0.0
11
-0.847317
21
-1.310543
31
0.0
0
LINE
8
1
62
7
10
-0.847317
20
-1.310543
30
0.0
11
-0.772746
21
-1.2658
31
0.0
0
LINE
8
1
62
7
10
-0.772746
20
-1.2658
30
0.0
11
-0.730133
21
-1.216796
31
0.0
0
LINE
8
1
62
7
10
-0.730133
20
-1.216796
30
0.0
11
-0.774876
21
-1.310543
31
0.0
0
LINE
8
1
62
7
10
-0.774876
20
-1.310543
30
0.0
11
-0.845186
21
-1.374461
31
0.0
0
LINE
8
1
62
7
10
-0.845187
20
-1.374461
30
0.0
11
-0.921888
21
-1.44051
31
0.0
0
LINE
8
1
62
7
10
-0.921888
20
-1.44051
30
0.0
11
-0.975154
21
-1.517212
31
0.0
0
LINE
8
1
62
7
10
-0.975154
20
-1.517212
30
0.0
11
-0.994329
21
-1.566216
31
0.0
0
LINE
8
1
62
7
10
-0.994329
20
-1.566216
30
0.0
11
-0.89206
21
-1.498037
31
0.0
0
LINE
8
1
62
7
10
-0.89206
20
-1.498037
30
0.0
11
-0.78766
21
-1.446902
31
0.0
0
LINE
8
1
62
7
10
-0.78766
20
-1.446902
30
0.0
11
-0.855839
21
-1.517212
31
0.0
0
LINE
8
1
62
7
10
-0.85584
20
-1.517212
30
0.0
11
-0.869088
21
-1.538662
31
0.0
0
LINE
8
1
62
7
10
0.444559
20
-1.065452
30
0.0
11
0.439572
21
-1.146486
31
0.0
0
LINE
8
1
62
7
10
0.439572
20
-1.146486
30
0.0
11
0.475792
21
-1.201882
31
0.0
0
LINE
8
1
62
7
10
0.475792
20
-1.201882
30
0.0
11
0.375654
21
-1.12518
31
0.0
0
LINE
8
1
62
7
10
0.375654
20
-1.12518
30
0.0
11
0.490707
21
-1.276453
31
0.0
0
LINE
8
1
62
7
10
0.490707
20
-1.276453
30
0.0
11
0.379915
21
-1.244494
31
0.0
0
LINE
8
1
62
7
10
0.379915
20
-1.244494
30
0.0
11
0.46727
21
-1.387245
31
0.0
0
LINE
8
1
62
7
10
0.46727
20
-1.387245
30
0.0
11
0.360739
21
-1.331849
31
0.0
0
LINE
8
1
62
7
10
0.360739
20
-1.331849
30
0.0
11
0.465139
21
-1.468208
31
0.0
0
LINE
8
1
62
7
10
0.465139
20
-1.468208
30
0.0
11
0.375654
21
-1.429857
31
0.0
0
LINE
8
1
62
7
10
0.375654
20
-1.429857
30
0.0
11
0.389646
21
-1.467295
31
0.0
0
LINE
8
1
62
7
10
-0.110721
20
-1.092927
30
0.0
11
-0.230961
21
-1.164089
31
0.0
0
LINE
8
1
62
7
10
-0.230961
20
-1.164089
30
0.0
11
-0.118082
21
-1.15182
31
0.0
0
LINE
8
1
62
7
10
-0.118082
20
-1.15182
30
0.0
11
-0.390463
21
-1.357945
31
0.0
0
LINE
8
1
62
7
10
-0.194153
20
-0.781284
30
0.0
11
-0.277584
21
-0.832816
31
0.0
0
LINE
8
1
62
7
10
-0.277584
20
-0.832816
30
0.0
11
-0.172068
21
-0.849993
31
0.0
0
LINE
8
1
62
7
10
-0.172068
20
-0.849993
30
0.0
11
-0.441994
21
-1.09538
31
0.0
0
LINE
8
1
62
7
10
-0.059189
20
-0.658591
30
0.0
11
-0.110721
21
-0.661044
31
0.0
0
LINE
8
1
62
7
10
-0.110721
20
-0.661044
30
0.0
11
-0.179429
21
-0.673314
31
0.0
0
LINE
8
1
62
7
10
-0.179429
20
-0.673314
30
0.0
11
-0.294761
21
-0.70276
31
0.0
0
LINE
8
1
62
7
10
0.124859
20
-1.074684
30
0.0
11
0.244761
21
-1.124056
31
0.0
0
LINE
8
1
62
7
10
0.244761
20
-1.124056
30
0.0
11
0.178462
21
-1.143804
31
0.0
0
LINE
8
1
62
7
10
0.178462
20
-1.143804
30
0.0
11
0.26733
21
-1.181891
31
0.0
0
LINE
8
1
62
7
10
0.26733
20
-1.181891
30
0.0
11
0.109342
21
-1.313077
31
0.0
0
ARC
8
1
62
7
10
-0.022428
20
-3.450864
30
0.0
40
0.05
50
180.919774
51
359.080226
0
ARC
8
1
62
7
10
-0.566427
20
-3.314711
30
0.0
40
0.05
50
168.489779
51
346.626745
0
ARC
8
1
62
7
10
-0.298257
20
-3.398089
30
0.0
40
0.035
50
176.395545
51
351.163024
0
ARC
8
1
62
7
10
-0.823553
20
-3.201783
30
0.0
40
0.035
50
163.962819
51
338.710929
0
ARC
8
1
62
7
10
-1.066391
20
-3.060729
30
0.0
40
0.035
50
157.746146
51
332.48416
0
ARC
8
1
62
7
10
-1.291878
20
-2.893329
30
0.0
40
0.035
50
151.529259
51
326.256917
0
ARC
8
1
62
7
10
2.927192
20
-3.403509
30
0.0
40
3.0
50
169.484833
51
180.919774
0
ARC
8
1
62
7
10
2.660878
20
-3.584493
30
0.0
40
3.0
50
164.639281
51
176.395545
0
ARC
8
1
62
7
10
2.324246
20
-3.903362
30
0.0
40
3.0
50
157.042073
51
168.489779
0
ARC
8
1
62
7
10
2.026058
20
-4.020894
30
0.0
40
3.0
50
152.19414
51
163.962887
0
ARC
8
1
62
7
10
1.677762
20
-4.183604
30
0.0
40
3.0
50
145.970977
51
157.746214
0
ARC
8
1
62
7
10
1.314539
20
-4.306771
30
0.0
40
3.0
50
138.8702
51
151.529327
0
ARC
8
1
62
7
10
-2.972048
20
-3.403509
30
0.0
40
3.0
50
359.080226
51
370.515167
0
ARC
8
1
62
7
10
-3.228061
20
-2.942595
30
0.0
40
3.0
50
351.163019
51
362.919283
0
ARC
8
1
62
7
10
-3.436434
20
-2.632394
30
0.0
40
3.0
50
346.626745
51
358.074451
0
ARC
8
1
62
7
10
-3.586223
20
-2.12527
30
0.0
40
3.0
50
338.710925
51
350.479672
0
ARC
8
1
62
7
10
-3.696
20
-1.690917
30
0.0
40
3.0
50
332.484152
51
344.25939
0
ARC
8
1
62
7
10
-3.757384
20
-1.246361
30
0.0
40
3.0
50
326.256908
51
338.038804
0
LINE
8
1
62
7
10
-1.269792
20
-2.920481
30
0.0
11
-0.864464
21
-2.590781
31
0.0
0
LINE
8
1
62
7
10
-1.041488
20
-3.085322
30
0.0
11
-0.673862
21
-2.713058
31
0.0
0
LINE
8
1
62
7
10
-0.797406
20
-3.22505
30
0.0
11
-0.499534
21
-2.890316
31
0.0
0
LINE
8
1
62
7
10
-0.524878
20
-3.342526
30
0.0
11
-0.275527
21
-2.970058
31
0.0
0
LINE
8
1
62
7
10
-0.267701
20
-3.415157
30
0.0
11
-0.048557
21
-3.022825
31
0.0
0
ARC
8
1
62
7
10
1.247021
20
-2.893329
30
0.0
40
0.035
50
-146.256917
51
28.470741
0
ARC
8
1
62
7
10
3.712527
20
-1.246361
30
0.0
40
3.0
50
201.961196
51
213.743092
0
ARC
8
1
62
7
10
1.021535
20
-3.060729
30
0.0
40
0.035
50
-152.48416
51
22.253854
0
ARC
8
1
62
7
10
3.651143
20
-1.690917
30
0.0
40
3.0
50
195.74061
51
207.515848
0
ARC
8
1
62
7
10
-1.722619
20
-4.183604
30
0.0
40
3.0
50
22.253786
51
34.029023
0
ARC
8
1
62
7
10
0.778696
20
-3.201783
30
0.0
40
0.035
50
-158.710929
51
16.037181
0
ARC
8
1
62
7
10
3.541366
20
-2.12527
30
0.0
40
3.0
50
189.520328
51
201.289075
0
ARC
8
1
62
7
10
-2.070915
20
-4.020894
30
0.0
40
3.0
50
16.037113
51
27.80586
0
ARC
8
1
62
7
10
0.52157
20
-3.314711
30
0.0
40
0.05
50
-166.626745
51
11.510221
0
ARC
8
1
62
7
10
3.391578
20
-2.632394
30
0.0
40
3.0
50
181.925549
51
193.373255
0
ARC
8
1
62
7
10
-2.369103
20
-3.903362
30
0.0
40
3.0
50
11.510221
51
22.957927
0
ARC
8
1
62
7
10
0.253401
20
-3.398089
30
0.0
40
0.035
50
-171.163024
51
3.604455
0
ARC
8
1
62
7
10
-2.705734
20
-3.584493
30
0.0
40
3.0
50
3.604455
51
15.360719
0
ARC
8
1
62
7
10
3.183204
20
-2.942595
30
0.0
40
3.0
50
177.080717
51
188.836981
0
ARC
8
1
62
7
10
-2.972048
20
-3.403509
30
0.0
40
3.0
50
-0.919774
51
10.515167
0
ARC
8
1
62
7
10
2.927192
20
-3.403509
30
0.0
40
3.0
50
169.484833
51
180.919774
0
LINE
8
1
62
7
10
1.224935
20
-2.920481
30
0.0
11
0.819608
21
-2.590781
31
0.0
0
LINE
8
1
62
7
10
0.996631
20
-3.085322
30
0.0
11
0.629005
21
-2.713058
31
0.0
0
LINE
8
1
62
7
10
0.75255
20
-3.22505
30
0.0
11
0.454678
21
-2.890316
31
0.0
0
LINE
8
1
62
7
10
0.480021
20
-3.342526
30
0.0
11
0.23067
21
-2.970058
31
0.0
0
LINE
8
1
62
7
10
0.222844
20
-3.415157
30
0.0
11
0.0037
21
-3.022825
31
0.0
0
ARC
8
1
62
7
10
-1.359396
20
-4.306771
30
0.0
40
3.0
50
28.470673
51
41.324336
0
ARC
8
1
62
7
10
-1.296141
20
-1.914542
30
0.0
40
0.005
50
162.080628
51
327.517125
0
ARC
8
1
62
7
10
-1.301078
20
-2.04661
30
0.0
40
0.005
50
288.27939
51
453.946669
0
ARC
8
1
62
7
10
-1.217147
20
-2.168804
30
0.0
40
0.005
50
320.620467
51
509.584782
0
ARC
8
1
62
7
10
-1.343044
20
-1.78741
30
0.0
40
0.05
50
30.867947
51
244.117143
0
ARC
8
1
62
7
10
-1.330701
20
-2.355181
30
0.0
40
0.05
50
131.891628
51
337.534265
0
ARC
8
1
62
7
10
-2.362568
20
-0.341051
30
0.0
40
2.0
50
296.827603
51
299.958946
0
ARC
8
1
62
7
10
-1.674984
20
-4.021649
30
0.0
40
2.0
50
81.208358
51
84.335668
0
ARC
8
1
62
7
10
-0.649258
20
0.034995
30
0.0
40
2.0
50
249.15828
51
251.192238
0
ARC
8
1
62
7
10
-3.016831
20
-2.787879
30
0.0
40
2.0
50
28.055839
51
30.867947
0
ARC
8
1
62
7
10
-0.03524
20
-3.812673
30
0.0
40
2.0
50
127.868282
51
131.631624
0
ARC
8
1
62
7
10
-3.20388
20
-1.297646
30
0.0
40
2.0
50
342.080628
51
343.354456
0
ARC
8
1
62
7
10
-1.260676
20
-1.851919
30
0.0
40
0.01
50
325.467959
51
388.055839
0
ARC
8
1
62
7
10
0.395181
20
-2.991322
30
0.0
40
2.0
50
145.467959
51
145.560749
0
ARC
8
1
62
7
10
0.395181
20
-2.991322
30
0.0
40
2.0
50
145.615112
51
147.517125
0
ARC
8
1
62
7
10
-1.29727
20
-1.867682
30
0.0
40
0.01
50
35.866388
51
71.192238
0
LINE
8
1
62
7
10
-1.328963
20
-1.861823
30
0.0
11
-1.328963
21
-2.043331
31
0.0
0
ARC
8
1
62
7
10
-0.672208
20
-3.950434
30
0.0
40
2.0
50
108.279412
51
109.17034
0
ARC
8
1
62
7
10
-0.672208
20
-3.950434
30
0.0
40
2.0
50
109.17034
51
110.230689
0
ARC
8
1
62
7
10
-1.439078
20
-0.046365
30
0.0
40
2.0
50
271.999395
51
273.156167
0
ARC
8
1
62
7
10
-1.439078
20
-0.046365
30
0.0
40
2.0
50
273.156167
51
273.946669
0
ARC
8
1
62
7
10
-3.132712
20
-1.610026
30
0.0
40
2.0
50
337.534265
51
343.192434
0
ARC
8
1
62
7
10
-3.132712
20
-1.610026
30
0.0
40
2.0
50
343.213706
51
343.681584
0
ARC
8
1
62
7
10
-2.946217
20
-1.153747
30
0.0
40
2.0
50
327.313725
51
328.872636
0
ARC
8
1
62
7
10
-2.946217
20
-1.153747
30
0.0
40
2.0
50
328.872636
51
329.584782
0
LINE
8
1
62
7
10
-1.35958
20
-1.83879
30
0.0
11
-1.331005
21
-1.944861
31
0.0
0
LINE
8
1
62
7
10
-1.475047
20
-2.030069
30
0.0
11
-1.335974
21
-1.956296
31
0.0
0
LINE
8
1
62
7
10
-1.262937
20
-2.233825
30
0.0
11
-1.26369
21
-2.187632
31
0.0
0
LINE
8
1
62
7
10
1.284106
20
-2.136276
30
0.0
11
1.284106
21
-2.186632
31
0.0
0
ARC
8
1
62
7
10
1.437662
20
-2.08117
30
0.0
40
0.05
50
-111.53867
51
95.323639
0
ARC
8
1
62
7
10
1.630127
20
-4.021649
30
0.0
40
2.0
50
95.664332
51
98.791642
0
ARC
8
1
62
7
10
1.256222
20
-2.04661
30
0.0
40
0.005
50
86.053331
51
251.72061
0
ARC
8
1
62
7
10
2.317711
20
-0.341051
30
0.0
40
2.0
50
240.041054
51
243.172397
0
ARC
8
1
62
7
10
1.285845
20
-2.355181
30
0.0
40
0.05
50
-157.534265
51
48.108372
0
ARC
8
1
62
7
10
-0.009616
20
-3.812673
30
0.0
40
2.0
50
48.368376
51
52.131718
0
ARC
8
1
62
7
10
1.17229
20
-2.168804
30
0.0
40
0.005
50
30.415218
51
219.379533
0
ARC
8
1
62
7
10
1.298187
20
-1.78741
30
0.0
40
0.05
50
-68.582754
51
149.132053
0
ARC
8
1
62
7
10
1.251285
20
-1.914542
30
0.0
40
0.005
50
-147.517125
51
17.919372
0
ARC
8
1
62
7
10
0.604402
20
0.034995
30
0.0
40
2.0
50
288.807762
51
290.790718
0
ARC
8
1
62
7
10
3.159023
20
-1.297646
30
0.0
40
2.0
50
196.645544
51
197.919372
0
ARC
8
1
62
7
10
2.971974
20
-2.787879
30
0.0
40
2.0
50
149.132053
51
151.944161
0
ARC
8
1
62
7
10
1.21582
20
-1.851919
30
0.0
40
0.01
50
151.944161
51
214.532041
0
ARC
8
1
62
7
10
-0.440037
20
-2.991322
30
0.0
40
2.0
50
34.439251
51
34.532041
0
ARC
8
1
62
7
10
-0.440037
20
-2.991322
30
0.0
40
2.0
50
32.482875
51
34.384888
0
ARC
8
1
62
7
10
1.252413
20
-1.867682
30
0.0
40
0.01
50
144.133612
51
196.645544
0
ARC
8
1
62
7
10
1.252413
20
-1.867682
30
0.0
40
0.01
50
108.807762
51
130.349626
0
LINE
8
1
62
7
10
1.284106
20
-1.862823
30
0.0
11
1.284106
21
-2.043331
31
0.0
0
ARC
8
1
62
7
10
0.627351
20
-3.950434
30
0.0
40
2.0
50
70.82966
51
71.720588
0
ARC
8
1
62
7
10
0.627351
20
-3.950434
30
0.0
40
2.0
50
69.769311
51
70.82966
0
ARC
8
1
62
7
10
1.394222
20
-0.046365
30
0.0
40
2.0
50
266.843833
51
268.000605
0
ARC
8
1
62
7
10
1.394222
20
-0.046365
30
0.0
40
2.0
50
266.053331
51
266.843833
0
ARC
8
1
62
7
10
3.087856
20
-1.610026
30
0.0
40
2.0
50
196.807566
51
202.465735
0
ARC
8
1
62
7
10
3.087856
20
-1.610026
30
0.0
40
2.0
50
196.318416
51
196.786294
0
ARC
8
1
62
7
10
2.901361
20
-1.153747
30
0.0
40
2.0
50
211.127364
51
212.686275
0
ARC
8
1
62
7
10
2.901361
20
-1.153747
30
0.0
40
2.0
50
210.415218
51
211.127364
0
LINE
8
1
62
7
10
1.315845
20
-1.834628
30
0.0
11
1.284281
21
-1.95179
31
0.0
0
LINE
8
1
62
7
10
1.432461
20
-2.031273
30
0.0
11
1.284778
21
-1.952934
31
0.0
0
LINE
8
1
62
7
10
1.21808
20
-2.233825
30
0.0
11
1.218833
21
-2.187632
31
0.0
0
LINE
8
1
62
7
10
0.871322
20
-1.13199
30
0.0
11
1.093493
21
-1.096284
31
0.0
0
LINE
8
1
62
7
10
1.093493
20
-1.096284
30
0.0
11
1.061754
21
-1.270847
31
0.0
0
LINE
8
1
62
7
10
1.061754
20
-1.270847
30
0.0
11
1.196644
21
-1.290684
31
0.0
0
LINE
8
1
62
7
10
1.196644
20
-1.290684
30
0.0
11
1.014146
21
-1.417639
31
0.0
0
LINE
8
1
62
7
10
1.026048
20
-1.564431
30
0.0
11
1.089526
21
-1.746929
31
0.0
0
LINE
8
1
62
7
10
-1.12822
20
-1.060578
30
0.0
11
-0.973493
21
-1.056611
31
0.0
0
LINE
8
1
62
7
10
-0.973493
20
-1.056611
30
0.0
11
-1.136154
21
-1.183566
31
0.0
0
LINE
8
1
62
7
10
-1.136154
20
-1.183566
30
0.0
11
-1.060775
21
-1.282749
31
0.0
0
LINE
8
1
62
7
10
-1.144089
20
-1.504921
30
0.0
11
-1.116318
21
-1.675516
31
0.0
0
LINE
8
1
62
7
10
0.208572
20
-0.7576
30
0.0
11
0.278812
21
-0.767951
31
0.0
0
LINE
8
1
62
7
10
0.278812
20
-0.767951
30
0.0
11
0.23445
21
-0.74577
31
0.0
0
LINE
8
1
62
7
10
0.278812
20
-0.767951
30
0.0
11
0.228535
21
-0.773127
31
0.0
0
LINE
8
1
62
7
10
-0.052428
20
-1.821823
30
0.0
11
-0.052428
21
-1.543383
31
0.0
0
LINE
8
1
62
7
10
-0.054399
20
-1.462858
30
0.0
11
-0.145513
21
-1.504233
31
0.0
0
LINE
8
1
62
7
10
-0.066563
20
-1.534278
30
0.0
11
-0.137244
21
-1.566375
31
0.0
0
LINE
8
1
62
7
10
-0.151379
20
-1.513339
30
0.0
11
-0.151379
21
-1.55727
31
0.0
0
LINE
8
1
62
7
10
0.009542
20
-1.462858
30
0.0
11
0.100657
21
-1.504233
31
0.0
0
LINE
8
1
62
7
10
0.106522
20
-1.513339
30
0.0
11
0.106522
21
-1.55727
31
0.0
0
LINE
8
1
62
7
10
0.007572
20
-1.821823
30
0.0
11
0.007572
21
-1.543383
31
0.0
0
LINE
8
1
62
7
10
0.021706
20
-1.534278
30
0.0
11
0.092387
21
-1.566375
31
0.0
0
LINE
8
1
62
7
10
-0.050264
20
-1.461963
30
0.0
11
0.005408
21
-1.461963
31
0.0
0
LINE
8
1
62
7
10
-0.401034
20
-1.771823
30
0.0
11
-0.301034
21
-1.771823
31
0.0
0
ARC
8
1
62
7
10
-1.034095
20
0.939662
30
0.0
40
2.5925
50
282.720557
51
283.906134
0
ARC
8
1
62
7
10
-1.034095
20
0.939662
30
0.0
40
2.5925
50
283.906134
51
286.655668
0
ARC
8
1
62
7
10
-1.034095
20
0.939662
30
0.0
40
2.5925
50
286.655668
51
287.741939
0
LINE
8
1
62
7
10
-0.291034
20
-1.619933
30
0.0
11
-0.291034
21
-1.761823
31
0.0
0
LINE
8
1
62
7
10
-0.411034
20
-1.646482
30
0.0
11
-0.411034
21
-1.761823
31
0.0
0
ARC
8
1
62
7
10
-1.034095
20
0.939662
30
0.0
40
2.6525
50
283.754916
51
285.981557
0
ARC
8
1
62
7
10
-1.034095
20
0.939662
30
0.0
40
2.5925
50
275.587637
51
276.622475
0
ARC
8
1
62
7
10
-1.034095
20
0.939662
30
0.0
40
2.5925
50
279.479522
51
280.48058
0
LINE
8
1
62
7
10
-0.550694
20
-1.619419
30
0.0
11
-0.550694
21
-1.668418
31
0.0
0
LINE
8
1
62
7
10
-0.790694
20
-1.650472
30
0.0
11
-0.790694
21
-1.701647
31
0.0
0
LINE
8
1
62
7
10
-0.713378
20
-1.714014
30
0.0
11
-0.67889
21
-1.751029
31
0.0
0
LINE
8
1
62
7
10
-0.663538
20
-1.750164
30
0.0
11
-0.62873
21
-1.703175
31
0.0
0
LINE
8
1
62
7
10
-0.72735
20
-1.637966
30
0.0
11
-0.678289
21
-1.681143
31
0.0
0
LINE
8
1
62
7
10
-0.664099
20
-1.680155
30
0.0
11
-0.613059
21
-1.620781
31
0.0
0
ARC
8
1
62
7
10
-0.241034
20
-1.53906
30
0.0
40
0.01
50
0.0
51
107.741939
0
ARC
8
1
62
7
10
-0.461034
20
-1.598961
30
0.0
40
0.01
50
102.720557
51
180.0
0
ARC
8
1
62
7
10
-0.301034
20
-1.619933
30
0.0
40
0.01
50
0.0
51
105.981557
0
ARC
8
1
62
7
10
-0.401034
20
-1.646482
30
0.0
40
0.01
50
103.754916
51
180.0
0
ARC
8
1
62
7
10
-0.401034
20
-1.761823
30
0.0
40
0.01
50
180.0
51
270.0
0
ARC
8
1
62
7
10
-0.301034
20
-1.761823
30
0.0
40
0.01
50
270.0
51
360.0
0
ARC
8
1
62
7
10
-0.671573
20
-1.744212
30
0.0
40
0.01
50
222.976116
51
323.470233
0
ARC
8
1
62
7
10
-0.620694
20
-1.709127
30
0.0
40
0.01
50
0.0
51
143.470233
0
ARC
8
1
62
7
10
-0.720694
20
-1.720831
30
0.0
40
0.01
50
42.976116
51
180.0
0
ARC
8
1
62
7
10
-0.780694
20
-1.650472
30
0.0
40
0.01
50
95.587637
51
180.0
0
ARC
8
1
62
7
10
-0.733957
20
-1.645473
30
0.0
40
0.01
50
48.650432
51
96.622475
0
ARC
8
1
62
7
10
-0.671682
20
-1.673636
30
0.0
40
0.01
50
228.650432
51
319.316364
0
ARC
8
1
62
7
10
-0.605476
20
-1.6273
30
0.0
40
0.01
50
99.479522
51
139.316364
0
ARC
8
1
62
7
10
-0.560694
20
-1.619419
30
0.0
40
0.01
50
0.0
51
100.48058
0
LINE
8
1
62
7
10
-0.790694
20
-1.831823
30
0.0
11
-0.730694
21
-1.831823
31
0.0
0
LINE
8
1
62
7
10
-0.610694
20
-1.831823
30
0.0
11
-0.550694
21
-1.831823
31
0.0
0
LINE
8
1
62
7
10
-0.042428
20
-1.831823
30
0.0
11
-0.022428
21
-1.831823
31
0.0
0
LINE
8
1
62
7
10
-0.022428
20
-1.831823
30
0.0
11
-0.002428
21
-1.831823
31
0.0
0
LINE
8
1
62
7
10
-0.471034
20
-1.598961
30
0.0
11
-0.471034
21
-1.821823
31
0.0
0
LINE
8
1
62
7
10
-0.550694
20
-1.668418
30
0.0
11
-0.550694
21
-1.831823
31
0.0
0
LINE
8
1
62
7
10
-0.610694
20
-1.709127
30
0.0
11
-0.610694
21
-1.831823
31
0.0
0
LINE
8
1
62
7
10
-0.730694
20
-1.720831
30
0.0
11
-0.730694
21
-1.831823
31
0.0
0
LINE
8
1
62
7
10
-0.790694
20
-1.701647
30
0.0
11
-0.790694
21
-1.831823
31
0.0
0
LINE
8
1
62
7
10
-0.231034
20
-1.53906
30
0.0
11
-0.231034
21
-1.821823
31
0.0
0
LINE
8
1
62
7
10
-0.461034
20
-1.831823
30
0.0
11
-0.241034
21
-1.831823
31
0.0
0
ARC
8
1
62
7
10
-0.461034
20
-1.821823
30
0.0
40
0.01
50
180.0
51
270.0
0
ARC
8
1
62
7
10
-0.241034
20
-1.821823
30
0.0
40
0.01
50
270.0
51
360.0
0
ARC
8
1
62
7
10
0.989238
20
0.939662
30
0.0
40
2.5925
50
253.344332
51
256.093866
0
ARC
8
1
62
7
10
0.989238
20
0.939662
30
0.0
40
2.5925
50
252.258061
51
253.344332
0
ARC
8
1
62
7
10
0.196178
20
-1.53906
30
0.0
40
0.01
50
72.258061
51
180.0
0
ARC
8
1
62
7
10
0.989238
20
0.939662
30
0.0
40
2.5925
50
256.093866
51
257.279443
0
ARC
8
1
62
7
10
0.416178
20
-1.598961
30
0.0
40
0.01
50
-0.0
51
77.279443
0
ARC
8
1
62
7
10
0.256178
20
-1.619933
30
0.0
40
0.01
50
74.018443
51
180.0
0
ARC
8
1
62
7
10
0.989238
20
0.939662
30
0.0
40
2.6525
50
254.018443
51
256.245084
0
ARC
8
1
62
7
10
0.356178
20
-1.646482
30
0.0
40
0.01
50
-0.0
51
76.245084
0
LINE
8
1
62
7
10
0.366178
20
-1.646482
30
0.0
11
0.366178
21
-1.761823
31
0.0
0
ARC
8
1
62
7
10
0.356178
20
-1.761823
30
0.0
40
0.01
50
-90.0
51
0.0
0
LINE
8
1
62
7
10
0.356178
20
-1.771823
30
0.0
11
0.256178
21
-1.771823
31
0.0
0
LINE
8
1
62
7
10
0.246178
20
-1.619933
30
0.0
11
0.246178
21
-1.761823
31
0.0
0
ARC
8
1
62
7
10
0.256178
20
-1.761823
30
0.0
40
0.01
50
180.0
51
270.0
0
LINE
8
1
62
7
10
0.426178
20
-1.598961
30
0.0
11
0.426178
21
-1.821823
31
0.0
0
ARC
8
1
62
7
10
0.416178
20
-1.821823
30
0.0
40
0.01
50
-90.0
51
0.0
0
LINE
8
1
62
7
10
0.416178
20
-1.831823
30
0.0
11
0.196178
21
-1.831823
31
0.0
0
LINE
8
1
62
7
10
0.186178
20
-1.53906
30
0.0
11
0.186178
21
-1.821823
31
0.0
0
ARC
8
1
62
7
10
0.196178
20
-1.821823
30
0.0
40
0.01
50
180.0
51
270.0
0
ARC
8
1
62
7
10
0.989238
20
0.939662
30
0.0
40
2.5925
50
259.526139
51
260.607215
0
ARC
8
1
62
7
10
0.989238
20
0.939662
30
0.0
40
2.5925
50
260.607215
51
261.948795
0
ARC
8
1
62
7
10
0.989238
20
0.939662
30
0.0
40
2.5925
50
261.948795
51
263.090146
0
ARC
8
1
62
7
10
0.989238
20
0.939662
30
0.0
40
2.6525
50
261.074208
51
261.944537
0
LINE
8
1
62
7
10
0.506138
20
-1.619475
30
0.0
11
0.506138
21
-1.668473
31
0.0
0
LINE
8
1
62
7
10
0.506138
20
-1.668473
30
0.0
11
0.506138
21
-1.821823
31
0.0
0
LINE
8
1
62
7
10
0.686138
20
-1.643935
30
0.0
11
0.686138
21
-1.695463
31
0.0
0
LINE
8
1
62
7
10
0.566138
20
-1.690595
30
0.0
11
0.566138
21
-1.731078
31
0.0
0
LINE
8
1
62
7
10
0.626138
20
-1.696567
30
0.0
11
0.626138
21
-1.736959
31
0.0
0
ARC
8
1
62
7
10
0.989238
20
0.939662
30
0.0
40
2.7125
50
261.207374
51
262.06454
0
LINE
8
1
62
7
10
0.686138
20
-1.695463
30
0.0
11
0.686138
21
-1.718425
31
0.0
0
LINE
8
1
62
7
10
0.686138
20
-1.778425
30
0.0
11
0.686138
21
-1.821823
31
0.0
0
ARC
8
1
62
7
10
0.656138
20
-1.718425
30
0.0
40
0.03
50
270.0
51
360.0
0
ARC
8
1
62
7
10
0.656138
20
-1.778425
30
0.0
40
0.03
50
0.0
51
90.0
0
LINE
8
1
62
7
10
0.626138
20
-1.761454
30
0.0
11
0.566138
21
-1.761454
31
0.0
0
ARC
8
1
62
7
10
0.516138
20
-1.619475
30
0.0
40
0.01
50
79.526139
51
180.0
0
ARC
8
1
62
7
10
0.676138
20
-1.643935
30
0.0
40
0.01
50
0.0
51
83.090146
0
ARC
8
1
62
7
10
0.516138
20
-1.821823
30
0.0
40
0.01
50
180.0
51
270.0
0
ARC
8
1
62
7
10
0.676138
20
-1.821823
30
0.0
40
0.01
50
270.0
51
360.0
0
LINE
8
1
62
7
10
0.516138
20
-1.831823
30
0.0
11
0.556138
21
-1.831823
31
0.0
0
LINE
8
1
62
7
10
0.636138
20
-1.831823
30
0.0
11
0.676138
21
-1.831823
31
0.0
0
LINE
8
1
62
7
10
0.566138
20
-1.761454
30
0.0
11
0.566138
21
-1.821823
31
0.0
0
LINE
8
1
62
7
10
0.626138
20
-1.761454
30
0.0
11
0.626138
21
-1.821823
31
0.0
0
ARC
8
1
62
7
10
0.556138
20
-1.821823
30
0.0
40
0.01
50
270.0
51
360.0
0
ARC
8
1
62
7
10
0.636138
20
-1.821823
30
0.0
40
0.01
50
180.0
51
270.0
0
ARC
8
1
62
7
10
0.616138
20
-1.736959
30
0.0
40
0.01
50
262.06454
51
360.0
0
ARC
8
1
62
7
10
0.616138
20
-1.696567
30
0.0
40
0.01
50
0.0
51
81.944537
0
ARC
8
1
62
7
10
0.576138
20
-1.690595
30
0.0
40
0.01
50
81.074208
51
180.0
0
ARC
8
1
62
7
10
0.576138
20
-1.731078
30
0.0
40
0.01
50
180.0
51
261.207374
0
ARC
8
1
62
7
10
-0.062428
20
-1.543383
30
0.0
40
0.01
50
0.0
51
114.423034
0
ARC
8
1
62
7
10
-0.141379
20
-1.55727
30
0.0
40
0.01
50
180.0
51
294.423034
0
ARC
8
1
62
7
10
-0.141379
20
-1.513339
30
0.0
40
0.01
50
114.423034
51
180.0
0
ARC
8
1
62
7
10
-0.050264
20
-1.471963
30
0.0
40
0.01
50
90.0
51
114.423034
0
ARC
8
1
62
7
10
0.005408
20
-1.471963
30
0.0
40
0.01
50
65.576966
51
90.0
0
ARC
8
1
62
7
10
0.096522
20
-1.513339
30
0.0
40
0.01
50
0.0
51
65.576966
0
ARC
8
1
62
7
10
0.096522
20
-1.55727
30
0.0
40
0.01
50
245.576966
51
360.0
0
ARC
8
1
62
7
10
0.017572
20
-1.543383
30
0.0
40
0.01
50
65.576966
51
180.0
0
ARC
8
1
62
7
10
-0.002428
20
-1.821823
30
0.0
40
0.01
50
270.0
51
360.0
0
ARC
8
1
62
7
10
-0.042428
20
-1.821823
30
0.0
40
0.01
50
180.0
51
270.0
0
ARC
8
1
62
7
10
-0.419943
20
-0.832495
30
0.0
40
1.8475
50
287.662481
51
289.490966
0
LINE
8
1
62
7
10
0.289488
20
-2.518235
30
0.0
11
0.289488
21
-2.538357
31
0.0
0
ARC
8
1
62
7
10
-0.419943
20
-0.832495
30
0.0
40
1.9075
50
285.200325
51
289.06403
0
ARC
8
1
62
7
10
-0.419943
20
-0.832495
30
0.0
40
1.9075
50
292.280815
51
293.789085
0
LINE
8
1
62
7
10
0.067572
20
-2.614513
30
0.0
11
0.067572
21
-2.663611
31
0.0
0
LINE
8
1
62
7
10
0.209828
20
-2.58355
30
0.0
11
0.209828
21
-2.625925
31
0.0
0
LINE
8
1
62
7
10
0.413286
20
-2.347632
30
0.0
11
0.413286
21
-2.387632
31
0.0
0
LINE
8
1
62
7
10
0.067572
20
-2.227632
30
0.0
11
0.067572
21
-2.614513
31
0.0
0
LINE
8
1
62
7
10
0.127572
20
-2.227632
30
0.0
11
0.127572
21
-2.583376
31
0.0
0
ARC
8
1
62
7
10
-0.419943
20
-0.832495
30
0.0
40
1.8475
50
295.098751
51
297.366514
0
LINE
8
1
62
7
10
0.289488
20
-2.227632
30
0.0
11
0.289488
21
-2.277632
31
0.0
0
LINE
8
1
62
7
10
0.289488
20
-2.277632
30
0.0
11
0.289488
21
-2.588322
31
0.0
0
LINE
8
1
62
7
10
0.443914
20
-2.227632
30
0.0
11
0.443914
21
-2.267632
31
0.0
0
LINE
8
1
62
7
10
0.359488
20
-2.277632
30
0.0
11
0.433914
21
-2.277632
31
0.0
0
LINE
8
1
62
7
10
0.349488
20
-2.287632
30
0.0
11
0.349488
21
-2.327632
31
0.0
0
LINE
8
1
62
7
10
0.349488
20
-2.407632
30
0.0
11
0.349488
21
-2.496495
31
0.0
0
LINE
8
1
62
7
10
0.533574
20
-2.217632
30
0.0
11
0.583574
21
-2.217632
31
0.0
0
LINE
8
1
62
7
10
0.583574
20
-2.217632
30
0.0
11
0.641421
21
-2.217632
31
0.0
0
ARC
8
1
62
7
10
-0.419943
20
-0.832495
30
0.0
40
1.9075
50
300.166354
51
301.741667
0
ARC
8
1
62
7
10
-0.419943
20
-0.832495
30
0.0
40
1.9075
50
301.741667
51
304.01076
0
ARC
8
1
62
7
10
-0.419943
20
-0.832495
30
0.0
40
1.8475
50
300.886135
51
302.76572
0
LINE
8
1
62
7
10
0.593574
20
-2.277632
30
0.0
11
0.641421
21
-2.277632
31
0.0
0
LINE
8
1
62
7
10
0.593574
20
-2.337632
30
0.0
11
0.641421
21
-2.337632
31
0.0
0
LINE
8
1
62
7
10
0.523574
20
-2.227632
30
0.0
11
0.523574
21
-2.277632
31
0.0
0
LINE
8
1
62
7
10
0.523574
20
-2.277632
30
0.0
11
0.523574
21
-2.337632
31
0.0
0
LINE
8
1
62
7
10
0.523574
20
-2.337632
30
0.0
11
0.523574
21
-2.357632
31
0.0
0
LINE
8
1
62
7
10
0.523574
20
-2.426582
30
0.0
11
0.523574
21
-2.473017
31
0.0
0
LINE
8
1
62
7
10
0.651421
20
-2.405395
30
0.0
11
0.651421
21
-2.347632
31
0.0
0
LINE
8
1
62
7
10
0.651421
20
-2.267632
30
0.0
11
0.651421
21
-2.227632
31
0.0
0
LINE
8
1
62
7
10
0.583574
20
-2.287632
30
0.0
11
0.583574
21
-2.327632
31
0.0
0
LINE
8
1
62
7
10
0.443914
20
-2.482112
30
0.0
11
0.443914
21
-2.527026
31
0.0
0
ARC
8
1
62
7
10
-0.419943
20
-0.832495
30
0.0
40
1.9075
50
293.789085
51
296.74308
0
LINE
8
1
62
7
10
0.359488
20
-2.337632
30
0.0
11
0.403286
21
-2.337632
31
0.0
0
LINE
8
1
62
7
10
0.403286
20
-2.397632
30
0.0
11
0.359488
21
-2.397632
31
0.0
0
LINE
8
1
62
7
10
0.299488
20
-2.217632
30
0.0
11
0.433914
21
-2.217632
31
0.0
0
LINE
8
1
62
7
10
0.077572
20
-2.217632
30
0.0
11
0.117572
21
-2.217632
31
0.0
0
LINE
8
1
62
7
10
-0.052428
20
-2.227632
30
0.0
11
-0.052428
21
-2.267632
31
0.0
0
LINE
8
1
62
7
10
-0.052428
20
-2.637734
30
0.0
11
-0.052428
21
-2.678867
31
0.0
0
ARC
8
1
62
7
10
0.375086
20
-0.832495
30
0.0
40
1.9075
50
251.69973
51
256.669127
0
ARC
8
1
62
7
10
0.375086
20
-0.832495
30
0.0
40
1.8475
50
253.04642
51
256.376582
0
LINE
8
1
62
7
10
-0.160723
20
-2.277632
30
0.0
11
-0.062428
21
-2.277632
31
0.0
0
LINE
8
1
62
7
10
-0.170723
20
-2.287632
30
0.0
11
-0.170723
21
-2.59014
31
0.0
0
LINE
8
1
62
7
10
-0.230723
20
-2.227632
30
0.0
11
-0.230723
21
-2.277632
31
0.0
0
LINE
8
1
62
7
10
-0.230723
20
-2.277632
30
0.0
11
-0.230723
21
-2.577847
31
0.0
0
LINE
8
1
62
7
10
-0.230723
20
-2.577847
30
0.0
11
-0.230723
21
-2.634027
31
0.0
0
LINE
8
1
62
7
10
-0.220723
20
-2.217632
30
0.0
11
-0.062428
21
-2.217632
31
0.0
0
ARC
8
1
62
7
10
0.375086
20
-0.832495
30
0.0
40
1.9075
50
236.370526
51
238.351665
0
ARC
8
1
62
7
10
0.375086
20
-0.832495
30
0.0
40
1.9075
50
238.351665
51
242.650564
0
ARC
8
1
62
7
10
0.375086
20
-0.832495
30
0.0
40
1.8475
50
237.367348
51
242.010528
0
LINE
8
1
62
7
10
-0.615787
20
-2.277632
30
0.0
11
-0.496656
21
-2.277632
31
0.0
0
LINE
8
1
62
7
10
-0.675787
20
-2.217632
30
0.0
11
-0.625787
21
-2.217632
31
0.0
0
LINE
8
1
62
7
10
-0.625787
20
-2.217632
30
0.0
11
-0.496656
21
-2.217632
31
0.0
0
LINE
8
1
62
7
10
-0.685787
20
-2.227632
30
0.0
11
-0.685787
21
-2.277632
31
0.0
0
LINE
8
1
62
7
10
-0.685787
20
-2.277632
30
0.0
11
-0.685787
21
-2.345044
31
0.0
0
LINE
8
1
62
7
10
-0.685787
20
-2.345044
30
0.0
11
-0.685787
21
-2.412423
31
0.0
0
LINE
8
1
62
7
10
-0.625787
20
-2.287632
30
0.0
11
-0.625787
21
-2.379937
31
0.0
0
LINE
8
1
62
7
10
-0.486656
20
-2.227632
30
0.0
11
-0.486656
21
-2.267632
31
0.0
0
LINE
8
1
62
7
10
-0.486656
20
-2.472731
30
0.0
11
-0.486656
21
-2.517895
31
0.0
0
ARC
8
1
62
7
10
0.375086
20
-0.832495
30
0.0
40
1.9075
50
246.593831
51
247.903583
0
LINE
8
1
62
7
10
-0.433947
20
-2.217632
30
0.0
11
-0.390896
21
-2.217632
31
0.0
0
LINE
8
1
62
7
10
-0.326484
20
-2.217632
30
0.0
11
-0.283432
21
-2.217632
31
0.0
0
LINE
8
1
62
7
10
-0.38869
20
-2.370309
30
0.0
11
-0.38869
21
-2.514727
31
0.0
0
LINE
8
1
62
7
10
-0.38869
20
-2.514727
30
0.0
11
-0.38869
21
-2.573854
31
0.0
0
LINE
8
1
62
7
10
-0.32869
20
-2.370309
30
0.0
11
-0.32869
21
-2.540698
31
0.0
0
LINE
8
1
62
7
10
-0.32869
20
-2.540698
30
0.0
11
-0.32869
21
-2.590628
31
0.0
0
LINE
8
1
62
7
10
-0.443238
20
-2.231329
30
0.0
11
-0.389398
21
-2.366612
31
0.0
0
LINE
8
1
62
7
10
-0.274141
20
-2.231329
30
0.0
11
-0.327981
21
-2.366612
31
0.0
0
LINE
8
1
62
7
10
-0.381604
20
-2.223934
30
0.0
11
-0.367981
21
-2.258165
31
0.0
0
LINE
8
1
62
7
10
-0.335775
20
-2.223934
30
0.0
11
-0.349398
21
-2.258165
31
0.0
0
ARC
8
1
62
7
10
-0.675787
20
-2.227632
30
0.0
40
0.01
50
90.0
51
180.0
0
ARC
8
1
62
7
10
-0.615787
20
-2.287632
30
0.0
40
0.01
50
90.0
51
180.0
0
ARC
8
1
62
7
10
-0.615787
20
-2.379937
30
0.0
40
0.01
50
180.0
51
237.367348
0
ARC
8
1
62
7
10
-0.496656
20
-2.472731
30
0.0
40
0.01
50
0.0
51
62.010528
0
ARC
8
1
62
7
10
-0.496656
20
-2.517895
30
0.0
40
0.01
50
242.650564
51
360.0
0
ARC
8
1
62
7
10
-0.675787
20
-2.412423
30
0.0
40
0.01
50
180.0
51
236.370526
0
ARC
8
1
62
7
10
-0.496656
20
-2.267632
30
0.0
40
0.01
50
270.0
51
360.0
0
ARC
8
1
62
7
10
-0.496656
20
-2.227632
30
0.0
40
0.01
50
360.0
51
450.0
0
ARC
8
1
62
7
10
-0.433947
20
-2.227632
30
0.0
40
0.01
50
90.0
51
201.701641
0
ARC
8
1
62
7
10
-0.390896
20
-2.227632
30
0.0
40
0.01
50
21.701641
51
90.0
0
ARC
8
1
62
7
10
-0.35869
20
-2.254468
30
0.0
40
0.01
50
201.701641
51
338.298356
0
ARC
8
1
62
7
10
-0.326484
20
-2.227632
30
0.0
40
0.01
50
90.0
51
158.298356
0
ARC
8
1
62
7
10
-0.283432
20
-2.227632
30
0.0
40
0.01
50
338.298356
51
450.0
0
ARC
8
1
62
7
10
-0.31869
20
-2.370309
30
0.0
40
0.01
50
158.298356
51
180.0
0
ARC
8
1
62
7
10
-0.39869
20
-2.370309
30
0.0
40
0.01
50
0.0
51
21.701641
0
ARC
8
1
62
7
10
-0.37869
20
-2.573854
30
0.0
40
0.01
50
180.0
51
246.593831
0
ARC
8
1
62
7
10
-0.33869
20
-2.590628
30
0.0
40
0.01
50
247.903583
51
360.0
0
ARC
8
1
62
7
10
-0.220723
20
-2.634027
30
0.0
40
0.01
50
180.0
51
251.69973
0
ARC
8
1
62
7
10
-0.160723
20
-2.59014
30
0.0
40
0.01
50
180.0
51
253.04642
0
ARC
8
1
62
7
10
-0.062428
20
-2.637734
30
0.0
40
0.01
50
0.0
51
76.376582
0
ARC
8
1
62
7
10
-0.062428
20
-2.678867
30
0.0
40
0.01
50
256.669127
51
360.0
0
ARC
8
1
62
7
10
-0.062428
20
-2.267632
30
0.0
40
0.01
50
270.0
51
360.0
0
ARC
8
1
62
7
10
-0.160723
20
-2.287632
30
0.0
40
0.01
50
90.0
51
180.0
0
ARC
8
1
62
7
10
-0.220723
20
-2.227632
30
0.0
40
0.01
50
90.0
51
180.0
0
ARC
8
1
62
7
10
-0.062428
20
-2.227632
30
0.0
40
0.01
50
0.0
51
90.0
0
ARC
8
1
62
7
10
0.077572
20
-2.227632
30
0.0
40
0.01
50
90.0
51
180.0
0
ARC
8
1
62
7
10
0.117572
20
-2.227632
30
0.0
40
0.01
50
0.0
51
90.0
0
ARC
8
1
62
7
10
0.137572
20
-2.583376
30
0.0
40
0.01
50
180.0
51
287.662481
0
ARC
8
1
62
7
10
0.199828
20
-2.58355
30
0.0
40
0.01
50
0.0
51
109.490966
0
ARC
8
1
62
7
10
0.199828
20
-2.625925
30
0.0
40
0.01
50
289.06403
51
360.0
0
ARC
8
1
62
7
10
0.077572
20
-2.663611
30
0.0
40
0.01
50
180.0
51
285.200325
0
ARC
8
1
62
7
10
0.299488
20
-2.227632
30
0.0
40
0.01
50
90.000021
51
180.0
0
ARC
8
1
62
7
10
0.433914
20
-2.227632
30
0.0
40
0.01
50
0.0
51
90.000021
0
ARC
8
1
62
7
10
0.433914
20
-2.267632
30
0.0
40
0.01
50
270.0
51
360.0
0
ARC
8
1
62
7
10
0.359488
20
-2.287632
30
0.0
40
0.01
50
90.0
51
180.0
0
ARC
8
1
62
7
10
0.359488
20
-2.327632
30
0.0
40
0.01
50
180.0
51
270.000046
0
ARC
8
1
62
7
10
0.403286
20
-2.347632
30
0.0
40
0.01
50
0.0
51
90.000046
0
ARC
8
1
62
7
10
0.403286
20
-2.387632
30
0.0
40
0.01
50
270.0
51
360.0
0
ARC
8
1
62
7
10
0.359488
20
-2.407632
30
0.0
40
0.01
50
90.0
51
180.0
0
ARC
8
1
62
7
10
0.359488
20
-2.496495
30
0.0
40
0.01
50
180.0
51
295.098751
0
ARC
8
1
62
7
10
0.433914
20
-2.482112
30
0.0
40
0.01
50
0.0
51
117.366514
0
ARC
8
1
62
7
10
0.433914
20
-2.527026
30
0.0
40
0.01
50
296.74308
51
360.0
0
ARC
8
1
62
7
10
0.299488
20
-2.588322
30
0.0
40
0.01
50
180.0
51
292.280815
0
ARC
8
1
62
7
10
0.533574
20
-2.227632
30
0.0
40
0.01
50
90.0
51
180.0
0
ARC
8
1
62
7
10
0.641421
20
-2.227632
30
0.0
40
0.01
50
0.0
51
90.0
0
ARC
8
1
62
7
10
0.641421
20
-2.267632
30
0.0
40
0.01
50
270.0
51
360.0
0
ARC
8
1
62
7
10
0.593574
20
-2.287632
30
0.0
40
0.01
50
90.0
51
180.0
0
ARC
8
1
62
7
10
0.593574
20
-2.327632
30
0.0
40
0.01
50
180.0
51
270.0
0
ARC
8
1
62
7
10
0.641421
20
-2.347632
30
0.0
40
0.01
50
0.0
51
90.0
0
ARC
8
1
62
7
10
0.641421
20
-2.405395
30
0.0
40
0.01
50
304.01076
51
360.0
0
ARC
8
1
62
7
10
0.533574
20
-2.473017
30
0.0
40
0.01
50
180.0
51
300.166354
0
ARC
8
1
62
7
10
0.533574
20
-2.426582
30
0.0
40
0.01
50
120.886135
51
180.0
0
LINE
8
1
62
7
10
0.533574
20
-2.367632
30
0.0
11
0.574522
21
-2.367632
31
0.0
0
ARC
8
1
62
7
10
0.533574
20
-2.357632
30
0.0
40
0.01
50
180.0
51
270.0
0
ARC
8
1
62
7
10
0.574522
20
-2.377632
30
0.0
40
0.01
50
302.76572
51
450.0
0
ARC
8
1
62
7
10
-1.29727
20
-1.867682
30
0.0
40
0.01
50
343.354456
51
395.866388
0
LINE
8
1
62
7
10
-1.328963
20
-1.861823
30
0.0
11
-1.289166
21
-1.861823
31
0.0
0
LINE
8
1
62
7
10
1.246586
20
-1.861823
30
0.0
11
1.283106
21
-1.861823
31
0.0
0
LINE
8
1
62
7
10
-0.079088
20
-3.433803
30
0.0
11
-0.158805
21
-3.2202
31
0.0
0
LINE
8
1
62
7
10
0.035509
20
-3.433443
30
0.0
11
0.1221
21
-3.234795
31
0.0
0
LINE
8
1
62
7
10
-0.935104
20
-2.453059
30
0.0
11
-1.037016
21
-2.628442
31
0.0
0
LINE
8
1
62
7
10
-1.037016
20
-2.628442
30
0.0
11
-0.909034
21
-2.557341
31
0.0
0
LINE
8
1
62
7
10
-0.804752
20
-2.711394
30
0.0
11
-0.861633
21
-2.825155
31
0.0
0
LINE
8
1
62
7
10
-0.861633
20
-2.825155
30
0.0
11
-0.759721
21
-2.737464
31
0.0
0
LINE
8
1
62
7
10
-0.586708
20
-2.756424
30
0.0
11
-0.641219
21
-2.931807
31
0.0
0
LINE
8
1
62
7
10
-0.641219
20
-2.931807
30
0.0
11
-0.560638
21
-2.853596
31
0.0
0
LINE
8
1
62
7
10
-0.406585
20
-2.953138
30
0.0
11
-0.425546
21
-3.07638
31
0.0
0
LINE
8
1
62
7
10
-0.425546
20
-3.07638
30
0.0
11
-0.302304
21
-2.855966
31
0.0
0
LINE
8
1
62
7
10
-0.162471
20
-2.874926
30
0.0
11
-0.179062
21
-3.045569
31
0.0
0
LINE
8
1
62
7
10
-0.179061
20
-3.045569
30
0.0
11
-0.07478
21
-2.874926
31
0.0
0
LINE
8
1
62
7
10
-0.11033
20
-3.190142
30
0.0
11
-0.10085
21
-3.277833
31
0.0
0
LINE
8
1
62
7
10
-0.10085
20
-3.277833
30
0.0
11
-0.09137
21
-3.147481
31
0.0
0
LINE
8
1
62
7
10
0.050832
20
-3.206732
30
0.0
11
0.055572
21
-3.303903
31
0.0
0
LINE
8
1
62
7
10
0.055572
20
-3.303903
30
0.0
11
0.079273
21
-3.225692
31
0.0
0
LINE
8
1
62
7
10
0.038982
20
-2.964988
30
0.0
11
0.107713
21
-3.07875
31
0.0
0
LINE
8
1
62
7
10
0.107713
20
-3.07875
30
0.0
11
0.124304
21
-2.877296
31
0.0
0
LINE
8
1
62
7
10
0.302056
20
-2.967358
30
0.0
11
0.363678
21
-3.08112
31
0.0
0
LINE
8
1
62
7
10
0.363677
20
-3.08112
30
0.0
11
0.344717
21
-2.810935
31
0.0
0
LINE
8
1
62
7
10
0.49166
20
-2.829896
30
0.0
11
0.605422
21
-2.993428
31
0.0
0
LINE
8
1
62
7
10
0.605422
20
-2.993428
30
0.0
11
0.52484
21
-2.720874
31
0.0
0
LINE
8
1
62
7
10
0.683633
20
-2.694803
30
0.0
11
0.792655
21
-2.796715
31
0.0
0
LINE
8
1
62
7
10
0.792655
20
-2.796715
30
0.0
11
0.721553
21
-2.635552
31
0.0
0
LINE
8
1
62
7
10
0.849536
20
-2.545491
30
0.0
11
0.986998
21
-2.675843
31
0.0
0
LINE
8
1
62
7
10
0.986998
20
-2.675843
30
0.0
11
0.889826
21
-2.462539
31
0.0
0
ARC
8
1
62
7
10
-3.590452
20
-3.008922
30
0.0
40
0.01
50
343.631205
51
351.469181
0
ARC
8
1
62
7
10
-3.590452
20
-3.008922
30
0.0
40
0.01
50
343.631205
51
351.469181
0
LINE
8
1
62
7
10
-0.436845
20
2.13887
30
0.0
11
-0.461874
21
2.205612
31
0.0
0
LINE
8
1
62
7
10
-0.40229
20
1.86213
30
0.0
11
-0.403174
21
1.85415
31
0.0
0
LINE
8
1
62
7
10
-0.405343
20
1.845811
30
0.0
11
-0.455405
21
1.726914
31
0.0
0
LINE
8
1
62
7
10
-0.520094
20
1.57813
30
0.0
11
-0.561251
21
1.494034
31
0.0
0
LINE
8
1
62
7
10
-0.561251
20
1.494034
30
0.0
11
-0.600784
21
1.396999
31
0.0
0
LINE
8
1
62
7
10
-0.557843
20
0.916194
30
0.0
11
-0.419839
21
0.877553
31
0.0
0
LINE
8
1
62
7
10
-0.327597
20
1.082849
30
0.0
11
-0.332496
21
1.125308
31
0.0
0
LINE
8
1
62
7
10
-0.332496
20
1.125308
30
0.0
11
-0.397185
21
1.267623
31
0.0
0
LINE
8
1
62
7
10
-0.397185
20
1.267623
30
0.0
11
-0.265057
21
1.195554
31
0.0
0
LINE
8
1
62
7
10
-0.251073
20
1.17903
30
0.0
11
-0.240536
21
1.14859
31
0.0
0
LINE
8
1
62
7
10
-0.216056
20
0.840676
30
0.0
11
-0.232855
21
0.792379
31
0.0
0
LINE
8
1
62
7
10
-0.335178
20
0.609549
30
0.0
11
-0.382899
21
0.551224
31
0.0
0
LINE
8
1
62
7
10
-0.269851
20
-0.114427
30
0.0
11
-0.253636
21
-0.139909
31
0.0
0
LINE
8
1
62
7
10
-0.214191
20
-0.194807
30
0.0
11
-0.143575
21
-0.282235
31
0.0
0
LINE
8
1
62
7
10
-0.574968
20
2.468048
30
0.0
11
-0.610658
21
2.322052
31
0.0
0
LINE
8
1
62
7
10
-0.610658
20
2.322052
30
0.0
11
-0.610658
21
2.231649
31
0.0
0
LINE
8
1
62
7
10
-0.612914
20
2.179673
30
0.0
11
-0.62198
21
2.07541
31
0.0
0
LINE
8
1
62
7
10
-0.626363
20
2.038382
30
0.0
11
-0.642876
21
1.928298
31
0.0
0
LINE
8
1
62
7
10
-0.782534
20
1.687234
30
0.0
11
-0.882291
21
1.663762
31
0.0
0
LINE
8
1
62
7
10
-0.892719
20
1.667683
30
0.0
11
-0.950618
21
1.748742
31
0.0
0
LINE
8
1
62
7
10
-0.952025
20
1.757537
30
0.0
11
-0.921165
21
1.856292
31
0.0
0
LINE
8
1
62
7
10
-0.921165
20
1.856292
30
0.0
11
-0.894473
21
1.947044
31
0.0
0
LINE
8
1
62
7
10
-0.907578
20
1.959229
30
0.0
11
-0.989216
21
1.928615
31
0.0
0
LINE
8
1
62
7
10
-0.994117
20
1.924659
30
0.0
11
-1.050543
21
1.836885
31
0.0
0
LINE
8
1
62
7
10
-1.050543
20
1.836885
30
0.0
11
-1.063481
21
1.726914
31
0.0
0
LINE
8
1
62
7
10
-1.063481
20
1.726914
30
0.0
11
-1.057011
21
1.616943
31
0.0
0
LINE
8
1
62
7
10
-1.057011
20
1.616943
30
0.0
11
-1.044074
21
1.513441
31
0.0
0
LINE
8
1
62
7
10
-1.044074
20
1.513441
30
0.0
11
-0.953509
21
1.409939
31
0.0
0
LINE
8
1
62
7
10
-0.953509
20
1.409939
30
0.0
11
-0.908227
21
1.325843
31
0.0
0
LINE
8
1
62
7
10
-0.908227
20
1.325843
30
0.0
11
-0.882352
21
1.177059
31
0.0
0
LINE
8
1
62
7
10
-0.882352
20
1.177059
30
0.0
11
-0.895289
21
1.05415
31
0.0
0
LINE
8
1
62
7
10
-0.895289
20
1.05415
30
0.0
11
-0.934103
21
0.93771
31
0.0
0
LINE
8
1
62
7
10
-0.934103
20
0.93771
30
0.0
11
-1.032591
21
0.88231
31
0.0
0
LINE
8
1
62
7
10
-1.042564
20
0.882407
30
0.0
11
-1.14368
21
0.941887
31
0.0
0
LINE
8
1
62
7
10
-1.14843
20
0.948618
30
0.0
11
-1.17928
21
1.109041
31
0.0
0
LINE
8
1
62
7
10
-1.178404
20
1.115402
30
0.0
11
-1.115232
21
1.241748
31
0.0
0
LINE
8
1
62
7
10
-1.115232
20
1.241748
30
0.0
11
-1.218733
21
1.202934
31
0.0
0
LINE
8
1
62
7
10
-1.218733
20
1.202934
30
0.0
11
-1.283423
21
1.11237
31
0.0
0
LINE
8
1
62
7
10
-1.283423
20
1.11237
30
0.0
11
-1.302829
21
1.008868
31
0.0
0
LINE
8
1
62
7
10
-1.302829
20
1.008868
30
0.0
11
-1.276954
21
0.892428
31
0.0
0
LINE
8
1
62
7
10
-1.276954
20
0.892428
30
0.0
11
-1.225203
21
0.801863
31
0.0
0
LINE
8
1
62
7
10
-1.225203
20
0.801863
30
0.0
11
-1.141152
21
0.730744
31
0.0
0
LINE
8
1
62
7
10
-1.141063
20
0.730667
30
0.0
11
-1.045313
21
0.647683
31
0.0
0
LINE
8
1
62
7
10
-1.043243
20
0.645197
30
0.0
11
-1.013901
21
0.595317
31
0.0
0
LINE
8
1
62
7
10
-0.979385
20
0.468561
30
0.0
11
-0.979385
21
0.390853
31
0.0
0
LINE
8
1
62
7
10
-0.893095
20
-0.229463
30
0.0
11
-1.001673
21
-0.519008
31
0.0
0
LINE
8
1
62
7
10
-1.001673
20
-0.519008
30
0.0
11
-1.140285
21
-0.221983
31
0.0
0
LINE
8
1
62
7
10
-1.141209
20
-0.21828
30
0.0
11
-1.147455
21
-0.099604
31
0.0
0
LINE
8
1
62
7
10
-1.146686
20
-0.095198
30
0.0
11
-1.095825
21
0.025596
31
0.0
0
LINE
8
1
62
7
10
-1.095825
20
0.025596
30
0.0
11
-1.199327
21
-0.006748
31
0.0
0
LINE
8
1
62
7
10
-1.199327
20
-0.006748
30
0.0
11
-1.251078
21
-0.084375
31
0.0
0
LINE
8
1
62
7
10
-1.251078
20
-0.084375
30
0.0
11
-1.276954
21
-0.194346
31
0.0
0
LINE
8
1
62
7
10
-1.276954
20
-0.194346
30
0.0
11
-1.262606
21
-0.316301
31
0.0
0
LINE
8
1
62
7
10
-0.461874
20
2.205612
30
0.0
11
-0.574968
21
2.468048
31
0.0
0
LINE
8
1
62
7
10
-0.455405
20
1.726914
30
0.0
11
-0.520094
21
1.57813
31
0.0
0
LINE
8
1
62
7
10
-0.210942
20
0.888404
30
0.0
11
-0.216056
21
0.840676
31
0.0
0
LINE
8
1
62
7
10
-0.059772
20
-0.419726
30
0.0
11
-0.033858
21
-0.552918
31
0.0
0
LINE
8
1
62
7
10
-0.059772
20
-0.419726
30
0.0
11
-0.069358
21
-0.399742
31
0.0
0
ARC
8
1
62
7
10
-0.432992
20
1.857453
30
0.0
40
0.03
50
337.166336
51
353.678442
0
ARC
8
1
62
7
10
-0.41175
20
0.906442
30
0.0
40
0.03
50
254.357743
51
303.132229
0
ARC
8
1
62
7
10
-0.279423
20
1.169217
30
0.0
40
0.03
50
19.093468
51
61.3895
0
ARC
8
1
62
7
10
-0.041715
20
1.216492
30
0.0
40
0.6
50
177.939784
51
209.515443
0
ARC
8
1
62
7
10
-0.045129
20
1.17062
30
0.0
40
0.6
50
157.833621
51
173.546174
0
ARC
8
1
62
7
10
-0.998642
20
1.928195
30
0.0
40
0.6
50
-6.321558
51
20.556169
0
ARC
8
1
62
7
10
-1.21875
20
2.096729
30
0.0
40
0.6
50
317.346707
51
343.696897
0
ARC
8
1
62
7
10
-1.210658
20
2.231649
30
0.0
40
0.6
50
-4.969652
51
0.0
0
ARC
8
1
62
7
10
-1.219725
20
2.127387
30
0.0
40
0.6
50
351.469181
51
355.030348
0
ARC
8
1
62
7
10
-0.807528
20
0.952324
30
0.0
40
0.6
50
-6.115541
51
19.093468
0
ARC
8
1
62
7
10
-0.799553
20
0.989491
30
0.0
40
0.6
50
320.710651
51
340.820978
0
ARC
8
1
62
7
10
-0.776061
20
-0.436531
30
0.0
40
0.6
50
32.468817
51
44.509972
0
ARC
8
1
62
7
10
0.252574
20
0.182196
30
0.0
40
0.6
50
212.468817
51
218.927559
0
ARC
8
1
62
7
10
-0.61034
20
-0.659238
30
0.0
40
0.6
50
25.625895
51
38.927559
0
ARC
8
1
62
7
10
0.079693
20
0.404709
30
0.0
40
0.6
50
205.913833
51
224.509972
0
ARC
8
1
62
7
10
0.112742
20
0.213082
30
0.0
40
0.6
50
145.696969
51
173.656698
0
ARC
8
1
62
7
10
-1.462287
20
-0.039674
30
0.0
40
0.6
50
-18.440166
51
30.431124
0
ARC
8
1
62
7
10
-0.784824
20
1.696968
30
0.0
40
0.01
50
283.240534
51
317.346707
0
ARC
8
1
62
7
10
-0.884582
20
1.673496
30
0.0
40
0.01
50
215.537578
51
283.240534
0
ARC
8
1
62
7
10
-0.904067
20
1.949866
30
0.0
40
0.01
50
-16.389501
51
110.556053
0
ARC
8
1
62
7
10
-0.985705
20
1.919251
30
0.0
40
0.01
50
110.556045
51
147.26481
0
ARC
8
1
62
7
10
-0.555146
20
0.925823
30
0.0
40
0.01
50
209.515443
51
254.357743
0
ARC
8
1
62
7
10
-1.037493
20
0.891026
30
0.0
40
0.01
50
239.534428
51
299.357754
0
ARC
8
1
62
7
10
-1.13861
20
0.950506
30
0.0
40
0.01
50
190.885495
51
239.534428
0
ARC
8
1
62
7
10
-1.16946
20
1.11093
30
0.0
40
0.01
50
153.435033
51
190.885495
0
ARC
8
1
62
7
10
-1.147612
20
0.72311
30
0.0
40
0.01
50
49.085652
51
49.763649
0
ARC
8
1
62
7
10
-1.051862
20
0.640127
30
0.0
40
0.01
50
30.465637
51
49.085652
0
ARC
8
1
62
7
10
-0.989385
20
0.388895
30
0.0
40
0.01
50
-11.888669
51
0.0
0
ARC
8
1
62
7
10
-0.88494
20
0.081857
30
0.0
40
0.01
50
11.887132
51
39.472416
0
ARC
8
1
62
7
10
-1.137469
20
-0.099078
30
0.0
40
0.01
50
157.166326
51
183.012735
0
ARC
8
1
62
7
10
-1.131223
20
-0.217754
30
0.0
40
0.01
50
183.012735
51
205.016924
0
ARC
8
1
62
7
10
-0.942481
20
1.754555
30
0.0
40
0.01
50
162.646026
51
215.537578
0
LINE
8
1
62
7
10
0.36913
20
2.13887
30
0.0
11
0.394158
21
2.205612
31
0.0
0
LINE
8
1
62
7
10
0.334575
20
1.86213
30
0.0
11
0.335459
21
1.85415
31
0.0
0
LINE
8
1
62
7
10
0.337628
20
1.845811
30
0.0
11
0.38769
21
1.726914
31
0.0
0
LINE
8
1
62
7
10
0.452378
20
1.57813
30
0.0
11
0.493536
21
1.494034
31
0.0
0
LINE
8
1
62
7
10
0.493536
20
1.494034
30
0.0
11
0.533069
21
1.396999
31
0.0
0
LINE
8
1
62
7
10
0.490127
20
0.916194
30
0.0
11
0.352124
21
0.877553
31
0.0
0
LINE
8
1
62
7
10
0.323622
20
0.884458
30
0.0
11
0.256503
21
0.946782
31
0.0
0
LINE
8
1
62
7
10
0.247115
20
0.972204
30
0.0
11
0.26478
21
1.125308
31
0.0
0
LINE
8
1
62
7
10
0.26478
20
1.125308
30
0.0
11
0.329469
21
1.267623
31
0.0
0
LINE
8
1
62
7
10
0.329469
20
1.267623
30
0.0
11
0.197342
21
1.195554
31
0.0
0
LINE
8
1
62
7
10
0.183358
20
1.17903
30
0.0
11
0.172821
21
1.14859
31
0.0
0
LINE
8
1
62
7
10
0.148341
20
0.840676
30
0.0
11
0.16514
21
0.792379
31
0.0
0
LINE
8
1
62
7
10
0.267463
20
0.609549
30
0.0
11
0.315183
21
0.551224
31
0.0
0
LINE
8
1
62
7
10
0.41925
20
0.231823
30
0.0
11
0.419947
21
0.209498
31
0.0
0
LINE
8
1
62
7
10
0.202135
20
-0.114427
30
0.0
11
0.185921
21
-0.139909
31
0.0
0
LINE
8
1
62
7
10
0.146475
20
-0.194807
30
0.0
11
0.07586
21
-0.282235
31
0.0
0
LINE
8
1
62
7
10
0.507252
20
2.468048
30
0.0
11
0.542943
21
2.322052
31
0.0
0
LINE
8
1
62
7
10
0.542943
20
2.322052
30
0.0
11
0.542943
21
2.231649
31
0.0
0
LINE
8
1
62
7
10
0.545199
20
2.179673
30
0.0
11
0.554265
21
2.07541
31
0.0
0
LINE
8
1
62
7
10
0.558647
20
2.038382
30
0.0
11
0.57516
21
1.928298
31
0.0
0
LINE
8
1
62
7
10
0.714818
20
1.687234
30
0.0
11
0.814576
21
1.663762
31
0.0
0
LINE
8
1
62
7
10
0.825004
20
1.667683
30
0.0
11
0.882903
21
1.748742
31
0.0
0
LINE
8
1
62
7
10
0.88431
20
1.757537
30
0.0
11
0.853449
21
1.856292
31
0.0
0
LINE
8
1
62
7
10
0.853449
20
1.856292
30
0.0
11
0.826758
21
1.947044
31
0.0
0
LINE
8
1
62
7
10
0.839862
20
1.959229
30
0.0
11
0.921501
21
1.928615
31
0.0
0
LINE
8
1
62
7
10
0.926401
20
1.924659
30
0.0
11
0.982827
21
1.836885
31
0.0
0
LINE
8
1
62
7
10
0.982827
20
1.836885
30
0.0
11
0.995765
21
1.726914
31
0.0
0
LINE
8
1
62
7
10
0.995765
20
1.726914
30
0.0
11
0.989296
21
1.616943
31
0.0
0
LINE
8
1
62
7
10
0.989296
20
1.616943
30
0.0
11
0.976358
21
1.513441
31
0.0
0
LINE
8
1
62
7
10
0.976358
20
1.513441
30
0.0
11
0.885794
21
1.409939
31
0.0
0
LINE
8
1
62
7
10
0.885794
20
1.409939
30
0.0
11
0.840512
21
1.325843
31
0.0
0
LINE
8
1
62
7
10
0.840512
20
1.325843
30
0.0
11
0.814636
21
1.177059
31
0.0
0
LINE
8
1
62
7
10
0.814636
20
1.177059
30
0.0
11
0.827574
21
1.05415
31
0.0
0
LINE
8
1
62
7
10
0.827574
20
1.05415
30
0.0
11
0.866387
21
0.93771
31
0.0
0
LINE
8
1
62
7
10
0.866387
20
0.93771
30
0.0
11
0.964875
21
0.88231
31
0.0
0
LINE
8
1
62
7
10
0.974848
20
0.882407
30
0.0
11
1.075964
21
0.941887
31
0.0
0
LINE
8
1
62
7
10
1.080714
20
0.948618
30
0.0
11
1.111565
21
1.109041
31
0.0
0
LINE
8
1
62
7
10
1.110689
20
1.115402
30
0.0
11
1.047516
21
1.241748
31
0.0
0
LINE
8
1
62
7
10
1.047516
20
1.241748
30
0.0
11
1.151018
21
1.202934
31
0.0
0
LINE
8
1
62
7
10
1.151018
20
1.202934
30
0.0
11
1.215707
21
1.11237
31
0.0
0
LINE
8
1
62
7
10
1.215707
20
1.11237
30
0.0
11
1.235114
21
1.008868
31
0.0
0
LINE
8
1
62
7
10
1.235114
20
1.008868
30
0.0
11
1.209238
21
0.892428
31
0.0
0
LINE
8
1
62
7
10
1.209238
20
0.892428
30
0.0
11
1.157487
21
0.801863
31
0.0
0
LINE
8
1
62
7
10
1.157487
20
0.801863
30
0.0
11
1.073437
21
0.730744
31
0.0
0
LINE
8
1
62
7
10
1.073347
20
0.730667
30
0.0
11
0.977597
21
0.647683
31
0.0
0
LINE
8
1
62
7
10
0.975527
20
0.645197
30
0.0
11
0.91305
21
0.538986
31
0.0
0
LINE
8
1
62
7
10
0.911669
20
0.533916
30
0.0
11
0.911669
21
0.388934
31
0.0
0
LINE
8
1
62
7
10
0.825379
20
-0.229463
30
0.0
11
0.933958
21
-0.519008
31
0.0
0
LINE
8
1
62
7
10
0.933958
20
-0.519008
30
0.0
11
1.07257
21
-0.221983
31
0.0
0
LINE
8
1
62
7
10
1.073494
20
-0.21828
30
0.0
11
1.07974
21
-0.099604
31
0.0
0
LINE
8
1
62
7
10
1.07897
20
-0.095198
30
0.0
11
1.028109
21
0.025596
31
0.0
0
LINE
8
1
62
7
10
1.028109
20
0.025596
30
0.0
11
1.131612
21
-0.006748
31
0.0
0
LINE
8
1
62
7
10
1.131612
20
-0.006748
30
0.0
11
1.183363
21
-0.084375
31
0.0
0
LINE
8
1
62
7
10
1.183363
20
-0.084375
30
0.0
11
1.209238
21
-0.194346
31
0.0
0
LINE
8
1
62
7
10
1.209238
20
-0.194346
30
0.0
11
1.1963
21
-0.304317
31
0.0
0
LINE
8
1
62
7
10
0.394158
20
2.205612
30
0.0
11
0.507252
21
2.468048
31
0.0
0
LINE
8
1
62
7
10
0.38769
20
1.726914
30
0.0
11
0.452378
21
1.57813
31
0.0
0
LINE
8
1
62
7
10
0.143227
20
0.888404
30
0.0
11
0.148341
21
0.840676
31
0.0
0
LINE
8
1
62
7
10
-0.007944
20
-0.419726
30
0.0
11
-0.033858
21
-0.552918
31
0.0
0
LINE
8
1
62
7
10
-0.007944
20
-0.419726
30
0.0
11
0.001642
21
-0.399742
31
0.0
0
ARC
8
1
62
7
10
0.365277
20
1.857453
30
0.0
40
0.03
50
186.321558
51
202.833664
0
ARC
8
1
62
7
10
0.344035
20
0.906442
30
0.0
40
0.03
50
227.121172
51
285.642257
0
ARC
8
1
62
7
10
0.276917
20
0.968766
30
0.0
40
0.03
50
173.418011
51
227.121172
0
ARC
8
1
62
7
10
0.211707
20
1.169217
30
0.0
40
0.03
50
118.6105
51
160.906532
0
ARC
8
1
62
7
10
-0.026001
20
1.216492
30
0.0
40
0.6
50
330.484557
51
362.060216
0
ARC
8
1
62
7
10
-0.022586
20
1.17062
30
0.0
40
0.6
50
6.453826
51
22.166379
0
ARC
8
1
62
7
10
0.930927
20
1.928195
30
0.0
40
0.6
50
159.443831
51
186.321558
0
ARC
8
1
62
7
10
1.151034
20
2.096729
30
0.0
40
0.6
50
196.303103
51
222.653293
0
ARC
8
1
62
7
10
1.142943
20
2.231649
30
0.0
40
0.6
50
180.0
51
184.969652
0
ARC
8
1
62
7
10
1.152009
20
2.127387
30
0.0
40
0.6
50
184.969652
51
188.530819
0
ARC
8
1
62
7
10
0.739812
20
0.952324
30
0.0
40
0.6
50
160.906532
51
186.115541
0
ARC
8
1
62
7
10
0.731838
20
0.989491
30
0.0
40
0.6
50
199.179022
51
219.289349
0
ARC
8
1
62
7
10
0.708345
20
-0.436531
30
0.0
40
0.6
50
135.490028
51
147.531183
0
ARC
8
1
62
7
10
-0.320289
20
0.182196
30
0.0
40
0.6
50
321.072441
51
327.531183
0
ARC
8
1
62
7
10
0.542625
20
-0.659238
30
0.0
40
0.6
50
141.072441
51
154.374105
0
ARC
8
1
62
7
10
-0.147409
20
0.404709
30
0.0
40
0.6
50
315.490028
51
341.013156
0
ARC
8
1
62
7
10
-0.180458
20
0.213082
30
0.0
40
0.6
50
1.78988
51
34.303031
0
ARC
8
1
62
7
10
1.394572
20
-0.039674
30
0.0
40
0.6
50
149.567883
51
198.440166
0
ARC
8
1
62
7
10
0.717109
20
1.696968
30
0.0
40
0.01
50
222.653293
51
256.759466
0
ARC
8
1
62
7
10
0.816866
20
1.673496
30
0.0
40
0.01
50
256.759466
51
324.462422
0
ARC
8
1
62
7
10
0.836351
20
1.949866
30
0.0
40
0.01
50
69.443947
51
196.389501
0
ARC
8
1
62
7
10
0.91799
20
1.919251
30
0.0
40
0.01
50
32.73519
51
69.443955
0
ARC
8
1
62
7
10
0.487431
20
0.925823
30
0.0
40
0.01
50
285.642257
51
330.484557
0
ARC
8
1
62
7
10
0.969778
20
0.891026
30
0.0
40
0.01
50
240.642246
51
300.465572
0
ARC
8
1
62
7
10
1.070894
20
0.950506
30
0.0
40
0.01
50
300.465572
51
349.114505
0
ARC
8
1
62
7
10
1.101745
20
1.11093
30
0.0
40
0.01
50
349.114505
51
386.564967
0
ARC
8
1
62
7
10
1.079896
20
0.72311
30
0.0
40
0.01
50
130.236351
51
130.914348
0
ARC
8
1
62
7
10
0.984147
20
0.640127
30
0.0
40
0.01
50
130.914348
51
149.534363
0
ARC
8
1
62
7
10
0.921669
20
0.533916
30
0.0
40
0.01
50
149.534363
51
180.0
0
ARC
8
1
62
7
10
0.921669
20
0.388895
30
0.0
40
0.01
50
179.565866
51
180.0
0
ARC
8
1
62
7
10
0.817224
20
0.081857
30
0.0
40
0.01
50
140.527584
51
168.112868
0
ARC
8
1
62
7
10
1.069754
20
-0.099078
30
0.0
40
0.01
50
356.987265
51
382.833674
0
ARC
8
1
62
7
10
1.063508
20
-0.217754
30
0.0
40
0.01
50
334.983076
51
356.987265
0
ARC
8
1
62
7
10
0.874765
20
1.754555
30
0.0
40
0.01
50
324.462422
51
377.353974
0
LINE
8
1
62
7
10
2.630551
20
-1.533366
30
0.0
11
2.605523
21
-1.466623
31
0.0
0
LINE
8
1
62
7
10
2.665106
20
-1.810106
30
0.0
11
2.664222
21
-1.818086
31
0.0
0
LINE
8
1
62
7
10
2.662054
20
-1.826424
30
0.0
11
2.611992
21
-1.945321
31
0.0
0
LINE
8
1
62
7
10
2.547303
20
-2.094106
30
0.0
11
2.506145
21
-2.178201
31
0.0
0
LINE
8
1
62
7
10
2.506145
20
-2.178201
30
0.0
11
2.466612
21
-2.275237
31
0.0
0
LINE
8
1
62
7
10
2.509554
20
-2.756042
30
0.0
11
2.647557
21
-2.794683
31
0.0
0
LINE
8
1
62
7
10
2.67606
20
-2.787777
30
0.0
11
2.743178
21
-2.725454
31
0.0
0
LINE
8
1
62
7
10
2.752567
20
-2.700031
30
0.0
11
2.734901
21
-2.546928
31
0.0
0
LINE
8
1
62
7
10
2.734901
20
-2.546928
30
0.0
11
2.670212
21
-2.404612
31
0.0
0
LINE
8
1
62
7
10
2.670212
20
-2.404612
30
0.0
11
2.80234
21
-2.476682
31
0.0
0
LINE
8
1
62
7
10
2.816324
20
-2.493205
30
0.0
11
2.82686
21
-2.523645
31
0.0
0
LINE
8
1
62
7
10
2.492429
20
-1.204187
30
0.0
11
2.456738
21
-1.350183
31
0.0
0
LINE
8
1
62
7
10
2.456738
20
-1.350183
30
0.0
11
2.456738
21
-1.440586
31
0.0
0
LINE
8
1
62
7
10
2.454483
20
-1.492563
30
0.0
11
2.445417
21
-1.596826
31
0.0
0
LINE
8
1
62
7
10
2.441034
20
-1.633854
30
0.0
11
2.424521
21
-1.743938
31
0.0
0
LINE
8
1
62
7
10
2.284863
20
-1.985001
30
0.0
11
2.185105
21
-2.008474
31
0.0
0
LINE
8
1
62
7
10
2.174678
20
-2.004552
30
0.0
11
2.116779
21
-1.923493
31
0.0
0
LINE
8
1
62
7
10
2.115371
20
-1.914698
30
0.0
11
2.146232
21
-1.815943
31
0.0
0
LINE
8
1
62
7
10
2.146232
20
-1.815943
30
0.0
11
2.172924
21
-1.725191
31
0.0
0
LINE
8
1
62
7
10
2.159819
20
-1.713006
30
0.0
11
2.07818
21
-1.743621
31
0.0
0
LINE
8
1
62
7
10
2.07328
20
-1.747576
30
0.0
11
2.016854
21
-1.83535
31
0.0
0
LINE
8
1
62
7
10
2.016854
20
-1.83535
30
0.0
11
2.003916
21
-1.945321
31
0.0
0
LINE
8
1
62
7
10
2.003916
20
-1.945321
30
0.0
11
2.010385
21
-2.055292
31
0.0
0
LINE
8
1
62
7
10
2.010385
20
-2.055292
30
0.0
11
2.023323
21
-2.158794
31
0.0
0
LINE
8
1
62
7
10
2.023323
20
-2.158794
30
0.0
11
2.113888
21
-2.262297
31
0.0
0
LINE
8
1
62
7
10
2.113888
20
-2.262297
30
0.0
11
2.159169
21
-2.346392
31
0.0
0
LINE
8
1
62
7
10
2.159169
20
-2.346392
30
0.0
11
2.185045
21
-2.495177
31
0.0
0
LINE
8
1
62
7
10
2.185045
20
-2.495177
30
0.0
11
2.172107
21
-2.618086
31
0.0
0
LINE
8
1
62
7
10
2.172107
20
-2.618086
30
0.0
11
2.133294
21
-2.734526
31
0.0
0
LINE
8
1
62
7
10
2.133294
20
-2.734526
30
0.0
11
2.034806
21
-2.789925
31
0.0
0
LINE
8
1
62
7
10
2.024833
20
-2.789829
30
0.0
11
1.923717
21
-2.730349
31
0.0
0
LINE
8
1
62
7
10
1.918967
20
-2.723618
30
0.0
11
1.888116
21
-2.563194
31
0.0
0
LINE
8
1
62
7
10
1.888992
20
-2.556834
30
0.0
11
1.952165
21
-2.430488
31
0.0
0
LINE
8
1
62
7
10
1.952165
20
-2.430488
30
0.0
11
1.848663
21
-2.469301
31
0.0
0
LINE
8
1
62
7
10
1.848663
20
-2.469301
30
0.0
11
1.783974
21
-2.559866
31
0.0
0
LINE
8
1
62
7
10
1.783974
20
-2.559866
30
0.0
11
1.764567
21
-2.663368
31
0.0
0
LINE
8
1
62
7
10
1.764567
20
-2.663368
30
0.0
11
1.790443
21
-2.779808
31
0.0
0
LINE
8
1
62
7
10
1.790443
20
-2.779808
30
0.0
11
1.842194
21
-2.870372
31
0.0
0
LINE
8
1
62
7
10
1.842194
20
-2.870372
30
0.0
11
1.926244
21
-2.941492
31
0.0
0
LINE
8
1
62
7
10
1.926334
20
-2.941569
30
0.0
11
2.022084
21
-3.024552
31
0.0
0
LINE
8
1
62
7
10
2.024154
20
-3.027039
30
0.0
11
2.086631
21
-3.13325
31
0.0
0
LINE
8
1
62
7
10
2.088012
20
-3.13832
30
0.0
11
2.088012
21
-3.28334
31
0.0
0
LINE
8
1
62
7
10
1.738692
20
-3.517261
30
0.0
11
1.80985
21
-3.413759
31
0.0
0
LINE
8
1
62
7
10
1.80985
20
-3.413759
30
0.0
11
1.874538
21
-3.310257
31
0.0
0
LINE
8
1
62
7
10
1.874538
20
-3.310257
30
0.0
11
1.861601
21
-3.187348
31
0.0
0
LINE
8
1
62
7
10
1.861601
20
-3.187348
30
0.0
11
1.796912
21
-3.077377
31
0.0
0
LINE
8
1
62
7
10
1.796912
20
-3.077377
30
0.0
11
1.764567
21
-3.187348
31
0.0
0
LINE
8
1
62
7
10
1.764567
20
-3.187348
30
0.0
11
1.725754
21
-3.303788
31
0.0
0
LINE
8
1
62
7
10
1.725754
20
-3.303788
30
0.0
11
1.654596
21
-3.374945
31
0.0
0
LINE
8
1
62
7
10
1.654596
20
-3.374945
30
0.0
11
1.589907
21
-3.478448
31
0.0
0
LINE
8
1
62
7
10
1.589907
20
-3.478448
30
0.0
11
1.505812
21
-3.556074
31
0.0
0
LINE
8
1
62
7
10
1.505812
20
-3.556074
30
0.0
11
1.486405
21
-3.439634
31
0.0
0
LINE
8
1
62
7
10
1.486405
20
-3.439634
30
0.0
11
1.531688
21
-3.323194
31
0.0
0
LINE
8
1
62
7
10
1.531688
20
-3.323194
30
0.0
11
1.583439
21
-3.213223
31
0.0
0
LINE
8
1
62
7
10
1.583439
20
-3.213223
30
0.0
11
1.654596
21
-3.103252
31
0.0
0
LINE
8
1
62
7
10
1.654596
20
-3.103252
30
0.0
11
1.699878
21
-2.960937
31
0.0
0
LINE
8
1
62
7
10
1.699878
20
-2.960937
30
0.0
11
1.69341
21
-2.831559
31
0.0
0
LINE
8
1
62
7
10
1.69341
20
-2.831559
30
0.0
11
1.641659
21
-2.695712
31
0.0
0
LINE
8
1
62
7
10
1.641659
20
-2.695712
30
0.0
11
1.589907
21
-2.572803
31
0.0
0
LINE
8
1
62
7
10
1.589907
20
-2.572803
30
0.0
11
1.538156
21
-2.469301
31
0.0
0
LINE
8
1
62
7
10
1.538156
20
-2.469301
30
0.0
11
1.479936
21
-2.365799
31
0.0
0
LINE
8
1
62
7
10
1.479936
20
-2.365799
30
0.0
11
1.441123
21
-2.249359
31
0.0
0
LINE
8
1
62
7
10
1.441123
20
-2.249359
30
0.0
11
1.389372
21
-2.398143
31
0.0
0
LINE
8
1
62
7
10
1.389372
20
-2.398143
30
0.0
11
1.39584
21
-2.527521
31
0.0
0
LINE
8
1
62
7
10
1.39584
20
-2.527521
30
0.0
11
1.437264
21
-2.613844
31
0.0
0
LINE
8
1
62
7
10
2.605523
20
-1.466623
30
0.0
11
2.492429
21
-1.204187
31
0.0
0
LINE
8
1
62
7
10
2.611992
20
-1.945321
30
0.0
11
2.547303
21
-2.094106
31
0.0
0
ARC
8
1
62
7
10
2.634405
20
-1.814782
30
0.0
40
0.03
50
337.166336
51
353.678442
0
ARC
8
1
62
7
10
2.655646
20
-2.765794
30
0.0
40
0.03
50
254.357743
51
312.878828
0
ARC
8
1
62
7
10
2.722764
20
-2.70347
30
0.0
40
0.03
50
-47.121172
51
6.581989
0
ARC
8
1
62
7
10
2.787974
20
-2.503019
30
0.0
40
0.03
50
19.093468
51
61.3895
0
ARC
8
1
62
7
10
3.025682
20
-2.455744
30
0.0
40
0.6
50
177.939784
51
209.515443
0
ARC
8
1
62
7
10
3.022267
20
-2.501615
30
0.0
40
0.6
50
157.833621
51
173.546174
0
ARC
8
1
62
7
10
2.068754
20
-1.744041
30
0.0
40
0.6
50
-6.321558
51
20.556169
0
ARC
8
1
62
7
10
1.848647
20
-1.575507
30
0.0
40
0.6
50
317.346707
51
343.696897
0
ARC
8
1
62
7
10
1.856738
20
-1.440586
30
0.0
40
0.6
50
-4.969652
51
0.0
0
ARC
8
1
62
7
10
1.847672
20
-1.544849
30
0.0
40
0.6
50
351.469181
51
355.030348
0
ARC
8
1
62
7
10
2.282573
20
-1.975267
30
0.0
40
0.01
50
283.240534
51
317.346707
0
ARC
8
1
62
7
10
2.182815
20
-1.99874
30
0.0
40
0.01
50
215.537578
51
283.240534
0
ARC
8
1
62
7
10
2.16333
20
-1.72237
30
0.0
40
0.01
50
-16.389501
51
110.556053
0
ARC
8
1
62
7
10
2.081692
20
-1.752984
30
0.0
40
0.01
50
110.556045
51
147.26481
0
ARC
8
1
62
7
10
2.51225
20
-2.746412
30
0.0
40
0.01
50
209.515443
51
254.357743
0
ARC
8
1
62
7
10
2.029903
20
-2.781209
30
0.0
40
0.01
50
239.534428
51
299.357754
0
ARC
8
1
62
7
10
1.928787
20
-2.721729
30
0.0
40
0.01
50
190.885495
51
239.534428
0
ARC
8
1
62
7
10
1.897936
20
-2.561306
30
0.0
40
0.01
50
153.435033
51
190.885495
0
ARC
8
1
62
7
10
1.919785
20
-2.949126
30
0.0
40
0.01
50
49.085652
51
49.763649
0
ARC
8
1
62
7
10
2.015535
20
-3.032109
30
0.0
40
0.01
50
30.465637
51
49.085652
0
ARC
8
1
62
7
10
2.078012
20
-3.13832
30
0.0
40
0.01
50
-0.0
51
30.465637
0
ARC
8
1
62
7
10
2.078012
20
-3.28334
30
0.0
40
0.01
50
-11.888669
51
0.0
0
ARC
8
1
62
7
10
2.124916
20
-1.917681
30
0.0
40
0.01
50
162.646026
51
215.537578
0
LINE
8
1
62
7
10
3.436526
20
-1.533366
30
0.0
11
3.461555
21
-1.466623
31
0.0
0
LINE
8
1
62
7
10
3.401972
20
-1.810106
30
0.0
11
3.402856
21
-1.818086
31
0.0
0
LINE
8
1
62
7
10
3.405024
20
-1.826424
30
0.0
11
3.455086
21
-1.945321
31
0.0
0
LINE
8
1
62
7
10
3.574649
20
-1.204187
30
0.0
11
3.61034
21
-1.350183
31
0.0
0
LINE
8
1
62
7
10
3.61034
20
-1.350183
30
0.0
11
3.61034
21
-1.440586
31
0.0
0
LINE
8
1
62
7
10
3.612595
20
-1.492563
30
0.0
11
3.621661
21
-1.596826
31
0.0
0
LINE
8
1
62
7
10
3.461555
20
-1.466623
30
0.0
11
3.574649
21
-1.204187
31
0.0
0
ARC
8
1
62
7
10
3.432673
20
-1.814782
30
0.0
40
0.03
50
186.321558
51
202.833664
0
ARC
8
1
62
7
10
3.998323
20
-1.744041
30
0.0
40
0.6
50
159.443831
51
186.321558
0
ARC
8
1
62
7
10
4.21034
20
-1.440586
30
0.0
40
0.6
50
180.0
51
184.969652
0
LINE
8
1
62
7
10
-3.432237
20
-1.691776
30
0.0
11
-3.457266
21
-1.625033
31
0.0
0
LINE
8
1
62
7
10
-3.397682
20
-1.968516
30
0.0
11
-3.398566
21
-1.976496
31
0.0
0
LINE
8
1
62
7
10
-3.57036
20
-1.362597
30
0.0
11
-3.60605
21
-1.508593
31
0.0
0
LINE
8
1
62
7
10
-3.60605
20
-1.508593
30
0.0
11
-3.60605
21
-1.598996
31
0.0
0
LINE
8
1
62
7
10
-3.457266
20
-1.625033
30
0.0
11
-3.57036
21
-1.362597
31
0.0
0
ARC
8
1
62
7
10
-3.428384
20
-1.973193
30
0.0
40
0.03
50
337.166336
51
353.678442
0
ARC
8
1
62
7
10
-3.994034
20
-1.902451
30
0.0
40
0.6
50
-7.548311
51
20.556169
0
ARC
8
1
62
7
10
-4.20605
20
-1.598996
30
0.0
40
0.6
50
-4.969652
51
0.0
0
LINE
8
1
62
7
10
-2.626262
20
-1.691776
30
0.0
11
-2.605458
21
-1.636299
31
0.0
0
LINE
8
1
62
7
10
-2.621789
20
-2.070276
30
0.0
11
-2.607702
21
-2.103731
31
0.0
0
LINE
8
1
62
7
10
-2.543014
20
-2.252516
30
0.0
11
-2.501856
21
-2.336611
31
0.0
0
LINE
8
1
62
7
10
-2.501856
20
-2.336611
30
0.0
11
-2.462323
21
-2.433647
31
0.0
0
LINE
8
1
62
7
10
-2.505265
20
-2.914452
30
0.0
11
-2.643268
21
-2.953093
31
0.0
0
LINE
8
1
62
7
10
-2.748277
20
-2.858441
30
0.0
11
-2.730611
21
-2.705338
31
0.0
0
LINE
8
1
62
7
10
-2.730611
20
-2.705338
30
0.0
11
-2.665923
21
-2.563022
31
0.0
0
LINE
8
1
62
7
10
-2.665923
20
-2.563022
30
0.0
11
-2.79805
21
-2.635092
31
0.0
0
LINE
8
1
62
7
10
-2.812034
20
-2.651616
30
0.0
11
-2.822571
21
-2.682056
31
0.0
0
LINE
8
1
62
7
10
-2.48814
20
-1.362597
30
0.0
11
-2.452449
21
-1.508593
31
0.0
0
LINE
8
1
62
7
10
-2.452449
20
-1.508593
30
0.0
11
-2.452449
21
-1.598996
31
0.0
0
LINE
8
1
62
7
10
-2.450193
20
-1.650973
30
0.0
11
-2.441127
21
-1.755236
31
0.0
0
LINE
8
1
62
7
10
-2.436745
20
-1.792264
30
0.0
11
-2.420232
21
-1.902348
31
0.0
0
LINE
8
1
62
7
10
-2.280574
20
-2.143411
30
0.0
11
-2.180816
21
-2.166884
31
0.0
0
LINE
8
1
62
7
10
-2.170388
20
-2.162962
30
0.0
11
-2.112489
21
-2.081903
31
0.0
0
LINE
8
1
62
7
10
-2.111082
20
-2.073108
30
0.0
11
-2.141943
21
-1.974353
31
0.0
0
LINE
8
1
62
7
10
-2.141943
20
-1.974353
30
0.0
11
-2.168634
21
-1.883601
31
0.0
0
LINE
8
1
62
7
10
-2.155529
20
-1.871416
30
0.0
11
-2.073891
21
-1.902031
31
0.0
0
LINE
8
1
62
7
10
-2.068991
20
-1.905986
30
0.0
11
-2.012565
21
-1.99376
31
0.0
0
LINE
8
1
62
7
10
-2.012565
20
-1.99376
30
0.0
11
-1.999627
21
-2.103731
31
0.0
0
LINE
8
1
62
7
10
-1.999627
20
-2.103731
30
0.0
11
-2.006096
21
-2.213702
31
0.0
0
LINE
8
1
62
7
10
-2.006096
20
-2.213702
30
0.0
11
-2.019034
21
-2.317205
31
0.0
0
LINE
8
1
62
7
10
-2.019034
20
-2.317205
30
0.0
11
-2.109598
21
-2.420707
31
0.0
0
LINE
8
1
62
7
10
-2.109598
20
-2.420707
30
0.0
11
-2.15488
21
-2.504802
31
0.0
0
LINE
8
1
62
7
10
-2.15488
20
-2.504802
30
0.0
11
-2.180756
21
-2.653587
31
0.0
0
LINE
8
1
62
7
10
-2.180756
20
-2.653587
30
0.0
11
-2.167818
21
-2.776496
31
0.0
0
LINE
8
1
62
7
10
-2.167818
20
-2.776496
30
0.0
11
-2.129005
21
-2.892936
31
0.0
0
LINE
8
1
62
7
10
-2.129005
20
-2.892936
30
0.0
11
-2.030517
21
-2.948335
31
0.0
0
LINE
8
1
62
7
10
-2.020544
20
-2.948239
30
0.0
11
-1.919428
21
-2.888759
31
0.0
0
LINE
8
1
62
7
10
-1.914678
20
-2.882028
30
0.0
11
-1.883827
21
-2.721604
31
0.0
0
LINE
8
1
62
7
10
-1.884703
20
-2.715244
30
0.0
11
-1.947876
21
-2.588898
31
0.0
0
LINE
8
1
62
7
10
-1.947876
20
-2.588898
30
0.0
11
-1.844374
21
-2.627711
31
0.0
0
LINE
8
1
62
7
10
-1.844374
20
-2.627711
30
0.0
11
-1.779685
21
-2.718276
31
0.0
0
LINE
8
1
62
7
10
-1.779685
20
-2.718276
30
0.0
11
-1.760278
21
-2.821778
31
0.0
0
LINE
8
1
62
7
10
-1.760278
20
-2.821778
30
0.0
11
-1.786153
21
-2.938218
31
0.0
0
LINE
8
1
62
7
10
-1.786153
20
-2.938218
30
0.0
11
-1.837905
21
-3.028782
31
0.0
0
LINE
8
1
62
7
10
-1.837905
20
-3.028782
30
0.0
11
-1.921955
21
-3.099902
31
0.0
0
LINE
8
1
62
7
10
-1.922045
20
-3.099979
30
0.0
11
-2.017795
21
-3.182962
31
0.0
0
LINE
8
1
62
7
10
-2.019865
20
-3.185449
30
0.0
11
-2.083723
21
-3.294007
31
0.0
0
LINE
8
1
62
7
10
-1.829841
20
-3.299057
30
0.0
11
-1.792623
21
-3.235787
31
0.0
0
LINE
8
1
62
7
10
-1.792623
20
-3.235787
30
0.0
11
-1.760278
21
-3.345758
31
0.0
0
LINE
8
1
62
7
10
-1.760278
20
-3.345758
30
0.0
11
-1.740128
21
-3.406209
31
0.0
0
LINE
8
1
62
7
10
-1.679733
20
-3.50393
30
0.0
11
-1.67044
21
-3.513223
31
0.0
0
LINE
8
1
62
7
10
-1.635217
20
-3.5575
30
0.0
11
-1.578587
21
-3.648107
31
0.0
0
LINE
8
1
62
7
10
-1.507001
20
-3.534056
30
0.0
11
-1.527398
21
-3.481605
31
0.0
0
LINE
8
1
62
7
10
-1.527398
20
-3.481605
30
0.0
11
-1.571982
21
-3.386864
31
0.0
0
LINE
8
1
62
7
10
-1.588294
20
-3.357501
30
0.0
11
-1.632119
21
-3.289771
31
0.0
0
LINE
8
1
62
7
10
-1.660458
20
-3.229759
30
0.0
11
-1.681874
21
-3.162453
31
0.0
0
LINE
8
1
62
7
10
-1.69333
20
-3.074168
30
0.0
11
-1.691097
21
-3.029498
31
0.0
0
LINE
8
1
62
7
10
-1.675031
20
-2.952983
30
0.0
11
-1.637369
21
-2.854122
31
0.0
0
LINE
8
1
62
7
10
-1.637369
20
-2.854122
30
0.0
11
-1.585618
21
-2.731214
31
0.0
0
LINE
8
1
62
7
10
-1.585618
20
-2.731214
30
0.0
11
-1.533867
21
-2.627711
31
0.0
0
LINE
8
1
62
7
10
-1.533867
20
-2.627711
30
0.0
11
-1.475647
21
-2.524209
31
0.0
0
LINE
8
1
62
7
10
-1.475647
20
-2.524209
30
0.0
11
-1.436834
21
-2.407769
31
0.0
0
LINE
8
1
62
7
10
-1.436834
20
-2.407769
30
0.0
11
-1.385082
21
-2.556553
31
0.0
0
LINE
8
1
62
7
10
-1.385082
20
-2.556553
30
0.0
11
-1.391551
21
-2.685931
31
0.0
0
LINE
8
1
62
7
10
-1.391551
20
-2.685931
30
0.0
11
-1.447427
21
-2.802371
31
0.0
0
LINE
8
1
62
7
10
-1.447427
20
-2.802371
30
0.0
11
-1.46147
21
-2.84216
31
0.0
0
LINE
8
1
62
7
10
-1.468592
20
-2.984645
30
0.0
11
-1.467893
21
-2.987511
31
0.0
0
LINE
8
1
62
7
10
-2.596472
20
-1.613984
30
0.0
11
-2.48814
21
-1.362597
31
0.0
0
LINE
8
1
62
7
10
-2.607702
20
-2.103731
30
0.0
11
-2.543014
21
-2.252516
31
0.0
0
ARC
8
1
62
7
10
-2.783685
20
-2.661429
30
0.0
40
0.03
50
118.6105
51
160.906532
0
ARC
8
1
62
7
10
-3.021393
20
-2.614154
30
0.0
40
0.6
50
330.484557
51
362.060216
0
ARC
8
1
62
7
10
-3.017978
20
-2.660025
30
0.0
40
0.6
50
6.453826
51
22.166379
0
ARC
8
1
62
7
10
-1.844358
20
-1.733917
30
0.0
40
0.6
50
196.303103
51
222.653293
0
ARC
8
1
62
7
10
-1.852449
20
-1.598996
30
0.0
40
0.6
50
180.0
51
184.969652
0
ARC
8
1
62
7
10
-1.843383
20
-1.703259
30
0.0
40
0.6
50
184.969652
51
188.530819
0
ARC
8
1
62
7
10
-2.278283
20
-2.133677
30
0.0
40
0.01
50
222.653293
51
256.759466
0
ARC
8
1
62
7
10
-2.178526
20
-2.15715
30
0.0
40
0.01
50
256.759466
51
324.462422
0
ARC
8
1
62
7
10
-2.159041
20
-1.88078
30
0.0
40
0.01
50
69.443947
51
196.389501
0
ARC
8
1
62
7
10
-2.077402
20
-1.911394
30
0.0
40
0.01
50
32.73519
51
69.443955
0
ARC
8
1
62
7
10
-2.507961
20
-2.904822
30
0.0
40
0.01
50
285.642257
51
330.484557
0
ARC
8
1
62
7
10
-2.025614
20
-2.93962
30
0.0
40
0.01
50
240.642246
51
300.465572
0
ARC
8
1
62
7
10
-1.924498
20
-2.880139
30
0.0
40
0.01
50
300.465572
51
349.114505
0
ARC
8
1
62
7
10
-1.893647
20
-2.719716
30
0.0
40
0.01
50
349.114505
51
386.564967
0
ARC
8
1
62
7
10
-1.915496
20
-3.107536
30
0.0
40
0.01
50
130.236351
51
130.914348
0
ARC
8
1
62
7
10
-2.011245
20
-3.190519
30
0.0
40
0.01
50
130.914348
51
149.534363
0
ARC
8
1
62
7
10
-2.120627
20
-2.076091
30
0.0
40
0.01
50
324.462422
51
377.353974
0
LINE
8
1
62
7
10
1.1963
20
-0.304317
30
0.0
11
1.195061
21
-0.3302
31
0.0
0
LINE
8
1
62
7
10
-1.427385
20
-3.075029
30
0.0
11
-1.31707
21
-3.227098
31
0.0
0
LINE
8
1
62
7
10
-1.281949
20
-3.266123
30
0.0
11
-1.212748
21
-3.328405
31
0.0
0
LINE
8
1
62
7
10
-1.13843
20
-3.449812
30
0.0
11
-1.099957
21
-3.594087
31
0.0
0
LINE
8
1
62
7
10
-1.099957
20
-3.594087
30
0.0
11
-1.067272
21
-3.747503
31
0.0
0
ARC
8
1
62
7
10
0.708976
20
-2.793
30
0.0
40
0.75
50
317.281058
51
373.82011
0
LINE
8
1
62
7
10
-0.019888
20
3.275154
30
0.0
11
-0.135095
21
2.972734
31
0.0
0
LINE
8
1
62
7
10
-0.135095
20
2.972734
30
0.0
11
-0.190945
21
2.836212
31
0.0
0
LINE
8
1
62
7
10
-0.197046
20
2.473239
30
0.0
11
-0.120695
21
2.267089
31
0.0
0
LINE
8
1
62
7
10
-0.120695
20
2.267089
30
0.0
11
-0.070931
21
2.059739
31
0.0
0
LINE
8
1
62
7
10
-0.023871
20
1.360419
30
0.0
11
0.023315
21
1.287826
31
0.0
0
LINE
8
1
62
7
10
0.023315
20
1.287826
30
0.0
11
0.035363
21
1.528795
31
0.0
0
LINE
8
1
62
7
10
0.048814
20
1.621627
30
0.0
11
0.12134
21
1.920797
31
0.0
0
LINE
8
1
62
7
10
0.115098
20
2.17968
30
0.0
11
0.080918
21
2.295891
31
0.0
0
LINE
8
1
62
7
10
0.080918
20
2.295891
30
0.0
11
-0.017772
21
2.532749
31
0.0
0
LINE
8
1
62
7
10
-0.055076
20
2.759068
30
0.0
11
-0.019888
21
3.275154
31
0.0
0
ARC
8
1
62
7
10
0.271828
20
2.646896
30
0.0
40
0.5
50
157.75098
51
200.323137
0
ARC
8
1
62
7
10
0.443766
20
2.725056
30
0.0
40
0.5
50
176.099507
51
202.619866
0
ARC
8
1
62
7
10
-0.364585
20
2.038597
30
0.0
40
0.5
50
346.373005
51
376.389533
0
ARC
8
1
62
7
10
-0.557124
20
1.943052
30
0.0
40
0.5
50
349.985685
51
373.495735
0
ARC
8
1
62
7
10
0.395351
20
1.632914
30
0.0
40
0.5
50
162.65269
51
213.023868
0
ARC
8
1
62
7
10
0.534739
20
1.503827
30
0.0
40
0.5
50
166.373005
51
177.137595
0
ARC
8
1
62
7
10
-0.559164
20
1.931077
30
0.0
40
0.5
50
342.65269
51
350.681734
0
ARC
8
1
62
7
10
0.42764
20
1.769158
30
0.0
40
0.5
50
169.985685
51
170.681734
0
LINE
8
1
62
7
10
-3.360902
20
0.841398
30
0.0
11
-3.47611
21
0.538978
31
0.0
0
LINE
8
1
62
7
10
-3.47611
20
0.538978
30
0.0
11
-3.531959
21
0.402456
31
0.0
0
LINE
8
1
62
7
10
-3.53806
20
0.039483
30
0.0
11
-3.461709
21
-0.166667
31
0.0
0
LINE
8
1
62
7
10
-3.461709
20
-0.166667
30
0.0
11
-3.411945
21
-0.374017
31
0.0
0
LINE
8
1
62
7
10
-3.364885
20
-1.073337
30
0.0
11
-3.317699
21
-1.14593
31
0.0
0
LINE
8
1
62
7
10
-3.317699
20
-1.14593
30
0.0
11
-3.305651
21
-0.904961
31
0.0
0
LINE
8
1
62
7
10
-3.2922
20
-0.812129
30
0.0
11
-3.219674
21
-0.512959
31
0.0
0
LINE
8
1
62
7
10
-3.225916
20
-0.254076
30
0.0
11
-3.260096
21
-0.137865
31
0.0
0
LINE
8
1
62
7
10
-3.260096
20
-0.137865
30
0.0
11
-3.358786
21
0.098993
31
0.0
0
LINE
8
1
62
7
10
-3.39609
20
0.325312
30
0.0
11
-3.360902
21
0.841398
31
0.0
0
ARC
8
1
62
7
10
-3.069186
20
0.21314
30
0.0
40
0.5
50
157.75098
51
200.323137
0
ARC
8
1
62
7
10
-2.897248
20
0.2913
30
0.0
40
0.5
50
176.099507
51
202.619866
0
ARC
8
1
62
7
10
-3.705599
20
-0.395159
30
0.0
40
0.5
50
346.373005
51
376.389533
0
ARC
8
1
62
7
10
-3.898138
20
-0.490703
30
0.0
40
0.5
50
349.985685
51
373.495735
0
ARC
8
1
62
7
10
-2.945663
20
-0.800842
30
0.0
40
0.5
50
162.65269
51
213.023868
0
ARC
8
1
62
7
10
-2.806275
20
-0.929929
30
0.0
40
0.5
50
166.373005
51
177.137595
0
ARC
8
1
62
7
10
-3.900178
20
-0.502679
30
0.0
40
0.5
50
342.65269
51
350.681734
0
ARC
8
1
62
7
10
-2.913374
20
-0.664598
30
0.0
40
0.5
50
169.985685
51
170.681734
0
LINE
8
1
62
7
10
3.061909
20
0.106951
30
0.0
11
2.946702
21
-0.195469
31
0.0
0
LINE
8
1
62
7
10
2.946702
20
-0.195469
30
0.0
11
2.890852
21
-0.331991
31
0.0
0
LINE
8
1
62
7
10
2.884751
20
-0.694964
30
0.0
11
2.961103
21
-0.901114
31
0.0
0
LINE
8
1
62
7
10
2.961103
20
-0.901114
30
0.0
11
3.010867
21
-1.108464
31
0.0
0
LINE
8
1
62
7
10
3.057927
20
-1.807784
30
0.0
11
3.105112
21
-1.880377
31
0.0
0
LINE
8
1
62
7
10
3.105112
20
-1.880377
30
0.0
11
3.117161
21
-1.639408
31
0.0
0
LINE
8
1
62
7
10
3.130612
20
-1.546576
30
0.0
11
3.203138
21
-1.247406
31
0.0
0
LINE
8
1
62
7
10
3.196896
20
-0.988523
30
0.0
11
3.162716
21
-0.872312
31
0.0
0
LINE
8
1
62
7
10
3.162716
20
-0.872312
30
0.0
11
3.064025
21
-0.635455
31
0.0
0
LINE
8
1
62
7
10
3.026722
20
-0.409135
30
0.0
11
3.061909
21
0.106951
31
0.0
0
ARC
8
1
62
7
10
3.353626
20
-0.521307
30
0.0
40
0.5
50
157.75098
51
200.323137
0
ARC
8
1
62
7
10
3.525564
20
-0.443147
30
0.0
40
0.5
50
176.099507
51
202.619866
0
ARC
8
1
62
7
10
2.717213
20
-1.129606
30
0.0
40
0.5
50
346.373005
51
376.389533
0
ARC
8
1
62
7
10
2.524673
20
-1.225151
30
0.0
40
0.5
50
349.985685
51
373.495735
0
ARC
8
1
62
7
10
3.477148
20
-1.535289
30
0.0
40
0.5
50
162.65269
51
213.023868
0
ARC
8
1
62
7
10
3.616537
20
-1.664376
30
0.0
40
0.5
50
166.373005
51
177.137595
0
ARC
8
1
62
7
10
2.522634
20
-1.237126
30
0.0
40
0.5
50
342.65269
51
350.681734
0
ARC
8
1
62
7
10
3.509438
20
-1.399045
30
0.0
40
0.5
50
169.985685
51
170.681734
0
LINE
8
1
62
7
10
3.522739
20
1.590246
30
0.0
11
3.407532
21
1.287826
31
0.0
0
LINE
8
1
62
7
10
3.407532
20
1.287826
30
0.0
11
3.351682
21
1.151304
31
0.0
0
LINE
8
1
62
7
10
3.345581
20
0.788331
30
0.0
11
3.421933
21
0.582181
31
0.0
0
LINE
8
1
62
7
10
3.421933
20
0.582181
30
0.0
11
3.471697
21
0.374831
31
0.0
0
LINE
8
1
62
7
10
3.518756
20
-0.324489
30
0.0
11
3.565942
21
-0.397082
31
0.0
0
LINE
8
1
62
7
10
3.565942
20
-0.397082
30
0.0
11
3.57799
21
-0.156113
31
0.0
0
LINE
8
1
62
7
10
3.591441
20
-0.063281
30
0.0
11
3.663967
21
0.235889
31
0.0
0
LINE
8
1
62
7
10
3.657725
20
0.494772
30
0.0
11
3.623545
21
0.610983
31
0.0
0
LINE
8
1
62
7
10
3.623545
20
0.610983
30
0.0
11
3.524855
21
0.847841
31
0.0
0
LINE
8
1
62
7
10
3.487551
20
1.07416
30
0.0
11
3.522739
21
1.590246
31
0.0
0
ARC
8
1
62
7
10
3.814455
20
0.961988
30
0.0
40
0.5
50
157.75098
51
200.323137
0
ARC
8
1
62
7
10
3.986393
20
1.040148
30
0.0
40
0.5
50
176.099507
51
202.619866
0
ARC
8
1
62
7
10
3.178042
20
0.353689
30
0.0
40
0.5
50
346.373005
51
376.389533
0
ARC
8
1
62
7
10
2.985503
20
0.258145
30
0.0
40
0.5
50
349.985685
51
373.495735
0
ARC
8
1
62
7
10
3.937978
20
-0.051994
30
0.0
40
0.5
50
162.65269
51
213.023868
0
ARC
8
1
62
7
10
4.077366
20
-0.181081
30
0.0
40
0.5
50
166.373005
51
177.137595
0
ARC
8
1
62
7
10
2.983463
20
0.246169
30
0.0
40
0.5
50
342.65269
51
350.681734
0
ARC
8
1
62
7
10
3.970267
20
0.08425
30
0.0
40
0.5
50
169.985685
51
170.681734
0
LINE
8
1
62
7
10
-3.01528
20
-0.901114
30
0.0
11
-3.130487
21
-1.203533
31
0.0
0
LINE
8
1
62
7
10
-3.130487
20
-1.203533
30
0.0
11
-3.186337
21
-1.340055
31
0.0
0
LINE
8
1
62
7
10
-3.192438
20
-1.703029
30
0.0
11
-3.116086
21
-1.909179
31
0.0
0
LINE
8
1
62
7
10
-3.116086
20
-1.909179
30
0.0
11
-3.066322
21
-2.116529
31
0.0
0
LINE
8
1
62
7
10
-2.946578
20
-2.554641
30
0.0
11
-2.874052
21
-2.255471
31
0.0
0
LINE
8
1
62
7
10
-2.880294
20
-1.996588
30
0.0
11
-2.914474
21
-1.880377
31
0.0
0
LINE
8
1
62
7
10
-2.914474
20
-1.880377
30
0.0
11
-3.013164
21
-1.643519
31
0.0
0
LINE
8
1
62
7
10
-3.050468
20
-1.417199
30
0.0
11
-3.01528
21
-0.901114
31
0.0
0
ARC
8
1
62
7
10
-2.723564
20
-1.529372
30
0.0
40
0.5
50
157.75098
51
200.323137
0
ARC
8
1
62
7
10
-2.551626
20
-1.451211
30
0.0
40
0.5
50
176.099507
51
202.619866
0
ARC
8
1
62
7
10
-3.359977
20
-2.137671
30
0.0
40
0.5
50
346.373005
51
376.389533
0
ARC
8
1
62
7
10
-3.552516
20
-2.233215
30
0.0
40
0.5
50
349.985685
51
373.495735
0
ARC
8
1
62
7
10
-2.460653
20
-2.672441
30
0.0
40
0.5
50
166.373005
51
177.750756
0
ARC
8
1
62
7
10
-3.554556
20
-2.245191
30
0.0
40
0.5
50
342.65269
51
350.681734
0
ARC
8
1
62
7
10
-2.567752
20
-2.407109
30
0.0
40
0.5
50
169.985685
51
170.681734
0
ARC
8
1
62
7
10
-2.137294
20
-1.811862
30
0.0
40
0.5
50
156.686927
51
159.443831
0
ARC
8
1
62
7
10
-2.160971
20
-1.876248
30
0.0
40
0.5
50
164.809317
51
202.833664
0
LINE
8
1
62
7
10
-2.626262
20
-1.691776
30
0.0
11
-2.643501
21
-1.745232
31
0.0
0
LINE
8
1
62
7
10
-2.624312
20
1.451707
30
0.0
11
-2.955348
21
2.120503
31
0.0
0
LINE
8
1
62
7
10
-2.839284
20
1.356801
30
0.0
11
-3.106558
21
1.84802
31
0.0
0
LINE
8
1
62
7
10
-1.689648
20
1.743976
30
0.0
11
-1.321395
21
2.089678
31
0.0
0
ARC
8
1
62
7
10
-1.806584
20
1.482165
30
0.0
40
0.001
50
340.060645
51
515.079209
0
LINE
8
1
62
7
10
-1.700255
20
1.739582
30
0.0
11
-1.806584
21
1.483165
31
0.0
0
ARC
8
1
62
7
10
1.761727
20
1.482165
30
0.0
40
0.001
50
24.920791
51
199.939355
0
LINE
8
1
62
7
10
1.645483
20
1.743327
30
0.0
11
1.276538
21
2.089679
31
0.0
0
LINE
8
1
62
7
10
1.655398
20
1.739582
30
0.0
11
1.760727
21
1.482165
31
0.0
0
LINE
8
1
62
7
10
2.781357
20
1.332779
30
0.0
11
3.056481
21
1.837132
31
0.0
0
LINE
8
1
62
7
10
2.560172
20
0.800237
30
0.0
11
3.103738
21
1.3929
31
0.0
0
LINE
8
1
62
7
10
-0.869088
20
-1.538662
30
0.0
11
-0.825344
21
-1.53584
31
0.0
0
LINE
8
1
62
7
10
0.338159
20
-1.445679
30
0.0
11
0.389646
21
-1.467295
31
0.0
0
ARC
8
1
62
7
10
0.143697
20
-2.599599
30
0.0
40
2.0
50
104.408727
51
109.019517
0
LINE
8
1
62
7
10
-1.217192
20
-2.187632
30
0.0
11
-0.884756
21
-2.187632
31
0.0
0
ARC
8
1
62
7
10
-0.884756
20
-2.188632
30
0.0
40
0.001
50
344.826009
51
450.0
0
ARC
8
1
62
7
10
-1.217192
20
-2.188632
30
0.0
40
0.001
50
90.0
51
163.192434
0
LINE
8
1
62
7
10
-1.328963
20
-2.187632
30
0.0
11
-1.311694
21
-2.187632
31
0.0
0
LINE
8
1
62
7
10
-1.310199
20
-2.187632
30
0.0
11
-1.234177
21
-2.187632
31
0.0
0
LINE
8
1
62
7
10
-1.363831
20
-2.317598
30
0.0
11
-1.310769
21
-2.189013
31
0.0
0
ARC
8
1
62
7
10
-1.311694
20
-2.188632
30
0.0
40
0.001
50
337.576171
51
450.0
0
LINE
8
1
62
7
10
-1.328963
20
-2.061341
30
0.0
11
-1.328963
21
-2.101815
31
0.0
0
LINE
8
1
62
7
10
-1.328963
20
-2.103024
30
0.0
11
-1.328963
21
-2.136276
31
0.0
0
LINE
8
1
62
7
10
-1.463982
20
-2.127626
30
0.0
11
-1.330151
21
-2.102042
31
0.0
0
ARC
8
1
62
7
10
-1.340661
20
-1.947462
30
0.0
40
0.01
50
297.944144
51
375.07751
0
ARC
8
1
62
7
10
-1.479733
20
-2.021235
30
0.0
40
0.01
50
267.339251
51
297.944144
0
ARC
8
1
62
7
10
-1.369236
20
-1.841392
30
0.0
40
0.01
50
15.07751
51
64.117143
0
ARC
8
1
62
7
10
-1.253447
20
-1.860823
30
0.0
40
0.001
50
145.560749
51
270.0
0
LINE
8
1
62
7
10
-1.253447
20
-1.861823
30
0.0
11
-0.885067
21
-1.861823
31
0.0
0
ARC
8
1
62
7
10
-0.885067
20
-1.860823
30
0.0
40
0.001
50
270.0
51
375.282783
0
LINE
8
1
62
7
10
-0.883759
20
-1.861823
30
0.0
11
0.838902
21
-1.861823
31
0.0
0
LINE
8
1
62
7
10
0.84021
20
-1.861823
30
0.0
11
1.208591
21
-1.861823
31
0.0
0
ARC
8
1
62
7
10
0.84021
20
-1.860823
30
0.0
40
0.001
50
164.717217
51
270.0
0
ARC
8
1
62
7
10
1.208591
20
-1.860823
30
0.0
40
0.001
50
270.0
51
394.439251
0
ARC
8
1
62
7
10
1.31681
20
-1.834888
30
0.0
40
0.001
50
111.417246
51
164.92249
0
ARC
8
1
62
7
10
1.285247
20
-1.95205
30
0.0
40
0.001
50
164.92249
51
242.055856
0
ARC
8
1
62
7
10
1.418938
20
-2.128609
30
0.0
40
0.001
50
68.46133
51
79.177308
0
LINE
8
1
62
7
10
1.284106
20
-2.061341
30
0.0
11
1.284106
21
-2.101815
31
0.0
0
LINE
8
1
62
7
10
1.284106
20
-2.103024
30
0.0
11
1.284106
21
-2.136276
31
0.0
0
LINE
8
1
62
7
10
1.419126
20
-2.127626
30
0.0
11
1.285294
21
-2.102042
31
0.0
0
ARC
8
1
62
7
10
1.285106
20
-2.103024
30
0.0
40
0.001
50
79.177308
51
180.0
0
ARC
8
1
62
7
10
1.283106
20
-2.186632
30
0.0
40
0.001
50
270.0
51
360.0
0
LINE
8
1
62
7
10
1.283106
20
-2.187632
30
0.0
11
1.266837
21
-2.187632
31
0.0
0
LINE
8
1
62
7
10
1.265343
20
-2.187632
30
0.0
11
1.18932
21
-2.187632
31
0.0
0
LINE
8
1
62
7
10
1.318974
20
-2.317598
30
0.0
11
1.265913
21
-2.189013
31
0.0
0
ARC
8
1
62
7
10
1.266837
20
-2.188632
30
0.0
40
0.001
50
90.0
51
202.423829
0
ARC
8
1
62
7
10
1.319898
20
-2.317216
30
0.0
40
0.001
50
202.423829
51
228.108372
0
ARC
8
1
62
7
10
1.172336
20
-2.188632
30
0.0
40
0.001
50
16.807566
51
90.0
0
ARC
8
1
62
7
10
1.442144
20
-2.025299
30
0.0
40
0.625
50
195.173991
51
207.589537
0
LINE
8
1
62
7
10
-0.876509
20
-2.187632
30
0.0
11
0.838593
21
-2.187632
31
0.0
0
LINE
8
1
62
7
10
0.839899
20
-2.187632
30
0.0
11
1.172336
21
-2.187632
31
0.0
0
ARC
8
1
62
7
10
0.839899
20
-2.188632
30
0.0
40
0.001
50
90.0
51
195.173991
0
ARC
8
1
62
7
10
0.445557
20
-1.065513
30
0.0
40
0.001
50
66.29737
51
176.478547
0
ARC
8
1
62
7
10
-1.482518
20
-2.08117
30
0.0
40
0.05
50
87.339251
51
291.53867
0
ARC
8
1
62
7
10
-1.463795
20
-2.128609
30
0.0
40
0.001
50
100.822692
51
111.53867
0
ARC
8
1
62
7
10
-1.329963
20
-2.103024
30
0.0
40
0.001
50
0.0
51
100.822692
0
ARC
8
1
62
7
10
1.246586
20
-1.860823
30
0.0
40
0.001
50
130.349626
51
270.0
0
ARC
8
1
62
7
10
1.283106
20
-1.862823
30
0.0
40
0.001
50
0.0
51
90.0
0
LINE
8
1
62
7
10
2.087797
20
-3.2854
30
0.0
11
2.064314
21
-3.396944
31
0.0
0
LINE
8
1
62
7
10
1.714559
20
-3.586211
30
0.0
11
1.738692
21
-3.517261
31
0.0
0
ARC
8
1
62
7
10
2.259869
20
-2.719912
30
0.0
40
0.6
50
-4.052054
51
19.093468
0
LINE
8
1
62
7
10
3.455086
20
-1.945321
30
0.0
11
3.460041
21
-1.956717
31
0.0
0
ARC
8
1
62
7
10
4.219406
20
-1.544849
30
0.0
40
0.6
50
184.969652
51
188.150568
0
LINE
8
1
62
7
10
-3.399234
20
-1.981268
30
0.0
11
-3.418843
21
-2.027841
31
0.0
0
LINE
8
1
62
7
10
-3.608306
20
-1.650973
30
0.0
11
-3.60952
21
-1.664931
31
0.0
0
LINE
8
1
62
7
10
-2.083723
20
-3.294007
30
0.0
11
-2.083723
21
-3.385074
31
0.0
0
LINE
8
1
62
7
10
-1.496218
20
-3.682656
30
0.0
11
-1.493403
21
-3.665768
31
0.0
0
ARC
8
1
62
7
10
-2.651357
20
-2.924204
30
0.0
40
0.03
50
250.137999
51
285.642257
0
ARC
8
1
62
7
10
-2.718475
20
-2.86188
30
0.0
40
0.03
50
173.418011
51
204.262763
0
ARC
8
1
62
7
10
-2.25558
20
-2.878322
30
0.0
40
0.6
50
160.906532
51
170.036322
0
LINE
8
1
62
7
10
-1.067273
20
-3.747499
30
0.0
11
-1.049746
21
-3.833883
31
0.0
0
LINE
8
1
62
7
10
-2.960295
20
-2.652787
30
0.0
11
-2.960029
21
-2.647472
31
0.0
0
ARC
8
1
62
7
10
-2.600041
20
-2.543354
30
0.0
40
0.5
50
162.65269
51
174.037173
0
ARC
8
1
62
7
10
0.0
20
0.0
30
0.0
40
3.975
50
204.762033
51
210.673728
0
ARC
8
1
62
7
10
0.0
20
0.0
30
0.0
40
3.975
50
218.812251
51
221.864829
0
ARC
8
1
62
7
10
0.0
20
0.0
30
0.0
40
3.975
50
224.265906
51
226.30862
0
ARC
8
1
62
7
10
0.0
20
0.0
30
0.0
40
3.975
50
227.965943
51
238.385127
0
ARC
8
1
62
7
10
0.0
20
0.0
30
0.0
40
3.975
50
242.539035
51
246.601186
0
ARC
8
1
62
7
10
0.0
20
0.0
30
0.0
40
3.975
50
247.888697
51
254.687292
0
ARC
8
1
62
7
10
0.0
20
0.0
30
0.0
40
3.975
50
288.1917
51
295.552354
0
ARC
8
1
62
7
10
0.0
20
0.0
30
0.0
40
3.975
50
301.286944
51
315.979113
0
ARC
8
1
62
7
10
0.0
20
0.0
30
0.0
40
3.975
50
330.511038
51
335.792578
0
ARC
8
1
62
7
10
-3.6085
20
-1.664753
30
0.0
40
0.001
50
175.030348
51
204.765859
0
ARC
8
1
62
7
10
-3.6085
20
-1.664753
30
0.0
40
0.001
50
175.030348
51
204.765859
0
ARC
8
1
62
7
10
-3.418995
20
-2.025624
30
0.0
40
0.001
50
210.645124
51
337.166336
0
LINE
8
1
62
7
10
1.178566
20
-0.384361
30
0.0
11
1.167913
21
-0.415254
31
0.0
0
LINE
8
1
62
7
10
1.167913
20
-0.415254
30
0.0
11
1.167913
21
-0.470052
31
0.0
0
ARC
8
1
62
7
10
1.43293
20
-2.03039
30
0.0
40
0.001
50
242.055856
51
275.323639
0
ARC
8
1
62
7
10
-1.364755
20
-2.317216
30
0.0
40
0.001
50
311.891628
51
337.576171
0
LINE
8
1
62
7
10
0.271396
20
-0.921568
30
0.0
11
0.238282
21
-0.90561
31
0.0
0
LINE
8
1
62
7
10
0.236641
20
-0.904819
30
0.0
11
0.206712
21
-0.890395
31
0.0
0
LINE
8
1
62
7
10
0.326454
20
-0.960762
30
0.0
11
0.291485
21
-0.935869
31
0.0
0
LINE
8
1
62
7
10
0.283611
20
-0.930264
30
0.0
11
0.271396
21
-0.921568
31
0.0
0
LINE
8
1
62
7
10
0.31647
20
-0.918781
30
0.0
11
0.292735
21
-0.927075
31
0.0
0
ARC
8
1
62
7
10
0.238812
20
-0.900315
30
0.0
40
0.005
50
244.269319
51
284.300277
0
ARC
8
1
62
7
10
0.294385
20
-0.931795
30
0.0
40
0.005
50
109.262574
51
234.554315
0
LINE
8
1
62
7
10
-1.262606
20
-0.316301
30
0.0
11
-1.182746
21
-0.456128
31
0.0
0
LINE
8
1
62
7
10
1.195061
20
-0.3302
30
0.0
11
1.178566
21
-0.384361
31
0.0
0
CIRCLE
8
1
62
7
10
0.0
20
0.0
30
0.0
40
4.875
0
CIRCLE
8
1
62
7
10
0.0
20
0.0
30
0.0
40
4.8125
0
CIRCLE
8
1
62
7
10
0.0
20
0.0
30
0.0
40
4.0625
0
LINE
8
1
62
7
10
-0.158751
20
4.677246
30
0.0
11
-0.158751
21
4.169999
31
0.0
0
LINE
8
1
62
7
10
-0.158751
20
4.169999
30
0.0
11
-0.296433
21
4.169999
31
0.0
0
LINE
8
1
62
7
10
-0.296433
20
4.169999
30
0.0
11
-0.296433
21
4.504297
31
0.0
0
LINE
8
1
62
7
10
-0.44136
20
4.430869
30
0.0
11
-0.44136
21
4.546811
31
0.0
0
LINE
8
1
62
7
10
-0.158751
20
4.677246
30
0.0
11
-0.272542
21
4.677246
31
0.0
0
LINE
8
1
62
7
10
0.391973
20
4.169999
30
0.0
11
-0.013824
21
4.169999
31
0.0
0
LINE
8
1
62
7
10
0.131104
20
4.510579
30
0.0
11
-0.006577
21
4.520126
31
0.0
0
LINE
8
1
62
7
10
0.182199
20
4.285941
30
0.0
11
0.391973
21
4.285941
31
0.0
0
LINE
8
1
62
7
10
0.391973
20
4.169999
30
0.0
11
0.391973
21
4.285941
31
0.0
0
LINE
8
1
62
7
10
4.352673
20
0.106647
30
0.0
11
4.214992
21
0.124998
31
0.0
0
LINE
8
1
62
7
10
4.207745
20
-0.114355
30
0.0
11
4.345427
21
-0.096252
31
0.0
0
LINE
8
1
62
7
10
4.367166
20
-0.033754
30
0.0
11
4.37184
21
0.07138
31
0.0
0
LINE
8
1
62
7
10
0.195118
20
-4.288777
30
0.0
11
0.057437
21
-4.304531
31
0.0
0
LINE
8
1
62
7
10
-4.657347
20
-0.093655
30
0.0
11
-4.519666
21
-0.075255
31
0.0
0
CIRCLE
8
1
62
7
10
2.234375
20
3.870051
30
0.0
40
0.125
0
CIRCLE
8
1
62
7
10
3.870051
20
2.234375
30
0.0
40
0.125
0
CIRCLE
8
1
62
7
10
3.870051
20
-2.234375
30
0.0
40
0.125
0
CIRCLE
8
1
62
7
10
2.234375
20
-3.870051
30
0.0
40
0.125
0
CIRCLE
8
1
62
7
10
-2.234375
20
-3.870051
30
0.0
40
0.125
0
CIRCLE
8
1
62
7
10
-3.870051
20
-2.234375
30
0.0
40
0.125
0
CIRCLE
8
1
62
7
10
-3.870051
20
2.234375
30
0.0
40
0.125
0
CIRCLE
8
1
62
7
10
-2.234375
20
3.870051
30
0.0
40
0.125
0
ARC
8
1
62
7
10
-0.729385
20
0.390853
30
0.0
40
0.25
50
180.0
51
210.431124
0
ARC
8
1
62
7
10
-1.229385
20
0.468561
30
0.0
40
0.25
50
0.0
51
30.465637
0
ARC
8
1
62
7
10
-0.575949
20
1.054193
30
0.0
40
0.25
50
316.251567
51
366.581989
0
ARC
8
1
62
7
10
-0.235115
20
0.251752
30
0.0
40
0.25
50
173.656698
51
205.913833
0
ARC
8
1
62
7
10
0.661677
20
0.390865
30
0.0
40
0.25
50
329.567883
51
359.557268
0
ARC
8
1
62
7
10
-1.379989
20
-3.514228
30
0.0
40
0.25
50
14.931408
51
48.012799
0
ARC
8
1
62
7
10
-1.114708
20
-3.0803
30
0.0
40
0.25
50
215.958065
51
228.012799
0
ARC
8
1
62
7
10
-1.225023
20
-2.928231
30
0.0
40
0.25
50
193.716614
51
215.958065
0
ARC
8
1
62
7
10
-1.225722
20
-2.925365
30
0.0
40
0.25
50
160.560076
51
193.716614
0
ARC
8
1
62
7
10
-1.740002
20
-3.624668
30
0.0
40
0.25
50
350.537621
51
381.250556
0
ARC
8
1
62
7
10
-1.798187
20
-3.493314
30
0.0
40
0.25
50
25.201148
51
32.90514
0
ARC
8
1
62
7
10
-1.422227
20
-3.153958
30
0.0
40
0.25
50
197.650168
51
212.90514
0
ARC
8
1
62
7
10
-1.443642
20
-3.086652
30
0.0
40
0.25
50
177.137645
51
197.650168
0
ARC
8
1
62
7
10
-1.441409
20
-3.041982
30
0.0
40
0.25
50
159.145542
51
177.137645
0
ARC
8
1
62
7
10
-1.847216
20
-3.69
30
0.0
40
0.25
50
32.005288
51
45.000096
0
ARC
8
1
62
7
10
-1.502957
20
-3.327153
30
0.0
40
0.25
50
198.434843
51
225.000096
0
ARC
8
1
62
7
10
-1.614357
20
-3.425812
30
0.0
40
0.25
50
149.53452
51
172.075962
0
ARC
8
1
62
7
10
-1.612608
20
-3.409194
30
0.0
40
0.25
50
175.906257
51
208.144328
0
LINE
8
1
62
7
10
1.240984
20
-3.776319
30
0.0
11
1.201955
21
-3.730998
31
0.0
0
LINE
8
1
62
7
10
1.142024
20
-3.58567
30
0.0
11
1.141059
21
-3.572159
31
0.0
0
LINE
8
1
62
7
10
1.180038
20
-3.419301
30
0.0
11
1.23328
21
-3.336356
31
0.0
0
ARC
8
1
62
7
10
1.390424
20
-3.554348
30
0.0
40
0.25
50
147.303746
51
184.085612
0
ARC
8
1
62
7
10
1.391389
20
-3.567859
30
0.0
40
0.25
50
184.085612
51
220.734842
0
ARC
8
1
62
7
10
1.443666
20
-3.471402
30
0.0
40
0.25
50
137.281058
51
147.303746
0
POINT
8
1
62
7
10
0.0
20
0.0
30
0.0
0
LINE
8
1
62
7
10
0.620172
20
-0.770402
30
0.0
11
0.61386
21
-0.697168
31
0.0
0
LINE
8
1
62
7
10
0.61386
20
-0.697168
30
0.0
11
0.324693
21
-0.603533
31
0.0
0
LINE
8
1
62
7
10
0.324693
20
-0.603533
30
0.0
11
0.151193
21
-0.570485
31
0.0
0
LINE
8
1
62
7
10
0.151193
20
-0.570485
30
0.0
11
-0.201315
21
-0.595271
31
0.0
0
LINE
8
1
62
7
10
-0.201315
20
-0.595271
30
0.0
11
-0.402355
21
-0.639334
31
0.0
0
LINE
8
1
62
7
10
-0.402355
20
-0.639334
30
0.0
11
-0.784429
21
-0.789642
31
0.0
0
ENDSEC
0
EOF
