  0
SECTION
  2
HEADER
  9
$ACADVER
  1
AC1021
  9
$ACADMAINTVER
 70
    25
  9
$DWGCODEPAGE
  3
ANSI_1251
  9
$INSBASE
 10
0.0
 20
0.0
 30
0.0
  9
$EXTMIN
 10
-7.57805
 20
-9.11855
 30
0.0
  9
$EXTMAX
 10
8.27386
 20
8.93067
 30
0.0
  9
$LIMMIN
 10
0.0
 20
0.0
  9
$LIMMAX
 10
12.0
 20
9.0
  9
$ORTHOMODE
 70
     0
  9
$REGENMODE
 70
     1
  9
$FILLMODE
 70
     1
  9
$QTEXTMODE
 70
     0
  9
$MIRRTEXT
 70
     1
  9
$LTSCALE
 40
1.0
  9
$ATTMODE
 70
     1
  9
$TEXTSIZE
 40
0.2
  9
$TRACEWID
 40
0.05
  9
$TEXTSTYLE
  7
Standard
  9
$CLAYER
  8
0
  9
$CELTYPE
  6
ByLayer
  9
$CECOLOR
 62
   256
  9
$CELTSCALE
 40
1.0
  9
$DISPSILH
 70
     0
  9
$DIMSCALE
 40
1.0
  9
$DIMASZ
 40
0.18
  9
$DIMEXO
 40
0.0625
  9
$DIMDLI
 40
0.38
  9
$DIMRND
 40
0.0
  9
$DIMDLE
 40
0.0
  9
$DIMEXE
 40
0.18
  9
$DIMTP
 40
0.0
  9
$DIMTM
 40
0.0
  9
$DIMTXT
 40
0.18
  9
$DIMCEN
 40
0.09
  9
$DIMTSZ
 40
0.0
  9
$DIMTOL
 70
     0
  9
$DIMLIM
 70
     0
  9
$DIMTIH
 70
     1
  9
$DIMTOH
 70
     1
  9
$DIMSE1
 70
     0
  9
$DIMSE2
 70
     0
  9
$DIMTAD
 70
     0
  9
$DIMZIN
 70
     0
  9
$DIMBLK
  1

  9
$DIMASO
 70
     1
  9
$DIMSHO
 70
     1
  9
$DIMPOST
  1

  9
$DIMAPOST
  1

  9
$DIMALT
 70
     0
  9
$DIMALTD
 70
     2
  9
$DIMALTF
 40
25.4
  9
$DIMLFAC
 40
1.0
  9
$DIMTOFL
 70
     0
  9
$DIMTVP
 40
0.0
  9
$DIMTIX
 70
     0
  9
$DIMSOXD
 70
     0
  9
$DIMSAH
 70
     0
  9
$DIMBLK1
  1

  9
$DIMBLK2
  1

  9
$DIMSTYLE
  2
Standard
  9
$DIMCLRD
 70
     0
  9
$DIMCLRE
 70
     0
  9
$DIMCLRT
 70
     0
  9
$DIMTFAC
 40
1.0
  9
$DIMGAP
 40
0.09
  9
$DIMJUST
 70
     0
  9
$DIMSD1
 70
     0
  9
$DIMSD2
 70
     0
  9
$DIMTOLJ
 70
     1
  9
$DIMTZIN
 70
     0
  9
$DIMALTZ
 70
     0
  9
$DIMALTTZ
 70
     0
  9
$DIMUPT
 70
     0
  9
$DIMDEC
 70
     4
  9
$DIMTDEC
 70
     4
  9
$DIMALTU
 70
     2
  9
$DIMALTTD
 70
     2
  9
$DIMTXSTY
  7
Standard
  9
$DIMAUNIT
 70
     0
  9
$DIMADEC
 70
     0
  9
$DIMALTRND
 40
0.0
  9
$DIMAZIN
 70
     0
  9
$DIMDSEP
 70
    46
  9
$DIMATFIT
 70
     3
  9
$DIMFRAC
 70
     0
  9
$DIMLDRBLK
  1

  9
$DIMLUNIT
 70
     2
  9
$DIMLWD
 70
    -2
  9
$DIMLWE
 70
    -2
  9
$DIMTMOVE
 70
     0
  9
$DIMFXL
 40
1.0
  9
$DIMFXLON
 70
     0
  9
$DIMJOGANG
 40
0.7853981633974483
  9
$DIMTFILL
 70
     0
  9
$DIMTFILLCLR
 70
     0
  9
$DIMARCSYM
 70
     0
  9
$DIMLTYPE
  6

  9
$DIMLTEX1
  6

  9
$DIMLTEX2
  6

  9
$LUNITS
 70
     2
  9
$LUPREC
 70
     4
  9
$SKETCHINC
 40
0.1
  9
$FILLETRAD
 40
0.5
  9
$AUNITS
 70
     0
  9
$AUPREC
 70
     0
  9
$MENU
  1
.
  9
$ELEVATION
 40
0.0
  9
$PELEVATION
 40
0.0
  9
$THICKNESS
 40
0.0
  9
$LIMCHECK
 70
     0
  9
$CHAMFERA
 40
0.5
  9
$CHAMFERB
 40
0.5
  9
$CHAMFERC
 40
1.0
  9
$CHAMFERD
 40
0.0
  9
$SKPOLY
 70
     0
  9
$TDCREATE
 40
2457134.444186563
  9
$TDUCREATE
 40
2457134.319186563
  9
$TDUPDATE
 40
2457134.444186574
  9
$TDUUPDATE
 40
2457134.319186574
  9
$TDINDWG
 40
0.0000000116
  9
$TDUSRTIMER
 40
0.0000000116
  9
$USRTIMER
 70
     1
  9
$ANGBASE
 50
0.0
  9
$ANGDIR
 70
     0
  9
$PDMODE
 70
     0
  9
$PDSIZE
 40
0.0
  9
$PLINEWID
 40
0.0
  9
$SPLFRAME
 70
     0
  9
$SPLINETYPE
 70
     6
  9
$SPLINESEGS
 70
     8
  9
$HANDSEED
  5
72
  9
$SURFTAB1
 70
     6
  9
$SURFTAB2
 70
     6
  9
$SURFTYPE
 70
     6
  9
$SURFU
 70
     6
  9
$SURFV
 70
     6
  9
$UCSBASE
  2

  9
$UCSNAME
  2

  9
$UCSORG
 10
0.0
 20
0.0
 30
0.0
  9
$UCSXDIR
 10
1.0
 20
0.0
 30
0.0
  9
$UCSYDIR
 10
0.0
 20
1.0
 30
0.0
  9
$UCSORTHOREF
  2

  9
$UCSORTHOVIEW
 70
     0
  9
$UCSORGTOP
 10
0.0
 20
0.0
 30
0.0
  9
$UCSORGBOTTOM
 10
0.0
 20
0.0
 30
0.0
  9
$UCSORGLEFT
 10
0.0
 20
0.0
 30
0.0
  9
$UCSORGRIGHT
 10
0.0
 20
0.0
 30
0.0
  9
$UCSORGFRONT
 10
0.0
 20
0.0
 30
0.0
  9
$UCSORGBACK
 10
0.0
 20
0.0
 30
0.0
  9
$PUCSBASE
  2

  9
$PUCSNAME
  2

  9
$PUCSORG
 10
0.0
 20
0.0
 30
0.0
  9
$PUCSXDIR
 10
1.0
 20
0.0
 30
0.0
  9
$PUCSYDIR
 10
0.0
 20
1.0
 30
0.0
  9
$PUCSORTHOREF
  2

  9
$PUCSORTHOVIEW
 70
     0
  9
$PUCSORGTOP
 10
0.0
 20
0.0
 30
0.0
  9
$PUCSORGBOTTOM
 10
0.0
 20
0.0
 30
0.0
  9
$PUCSORGLEFT
 10
0.0
 20
0.0
 30
0.0
  9
$PUCSORGRIGHT
 10
0.0
 20
0.0
 30
0.0
  9
$PUCSORGFRONT
 10
0.0
 20
0.0
 30
0.0
  9
$PUCSORGBACK
 10
0.0
 20
0.0
 30
0.0
  9
$USERI1
 70
     0
  9
$USERI2
 70
     0
  9
$USERI3
 70
     0
  9
$USERI4
 70
     0
  9
$USERI5
 70
     0
  9
$USERR1
 40
0.0
  9
$USERR2
 40
0.0
  9
$USERR3
 40
0.0
  9
$USERR4
 40
0.0
  9
$USERR5
 40
0.0
  9
$WORLDVIEW
 70
     1
  9
$SHADEDGE
 70
     3
  9
$SHADEDIF
 70
    70
  9
$TILEMODE
 70
     1
  9
$MAXACTVP
 70
    64
  9
$PINSBASE
 10
0.0
 20
0.0
 30
0.0
  9
$PLIMCHECK
 70
     0
  9
$PEXTMIN
 10
1.000000000000000E+20
 20
1.000000000000000E+20
 30
1.000000000000000E+20
  9
$PEXTMAX
 10
-1.000000000000000E+20
 20
-1.000000000000000E+20
 30
-1.000000000000000E+20
  9
$PLIMMIN
 10
0.0
 20
0.0
  9
$PLIMMAX
 10
12.0
 20
9.0
  9
$UNITMODE
 70
     0
  9
$VISRETAIN
 70
     1
  9
$PLINEGEN
 70
     0
  9
$PSLTSCALE
 70
     1
  9
$TREEDEPTH
 70
  3020
  9
$CMLSTYLE
  2
Standard
  9
$CMLJUST
 70
     0
  9
$CMLSCALE
 40
1.0
  9
$PROXYGRAPHICS
 70
     1
  9
$MEASUREMENT
 70
     0
  9
$CELWEIGHT
370
    -1
  9
$ENDCAPS
280
     0
  9
$JOINSTYLE
280
     0
  9
$LWDISPLAY
290
     0
  9
$INSUNITS
 70
     5
  9
$HYPERLINKBASE
  1

  9
$STYLESHEET
  1

  9
$XEDIT
290
     1
  9
$CEPSNTYPE
380
     0
  9
$PSTYLEMODE
290
     1
  9
$FINGERPRINTGUID
  2
{0D2EB5ED-F4EB-4077-BCFA-6601FD19FFE2}
  9
$VERSIONGUID
  2
{FAEB1C32-E019-11D5-929B-00C0DF256EC4}
  9
$EXTNAMES
290
     1
  9
$PSVPSCALE
 40
0.0
  9
$OLESTARTUP
290
     0
  9
$SORTENTS
280
   127
  9
$INDEXCTL
280
     0
  9
$HIDETEXT
280
     1
  9
$XCLIPFRAME
290
     0
  9
$HALOGAP
280
     0
  9
$OBSCOLOR
 70
   257
  9
$OBSLTYPE
280
     0
  9
$INTERSECTIONDISPLAY
280
     0
  9
$INTERSECTIONCOLOR
 70
   257
  9
$DIMASSOC
280
     2
  9
$PROJECTNAME
  1

  9
$CAMERADISPLAY
290
     0
  9
$LENSLENGTH
 40
50.0
  9
$CAMERAHEIGHT
 40
0.0
  9
$STEPSPERSEC
 40
2.0
  9
$STEPSIZE
 40
6.0
  9
$3DDWFPREC
 40
2.0
  9
$PSOLWIDTH
 40
0.25
  9
$PSOLHEIGHT
 40
4.0
  9
$LOFTANG1
 40
1.570796326794897
  9
$LOFTANG2
 40
1.570796326794897
  9
$LOFTMAG1
 40
0.0
  9
$LOFTMAG2
 40
0.0
  9
$LOFTPARAM
 70
     7
  9
$LOFTNORMALS
280
     1
  9
$LATITUDE
 40
37.795
  9
$LONGITUDE
 40
-122.394
  9
$NORTHDIRECTION
 40
0.0
  9
$TIMEZONE
 70
 -8000
  9
$LIGHTGLYPHDISPLAY
280
     1
  9
$TILEMODELIGHTSYNCH
280
     1
  9
$SOLIDHIST
280
     1
  9
$SHOWHIST
280
     1
  9
$DWFFRAME
280
     2
  9
$DGNFRAME
280
     2
  9
$REALWORLDSCALE
290
     1
  9
$INTERFERECOLOR
 62
   256
  9
$CSHADOW
280
     0
  9
$SHADOWPLANELOCATION
 40
0.0
  0
ENDSEC
  0
SECTION
  2
CLASSES
  0
CLASS
  1
ACDBDICTIONARYWDFLT
  2
AcDbDictionaryWithDefault
  3
ObjectDBX Classes
 90
        0
 91
        3
280
     0
281
     0
  0
CLASS
  1
VISUALSTYLE
  2
AcDbVisualStyle
  3
ObjectDBX Classes
 90
     4095
 91
        3
280
     0
281
     0
  0
CLASS
  1
SCALE
  2
AcDbScale
  3
ObjectDBX Classes
 90
     1153
 91
        3
280
     0
281
     0
  0
ENDSEC
  0
SECTION
  2
TABLES
  0
TABLE
  2
VPORT
  5
8
330
0
100
AcDbSymbolTable
 70
     1
  0
VPORT
  5
29
330
8
100
AcDbSymbolTableRecord
100
AcDbViewportTableRecord
  2
*Active
 70
     0
 10
0.0
 20
0.0
 11
1.0
 21
1.0
 12
10.42990654205607
 22
4.5
 13
0.0
 23
0.0
 14
0.5
 24
0.5
 15
0.5
 25
0.5
 16
0.0
 26
0.0
 36
1.0
 17
0.0
 27
0.0
 37
0.0
 40
9.0
 41
1.972972972850329
 42
50.0
 43
0.0
 44
0.0
 50
0.0
 51
0.0
 71
     0
 72
   100
 73
     1
 74
     3
 75
     0
 76
     0
 77
     0
 78
     0
281
     0
 65
     1
110
0.0
120
0.0
130
0.0
111
1.0
121
0.0
131
0.0
112
0.0
122
1.0
132
0.0
 79
     0
146
0.0
 60
     3
 61
     5
292
     1
282
     1
141
0.0
142
0.0
 63
   256
  0
ENDTAB
  0
TABLE
  2
LTYPE
  5
5
330
0
100
AcDbSymbolTable
 70
     1
  0
LTYPE
  5
14
330
5
100
AcDbSymbolTableRecord
100
AcDbLinetypeTableRecord
  2
ByBlock
 70
     0
  3

 72
    65
 73
     0
 40
0.0
  0
LTYPE
  5
15
330
5
100
AcDbSymbolTableRecord
100
AcDbLinetypeTableRecord
  2
ByLayer
 70
     0
  3

 72
    65
 73
     0
 40
0.0
  0
LTYPE
  5
16
330
5
100
AcDbSymbolTableRecord
100
AcDbLinetypeTableRecord
  2
Continuous
 70
     0
  3
Solid line
 72
    65
 73
     0
 40
0.0
  0
ENDTAB
  0
TABLE
  2
LAYER
  5
2
330
0
100
AcDbSymbolTable
 70
     2
  0
LAYER
  5
10
330
2
100
AcDbSymbolTableRecord
100
AcDbLayerTableRecord
  2
0
 70
     0
 62
     7
  6
Continuous
370
    -3
390
F
347
0
  0
LAYER
  5
5E
330
2
100
AcDbSymbolTableRecord
100
AcDbLayerTableRecord
  2
layer 1
 70
     0
 62
     7
  6
Continuous
370
    -3
390
F
347
0
  0
ENDTAB
  0
TABLE
  2
STYLE
  5
3
330
0
100
AcDbSymbolTable
 70
     1
  0
STYLE
  5
11
330
3
100
AcDbSymbolTableRecord
100
AcDbTextStyleTableRecord
  2
Standard
 70
     0
 40
0.0
 41
1.0
 50
0.0
 71
     0
 42
0.2
  3
txt
  4

  0
ENDTAB
  0
TABLE
  2
VIEW
  5
6
330
0
100
AcDbSymbolTable
 70
     0
  0
ENDTAB
  0
TABLE
  2
UCS
  5
7
330
0
100
AcDbSymbolTable
 70
     0
  0
ENDTAB
  0
TABLE
  2
APPID
  5
9
330
0
100
AcDbSymbolTable
 70
     2
  0
APPID
  5
12
330
9
100
AcDbSymbolTableRecord
100
AcDbRegAppTableRecord
  2
ACAD
 70
     0
  0
APPID
  5
5D
330
9
100
AcDbSymbolTableRecord
100
AcDbRegAppTableRecord
  2
ODA
 70
     0
  0
ENDTAB
  0
TABLE
  2
DIMSTYLE
  5
A
330
0
100
AcDbSymbolTable
 70
     1
100
AcDbDimStyleTable
  0
DIMSTYLE
105
27
330
A
100
AcDbSymbolTableRecord
100
AcDbDimStyleTableRecord
  2
Standard
 70
     0
340
11
  0
ENDTAB
  0
TABLE
  2
BLOCK_RECORD
  5
1
330
0
100
AcDbSymbolTable
 70
     1
  0
BLOCK_RECORD
  5
1F
330
1
100
AcDbSymbolTableRecord
100
AcDbBlockTableRecord
  2
*Model_Space
340
22
 70
     0
280
     1
281
     0
  0
BLOCK_RECORD
  5
1B
330
1
100
AcDbSymbolTableRecord
100
AcDbBlockTableRecord
  2
*Paper_Space
340
1E
 70
     0
280
     1
281
     0
  0
BLOCK_RECORD
  5
23
330
1
100
AcDbSymbolTableRecord
100
AcDbBlockTableRecord
  2
*Paper_Space0
340
26
 70
     0
280
     1
281
     0
  0
ENDTAB
  0
ENDSEC
  0
SECTION
  2
BLOCKS
  0
BLOCK
  5
20
330
1F
100
AcDbEntity
  8
0
100
AcDbBlockBegin
  2
*Model_Space
 70
     0
 10
0.0
 20
0.0
 30
0.0
  3
*Model_Space
  1

  0
ENDBLK
  5
21
330
1F
100
AcDbEntity
  8
0
100
AcDbBlockEnd
  0
BLOCK
  5
1C
330
1B
100
AcDbEntity
 67
     1
  8
0
100
AcDbBlockBegin
  2
*Paper_Space
 70
     0
 10
0.0
 20
0.0
 30
0.0
  3
*Paper_Space
  1

  0
ENDBLK
  5
1D
330
1B
100
AcDbEntity
 67
     1
  8
0
100
AcDbBlockEnd
  0
BLOCK
  5
24
330
23
100
AcDbEntity
  8
0
100
AcDbBlockBegin
  2
*Paper_Space0
 70
     0
 10
0.0
 20
0.0
 30
0.0
  3
*Paper_Space0
  1

  0
ENDBLK
  5
25
330
23
100
AcDbEntity
  8
0
100
AcDbBlockEnd
  0
ENDSEC
  0
SECTION
  2
ENTITIES
  0
SPLINE
  5
5F
330
1F
100
AcDbEntity
  8
layer 1
 62
   186
100
AcDbSpline
210
0.0
220
0.0
230
1.0
 70
    11
 71
     3
 72
    16
 73
    12
 74
     0
 42
0.0000000001
 43
0.0000000001
 40
0.0
 40
0.0
 40
0.0
 40
0.0
 40
0.3333333333333333
 40
0.3333333333333333
 40
0.3333333333333333
 40
0.3333333333333333
 40
0.6666666666666666
 40
0.6666666666666666
 40
0.6666666666666666
 40
0.6666666666666666
 40
1.0
 40
1.0
 40
1.0
 40
1.0
 10
3.97229
 20
-3.47816
 30
0.0
 10
3.97229
 20
-3.47816
 30
0.0
 10
3.56574
 20
-4.20219
 30
0.0
 10
3.56574
 20
-4.20219
 30
0.0
 10
3.56574
 20
-4.20219
 30
0.0
 10
3.56574
 20
-4.20219
 30
0.0
 10
3.17986
 20
-3.74233
 30
0.0
 10
3.17986
 20
-3.74233
 30
0.0
 10
3.17986
 20
-3.74233
 30
0.0
 10
3.17986
 20
-3.74233
 30
0.0
 10
3.97229
 20
-3.47816
 30
0.0
 10
3.97229
 20
-3.47816
 30
0.0
  0
SPLINE
  5
60
330
1F
100
AcDbEntity
  8
layer 1
 62
   186
100
AcDbSpline
210
0.0
220
0.0
230
1.0
 70
    11
 71
     3
 72
   256
 73
   252
 74
     0
 42
0.0000000001
 43
0.0000000001
 40
0.0
 40
0.0
 40
0.0
 40
0.0
 40
0.0158730158730159
 40
0.0158730158730159
 40
0.0158730158730159
 40
0.0158730158730159
 40
0.0317460317460317
 40
0.0317460317460317
 40
0.0317460317460317
 40
0.0317460317460317
 40
0.0476190476190476
 40
0.0476190476190476
 40
0.0476190476190476
 40
0.0476190476190476
 40
0.0634920634920635
 40
0.0634920634920635
 40
0.0634920634920635
 40
0.0634920634920635
 40
0.0793650793650794
 40
0.0793650793650794
 40
0.0793650793650794
 40
0.0793650793650794
 40
0.0952380952380952
 40
0.0952380952380952
 40
0.0952380952380952
 40
0.0952380952380952
 40
0.1111111111111111
 40
0.1111111111111111
 40
0.1111111111111111
 40
0.1111111111111111
 40
0.126984126984127
 40
0.126984126984127
 40
0.126984126984127
 40
0.126984126984127
 40
0.1428571428571428
 40
0.1428571428571428
 40
0.1428571428571428
 40
0.1428571428571428
 40
0.1587301587301587
 40
0.1587301587301587
 40
0.1587301587301587
 40
0.1587301587301587
 40
0.1746031746031746
 40
0.1746031746031746
 40
0.1746031746031746
 40
0.1746031746031746
 40
0.1904761904761905
 40
0.1904761904761905
 40
0.1904761904761905
 40
0.1904761904761905
 40
0.2063492063492063
 40
0.2063492063492063
 40
0.2063492063492063
 40
0.2063492063492063
 40
0.2222222222222222
 40
0.2222222222222222
 40
0.2222222222222222
 40
0.2222222222222222
 40
0.2380952380952381
 40
0.2380952380952381
 40
0.2380952380952381
 40
0.2380952380952381
 40
0.253968253968254
 40
0.253968253968254
 40
0.253968253968254
 40
0.253968253968254
 40
0.2698412698412698
 40
0.2698412698412698
 40
0.2698412698412698
 40
0.2698412698412698
 40
0.2857142857142857
 40
0.2857142857142857
 40
0.2857142857142857
 40
0.2857142857142857
 40
0.3015873015873016
 40
0.3015873015873016
 40
0.3015873015873016
 40
0.3015873015873016
 40
0.3174603174603174
 40
0.3174603174603174
 40
0.3174603174603174
 40
0.3174603174603174
 40
0.3333333333333333
 40
0.3333333333333333
 40
0.3333333333333333
 40
0.3333333333333333
 40
0.3492063492063492
 40
0.3492063492063492
 40
0.3492063492063492
 40
0.3492063492063492
 40
0.3650793650793651
 40
0.3650793650793651
 40
0.3650793650793651
 40
0.3650793650793651
 40
0.3809523809523809
 40
0.3809523809523809
 40
0.3809523809523809
 40
0.3809523809523809
 40
0.3968253968253968
 40
0.3968253968253968
 40
0.3968253968253968
 40
0.3968253968253968
 40
0.4126984126984127
 40
0.4126984126984127
 40
0.4126984126984127
 40
0.4126984126984127
 40
0.4285714285714285
 40
0.4285714285714285
 40
0.4285714285714285
 40
0.4285714285714285
 40
0.4444444444444444
 40
0.4444444444444444
 40
0.4444444444444444
 40
0.4444444444444444
 40
0.4603174603174603
 40
0.4603174603174603
 40
0.4603174603174603
 40
0.4603174603174603
 40
0.4761904761904762
 40
0.4761904761904762
 40
0.4761904761904762
 40
0.4761904761904762
 40
0.492063492063492
 40
0.492063492063492
 40
0.492063492063492
 40
0.492063492063492
 40
0.5079365079365079
 40
0.5079365079365079
 40
0.5079365079365079
 40
0.5079365079365079
 40
0.5238095238095237
 40
0.5238095238095237
 40
0.5238095238095237
 40
0.5238095238095237
 40
0.5396825396825395
 40
0.5396825396825395
 40
0.5396825396825395
 40
0.5396825396825395
 40
0.5555555555555554
 40
0.5555555555555554
 40
0.5555555555555554
 40
0.5555555555555554
 40
0.5714285714285712
 40
0.5714285714285712
 40
0.5714285714285712
 40
0.5714285714285712
 40
0.587301587301587
 40
0.587301587301587
 40
0.587301587301587
 40
0.587301587301587
 40
0.6031746031746028
 40
0.6031746031746028
 40
0.6031746031746028
 40
0.6031746031746028
 40
0.6190476190476186
 40
0.6190476190476186
 40
0.6190476190476186
 40
0.6190476190476186
 40
0.6349206349206344
 40
0.6349206349206344
 40
0.6349206349206344
 40
0.6349206349206344
 40
0.6507936507936503
 40
0.6507936507936503
 40
0.6507936507936503
 40
0.6507936507936503
 40
0.6666666666666661
 40
0.6666666666666661
 40
0.6666666666666661
 40
0.6666666666666661
 40
0.6825396825396819
 40
0.6825396825396819
 40
0.6825396825396819
 40
0.6825396825396819
 40
0.6984126984126977
 40
0.6984126984126977
 40
0.6984126984126977
 40
0.6984126984126977
 40
0.7142857142857135
 40
0.7142857142857135
 40
0.7142857142857135
 40
0.7142857142857135
 40
0.7301587301587293
 40
0.7301587301587293
 40
0.7301587301587293
 40
0.7301587301587293
 40
0.7460317460317452
 40
0.7460317460317452
 40
0.7460317460317452
 40
0.7460317460317452
 40
0.761904761904761
 40
0.761904761904761
 40
0.761904761904761
 40
0.761904761904761
 40
0.7777777777777768
 40
0.7777777777777768
 40
0.7777777777777768
 40
0.7777777777777768
 40
0.7936507936507926
 40
0.7936507936507926
 40
0.7936507936507926
 40
0.7936507936507926
 40
0.8095238095238084
 40
0.8095238095238084
 40
0.8095238095238084
 40
0.8095238095238084
 40
0.8253968253968242
 40
0.8253968253968242
 40
0.8253968253968242
 40
0.8253968253968242
 40
0.8412698412698401
 40
0.8412698412698401
 40
0.8412698412698401
 40
0.8412698412698401
 40
0.8571428571428559
 40
0.8571428571428559
 40
0.8571428571428559
 40
0.8571428571428559
 40
0.8730158730158717
 40
0.8730158730158717
 40
0.8730158730158717
 40
0.8730158730158717
 40
0.8888888888888875
 40
0.8888888888888875
 40
0.8888888888888875
 40
0.8888888888888875
 40
0.9047619047619033
 40
0.9047619047619033
 40
0.9047619047619033
 40
0.9047619047619033
 40
0.9206349206349191
 40
0.9206349206349191
 40
0.9206349206349191
 40
0.9206349206349191
 40
0.936507936507935
 40
0.936507936507935
 40
0.936507936507935
 40
0.936507936507935
 40
0.9523809523809508
 40
0.9523809523809508
 40
0.9523809523809508
 40
0.9523809523809508
 40
0.9682539682539666
 40
0.9682539682539666
 40
0.9682539682539666
 40
0.9682539682539666
 40
0.9841269841269824
 40
0.9841269841269824
 40
0.9841269841269824
 40
0.9841269841269824
 40
1.0
 40
1.0
 40
1.0
 40
1.0
 10
0.97083
 20
-0.39852
 30
0.0
 10
0.97083
 20
-0.39852
 30
0.0
 10
0.91745
 20
-0.51957
 30
0.0
 10
0.91745
 20
-0.51957
 30
0.0
 10
0.91745
 20
-0.51957
 30
0.0
 10
0.78036
 20
-0.83047
 30
0.0
 10
1.19473
 20
-1.39904
 30
0.0
 10
1.11132
 20
-1.58821
 30
0.0
 10
1.11132
 20
-1.58821
 30
0.0
 10
1.11132
 20
-1.58821
 30
0.0
 10
1.06862
 20
-1.68504
 30
0.0
 10
1.06862
 20
-1.68504
 30
0.0
 10
1.06862
 20
-1.68504
 30
0.0
 10
1.04372
 20
-1.7415
 30
0.0
 10
0.95065
 20
-1.77761
 30
0.0
 10
0.8942
 20
-1.75271
 30
0.0
 10
0.8942
 20
-1.75271
 30
0.0
 10
0.8942
 20
-1.75271
 30
0.0
 10
0.79737
 20
-1.71001
 30
0.0
 10
0.79737
 20
-1.71001
 30
0.0
 10
0.79737
 20
-1.71001
 30
0.0
 10
0.71578
 20
-1.67404
 30
0.0
 10
0.64676
 20
-1.59252
 30
0.0
 10
0.68127
 20
-1.51425
 30
0.0
 10
0.68127
 20
-1.51425
 30
0.0
 10
0.68127
 20
-1.51425
 30
0.0
 10
0.71329
 20
-1.44163
 30
0.0
 10
0.71329
 20
-1.44163
 30
0.0
 10
0.71329
 20
-1.44163
 30
0.0
 10
0.76322
 20
-1.32841
 30
0.0
 10
0.8453
 20
-1.33899
 30
0.0
 10
0.90985
 20
-1.1718
 30
0.0
 10
0.90985
 20
-1.1718
 30
0.0
 10
0.90985
 20
-1.1718
 30
0.0
 10
0.4611
 20
-0.63642
 30
0.0
 10
0.4611
 20
-0.63642
 30
0.0
 10
0.4611
 20
-0.63642
 30
0.0
 10
0.27575
 20
-0.69381
 30
0.0
 10
0.10833
 20
-0.91184
 30
0.0
 10
0.00056
 20
-1.15626
 30
0.0
 10
0.00056
 20
-1.15626
 30
0.0
 10
-0.22542
 20
-1.66875
 30
0.0
 10
0.09648
 20
-2.23954
 30
0.0
 10
0.60883
 20
-2.46546
 30
0.0
 10
0.60883
 20
-2.46546
 30
0.0
 10
1.04325
 20
-2.65702
 30
0.0
 10
1.71304
 20
-2.38769
 30
0.0
 10
1.88887
 20
-1.98891
 30
0.0
 10
1.88887
 20
-1.98891
 30
0.0
 10
1.88887
 20
-1.98891
 30
0.0
 10
1.94226
 20
-1.86785
 30
0.0
 10
1.94226
 20
-1.86785
 30
0.0
 10
1.94226
 20
-1.86785
 30
0.0
 10
2.13339
 20
-1.4344
 30
0.0
 10
1.65495
 20
-0.87995
 30
0.0
 10
1.72131
 20
-0.72944
 30
0.0
 10
1.72131
 20
-0.72944
 30
0.0
 10
1.72131
 20
-0.72944
 30
0.0
 10
1.74267
 20
-0.68103
 30
0.0
 10
1.74267
 20
-0.68103
 30
0.0
 10
1.74267
 20
-0.68103
 30
0.0
 10
1.7588
 20
-0.64444
 30
0.0
 10
1.8742
 20
-0.56553
 30
0.0
 10
1.90355
 20
-0.57848
 30
0.0
 10
1.90355
 20
-0.57848
 30
0.0
 10
1.98797
 20
-0.6157
 30
0.0
 10
2.08194
 20
-0.69855
 30
0.0
 10
2.04385
 20
-0.78492
 30
0.0
 10
2.04385
 20
-0.78492
 30
0.0
 10
2.00112
 20
-0.88183
 30
0.0
 10
1.94091
 20
-0.88323
 30
0.0
 10
1.86502
 20
-0.97962
 30
0.0
 10
1.86502
 20
-0.97962
 30
0.0
 10
1.86502
 20
-0.97962
 30
0.0
 10
2.37903
 20
-1.56843
 30
0.0
 10
2.37903
 20
-1.56843
 30
0.0
 10
2.37903
 20
-1.56843
 30
0.0
 10
2.37903
 20
-1.56843
 30
0.0
 10
2.40098
 20
-1.5498
 30
0.0
 10
2.40098
 20
-1.5498
 30
0.0
 10
2.40098
 20
-1.5498
 30
0.0
 10
2.40098
 20
-1.5498
 30
0.0
 10
2.54208
 20
-1.40489
 30
0.0
 10
2.54208
 20
-1.40489
 30
0.0
 10
2.54208
 20
-1.40489
 30
0.0
 10
2.54208
 20
-1.40489
 30
0.0
 10
2.74349
 20
-1.64289
 30
0.0
 10
2.74349
 20
-1.64289
 30
0.0
 10
2.74349
 20
-1.64289
 30
0.0
 10
2.74349
 20
-1.64289
 30
0.0
 10
1.02974
 20
-3.0848
 30
0.0
 10
1.02974
 20
-3.0848
 30
0.0
 10
1.02974
 20
-3.0848
 30
0.0
 10
1.02974
 20
-3.0848
 30
0.0
 10
2.00821
 20
-4.21024
 30
0.0
 10
2.00821
 20
-4.21024
 30
0.0
 10
2.00821
 20
-4.21024
 30
0.0
 10
2.00821
 20
-4.21024
 30
0.0
 10
2.56922
 20
-4.05278
 30
0.0
 10
2.56922
 20
-4.05278
 30
0.0
 10
2.56922
 20
-4.05278
 30
0.0
 10
2.56922
 20
-4.05278
 30
0.0
 10
3.1493
 20
-4.71391
 30
0.0
 10
3.1493
 20
-4.71391
 30
0.0
 10
3.1493
 20
-4.71391
 30
0.0
 10
3.1493
 20
-4.71391
 30
0.0
 10
2.87173
 20
-5.27718
 30
0.0
 10
2.87173
 20
-5.27718
 30
0.0
 10
2.87173
 20
-5.27718
 30
0.0
 10
2.87173
 20
-5.27718
 30
0.0
 10
3.83293
 20
-6.39438
 30
0.0
 10
3.83293
 20
-6.39438
 30
0.0
 10
3.83293
 20
-6.39438
 30
0.0
 10
3.83293
 20
-6.39438
 30
0.0
 10
5.52694
 20
-4.95215
 30
0.0
 10
5.52694
 20
-4.95215
 30
0.0
 10
5.52694
 20
-4.95215
 30
0.0
 10
5.52694
 20
-4.95215
 30
0.0
 10
5.82668
 20
-5.30555
 30
0.0
 10
5.82668
 20
-5.30555
 30
0.0
 10
5.82668
 20
-5.30555
 30
0.0
 10
5.82668
 20
-5.30555
 30
0.0
 10
4.13253
 20
-6.73735
 30
0.0
 10
4.13253
 20
-6.73735
 30
0.0
 10
4.13253
 20
-6.73735
 30
0.0
 10
4.13253
 20
-6.73735
 30
0.0
 10
4.66
 20
-7.36702
 30
0.0
 10
4.66
 20
-7.36702
 30
0.0
 10
4.66
 20
-7.36702
 30
0.0
 10
4.66
 20
-7.36702
 30
0.0
 10
5.20645
 20
-6.90934
 30
0.0
 10
5.20645
 20
-6.90934
 30
0.0
 10
5.20645
 20
-6.90934
 30
0.0
 10
5.02542
 20
-7.3199
 30
0.0
 10
5.1113
 20
-7.73409
 30
0.0
 10
5.2291
 20
-8.03772
 30
0.0
 10
5.2291
 20
-8.03772
 30
0.0
 10
5.31932
 20
-8.27027
 30
0.0
 10
5.60879
 20
-8.74737
 30
0.0
 10
5.90648
 20
-8.87863
 30
0.0
 10
5.90648
 20
-8.87863
 30
0.0
 10
5.90648
 20
-8.87863
 30
0.0
 10
6.34225
 20
-9.07077
 30
0.0
 10
6.34225
 20
-9.07077
 30
0.0
 10
6.34225
 20
-9.07077
 30
0.0
 10
6.56013
 20
-9.16685
 30
0.0
 10
7.17827
 20
-9.10309
 30
0.0
 10
7.32263
 20
-9.01149
 30
0.0
 10
7.32263
 20
-9.01149
 30
0.0
 10
7.25989
 20
-8.91262
 30
0.0
 10
6.81238
 20
-8.32384
 30
0.0
 10
6.71873
 20
-8.28255
 30
0.0
 10
6.71873
 20
-8.28255
 30
0.0
 10
6.63257
 20
-8.24456
 30
0.0
 10
6.49352
 20
-8.28894
 30
0.0
 10
6.36136
 20
-8.20199
 30
0.0
 10
6.36136
 20
-8.20199
 30
0.0
 10
6.22283
 20
-8.11087
 30
0.0
 10
6.16859
 20
-8.04645
 30
0.0
 10
6.0858
 20
-7.94614
 30
0.0
 10
6.0858
 20
-7.94614
 30
0.0
 10
5.96999
 20
-7.80582
 30
0.0
 10
5.89076
 20
-7.47156
 30
0.0
 10
5.98235
 20
-7.26386
 30
0.0
 10
5.98235
 20
-7.26386
 30
0.0
 10
6.13944
 20
-6.90759
 30
0.0
 10
6.5954
 20
-6.66669
 30
0.0
 10
6.93203
 20
-6.81512
 30
0.0
 10
6.93203
 20
-6.81512
 30
0.0
 10
7.35882
 20
-7.00331
 30
0.0
 10
7.44999
 20
-7.29257
 30
0.0
 10
7.44295
 20
-7.66041
 30
0.0
 10
7.44295
 20
-7.66041
 30
0.0
 10
7.43958
 20
-7.83711
 30
0.0
 10
7.89379
 20
-8.34602
 30
0.0
 10
8.05443
 20
-8.46668
 30
0.0
 10
8.05443
 20
-8.46668
 30
0.0
 10
8.05443
 20
-8.46668
 30
0.0
 10
8.08646
 20
-8.39405
 30
0.0
 10
8.08646
 20
-8.39405
 30
0.0
 10
8.08646
 20
-8.39405
 30
0.0
 10
8.51212
 20
-7.4287
 30
0.0
 10
8.20481
 20
-6.47993
 30
0.0
 10
7.26295
 20
-6.06463
 30
0.0
 10
7.26295
 20
-6.06463
 30
0.0
 10
6.89363
 20
-5.90178
 30
0.0
 10
6.66176
 20
-5.99176
 30
0.0
 10
6.39578
 20
-5.94516
 30
0.0
 10
6.39578
 20
-5.94516
 30
0.0
 10
6.39578
 20
-5.94516
 30
0.0
 10
6.95535
 20
-5.47462
 30
0.0
 10
6.95535
 20
-5.47462
 30
0.0
 10
6.95535
 20
-5.47462
 30
0.0
 10
6.95535
 20
-5.47462
 30
0.0
 10
5.23637
 20
-3.42564
 30
0.0
 10
5.23637
 20
-3.42564
 30
0.0
 10
5.23637
 20
-3.42564
 30
0.0
 10
5.23637
 20
-3.42564
 30
0.0
 10
4.65476
 20
-3.91485
 30
0.0
 10
4.65476
 20
-3.91485
 30
0.0
 10
4.65476
 20
-3.91485
 30
0.0
 10
4.65476
 20
-3.91485
 30
0.0
 10
4.96747
 20
-4.28785
 30
0.0
 10
4.96747
 20
-4.28785
 30
0.0
 10
4.96747
 20
-4.28785
 30
0.0
 10
4.96747
 20
-4.28785
 30
0.0
 10
3.75788
 20
-5.30011
 30
0.0
 10
3.75788
 20
-5.30011
 30
0.0
 10
3.75788
 20
-5.30011
 30
0.0
 10
3.75788
 20
-5.30011
 30
0.0
 10
4.94172
 20
-3.07408
 30
0.0
 10
4.94172
 20
-3.07408
 30
0.0
 10
4.94172
 20
-3.07408
 30
0.0
 10
4.94172
 20
-3.07408
 30
0.0
 10
4.53057
 20
-2.58482
 30
0.0
 10
4.53057
 20
-2.58482
 30
0.0
 10
4.53057
 20
-2.58482
 30
0.0
 10
4.53057
 20
-2.58482
 30
0.0
 10
2.01087
 20
-3.34178
 30
0.0
 10
2.01087
 20
-3.34178
 30
0.0
 10
2.01087
 20
-3.34178
 30
0.0
 10
2.01087
 20
-3.34178
 30
0.0
 10
3.28259
 20
-2.27875
 30
0.0
 10
3.28259
 20
-2.27875
 30
0.0
 10
3.28259
 20
-2.27875
 30
0.0
 10
3.28259
 20
-2.27875
 30
0.0
 10
3.64159
 20
-2.70645
 30
0.0
 10
3.64159
 20
-2.70645
 30
0.0
 10
3.64159
 20
-2.70645
 30
0.0
 10
3.64159
 20
-2.70645
 30
0.0
 10
4.22532
 20
-2.21982
 30
0.0
 10
4.22532
 20
-2.21982
 30
0.0
 10
4.22532
 20
-2.21982
 30
0.0
 10
4.22532
 20
-2.21982
 30
0.0
 10
2.99227
 20
-0.74989
 30
0.0
 10
2.99227
 20
-0.74989
 30
0.0
 10
2.99227
 20
-0.74989
 30
0.0
 10
2.99227
 20
-0.74989
 30
0.0
 10
2.84004
 20
-0.8784
 30
0.0
 10
2.84004
 20
-0.8784
 30
0.0
 10
2.84004
 20
-0.8784
 30
0.0
 10
2.79613
 20
-0.80228
 30
0.0
 10
2.79244
 20
-0.51376
 30
0.0
 10
2.70487
 20
-0.34785
 30
0.0
 10
2.70487
 20
-0.34785
 30
0.0
 10
2.55911
 20
-0.07178
 30
0.0
 10
2.32543
 20
0.04516
 30
0.0
 10
2.0572
 20
0.16345
 30
0.0
 10
2.0572
 20
0.16345
 30
0.0
 10
1.7448
 20
0.30119
 30
0.0
 10
1.13751
 20
-0.0205
 30
0.0
 10
0.97083
 20
-0.39852
 30
0.0
  0
SPLINE
  5
61
330
1F
100
AcDbEntity
  8
layer 1
 62
   186
100
AcDbSpline
210
0.0
220
0.0
230
1.0
 70
    11
 71
     3
 72
    20
 73
    16
 74
     0
 42
0.0000000001
 43
0.0000000001
 40
0.0
 40
0.0
 40
0.0
 40
0.0
 40
0.25
 40
0.25
 40
0.25
 40
0.25
 40
0.5
 40
0.5
 40
0.5
 40
0.5
 40
0.75
 40
0.75
 40
0.75
 40
0.75
 40
1.0
 40
1.0
 40
1.0
 40
1.0
 10
-0.6856
 20
1.86204
 30
0.0
 10
-0.6856
 20
1.86204
 30
0.0
 10
-0.46039
 20
1.59484
 30
0.0
 10
-0.46039
 20
1.59484
 30
0.0
 10
-0.46039
 20
1.59484
 30
0.0
 10
-0.46039
 20
1.59484
 30
0.0
 10
-1.02094
 20
1.15318
 30
0.0
 10
-1.02094
 20
1.15318
 30
0.0
 10
-1.02094
 20
1.15318
 30
0.0
 10
-1.02094
 20
1.15318
 30
0.0
 10
-1.31559
 20
1.50976
 30
0.0
 10
-1.31559
 20
1.50976
 30
0.0
 10
-1.31559
 20
1.50976
 30
0.0
 10
-1.31559
 20
1.50976
 30
0.0
 10
-0.6856
 20
1.86204
 30
0.0
 10
-0.6856
 20
1.86204
 30
0.0
  0
SPLINE
  5
62
330
1F
100
AcDbEntity
  8
layer 1
 62
   186
100
AcDbSpline
210
0.0
220
0.0
230
1.0
 70
    11
 71
     3
 72
    20
 73
    16
 74
     0
 42
0.0000000001
 43
0.0000000001
 40
0.0
 40
0.0
 40
0.0
 40
0.0
 40
0.25
 40
0.25
 40
0.25
 40
0.25
 40
0.5
 40
0.5
 40
0.5
 40
0.5
 40
0.75
 40
0.75
 40
0.75
 40
0.75
 40
1.0
 40
1.0
 40
1.0
 40
1.0
 10
-2.32907
 20
2.67586
 30
0.0
 10
-2.27919
 20
2.74227
 30
0.0
 10
-1.75204
 20
3.05758
 30
0.0
 10
-1.70687
 20
3.03767
 30
0.0
 10
-1.70687
 20
3.03767
 30
0.0
 10
-1.64372
 20
3.00982
 30
0.0
 10
-1.30038
 20
2.58743
 30
0.0
 10
-1.24328
 20
2.51516
 30
0.0
 10
-1.24328
 20
2.51516
 30
0.0
 10
-1.28759
 20
2.45616
 30
0.0
 10
-1.83286
 20
2.13898
 30
0.0
 10
-1.86547
 20
2.15335
 30
0.0
 10
-1.86547
 20
2.15335
 30
0.0
 10
-1.9405
 20
2.18644
 30
0.0
 10
-2.23685
 20
2.60186
 30
0.0
 10
-2.32907
 20
2.67586
 30
0.0
  0
SPLINE
  5
63
330
1F
100
AcDbEntity
  8
layer 1
 62
   186
100
AcDbSpline
210
0.0
220
0.0
230
1.0
 70
    11
 71
     3
 72
    20
 73
    16
 74
     0
 42
0.0000000001
 43
0.0000000001
 40
0.0
 40
0.0
 40
0.0
 40
0.0
 40
0.25
 40
0.25
 40
0.25
 40
0.25
 40
0.5
 40
0.5
 40
0.5
 40
0.5
 40
0.75
 40
0.75
 40
0.75
 40
0.75
 40
1.0
 40
1.0
 40
1.0
 40
1.0
 10
-3.34078
 20
3.89759
 30
0.0
 10
-3.34078
 20
3.89759
 30
0.0
 10
-2.70423
 20
4.27196
 30
0.0
 10
-2.70423
 20
4.27196
 30
0.0
 10
-2.70423
 20
4.27196
 30
0.0
 10
-2.70423
 20
4.27196
 30
0.0
 10
-2.22918
 20
3.70573
 30
0.0
 10
-2.22918
 20
3.70573
 30
0.0
 10
-2.22918
 20
3.70573
 30
0.0
 10
-2.22918
 20
3.70573
 30
0.0
 10
-2.88596
 20
3.35356
 30
0.0
 10
-2.88596
 20
3.35356
 30
0.0
 10
-2.88596
 20
3.35356
 30
0.0
 10
-2.88596
 20
3.35356
 30
0.0
 10
-3.34078
 20
3.89759
 30
0.0
 10
-3.34078
 20
3.89759
 30
0.0
  0
SPLINE
  5
64
330
1F
100
AcDbEntity
  8
layer 1
 62
   186
100
AcDbSpline
210
0.0
220
0.0
230
1.0
 70
    11
 71
     3
 72
    32
 73
    28
 74
     0
 42
0.0000000001
 43
0.0000000001
 40
0.0
 40
0.0
 40
0.0
 40
0.0
 40
0.1428571428571428
 40
0.1428571428571428
 40
0.1428571428571428
 40
0.1428571428571428
 40
0.2857142857142857
 40
0.2857142857142857
 40
0.2857142857142857
 40
0.2857142857142857
 40
0.4285714285714285
 40
0.4285714285714285
 40
0.4285714285714285
 40
0.4285714285714285
 40
0.5714285714285714
 40
0.5714285714285714
 40
0.5714285714285714
 40
0.5714285714285714
 40
0.7142857142857142
 40
0.7142857142857142
 40
0.7142857142857142
 40
0.7142857142857142
 40
0.857142857142857
 40
0.857142857142857
 40
0.857142857142857
 40
0.857142857142857
 40
1.0
 40
1.0
 40
1.0
 40
1.0
 10
-2.0031
 20
-0.38842
 30
0.0
 10
-2.0031
 20
-0.38842
 30
0.0
 10
-2.15407
 20
-0.2062
 30
0.0
 10
-2.15407
 20
-0.2062
 30
0.0
 10
-2.15407
 20
-0.2062
 30
0.0
 10
-2.08699
 20
-0.05407
 30
0.0
 10
-0.79915
 20
0.99301
 30
0.0
 10
-0.58201
 20
1.17285
 30
0.0
 10
-0.58201
 20
1.17285
 30
0.0
 10
-0.40002
 20
1.32358
 30
0.0
 10
0.95127
 20
2.50173
 30
0.0
 10
1.04575
 20
2.46008
 30
0.0
 10
1.04575
 20
2.46008
 30
0.0
 10
1.10644
 20
2.43331
 30
0.0
 10
1.21599
 20
2.32155
 30
0.0
 10
1.19671
 20
2.27784
 30
0.0
 10
1.19671
 20
2.27784
 30
0.0
 10
1.15216
 20
2.17677
 30
0.0
 10
-0.18595
 20
1.14449
 30
0.0
 10
-0.39245
 20
0.94289
 30
0.0
 10
-0.39245
 20
0.94289
 30
0.0
 10
-0.64087
 20
0.70037
 30
0.0
 10
-0.93401
 20
0.48201
 30
0.0
 10
-1.19371
 20
0.26675
 30
0.0
 10
-1.19371
 20
0.26675
 30
0.0
 10
-1.33005
 20
0.15374
 30
0.0
 10
-1.93852
 20
-0.30793
 30
0.0
 10
-2.0031
 20
-0.38842
 30
0.0
  0
SPLINE
  5
65
330
1F
100
AcDbEntity
  8
layer 1
 62
   186
100
AcDbSpline
210
0.0
220
0.0
230
1.0
 70
    11
 71
     3
 72
    28
 73
    24
 74
     0
 42
0.0000000001
 43
0.0000000001
 40
0.0
 40
0.0
 40
0.0
 40
0.0
 40
0.1666666666666667
 40
0.1666666666666667
 40
0.1666666666666667
 40
0.1666666666666667
 40
0.3333333333333333
 40
0.3333333333333333
 40
0.3333333333333333
 40
0.3333333333333333
 40
0.5
 40
0.5
 40
0.5
 40
0.5
 40
0.6666666666666666
 40
0.6666666666666666
 40
0.6666666666666666
 40
0.6666666666666666
 40
0.8333333333333333
 40
0.8333333333333333
 40
0.8333333333333333
 40
0.8333333333333333
 40
1.0
 40
1.0
 40
1.0
 40
1.0
 10
-3.13827
 20
1.03745
 30
0.0
 10
-3.04769
 20
1.23109
 30
0.0
 10
-1.6075
 20
1.98764
 30
0.0
 10
-1.33871
 20
2.14047
 30
0.0
 10
-1.33871
 20
2.14047
 30
0.0
 10
-1.08266
 20
2.28607
 30
0.0
 10
0.33644
 20
3.11819
 30
0.0
 10
0.47958
 20
3.14345
 30
0.0
 10
0.47958
 20
3.14345
 30
0.0
 10
0.47958
 20
3.14345
 30
0.0
 10
0.60839
 20
2.93025
 30
0.0
 10
0.60839
 20
2.93025
 30
0.0
 10
0.60839
 20
2.93025
 30
0.0
 10
0.52682
 20
2.82104
 30
0.0
 10
-0.93615
 20
2.02042
 30
0.0
 10
-1.17919
 20
1.88447
 30
0.0
 10
-1.17919
 20
1.88447
 30
0.0
 10
-1.37033
 20
1.77755
 30
0.0
 10
-2.93451
 20
0.86084
 30
0.0
 10
-3.00083
 20
0.89009
 30
0.0
 10
-3.00083
 20
0.89009
 30
0.0
 10
-3.0712
 20
0.92112
 30
0.0
 10
-3.06668
 20
0.98
 30
0.0
 10
-3.13827
 20
1.03745
 30
0.0
  0
SPLINE
  5
66
330
1F
100
AcDbEntity
  8
layer 1
 62
   186
100
AcDbSpline
210
0.0
220
0.0
230
1.0
 70
    11
 71
     3
 72
    20
 73
    16
 74
     0
 42
0.0000000001
 43
0.0000000001
 40
0.0
 40
0.0
 40
0.0
 40
0.0
 40
0.25
 40
0.25
 40
0.25
 40
0.25
 40
0.5
 40
0.5
 40
0.5
 40
0.5
 40
0.75
 40
0.75
 40
0.75
 40
0.75
 40
1.0
 40
1.0
 40
1.0
 40
1.0
 10
-4.35369
 20
5.10118
 30
0.0
 10
-4.35369
 20
5.10118
 30
0.0
 10
-3.7095
 20
5.4702
 30
0.0
 10
-3.7095
 20
5.4702
 30
0.0
 10
-3.7095
 20
5.4702
 30
0.0
 10
-3.7095
 20
5.4702
 30
0.0
 10
-3.26789
 20
4.94048
 30
0.0
 10
-3.26789
 20
4.94048
 30
0.0
 10
-3.26789
 20
4.94048
 30
0.0
 10
-3.26789
 20
4.94048
 30
0.0
 10
-3.89135
 20
4.56197
 30
0.0
 10
-3.89135
 20
4.56197
 30
0.0
 10
-3.89135
 20
4.56197
 30
0.0
 10
-3.89135
 20
4.56197
 30
0.0
 10
-4.35369
 20
5.10118
 30
0.0
 10
-4.35369
 20
5.10118
 30
0.0
  0
SPLINE
  5
67
330
1F
100
AcDbEntity
  8
layer 1
 62
   186
100
AcDbSpline
210
0.0
220
0.0
230
1.0
 70
    11
 71
     3
 72
    28
 73
    24
 74
     0
 42
0.0000000001
 43
0.0000000001
 40
0.0
 40
0.0
 40
0.0
 40
0.0
 40
0.1666666666666667
 40
0.1666666666666667
 40
0.1666666666666667
 40
0.1666666666666667
 40
0.3333333333333333
 40
0.3333333333333333
 40
0.3333333333333333
 40
0.3333333333333333
 40
0.5
 40
0.5
 40
0.5
 40
0.5
 40
0.6666666666666666
 40
0.6666666666666666
 40
0.6666666666666666
 40
0.6666666666666666
 40
0.8333333333333333
 40
0.8333333333333333
 40
0.8333333333333333
 40
0.8333333333333333
 40
1.0
 40
1.0
 40
1.0
 40
1.0
 10
-4.12247
 20
2.28108
 30
0.0
 10
-4.06375
 20
2.41423
 30
0.0
 10
-2.55803
 20
3.22268
 30
0.0
 10
-2.32934
 20
3.34897
 30
0.0
 10
-2.32934
 20
3.34897
 30
0.0
 10
-2.11533
 20
3.46716
 30
0.0
 10
-0.60607
 20
4.37399
 30
0.0
 10
-0.50174
 20
4.328
 30
0.0
 10
-0.50174
 20
4.328
 30
0.0
 10
-0.45664
 20
4.30811
 30
0.0
 10
-0.41752
 20
4.19114
 30
0.0
 10
-0.45543
 20
4.10516
 30
0.0
 10
-0.45543
 20
4.10516
 30
0.0
 10
-0.45543
 20
4.10516
 30
0.0
 10
-0.4661
 20
4.08095
 30
0.0
 10
-0.4661
 20
4.08095
 30
0.0
 10
-0.4661
 20
4.08095
 30
0.0
 10
-0.5193
 20
3.9603
 30
0.0
 10
-3.6378
 20
2.30175
 30
0.0
 10
-4.01705
 20
2.06109
 30
0.0
 10
-4.01705
 20
2.06109
 30
0.0
 10
-4.03681
 20
2.09223
 30
0.0
 10
-4.13565
 20
2.25118
 30
0.0
 10
-4.12247
 20
2.28108
 30
0.0
  0
SPLINE
  5
68
330
1F
100
AcDbEntity
  8
layer 1
 62
   186
100
AcDbSpline
210
0.0
220
0.0
230
1.0
 70
    11
 71
     3
 72
    20
 73
    16
 74
     0
 42
0.0000000001
 43
0.0000000001
 40
0.0
 40
0.0
 40
0.0
 40
0.0
 40
0.25
 40
0.25
 40
0.25
 40
0.25
 40
0.5
 40
0.5
 40
0.5
 40
0.5
 40
0.75
 40
0.75
 40
0.75
 40
0.75
 40
1.0
 40
1.0
 40
1.0
 40
1.0
 10
-4.55528
 20
6.47954
 30
0.0
 10
-4.55528
 20
6.47954
 30
0.0
 10
-4.25959
 20
6.12692
 30
0.0
 10
-4.25959
 20
6.12692
 30
0.0
 10
-4.25959
 20
6.12692
 30
0.0
 10
-4.25959
 20
6.12692
 30
0.0
 10
-4.90728
 20
5.75185
 30
0.0
 10
-4.90728
 20
5.75185
 30
0.0
 10
-4.90728
 20
5.75185
 30
0.0
 10
-4.90728
 20
5.75185
 30
0.0
 10
-5.11287
 20
5.9982
 30
0.0
 10
-5.11287
 20
5.9982
 30
0.0
 10
-5.11287
 20
5.9982
 30
0.0
 10
-5.11287
 20
5.9982
 30
0.0
 10
-4.55528
 20
6.47954
 30
0.0
 10
-4.55528
 20
6.47954
 30
0.0
  0
SPLINE
  5
69
330
1F
100
AcDbEntity
  8
layer 1
 62
   186
100
AcDbSpline
210
0.0
220
0.0
230
1.0
 70
    11
 71
     3
 72
    20
 73
    16
 74
     0
 42
0.0000000001
 43
0.0000000001
 40
0.0
 40
0.0
 40
0.0
 40
0.0
 40
0.25
 40
0.25
 40
0.25
 40
0.25
 40
0.5
 40
0.5
 40
0.5
 40
0.5
 40
0.75
 40
0.75
 40
0.75
 40
0.75
 40
1.0
 40
1.0
 40
1.0
 40
1.0
 10
-5.13087
 20
3.53538
 30
0.0
 10
-5.12445
 20
3.54994
 30
0.0
 10
-1.71391
 20
5.53154
 30
0.0
 10
-1.54503
 20
5.56877
 30
0.0
 10
-1.54503
 20
5.56877
 30
0.0
 10
-1.50784
 20
5.51017
 30
0.0
 10
-1.39634
 20
5.38139
 30
0.0
 10
-1.42609
 20
5.31391
 30
0.0
 10
-1.42609
 20
5.31391
 30
0.0
 10
-1.42786
 20
5.3099
 30
0.0
 10
-4.87712
 20
3.31927
 30
0.0
 10
-5.03612
 20
3.29119
 30
0.0
 10
-5.03612
 20
3.29119
 30
0.0
 10
-5.08081
 20
3.34773
 30
0.0
 10
-5.16755
 20
3.4522
 30
0.0
 10
-5.13087
 20
3.53538
 30
0.0
  0
SPLINE
  5
6A
330
1F
100
AcDbEntity
  8
layer 1
 62
   186
100
AcDbSpline
210
0.0
220
0.0
230
1.0
 70
    11
 71
     3
 72
    20
 73
    16
 74
     0
 42
0.0000000001
 43
0.0000000001
 40
0.0
 40
0.0
 40
0.0
 40
0.0
 40
0.25
 40
0.25
 40
0.25
 40
0.25
 40
0.5
 40
0.5
 40
0.5
 40
0.5
 40
0.75
 40
0.75
 40
0.75
 40
0.75
 40
1.0
 40
1.0
 40
1.0
 40
1.0
 10
-6.13641
 20
4.7306
 30
0.0
 10
-6.11664
 20
4.77542
 30
0.0
 10
-2.7221
 20
6.7337
 30
0.0
 10
-2.55058
 20
6.76398
 30
0.0
 10
-2.55058
 20
6.76398
 30
0.0
 10
-2.55058
 20
6.76398
 30
0.0
 10
-2.40693
 20
6.54179
 30
0.0
 10
-2.40693
 20
6.54179
 30
0.0
 10
-2.40693
 20
6.54179
 30
0.0
 10
-2.74555
 20
6.32735
 30
0.0
 10
-5.94708
 20
4.47361
 30
0.0
 10
-6.03099
 20
4.51061
 30
0.0
 10
-6.03099
 20
4.51061
 30
0.0
 10
-6.09949
 20
4.54081
 30
0.0
 10
-6.16657
 20
4.66218
 30
0.0
 10
-6.13641
 20
4.7306
 30
0.0
  0
SPLINE
  5
6B
330
1F
100
AcDbEntity
  8
layer 1
 62
   186
100
AcDbSpline
210
0.0
220
0.0
230
1.0
 70
    11
 71
     3
 72
    28
 73
    24
 74
     0
 42
0.0000000001
 43
0.0000000001
 40
0.0
 40
0.0
 40
0.0
 40
0.0
 40
0.1666666666666667
 40
0.1666666666666667
 40
0.1666666666666667
 40
0.1666666666666667
 40
0.3333333333333333
 40
0.3333333333333333
 40
0.3333333333333333
 40
0.3333333333333333
 40
0.5
 40
0.5
 40
0.5
 40
0.5
 40
0.6666666666666666
 40
0.6666666666666666
 40
0.6666666666666666
 40
0.6666666666666666
 40
0.8333333333333333
 40
0.8333333333333333
 40
0.8333333333333333
 40
0.8333333333333333
 40
1.0
 40
1.0
 40
1.0
 40
1.0
 10
-3.62358
 20
7.98502
 30
0.0
 10
-3.62358
 20
7.98502
 30
0.0
 10
-3.53192
 20
7.94852
 30
0.0
 10
-3.53192
 20
7.94852
 30
0.0
 10
-3.53192
 20
7.94852
 30
0.0
 10
-3.45758
 20
7.91575
 30
0.0
 10
-3.39655
 20
7.86206
 30
0.0
 10
-3.42936
 20
7.78764
 30
0.0
 10
-3.42936
 20
7.78764
 30
0.0
 10
-3.49288
 20
7.64357
 30
0.0
 10
-4.80167
 20
6.60474
 30
0.0
 10
-5.01039
 20
6.43173
 30
0.0
 10
-5.01039
 20
6.43173
 30
0.0
 10
-5.18265
 20
6.28895
 30
0.0
 10
-6.51387
 20
5.12836
 30
0.0
 10
-6.60782
 20
5.16979
 30
0.0
 10
-6.60782
 20
5.16979
 30
0.0
 10
-6.68264
 20
5.20279
 30
0.0
 10
-6.73676
 20
5.31195
 30
0.0
 10
-6.74978
 20
5.37823
 30
0.0
 10
-6.74978
 20
5.37823
 30
0.0
 10
-6.74978
 20
5.37823
 30
0.0
 10
-3.62358
 20
7.98502
 30
0.0
 10
-3.62358
 20
7.98502
 30
0.0
  0
SPLINE
  5
6C
330
1F
100
AcDbEntity
  8
layer 1
 62
   186
100
AcDbSpline
210
0.0
220
0.0
230
1.0
 70
    11
 71
     3
 72
   252
 73
   248
 74
     0
 42
0.0000000001
 43
0.0000000001
 40
0.0
 40
0.0
 40
0.0
 40
0.0
 40
0.0161290322580645
 40
0.0161290322580645
 40
0.0161290322580645
 40
0.0161290322580645
 40
0.032258064516129
 40
0.032258064516129
 40
0.032258064516129
 40
0.032258064516129
 40
0.0483870967741935
 40
0.0483870967741935
 40
0.0483870967741935
 40
0.0483870967741935
 40
0.0645161290322581
 40
0.0645161290322581
 40
0.0645161290322581
 40
0.0645161290322581
 40
0.0806451612903226
 40
0.0806451612903226
 40
0.0806451612903226
 40
0.0806451612903226
 40
0.0967741935483871
 40
0.0967741935483871
 40
0.0967741935483871
 40
0.0967741935483871
 40
0.1129032258064516
 40
0.1129032258064516
 40
0.1129032258064516
 40
0.1129032258064516
 40
0.1290322580645161
 40
0.1290322580645161
 40
0.1290322580645161
 40
0.1290322580645161
 40
0.1451612903225806
 40
0.1451612903225806
 40
0.1451612903225806
 40
0.1451612903225806
 40
0.1612903225806451
 40
0.1612903225806451
 40
0.1612903225806451
 40
0.1612903225806451
 40
0.1774193548387096
 40
0.1774193548387096
 40
0.1774193548387096
 40
0.1774193548387096
 40
0.1935483870967741
 40
0.1935483870967741
 40
0.1935483870967741
 40
0.1935483870967741
 40
0.2096774193548386
 40
0.2096774193548386
 40
0.2096774193548386
 40
0.2096774193548386
 40
0.2258064516129031
 40
0.2258064516129031
 40
0.2258064516129031
 40
0.2258064516129031
 40
0.2419354838709676
 40
0.2419354838709676
 40
0.2419354838709676
 40
0.2419354838709676
 40
0.2580645161290321
 40
0.2580645161290321
 40
0.2580645161290321
 40
0.2580645161290321
 40
0.2741935483870966
 40
0.2741935483870966
 40
0.2741935483870966
 40
0.2741935483870966
 40
0.2903225806451611
 40
0.2903225806451611
 40
0.2903225806451611
 40
0.2903225806451611
 40
0.3064516129032256
 40
0.3064516129032256
 40
0.3064516129032256
 40
0.3064516129032256
 40
0.3225806451612901
 40
0.3225806451612901
 40
0.3225806451612901
 40
0.3225806451612901
 40
0.3387096774193546
 40
0.3387096774193546
 40
0.3387096774193546
 40
0.3387096774193546
 40
0.3548387096774192
 40
0.3548387096774192
 40
0.3548387096774192
 40
0.3548387096774192
 40
0.3709677419354837
 40
0.3709677419354837
 40
0.3709677419354837
 40
0.3709677419354837
 40
0.3870967741935482
 40
0.3870967741935482
 40
0.3870967741935482
 40
0.3870967741935482
 40
0.4032258064516127
 40
0.4032258064516127
 40
0.4032258064516127
 40
0.4032258064516127
 40
0.4193548387096772
 40
0.4193548387096772
 40
0.4193548387096772
 40
0.4193548387096772
 40
0.4354838709677417
 40
0.4354838709677417
 40
0.4354838709677417
 40
0.4354838709677417
 40
0.4516129032258062
 40
0.4516129032258062
 40
0.4516129032258062
 40
0.4516129032258062
 40
0.4677419354838707
 40
0.4677419354838707
 40
0.4677419354838707
 40
0.4677419354838707
 40
0.4838709677419352
 40
0.4838709677419352
 40
0.4838709677419352
 40
0.4838709677419352
 40
0.4999999999999997
 40
0.4999999999999997
 40
0.4999999999999997
 40
0.4999999999999997
 40
0.5161290322580642
 40
0.5161290322580642
 40
0.5161290322580642
 40
0.5161290322580642
 40
0.5322580645161287
 40
0.5322580645161287
 40
0.5322580645161287
 40
0.5322580645161287
 40
0.5483870967741932
 40
0.5483870967741932
 40
0.5483870967741932
 40
0.5483870967741932
 40
0.5645161290322577
 40
0.5645161290322577
 40
0.5645161290322577
 40
0.5645161290322577
 40
0.5806451612903222
 40
0.5806451612903222
 40
0.5806451612903222
 40
0.5806451612903222
 40
0.5967741935483867
 40
0.5967741935483867
 40
0.5967741935483867
 40
0.5967741935483867
 40
0.6129032258064512
 40
0.6129032258064512
 40
0.6129032258064512
 40
0.6129032258064512
 40
0.6290322580645157
 40
0.6290322580645157
 40
0.6290322580645157
 40
0.6290322580645157
 40
0.6451612903225802
 40
0.6451612903225802
 40
0.6451612903225802
 40
0.6451612903225802
 40
0.6612903225806447
 40
0.6612903225806447
 40
0.6612903225806447
 40
0.6612903225806447
 40
0.6774193548387092
 40
0.6774193548387092
 40
0.6774193548387092
 40
0.6774193548387092
 40
0.6935483870967737
 40
0.6935483870967737
 40
0.6935483870967737
 40
0.6935483870967737
 40
0.7096774193548382
 40
0.7096774193548382
 40
0.7096774193548382
 40
0.7096774193548382
 40
0.7258064516129027
 40
0.7258064516129027
 40
0.7258064516129027
 40
0.7258064516129027
 40
0.7419354838709672
 40
0.7419354838709672
 40
0.7419354838709672
 40
0.7419354838709672
 40
0.7580645161290317
 40
0.7580645161290317
 40
0.7580645161290317
 40
0.7580645161290317
 40
0.7741935483870962
 40
0.7741935483870962
 40
0.7741935483870962
 40
0.7741935483870962
 40
0.7903225806451607
 40
0.7903225806451607
 40
0.7903225806451607
 40
0.7903225806451607
 40
0.8064516129032252
 40
0.8064516129032252
 40
0.8064516129032252
 40
0.8064516129032252
 40
0.8225806451612897
 40
0.8225806451612897
 40
0.8225806451612897
 40
0.8225806451612897
 40
0.8387096774193542
 40
0.8387096774193542
 40
0.8387096774193542
 40
0.8387096774193542
 40
0.8548387096774187
 40
0.8548387096774187
 40
0.8548387096774187
 40
0.8548387096774187
 40
0.8709677419354832
 40
0.8709677419354832
 40
0.8709677419354832
 40
0.8709677419354832
 40
0.8870967741935477
 40
0.8870967741935477
 40
0.8870967741935477
 40
0.8870967741935477
 40
0.9032258064516122
 40
0.9032258064516122
 40
0.9032258064516122
 40
0.9032258064516122
 40
0.9193548387096767
 40
0.9193548387096767
 40
0.9193548387096767
 40
0.9193548387096767
 40
0.9354838709677412
 40
0.9354838709677412
 40
0.9354838709677412
 40
0.9354838709677412
 40
0.9516129032258057
 40
0.9516129032258057
 40
0.9516129032258057
 40
0.9516129032258057
 40
0.9677419354838702
 40
0.9677419354838702
 40
0.9677419354838702
 40
0.9677419354838702
 40
0.9838709677419347
 40
0.9838709677419347
 40
0.9838709677419347
 40
0.9838709677419347
 40
1.0
 40
1.0
 40
1.0
 40
1.0
 10
-6.94465
 20
5.52073
 30
0.0
 10
-6.94465
 20
5.52073
 30
0.0
 10
-6.98735
 20
5.42389
 30
0.0
 10
-6.98735
 20
5.42389
 30
0.0
 10
-6.98735
 20
5.42389
 30
0.0
 10
-7.06138
 20
5.25599
 30
0.0
 10
-6.87619
 20
4.99896
 30
0.0
 10
-6.71457
 20
4.92769
 30
0.0
 10
-6.71457
 20
4.92769
 30
0.0
 10
-6.49225
 20
4.82966
 30
0.0
 10
-6.3773
 20
4.98561
 30
0.0
 10
-6.22334
 20
5.05808
 30
0.0
 10
-6.22334
 20
5.05808
 30
0.0
 10
-6.28283
 20
4.94876
 30
0.0
 10
-6.32454
 20
4.95971
 30
0.0
 10
-6.3785
 20
4.83734
 30
0.0
 10
-6.3785
 20
4.83734
 30
0.0
 10
-6.3785
 20
4.83734
 30
0.0
 10
-6.38918
 20
4.81313
 30
0.0
 10
-6.38918
 20
4.81313
 30
0.0
 10
-6.38918
 20
4.81313
 30
0.0
 10
-6.4605
 20
4.65137
 30
0.0
 10
-6.31118
 20
4.34499
 30
0.0
 10
-6.13774
 20
4.26853
 30
0.0
 10
-6.13774
 20
4.26853
 30
0.0
 10
-5.93483
 20
4.17905
 30
0.0
 10
-5.59655
 20
4.42203
 30
0.0
 10
-5.43023
 20
4.51388
 30
0.0
 10
-5.43023
 20
4.51388
 30
0.0
 10
-5.33106
 20
4.56864
 30
0.0
 10
-4.79463
 20
4.85918
 30
0.0
 10
-4.74832
 20
4.91425
 30
0.0
 10
-4.74832
 20
4.91425
 30
0.0
 10
-4.74832
 20
4.91425
 30
0.0
 10
-4.51096
 20
4.67893
 30
0.0
 10
-4.51096
 20
4.67893
 30
0.0
 10
-4.51096
 20
4.67893
 30
0.0
 10
-4.68775
 20
4.35401
 30
0.0
 10
-5.26568
 20
3.88541
 30
0.0
 10
-5.39431
 20
3.59371
 30
0.0
 10
-5.39431
 20
3.59371
 30
0.0
 10
-5.45573
 20
3.45441
 30
0.0
 10
-5.30554
 20
3.14975
 30
0.0
 10
-5.15641
 20
3.08398
 30
0.0
 10
-5.15641
 20
3.08398
 30
0.0
 10
-5.15641
 20
3.08398
 30
0.0
 10
-5.10799
 20
3.06263
 30
0.0
 10
-5.10799
 20
3.06263
 30
0.0
 10
-5.10799
 20
3.06263
 30
0.0
 10
-4.79807
 20
2.92597
 30
0.0
 10
-3.8917
 20
3.7408
 30
0.0
 10
-3.71549
 20
3.6631
 30
0.0
 10
-3.71549
 20
3.6631
 30
0.0
 10
-3.71549
 20
3.6631
 30
0.0
 10
-3.69127
 20
3.65243
 30
0.0
 10
-3.69127
 20
3.65243
 30
0.0
 10
-3.69127
 20
3.65243
 30
0.0
 10
-3.59436
 20
3.60969
 30
0.0
 10
-3.59296
 20
3.54948
 30
0.0
 10
-3.50541
 20
3.48373
 30
0.0
 10
-3.50541
 20
3.48373
 30
0.0
 10
-3.68755
 20
3.24123
 30
0.0
 10
-4.26826
 20
2.60621
 30
0.0
 10
-4.35388
 20
2.41204
 30
0.0
 10
-4.35388
 20
2.41204
 30
0.0
 10
-4.44106
 20
2.21432
 30
0.0
 10
-4.29959
 20
1.92544
 30
0.0
 10
-4.11312
 20
1.84321
 30
0.0
 10
-4.11312
 20
1.84321
 30
0.0
 10
-3.80259
 20
1.70629
 30
0.0
 10
-3.02847
 20
2.41165
 30
0.0
 10
-2.70344
 20
2.4741
 30
0.0
 10
-2.70344
 20
2.4741
 30
0.0
 10
-2.70344
 20
2.4741
 30
0.0
 10
-2.48633
 20
2.25362
 30
0.0
 10
-2.48633
 20
2.25362
 30
0.0
 10
-2.48633
 20
2.25362
 30
0.0
 10
-2.63921
 20
1.97267
 30
0.0
 10
-3.25053
 20
1.43865
 30
0.0
 10
-3.34833
 20
1.21682
 30
0.0
 10
-3.34833
 20
1.21682
 30
0.0
 10
-3.34833
 20
1.21682
 30
0.0
 10
-3.35901
 20
1.19261
 30
0.0
 10
-3.35901
 20
1.19261
 30
0.0
 10
-3.35901
 20
1.19261
 30
0.0
 10
-3.4324
 20
1.02618
 30
0.0
 10
-3.29088
 20
0.72882
 30
0.0
 10
-3.13179
 20
0.65867
 30
0.0
 10
-3.13179
 20
0.65867
 30
0.0
 10
-3.13179
 20
0.65867
 30
0.0
 10
-3.03494
 20
0.61597
 30
0.0
 10
-3.03494
 20
0.61597
 30
0.0
 10
-3.03494
 20
0.61597
 30
0.0
 10
-2.83541
 20
0.52799
 30
0.0
 10
-1.83204
 20
1.30004
 30
0.0
 10
-1.71506
 20
1.24847
 30
0.0
 10
-1.71506
 20
1.24847
 30
0.0
 10
-1.71506
 20
1.24847
 30
0.0
 10
-1.69086
 20
1.23779
 30
0.0
 10
-1.69086
 20
1.23779
 30
0.0
 10
-1.69086
 20
1.23779
 30
0.0
 10
-1.59394
 20
1.19506
 30
0.0
 10
-1.59254
 20
1.13484
 30
0.0
 10
-1.505
 20
1.06909
 30
0.0
 10
-1.505
 20
1.06909
 30
0.0
 10
-1.505
 20
1.06909
 30
0.0
 10
-1.53702
 20
0.99646
 30
0.0
 10
-1.53702
 20
0.99646
 30
0.0
 10
-1.53702
 20
0.99646
 30
0.0
 10
-1.63971
 20
0.76359
 30
0.0
 10
-2.26231
 20
0.20412
 30
0.0
 10
-2.3428
 20
0.02161
 30
0.0
 10
-2.3428
 20
0.02161
 30
0.0
 10
-2.3428
 20
0.02161
 30
0.0
 10
-2.39617
 20
-0.09944
 30
0.0
 10
-2.39617
 20
-0.09944
 30
0.0
 10
-2.39617
 20
-0.09944
 30
0.0
 10
-2.45173
 20
-0.22545
 30
0.0
 10
-2.26204
 20
-0.53449
 30
0.0
 10
-2.12338
 20
-0.59563
 30
0.0
 10
-2.12338
 20
-0.59563
 30
0.0
 10
-1.90728
 20
-0.82845
 30
0.0
 10
1.10171
 20
1.84581
 30
0.0
 10
1.39325
 20
2.13334
 30
0.0
 10
1.39325
 20
2.13334
 30
0.0
 10
1.39325
 20
2.13334
 30
0.0
 10
1.42528
 20
2.20598
 30
0.0
 10
1.42528
 20
2.20598
 30
0.0
 10
1.42528
 20
2.20598
 30
0.0
 10
1.50122
 20
2.3782
 30
0.0
 10
1.35934
 20
2.61096
 30
0.0
 10
1.1767
 20
2.69149
 30
0.0
 10
1.1767
 20
2.69149
 30
0.0
 10
1.1767
 20
2.69149
 30
0.0
 10
1.12828
 20
2.71284
 30
0.0
 10
1.12828
 20
2.71284
 30
0.0
 10
1.12828
 20
2.71284
 30
0.0
 10
0.92407
 20
2.80288
 30
0.0
 10
0.38697
 20
2.33351
 30
0.0
 10
0.24265
 20
2.26557
 30
0.0
 10
0.24265
 20
2.26557
 30
0.0
 10
0.30418
 20
2.37864
 30
0.0
 10
0.77658
 20
2.70218
 30
0.0
 10
0.83777
 20
2.84093
 30
0.0
 10
0.83777
 20
2.84093
 30
0.0
 10
0.90576
 20
2.99513
 30
0.0
 10
0.74261
 20
3.31665
 30
0.0
 10
0.58634
 20
3.38556
 30
0.0
 10
0.58634
 20
3.38556
 30
0.0
 10
0.35585
 20
3.48719
 30
0.0
 10
-0.65066
 20
2.84007
 30
0.0
 10
-0.87269
 20
2.69926
 30
0.0
 10
-0.87269
 20
2.69926
 30
0.0
 10
-0.87269
 20
2.69926
 30
0.0
 10
-1.08601
 20
2.9374
 30
0.0
 10
-1.08601
 20
2.9374
 30
0.0
 10
-1.08601
 20
2.9374
 30
0.0
 10
-0.9197
 20
3.15883
 30
0.0
 10
-0.23796
 20
3.87699
 30
0.0
 10
-0.16777
 20
4.03615
 30
0.0
 10
-0.16777
 20
4.03615
 30
0.0
 10
-0.10075
 20
4.18816
 30
0.0
 10
-0.25771
 20
4.50955
 30
0.0
 10
-0.4192
 20
4.58076
 30
0.0
 10
-0.4192
 20
4.58076
 30
0.0
 10
-0.64286
 20
4.67938
 30
0.0
 10
-0.97351
 20
4.42293
 30
0.0
 10
-1.15972
 20
4.31703
 30
0.0
 10
-1.15972
 20
4.31703
 30
0.0
 10
-1.3705
 20
4.19712
 30
0.0
 10
-1.66472
 20
4.04917
 30
0.0
 10
-1.84374
 20
3.90767
 30
0.0
 10
-1.84374
 20
3.90767
 30
0.0
 10
-1.89591
 20
3.94685
 30
0.0
 10
-2.09571
 20
4.1232
 30
0.0
 10
-2.0702
 20
4.18103
 30
0.0
 10
-2.0702
 20
4.18103
 30
0.0
 10
-1.96734
 20
4.4143
 30
0.0
 10
-1.29462
 20
5.02186
 30
0.0
 10
-1.21887
 20
5.19362
 30
0.0
 10
-1.21887
 20
5.19362
 30
0.0
 10
-1.21887
 20
5.19362
 30
0.0
 10
-1.18685
 20
5.26625
 30
0.0
 10
-1.18685
 20
5.26625
 30
0.0
 10
-1.18685
 20
5.26625
 30
0.0
 10
-1.11442
 20
5.43051
 30
0.0
 10
-1.2453
 20
5.69685
 30
0.0
 10
-1.40055
 20
5.76531
 30
0.0
 10
-1.40055
 20
5.76531
 30
0.0
 10
-1.40055
 20
5.76531
 30
0.0
 10
-1.52159
 20
5.81868
 30
0.0
 10
-1.52159
 20
5.81868
 30
0.0
 10
-1.52159
 20
5.81868
 30
0.0
 10
-1.64293
 20
5.87218
 30
0.0
 10
-2.7571
 20
5.22867
 30
0.0
 10
-2.85468
 20
5.11079
 30
0.0
 10
-2.85468
 20
5.11079
 30
0.0
 10
-2.85468
 20
5.11079
 30
0.0
 10
-3.08642
 20
5.35203
 30
0.0
 10
-3.08642
 20
5.35203
 30
0.0
 10
-3.08642
 20
5.35203
 30
0.0
 10
-2.93206
 20
5.682
 30
0.0
 10
-2.31772
 20
6.17724
 30
0.0
 10
-2.20307
 20
6.43725
 30
0.0
 10
-2.20307
 20
6.43725
 30
0.0
 10
-2.20307
 20
6.43725
 30
0.0
 10
-2.18172
 20
6.48567
 30
0.0
 10
-2.18172
 20
6.48567
 30
0.0
 10
-2.18172
 20
6.48567
 30
0.0
 10
-2.11574
 20
6.6353
 30
0.0
 10
-2.26654
 20
6.89899
 30
0.0
 10
-2.40609
 20
6.96052
 30
0.0
 10
-2.40609
 20
6.96052
 30
0.0
 10
-2.40609
 20
6.96052
 30
0.0
 10
-2.50292
 20
7.00322
 30
0.0
 10
-2.50292
 20
7.00322
 30
0.0
 10
-2.50292
 20
7.00322
 30
0.0
 10
-2.75575
 20
7.11471
 30
0.0
 10
-3.79551
 20
6.30086
 30
0.0
 10
-3.89258
 20
6.34366
 30
0.0
 10
-3.89258
 20
6.34366
 30
0.0
 10
-3.94784
 20
6.36803
 30
0.0
 10
-4.01621
 20
6.49035
 30
0.0
 10
-4.09197
 20
6.54724
 30
0.0
 10
-4.09197
 20
6.54724
 30
0.0
 10
-3.93884
 20
6.8945
 30
0.0
 10
-3.3272
 20
7.36353
 30
0.0
 10
-3.17658
 20
7.7051
 30
0.0
 10
-3.17658
 20
7.7051
 30
0.0
 10
-3.17658
 20
7.7051
 30
0.0
 10
-3.16591
 20
7.7293
 30
0.0
 10
-3.16591
 20
7.7293
 30
0.0
 10
-3.16591
 20
7.7293
 30
0.0
 10
-3.07181
 20
7.9427
 30
0.0
 10
-3.31678
 20
8.10896
 30
0.0
 10
-3.42802
 20
8.24971
 30
0.0
 10
-3.42802
 20
8.24971
 30
0.0
 10
-3.78978
 20
8.31794
 30
0.0
 10
-4.08834
 20
7.91737
 30
0.0
 10
-4.35676
 20
7.69523
 30
0.0
 10
-4.35676
 20
7.69523
 30
0.0
 10
-4.65446
 20
7.44887
 30
0.0
 10
-4.92467
 20
7.22469
 30
0.0
 10
-5.22237
 20
6.97812
 30
0.0
 10
-5.22237
 20
6.97812
 30
0.0
 10
-5.41655
 20
6.8173
 30
0.0
 10
-6.9133
 20
5.59185
 30
0.0
 10
-6.94465
 20
5.52073
 30
0.0
  0
SPLINE
  5
6D
330
1F
100
AcDbEntity
  8
layer 1
 62
   186
100
AcDbSpline
210
0.0
220
0.0
230
1.0
 70
    11
 71
     3
 72
    36
 73
    32
 74
     0
 42
0.0000000001
 43
0.0000000001
 40
0.0
 40
0.0
 40
0.0
 40
0.0
 40
0.125
 40
0.125
 40
0.125
 40
0.125
 40
0.25
 40
0.25
 40
0.25
 40
0.25
 40
0.375
 40
0.375
 40
0.375
 40
0.375
 40
0.5
 40
0.5
 40
0.5
 40
0.5
 40
0.625
 40
0.625
 40
0.625
 40
0.625
 40
0.75
 40
0.75
 40
0.75
 40
0.75
 40
0.875
 40
0.875
 40
0.875
 40
0.875
 40
1.0
 40
1.0
 40
1.0
 40
1.0
 10
-5.29767
 20
8.20662
 30
0.0
 10
-5.29767
 20
8.20662
 30
0.0
 10
-5.57323
 20
8.40943
 30
0.0
 10
-5.57323
 20
8.40943
 30
0.0
 10
-5.57323
 20
8.40943
 30
0.0
 10
-5.57323
 20
8.40943
 30
0.0
 10
-6.7637
 20
7.40764
 30
0.0
 10
-6.7637
 20
7.40764
 30
0.0
 10
-6.7637
 20
7.40764
 30
0.0
 10
-6.7637
 20
7.40764
 30
0.0
 10
-6.62547
 20
7.10199
 30
0.0
 10
-6.62547
 20
7.10199
 30
0.0
 10
-6.62547
 20
7.10199
 30
0.0
 10
-6.62547
 20
7.10199
 30
0.0
 10
-7.57805
 20
6.27056
 30
0.0
 10
-7.57805
 20
6.27056
 30
0.0
 10
-7.57805
 20
6.27056
 30
0.0
 10
-7.57805
 20
6.27056
 30
0.0
 10
-7.04625
 20
5.63678
 30
0.0
 10
-7.04625
 20
5.63678
 30
0.0
 10
-7.04625
 20
5.63678
 30
0.0
 10
-7.04625
 20
5.63678
 30
0.0
 10
-3.85963
 20
8.30693
 30
0.0
 10
-3.85963
 20
8.30693
 30
0.0
 10
-3.85963
 20
8.30693
 30
0.0
 10
-3.85963
 20
8.30693
 30
0.0
 10
-4.38758
 20
8.93067
 30
0.0
 10
-4.38758
 20
8.93067
 30
0.0
 10
-4.38758
 20
8.93067
 30
0.0
 10
-4.38758
 20
8.93067
 30
0.0
 10
-5.29767
 20
8.20662
 30
0.0
 10
-5.29767
 20
8.20662
 30
0.0
  0
SPLINE
  5
6E
330
1F
100
AcDbEntity
  8
layer 1
 62
   186
100
AcDbSpline
210
0.0
220
0.0
230
1.0
 70
    11
 71
     3
 72
    20
 73
    16
 74
     0
 42
0.0000000001
 43
0.0000000001
 40
0.0
 40
0.0
 40
0.0
 40
0.0
 40
0.25
 40
0.25
 40
0.25
 40
0.25
 40
0.5
 40
0.5
 40
0.5
 40
0.5
 40
0.75
 40
0.75
 40
0.75
 40
0.75
 40
1.0
 40
1.0
 40
1.0
 40
1.0
 10
-1.25805
 20
-1.26155
 30
0.0
 10
-1.25805
 20
-1.26155
 30
0.0
 10
-0.93875
 20
-1.64218
 30
0.0
 10
-0.93875
 20
-1.64218
 30
0.0
 10
-0.93875
 20
-1.64218
 30
0.0
 10
-0.93875
 20
-1.64218
 30
0.0
 10
2.24
 20
1.03707
 30
0.0
 10
2.24
 20
1.03707
 30
0.0
 10
2.24
 20
1.03707
 30
0.0
 10
2.24
 20
1.03707
 30
0.0
 10
1.90031
 20
1.44711
 30
0.0
 10
1.90031
 20
1.44711
 30
0.0
 10
1.90031
 20
1.44711
 30
0.0
 10
1.90031
 20
1.44711
 30
0.0
 10
-1.25805
 20
-1.26155
 30
0.0
 10
-1.25805
 20
-1.26155
 30
0.0
  0
SPLINE
  5
6F
330
1F
100
AcDbEntity
  8
layer 1
 62
   186
100
AcDbSpline
210
0.0
220
0.0
230
1.0
 70
    11
 71
     3
 72
    20
 73
    16
 74
     0
 42
0.0000000001
 43
0.0000000001
 40
0.0
 40
0.0
 40
0.0
 40
0.0
 40
0.25
 40
0.25
 40
0.25
 40
0.25
 40
0.5
 40
0.5
 40
0.5
 40
0.5
 40
0.75
 40
0.75
 40
0.75
 40
0.75
 40
1.0
 40
1.0
 40
1.0
 40
1.0
 10
-1.72887
 20
-0.69383
 30
0.0
 10
-1.72887
 20
-0.69383
 30
0.0
 10
-1.39598
 20
-1.09271
 30
0.0
 10
-1.39598
 20
-1.09271
 30
0.0
 10
-1.39598
 20
-1.09271
 30
0.0
 10
-1.39598
 20
-1.09271
 30
0.0
 10
1.78174
 20
1.589
 30
0.0
 10
1.78174
 20
1.589
 30
0.0
 10
1.78174
 20
1.589
 30
0.0
 10
1.78174
 20
1.589
 30
0.0
 10
1.46166
 20
1.96931
 30
0.0
 10
1.46166
 20
1.96931
 30
0.0
 10
1.46166
 20
1.96931
 30
0.0
 10
1.46166
 20
1.96931
 30
0.0
 10
-1.72887
 20
-0.69383
 30
0.0
 10
-1.72887
 20
-0.69383
 30
0.0
  0
ENDSEC
  0
SECTION
  2
OBJECTS
  0
DICTIONARY
  5
C
330
0
100
AcDbDictionary
281
     1
  3
ACAD_GROUP
350
D
  3
ACAD_LAYOUT
350
1A
  3
ACAD_MLEADERSTYLE
350
71
  3
ACAD_MLINESTYLE
350
17
  3
ACAD_PLOTSETTINGS
350
19
  3
ACAD_PLOTSTYLENAME
350
E
  3
ACAD_SCALELIST
350
3B
  3
ACAD_TABLESTYLE
350
70
  3
ACAD_VISUALSTYLE
350
2A
  0
DICTIONARY
  5
D
102
{ACAD_REACTORS
330
C
102
}
330
C
100
AcDbDictionary
281
     1
  0
DICTIONARY
  5
1A
102
{ACAD_REACTORS
330
C
102
}
330
C
100
AcDbDictionary
281
     1
  3
Layout1
350
1E
  3
Layout2
350
26
  3
Model
350
22
  0
DICTIONARY
  5
71
102
{ACAD_REACTORS
330
C
102
}
330
C
100
AcDbDictionary
281
     1
  0
DICTIONARY
  5
17
102
{ACAD_REACTORS
330
C
102
}
330
C
100
AcDbDictionary
281
     1
  3
Standard
350
18
  0
DICTIONARY
  5
19
102
{ACAD_REACTORS
330
C
102
}
330
C
100
AcDbDictionary
281
     1
  0
ACDBDICTIONARYWDFLT
  5
E
102
{ACAD_REACTORS
330
C
102
}
330
C
100
AcDbDictionary
281
     1
  3
Normal
350
F
100
AcDbDictionaryWithDefault
340
F
  0
DICTIONARY
  5
3B
102
{ACAD_REACTORS
330
C
102
}
330
C
100
AcDbDictionary
281
     1
  3
A0
350
3C
  3
A1
350
3D
  3
A2
350
3E
  3
A3
350
3F
  3
A4
350
40
  3
A5
350
41
  3
A6
350
42
  3
A7
350
43
  3
A8
350
44
  3
A9
350
45
  3
B0
350
46
  3
B1
350
47
  3
B2
350
48
  3
B3
350
49
  3
B4
350
4A
  3
B5
350
4B
  3
B6
350
4C
  3
B7
350
4D
  3
B8
350
4E
  3
B9
350
4F
  3
C0
350
50
  3
C1
350
51
  3
C2
350
52
  3
C3
350
53
  3
C4
350
54
  3
C5
350
55
  3
C6
350
56
  3
C7
350
57
  3
C8
350
58
  3
C9
350
59
  3
D0
350
5A
  3
D1
350
5B
  3
D2
350
5C
  0
DICTIONARY
  5
70
102
{ACAD_REACTORS
330
C
102
}
330
C
100
AcDbDictionary
281
     1
  0
DICTIONARY
  5
2A
102
{ACAD_REACTORS
330
C
102
}
330
C
100
AcDbDictionary
281
     1
  3
2dWireframe
350
2F
  3
3D Hidden
350
31
  3
3dWireframe
350
30
  3
Basic
350
32
  3
Brighten
350
36
  3
ColorChange
350
3A
  3
Conceptual
350
34
  3
Dim
350
35
  3
Facepattern
350
39
  3
Flat
350
2B
  3
FlatWithEdges
350
2C
  3
Gouraud
350
2D
  3
GouraudWithEdges
350
2E
  3
Linepattern
350
38
  3
Realistic
350
33
  3
Thicken
350
37
  0
LAYOUT
  5
1E
102
{ACAD_REACTORS
330
1A
102
}
330
1A
100
AcDbPlotSettings
  1

  2
none_device
  4

  6

 40
0.0
 41
0.0
 42
0.0
 43
0.0
 44
0.0
 45
0.0
 46
0.0
 47
0.0
 48
0.0
 49
0.0
140
0.0
141
0.0
142
1.0
143
1.0
 70
   688
 72
     0
 73
     0
 74
     5
  7

 75
    16
 76
     0
 77
     2
 78
   300
147
1.0
148
0.0
149
0.0
100
AcDbLayout
  1
Layout1
 70
     1
 71
     1
 10
0.0
 20
0.0
 11
12.0
 21
9.0
 12
0.0
 22
0.0
 32
0.0
 14
1.000000000000000E+20
 24
1.000000000000000E+20
 34
1.000000000000000E+20
 15
-1.000000000000000E+20
 25
-1.000000000000000E+20
 35
-1.000000000000000E+20
146
0.0
 13
0.0
 23
0.0
 33
0.0
 16
1.0
 26
0.0
 36
0.0
 17
0.0
 27
1.0
 37
0.0
 76
     0
330
1B
  0
LAYOUT
  5
26
102
{ACAD_REACTORS
330
1A
102
}
330
1A
100
AcDbPlotSettings
  1

  2
none_device
  4

  6

 40
0.0
 41
0.0
 42
0.0
 43
0.0
 44
0.0
 45
0.0
 46
0.0
 47
0.0
 48
0.0
 49
0.0
140
0.0
141
0.0
142
1.0
143
1.0
 70
   688
 72
     0
 73
     0
 74
     5
  7

 75
    16
 76
     0
 77
     2
 78
   300
147
1.0
148
0.0
149
0.0
100
AcDbLayout
  1
Layout2
 70
     1
 71
     2
 10
0.0
 20
0.0
 11
0.0
 21
0.0
 12
0.0
 22
0.0
 32
0.0
 14
0.0
 24
0.0
 34
0.0
 15
0.0
 25
0.0
 35
0.0
146
0.0
 13
0.0
 23
0.0
 33
0.0
 16
1.0
 26
0.0
 36
0.0
 17
0.0
 27
1.0
 37
0.0
 76
     0
330
23
  0
LAYOUT
  5
22
102
{ACAD_REACTORS
330
1A
102
}
330
1A
100
AcDbPlotSettings
  1

  2
none_device
  4

  6

 40
0.0
 41
0.0
 42
0.0
 43
0.0
 44
0.0
 45
0.0
 46
0.0
 47
0.0
 48
0.0
 49
0.0
140
0.0
141
0.0
142
1.0
143
1.0
 70
  1712
 72
     0
 73
     0
 74
     0
  7

 75
     0
 76
     0
 77
     2
 78
   300
147
1.0
148
0.0
149
0.0
100
AcDbLayout
  1
Model
 70
     1
 71
     0
 10
0.0
 20
0.0
 11
12.0
 21
9.0
 12
0.0
 22
0.0
 32
0.0
 14
-7.57805
 24
-9.11855
 34
0.0
 15
8.27386
 25
8.93067
 35
0.0
146
0.0
 13
0.0
 23
0.0
 33
0.0
 16
1.0
 26
0.0
 36
0.0
 17
0.0
 27
1.0
 37
0.0
 76
     0
330
1F
331
29
  0
MLINESTYLE
  5
18
102
{ACAD_REACTORS
330
17
102
}
330
17
100
AcDbMlineStyle
  2
Standard
 70
     0
  3

 62
   256
 51
90.0
 52
90.0
 71
     2
 49
0.5
 62
   256
  6
BYLAYER
 49
-0.5
 62
   256
  6
BYLAYER
  0
ACDBPLACEHOLDER
  5
F
102
{ACAD_REACTORS
330
E
102
}
330
E
  0
SCALE
  5
3C
102
{ACAD_REACTORS
330
3B
102
}
330
3B
100
AcDbScale
 70
     0
300
1:1
140
1.0
141
1.0
290
     1
  0
SCALE
  5
3D
102
{ACAD_REACTORS
330
3B
102
}
330
3B
100
AcDbScale
 70
     0
300
1:2
140
1.0
141
2.0
290
     0
  0
SCALE
  5
3E
102
{ACAD_REACTORS
330
3B
102
}
330
3B
100
AcDbScale
 70
     0
300
1:4
140
1.0
141
4.0
290
     0
  0
SCALE
  5
3F
102
{ACAD_REACTORS
330
3B
102
}
330
3B
100
AcDbScale
 70
     0
300
1:5
140
1.0
141
5.0
290
     0
  0
SCALE
  5
40
102
{ACAD_REACTORS
330
3B
102
}
330
3B
100
AcDbScale
 70
     0
300
1:8
140
1.0
141
8.0
290
     0
  0
SCALE
  5
41
102
{ACAD_REACTORS
330
3B
102
}
330
3B
100
AcDbScale
 70
     0
300
1:10
140
1.0
141
10.0
290
     0
  0
SCALE
  5
42
102
{ACAD_REACTORS
330
3B
102
}
330
3B
100
AcDbScale
 70
     0
300
1:16
140
1.0
141
16.0
290
     0
  0
SCALE
  5
43
102
{ACAD_REACTORS
330
3B
102
}
330
3B
100
AcDbScale
 70
     0
300
1:20
140
1.0
141
20.0
290
     0
  0
SCALE
  5
44
102
{ACAD_REACTORS
330
3B
102
}
330
3B
100
AcDbScale
 70
     0
300
1:30
140
1.0
141
30.0
290
     0
  0
SCALE
  5
45
102
{ACAD_REACTORS
330
3B
102
}
330
3B
100
AcDbScale
 70
     0
300
1:40
140
1.0
141
40.0
290
     0
  0
SCALE
  5
46
102
{ACAD_REACTORS
330
3B
102
}
330
3B
100
AcDbScale
 70
     0
300
1:50
140
1.0
141
50.0
290
     0
  0
SCALE
  5
47
102
{ACAD_REACTORS
330
3B
102
}
330
3B
100
AcDbScale
 70
     0
300
1:100
140
1.0
141
100.0
290
     0
  0
SCALE
  5
48
102
{ACAD_REACTORS
330
3B
102
}
330
3B
100
AcDbScale
 70
     0
300
2:1
140
2.0
141
1.0
290
     0
  0
SCALE
  5
49
102
{ACAD_REACTORS
330
3B
102
}
330
3B
100
AcDbScale
 70
     0
300
4:1
140
4.0
141
1.0
290
     0
  0
SCALE
  5
4A
102
{ACAD_REACTORS
330
3B
102
}
330
3B
100
AcDbScale
 70
     0
300
8:1
140
8.0
141
1.0
290
     0
  0
SCALE
  5
4B
102
{ACAD_REACTORS
330
3B
102
}
330
3B
100
AcDbScale
 70
     0
300
10:1
140
10.0
141
1.0
290
     0
  0
SCALE
  5
4C
102
{ACAD_REACTORS
330
3B
102
}
330
3B
100
AcDbScale
 70
     0
300
100:1
140
100.0
141
1.0
290
     0
  0
SCALE
  5
4D
102
{ACAD_REACTORS
330
3B
102
}
330
3B
100
AcDbScale
 70
     0
300
1/128\" = 1\'-0\"
140
0.0078125
141
12.0
290
     0
  0
SCALE
  5
4E
102
{ACAD_REACTORS
330
3B
102
}
330
3B
100
AcDbScale
 70
     0
300
1/64\" = 1\'-0\"
140
0.015625
141
12.0
290
     0
  0
SCALE
  5
4F
102
{ACAD_REACTORS
330
3B
102
}
330
3B
100
AcDbScale
 70
     0
300
1/32\" = 1\'-0\"
140
0.03125
141
12.0
290
     0
  0
SCALE
  5
50
102
{ACAD_REACTORS
330
3B
102
}
330
3B
100
AcDbScale
 70
     0
300
1/16\" = 1\'-0\"
140
0.0625
141
12.0
290
     0
  0
SCALE
  5
51
102
{ACAD_REACTORS
330
3B
102
}
330
3B
100
AcDbScale
 70
     0
300
3/32\" = 1\'-0\"
140
0.09375
141
12.0
290
     0
  0
SCALE
  5
52
102
{ACAD_REACTORS
330
3B
102
}
330
3B
100
AcDbScale
 70
     0
300
1/8\" = 1\'-0\"
140
0.125
141
12.0
290
     0
  0
SCALE
  5
53
102
{ACAD_REACTORS
330
3B
102
}
330
3B
100
AcDbScale
 70
     0
300
3/16\" = 1\'-0\"
140
0.1875
141
12.0
290
     0
  0
SCALE
  5
54
102
{ACAD_REACTORS
330
3B
102
}
330
3B
100
AcDbScale
 70
     0
300
1/4\" = 1\'-0\"
140
0.25
141
12.0
290
     0
  0
SCALE
  5
55
102
{ACAD_REACTORS
330
3B
102
}
330
3B
100
AcDbScale
 70
     0
300
3/8\" = 1\'-0\"
140
0.375
141
12.0
290
     0
  0
SCALE
  5
56
102
{ACAD_REACTORS
330
3B
102
}
330
3B
100
AcDbScale
 70
     0
300
1/2\" = 1\'-0\"
140
0.5
141
12.0
290
     0
  0
SCALE
  5
57
102
{ACAD_REACTORS
330
3B
102
}
330
3B
100
AcDbScale
 70
     0
300
3/4\" = 1\'-0\"
140
0.75
141
12.0
290
     0
  0
SCALE
  5
58
102
{ACAD_REACTORS
330
3B
102
}
330
3B
100
AcDbScale
 70
     0
300
1\" = 1\'-0\"
140
1.0
141
12.0
290
     0
  0
SCALE
  5
59
102
{ACAD_REACTORS
330
3B
102
}
330
3B
100
AcDbScale
 70
     0
300
1-1/2\" = 1\'-0\"
140
1.5
141
12.0
290
     0
  0
SCALE
  5
5A
102
{ACAD_REACTORS
330
3B
102
}
330
3B
100
AcDbScale
 70
     0
300
3\" = 1\'-0\"
140
3.0
141
12.0
290
     0
  0
SCALE
  5
5B
102
{ACAD_REACTORS
330
3B
102
}
330
3B
100
AcDbScale
 70
     0
300
6\" = 1\'-0\"
140
6.0
141
12.0
290
     0
  0
SCALE
  5
5C
102
{ACAD_REACTORS
330
3B
102
}
330
3B
100
AcDbScale
 70
     0
300
1\'-0\" = 1\'-0\"
140
12.0
141
12.0
290
     0
  0
VISUALSTYLE
  5
2F
102
{ACAD_REACTORS
330
2A
102
}
330
2A
100
AcDbVisualStyle
  2
2dWireframe
 70
     4
 71
     0
 72
     2
 73
     0
 90
        0
 40
-0.6
 41
-30.0
 62
     5
 63
     7
421
 16777215
 74
     1
 91
        4
 64
     7
 65
   257
 75
     1
175
     1
 42
1.0
 92
        0
 66
   257
 43
1.0
 76
     1
 77
     6
 78
     2
 67
     7
 79
     5
170
     0
171
     0
290
     0
174
     0
 93
        1
 44
0.0
173
     0
291
     0
 45
0.0
  0
VISUALSTYLE
  5
31
102
{ACAD_REACTORS
330
2A
102
}
330
2A
100
AcDbVisualStyle
  2
3D Hidden
 70
     6
 71
     1
 72
     2
 73
     2
 90
        0
 40
-0.6
 41
-30.0
 62
     5
 63
     7
421
 16777215
 74
     2
 91
        2
 64
     7
 65
   257
 75
     2
175
     1
 42
40.0
 92
        0
 66
   257
 43
1.0
 76
     1
 77
     6
 78
     2
 67
     7
 79
     3
170
     0
171
     0
290
     0
174
     0
 93
        1
 44
0.0
173
     0
291
     0
 45
0.0
  0
VISUALSTYLE
  5
30
102
{ACAD_REACTORS
330
2A
102
}
330
2A
100
AcDbVisualStyle
  2
3dWireframe
 70
     5
 71
     0
 72
     2
 73
     0
 90
        0
 40
-0.6
 41
-30.0
 62
     5
 63
     7
421
 16777215
 74
     1
 91
        4
 64
     7
 65
   257
 75
     1
175
     1
 42
1.0
 92
        0
 66
   257
 43
1.0
 76
     1
 77
     6
 78
     2
 67
     7
 79
     5
170
     0
171
     0
290
     0
174
     0
 93
        1
 44
0.0
173
     0
291
     0
 45
0.0
  0
VISUALSTYLE
  5
32
102
{ACAD_REACTORS
330
2A
102
}
330
2A
100
AcDbVisualStyle
  2
Basic
 70
     7
 71
     1
 72
     0
 73
     1
 90
        0
 40
-0.6
 41
-30.0
 62
     5
 63
     7
421
 16777215
 74
     0
 91
        4
 64
     7
 65
   257
 75
     1
175
     1
 42
1.0
 92
        8
 66
     7
 43
1.0
 76
     1
 77
     6
 78
     2
 67
     7
 79
     5
170
     0
171
     0
290
     0
174
     0
 93
        1
 44
0.0
173
     0
291
     1
 45
0.0
  0
VISUALSTYLE
  5
36
102
{ACAD_REACTORS
330
2A
102
}
330
2A
100
AcDbVisualStyle
  2
Brighten
 70
    12
 71
     2
 72
     2
 73
     0
 90
        0
 40
-0.6
 41
-30.0
 62
     5
 63
     7
421
 16777215
 74
     1
 91
        4
 64
     7
 65
   257
 75
     1
175
     1
 42
1.0
 92
        8
 66
     7
 43
1.0
 76
     1
 77
     6
 78
     2
 67
     7
 79
     5
170
     0
171
     0
290
     0
174
     0
 93
        1
 44
50.0
173
     0
291
     1
 45
0.0
  0
VISUALSTYLE
  5
3A
102
{ACAD_REACTORS
330
2A
102
}
330
2A
100
AcDbVisualStyle
  2
ColorChange
 70
    16
 71
     2
 72
     2
 73
     3
 90
        0
 40
-0.6
 41
-30.0
 62
     5
 63
     8
421
  8421504
 74
     1
 91
        4
 64
     7
 65
   257
 75
     1
175
     1
 42
1.0
 92
        8
 66
     8
424
  8421504
 43
1.0
 76
     1
 77
     6
 78
     2
 67
     7
 79
     5
170
     0
171
     0
290
     0
174
     0
 93
        1
 44
0.0
173
     0
291
     1
 45
0.0
  0
VISUALSTYLE
  5
34
102
{ACAD_REACTORS
330
2A
102
}
330
2A
100
AcDbVisualStyle
  2
Conceptual
 70
     9
 71
     3
 72
     2
 73
     0
 90
        0
 40
-0.6
 41
-30.0
 62
     5
 63
     7
421
 16777215
 74
     2
 91
        2
 64
     7
 65
   257
 75
     1
175
     1
 42
40.0
 92
        8
 66
     7
 43
1.0
 76
     1
 77
     6
 78
     2
 67
     7
 79
     3
170
     0
171
     0
290
     0
174
     0
 93
        1
 44
0.0
173
     0
291
     0
 45
0.0
  0
VISUALSTYLE
  5
35
102
{ACAD_REACTORS
330
2A
102
}
330
2A
100
AcDbVisualStyle
  2
Dim
 70
    11
 71
     2
 72
     2
 73
     0
 90
        0
 40
-0.6
 41
-30.0
 62
     5
 63
     7
421
 16777215
 74
     1
 91
        4
 64
     7
 65
   257
 75
     1
175
     1
 42
1.0
 92
        8
 66
     7
 43
1.0
 76
     1
 77
     6
 78
     2
 67
     7
 79
     5
170
     0
171
     0
290
     0
174
     0
 93
        1
 44
-50.0
173
     0
291
     1
 45
0.0
  0
VISUALSTYLE
  5
39
102
{ACAD_REACTORS
330
2A
102
}
330
2A
100
AcDbVisualStyle
  2
Facepattern
 70
    15
 71
     2
 72
     2
 73
     0
 90
        0
 40
-0.6
 41
-30.0
 62
     5
 63
     7
421
 16777215
 74
     1
 91
        4
 64
     7
 65
   257
 75
     1
175
     1
 42
1.0
 92
        8
 66
     7
 43
1.0
 76
     1
 77
     6
 78
     2
 67
     7
 79
     5
170
     0
171
     0
290
     0
174
     0
 93
        1
 44
0.0
173
     0
291
     1
 45
0.0
  0
VISUALSTYLE
  5
2B
102
{ACAD_REACTORS
330
2A
102
}
330
2A
100
AcDbVisualStyle
  2
Flat
 70
     0
 71
     2
 72
     1
 73
     1
 90
        2
 40
-0.6
 41
30.0
 62
     5
 63
     7
421
 16777215
 74
     0
 91
        4
 64
     7
 65
   257
 75
     1
175
     1
 42
1.0
 92
        8
 66
     7
 43
1.0
 76
     1
 77
     6
 78
     2
 67
     7
 79
     5
170
     0
171
     0
290
     0
174
     0
 93
       13
 44
0.0
173
     0
291
     1
 45
0.0
  0
VISUALSTYLE
  5
2C
102
{ACAD_REACTORS
330
2A
102
}
330
2A
100
AcDbVisualStyle
  2
FlatWithEdges
 70
     1
 71
     2
 72
     1
 73
     1
 90
        2
 40
-0.6
 41
30.0
 62
     5
 63
     7
421
 16777215
 74
     1
 91
        4
 64
     7
 65
   257
 75
     1
175
     1
 42
1.0
 92
        0
 66
   257
 43
1.0
 76
     1
 77
     6
 78
     2
 67
     7
 79
     5
170
     0
171
     0
290
     0
174
     0
 93
       13
 44
0.0
173
     0
291
     1
 45
0.0
  0
VISUALSTYLE
  5
2D
102
{ACAD_REACTORS
330
2A
102
}
330
2A
100
AcDbVisualStyle
  2
Gouraud
 70
     2
 71
     2
 72
     2
 73
     1
 90
        2
 40
-0.6
 41
30.0
 62
     5
 63
     7
421
 16777215
 74
     0
 91
        4
 64
     7
 65
   257
 75
     1
175
     1
 42
1.0
 92
        0
 66
     7
 43
1.0
 76
     1
 77
     6
 78
     2
 67
     7
 79
     5
170
     0
171
     0
290
     0
174
     0
 93
       13
 44
0.0
173
     0
291
     1
 45
0.0
  0
VISUALSTYLE
  5
2E
102
{ACAD_REACTORS
330
2A
102
}
330
2A
100
AcDbVisualStyle
  2
GouraudWithEdges
 70
     3
 71
     2
 72
     2
 73
     1
 90
        2
 40
-0.6
 41
30.0
 62
     5
 63
     7
421
 16777215
 74
     1
 91
        4
 64
     7
 65
   257
 75
     1
175
     1
 42
1.0
 92
        0
 66
   257
 43
1.0
 76
     1
 77
     6
 78
     2
 67
     7
 79
     5
170
     0
171
     0
290
     0
174
     0
 93
       13
 44
0.0
173
     0
291
     1
 45
0.0
  0
VISUALSTYLE
  5
38
102
{ACAD_REACTORS
330
2A
102
}
330
2A
100
AcDbVisualStyle
  2
Linepattern
 70
    14
 71
     2
 72
     2
 73
     0
 90
        0
 40
-0.6
 41
-30.0
 62
     5
 63
     7
421
 16777215
 74
     1
 91
        4
 64
     7
 65
   257
 75
     7
175
     7
 42
1.0
 92
        8
 66
     7
 43
1.0
 76
     1
 77
     6
 78
     2
 67
     7
 79
     5
170
     0
171
     0
290
     0
174
     0
 93
        1
 44
0.0
173
     0
291
     1
 45
0.0
  0
VISUALSTYLE
  5
33
102
{ACAD_REACTORS
330
2A
102
}
330
2A
100
AcDbVisualStyle
  2
Realistic
 70
     8
 71
     2
 72
     2
 73
     0
 90
        0
 40
-0.6
 41
-30.0
 62
     5
 63
     7
421
 16777215
 74
     1
 91
        0
 64
     7
 65
   257
 75
     1
175
     1
 42
1.0
 92
        8
 66
     8
424
  7895160
 43
1.0
 76
     1
 77
     6
 78
     2
 67
     7
 79
     5
170
     0
171
     0
290
     0
174
     0
 93
       13
 44
0.0
173
     0
291
     0
 45
0.0
  0
VISUALSTYLE
  5
37
102
{ACAD_REACTORS
330
2A
102
}
330
2A
100
AcDbVisualStyle
  2
Thicken
 70
    13
 71
     2
 72
     2
 73
     0
 90
        0
 40
-0.6
 41
-30.0
 62
     5
 63
     7
421
 16777215
 74
     1
 91
        4
 64
     7
 65
   257
 75
     1
175
     1
 42
1.0
 92
       12
 66
     7
 43
1.0
 76
     1
 77
     6
 78
     2
 67
     7
 79
     5
170
     0
171
     0
290
     0
174
     0
 93
        1
 44
0.0
173
     0
291
     1
 45
0.0
  0
ENDSEC
  0
EOF
