  0
SECTION
  2
HEADER
  9
$EXTMIN
 10
0.000000
 20
0.000000
  9
$EXTMAX
 10
3.472222
 20
3.472222
  9
$LTSCALE
 40
100.000000
  9
$PDMODE
 70
35
  9
$PDSIZE
 40
80.000000
  0
ENDSEC
  0
SECTION
  2
TABLES
  0
TABLE
  2
LAYER
 70
1
  0
LAYER
  2
LAYER_1
 70
0
 62
1
  6
CONTINUOUS
  0
ENDTAB
  0
ENDSEC
  0
SECTION
  2
BLOCKS
  0
ENDSEC
  0
SECTION
  2
ENTITIES
  0
POLYLINE
  8
LAYER_1
 62
7
 70
1
 66
1
  0
VERTEX
  8
LAYER_1
 62
7
 10
1.756021
 20
0.240860
  0
VERTEX
  8
LAYER_1
 62
7
 10
1.759554
 20
0.298580
 42
0.052029
  0
VERTEX
  8
LAYER_1
 62
7
 10
1.755116
 20
0.355326
 42
0.084414
  0
VERTEX
  8
LAYER_1
 62
7
 10
1.748519
 20
0.371997
  0
VERTEX
  8
LAYER_1
 62
7
 10
1.740397
 20
0.385497
 42
-0.158769
  0
VERTEX
  8
LAYER_1
 62
7
 10
1.737349
 20
0.397980
 42
-0.106903
  0
VERTEX
  8
LAYER_1
 62
7
 10
1.739790
 20
0.404514
 42
-0.071721
  0
VERTEX
  8
LAYER_1
 62
7
 10
1.745975
 20
0.411601
 42
0.238145
  0
VERTEX
  8
LAYER_1
 62
7
 10
1.758696
 20
0.443405
 42
0.034672
  0
VERTEX
  8
LAYER_1
 62
7
 10
1.756566
 20
0.461315
  0
VERTEX
  8
LAYER_1
 62
7
 10
1.753635
 20
0.479833
 42
0.183571
  0
VERTEX
  8
LAYER_1
 62
7
 10
1.738098
 20
0.511174
 42
0.109875
  0
VERTEX
  8
LAYER_1
 62
7
 10
1.706618
 20
0.528445
 42
0.047092
  0
VERTEX
  8
LAYER_1
 62
7
 10
1.668285
 20
0.536325
  0
VERTEX
  8
LAYER_1
 62
7
 10
1.632190
 20
0.539493
 42
-0.005306
  0
VERTEX
  8
LAYER_1
 62
7
 10
1.594665
 20
0.546372
 42
0.103192
  0
VERTEX
  8
LAYER_1
 62
7
 10
1.576605
 20
0.545382
 42
0.200842
  0
VERTEX
  8
LAYER_1
 62
7
 10
1.563360
 20
0.534497
 42
0.113437
  0
VERTEX
  8
LAYER_1
 62
7
 10
1.554888
 20
0.499874
 42
-0.070854
  0
VERTEX
  8
LAYER_1
 62
7
 10
1.549173
 20
0.463648
  0
VERTEX
  8
LAYER_1
 62
7
 10
1.539295
 20
0.428876
  0
VERTEX
  8
LAYER_1
 62
7
 10
1.533080
 20
0.395701
 42
-0.049006
  0
VERTEX
  8
LAYER_1
 62
7
 10
1.515339
 20
0.324567
 42
0.131888
  0
VERTEX
  8
LAYER_1
 62
7
 10
1.510717
 20
0.289884
 42
0.171415
  0
VERTEX
  8
LAYER_1
 62
7
 10
1.524195
 20
0.265388
 42
0.115485
  0
VERTEX
  8
LAYER_1
 62
7
 10
1.552283
 20
0.250785
 42
0.066973
  0
VERTEX
  8
LAYER_1
 62
7
 10
1.591490
 20
0.245780
 42
0.095070
  0
VERTEX
  8
LAYER_1
 62
7
 10
1.608927
 20
0.248546
 42
0.126072
  0
VERTEX
  8
LAYER_1
 62
7
 10
1.620209
 20
0.256477
 42
0.143484
  0
VERTEX
  8
LAYER_1
 62
7
 10
1.630066
 20
0.283884
 42
-0.054567
  0
VERTEX
  8
LAYER_1
 62
7
 10
1.639264
 20
0.357186
 42
-0.086234
  0
VERTEX
  8
LAYER_1
 62
7
 10
1.642609
 20
0.363560
 42
-0.085319
  0
VERTEX
  8
LAYER_1
 62
7
 10
1.644368
 20
0.365097
 42
-0.121223
  0
VERTEX
  8
LAYER_1
 62
7
 10
1.646139
 20
0.365650
 42
-0.205549
  0
VERTEX
  8
LAYER_1
 62
7
 10
1.649581
 20
0.364140
 42
-0.087903
  0
VERTEX
  8
LAYER_1
 62
7
 10
1.652657
 20
0.359716
 42
-0.153477
  0
VERTEX
  8
LAYER_1
 62
7
 10
1.655803
 20
0.326568
 42
0.132651
  0
VERTEX
  8
LAYER_1
 62
7
 10
1.655131
 20
0.243024
  0
VERTEX
  8
LAYER_1
 62
7
 10
1.705906
 20
0.236394
 42
0.087732
  0
VERTEX
  8
LAYER_1
 62
7
 10
1.756021
 20
0.240860
  0
VERTEX
  8
LAYER_1
 62
7
 10
1.756021
 20
0.240860
  0
SEQEND
  0
POLYLINE
  8
LAYER_1
 62
7
 70
1
 66
1
  0
VERTEX
  8
LAYER_1
 62
7
 10
2.030826
 20
0.302978
  0
VERTEX
  8
LAYER_1
 62
7
 10
2.025383
 20
0.358644
  0
VERTEX
  8
LAYER_1
 62
7
 10
2.017711
 20
0.415550
 42
0.102567
  0
VERTEX
  8
LAYER_1
 62
7
 10
1.979204
 20
0.520870
 42
0.181244
  0
VERTEX
  8
LAYER_1
 62
7
 10
1.948009
 20
0.540894
 42
0.060791
  0
VERTEX
  8
LAYER_1
 62
7
 10
1.909219
 20
0.545657
 42
0.097669
  0
VERTEX
  8
LAYER_1
 62
7
 10
1.842003
 20
0.534770
 42
0.309697
  0
VERTEX
  8
LAYER_1
 62
7
 10
1.787407
 20
0.451560
 42
-0.017839
  0
VERTEX
  8
LAYER_1
 62
7
 10
1.787622
 20
0.326318
 42
0.159822
  0
VERTEX
  8
LAYER_1
 62
7
 10
1.800612
 20
0.277276
 42
0.175612
  0
VERTEX
  8
LAYER_1
 62
7
 10
1.839941
 20
0.246672
 42
0.135529
  0
VERTEX
  8
LAYER_1
 62
7
 10
1.945012
 20
0.242387
 42
0.195138
  0
VERTEX
  8
LAYER_1
 62
7
 10
2.030826
 20
0.302978
  0
VERTEX
  8
LAYER_1
 62
7
 10
2.030826
 20
0.302978
  0
SEQEND
  0
POLYLINE
  8
LAYER_1
 62
7
 70
1
 66
1
  0
VERTEX
  8
LAYER_1
 62
7
 10
2.118144
 20
0.287916
 42
0.047063
  0
VERTEX
  8
LAYER_1
 62
7
 10
2.200972
 20
0.308496
  0
VERTEX
  8
LAYER_1
 62
7
 10
2.281698
 20
0.338346
 42
0.026126
  0
VERTEX
  8
LAYER_1
 62
7
 10
2.226557
 20
0.579627
 42
-0.039253
  0
VERTEX
  8
LAYER_1
 62
7
 10
2.225256
 20
0.586678
 42
-0.069754
  0
VERTEX
  8
LAYER_1
 62
7
 10
2.225373
 20
0.591551
 42
-0.151965
  0
VERTEX
  8
LAYER_1
 62
7
 10
2.226657
 20
0.594309
 42
-0.234318
  0
VERTEX
  8
LAYER_1
 62
7
 10
2.228858
 20
0.595015
 42
-0.126064
  0
VERTEX
  8
LAYER_1
 62
7
 10
2.231722
 20
0.593731
 42
-0.063259
  0
VERTEX
  8
LAYER_1
 62
7
 10
2.235000
 20
0.590522
 42
-0.071281
  0
VERTEX
  8
LAYER_1
 62
7
 10
2.241789
 20
0.578577
 42
0.020981
  0
VERTEX
  8
LAYER_1
 62
7
 10
2.342431
 20
0.368564
 42
0.056141
  0
VERTEX
  8
LAYER_1
 62
7
 10
2.433858
 20
0.411522
  0
VERTEX
  8
LAYER_1
 62
7
 10
2.518093
 20
0.465283
 42
0.082370
  0
VERTEX
  8
LAYER_1
 62
7
 10
2.516429
 20
0.475464
 42
0.126395
  0
VERTEX
  8
LAYER_1
 62
7
 10
2.513142
 20
0.480159
  0
VERTEX
  8
LAYER_1
 62
7
 10
2.509188
 20
0.483588
 42
-0.110175
  0
VERTEX
  8
LAYER_1
 62
7
 10
2.505521
 20
0.489973
 42
0.152242
  0
VERTEX
  8
LAYER_1
 62
7
 10
2.492748
 20
0.509772
 42
0.204918
  0
VERTEX
  8
LAYER_1
 62
7
 10
2.476005
 20
0.513519
 42
0.098680
  0
VERTEX
  8
LAYER_1
 62
7
 10
2.457185
 20
0.505849
 42
0.042030
  0
VERTEX
  8
LAYER_1
 62
7
 10
2.438179
 20
0.491401
 42
-0.205558
  0
VERTEX
  8
LAYER_1
 62
7
 10
2.424711
 20
0.486110
 42
-0.164015
  0
VERTEX
  8
LAYER_1
 62
7
 10
2.412436
 20
0.491760
 42
-0.134314
  0
VERTEX
  8
LAYER_1
 62
7
 10
2.395780
 20
0.519929
 42
-0.258039
  0
VERTEX
  8
LAYER_1
 62
7
 10
2.397095
 20
0.528571
 42
-0.102662
  0
VERTEX
  8
LAYER_1
 62
7
 10
2.404961
 20
0.534369
  0
VERTEX
  8
LAYER_1
 62
7
 10
2.415615
 20
0.539977
 42
0.094133
  0
VERTEX
  8
LAYER_1
 62
7
 10
2.425291
 20
0.548051
 42
0.206732
  0
VERTEX
  8
LAYER_1
 62
7
 10
2.433429
 20
0.574223
 42
0.194700
  0
VERTEX
  8
LAYER_1
 62
7
 10
2.421197
 20
0.594684
 42
0.162277
  0
VERTEX
  8
LAYER_1
 62
7
 10
2.396599
 20
0.603257
 42
0.164477
  0
VERTEX
  8
LAYER_1
 62
7
 10
2.367637
 20
0.593765
 42
-0.145235
  0
VERTEX
  8
LAYER_1
 62
7
 10
2.357537
 20
0.589651
 42
-0.195047
  0
VERTEX
  8
LAYER_1
 62
7
 10
2.349843
 20
0.592296
 42
-0.125292
  0
VERTEX
  8
LAYER_1
 62
7
 10
2.344815
 20
0.599859
 42
-0.078813
  0
VERTEX
  8
LAYER_1
 62
7
 10
2.342712
 20
0.610499
 42
-0.146585
  0
VERTEX
  8
LAYER_1
 62
7
 10
2.348319
 20
0.633639
 42
-0.236442
  0
VERTEX
  8
LAYER_1
 62
7
 10
2.368739
 20
0.646985
 42
0.146564
  0
VERTEX
  8
LAYER_1
 62
7
 10
2.376630
 20
0.649994
 42
0.184482
  0
VERTEX
  8
LAYER_1
 62
7
 10
2.379776
 20
0.655803
 42
0.102949
  0
VERTEX
  8
LAYER_1
 62
7
 10
2.379131
 20
0.663525
 42
0.052633
  0
VERTEX
  8
LAYER_1
 62
7
 10
2.375648
 20
0.672272
 42
0.057863
  0
VERTEX
  8
LAYER_1
 62
7
 10
2.363979
 20
0.689284
  0
VERTEX
  8
LAYER_1
 62
7
 10
2.357701
 20
0.695775
 42
0.057834
  0
VERTEX
  8
LAYER_1
 62
7
 10
2.352397
 20
0.699737
 42
0.113037
  0
VERTEX
  8
LAYER_1
 62
7
 10
2.348765
 20
0.700627
 42
0.063470
  0
VERTEX
  8
LAYER_1
 62
7
 10
2.344223
 20
0.700153
 42
0.059043
  0
VERTEX
  8
LAYER_1
 62
7
 10
2.333393
 20
0.696068
 42
0.048316
  0
VERTEX
  8
LAYER_1
 62
7
 10
2.311614
 20
0.682059
 42
-0.049890
  0
VERTEX
  8
LAYER_1
 62
7
 10
2.292394
 20
0.670214
  0
VERTEX
  8
LAYER_1
 62
7
 10
2.271262
 20
0.660487
 42
0.083710
  0
VERTEX
  8
LAYER_1
 62
7
 10
2.230381
 20
0.635801
 42
-0.129249
  0
VERTEX
  8
LAYER_1
 62
7
 10
2.210566
 20
0.623784
  0
VERTEX
  8
LAYER_1
 62
7
 10
2.186586
 20
0.618823
 42
0.083383
  0
VERTEX
  8
LAYER_1
 62
7
 10
2.122135
 20
0.590694
 42
0.085097
  0
VERTEX
  8
LAYER_1
 62
7
 10
2.124301
 20
0.562083
 42
-0.038624
  0
VERTEX
  8
LAYER_1
 62
7
 10
2.137713
 20
0.507459
 42
-0.121544
  0
VERTEX
  8
LAYER_1
 62
7
 10
2.133032
 20
0.479406
  0
VERTEX
  8
LAYER_1
 62
7
 10
2.089888
 20
0.573615
 42
0.173820
  0
VERTEX
  8
LAYER_1
 62
7
 10
1.992198
 20
0.550283
 42
0.034972
  0
VERTEX
  8
LAYER_1
 62
7
 10
2.118144
 20
0.287916
  0
VERTEX
  8
LAYER_1
 62
7
 10
2.118144
 20
0.287916
  0
SEQEND
  0
POLYLINE
  8
LAYER_1
 62
7
 70
1
 66
1
  0
VERTEX
  8
LAYER_1
 62
7
 10
1.359920
 20
0.303273
 42
0.082618
  0
VERTEX
  8
LAYER_1
 62
7
 10
1.373417
 20
0.328034
  0
VERTEX
  8
LAYER_1
 62
7
 10
1.381222
 20
0.355239
 42
-0.112217
  0
VERTEX
  8
LAYER_1
 62
7
 10
1.404283
 20
0.409301
 42
0.149853
  0
VERTEX
  8
LAYER_1
 62
7
 10
1.479825
 20
0.398890
 42
0.151466
  0
VERTEX
  8
LAYER_1
 62
7
 10
1.511593
 20
0.415210
 42
0.178445
  0
VERTEX
  8
LAYER_1
 62
7
 10
1.526874
 20
0.452130
 42
-0.049444
  0
VERTEX
  8
LAYER_1
 62
7
 10
1.533419
 20
0.492447
 42
0.236307
  0
VERTEX
  8
LAYER_1
 62
7
 10
1.522847
 20
0.543013
 42
0.154095
  0
VERTEX
  8
LAYER_1
 62
7
 10
1.479143
 20
0.571652
  0
VERTEX
  8
LAYER_1
 62
7
 10
1.423081
 20
0.591933
 42
0.020997
  0
VERTEX
  8
LAYER_1
 62
7
 10
1.366137
 20
0.612538
 42
0.013478
  0
VERTEX
  8
LAYER_1
 62
7
 10
1.293867
 20
0.441170
  0
VERTEX
  8
LAYER_1
 62
7
 10
1.268089
 20
0.383947
 42
0.047305
  0
VERTEX
  8
LAYER_1
 62
7
 10
1.260746
 20
0.365200
 42
0.095794
  0
VERTEX
  8
LAYER_1
 62
7
 10
1.258941
 20
0.347501
 42
0.180001
  0
VERTEX
  8
LAYER_1
 62
7
 10
1.265752
 20
0.333407
 42
0.151646
  0
VERTEX
  8
LAYER_1
 62
7
 10
1.284259
 20
0.325480
 42
-0.053064
  0
VERTEX
  8
LAYER_1
 62
7
 10
1.305326
 20
0.319829
  0
VERTEX
  8
LAYER_1
 62
7
 10
1.322355
 20
0.312394
 42
0.118303
  0
VERTEX
  8
LAYER_1
 62
7
 10
1.359920
 20
0.303273
  0
VERTEX
  8
LAYER_1
 62
7
 10
1.359920
 20
0.303273
  0
SEQEND
  0
POLYLINE
  8
LAYER_1
 62
7
 70
1
 66
1
  0
VERTEX
  8
LAYER_1
 62
7
 10
1.090793
 20
0.419993
 42
0.247056
  0
VERTEX
  8
LAYER_1
 62
7
 10
1.115469
 20
0.417080
 42
0.200999
  0
VERTEX
  8
LAYER_1
 62
7
 10
1.133380
 20
0.436220
 42
-0.059264
  0
VERTEX
  8
LAYER_1
 62
7
 10
1.173777
 20
0.507399
 42
0.062179
  0
VERTEX
  8
LAYER_1
 62
7
 10
1.226695
 20
0.483099
 42
0.171597
  0
VERTEX
  8
LAYER_1
 62
7
 10
1.284248
 20
0.485423
 42
0.115824
  0
VERTEX
  8
LAYER_1
 62
7
 10
1.333833
 20
0.593713
 42
0.184144
  0
VERTEX
  8
LAYER_1
 62
7
 10
1.266395
 20
0.660762
 42
-0.069962
  0
VERTEX
  8
LAYER_1
 62
7
 10
1.181586
 20
0.713273
 42
0.018712
  0
VERTEX
  8
LAYER_1
 62
7
 10
1.035901
 20
0.502704
 42
-0.087519
  0
VERTEX
  8
LAYER_1
 62
7
 10
1.026934
 20
0.493011
 42
-0.061617
  0
VERTEX
  8
LAYER_1
 62
7
 10
1.022570
 20
0.490527
 42
-0.095999
  0
VERTEX
  8
LAYER_1
 62
7
 10
1.018736
 20
0.489698
 42
-0.159196
  0
VERTEX
  8
LAYER_1
 62
7
 10
1.015768
 20
0.490585
 42
-0.168236
  0
VERTEX
  8
LAYER_1
 62
7
 10
1.014005
 20
0.493247
 42
-0.100883
  0
VERTEX
  8
LAYER_1
 62
7
 10
1.013783
 20
0.497746
 42
-0.057180
  0
VERTEX
  8
LAYER_1
 62
7
 10
1.015441
 20
0.504141
 42
-0.029029
  0
VERTEX
  8
LAYER_1
 62
7
 10
1.069065
 20
0.625805
  0
VERTEX
  8
LAYER_1
 62
7
 10
1.129640
 20
0.742207
 42
0.094185
  0
VERTEX
  8
LAYER_1
 62
7
 10
1.082249
 20
0.792092
 42
-0.048063
  0
VERTEX
  8
LAYER_1
 62
7
 10
1.028864
 20
0.839331
  0
VERTEX
  8
LAYER_1
 62
7
 10
0.922550
 20
0.767681
 42
-0.029366
  0
VERTEX
  8
LAYER_1
 62
7
 10
0.813087
 20
0.700948
 42
0.080784
  0
VERTEX
  8
LAYER_1
 62
7
 10
0.797909
 20
0.689891
 42
0.126554
  0
VERTEX
  8
LAYER_1
 62
7
 10
0.789532
 20
0.675909
 42
0.177765
  0
VERTEX
  8
LAYER_1
 62
7
 10
0.790885
 20
0.660376
 42
0.130700
  0
VERTEX
  8
LAYER_1
 62
7
 10
0.804897
 20
0.644669
  0
VERTEX
  8
LAYER_1
 62
7
 10
0.822388
 20
0.631573
 42
-0.063521
  0
VERTEX
  8
LAYER_1
 62
7
 10
0.836256
 20
0.614564
 42
0.133788
  0
VERTEX
  8
LAYER_1
 62
7
 10
0.853965
 20
0.597802
 42
0.158233
  0
VERTEX
  8
LAYER_1
 62
7
 10
0.872155
 20
0.595480
 42
0.070663
  0
VERTEX
  8
LAYER_1
 62
7
 10
0.890770
 20
0.601998
  0
VERTEX
  8
LAYER_1
 62
7
 10
0.909753
 20
0.611757
 42
-0.275712
  0
VERTEX
  8
LAYER_1
 62
7
 10
0.919493
 20
0.610994
 42
-0.149643
  0
VERTEX
  8
LAYER_1
 62
7
 10
0.926618
 20
0.601895
 42
-0.140676
  0
VERTEX
  8
LAYER_1
 62
7
 10
0.928146
 20
0.589228
 42
-0.194452
  0
VERTEX
  8
LAYER_1
 62
7
 10
0.921094
 20
0.577758
 42
0.179118
  0
VERTEX
  8
LAYER_1
 62
7
 10
0.911052
 20
0.564395
 42
0.189527
  0
VERTEX
  8
LAYER_1
 62
7
 10
0.913520
 20
0.551337
 42
0.071807
  0
VERTEX
  8
LAYER_1
 62
7
 10
0.923809
 20
0.538817
  0
VERTEX
  8
LAYER_1
 62
7
 10
0.937226
 20
0.527067
 42
0.042872
  0
VERTEX
  8
LAYER_1
 62
7
 10
0.979159
 20
0.498988
 42
-0.047951
  0
VERTEX
  8
LAYER_1
 62
7
 10
1.017345
 20
0.473322
 42
0.039493
  0
VERTEX
  8
LAYER_1
 62
7
 10
1.090793
 20
0.419993
  0
VERTEX
  8
LAYER_1
 62
7
 10
1.090793
 20
0.419993
  0
SEQEND
  0
POLYLINE
  8
LAYER_1
 62
7
 70
1
 66
1
  0
VERTEX
  8
LAYER_1
 62
7
 10
2.536858
 20
0.481646
 42
0.029199
  0
VERTEX
  8
LAYER_1
 62
7
 10
2.644715
 20
0.560121
 42
0.117719
  0
VERTEX
  8
LAYER_1
 62
7
 10
2.726049
 20
0.667379
 42
0.027787
  0
VERTEX
  8
LAYER_1
 62
7
 10
2.639748
 20
0.762959
 42
0.069122
  0
VERTEX
  8
LAYER_1
 62
7
 10
2.538161
 20
0.839197
 42
0.074277
  0
VERTEX
  8
LAYER_1
 62
7
 10
2.449178
 20
0.784586
  0
VERTEX
  8
LAYER_1
 62
7
 10
2.370606
 20
0.718119
 42
0.002311
  0
VERTEX
  8
LAYER_1
 62
7
 10
2.536858
 20
0.481646
  0
VERTEX
  8
LAYER_1
 62
7
 10
2.536858
 20
0.481646
  0
SEQEND
  0
POLYLINE
  8
LAYER_1
 62
7
 70
1
 66
1
  0
VERTEX
  8
LAYER_1
 62
7
 10
1.742812
 20
0.598707
 42
0.199787
  0
VERTEX
  8
LAYER_1
 62
7
 10
2.528003
 20
0.905940
 42
0.201676
  0
VERTEX
  8
LAYER_1
 62
7
 10
2.874557
 20
1.673432
 42
0.196483
  0
VERTEX
  8
LAYER_1
 62
7
 10
2.565585
 20
2.442329
 42
0.196192
  0
VERTEX
  8
LAYER_1
 62
7
 10
1.812397
 20
2.787572
 42
0.198254
  0
VERTEX
  8
LAYER_1
 62
7
 10
1.032720
 20
2.486617
 42
0.198454
  0
VERTEX
  8
LAYER_1
 62
7
 10
0.679331
 20
1.729225
 42
0.200166
  0
VERTEX
  8
LAYER_1
 62
7
 10
0.982104
 20
0.949685
 42
0.197834
  0
VERTEX
  8
LAYER_1
 62
7
 10
1.742812
 20
0.598707
  0
VERTEX
  8
LAYER_1
 62
7
 10
1.742812
 20
0.598707
  0
SEQEND
  0
POLYLINE
  8
LAYER_1
 62
7
 70
1
 66
1
  0
VERTEX
  8
LAYER_1
 62
7
 10
0.492091
 20
1.699929
 42
0.071377
  0
VERTEX
  8
LAYER_1
 62
7
 10
0.532528
 20
1.706047
 42
0.191315
  0
VERTEX
  8
LAYER_1
 62
7
 10
0.562745
 20
1.728668
 42
0.087078
  0
VERTEX
  8
LAYER_1
 62
7
 10
0.606677
 20
1.863544
 42
0.042445
  0
VERTEX
  8
LAYER_1
 62
7
 10
0.615093
 20
2.007192
 42
0.240036
  0
VERTEX
  8
LAYER_1
 62
7
 10
0.575433
 20
2.076935
 42
0.160436
  0
VERTEX
  8
LAYER_1
 62
7
 10
0.534204
 20
2.091086
 42
0.179261
  0
VERTEX
  8
LAYER_1
 62
7
 10
0.517647
 20
2.084423
 42
0.176691
  0
VERTEX
  8
LAYER_1
 62
7
 10
0.509091
 20
2.065064
  0
VERTEX
  8
LAYER_1
 62
7
 10
0.502967
 20
2.030108
 42
0.037961
  0
VERTEX
  8
LAYER_1
 62
7
 10
0.484636
 20
1.934470
 42
0.075251
  0
VERTEX
  8
LAYER_1
 62
7
 10
0.501452
 20
1.928823
 42
-0.054322
  0
VERTEX
  8
LAYER_1
 62
7
 10
0.535380
 20
1.921522
 42
-0.127349
  0
VERTEX
  8
LAYER_1
 62
7
 10
0.549160
 20
1.910745
 42
-0.193012
  0
VERTEX
  8
LAYER_1
 62
7
 10
0.553451
 20
1.896696
 42
-0.152784
  0
VERTEX
  8
LAYER_1
 62
7
 10
0.547838
 20
1.883838
 42
-0.292675
  0
VERTEX
  8
LAYER_1
 62
7
 10
0.521193
 20
1.874828
 42
0.037106
  0
VERTEX
  8
LAYER_1
 62
7
 10
0.481850
 20
1.882713
  0
VERTEX
  8
LAYER_1
 62
7
 10
0.441933
 20
1.887528
 42
-0.107725
  0
VERTEX
  8
LAYER_1
 62
7
 10
0.367872
 20
1.909569
 42
-0.265854
  0
VERTEX
  8
LAYER_1
 62
7
 10
0.360838
 20
1.923116
 42
-0.141458
  0
VERTEX
  8
LAYER_1
 62
7
 10
0.366007
 20
1.939943
 42
-0.161422
  0
VERTEX
  8
LAYER_1
 62
7
 10
0.379137
 20
1.951341
 42
-0.264685
  0
VERTEX
  8
LAYER_1
 62
7
 10
0.395986
 20
1.948598
 42
0.190627
  0
VERTEX
  8
LAYER_1
 62
7
 10
0.417285
 20
1.943146
 42
-0.083874
  0
VERTEX
  8
LAYER_1
 62
7
 10
0.442145
 20
1.942058
 42
0.037423
  0
VERTEX
  8
LAYER_1
 62
7
 10
0.463574
 20
2.023201
  0
VERTEX
  8
LAYER_1
 62
7
 10
0.482497
 20
2.105119
 42
0.098668
  0
VERTEX
  8
LAYER_1
 62
7
 10
0.437934
 20
2.126815
 42
0.134401
  0
VERTEX
  8
LAYER_1
 62
7
 10
0.398564
 20
2.125527
 42
0.170361
  0
VERTEX
  8
LAYER_1
 62
7
 10
0.365896
 20
2.104458
 42
0.124758
  0
VERTEX
  8
LAYER_1
 62
7
 10
0.298360
 20
1.905760
 42
0.170828
  0
VERTEX
  8
LAYER_1
 62
7
 10
0.344153
 20
1.705052
 42
0.015211
  0
VERTEX
  8
LAYER_1
 62
7
 10
0.492091
 20
1.699929
  0
VERTEX
  8
LAYER_1
 62
7
 10
0.492091
 20
1.699929
  0
SEQEND
  0
POLYLINE
  8
LAYER_1
 62
7
 70
1
 66
1
  0
VERTEX
  8
LAYER_1
 62
7
 10
3.034107
 20
1.687989
 42
0.188999
  0
VERTEX
  8
LAYER_1
 62
7
 10
3.089120
 20
1.705859
 42
0.128090
  0
VERTEX
  8
LAYER_1
 62
7
 10
3.119184
 20
1.752099
 42
0.048545
  0
VERTEX
  8
LAYER_1
 62
7
 10
3.133659
 20
1.811221
  0
VERTEX
  8
LAYER_1
 62
7
 10
3.141904
 20
1.867737
 42
-0.070900
  0
VERTEX
  8
LAYER_1
 62
7
 10
3.152168
 20
1.925371
 42
-0.190088
  0
VERTEX
  8
LAYER_1
 62
7
 10
3.162789
 20
1.936445
 42
-0.193238
  0
VERTEX
  8
LAYER_1
 62
7
 10
3.176144
 20
1.936574
 42
-0.303534
  0
VERTEX
  8
LAYER_1
 62
7
 10
3.193200
 20
1.909014
 42
-0.240019
  0
VERTEX
  8
LAYER_1
 62
7
 10
3.188600
 20
1.896668
 42
-0.114572
  0
VERTEX
  8
LAYER_1
 62
7
 10
3.177018
 20
1.891461
  0
VERTEX
  8
LAYER_1
 62
7
 10
3.163841
 20
1.888000
 42
0.190784
  0
VERTEX
  8
LAYER_1
 62
7
 10
3.154459
 20
1.880892
 42
0.130393
  0
VERTEX
  8
LAYER_1
 62
7
 10
3.149727
 20
1.854441
 42
0.072269
  0
VERTEX
  8
LAYER_1
 62
7
 10
3.155302
 20
1.826309
 42
-0.079361
  0
VERTEX
  8
LAYER_1
 62
7
 10
3.159577
 20
1.799411
 42
0.026522
  0
VERTEX
  8
LAYER_1
 62
7
 10
3.159596
 20
1.742494
 42
0.110828
  0
VERTEX
  8
LAYER_1
 62
7
 10
3.168399
 20
1.717013
 42
0.282592
  0
VERTEX
  8
LAYER_1
 62
7
 10
3.190183
 20
1.704982
 42
0.150139
  0
VERTEX
  8
LAYER_1
 62
7
 10
3.216327
 20
1.716000
 42
0.186887
  0
VERTEX
  8
LAYER_1
 62
7
 10
3.250774
 20
1.771714
 42
0.059119
  0
VERTEX
  8
LAYER_1
 62
7
 10
3.242093
 20
1.978786
 42
0.165058
  0
VERTEX
  8
LAYER_1
 62
7
 10
3.185126
 20
2.090972
 42
0.201734
  0
VERTEX
  8
LAYER_1
 62
7
 10
3.136822
 20
2.110587
 42
0.127451
  0
VERTEX
  8
LAYER_1
 62
7
 10
3.111086
 20
2.101702
 42
0.091472
  0
VERTEX
  8
LAYER_1
 62
7
 10
3.085577
 20
2.076710
 42
0.177396
  0
VERTEX
  8
LAYER_1
 62
7
 10
3.067962
 20
2.021072
 42
-0.059799
  0
VERTEX
  8
LAYER_1
 62
7
 10
3.066668
 20
1.966126
 42
0.035401
  0
VERTEX
  8
LAYER_1
 62
7
 10
3.064662
 20
1.949622
 42
-0.029935
  0
VERTEX
  8
LAYER_1
 62
7
 10
3.063343
 20
1.930099
 42
-0.057264
  0
VERTEX
  8
LAYER_1
 62
7
 10
3.062929
 20
1.928707
 42
-0.073169
  0
VERTEX
  8
LAYER_1
 62
7
 10
3.062673
 20
1.928301
 42
-0.143520
  0
VERTEX
  8
LAYER_1
 62
7
 10
3.062378
 20
1.928105
 42
-0.166427
  0
VERTEX
  8
LAYER_1
 62
7
 10
3.062042
 20
1.928132
 42
-0.093589
  0
VERTEX
  8
LAYER_1
 62
7
 10
3.061660
 20
1.928393
 42
-0.070336
  0
VERTEX
  8
LAYER_1
 62
7
 10
3.060744
 20
1.929668
 42
-0.037199
  0
VERTEX
  8
LAYER_1
 62
7
 10
3.058195
 20
1.935566
  0
VERTEX
  8
LAYER_1
 62
7
 10
3.047787
 20
1.964608
 42
-0.066451
  0
VERTEX
  8
LAYER_1
 62
7
 10
3.043043
 20
1.992345
 42
0.051643
  0
VERTEX
  8
LAYER_1
 62
7
 10
3.038719
 20
2.024008
 42
0.092157
  0
VERTEX
  8
LAYER_1
 62
7
 10
3.027487
 20
2.050119
 42
0.197983
  0
VERTEX
  8
LAYER_1
 62
7
 10
3.008339
 20
2.063336
 42
0.183590
  0
VERTEX
  8
LAYER_1
 62
7
 10
2.980270
 20
2.056321
 42
0.205190
  0
VERTEX
  8
LAYER_1
 62
7
 10
2.943440
 20
2.009473
 42
0.054268
  0
VERTEX
  8
LAYER_1
 62
7
 10
2.939356
 20
1.981438
  0
VERTEX
  8
LAYER_1
 62
7
 10
2.938974
 20
1.951760
 42
0.082766
  0
VERTEX
  8
LAYER_1
 62
7
 10
2.972505
 20
1.743203
 42
0.038405
  0
VERTEX
  8
LAYER_1
 62
7
 10
2.981083
 20
1.721628
 42
0.112965
  0
VERTEX
  8
LAYER_1
 62
7
 10
2.995908
 20
1.703576
 42
0.054657
  0
VERTEX
  8
LAYER_1
 62
7
 10
3.013125
 20
1.692439
 42
0.106643
  0
VERTEX
  8
LAYER_1
 62
7
 10
3.034107
 20
1.687989
  0
VERTEX
  8
LAYER_1
 62
7
 10
3.034107
 20
1.687989
  0
SEQEND
  0
POLYLINE
  8
LAYER_1
 62
7
 70
1
 66
1
  0
VERTEX
  8
LAYER_1
 62
7
 10
3.184747
 20
2.179568
 42
0.034135
  0
VERTEX
  8
LAYER_1
 62
7
 10
3.136281
 20
2.313574
 42
0.117409
  0
VERTEX
  8
LAYER_1
 62
7
 10
3.125733
 20
2.328417
 42
0.139145
  0
VERTEX
  8
LAYER_1
 62
7
 10
3.112036
 20
2.334468
 42
0.092708
  0
VERTEX
  8
LAYER_1
 62
7
 10
3.095962
 20
2.333531
 42
0.048885
  0
VERTEX
  8
LAYER_1
 62
7
 10
3.078287
 20
2.327404
 42
0.032087
  0
VERTEX
  8
LAYER_1
 62
7
 10
3.041228
 20
2.306791
  0
VERTEX
  8
LAYER_1
 62
7
 10
3.007050
 20
2.287036
  0
VERTEX
  8
LAYER_1
 62
7
 10
2.936997
 20
2.256467
 42
0.065167
  0
VERTEX
  8
LAYER_1
 62
7
 10
2.870742
 20
2.217994
 42
0.270932
  0
VERTEX
  8
LAYER_1
 62
7
 10
2.860534
 20
2.189413
 42
0.083299
  0
VERTEX
  8
LAYER_1
 62
7
 10
2.873561
 20
2.152878
 42
-0.069919
  0
VERTEX
  8
LAYER_1
 62
7
 10
2.906996
 20
2.079673
 42
0.032431
  0
VERTEX
  8
LAYER_1
 62
7
 10
3.184747
 20
2.179568
  0
VERTEX
  8
LAYER_1
 62
7
 10
3.184747
 20
2.179568
  0
SEQEND
  0
POLYLINE
  8
LAYER_1
 62
7
 70
1
 66
1
  0
VERTEX
  8
LAYER_1
 62
7
 10
0.709867
 20
2.230554
  0
VERTEX
  8
LAYER_1
 62
7
 10
0.671476
 20
2.252904
 42
0.073241
  0
VERTEX
  8
LAYER_1
 62
7
 10
0.631527
 20
2.271737
 42
-0.187926
  0
VERTEX
  8
LAYER_1
 62
7
 10
0.611529
 20
2.285593
 42
-0.252331
  0
VERTEX
  8
LAYER_1
 62
7
 10
0.610790
 20
2.301854
 42
-0.219967
  0
VERTEX
  8
LAYER_1
 62
7
 10
0.623796
 20
2.312274
 42
-0.199174
  0
VERTEX
  8
LAYER_1
 62
7
 10
0.645035
 20
2.308609
 42
-0.013733
  0
VERTEX
  8
LAYER_1
 62
7
 10
0.688361
 20
2.278018
 42
0.101973
  0
VERTEX
  8
LAYER_1
 62
7
 10
0.707941
 20
2.269533
 42
0.212820
  0
VERTEX
  8
LAYER_1
 62
7
 10
0.726428
 20
2.274284
 42
0.116769
  0
VERTEX
  8
LAYER_1
 62
7
 10
0.754575
 20
2.313566
 42
-0.078779
  0
VERTEX
  8
LAYER_1
 62
7
 10
0.783202
 20
2.358690
 42
0.120674
  0
VERTEX
  8
LAYER_1
 62
7
 10
0.789917
 20
2.369250
 42
0.152295
  0
VERTEX
  8
LAYER_1
 62
7
 10
0.789851
 20
2.379212
 42
0.098437
  0
VERTEX
  8
LAYER_1
 62
7
 10
0.784439
 20
2.388631
 42
0.049256
  0
VERTEX
  8
LAYER_1
 62
7
 10
0.775115
 20
2.397564
 42
0.030026
  0
VERTEX
  8
LAYER_1
 62
7
 10
0.750475
 20
2.414195
  0
VERTEX
  8
LAYER_1
 62
7
 10
0.727413
 20
2.429557
 42
0.019912
  0
VERTEX
  8
LAYER_1
 62
7
 10
0.642341
 20
2.490518
  0
VERTEX
  8
LAYER_1
 62
7
 10
0.603390
 20
2.521182
 42
0.093982
  0
VERTEX
  8
LAYER_1
 62
7
 10
0.561519
 20
2.545452
 42
0.255496
  0
VERTEX
  8
LAYER_1
 62
7
 10
0.542152
 20
2.541443
 42
0.092670
  0
VERTEX
  8
LAYER_1
 62
7
 10
0.527098
 20
2.522594
 42
-0.033606
  0
VERTEX
  8
LAYER_1
 62
7
 10
0.501805
 20
2.477914
 42
0.093430
  0
VERTEX
  8
LAYER_1
 62
7
 10
0.473972
 20
2.430232
 42
0.155692
  0
VERTEX
  8
LAYER_1
 62
7
 10
0.472906
 20
2.406303
 42
0.133254
  0
VERTEX
  8
LAYER_1
 62
7
 10
0.479024
 20
2.397242
 42
0.111754
  0
VERTEX
  8
LAYER_1
 62
7
 10
0.490886
 20
2.391230
 42
-0.133599
  0
VERTEX
  8
LAYER_1
 62
7
 10
0.536703
 20
2.364306
 42
-0.068775
  0
VERTEX
  8
LAYER_1
 62
7
 10
0.542546
 20
2.355743
 42
-0.115727
  0
VERTEX
  8
LAYER_1
 62
7
 10
0.544580
 20
2.347371
 42
-0.154001
  0
VERTEX
  8
LAYER_1
 62
7
 10
0.542023
 20
2.339651
 42
-0.115239
  0
VERTEX
  8
LAYER_1
 62
7
 10
0.534092
 20
2.333045
 42
-0.228082
  0
VERTEX
  8
LAYER_1
 62
7
 10
0.513317
 20
2.332278
 42
-0.066335
  0
VERTEX
  8
LAYER_1
 62
7
 10
0.492508
 20
2.344721
  0
VERTEX
  8
LAYER_1
 62
7
 10
0.471862
 20
2.358847
 42
0.183383
  0
VERTEX
  8
LAYER_1
 62
7
 10
0.451576
 20
2.363126
 42
0.167052
  0
VERTEX
  8
LAYER_1
 62
7
 10
0.433847
 20
2.351579
 42
0.073021
  0
VERTEX
  8
LAYER_1
 62
7
 10
0.421621
 20
2.330476
  0
VERTEX
  8
LAYER_1
 62
7
 10
0.405242
 20
2.283937
  0
VERTEX
  8
LAYER_1
 62
7
 10
0.386426
 20
2.241774
 42
0.089893
  0
VERTEX
  8
LAYER_1
 62
7
 10
0.382331
 20
2.220128
 42
0.214731
  0
VERTEX
  8
LAYER_1
 62
7
 10
0.389812
 20
2.203106
 42
0.100621
  0
VERTEX
  8
LAYER_1
 62
7
 10
0.424785
 20
2.185548
  0
VERTEX
  8
LAYER_1
 62
7
 10
0.464436
 20
2.172714
  0
VERTEX
  8
LAYER_1
 62
7
 10
0.555234
 20
2.135685
  0
VERTEX
  8
LAYER_1
 62
7
 10
0.648436
 20
2.100598
 42
0.070124
  0
VERTEX
  8
LAYER_1
 62
7
 10
0.680605
 20
2.164730
 42
-0.046926
  0
VERTEX
  8
LAYER_1
 62
7
 10
0.709867
 20
2.230554
  0
VERTEX
  8
LAYER_1
 62
7
 10
0.709867
 20
2.230554
  0
SEQEND
  0
POLYLINE
  8
LAYER_1
 62
7
 70
1
 66
1
  0
VERTEX
  8
LAYER_1
 62
7
 10
2.910112
 20
2.291400
 42
0.224089
  0
VERTEX
  8
LAYER_1
 62
7
 10
2.942044
 20
2.321059
 42
0.078991
  0
VERTEX
  8
LAYER_1
 62
7
 10
2.952019
 20
2.359487
 42
-0.130380
  0
VERTEX
  8
LAYER_1
 62
7
 10
2.952376
 20
2.360573
 42
-0.217100
  0
VERTEX
  8
LAYER_1
 62
7
 10
2.953097
 20
2.360984
 42
-0.115801
  0
VERTEX
  8
LAYER_1
 62
7
 10
2.954143
 20
2.360805
 42
-0.048313
  0
VERTEX
  8
LAYER_1
 62
7
 10
2.955477
 20
2.360121
 42
-0.033104
  0
VERTEX
  8
LAYER_1
 62
7
 10
2.958858
 20
2.357583
 42
0.017489
  0
VERTEX
  8
LAYER_1
 62
7
 10
2.971999
 20
2.346759
 42
0.053249
  0
VERTEX
  8
LAYER_1
 62
7
 10
2.976374
 20
2.344360
 42
0.124563
  0
VERTEX
  8
LAYER_1
 62
7
 10
2.980246
 20
2.343707
  0
VERTEX
  8
LAYER_1
 62
7
 10
3.000480
 20
2.345752
 42
0.120905
  0
VERTEX
  8
LAYER_1
 62
7
 10
3.021374
 20
2.353774
  0
VERTEX
  8
LAYER_1
 62
7
 10
3.060041
 20
2.382260
 42
0.155379
  0
VERTEX
  8
LAYER_1
 62
7
 10
3.002467
 20
2.553282
 42
0.044970
  0
VERTEX
  8
LAYER_1
 62
7
 10
2.882411
 20
2.693604
  0
VERTEX
  8
LAYER_1
 62
7
 10
2.668248
 20
2.497250
 42
0.072485
  0
VERTEX
  8
LAYER_1
 62
7
 10
2.754428
 20
2.391838
  0
VERTEX
  8
LAYER_1
 62
7
 10
2.791567
 20
2.419077
 42
0.062465
  0
VERTEX
  8
LAYER_1
 62
7
 10
2.825697
 20
2.447887
 42
-0.188354
  0
VERTEX
  8
LAYER_1
 62
7
 10
2.844001
 20
2.457716
 42
-0.194130
  0
VERTEX
  8
LAYER_1
 62
7
 10
2.859756
 20
2.453170
 42
-0.234205
  0
VERTEX
  8
LAYER_1
 62
7
 10
2.866300
 20
2.439923
 42
-0.224309
  0
VERTEX
  8
LAYER_1
 62
7
 10
2.856974
 20
2.423645
  0
VERTEX
  8
LAYER_1
 62
7
 10
2.814920
 20
2.394815
 42
0.046593
  0
VERTEX
  8
LAYER_1
 62
7
 10
2.772951
 20
2.364344
 42
0.060277
  0
VERTEX
  8
LAYER_1
 62
7
 10
2.798644
 20
2.309257
  0
VERTEX
  8
LAYER_1
 62
7
 10
2.830741
 20
2.256423
 42
0.163701
  0
VERTEX
  8
LAYER_1
 62
7
 10
2.872212
 20
2.270467
 42
-0.081715
  0
VERTEX
  8
LAYER_1
 62
7
 10
2.910112
 20
2.291400
  0
VERTEX
  8
LAYER_1
 62
7
 10
2.910112
 20
2.291400
  0
SEQEND
  0
POLYLINE
  8
LAYER_1
 62
7
 70
1
 66
1
  0
VERTEX
  8
LAYER_1
 62
7
 10
0.797352
 20
2.438304
 42
0.096203
  0
VERTEX
  8
LAYER_1
 62
7
 10
0.926334
 20
2.519525
 42
0.170543
  0
VERTEX
  8
LAYER_1
 62
7
 10
0.997052
 20
2.650294
 42
0.021527
  0
VERTEX
  8
LAYER_1
 62
7
 10
0.842869
 20
2.851167
 42
0.060755
  0
VERTEX
  8
LAYER_1
 62
7
 10
0.718581
 20
2.744837
  0
VERTEX
  8
LAYER_1
 62
7
 10
0.871422
 20
2.590916
 42
-0.148444
  0
VERTEX
  8
LAYER_1
 62
7
 10
0.879214
 20
2.577729
 42
-0.161336
  0
VERTEX
  8
LAYER_1
 62
7
 10
0.878348
 20
2.565537
 42
-0.253733
  0
VERTEX
  8
LAYER_1
 62
7
 10
0.870865
 20
2.559203
 42
-0.128265
  0
VERTEX
  8
LAYER_1
 62
7
 10
0.865278
 20
2.559752
 42
-0.090341
  0
VERTEX
  8
LAYER_1
 62
7
 10
0.858803
 20
2.563589
  0
VERTEX
  8
LAYER_1
 62
7
 10
0.814108
 20
2.603583
 42
0.018741
  0
VERTEX
  8
LAYER_1
 62
7
 10
0.688870
 20
2.720315
  0
VERTEX
  8
LAYER_1
 62
7
 10
0.582724
 20
2.601074
 42
0.055321
  0
VERTEX
  8
LAYER_1
 62
7
 10
0.797352
 20
2.438304
  0
VERTEX
  8
LAYER_1
 62
7
 10
0.797352
 20
2.438304
  0
SEQEND
  0
POLYLINE
  8
LAYER_1
 62
7
 70
1
 66
1
  0
VERTEX
  8
LAYER_1
 62
7
 10
2.635091
 20
2.523255
 42
-0.044933
  0
VERTEX
  8
LAYER_1
 62
7
 10
2.658739
 20
2.545361
  0
VERTEX
  8
LAYER_1
 62
7
 10
2.684892
 20
2.566440
 42
0.174692
  0
VERTEX
  8
LAYER_1
 62
7
 10
2.720887
 20
2.619979
  0
VERTEX
  8
LAYER_1
 62
7
 10
2.724040
 20
2.635437
 42
-0.097076
  0
VERTEX
  8
LAYER_1
 62
7
 10
2.728726
 20
2.646406
 42
-0.164078
  0
VERTEX
  8
LAYER_1
 62
7
 10
2.738013
 20
2.652734
 42
-0.084804
  0
VERTEX
  8
LAYER_1
 62
7
 10
2.754971
 20
2.654265
 42
0.213047
  0
VERTEX
  8
LAYER_1
 62
7
 10
2.782077
 20
2.664163
 42
0.042924
  0
VERTEX
  8
LAYER_1
 62
7
 10
2.791397
 20
2.674735
  0
VERTEX
  8
LAYER_1
 62
7
 10
2.800228
 20
2.686436
 42
0.229496
  0
VERTEX
  8
LAYER_1
 62
7
 10
2.810694
 20
2.736859
 42
0.133602
  0
VERTEX
  8
LAYER_1
 62
7
 10
2.784543
 20
2.784906
 42
0.047401
  0
VERTEX
  8
LAYER_1
 62
7
 10
2.684465
 20
2.871726
 42
0.018911
  0
VERTEX
  8
LAYER_1
 62
7
 10
2.571288
 20
2.945988
 42
0.034821
  0
VERTEX
  8
LAYER_1
 62
7
 10
2.488970
 20
2.825217
  0
VERTEX
  8
LAYER_1
 62
7
 10
2.450828
 20
2.762212
  0
VERTEX
  8
LAYER_1
 62
7
 10
2.410493
 20
2.699968
 42
0.063284
  0
VERTEX
  8
LAYER_1
 62
7
 10
2.463341
 20
2.658042
  0
VERTEX
  8
LAYER_1
 62
7
 10
2.519785
 20
2.621235
 42
0.034706
  0
VERTEX
  8
LAYER_1
 62
7
 10
2.583308
 20
2.704302
 42
-0.196690
  0
VERTEX
  8
LAYER_1
 62
7
 10
2.595563
 20
2.713760
 42
-0.187169
  0
VERTEX
  8
LAYER_1
 62
7
 10
2.608340
 20
2.712204
 42
-0.216440
  0
VERTEX
  8
LAYER_1
 62
7
 10
2.615767
 20
2.702845
 42
-0.225493
  0
VERTEX
  8
LAYER_1
 62
7
 10
2.611971
 20
2.688895
  0
VERTEX
  8
LAYER_1
 62
7
 10
2.546106
 20
2.606120
 42
0.049685
  0
VERTEX
  8
LAYER_1
 62
7
 10
2.587927
 20
2.564339
  0
VERTEX
  8
LAYER_1
 62
7
 10
2.635091
 20
2.523255
  0
VERTEX
  8
LAYER_1
 62
7
 10
2.635091
 20
2.523255
  0
SEQEND
  0
POLYLINE
  8
LAYER_1
 62
7
 70
1
 66
1
  0
VERTEX
  8
LAYER_1
 62
7
 10
1.054029
 20
2.674786
 42
0.118358
  0
VERTEX
  8
LAYER_1
 62
7
 10
1.172183
 20
2.701179
 42
0.070613
  0
VERTEX
  8
LAYER_1
 62
7
 10
1.272346
 20
2.769589
 42
0.267302
  0
VERTEX
  8
LAYER_1
 62
7
 10
1.295173
 20
2.840386
 42
0.118232
  0
VERTEX
  8
LAYER_1
 62
7
 10
1.275469
 20
2.890819
 42
0.095332
  0
VERTEX
  8
LAYER_1
 62
7
 10
1.225646
 20
2.874573
 42
-0.066350
  0
VERTEX
  8
LAYER_1
 62
7
 10
1.172873
 20
2.854105
 42
0.115181
  0
VERTEX
  8
LAYER_1
 62
7
 10
1.158667
 20
2.847883
 42
0.162569
  0
VERTEX
  8
LAYER_1
 62
7
 10
1.152497
 20
2.838408
 42
0.101557
  0
VERTEX
  8
LAYER_1
 62
7
 10
1.152173
 20
2.826581
 42
0.040934
  0
VERTEX
  8
LAYER_1
 62
7
 10
1.155501
 20
2.813308
  0
VERTEX
  8
LAYER_1
 62
7
 10
1.164352
 20
2.786037
 42
-0.078544
  0
VERTEX
  8
LAYER_1
 62
7
 10
1.165491
 20
2.773846
 42
-0.156219
  0
VERTEX
  8
LAYER_1
 62
7
 10
1.161518
 20
2.763823
 42
-0.128148
  0
VERTEX
  8
LAYER_1
 62
7
 10
1.159611
 20
2.762527
 42
-0.077855
  0
VERTEX
  8
LAYER_1
 62
7
 10
1.156935
 20
2.762011
 42
-0.084691
  0
VERTEX
  8
LAYER_1
 62
7
 10
1.150268
 20
2.762988
 42
-0.067613
  0
VERTEX
  8
LAYER_1
 62
7
 10
1.143506
 20
2.766096
 42
-0.105331
  0
VERTEX
  8
LAYER_1
 62
7
 10
1.138635
 20
2.770678
  0
VERTEX
  8
LAYER_1
 62
7
 10
1.062341
 20
2.899504
 42
-0.239114
  0
VERTEX
  8
LAYER_1
 62
7
 10
1.059765
 20
2.919174
 42
-0.215936
  0
VERTEX
  8
LAYER_1
 62
7
 10
1.072074
 20
2.930999
 42
-0.228915
  0
VERTEX
  8
LAYER_1
 62
7
 10
1.089781
 20
2.929265
 42
-0.197794
  0
VERTEX
  8
LAYER_1
 62
7
 10
1.103401
 20
2.908256
 42
0.128800
  0
VERTEX
  8
LAYER_1
 62
7
 10
1.112459
 20
2.888635
  0
VERTEX
  8
LAYER_1
 62
7
 10
1.129611
 20
2.870684
 42
-0.069401
  0
VERTEX
  8
LAYER_1
 62
7
 10
1.161092
 20
2.889355
  0
VERTEX
  8
LAYER_1
 62
7
 10
1.196096
 20
2.902802
 42
0.128479
  0
VERTEX
  8
LAYER_1
 62
7
 10
1.257810
 20
2.938825
 42
0.068201
  0
VERTEX
  8
LAYER_1
 62
7
 10
1.245983
 20
2.968904
  0
VERTEX
  8
LAYER_1
 62
7
 10
1.230292
 20
2.993917
 42
0.171332
  0
VERTEX
  8
LAYER_1
 62
7
 10
1.198861
 20
3.016937
 42
0.109181
  0
VERTEX
  8
LAYER_1
 62
7
 10
1.159523
 20
3.020775
 42
0.106143
  0
VERTEX
  8
LAYER_1
 62
7
 10
1.013198
 20
2.970741
 42
0.163908
  0
VERTEX
  8
LAYER_1
 62
7
 10
0.911849
 20
2.854834
 42
0.035010
  0
VERTEX
  8
LAYER_1
 62
7
 10
0.972438
 20
2.755072
 42
0.090296
  0
VERTEX
  8
LAYER_1
 62
7
 10
1.054029
 20
2.674786
  0
VERTEX
  8
LAYER_1
 62
7
 10
1.054029
 20
2.674786
  0
SEQEND
  0
POLYLINE
  8
LAYER_1
 62
7
 70
1
 66
1
  0
VERTEX
  8
LAYER_1
 62
7
 10
2.340773
 20
2.743705
 42
0.292303
  0
VERTEX
  8
LAYER_1
 62
7
 10
2.425990
 20
2.796697
 42
-0.026784
  0
VERTEX
  8
LAYER_1
 62
7
 10
2.475184
 20
2.881779
 42
0.170221
  0
VERTEX
  8
LAYER_1
 62
7
 10
2.489682
 20
2.939087
 42
0.197079
  0
VERTEX
  8
LAYER_1
 62
7
 10
2.463699
 20
2.990952
 42
0.179086
  0
VERTEX
  8
LAYER_1
 62
7
 10
2.242671
 20
3.075274
 42
0.164869
  0
VERTEX
  8
LAYER_1
 62
7
 10
2.188608
 20
3.057150
 42
0.172068
  0
VERTEX
  8
LAYER_1
 62
7
 10
2.157276
 20
3.009585
  0
VERTEX
  8
LAYER_1
 62
7
 10
2.135893
 20
2.936547
 42
0.050119
  0
VERTEX
  8
LAYER_1
 62
7
 10
2.120172
 20
2.861446
 42
0.164480
  0
VERTEX
  8
LAYER_1
 62
7
 10
2.214190
 20
2.775532
 42
0.087762
  0
VERTEX
  8
LAYER_1
 62
7
 10
2.340773
 20
2.743705
  0
VERTEX
  8
LAYER_1
 62
7
 10
2.340773
 20
2.743705
  0
SEQEND
  0
POLYLINE
  8
LAYER_1
 62
7
 70
1
 66
1
  0
VERTEX
  8
LAYER_1
 62
7
 10
1.356410
 20
2.792704
  0
VERTEX
  8
LAYER_1
 62
7
 10
1.420880
 20
2.808185
  0
VERTEX
  8
LAYER_1
 62
7
 10
1.482150
 20
2.826364
 42
0.158864
  0
VERTEX
  8
LAYER_1
 62
7
 10
1.480530
 20
2.855180
 42
-0.070000
  0
VERTEX
  8
LAYER_1
 62
7
 10
1.472360
 20
2.883293
 42
-0.047154
  0
VERTEX
  8
LAYER_1
 62
7
 10
1.472109
 20
2.891019
 42
-0.083208
  0
VERTEX
  8
LAYER_1
 62
7
 10
1.473255
 20
2.896219
 42
-0.150971
  0
VERTEX
  8
LAYER_1
 62
7
 10
1.475524
 20
2.899065
 42
-0.172387
  0
VERTEX
  8
LAYER_1
 62
7
 10
1.478641
 20
2.899730
 42
-0.105835
  0
VERTEX
  8
LAYER_1
 62
7
 10
1.482333
 20
2.898387
 42
-0.062197
  0
VERTEX
  8
LAYER_1
 62
7
 10
1.486328
 20
2.895209
 42
-0.077818
  0
VERTEX
  8
LAYER_1
 62
7
 10
1.494129
 20
2.884039
 42
0.053560
  0
VERTEX
  8
LAYER_1
 62
7
 10
1.511338
 20
2.857121
  0
VERTEX
  8
LAYER_1
 62
7
 10
1.532928
 20
2.832732
 42
-0.069663
  0
VERTEX
  8
LAYER_1
 62
7
 10
1.592677
 20
2.844187
  0
VERTEX
  8
LAYER_1
 62
7
 10
1.623382
 20
2.846929
  0
VERTEX
  8
LAYER_1
 62
7
 10
1.655776
 20
2.852333
 42
0.116552
  0
VERTEX
  8
LAYER_1
 62
7
 10
1.629891
 20
2.910923
  0
VERTEX
  8
LAYER_1
 62
7
 10
1.587822
 20
2.963322
 42
-0.105734
  0
VERTEX
  8
LAYER_1
 62
7
 10
1.568096
 20
2.999084
 42
-0.203636
  0
VERTEX
  8
LAYER_1
 62
7
 10
1.573422
 20
3.037833
 42
0.057715
  0
VERTEX
  8
LAYER_1
 62
7
 10
1.619887
 20
3.138679
 42
0.099992
  0
VERTEX
  8
LAYER_1
 62
7
 10
1.547192
 20
3.138596
  0
VERTEX
  8
LAYER_1
 62
7
 10
1.477131
 20
3.124858
 42
0.034015
  0
VERTEX
  8
LAYER_1
 62
7
 10
1.455781
 20
3.073155
  0
VERTEX
  8
LAYER_1
 62
7
 10
1.437299
 20
3.020409
 42
0.032477
  0
VERTEX
  8
LAYER_1
 62
7
 10
1.410245
 20
3.111052
  0
VERTEX
  8
LAYER_1
 62
7
 10
1.332359
 20
3.093890
 42
0.057614
  0
VERTEX
  8
LAYER_1
 62
7
 10
1.256705
 20
3.064490
  0
VERTEX
  8
LAYER_1
 62
7
 10
1.305339
 20
2.928443
  0
VERTEX
  8
LAYER_1
 62
7
 10
1.356410
 20
2.792704
  0
VERTEX
  8
LAYER_1
 62
7
 10
1.356410
 20
2.792704
  0
SEQEND
  0
POLYLINE
  8
LAYER_1
 62
7
 70
1
 66
1
  0
VERTEX
  8
LAYER_1
 62
7
 10
2.034721
 20
2.829722
 42
0.204112
  0
VERTEX
  8
LAYER_1
 62
7
 10
2.060793
 20
2.832718
 42
0.209094
  0
VERTEX
  8
LAYER_1
 62
7
 10
2.073693
 20
2.853077
  0
VERTEX
  8
LAYER_1
 62
7
 10
2.104315
 20
2.979081
 42
0.022911
  0
VERTEX
  8
LAYER_1
 62
7
 10
2.132790
 20
3.104928
 42
0.150891
  0
VERTEX
  8
LAYER_1
 62
7
 10
2.070220
 20
3.128012
 42
-0.063499
  0
VERTEX
  8
LAYER_1
 62
7
 10
2.004168
 20
3.139760
  0
VERTEX
  8
LAYER_1
 62
7
 10
1.992175
 20
3.100762
 42
0.053186
  0
VERTEX
  8
LAYER_1
 62
7
 10
1.986715
 20
3.060704
 42
-0.100916
  0
VERTEX
  8
LAYER_1
 62
7
 10
1.983543
 20
3.045170
 42
-0.117509
  0
VERTEX
  8
LAYER_1
 62
7
 10
1.980630
 20
3.041464
 42
-0.181603
  0
VERTEX
  8
LAYER_1
 62
7
 10
1.977133
 20
3.040408
 42
-0.139494
  0
VERTEX
  8
LAYER_1
 62
7
 10
1.973278
 20
3.041959
 42
-0.077060
  0
VERTEX
  8
LAYER_1
 62
7
 10
1.969289
 20
3.046073
 42
-0.078557
  0
VERTEX
  8
LAYER_1
 62
7
 10
1.961815
 20
3.061823
 42
0.059646
  0
VERTEX
  8
LAYER_1
 62
7
 10
1.951600
 20
3.083760
 42
-0.065399
  0
VERTEX
  8
LAYER_1
 62
7
 10
1.942464
 20
3.103254
 42
0.182309
  0
VERTEX
  8
LAYER_1
 62
7
 10
1.914511
 20
3.142086
 42
0.166350
  0
VERTEX
  8
LAYER_1
 62
7
 10
1.867964
 20
3.152402
 42
-0.039664
  0
VERTEX
  8
LAYER_1
 62
7
 10
1.848076
 20
3.152434
 42
0.084620
  0
VERTEX
  8
LAYER_1
 62
7
 10
1.786719
 20
3.150831
 42
0.025340
  0
VERTEX
  8
LAYER_1
 62
7
 10
1.780856
 20
2.861787
 42
0.053590
  0
VERTEX
  8
LAYER_1
 62
7
 10
1.836029
 20
2.856025
  0
VERTEX
  8
LAYER_1
 62
7
 10
1.887754
 20
2.855551
 42
0.073502
  0
VERTEX
  8
LAYER_1
 62
7
 10
1.899866
 20
2.888829
 42
0.039610
  0
VERTEX
  8
LAYER_1
 62
7
 10
1.902650
 20
2.925205
 42
-0.087794
  0
VERTEX
  8
LAYER_1
 62
7
 10
1.905247
 20
2.940638
 42
-0.101961
  0
VERTEX
  8
LAYER_1
 62
7
 10
1.907736
 20
2.944570
 42
-0.193378
  0
VERTEX
  8
LAYER_1
 62
7
 10
1.910718
 20
2.945923
 42
-0.173466
  0
VERTEX
  8
LAYER_1
 62
7
 10
1.913967
 20
2.944655
 42
-0.087484
  0
VERTEX
  8
LAYER_1
 62
7
 10
1.917258
 20
2.940722
 42
-0.079079
  0
VERTEX
  8
LAYER_1
 62
7
 10
1.923067
 20
2.924696
 42
0.056655
  0
VERTEX
  8
LAYER_1
 62
7
 10
1.930479
 20
2.903171
  0
VERTEX
  8
LAYER_1
 62
7
 10
1.937059
 20
2.883789
 42
0.200089
  0
VERTEX
  8
LAYER_1
 62
7
 10
1.957015
 20
2.849877
 42
0.147029
  0
VERTEX
  8
LAYER_1
 62
7
 10
1.994936
 20
2.839478
 42
-0.073776
  0
VERTEX
  8
LAYER_1
 62
7
 10
2.014624
 20
2.835834
  0
VERTEX
  8
LAYER_1
 62
7
 10
2.034721
 20
2.829722
  0
VERTEX
  8
LAYER_1
 62
7
 10
2.034721
 20
2.829722
  0
SEQEND
  0
POLYLINE
  8
LAYER_1
 62
7
 70
1
 66
1
  0
VERTEX
  8
LAYER_1
 62
7
 10
1.660082
 20
0.145739
 42
0.192545
  0
VERTEX
  8
LAYER_1
 62
7
 10
2.771674
 20
0.499824
 42
0.204860
  0
VERTEX
  8
LAYER_1
 62
7
 10
3.328174
 20
1.590594
 42
0.192263
  0
VERTEX
  8
LAYER_1
 62
7
 10
2.968107
 20
2.690758
 42
0.199147
  0
VERTEX
  8
LAYER_1
 62
7
 10
1.895893
 20
3.240948
 42
0.192158
  0
VERTEX
  8
LAYER_1
 62
7
 10
0.784581
 20
2.888024
 42
0.203251
  0
VERTEX
  8
LAYER_1
 62
7
 10
0.226886
 20
1.812157
 42
0.190058
  0
VERTEX
  8
LAYER_1
 62
7
 10
0.568999
 20
0.713608
 42
0.204144
  0
VERTEX
  8
LAYER_1
 62
7
 10
1.660082
 20
0.145739
  0
VERTEX
  8
LAYER_1
 62
7
 10
1.660082
 20
0.145739
  0
SEQEND
  0
POLYLINE
  8
LAYER_1
 62
7
 70
1
 66
1
  0
VERTEX
  8
LAYER_1
 62
7
 10
1.921023
 20
0.324040
 42
-0.058031
  0
VERTEX
  8
LAYER_1
 62
7
 10
1.915742
 20
0.369240
 42
0.054444
  0
VERTEX
  8
LAYER_1
 62
7
 10
1.912207
 20
0.407977
 42
-0.036486
  0
VERTEX
  8
LAYER_1
 62
7
 10
1.909206
 20
0.428493
 42
0.058911
  0
VERTEX
  8
LAYER_1
 62
7
 10
1.902984
 20
0.470375
 42
0.091788
  0
VERTEX
  8
LAYER_1
 62
7
 10
1.899340
 20
0.476558
 42
0.167946
  0
VERTEX
  8
LAYER_1
 62
7
 10
1.894161
 20
0.479497
 42
0.239992
  0
VERTEX
  8
LAYER_1
 62
7
 10
1.889065
 20
0.478213
 42
0.140036
  0
VERTEX
  8
LAYER_1
 62
7
 10
1.886081
 20
0.472807
 42
0.075218
  0
VERTEX
  8
LAYER_1
 62
7
 10
1.884823
 20
0.453486
  0
VERTEX
  8
LAYER_1
 62
7
 10
1.889780
 20
0.407834
  0
VERTEX
  8
LAYER_1
 62
7
 10
1.898184
 20
0.323668
 42
0.147026
  0
VERTEX
  8
LAYER_1
 62
7
 10
1.904212
 20
0.309399
 42
0.213608
  0
VERTEX
  8
LAYER_1
 62
7
 10
1.913449
 20
0.304656
 42
0.299839
  0
VERTEX
  8
LAYER_1
 62
7
 10
1.920763
 20
0.309512
 42
0.103769
  0
VERTEX
  8
LAYER_1
 62
7
 10
1.922095
 20
0.315563
 42
0.070639
  0
VERTEX
  8
LAYER_1
 62
7
 10
1.921023
 20
0.324040
  0
VERTEX
  8
LAYER_1
 62
7
 10
1.921023
 20
0.324040
  0
SEQEND
  0
POLYLINE
  8
LAYER_1
 62
7
 70
1
 66
1
  0
VERTEX
  8
LAYER_1
 62
7
 10
1.649605
 20
0.426001
 42
0.162922
  0
VERTEX
  8
LAYER_1
 62
7
 10
1.661080
 20
0.430016
 42
0.136243
  0
VERTEX
  8
LAYER_1
 62
7
 10
1.667426
 20
0.439373
 42
0.100096
  0
VERTEX
  8
LAYER_1
 62
7
 10
1.669837
 20
0.466171
 42
0.182748
  0
VERTEX
  8
LAYER_1
 62
7
 10
1.665867
 20
0.475441
 42
0.182987
  0
VERTEX
  8
LAYER_1
 62
7
 10
1.658206
 20
0.479009
 42
0.223451
  0
VERTEX
  8
LAYER_1
 62
7
 10
1.650831
 20
0.476229
 42
0.202323
  0
VERTEX
  8
LAYER_1
 62
7
 10
1.647721
 20
0.466457
 42
-0.076810
  0
VERTEX
  8
LAYER_1
 62
7
 10
1.645983
 20
0.454359
  0
VERTEX
  8
LAYER_1
 62
7
 10
1.642899
 20
0.444138
 42
0.135733
  0
VERTEX
  8
LAYER_1
 62
7
 10
1.642697
 20
0.434962
 42
0.161261
  0
VERTEX
  8
LAYER_1
 62
7
 10
1.649605
 20
0.426001
  0
VERTEX
  8
LAYER_1
 62
7
 10
1.649605
 20
0.426001
  0
SEQEND
  0
POLYLINE
  8
LAYER_1
 62
7
 70
1
 66
1
  0
VERTEX
  8
LAYER_1
 62
7
 10
1.436294
 20
0.464342
 42
0.023658
  0
VERTEX
  8
LAYER_1
 62
7
 10
1.451056
 20
0.491967
 42
0.108795
  0
VERTEX
  8
LAYER_1
 62
7
 10
1.453771
 20
0.505786
 42
0.186430
  0
VERTEX
  8
LAYER_1
 62
7
 10
1.448107
 20
0.518260
 42
0.137594
  0
VERTEX
  8
LAYER_1
 62
7
 10
1.442475
 20
0.521947
 42
0.204141
  0
VERTEX
  8
LAYER_1
 62
7
 10
1.437627
 20
0.521209
 42
0.107521
  0
VERTEX
  8
LAYER_1
 62
7
 10
1.433451
 20
0.517016
 42
0.046065
  0
VERTEX
  8
LAYER_1
 62
7
 10
1.429836
 20
0.510339
  0
VERTEX
  8
LAYER_1
 62
7
 10
1.418732
 20
0.478167
 42
0.200806
  0
VERTEX
  8
LAYER_1
 62
7
 10
1.419177
 20
0.470846
 42
0.111066
  0
VERTEX
  8
LAYER_1
 62
7
 10
1.424148
 20
0.464083
 42
0.160535
  0
VERTEX
  8
LAYER_1
 62
7
 10
1.430802
 20
0.460906
 42
0.150924
  0
VERTEX
  8
LAYER_1
 62
7
 10
1.433871
 20
0.461608
 42
0.143813
  0
VERTEX
  8
LAYER_1
 62
7
 10
1.436294
 20
0.464342
  0
VERTEX
  8
LAYER_1
 62
7
 10
1.436294
 20
0.464342
  0
SEQEND
  0
POLYLINE
  8
LAYER_1
 62
7
 70
1
 66
1
  0
VERTEX
  8
LAYER_1
 62
7
 10
2.146309
 20
0.456930
 42
0.181907
  0
VERTEX
  8
LAYER_1
 62
7
 10
2.146487
 20
0.456980
 42
0.085650
  0
VERTEX
  8
LAYER_1
 62
7
 10
2.146672
 20
0.457166
 42
0.063878
  0
VERTEX
  8
LAYER_1
 62
7
 10
2.147051
 20
0.457913
 42
0.043731
  0
VERTEX
  8
LAYER_1
 62
7
 10
2.147764
 20
0.460642
 42
0.053345
  0
VERTEX
  8
LAYER_1
 62
7
 10
2.148349
 20
0.468977
 42
0.106433
  0
VERTEX
  8
LAYER_1
 62
7
 10
2.146561
 20
0.477208
 42
0.130003
  0
VERTEX
  8
LAYER_1
 62
7
 10
2.144307
 20
0.479808
 42
0.166315
  0
VERTEX
  8
LAYER_1
 62
7
 10
2.140897
 20
0.480610
 42
0.192876
  0
VERTEX
  8
LAYER_1
 62
7
 10
2.137895
 20
0.479373
 42
0.174450
  0
VERTEX
  8
LAYER_1
 62
7
 10
2.136838
 20
0.476607
 42
0.077763
  0
VERTEX
  8
LAYER_1
 62
7
 10
2.137279
 20
0.472829
 42
0.038957
  0
VERTEX
  8
LAYER_1
 62
7
 10
2.138772
 20
0.468560
 42
0.044172
  0
VERTEX
  8
LAYER_1
 62
7
 10
2.143121
 20
0.460618
  0
VERTEX
  8
LAYER_1
 62
7
 10
2.145084
 20
0.457983
 42
0.034852
  0
VERTEX
  8
LAYER_1
 62
7
 10
2.145817
 20
0.457226
 42
0.041203
  0
VERTEX
  8
LAYER_1
 62
7
 10
2.146096
 20
0.457017
 42
0.100908
  0
VERTEX
  8
LAYER_1
 62
7
 10
2.146309
 20
0.456930
  0
VERTEX
  8
LAYER_1
 62
7
 10
2.146309
 20
0.456930
  0
SEQEND
  0
POLYLINE
  8
LAYER_1
 62
7
 70
1
 66
1
  0
VERTEX
  8
LAYER_1
 62
7
 10
1.226524
 20
0.562839
 42
-0.034023
  0
VERTEX
  8
LAYER_1
 62
7
 10
1.233700
 20
0.574067
  0
VERTEX
  8
LAYER_1
 62
7
 10
1.240901
 20
0.584733
 42
0.114872
  0
VERTEX
  8
LAYER_1
 62
7
 10
1.244488
 20
0.594671
 42
0.225655
  0
VERTEX
  8
LAYER_1
 62
7
 10
1.240821
 20
0.603716
 42
0.117393
  0
VERTEX
  8
LAYER_1
 62
7
 10
1.236269
 20
0.606779
 42
0.164617
  0
VERTEX
  8
LAYER_1
 62
7
 10
1.232076
 20
0.606786
 42
0.105268
  0
VERTEX
  8
LAYER_1
 62
7
 10
1.228138
 20
0.604327
 42
0.048578
  0
VERTEX
  8
LAYER_1
 62
7
 10
1.224352
 20
0.599992
 42
-0.010354
  0
VERTEX
  8
LAYER_1
 62
7
 10
1.208656
 20
0.575676
 42
0.218538
  0
VERTEX
  8
LAYER_1
 62
7
 10
1.205724
 20
0.565698
 42
0.194410
  0
VERTEX
  8
LAYER_1
 62
7
 10
1.210443
 20
0.558208
 42
0.211451
  0
VERTEX
  8
LAYER_1
 62
7
 10
1.218735
 20
0.556242
 42
0.231437
  0
VERTEX
  8
LAYER_1
 62
7
 10
1.226524
 20
0.562839
  0
VERTEX
  8
LAYER_1
 62
7
 10
1.226524
 20
0.562839
  0
SEQEND
  0
POLYLINE
  8
LAYER_1
 62
7
 70
1
 66
1
  0
VERTEX
  8
LAYER_1
 62
7
 10
2.604546
 20
0.629950
  0
VERTEX
  8
LAYER_1
 62
7
 10
2.545964
 20
0.698272
  0
VERTEX
  8
LAYER_1
 62
7
 10
2.505705
 20
0.742057
 42
0.239549
  0
VERTEX
  8
LAYER_1
 62
7
 10
2.499067
 20
0.745024
 42
0.139498
  0
VERTEX
  8
LAYER_1
 62
7
 10
2.491624
 20
0.742577
 42
0.153906
  0
VERTEX
  8
LAYER_1
 62
7
 10
2.486746
 20
0.736921
 42
0.280006
  0
VERTEX
  8
LAYER_1
 62
7
 10
2.487798
 20
0.730263
 42
-0.008304
  0
VERTEX
  8
LAYER_1
 62
7
 10
2.584447
 20
0.615692
 42
0.177104
  0
VERTEX
  8
LAYER_1
 62
7
 10
2.594692
 20
0.608508
 42
0.206480
  0
VERTEX
  8
LAYER_1
 62
7
 10
2.604154
 20
0.610033
 42
0.233354
  0
VERTEX
  8
LAYER_1
 62
7
 10
2.608786
 20
0.617953
 42
0.185525
  0
VERTEX
  8
LAYER_1
 62
7
 10
2.604546
 20
0.629950
  0
VERTEX
  8
LAYER_1
 62
7
 10
2.604546
 20
0.629950
  0
SEQEND
  0
POLYLINE
  8
LAYER_1
 62
7
 70
1
 66
1
  0
VERTEX
  8
LAYER_1
 62
7
 10
0.987827
 20
0.673402
 42
0.047890
  0
VERTEX
  8
LAYER_1
 62
7
 10
0.992484
 20
0.682982
 42
0.092272
  0
VERTEX
  8
LAYER_1
 62
7
 10
0.993779
 20
0.689721
 42
0.197488
  0
VERTEX
  8
LAYER_1
 62
7
 10
0.992275
 20
0.693690
 42
0.200375
  0
VERTEX
  8
LAYER_1
 62
7
 10
0.988538
 20
0.694959
 42
0.098435
  0
VERTEX
  8
LAYER_1
 62
7
 10
0.983132
 20
0.693597
 42
0.057439
  0
VERTEX
  8
LAYER_1
 62
7
 10
0.976620
 20
0.689675
 42
0.080554
  0
VERTEX
  8
LAYER_1
 62
7
 10
0.962539
 20
0.674428
 42
0.064817
  0
VERTEX
  8
LAYER_1
 62
7
 10
0.958342
 20
0.666490
 42
0.114045
  0
VERTEX
  8
LAYER_1
 62
7
 10
0.957483
 20
0.660569
 42
0.185132
  0
VERTEX
  8
LAYER_1
 62
7
 10
0.959344
 20
0.656771
 42
0.163703
  0
VERTEX
  8
LAYER_1
 62
7
 10
0.963308
 20
0.655205
 42
0.100597
  0
VERTEX
  8
LAYER_1
 62
7
 10
0.968756
 20
0.655977
 42
0.069868
  0
VERTEX
  8
LAYER_1
 62
7
 10
0.975070
 20
0.659196
 42
0.108400
  0
VERTEX
  8
LAYER_1
 62
7
 10
0.987827
 20
0.673402
  0
VERTEX
  8
LAYER_1
 62
7
 10
0.987827
 20
0.673402
  0
SEQEND
  0
POLYLINE
  8
LAYER_1
 62
7
 70
1
 66
1
  0
VERTEX
  8
LAYER_1
 62
7
 10
1.673550
 20
0.934812
 42
0.061508
  0
VERTEX
  8
LAYER_1
 62
7
 10
1.894717
 20
0.978541
  0
VERTEX
  8
LAYER_1
 62
7
 10
1.905625
 20
1.006893
 42
0.135421
  0
VERTEX
  8
LAYER_1
 62
7
 10
1.907576
 20
1.036088
 42
-0.087848
  0
VERTEX
  8
LAYER_1
 62
7
 10
1.907158
 20
1.048580
 42
-0.145885
  0
VERTEX
  8
LAYER_1
 62
7
 10
1.908470
 20
1.051317
 42
-0.255614
  0
VERTEX
  8
LAYER_1
 62
7
 10
1.910549
 20
1.051888
 42
-0.124256
  0
VERTEX
  8
LAYER_1
 62
7
 10
1.913210
 20
1.050424
 42
-0.055984
  0
VERTEX
  8
LAYER_1
 62
7
 10
1.916268
 20
1.047054
 42
-0.057158
  0
VERTEX
  8
LAYER_1
 62
7
 10
1.922834
 20
1.035118
 42
-0.147903
  0
VERTEX
  8
LAYER_1
 62
7
 10
1.925151
 20
1.018161
 42
-0.045705
  0
VERTEX
  8
LAYER_1
 62
7
 10
1.923196
 20
1.010837
 42
0.041374
  0
VERTEX
  8
LAYER_1
 62
7
 10
1.915772
 20
0.988625
 42
0.132504
  0
VERTEX
  8
LAYER_1
 62
7
 10
1.918599
 20
0.969567
 42
-0.087448
  0
VERTEX
  8
LAYER_1
 62
7
 10
2.007189
 20
0.978268
  0
VERTEX
  8
LAYER_1
 62
7
 10
2.098543
 20
0.970345
 42
0.072263
  0
VERTEX
  8
LAYER_1
 62
7
 10
2.188659
 20
0.974185
 42
0.135209
  0
VERTEX
  8
LAYER_1
 62
7
 10
2.273531
 20
1.018174
 42
0.071145
  0
VERTEX
  8
LAYER_1
 62
7
 10
2.308934
 20
1.095331
 42
0.019238
  0
VERTEX
  8
LAYER_1
 62
7
 10
2.331583
 20
1.178982
  0
VERTEX
  8
LAYER_1
 62
7
 10
2.306031
 20
1.197665
 42
0.060024
  0
VERTEX
  8
LAYER_1
 62
7
 10
2.281117
 20
1.214638
 42
0.046569
  0
VERTEX
  8
LAYER_1
 62
7
 10
2.272291
 20
1.218425
 42
0.110159
  0
VERTEX
  8
LAYER_1
 62
7
 10
2.266553
 20
1.219122
 42
0.252493
  0
VERTEX
  8
LAYER_1
 62
7
 10
2.263640
 20
1.217160
 42
0.155794
  0
VERTEX
  8
LAYER_1
 62
7
 10
2.263292
 20
1.212967
 42
0.091157
  0
VERTEX
  8
LAYER_1
 62
7
 10
2.269246
 20
1.199603
 42
0.041707
  0
VERTEX
  8
LAYER_1
 62
7
 10
2.282324
 20
1.182464
 42
-0.057008
  0
VERTEX
  8
LAYER_1
 62
7
 10
2.287618
 20
1.175285
 42
-0.054395
  0
VERTEX
  8
LAYER_1
 62
7
 10
2.288760
 20
1.172568
 42
-0.088564
  0
VERTEX
  8
LAYER_1
 62
7
 10
2.289019
 20
1.170402
 42
-0.262590
  0
VERTEX
  8
LAYER_1
 62
7
 10
2.287245
 20
1.167626
 42
-0.128909
  0
VERTEX
  8
LAYER_1
 62
7
 10
2.283010
 20
1.166771
 42
-0.093823
  0
VERTEX
  8
LAYER_1
 62
7
 10
2.270020
 20
1.170072
 42
-0.072314
  0
VERTEX
  8
LAYER_1
 62
7
 10
2.255774
 20
1.178805
 42
0.187463
  0
VERTEX
  8
LAYER_1
 62
7
 10
2.159223
 20
1.211482
 42
0.033811
  0
VERTEX
  8
LAYER_1
 62
7
 10
2.146285
 20
1.210636
 42
0.106918
  0
VERTEX
  8
LAYER_1
 62
7
 10
2.136105
 20
1.207221
 42
0.226002
  0
VERTEX
  8
LAYER_1
 62
7
 10
2.131185
 20
1.199416
 42
0.132702
  0
VERTEX
  8
LAYER_1
 62
7
 10
2.134026
 20
1.185397
 42
-0.033983
  0
VERTEX
  8
LAYER_1
 62
7
 10
2.135175
 20
1.182211
 42
-0.074659
  0
VERTEX
  8
LAYER_1
 62
7
 10
2.135489
 20
1.180056
 42
-0.176543
  0
VERTEX
  8
LAYER_1
 62
7
 10
2.135061
 20
1.178798
 42
-0.187815
  0
VERTEX
  8
LAYER_1
 62
7
 10
2.133981
 20
1.178307
 42
-0.079840
  0
VERTEX
  8
LAYER_1
 62
7
 10
2.132342
 20
1.178450
 42
-0.033434
  0
VERTEX
  8
LAYER_1
 62
7
 10
2.130234
 20
1.179096
 42
0.042988
  0
VERTEX
  8
LAYER_1
 62
7
 10
2.112866
 20
1.186149
 42
0.098419
  0
VERTEX
  8
LAYER_1
 62
7
 10
2.107469
 20
1.186546
 42
0.201096
  0
VERTEX
  8
LAYER_1
 62
7
 10
2.103488
 20
1.184210
 42
-0.214434
  0
VERTEX
  8
LAYER_1
 62
7
 10
2.092935
 20
1.177735
 42
-0.096089
  0
VERTEX
  8
LAYER_1
 62
7
 10
2.080006
 20
1.179316
  0
VERTEX
  8
LAYER_1
 62
7
 10
2.065113
 20
1.183430
 42
0.088431
  0
VERTEX
  8
LAYER_1
 62
7
 10
2.048667
 20
1.184554
  0
VERTEX
  8
LAYER_1
 62
7
 10
2.027763
 20
1.181222
 42
-0.101894
  0
VERTEX
  8
LAYER_1
 62
7
 10
2.006992
 20
1.182301
 42
0.117203
  0
VERTEX
  8
LAYER_1
 62
7
 10
1.964532
 20
1.181670
  0
VERTEX
  8
LAYER_1
 62
7
 10
1.943981
 20
1.178403
 42
-0.077821
  0
VERTEX
  8
LAYER_1
 62
7
 10
1.923776
 20
1.179172
 42
0.242099
  0
VERTEX
  8
LAYER_1
 62
7
 10
1.836875
 20
1.150822
 42
-0.096995
  0
VERTEX
  8
LAYER_1
 62
7
 10
1.820256
 20
1.140468
  0
VERTEX
  8
LAYER_1
 62
7
 10
1.799610
 20
1.132017
 42
0.099957
  0
VERTEX
  8
LAYER_1
 62
7
 10
1.783142
 20
1.121570
 42
0.266333
  0
VERTEX
  8
LAYER_1
 62
7
 10
1.779058
 20
1.105230
 42
-0.154741
  0
VERTEX
  8
LAYER_1
 62
7
 10
1.778922
 20
1.100926
 42
-0.159449
  0
VERTEX
  8
LAYER_1
 62
7
 10
1.776452
 20
1.098064
 42
-0.080944
  0
VERTEX
  8
LAYER_1
 62
7
 10
1.772172
 20
1.096335
 42
-0.036848
  0
VERTEX
  8
LAYER_1
 62
7
 10
1.766605
 20
1.095435
 42
0.017412
  0
VERTEX
  8
LAYER_1
 62
7
 10
1.741943
 20
1.093988
  0
VERTEX
  8
LAYER_1
 62
7
 10
1.659416
 20
1.082373
 42
0.148171
  0
VERTEX
  8
LAYER_1
 62
7
 10
1.583941
 20
1.048208
 42
0.139247
  0
VERTEX
  8
LAYER_1
 62
7
 10
1.582388
 20
1.020356
  0
VERTEX
  8
LAYER_1
 62
7
 10
1.589486
 20
0.992470
 42
0.193533
  0
VERTEX
  8
LAYER_1
 62
7
 10
1.621009
 20
0.948841
 42
0.159697
  0
VERTEX
  8
LAYER_1
 62
7
 10
1.673550
 20
0.934812
  0
VERTEX
  8
LAYER_1
 62
7
 10
1.673550
 20
0.934812
  0
SEQEND
  0
POLYLINE
  8
LAYER_1
 62
7
 70
1
 66
1
  0
VERTEX
  8
LAYER_1
 62
7
 10
1.602804
 20
1.074985
 42
0.068921
  0
VERTEX
  8
LAYER_1
 62
7
 10
1.623649
 20
1.087973
 42
0.096464
  0
VERTEX
  8
LAYER_1
 62
7
 10
1.625989
 20
1.091404
 42
0.172679
  0
VERTEX
  8
LAYER_1
 62
7
 10
1.626177
 20
1.094873
 42
0.139782
  0
VERTEX
  8
LAYER_1
 62
7
 10
1.623714
 20
1.098362
 42
0.068981
  0
VERTEX
  8
LAYER_1
 62
7
 10
1.618098
 20
1.101851
 42
0.213054
  0
VERTEX
  8
LAYER_1
 62
7
 10
1.595780
 20
1.103664
 42
0.186556
  0
VERTEX
  8
LAYER_1
 62
7
 10
1.580833
 20
1.088706
 42
0.197727
  0
VERTEX
  8
LAYER_1
 62
7
 10
1.579701
 20
1.080000
 42
0.196707
  0
VERTEX
  8
LAYER_1
 62
7
 10
1.584626
 20
1.074381
 42
0.239630
  0
VERTEX
  8
LAYER_1
 62
7
 10
1.602804
 20
1.074985
  0
VERTEX
  8
LAYER_1
 62
7
 10
1.602804
 20
1.074985
  0
SEQEND
  0
POLYLINE
  8
LAYER_1
 62
7
 70
1
 66
1
  0
VERTEX
  8
LAYER_1
 62
7
 10
1.715459
 20
1.132026
 42
0.051841
  0
VERTEX
  8
LAYER_1
 62
7
 10
1.760021
 20
1.146860
 42
0.105672
  0
VERTEX
  8
LAYER_1
 62
7
 10
1.797438
 20
1.175063
  0
VERTEX
  8
LAYER_1
 62
7
 10
1.817836
 20
1.197691
  0
VERTEX
  8
LAYER_1
 62
7
 10
1.838574
 20
1.224111
 42
-0.077801
  0
VERTEX
  8
LAYER_1
 62
7
 10
1.769083
 20
1.534516
 42
-0.030333
  0
VERTEX
  8
LAYER_1
 62
7
 10
1.767822
 20
1.854383
 42
-0.035924
  0
VERTEX
  8
LAYER_1
 62
7
 10
1.769176
 20
1.879905
 42
-0.269193
  0
VERTEX
  8
LAYER_1
 62
7
 10
1.782900
 20
1.897449
 42
0.150193
  0
VERTEX
  8
LAYER_1
 62
7
 10
1.793992
 20
1.906797
 42
0.080071
  0
VERTEX
  8
LAYER_1
 62
7
 10
1.799747
 20
1.920597
 42
-0.024129
  0
VERTEX
  8
LAYER_1
 62
7
 10
1.807468
 20
1.952337
  0
VERTEX
  8
LAYER_1
 62
7
 10
1.818650
 20
1.984335
 42
0.055989
  0
VERTEX
  8
LAYER_1
 62
7
 10
1.824480
 20
2.023088
 42
-0.176741
  0
VERTEX
  8
LAYER_1
 62
7
 10
1.829129
 20
2.036688
 42
-0.267920
  0
VERTEX
  8
LAYER_1
 62
7
 10
1.837536
 20
2.039519
 42
-0.233705
  0
VERTEX
  8
LAYER_1
 62
7
 10
1.844419
 20
2.033870
 42
-0.202314
  0
VERTEX
  8
LAYER_1
 62
7
 10
1.844498
 20
2.022031
 42
0.112287
  0
VERTEX
  8
LAYER_1
 62
7
 10
1.792748
 20
1.534709
 42
0.060658
  0
VERTEX
  8
LAYER_1
 62
7
 10
1.847241
 20
1.284009
 42
0.267037
  0
VERTEX
  8
LAYER_1
 62
7
 10
1.938009
 20
1.211293
 42
0.124109
  0
VERTEX
  8
LAYER_1
 62
7
 10
2.062647
 20
1.216574
  0
VERTEX
  8
LAYER_1
 62
7
 10
2.099062
 20
1.226868
 42
0.103382
  0
VERTEX
  8
LAYER_1
 62
7
 10
2.134126
 20
1.246257
 42
0.142726
  0
VERTEX
  8
LAYER_1
 62
7
 10
2.185072
 20
1.326965
 42
0.081867
  0
VERTEX
  8
LAYER_1
 62
7
 10
2.194177
 20
1.421019
  0
VERTEX
  8
LAYER_1
 62
7
 10
2.184813
 20
1.520826
 42
-0.041613
  0
VERTEX
  8
LAYER_1
 62
7
 10
2.180355
 20
1.618791
  0
VERTEX
  8
LAYER_1
 62
7
 10
2.197727
 20
1.801059
 42
0.065989
  0
VERTEX
  8
LAYER_1
 62
7
 10
2.193428
 20
1.982434
 42
-0.090863
  0
VERTEX
  8
LAYER_1
 62
7
 10
2.198775
 20
1.982131
 42
-0.132330
  0
VERTEX
  8
LAYER_1
 62
7
 10
2.202273
 20
1.980164
 42
-0.107041
  0
VERTEX
  8
LAYER_1
 62
7
 10
2.204339
 20
1.976840
 42
-0.055337
  0
VERTEX
  8
LAYER_1
 62
7
 10
2.205390
 20
1.972464
 42
0.039657
  0
VERTEX
  8
LAYER_1
 62
7
 10
2.207767
 20
1.950575
 42
0.200466
  0
VERTEX
  8
LAYER_1
 62
7
 10
2.214127
 20
1.942529
 42
0.047076
  0
VERTEX
  8
LAYER_1
 62
7
 10
2.218584
 20
1.940553
 42
-0.090225
  0
VERTEX
  8
LAYER_1
 62
7
 10
2.231165
 20
1.934801
 42
-0.119865
  0
VERTEX
  8
LAYER_1
 62
7
 10
2.233458
 20
1.930717
 42
-0.088768
  0
VERTEX
  8
LAYER_1
 62
7
 10
2.233980
 20
1.924436
 42
-0.099063
  0
VERTEX
  8
LAYER_1
 62
7
 10
2.229412
 20
1.909101
  0
VERTEX
  8
LAYER_1
 62
7
 10
2.226502
 20
1.902704
 42
0.070154
  0
VERTEX
  8
LAYER_1
 62
7
 10
2.224800
 20
1.896046
 42
0.042845
  0
VERTEX
  8
LAYER_1
 62
7
 10
2.218385
 20
1.604332
 42
-0.020783
  0
VERTEX
  8
LAYER_1
 62
7
 10
2.216875
 20
1.455086
 42
0.111332
  0
VERTEX
  8
LAYER_1
 62
7
 10
2.241086
 20
1.311190
 42
0.275470
  0
VERTEX
  8
LAYER_1
 62
7
 10
2.341039
 20
1.247668
 42
-0.095849
  0
VERTEX
  8
LAYER_1
 62
7
 10
2.388158
 20
1.234530
  0
VERTEX
  8
LAYER_1
 62
7
 10
2.441917
 20
1.210419
 42
0.105404
  0
VERTEX
  8
LAYER_1
 62
7
 10
2.530392
 20
1.320368
 42
0.068301
  0
VERTEX
  8
LAYER_1
 62
7
 10
2.575938
 20
1.454971
 42
0.033360
  0
VERTEX
  8
LAYER_1
 62
7
 10
2.594348
 20
1.600075
  0
VERTEX
  8
LAYER_1
 62
7
 10
2.601413
 20
1.741524
 42
0.121398
  0
VERTEX
  8
LAYER_1
 62
7
 10
2.595129
 20
1.770496
 42
0.054047
  0
VERTEX
  8
LAYER_1
 62
7
 10
2.591680
 20
1.775789
 42
0.094235
  0
VERTEX
  8
LAYER_1
 62
7
 10
2.587728
 20
1.779170
 42
0.156304
  0
VERTEX
  8
LAYER_1
 62
7
 10
2.583394
 20
1.780074
 42
0.145576
  0
VERTEX
  8
LAYER_1
 62
7
 10
2.578803
 20
1.777935
 42
-0.085579
  0
VERTEX
  8
LAYER_1
 62
7
 10
2.577318
 20
1.777032
 42
-0.157807
  0
VERTEX
  8
LAYER_1
 62
7
 10
2.576111
 20
1.776952
 42
-0.153735
  0
VERTEX
  8
LAYER_1
 62
7
 10
2.575159
 20
1.777609
 42
-0.081950
  0
VERTEX
  8
LAYER_1
 62
7
 10
2.574440
 20
1.778917
 42
-0.064693
  0
VERTEX
  8
LAYER_1
 62
7
 10
2.573607
 20
1.783147
  0
VERTEX
  8
LAYER_1
 62
7
 10
2.573430
 20
1.788957
  0
VERTEX
  8
LAYER_1
 62
7
 10
2.575617
 20
1.814330
 42
0.044483
  0
VERTEX
  8
LAYER_1
 62
7
 10
2.574230
 20
1.923916
 42
0.085795
  0
VERTEX
  8
LAYER_1
 62
7
 10
2.567449
 20
1.951333
 42
0.075551
  0
VERTEX
  8
LAYER_1
 62
7
 10
2.560703
 20
1.961901
 42
0.132155
  0
VERTEX
  8
LAYER_1
 62
7
 10
2.551804
 20
1.967949
 42
-0.200055
  0
VERTEX
  8
LAYER_1
 62
7
 10
2.545919
 20
1.973446
 42
-0.088014
  0
VERTEX
  8
LAYER_1
 62
7
 10
2.543092
 20
1.983478
 42
-0.096642
  0
VERTEX
  8
LAYER_1
 62
7
 10
2.545081
 20
2.007339
 42
0.090874
  0
VERTEX
  8
LAYER_1
 62
7
 10
2.558656
 20
2.146695
 42
0.050227
  0
VERTEX
  8
LAYER_1
 62
7
 10
2.532187
 20
2.285785
 42
0.053101
  0
VERTEX
  8
LAYER_1
 62
7
 10
2.519010
 20
2.322742
 42
0.123936
  0
VERTEX
  8
LAYER_1
 62
7
 10
2.491600
 20
2.353022
 42
0.154844
  0
VERTEX
  8
LAYER_1
 62
7
 10
2.412505
 20
2.378426
 42
0.065350
  0
VERTEX
  8
LAYER_1
 62
7
 10
2.332754
 20
2.366313
  0
VERTEX
  8
LAYER_1
 62
7
 10
2.292771
 20
2.356266
  0
VERTEX
  8
LAYER_1
 62
7
 10
2.252792
 20
2.348935
 42
-0.133464
  0
VERTEX
  8
LAYER_1
 62
7
 10
2.173069
 20
2.358546
 42
0.035734
  0
VERTEX
  8
LAYER_1
 62
7
 10
2.153041
 20
2.365216
  0
VERTEX
  8
LAYER_1
 62
7
 10
2.134583
 20
2.370252
 42
-0.167933
  0
VERTEX
  8
LAYER_1
 62
7
 10
2.102806
 20
2.391795
 42
0.257975
  0
VERTEX
  8
LAYER_1
 62
7
 10
1.963044
 20
2.452793
 42
0.271219
  0
VERTEX
  8
LAYER_1
 62
7
 10
1.838611
 20
2.369209
 42
-0.234051
  0
VERTEX
  8
LAYER_1
 62
7
 10
1.786937
 20
2.323584
  0
VERTEX
  8
LAYER_1
 62
7
 10
1.742604
 20
2.313893
 42
0.152366
  0
VERTEX
  8
LAYER_1
 62
7
 10
1.704400
 20
2.293514
 42
-0.071204
  0
VERTEX
  8
LAYER_1
 62
7
 10
1.692989
 20
2.283716
 42
-0.134610
  0
VERTEX
  8
LAYER_1
 62
7
 10
1.681546
 20
2.280135
 42
-0.145286
  0
VERTEX
  8
LAYER_1
 62
7
 10
1.669731
 20
2.283721
 42
-0.083496
  0
VERTEX
  8
LAYER_1
 62
7
 10
1.657203
 20
2.295421
 42
0.169832
  0
VERTEX
  8
LAYER_1
 62
7
 10
1.631994
 20
2.311488
  0
VERTEX
  8
LAYER_1
 62
7
 10
1.603936
 20
2.316943
 42
0.136288
  0
VERTEX
  8
LAYER_1
 62
7
 10
1.561179
 20
2.314884
  0
VERTEX
  8
LAYER_1
 62
7
 10
1.519862
 20
2.299256
 42
0.137802
  0
VERTEX
  8
LAYER_1
 62
7
 10
1.485946
 20
2.271807
 42
0.057169
  0
VERTEX
  8
LAYER_1
 62
7
 10
1.464382
 20
2.233768
 42
-0.205494
  0
VERTEX
  8
LAYER_1
 62
7
 10
1.459759
 20
2.229706
 42
-0.072569
  0
VERTEX
  8
LAYER_1
 62
7
 10
1.452405
 20
2.228342
 42
0.045113
  0
VERTEX
  8
LAYER_1
 62
7
 10
1.436817
 20
2.227053
  0
VERTEX
  8
LAYER_1
 62
7
 10
1.410285
 20
2.217191
 42
-0.097449
  0
VERTEX
  8
LAYER_1
 62
7
 10
1.381993
 20
2.211636
 42
0.121378
  0
VERTEX
  8
LAYER_1
 62
7
 10
1.284990
 20
2.196033
 42
0.069268
  0
VERTEX
  8
LAYER_1
 62
7
 10
1.244775
 20
2.171180
 42
0.167451
  0
VERTEX
  8
LAYER_1
 62
7
 10
1.220607
 20
2.130707
 42
-0.185339
  0
VERTEX
  8
LAYER_1
 62
7
 10
1.212602
 20
2.117285
 42
-0.052051
  0
VERTEX
  8
LAYER_1
 62
7
 10
1.206304
 20
2.113383
 42
0.034491
  0
VERTEX
  8
LAYER_1
 62
7
 10
1.184730
 20
2.102452
 42
0.144717
  0
VERTEX
  8
LAYER_1
 62
7
 10
1.173536
 20
2.087099
 42
-0.078715
  0
VERTEX
  8
LAYER_1
 62
7
 10
1.167574
 20
2.075680
 42
-0.203795
  0
VERTEX
  8
LAYER_1
 62
7
 10
1.161241
 20
2.071771
 42
-0.154474
  0
VERTEX
  8
LAYER_1
 62
7
 10
1.154060
 20
2.073719
 42
-0.043540
  0
VERTEX
  8
LAYER_1
 62
7
 10
1.145550
 20
2.079870
 42
0.155648
  0
VERTEX
  8
LAYER_1
 62
7
 10
1.142329
 20
2.081284
 42
0.134560
  0
VERTEX
  8
LAYER_1
 62
7
 10
1.139054
 20
2.080593
 42
0.091650
  0
VERTEX
  8
LAYER_1
 62
7
 10
1.132348
 20
2.074930
 42
-0.068020
  0
VERTEX
  8
LAYER_1
 62
7
 10
1.118349
 20
2.060697
 42
0.124704
  0
VERTEX
  8
LAYER_1
 62
7
 10
0.995668
 20
1.945536
 42
0.232670
  0
VERTEX
  8
LAYER_1
 62
7
 10
0.973783
 20
1.783858
 42
-0.063020
  0
VERTEX
  8
LAYER_1
 62
7
 10
0.976714
 20
1.769221
  0
VERTEX
  8
LAYER_1
 62
7
 10
0.977678
 20
1.756896
 42
0.060766
  0
VERTEX
  8
LAYER_1
 62
7
 10
0.978703
 20
1.752478
 42
0.153092
  0
VERTEX
  8
LAYER_1
 62
7
 10
0.980772
 20
1.749690
 42
0.169393
  0
VERTEX
  8
LAYER_1
 62
7
 10
0.984400
 20
1.748884
 42
0.078342
  0
VERTEX
  8
LAYER_1
 62
7
 10
0.990097
 20
1.750409
 42
-0.150815
  0
VERTEX
  8
LAYER_1
 62
7
 10
0.994176
 20
1.751031
 42
-0.214678
  0
VERTEX
  8
LAYER_1
 62
7
 10
0.996649
 20
1.749145
 42
-0.095908
  0
VERTEX
  8
LAYER_1
 62
7
 10
0.997868
 20
1.745234
 42
-0.036727
  0
VERTEX
  8
LAYER_1
 62
7
 10
0.998185
 20
1.739775
 42
0.022628
  0
VERTEX
  8
LAYER_1
 62
7
 10
0.997473
 20
1.712075
 42
0.164844
  0
VERTEX
  8
LAYER_1
 62
7
 10
1.001653
 20
1.700228
 42
0.157270
  0
VERTEX
  8
LAYER_1
 62
7
 10
1.009501
 20
1.696215
  0
VERTEX
  8
LAYER_1
 62
7
 10
1.018884
 20
1.694162
 42
-0.155936
  0
VERTEX
  8
LAYER_1
 62
7
 10
1.027670
 20
1.688194
 42
-0.132856
  0
VERTEX
  8
LAYER_1
 62
7
 10
1.029897
 20
1.682066
 42
-0.034776
  0
VERTEX
  8
LAYER_1
 62
7
 10
1.030201
 20
1.674252
  0
VERTEX
  8
LAYER_1
 62
7
 10
1.030326
 20
1.666225
 42
0.102503
  0
VERTEX
  8
LAYER_1
 62
7
 10
1.032018
 20
1.659462
 42
-0.066314
  0
VERTEX
  8
LAYER_1
 62
7
 10
1.037191
 20
1.644020
  0
VERTEX
  8
LAYER_1
 62
7
 10
1.041372
 20
1.627331
 42
0.121807
  0
VERTEX
  8
LAYER_1
 62
7
 10
1.049541
 20
1.613294
 42
0.166917
  0
VERTEX
  8
LAYER_1
 62
7
 10
1.066676
 20
1.605807
 42
-0.104319
  0
VERTEX
  8
LAYER_1
 62
7
 10
1.058144
 20
1.731165
 42
-0.051162
  0
VERTEX
  8
LAYER_1
 62
7
 10
1.061114
 20
1.745553
 42
-0.042668
  0
VERTEX
  8
LAYER_1
 62
7
 10
1.061532
 20
1.746456
 42
-0.046520
  0
VERTEX
  8
LAYER_1
 62
7
 10
1.061730
 20
1.746732
 42
-0.090616
  0
VERTEX
  8
LAYER_1
 62
7
 10
1.061919
 20
1.746887
 42
-0.163211
  0
VERTEX
  8
LAYER_1
 62
7
 10
1.062099
 20
1.746920
 42
-0.149151
  0
VERTEX
  8
LAYER_1
 62
7
 10
1.062271
 20
1.746829
 42
-0.078161
  0
VERTEX
  8
LAYER_1
 62
7
 10
1.062432
 20
1.746612
 42
-0.040928
  0
VERTEX
  8
LAYER_1
 62
7
 10
1.062583
 20
1.746266
 42
-0.053515
  0
VERTEX
  8
LAYER_1
 62
7
 10
1.063076
 20
1.743555
  0
VERTEX
  8
LAYER_1
 62
7
 10
1.063433
 20
1.731327
 42
0.039266
  0
VERTEX
  8
LAYER_1
 62
7
 10
1.065000
 20
1.694216
 42
0.071031
  0
VERTEX
  8
LAYER_1
 62
7
 10
1.075566
 20
1.660984
 42
0.060851
  0
VERTEX
  8
LAYER_1
 62
7
 10
1.083314
 20
1.671702
 42
0.093799
  0
VERTEX
  8
LAYER_1
 62
7
 10
1.085878
 20
1.680146
  0
VERTEX
  8
LAYER_1
 62
7
 10
1.087717
 20
1.703184
  0
VERTEX
  8
LAYER_1
 62
7
 10
1.089138
 20
1.709844
 42
-0.037023
  0
VERTEX
  8
LAYER_1
 62
7
 10
1.089768
 20
1.711611
 42
-0.039860
  0
VERTEX
  8
LAYER_1
 62
7
 10
1.090063
 20
1.712145
 42
-0.077857
  0
VERTEX
  8
LAYER_1
 62
7
 10
1.090345
 20
1.712463
 42
-0.154057
  0
VERTEX
  8
LAYER_1
 62
7
 10
1.090616
 20
1.712575
 42
-0.168711
  0
VERTEX
  8
LAYER_1
 62
7
 10
1.090874
 20
1.712494
 42
-0.089922
  0
VERTEX
  8
LAYER_1
 62
7
 10
1.091120
 20
1.712231
 42
-0.045042
  0
VERTEX
  8
LAYER_1
 62
7
 10
1.091355
 20
1.711799
 42
-0.054940
  0
VERTEX
  8
LAYER_1
 62
7
 10
1.092183
 20
1.708613
 42
-0.026342
  0
VERTEX
  8
LAYER_1
 62
7
 10
1.094017
 20
1.685841
  0
VERTEX
  8
LAYER_1
 62
7
 10
1.096185
 20
1.561440
 42
0.030451
  0
VERTEX
  8
LAYER_1
 62
7
 10
1.104837
 20
1.432830
 42
0.073230
  0
VERTEX
  8
LAYER_1
 62
7
 10
1.138192
 20
1.312657
 42
0.115897
  0
VERTEX
  8
LAYER_1
 62
7
 10
1.214467
 20
1.213569
 42
0.016527
  0
VERTEX
  8
LAYER_1
 62
7
 10
1.257169
 20
1.176977
 42
0.184563
  0
VERTEX
  8
LAYER_1
 62
7
 10
1.312032
 20
1.162013
 42
0.192529
  0
VERTEX
  8
LAYER_1
 62
7
 10
1.397305
 20
1.198546
 42
0.147075
  0
VERTEX
  8
LAYER_1
 62
7
 10
1.432614
 20
1.276193
 42
0.062660
  0
VERTEX
  8
LAYER_1
 62
7
 10
1.435212
 20
1.373152
 42
0.022509
  0
VERTEX
  8
LAYER_1
 62
7
 10
1.422354
 20
1.467617
 42
-0.072866
  0
VERTEX
  8
LAYER_1
 62
7
 10
1.423380
 20
1.646571
  0
VERTEX
  8
LAYER_1
 62
7
 10
1.437693
 20
1.737801
  0
VERTEX
  8
LAYER_1
 62
7
 10
1.453492
 20
1.824242
 42
0.097892
  0
VERTEX
  8
LAYER_1
 62
7
 10
1.452439
 20
1.835472
  0
VERTEX
  8
LAYER_1
 62
7
 10
1.447458
 20
1.853659
 42
-0.062278
  0
VERTEX
  8
LAYER_1
 62
7
 10
1.447057
 20
1.858277
 42
-0.170810
  0
VERTEX
  8
LAYER_1
 62
7
 10
1.448189
 20
1.861422
 42
-0.209431
  0
VERTEX
  8
LAYER_1
 62
7
 10
1.451393
 20
1.862643
 42
-0.116673
  0
VERTEX
  8
LAYER_1
 62
7
 10
1.458606
 20
1.860818
 42
0.025833
  0
VERTEX
  8
LAYER_1
 62
7
 10
1.464724
 20
1.857970
 42
0.101780
  0
VERTEX
  8
LAYER_1
 62
7
 10
1.467428
 20
1.857573
 42
0.153822
  0
VERTEX
  8
LAYER_1
 62
7
 10
1.469927
 20
1.858614
 42
0.100637
  0
VERTEX
  8
LAYER_1
 62
7
 10
1.472243
 20
1.861657
 42
0.048875
  0
VERTEX
  8
LAYER_1
 62
7
 10
1.474398
 20
1.867267
  0
VERTEX
  8
LAYER_1
 62
7
 10
1.484406
 20
1.895972
 42
0.066171
  0
VERTEX
  8
LAYER_1
 62
7
 10
1.486765
 20
1.904018
 42
-0.129270
  0
VERTEX
  8
LAYER_1
 62
7
 10
1.492492
 20
1.925429
 42
-0.054465
  0
VERTEX
  8
LAYER_1
 62
7
 10
1.498669
 20
1.933688
 42
-0.112933
  0
VERTEX
  8
LAYER_1
 62
7
 10
1.503865
 20
1.937369
 42
-0.208640
  0
VERTEX
  8
LAYER_1
 62
7
 10
1.508004
 20
1.937248
 42
-0.153913
  0
VERTEX
  8
LAYER_1
 62
7
 10
1.511010
 20
1.934102
 42
-0.124246
  0
VERTEX
  8
LAYER_1
 62
7
 10
1.513317
 20
1.921843
 42
-0.092740
  0
VERTEX
  8
LAYER_1
 62
7
 10
1.510176
 20
1.906805
 42
0.091606
  0
VERTEX
  8
LAYER_1
 62
7
 10
1.441569
 20
1.577985
 42
0.051724
  0
VERTEX
  8
LAYER_1
 62
7
 10
1.468348
 20
1.242480
 42
0.179473
  0
VERTEX
  8
LAYER_1
 62
7
 10
1.517665
 20
1.170761
 42
0.114974
  0
VERTEX
  8
LAYER_1
 62
7
 10
1.558688
 20
1.151267
  0
VERTEX
  8
LAYER_1
 62
7
 10
1.603819
 20
1.144705
  0
VERTEX
  8
LAYER_1
 62
7
 10
1.659212
 20
1.133487
 42
0.113624
  0
VERTEX
  8
LAYER_1
 62
7
 10
1.715459
 20
1.132026
  0
VERTEX
  8
LAYER_1
 62
7
 10
1.715459
 20
1.132026
  0
SEQEND
  0
POLYLINE
  8
LAYER_1
 62
7
 70
1
 66
1
  0
VERTEX
  8
LAYER_1
 62
7
 10
1.910167
 20
0.944430
 42
-0.050953
  0
VERTEX
  8
LAYER_1
 62
7
 10
1.990109
 20
0.946728
  0
VERTEX
  8
LAYER_1
 62
7
 10
2.071300
 20
0.939993
 42
0.125379
  0
VERTEX
  8
LAYER_1
 62
7
 10
2.229673
 20
0.957099
 42
0.191236
  0
VERTEX
  8
LAYER_1
 62
7
 10
2.316762
 20
1.034178
  0
VERTEX
  8
LAYER_1
 62
7
 10
2.354880
 20
1.116372
 42
-0.134717
  0
VERTEX
  8
LAYER_1
 62
7
 10
2.396343
 20
1.167651
 42
-0.096631
  0
VERTEX
  8
LAYER_1
 62
7
 10
2.416450
 20
1.175049
 42
0.044160
  0
VERTEX
  8
LAYER_1
 62
7
 10
2.438115
 20
1.180628
 42
0.123109
  0
VERTEX
  8
LAYER_1
 62
7
 10
2.521635
 20
1.240466
 42
0.087330
  0
VERTEX
  8
LAYER_1
 62
7
 10
2.571613
 20
1.328271
 42
0.061715
  0
VERTEX
  8
LAYER_1
 62
7
 10
2.612202
 20
1.535781
 42
0.066831
  0
VERTEX
  8
LAYER_1
 62
7
 10
2.608305
 20
1.910512
 42
-0.027243
  0
VERTEX
  8
LAYER_1
 62
7
 10
2.598765
 20
2.004050
  0
VERTEX
  8
LAYER_1
 62
7
 10
2.595364
 20
2.097144
 42
0.055218
  0
VERTEX
  8
LAYER_1
 62
7
 10
2.572705
 20
2.288098
 42
0.163338
  0
VERTEX
  8
LAYER_1
 62
7
 10
2.520661
 20
2.370727
 42
0.117674
  0
VERTEX
  8
LAYER_1
 62
7
 10
2.432436
 20
2.411251
 42
0.134622
  0
VERTEX
  8
LAYER_1
 62
7
 10
2.229423
 20
2.395960
 42
-0.159636
  0
VERTEX
  8
LAYER_1
 62
7
 10
2.172488
 20
2.397230
 42
-0.091812
  0
VERTEX
  8
LAYER_1
 62
7
 10
2.118947
 20
2.425648
 42
0.245625
  0
VERTEX
  8
LAYER_1
 62
7
 10
1.908142
 20
2.475107
 42
0.134288
  0
VERTEX
  8
LAYER_1
 62
7
 10
1.820349
 20
2.416356
 42
-0.041619
  0
VERTEX
  8
LAYER_1
 62
7
 10
1.744362
 20
2.341933
 42
-0.129606
  0
VERTEX
  8
LAYER_1
 62
7
 10
1.723329
 20
2.335275
 42
0.024522
  0
VERTEX
  8
LAYER_1
 62
7
 10
1.700970
 20
2.332752
 42
-0.110964
  0
VERTEX
  8
LAYER_1
 62
7
 10
1.679380
 20
2.333871
  0
VERTEX
  8
LAYER_1
 62
7
 10
1.657239
 20
2.339514
 42
0.098989
  0
VERTEX
  8
LAYER_1
 62
7
 10
1.535839
 20
2.339700
 42
0.162904
  0
VERTEX
  8
LAYER_1
 62
7
 10
1.451505
 20
2.284449
 42
-0.212970
  0
VERTEX
  8
LAYER_1
 62
7
 10
1.340035
 20
2.233509
 42
0.048016
  0
VERTEX
  8
LAYER_1
 62
7
 10
1.312423
 20
2.230428
  0
VERTEX
  8
LAYER_1
 62
7
 10
1.284326
 20
2.225605
 42
0.240654
  0
VERTEX
  8
LAYER_1
 62
7
 10
1.194381
 20
2.160621
 42
-0.162484
  0
VERTEX
  8
LAYER_1
 62
7
 10
1.132034
 20
2.110880
 42
0.123544
  0
VERTEX
  8
LAYER_1
 62
7
 10
0.995656
 20
2.009908
 42
0.154595
  0
VERTEX
  8
LAYER_1
 62
7
 10
0.932779
 20
1.854739
 42
0.201866
  0
VERTEX
  8
LAYER_1
 62
7
 10
1.020067
 20
1.574681
 42
-0.099588
  0
VERTEX
  8
LAYER_1
 62
7
 10
1.057011
 20
1.507914
 42
-0.039896
  0
VERTEX
  8
LAYER_1
 62
7
 10
1.074221
 20
1.432597
  0
VERTEX
  8
LAYER_1
 62
7
 10
1.088046
 20
1.356314
 42
0.078605
  0
VERTEX
  8
LAYER_1
 62
7
 10
1.114836
 20
1.286649
 42
0.099690
  0
VERTEX
  8
LAYER_1
 62
7
 10
1.226962
 20
1.159417
 42
0.250388
  0
VERTEX
  8
LAYER_1
 62
7
 10
1.383626
 20
1.131041
 42
0.046744
  0
VERTEX
  8
LAYER_1
 62
7
 10
1.394412
 20
1.135929
 42
-0.036895
  0
VERTEX
  8
LAYER_1
 62
7
 10
1.423829
 20
1.152293
 42
-0.064411
  0
VERTEX
  8
LAYER_1
 62
7
 10
1.444340
 20
1.155842
  0
VERTEX
  8
LAYER_1
 62
7
 10
1.465362
 20
1.156310
 42
-0.115607
  0
VERTEX
  8
LAYER_1
 62
7
 10
1.498062
 20
1.149057
  0
VERTEX
  8
LAYER_1
 62
7
 10
1.529406
 20
1.132190
 42
-0.041467
  0
VERTEX
  8
LAYER_1
 62
7
 10
1.533659
 20
1.101681
  0
VERTEX
  8
LAYER_1
 62
7
 10
1.534952
 20
1.069681
 42
0.075782
  0
VERTEX
  8
LAYER_1
 62
7
 10
1.543685
 20
1.007617
  0
VERTEX
  8
LAYER_1
 62
7
 10
1.560847
 20
0.961479
 42
0.161660
  0
VERTEX
  8
LAYER_1
 62
7
 10
1.592494
 20
0.925368
 42
0.173192
  0
VERTEX
  8
LAYER_1
 62
7
 10
1.749211
 20
0.909016
  0
VERTEX
  8
LAYER_1
 62
7
 10
1.830018
 20
0.927355
 42
-0.024008
  0
VERTEX
  8
LAYER_1
 62
7
 10
1.910167
 20
0.944430
  0
VERTEX
  8
LAYER_1
 62
7
 10
1.910167
 20
0.944430
  0
SEQEND
  0
POLYLINE
  8
LAYER_1
 62
7
 70
1
 66
1
  0
VERTEX
  8
LAYER_1
 62
7
 10
1.891382
 20
1.072022
 42
0.160714
  0
VERTEX
  8
LAYER_1
 62
7
 10
1.860357
 20
1.092615
  0
VERTEX
  8
LAYER_1
 62
7
 10
1.823361
 20
1.101708
 42
0.067979
  0
VERTEX
  8
LAYER_1
 62
7
 10
1.809276
 20
1.105095
 42
0.045329
  0
VERTEX
  8
LAYER_1
 62
7
 10
1.807379
 20
1.105021
 42
0.085069
  0
VERTEX
  8
LAYER_1
 62
7
 10
1.806108
 20
1.104647
 42
0.164329
  0
VERTEX
  8
LAYER_1
 62
7
 10
1.805448
 20
1.104006
 42
0.173528
  0
VERTEX
  8
LAYER_1
 62
7
 10
1.805389
 20
1.103132
 42
0.092877
  0
VERTEX
  8
LAYER_1
 62
7
 10
1.805916
 20
1.102058
 42
0.049411
  0
VERTEX
  8
LAYER_1
 62
7
 10
1.807018
 20
1.100820
 42
0.051689
  0
VERTEX
  8
LAYER_1
 62
7
 10
1.810895
 20
1.097982
 42
0.055057
  0
VERTEX
  8
LAYER_1
 62
7
 10
1.824991
 20
1.091810
 42
0.044511
  0
VERTEX
  8
LAYER_1
 62
7
 10
1.844651
 20
1.087278
  0
VERTEX
  8
LAYER_1
 62
7
 10
1.861098
 20
1.085265
 42
-0.159984
  0
VERTEX
  8
LAYER_1
 62
7
 10
1.891382
 20
1.072022
  0
VERTEX
  8
LAYER_1
 62
7
 10
1.891382
 20
1.072022
  0
SEQEND
  0
POLYLINE
  8
LAYER_1
 62
7
 70
1
 66
1
  0
VERTEX
  8
LAYER_1
 62
7
 10
2.161509
 20
1.161467
 42
0.214937
  0
VERTEX
  8
LAYER_1
 62
7
 10
2.161792
 20
1.162004
 42
0.082709
  0
VERTEX
  8
LAYER_1
 62
7
 10
2.161730
 20
1.162938
 42
0.062069
  0
VERTEX
  8
LAYER_1
 62
7
 10
2.160680
 20
1.165717
 42
0.067281
  0
VERTEX
  8
LAYER_1
 62
7
 10
2.155612
 20
1.172945
 42
0.106478
  0
VERTEX
  8
LAYER_1
 62
7
 10
2.147995
 20
1.178643
 42
0.244128
  0
VERTEX
  8
LAYER_1
 62
7
 10
2.139519
 20
1.178306
 42
0.075414
  0
VERTEX
  8
LAYER_1
 62
7
 10
2.137764
 20
1.176948
 42
0.116134
  0
VERTEX
  8
LAYER_1
 62
7
 10
2.136919
 20
1.175507
 42
0.220194
  0
VERTEX
  8
LAYER_1
 62
7
 10
2.137532
 20
1.172480
 42
0.085912
  0
VERTEX
  8
LAYER_1
 62
7
 10
2.140516
 20
1.169439
 42
0.039804
  0
VERTEX
  8
LAYER_1
 62
7
 10
2.145028
 20
1.166595
 42
0.046711
  0
VERTEX
  8
LAYER_1
 62
7
 10
2.155267
 20
1.162355
 42
0.035622
  0
VERTEX
  8
LAYER_1
 62
7
 10
2.159309
 20
1.161386
 42
0.043073
  0
VERTEX
  8
LAYER_1
 62
7
 10
2.160692
 20
1.161281
 42
0.046320
  0
VERTEX
  8
LAYER_1
 62
7
 10
2.161178
 20
1.161336
 42
0.092699
  0
VERTEX
  8
LAYER_1
 62
7
 10
2.161509
 20
1.161467
  0
VERTEX
  8
LAYER_1
 62
7
 10
2.161509
 20
1.161467
  0
SEQEND
  0
POLYLINE
  8
LAYER_1
 62
7
 70
1
 66
1
  0
VERTEX
  8
LAYER_1
 62
7
 10
1.106036
 20
1.782887
  0
VERTEX
  8
LAYER_1
 62
7
 10
1.106349
 20
1.817439
 42
0.029637
  0
VERTEX
  8
LAYER_1
 62
7
 10
1.105493
 20
1.826083
 42
0.047317
  0
VERTEX
  8
LAYER_1
 62
7
 10
1.104937
 20
1.828246
 42
0.073490
  0
VERTEX
  8
LAYER_1
 62
7
 10
1.104642
 20
1.828788
 42
0.083669
  0
VERTEX
  8
LAYER_1
 62
7
 10
1.104493
 20
1.828924
 42
0.137384
  0
VERTEX
  8
LAYER_1
 62
7
 10
1.104342
 20
1.828970
 42
0.138036
  0
VERTEX
  8
LAYER_1
 62
7
 10
1.104192
 20
1.828925
 42
0.084401
  0
VERTEX
  8
LAYER_1
 62
7
 10
1.104042
 20
1.828791
 42
0.074042
  0
VERTEX
  8
LAYER_1
 62
7
 10
1.103745
 20
1.828253
 42
0.047524
  0
VERTEX
  8
LAYER_1
 62
7
 10
1.103181
 20
1.826097
 42
0.029690
  0
VERTEX
  8
LAYER_1
 62
7
 10
1.102295
 20
1.817463
  0
VERTEX
  8
LAYER_1
 62
7
 10
1.102482
 20
1.782900
  0
VERTEX
  8
LAYER_1
 62
7
 10
1.103243
 20
1.773326
 42
0.037577
  0
VERTEX
  8
LAYER_1
 62
7
 10
1.103725
 20
1.770932
 42
0.063153
  0
VERTEX
  8
LAYER_1
 62
7
 10
1.103978
 20
1.770333
 42
0.083785
  0
VERTEX
  8
LAYER_1
 62
7
 10
1.104107
 20
1.770183
 42
0.168579
  0
VERTEX
  8
LAYER_1
 62
7
 10
1.104236
 20
1.770133
 42
0.168604
  0
VERTEX
  8
LAYER_1
 62
7
 10
1.104366
 20
1.770183
 42
0.083804
  0
VERTEX
  8
LAYER_1
 62
7
 10
1.104495
 20
1.770332
 42
0.063164
  0
VERTEX
  8
LAYER_1
 62
7
 10
1.104751
 20
1.770930
 42
0.037582
  0
VERTEX
  8
LAYER_1
 62
7
 10
1.105241
 20
1.773321
  0
VERTEX
  8
LAYER_1
 62
7
 10
1.106036
 20
1.782887
  0
VERTEX
  8
LAYER_1
 62
7
 10
1.106036
 20
1.782887
  0
SEQEND
  0
POLYLINE
  8
LAYER_1
 62
7
 70
1
 66
1
  0
VERTEX
  8
LAYER_1
 62
7
 10
1.064918
 20
1.812990
 42
0.031918
  0
VERTEX
  8
LAYER_1
 62
7
 10
1.063437
 20
1.821464
 42
0.061546
  0
VERTEX
  8
LAYER_1
 62
7
 10
1.062674
 20
1.823502
 42
0.092773
  0
VERTEX
  8
LAYER_1
 62
7
 10
1.062285
 20
1.823984
 42
0.202354
  0
VERTEX
  8
LAYER_1
 62
7
 10
1.061890
 20
1.824114
 42
0.165828
  0
VERTEX
  8
LAYER_1
 62
7
 10
1.061488
 20
1.823894
 42
0.070689
  0
VERTEX
  8
LAYER_1
 62
7
 10
1.061078
 20
1.823330
 42
0.050828
  0
VERTEX
  8
LAYER_1
 62
7
 10
1.060233
 20
1.821180
 42
0.028517
  0
VERTEX
  8
LAYER_1
 62
7
 10
1.058424
 20
1.812903
 42
0.081458
  0
VERTEX
  8
LAYER_1
 62
7
 10
1.057697
 20
1.794809
 42
0.086379
  0
VERTEX
  8
LAYER_1
 62
7
 10
1.059165
 20
1.790143
 42
0.090085
  0
VERTEX
  8
LAYER_1
 62
7
 10
1.060140
 20
1.788931
 42
0.156862
  0
VERTEX
  8
LAYER_1
 62
7
 10
1.061192
 20
1.788476
 42
0.167416
  0
VERTEX
  8
LAYER_1
 62
7
 10
1.062258
 20
1.788786
 42
0.099799
  0
VERTEX
  8
LAYER_1
 62
7
 10
1.063278
 20
1.789867
 42
0.091671
  0
VERTEX
  8
LAYER_1
 62
7
 10
1.064926
 20
1.794377
 42
0.079327
  0
VERTEX
  8
LAYER_1
 62
7
 10
1.064918
 20
1.812990
  0
VERTEX
  8
LAYER_1
 62
7
 10
1.064918
 20
1.812990
  0
SEQEND
  0
POLYLINE
  8
LAYER_1
 62
7
 70
1
 66
1
  0
VERTEX
  8
LAYER_1
 62
7
 10
3.047643
 20
1.872127
 42
0.101647
  0
VERTEX
  8
LAYER_1
 62
7
 10
3.056907
 20
1.887848
 42
0.168285
  0
VERTEX
  8
LAYER_1
 62
7
 10
3.056850
 20
1.899925
 42
0.159669
  0
VERTEX
  8
LAYER_1
 62
7
 10
3.049983
 20
1.908121
 42
0.105795
  0
VERTEX
  8
LAYER_1
 62
7
 10
3.038815
 20
1.912197
 42
0.180666
  0
VERTEX
  8
LAYER_1
 62
7
 10
3.013613
 20
1.907035
 42
0.271337
  0
VERTEX
  8
LAYER_1
 62
7
 10
3.001319
 20
1.882533
 42
0.147075
  0
VERTEX
  8
LAYER_1
 62
7
 10
3.005934
 20
1.867345
 42
0.173093
  0
VERTEX
  8
LAYER_1
 62
7
 10
3.017041
 20
1.859233
 42
0.166460
  0
VERTEX
  8
LAYER_1
 62
7
 10
3.031869
 20
1.860169
 42
0.125165
  0
VERTEX
  8
LAYER_1
 62
7
 10
3.047643
 20
1.872127
  0
VERTEX
  8
LAYER_1
 62
7
 10
3.047643
 20
1.872127
  0
SEQEND
  0
POLYLINE
  8
LAYER_1
 62
7
 70
1
 66
1
  0
VERTEX
  8
LAYER_1
 62
7
 10
2.249725
 20
1.987255
 42
-0.060904
  0
VERTEX
  8
LAYER_1
 62
7
 10
2.257132
 20
2.011372
 42
0.033278
  0
VERTEX
  8
LAYER_1
 62
7
 10
2.275179
 20
2.054495
 42
0.054228
  0
VERTEX
  8
LAYER_1
 62
7
 10
2.275463
 20
2.057733
 42
0.102790
  0
VERTEX
  8
LAYER_1
 62
7
 10
2.274920
 20
2.060206
 42
0.152454
  0
VERTEX
  8
LAYER_1
 62
7
 10
2.273435
 20
2.061829
 42
0.117936
  0
VERTEX
  8
LAYER_1
 62
7
 10
2.270888
 20
2.062517
 42
0.194635
  0
VERTEX
  8
LAYER_1
 62
7
 10
2.265562
 20
2.060748
 42
0.103887
  0
VERTEX
  8
LAYER_1
 62
7
 10
2.261467
 20
2.055254
 42
0.058679
  0
VERTEX
  8
LAYER_1
 62
7
 10
2.255631
 20
2.036399
 42
-0.044762
  0
VERTEX
  8
LAYER_1
 62
7
 10
2.243993
 20
1.990380
 42
0.091954
  0
VERTEX
  8
LAYER_1
 62
7
 10
2.240785
 20
1.978513
 42
0.086490
  0
VERTEX
  8
LAYER_1
 62
7
 10
2.241167
 20
1.974949
 42
0.076749
  0
VERTEX
  8
LAYER_1
 62
7
 10
2.241710
 20
1.973829
 42
0.119153
  0
VERTEX
  8
LAYER_1
 62
7
 10
2.242432
 20
1.973179
 42
0.146162
  0
VERTEX
  8
LAYER_1
 62
7
 10
2.243292
 20
1.973017
 42
0.113759
  0
VERTEX
  8
LAYER_1
 62
7
 10
2.244250
 20
1.973364
 42
0.117074
  0
VERTEX
  8
LAYER_1
 62
7
 10
2.246292
 20
1.975665
 42
0.095046
  0
VERTEX
  8
LAYER_1
 62
7
 10
2.249725
 20
1.987255
  0
VERTEX
  8
LAYER_1
 62
7
 10
2.249725
 20
1.987255
  0
SEQEND
  0
POLYLINE
  8
LAYER_1
 62
7
 70
1
 66
1
  0
VERTEX
  8
LAYER_1
 62
7
 10
2.194807
 20
1.991888
 42
0.074146
  0
VERTEX
  8
LAYER_1
 62
7
 10
2.190064
 20
2.020848
 42
0.103727
  0
VERTEX
  8
LAYER_1
 62
7
 10
2.183493
 20
2.032575
 42
0.237663
  0
VERTEX
  8
LAYER_1
 62
7
 10
2.173262
 20
2.036737
 42
0.073602
  0
VERTEX
  8
LAYER_1
 62
7
 10
2.170677
 20
2.036175
 42
0.111089
  0
VERTEX
  8
LAYER_1
 62
7
 10
2.168974
 20
2.035050
 42
0.203497
  0
VERTEX
  8
LAYER_1
 62
7
 10
2.167820
 20
2.031335
 42
0.074751
  0
VERTEX
  8
LAYER_1
 62
7
 10
2.169019
 20
2.026037
  0
VERTEX
  8
LAYER_1
 62
7
 10
2.178921
 20
2.005095
 42
-0.092146
  0
VERTEX
  8
LAYER_1
 62
7
 10
2.182958
 20
1.991375
 42
0.217177
  0
VERTEX
  8
LAYER_1
 62
7
 10
2.184945
 20
1.986891
 42
0.189289
  0
VERTEX
  8
LAYER_1
 62
7
 10
2.189040
 20
1.985566
 42
0.182779
  0
VERTEX
  8
LAYER_1
 62
7
 10
2.193056
 20
1.987275
 42
0.211232
  0
VERTEX
  8
LAYER_1
 62
7
 10
2.194807
 20
1.991888
  0
VERTEX
  8
LAYER_1
 62
7
 10
2.194807
 20
1.991888
  0
SEQEND
  0
POLYLINE
  8
LAYER_1
 62
7
 70
1
 66
1
  0
VERTEX
  8
LAYER_1
 62
7
 10
1.772772
 20
2.187643
  0
VERTEX
  8
LAYER_1
 62
7
 10
1.771725
 20
2.196193
 42
0.044849
  0
VERTEX
  8
LAYER_1
 62
7
 10
1.771144
 20
2.198342
 42
0.070455
  0
VERTEX
  8
LAYER_1
 62
7
 10
1.770849
 20
2.198883
 42
0.081092
  0
VERTEX
  8
LAYER_1
 62
7
 10
1.770701
 20
2.199021
 42
0.136798
  0
VERTEX
  8
LAYER_1
 62
7
 10
1.770554
 20
2.199069
 42
0.142052
  0
VERTEX
  8
LAYER_1
 62
7
 10
1.770408
 20
2.199028
 42
0.086847
  0
VERTEX
  8
LAYER_1
 62
7
 10
1.770263
 20
2.198898
 42
0.074691
  0
VERTEX
  8
LAYER_1
 62
7
 10
1.769979
 20
2.198369
 42
0.046414
  0
VERTEX
  8
LAYER_1
 62
7
 10
1.769439
 20
2.196240
  0
VERTEX
  8
LAYER_1
 62
7
 10
1.768560
 20
2.187679
 42
0.052356
  0
VERTEX
  8
LAYER_1
 62
7
 10
1.768871
 20
2.174239
 42
0.064020
  0
VERTEX
  8
LAYER_1
 62
7
 10
1.769758
 20
2.170886
 42
0.084307
  0
VERTEX
  8
LAYER_1
 62
7
 10
1.770288
 20
2.170049
 42
0.205660
  0
VERTEX
  8
LAYER_1
 62
7
 10
1.770841
 20
2.169772
 42
0.207237
  0
VERTEX
  8
LAYER_1
 62
7
 10
1.771387
 20
2.170054
 42
0.085063
  0
VERTEX
  8
LAYER_1
 62
7
 10
1.771902
 20
2.170895
 42
0.064374
  0
VERTEX
  8
LAYER_1
 62
7
 10
1.772722
 20
2.174250
 42
0.052551
  0
VERTEX
  8
LAYER_1
 62
7
 10
1.772772
 20
2.187643
  0
VERTEX
  8
LAYER_1
 62
7
 10
1.772772
 20
2.187643
  0
SEQEND
  0
POLYLINE
  8
LAYER_1
 62
7
 70
1
 66
1
  0
VERTEX
  8
LAYER_1
 62
7
 10
2.953819
 20
2.490257
 42
0.239378
  0
VERTEX
  8
LAYER_1
 62
7
 10
2.954965
 20
2.514480
 42
0.138713
  0
VERTEX
  8
LAYER_1
 62
7
 10
2.948341
 20
2.523319
 42
0.250770
  0
VERTEX
  8
LAYER_1
 62
7
 10
2.938906
 20
2.524750
 42
0.074004
  0
VERTEX
  8
LAYER_1
 62
7
 10
2.915951
 20
2.513711
 42
0.111961
  0
VERTEX
  8
LAYER_1
 62
7
 10
2.907891
 20
2.504754
 42
0.173058
  0
VERTEX
  8
LAYER_1
 62
7
 10
2.906213
 20
2.492884
 42
0.196204
  0
VERTEX
  8
LAYER_1
 62
7
 10
2.913779
 20
2.480390
 42
0.156251
  0
VERTEX
  8
LAYER_1
 62
7
 10
2.927156
 20
2.476333
 42
0.245905
  0
VERTEX
  8
LAYER_1
 62
7
 10
2.953819
 20
2.490257
  0
VERTEX
  8
LAYER_1
 62
7
 10
2.953819
 20
2.490257
  0
SEQEND
  0
POLYLINE
  8
LAYER_1
 62
7
 70
1
 66
1
  0
VERTEX
  8
LAYER_1
 62
7
 10
2.662960
 20
2.755714
 42
0.158569
  0
VERTEX
  8
LAYER_1
 62
7
 10
2.683559
 20
2.773887
 42
0.141275
  0
VERTEX
  8
LAYER_1
 62
7
 10
2.686647
 20
2.786387
 42
0.171188
  0
VERTEX
  8
LAYER_1
 62
7
 10
2.681031
 20
2.799143
 42
0.114012
  0
VERTEX
  8
LAYER_1
 62
7
 10
2.674882
 20
2.803824
 42
0.145280
  0
VERTEX
  8
LAYER_1
 62
7
 10
2.668799
 20
2.804509
 42
0.104451
  0
VERTEX
  8
LAYER_1
 62
7
 10
2.662917
 20
2.802004
 42
0.059199
  0
VERTEX
  8
LAYER_1
 62
7
 10
2.657364
 20
2.797114
 42
0.076724
  0
VERTEX
  8
LAYER_1
 62
7
 10
2.641097
 20
2.769805
 42
0.239678
  0
VERTEX
  8
LAYER_1
 62
7
 10
2.641703
 20
2.763623
 42
0.118817
  0
VERTEX
  8
LAYER_1
 62
7
 10
2.647118
 20
2.758173
 42
0.098160
  0
VERTEX
  8
LAYER_1
 62
7
 10
2.654988
 20
2.755016
 42
0.147254
  0
VERTEX
  8
LAYER_1
 62
7
 10
2.662960
 20
2.755714
  0
VERTEX
  8
LAYER_1
 62
7
 10
2.662960
 20
2.755714
  0
SEQEND
  0
POLYLINE
  8
LAYER_1
 62
7
 70
1
 66
1
  0
VERTEX
  8
LAYER_1
 62
7
 10
2.265616
 20
2.820122
 42
0.148301
  0
VERTEX
  8
LAYER_1
 62
7
 10
2.272031
 20
2.821741
 42
0.083337
  0
VERTEX
  8
LAYER_1
 62
7
 10
2.277369
 20
2.826360
 42
0.036929
  0
VERTEX
  8
LAYER_1
 62
7
 10
2.281786
 20
2.832469
  0
VERTEX
  8
LAYER_1
 62
7
 10
2.285438
 20
2.838558
 42
0.035787
  0
VERTEX
  8
LAYER_1
 62
7
 10
2.295523
 20
2.859423
 42
-0.042122
  0
VERTEX
  8
LAYER_1
 62
7
 10
2.324933
 20
2.924548
 42
0.075826
  0
VERTEX
  8
LAYER_1
 62
7
 10
2.335510
 20
2.946169
 42
0.050831
  0
VERTEX
  8
LAYER_1
 62
7
 10
2.341690
 20
2.972475
 42
0.043949
  0
VERTEX
  8
LAYER_1
 62
7
 10
2.342163
 20
2.983640
 42
0.103675
  0
VERTEX
  8
LAYER_1
 62
7
 10
2.340373
 20
2.991485
 42
0.118050
  0
VERTEX
  8
LAYER_1
 62
7
 10
2.338509
 20
2.993694
 42
0.151650
  0
VERTEX
  8
LAYER_1
 62
7
 10
2.335933
 20
2.994512
 42
0.107156
  0
VERTEX
  8
LAYER_1
 62
7
 10
2.332599
 20
2.993751
 42
0.059906
  0
VERTEX
  8
LAYER_1
 62
7
 10
2.328457
 20
2.991223
 42
0.109121
  0
VERTEX
  8
LAYER_1
 62
7
 10
2.302829
 20
2.959881
 42
0.044530
  0
VERTEX
  8
LAYER_1
 62
7
 10
2.287100
 20
2.920491
 42
-0.076563
  0
VERTEX
  8
LAYER_1
 62
7
 10
2.255968
 20
2.843757
 42
0.150998
  0
VERTEX
  8
LAYER_1
 62
7
 10
2.253947
 20
2.837111
 42
0.097492
  0
VERTEX
  8
LAYER_1
 62
7
 10
2.255320
 20
2.829443
 42
0.108681
  0
VERTEX
  8
LAYER_1
 62
7
 10
2.259430
 20
2.823023
 42
0.181338
  0
VERTEX
  8
LAYER_1
 62
7
 10
2.265616
 20
2.820122
  0
VERTEX
  8
LAYER_1
 62
7
 10
2.265616
 20
2.820122
  0
SEQEND
  0
ENDSEC
  0
EOF
