  0
SECTION
  2
ENTITIES
  0
LINE
  8
APS_GEOMETR�
 10
697.19375
 11
697.19375
 20
614.219059
 21
147.804878
  0
LINE
  8
APS_GEOMETR�
 10
697.19375
 11
181.092511
 20
147.804878
 21
147.804878
  0
ARC
  8
APS_GEOMETR�
 10
851.349097
 20
396.975332
 40
715.073287
 50
160.841511
 51
200.39281
  0
ARC
  8
APS_GEOMETR�
 10
5474.951894
 20
-1003.758311
 40
5545.693497
 50
159.480444
 51
162.848642
  0
ARC
  8
APS_GEOMETR�
 10
-1315.344939
 20
1488.132008
 40
1687.889461
 50
341.055579
 51
349.196256
  0
ARC
  8
APS_GEOMETR�
 10
69.994888
 20
1221.79685
 40
277.188229
 50
349.596985
 51
28.861903
  0
ARC
  8
APS_GEOMETR�
 10
116.466058
 20
1242.213494
 40
226.680015
 50
30.012303
 51
63.652323
  0
ARC
  8
APS_GEOMETR�
 10
119.63829
 20
1248.108672
 40
219.98947
 50
63.711265
 51
98.039777
  0
ARC
  8
APS_GEOMETR�
 10
216.350051
 20
1374.14338
 40
157.088891
 50
120.419359
 51
144.243977
  0
ARC
  8
APS_GEOMETR�
 10
214.392485
 20
1377.388428
 40
153.299389
 50
96.18407
 51
120.402524
  0
ARC
  8
APS_GEOMETR�
 10
214.199776
 20
1378.283466
 40
152.38883
 50
71.832773
 51
96.148287
  0
ARC
  8
APS_GEOMETR�
 10
213.332193
 20
1375.891178
 40
154.932388
 50
47.756994
 51
71.803766
  0
ARC
  8
APS_GEOMETR�
 10
107.152864
 20
1253.812298
 40
316.708237
 50
16.889169
 51
48.384074
  0
ARC
  8
APS_GEOMETR�
 10
101.03372
 20
1251.559413
 40
323.218186
 50
345.891221
 51
16.956171
  0
ARC
  8
APS_GEOMETR�
 10
-2057.254729
 20
1813.56099
 40
2553.466919
 50
337.558598
 51
345.466314
  0
ARC
  8
APS_GEOMETR�
 10
4244.060727
 20
-816.838958
 40
4274.854716
 50
157.213508
 51
160.77167
  0
ARC
  8
APS_GEOMETR�
 10
800.009253
 20
375.189056
 40
630.419701
 50
159.979797
 51
188.296095
  0
LINE
  8
APS_GEOMETR�
 10
697.19375
 11
697.19375
 20
789.469947
 21
665.717843
  0
LINE
  8
APS_GEOMETR�
 10
697.19375
 11
697.19375
 20
983.736883
 21
872.850953
  0
LINE
  8
APS_GEOMETR�
 10
298.915936
 11
697.19375
 20
1896.829268
 21
1896.829268
  0
LINE
  8
APS_GEOMETR�
 10
697.19375
 11
697.19375
 20
1896.829268
 21
1088.020085
  0
LINE
  8
APS_GEOMETR�
 10
127.80625
 11
127.80625
 20
1812.27823
 21
1896.829268
  0
LINE
  8
APS_GEOMETR�
 10
127.80625
 11
258.840938
 20
1896.829268
 21
1896.829268
  0
LINE
  8
APS_GEOMETR�
 10
127.80625
 11
127.80625
 20
1503.907725
 21
1763.43764
  0
ARC
  8
APS_GEOMETR�
 10
1424.357235
 20
-249.019471
 40
1455.921939
 50
131.558983
 51
135.711934
  0
ARC
  8
APS_GEOMETR�
 10
664.946958
 20
681.514582
 40
260.504152
 50
105.343101
 51
142.414448
  0
ARC
  8
APS_GEOMETR�
 10
514.626703
 20
1221.289891
 40
299.814988
 50
285.75185
 51
307.11472
  0
ARC
  8
APS_GEOMETR�
 10
590.07533
 20
1097.724591
 40
156.417649
 50
312.395438
 51
343.655878
  0
ARC
  8
APS_GEOMETR�
 10
587.149007
 20
1098.775451
 40
159.521542
 50
343.589464
 51
14.437753
  0
ARC
  8
APS_GEOMETR�
 10
593.814453
 20
1223.766941
 40
170.623549
 50
304.770789
 51
330.03624
  0
ARC
  8
APS_GEOMETR�
 10
596.51143
 20
1219.95397
 40
165.953355
 50
279.01554
 51
304.756672
  0
ARC
  8
APS_GEOMETR�
 10
653.831306
 20
871.831169
 40
186.862209
 50
99.647215
 51
126.814936
  0
ARC
  8
APS_GEOMETR�
 10
900.491261
 20
514.568882
 40
620.906442
 50
125.28172
 51
150.738006
  0
ARC
  8
APS_GEOMETR�
 10
1714.694406
 20
17.166507
 40
1574.754638
 50
149.43007
 51
161.81832
  0
ARC
  8
APS_GEOMETR�
 10
784.914182
 20
331.845263
 40
593.272994
 50
122.565456
 51
162.67276
  0
ARC
  8
APS_GEOMETR�
 10
679.934794
 20
521.565867
 40
377.121267
 50
107.41826
 51
124.639032
  0
ARC
  8
APS_GEOMETR�
 10
611.420654
 20
714.943708
 40
172.264138
 50
72.183652
 51
104.927682
  0
ARC
  8
APS_GEOMETR�
 10
700.367265
 20
982.815374
 40
110.009356
 50
250.766318
 51
275.227606
  0
ARC
  8
APS_GEOMETR�
 10
700.245422
 20
983.369849
 40
110.572648
 50
275.264301
 51
299.641849
  0
ARC
  8
APS_GEOMETR�
 10
602.946204
 20
910.734096
 40
153.78685
 50
326.746962
 51
351.222817
  0
ARC
  8
APS_GEOMETR�
 10
606.334793
 20
908.459973
 40
149.706138
 50
301.841448
 51
326.763672
  0
ARC
  8
APS_GEOMETR�
 10
564.005791
 20
975.078756
 40
228.632522
 50
266.252434
 51
302.045153
  0
ARC
  8
APS_GEOMETR�
 10
534.321413
 20
580.187686
 40
167.397722
 50
84.948078
 51
114.743491
  0
ARC
  8
APS_GEOMETR�
 10
679.976933
 20
275.940523
 40
504.701411
 50
115.304121
 51
150.445622
  0
ARC
  8
APS_GEOMETR�
 10
152.455071
 20
1625.679435
 40
188.24869
 50
58.493164
 51
89.434873
  0
ARC
  8
APS_GEOMETR�
 10
152.702154
 20
1625.796836
 40
188.129019
 50
89.509767
 51
120.464749
  0
ARC
  8
APS_GEOMETR�
 10
66.707558
 20
1701.788907
 40
86.674055
 50
68.743488
 51
96.218358
  0
ARC
  8
APS_GEOMETR�
 10
65.984078
 20
1700.090081
 40
88.519617
 50
41.617528
 51
68.705714
  0
ARC
  8
APS_GEOMETR�
 10
63.899543
 20
1698.223043
 40
91.318008
 50
15.097831
 51
41.624639
  0
ARC
  8
APS_GEOMETR�
 10
618.512921
 20
1847.442721
 40
483.0186
 50
195.051566
 51
222.106097
  0
LINE
  8
APS_GEOMETR�
 10
698.618135
 11
698.618135
 20
1898.307317
 21
1087.272393
  0
ARC
  8
APS_GEOMETR�
 10
596.415099
 20
1220.127691
 40
167.618587
 50
279.684993
 51
307.570394
  0
ARC
  8
APS_GEOMETR�
 10
653.805921
 20
871.787237
 40
185.423195
 50
99.05806
 51
126.822991
  0
ARC
  8
APS_GEOMETR�
 10
900.457055
 20
514.528215
 40
619.459485
 50
125.280077
 51
150.758259
  0
ARC
  8
APS_GEOMETR�
 10
354.270924
 20
822.91611
 40
8.097738
 50
287.757666
 51
314.408805
  0
ARC
  8
APS_GEOMETR�
 10
354.325839
 20
822.766707
 40
7.938707
 50
262.455897
 51
287.709083
  0
ARC
  8
APS_GEOMETR�
 10
354.340478
 20
822.831179
 40
8.004545
 50
237.28618
 51
262.412606
  0
ARC
  8
APS_GEOMETR�
 10
354.46961
 20
823.02752
 40
8.239531
 50
212.580145
 51
237.268534
  0
ARC
  8
APS_GEOMETR�
 10
354.673253
 20
823.160914
 40
8.482959
 50
188.341747
 51
212.598688
  0
ARC
  8
APS_GEOMETR�
 10
354.749532
 20
823.178299
 40
8.560956
 50
163.616733
 51
188.382805
  0
LINE
  8
APS_GEOMETR�
 10
346.536182
 11
455.307925
 20
825.593013
 21
1085.946576
  0
ARC
  8
APS_GEOMETR�
 10
-363.687636
 20
1411.419528
 40
881.298117
 50
338.326878
 51
6.563343
  0
ARC
  8
APS_GEOMETR�
 10
-84.203532
 20
1397.104999
 40
607.039945
 50
10.924975
 51
45.541969
  0
ARC
  8
APS_GEOMETR�
 10
513.885844
 20
1991.425821
 40
236.298141
 50
203.208116
 51
222.961161
  0
LINE
  8
APS_GEOMETR�
 10
296.70906
 11
698.618135
 20
1898.307317
 21
1898.307317
  0
LINE
  8
APS_GEOMETR�
 10
698.618135
 11
698.618135
 20
986.412957
 21
871.34097
  0
ARC
  8
APS_GEOMETR�
 10
700.38499
 20
982.799267
 40
111.472301
 50
250.781138
 51
269.091814
  0
ARC
  8
APS_GEOMETR�
 10
611.420607
 20
714.840609
 40
170.88919
 50
72.18937
 51
104.917706
  0
ARC
  8
APS_GEOMETR�
 10
679.928818
 20
521.483438
 40
375.724826
 50
107.422919
 51
124.653182
  0
ARC
  8
APS_GEOMETR�
 10
463.093871
 20
836.701033
 40
6.92418
 50
270.806919
 51
297.47899
  0
ARC
  8
APS_GEOMETR�
 10
463.100338
 20
836.692018
 40
6.915078
 50
244.924132
 51
270.754394
  0
ARC
  8
APS_GEOMETR�
 10
463.1787
 20
836.85059
 40
7.091916
 50
219.451724
 51
244.893669
  0
ARC
  8
APS_GEOMETR�
 10
463.359092
 20
837.000655
 40
7.326563
 50
194.509463
 51
219.461485
  0
ARC
  8
APS_GEOMETR�
 10
463.473863
 20
837.035742
 40
7.446466
 50
169.837467
 51
194.549573
  0
ARC
  8
APS_GEOMETR�
 10
463.388831
 20
837.056806
 40
7.359054
 50
144.707654
 51
169.882079
  0
ARC
  8
APS_GEOMETR�
 10
665.010802
 20
681.517032
 40
261.997939
 50
105.867359
 51
142.418027
  0
ARC
  8
APS_GEOMETR�
 10
514.5933
 20
1221.486682
 40
298.537763
 50
285.30164
 51
308.055218
  0
LINE
  8
APS_GEOMETR�
 10
698.618135
 11
698.618135
 20
792.428021
 21
663.609201
  0
ARC
  8
APS_GEOMETR�
 10
783.110607
 20
890.448696
 40
242.064319
 50
231.438782
 51
249.5708
  0
ARC
  8
APS_GEOMETR�
 10
537.476102
 20
590.257164
 40
145.868535
 50
49.495059
 51
68.998774
  0
ARC
  8
APS_GEOMETR�
 10
594.335872
 20
737.359632
 40
11.84574
 50
221.961415
 51
247.242811
  0
ARC
  8
APS_GEOMETR�
 10
594.615115
 20
737.612524
 40
12.222475
 50
197.287128
 51
221.967692
  0
ARC
  8
APS_GEOMETR�
 10
594.824169
 20
737.685546
 40
12.443787
 50
172.916439
 51
197.322121
  0
ARC
  8
APS_GEOMETR�
 10
594.730262
 20
737.706057
 40
12.348071
 50
148.433629
 51
172.957155
  0
ARC
  8
APS_GEOMETR�
 10
594.441115
 20
737.888638
 40
12.00613
 50
123.495985
 51
148.453673
  0
ARC
  8
APS_GEOMETR�
 10
594.250334
 20
738.170899
 40
11.665458
 50
98.018651
 51
123.479666
  0
ARC
  8
APS_GEOMETR�
 10
563.741126
 20
975.842276
 40
227.957033
 50
277.278882
 51
302.012893
  0
ARC
  8
APS_GEOMETR�
 10
607.315348
 20
907.253523
 40
146.700698
 50
301.783144
 51
308.489748
  0
LINE
  8
APS_GEOMETR�
 10
698.618135
 11
698.618135
 20
616.451698
 21
146.326829
  0
LINE
  8
APS_GEOMETR�
 10
698.618135
 11
301.19513
 20
146.326829
 21
146.326829
  0
ARC
  8
APS_GEOMETR�
 10
564.244709
 20
339.39103
 40
326.295674
 50
178.623562
 51
216.27666
  0
ARC
  8
APS_GEOMETR�
 10
473.290921
 20
347.403006
 40
235.247798
 50
147.299489
 51
180.042381
  0
ARC
  8
APS_GEOMETR�
 10
466.648373
 20
351.859668
 40
227.25041
 50
113.826701
 51
147.340254
  0
ARC
  8
APS_GEOMETR�
 10
413.226492
 20
479.320472
 40
89.110549
 50
87.261523
 51
115.512651
  0
ARC
  8
APS_GEOMETR�
 10
413.123752
 20
479.047567
 40
89.388096
 50
58.997477
 51
87.204102
  0
ARC
  8
APS_GEOMETR�
 10
411.755683
 20
476.850598
 40
91.975884
 50
31.297002
 51
58.971919
  0
ARC
  8
APS_GEOMETR�
 10
409.472009
 20
475.412157
 40
94.674494
 50
4.141544
 51
31.322914
  0
ARC
  8
APS_GEOMETR�
 10
494.640064
 20
482.232844
 40
9.25923
 50
337.651407
 51
0.103755
  0
ARC
  8
APS_GEOMETR�
 10
494.814873
 20
482.15719
 40
9.068785
 50
315.329594
 51
337.673528
  0
ARC
  8
APS_GEOMETR�
 10
495.000318
 20
481.973645
 40
8.807866
 50
292.584525
 51
315.330616
  0
ARC
  8
APS_GEOMETR�
 10
495.072446
 20
481.809465
 40
8.628577
 50
269.526384
 51
292.560997
  0
ARC
  8
APS_GEOMETR�
 10
495.077914
 20
481.815698
 40
8.634856
 50
245.936065
 51
269.490446
  0
ARC
  8
APS_GEOMETR�
 10
451.24434
 20
403.72514
 40
80.956864
 50
60.135379
 51
87.750849
  0
ARC
  8
APS_GEOMETR�
 10
452.332391
 20
408.373989
 40
76.274262
 50
88.43051
 51
112.988576
  0
ARC
  8
APS_GEOMETR�
 10
452.968615
 20
406.962245
 40
77.822373
 50
113.013861
 51
137.244717
  0
ARC
  8
APS_GEOMETR�
 10
454.585212
 20
405.460457
 40
80.028892
 50
137.240961
 51
161.016028
  0
ARC
  8
APS_GEOMETR�
 10
455.895047
 20
404.968072
 40
81.427669
 50
160.988227
 51
184.484964
  0
ARC
  8
APS_GEOMETR�
 10
455.546071
 20
404.892522
 40
81.073868
 50
184.45102
 51
207.979734
  0
ARC
  8
APS_GEOMETR�
 10
462.580775
 20
416.189826
 40
92.82695
 50
212.104188
 51
236.076082
  0
ARC
  8
APS_GEOMETR�
 10
461.23939
 20
414.231467
 40
90.453332
 50
236.088821
 51
260.518406
  0
ARC
  8
APS_GEOMETR�
 10
461.050544
 20
413.436162
 40
89.6378
 50
260.553725
 51
285.133691
  0
ARC
  8
APS_GEOMETR�
 10
460.669618
 20
414.650535
 40
90.909521
 50
285.16563
 51
309.505791
  0
ARC
  8
APS_GEOMETR�
 10
414.352543
 20
467.11703
 40
160.872784
 50
310.346181
 51
337.096544
  0
ARC
  8
APS_GEOMETR�
 10
411.017973
 20
468.634443
 40
164.53504
 50
337.061708
 51
3.428291
  0
ARC
  8
APS_GEOMETR�
 10
427.778562
 20
479.308292
 40
147.482365
 50
359.675695
 51
24.194456
  0
ARC
  8
APS_GEOMETR�
 10
430.668908
 20
480.681115
 40
144.283293
 50
24.167583
 51
49.033385
  0
ARC
  8
APS_GEOMETR�
 10
433.373089
 20
483.777894
 40
140.172028
 50
49.038125
 51
74.394726
  0
ARC
  8
APS_GEOMETR�
 10
434.019654
 20
485.771569
 40
138.07794
 50
74.430584
 51
100.070082
  0
ARC
  8
APS_GEOMETR�
 10
409.02527
 20
630.641176
 40
8.959327
 50
249.421829
 51
275.451041
  0
ARC
  8
APS_GEOMETR�
 10
409.097209
 20
630.817489
 40
9.149678
 50
224.089851
 51
249.388155
  0
ARC
  8
APS_GEOMETR�
 10
409.310941
 20
631.025052
 40
9.44761
 50
199.286212
 51
224.092098
  0
ARC
  8
APS_GEOMETR�
 10
409.490581
 20
631.094033
 40
9.639953
 50
174.818503
 51
199.320545
  0
ARC
  8
APS_GEOMETR�
 10
409.435711
 20
631.106148
 40
9.584216
 50
150.272013
 51
174.861014
  0
ARC
  8
APS_GEOMETR�
 10
409.204921
 20
631.243315
 40
9.315783
 50
124.577331
 51
150.30073
  0
ARC
  8
APS_GEOMETR�
 10
476.180108
 20
493.955207
 40
161.971392
 50
87.876123
 51
116.496356
  0
ARC
  8
APS_GEOMETR�
 10
475.997099
 20
493.569699
 40
162.363505
 50
59.274979
 51
87.816628
  0
ARC
  8
APS_GEOMETR�
 10
669.621079
 20
812.551212
 40
210.796961
 50
238.331413
 51
256.726098
  0
ARC
  8
APS_GEOMETR�
 10
645.651899
 20
733.726319
 40
128.680841
 50
259.05547
 51
294.305971
  0
ARC
  8
APS_GEOMETR�
 10
69.893706
 20
1221.796785
 40
278.713906
 50
349.595756
 51
28.865121
  0
ARC
  8
APS_GEOMETR�
 10
-1315.442331
 20
1488.12997
 40
1689.411049
 50
341.054873
 51
349.196457
  0
ARC
  8
APS_GEOMETR�
 10
5474.860494
 20
-1003.762297
 40
5544.178206
 50
159.48023
 51
162.848921
  0
ARC
  8
APS_GEOMETR�
 10
850.110985
 20
397.199549
 40
712.399914
 50
160.82648
 51
176.337354
  0
ARC
  8
APS_GEOMETR�
 10
132.535227
 20
443.733687
 40
6.709663
 50
326.680667
 51
351.214358
  0
ARC
  8
APS_GEOMETR�
 10
132.700636
 20
443.623124
 40
6.510711
 50
302.439524
 51
326.694118
  0
ARC
  8
APS_GEOMETR�
 10
132.802103
 20
443.4671
 40
6.324606
 50
277.746779
 51
302.42194
  0
ARC
  8
APS_GEOMETR�
 10
132.813856
 20
443.414755
 40
6.271156
 50
252.904871
 51
277.704843
  0
ARC
  8
APS_GEOMETR�
 10
132.851025
 20
443.522107
 40
6.384693
 50
228.332215
 51
252.869249
  0
ARC
  8
APS_GEOMETR�
 10
132.989078
 20
443.6765
 40
6.591805
 50
204.250152
 51
228.327996
  0
ARC
  8
APS_GEOMETR�
 10
133.135657
 20
443.746069
 40
6.754024
 50
180.475308
 51
204.277529
  0
LINE
  8
APS_GEOMETR�
 10
126.381865
 11
126.381865
 20
443.69004
 21
1469.478812
  0
ARC
  8
APS_GEOMETR�
 10
119.459221
 20
1247.44419
 40
222.142514
 50
58.664088
 51
88.214198
  0
ARC
  8
APS_GEOMETR�
 10
115.903576
 20
1241.801668
 40
228.811131
 50
30.040057
 51
58.638402
  0
ARC
  8
APS_GEOMETR�
 10
618.179489
 20
1847.337021
 40
481.241097
 50
195.04609
 51
222.798453
  0
ARC
  8
APS_GEOMETR�
 10
214.203294
 20
1378.141845
 40
151.051842
 50
70.321133
 51
98.445484
  0
ARC
  8
APS_GEOMETR�
 10
214.537139
 20
1376.844507
 40
152.384206
 50
98.498006
 51
125.345575
  0
LINE
  8
APS_GEOMETR�
 10
126.381865
 11
126.381865
 20
1501.140903
 21
1766.767122
  0
ARC
  8
APS_GEOMETR�
 10
64.172217
 20
1698.394898
 40
92.438094
 50
15.057203
 51
47.701966
  0
ARC
  8
APS_GEOMETR�
 10
667.359488
 20
1811.642528
 40
415.87894
 50
167.972013
 51
183.885692
  0
ARC
  8
APS_GEOMETR�
 10
152.570429
 20
1625.859944
 40
186.577134
 50
57.638872
 51
98.068864
  0
LINE
  8
APS_GEOMETR�
 10
126.381865
 11
126.381865
 20
1810.589979
 21
1898.307317
  0
LINE
  8
APS_GEOMETR�
 10
126.381865
 11
260.610786
 20
1898.307317
 21
1898.307317
  0
LINE
  8
APS_GEOMETR�
 10
127.80625
 11
127.80625
 20
1467.952265
 21
443.697238
  0
ARC
  8
APS_GEOMETR�
 10
133.035397
 20
443.746919
 40
5.229383
 50
180.544332
 51
204.276229
  0
ARC
  8
APS_GEOMETR�
 10
132.935021
 20
443.69924
 40
5.118281
 50
204.251656
 51
228.328399
  0
ARC
  8
APS_GEOMETR�
 10
132.839715
 20
443.592609
 40
4.975266
 50
228.331811
 51
252.871239
  0
ARC
  8
APS_GEOMETR�
 10
132.813896
 20
443.518014
 40
4.896376
 50
252.902874
 51
277.70713
  0
ARC
  8
APS_GEOMETR�
 10
132.805721
 20
443.554428
 40
4.933558
 50
277.744496
 51
302.423054
  0
ARC
  8
APS_GEOMETR�
 10
132.735484
 20
443.662475
 40
5.062421
 50
302.438417
 51
326.693285
  0
ARC
  8
APS_GEOMETR�
 10
132.623637
 20
443.737631
 40
5.197167
 50
326.677919
 51
350.508548
  0
ARC
  8
APS_GEOMETR�
 10
-103.9959
 20
1268.366941
 40
526.44147
 50
2.298415
 51
35.117312
  0
ARC
  8
APS_GEOMETR�
 10
663.692251
 20
1810.830688
 40
413.567928
 50
186.655887
 51
215.409331
  0
ARC
  8
APS_GEOMETR�
 10
666.885546
 20
1811.647931
 40
416.834658
 50
158.11527
 51
186.716589
  0
ARC
  8
APS_GEOMETR�
 10
515.448208
 20
1992.516391
 40
236.735476
 50
186.182966
 51
222.875025
  0
ARC
  8
APS_GEOMETR�
 10
-84.277934
 20
1397.113839
 40
608.537816
 50
10.919416
 51
45.538634
  0
ARC
  8
APS_GEOMETR�
 10
-363.792564
 20
1411.419605
 40
882.827467
 50
338.326067
 51
6.567255
  0
LINE
  8
APS_GEOMETR�
 10
456.619613
 11
348.554311
 20
1085.370228
 21
826.688172
  0
ARC
  8
APS_GEOMETR�
 10
-3996.313135
 20
2590.07796
 40
4689.074179
 50
335.792217
 51
337.909939
  0
ARC
  8
APS_GEOMETR�
 10
521.440021
 20
527.318424
 40
211.981156
 50
71.05359
 51
106.832812
  0
ARC
  8
APS_GEOMETR�
 10
537.463011
 20
590.32555
 40
147.280667
 50
49.504465
 51
68.990351
  0
ARC
  8
APS_GEOMETR�
 10
782.448153
 20
889.409525
 40
239.381406
 50
231.40075
 51
261.66741
  0
ARC
  8
APS_GEOMETR�
 10
644.504302
 20
736.254129
 40
132.916094
 50
290.266502
 51
320.971053
  0
ARC
  8
APS_GEOMETR�
 10
645.650754
 20
733.519414
 40
129.953627
 50
259.03505
 51
290.209976
  0
ARC
  8
APS_GEOMETR�
 10
669.625796
 20
812.465986
 40
212.190346
 50
238.334645
 51
256.733574
  0
ARC
  8
APS_GEOMETR�
 10
475.998989
 20
493.477804
 40
160.977289
 50
59.279233
 51
87.81679
  0
ARC
  8
APS_GEOMETR�
 10
476.179178
 20
493.860469
 40
160.588123
 50
87.875831
 51
116.459928
  0
ARC
  8
APS_GEOMETR�
 10
510.693567
 20
367.986427
 40
289.751805
 50
111.473125
 51
139.116422
  0
ARC
  8
APS_GEOMETR�
 10
564.180762
 20
339.398603
 40
324.807245
 50
178.621185
 51
216.147713
  0
ARC
  8
APS_GEOMETR�
 10
473.197746
 20
347.400936
 40
233.730257
 50
147.299231
 51
180.045754
  0
ARC
  8
APS_GEOMETR�
 10
466.620741
 20
351.813902
 40
225.811629
 50
113.821017
 51
147.339902
  0
ARC
  8
APS_GEOMETR�
 10
413.227024
 20
479.218344
 40
87.73473
 50
87.474246
 51
115.526418
  0
ARC
  8
APS_GEOMETR�
 10
413.130519
 20
478.974468
 40
87.982663
 50
59.41951
 51
87.41846
  0
ARC
  8
APS_GEOMETR�
 10
411.830489
 20
476.853633
 40
90.46992
 50
31.91551
 51
59.394022
  0
ARC
  8
APS_GEOMETR�
 10
409.611327
 20
475.424906
 40
93.108939
 50
4.988098
 51
31.939844
  0
ARC
  8
APS_GEOMETR�
 10
494.725063
 20
482.235584
 40
7.749859
 50
343.333328
 51
9.544515
  0
ARC
  8
APS_GEOMETR�
 10
494.850609
 20
482.192312
 40
7.617179
 50
316.856725
 51
343.374302
  0
ARC
  8
APS_GEOMETR�
 10
495.021077
 20
482.031762
 40
7.383009
 50
289.780608
 51
316.861182
  0
ARC
  8
APS_GEOMETR�
 10
495.074757
 20
481.897259
 40
7.238279
 50
262.297424
 51
289.741074
  0
ARC
  8
APS_GEOMETR�
 10
495.089172
 20
481.956035
 40
7.298458
 50
234.955902
 51
262.247126
  0
ARC
  8
APS_GEOMETR�
 10
451.248831
 20
403.849684
 40
82.310201
 50
61.202959
 51
87.759329
  0
ARC
  8
APS_GEOMETR�
 10
452.332783
 20
408.473338
 40
77.652946
 50
88.425138
 51
112.988451
  0
ARC
  8
APS_GEOMETR�
 10
452.98728
 20
407.021046
 40
79.245521
 50
113.013998
 51
137.244722
  0
ARC
  8
APS_GEOMETR�
 10
454.651287
 20
405.475274
 40
81.516711
 50
137.240956
 51
161.016176
  0
ARC
  8
APS_GEOMETR�
 10
456.000369
 20
404.968154
 40
82.957394
 50
160.98808
 51
184.485154
  0
ARC
  8
APS_GEOMETR�
 10
455.639052
 20
404.889935
 40
82.591081
 50
184.450659
 51
208.01769
  0
ARC
  8
APS_GEOMETR�
 10
462.620266
 20
416.155289
 40
94.281876
 50
212.071866
 51
236.075765
  0
ARC
  8
APS_GEOMETR�
 10
461.24399
 20
414.146741
 40
91.847139
 50
236.088889
 51
260.518254
  0
ARC
  8
APS_GEOMETR�
 10
461.050587
 20
413.332263
 40
91.011946
 50
260.553878
 51
285.13355
  0
ARC
  8
APS_GEOMETR�
 10
460.660261
 20
414.576413
 40
92.314866
 50
285.165811
 51
309.511992
  0
ARC
  8
APS_GEOMETR�
 10
414.29916
 20
467.094185
 40
162.345707
 50
310.342559
 51
337.096663
  0
ARC
  8
APS_GEOMETR�
 10
410.915887
 20
468.63396
 40
166.06153
 50
337.061578
 51
3.411297
  0
ARC
  8
APS_GEOMETR�
 10
427.673548
 20
479.308602
 40
149.011739
 50
359.694912
 51
24.071581
  0
ARC
  8
APS_GEOMETR�
 10
430.589119
 20
480.685751
 40
145.788024
 50
24.044781
 51
48.782412
  0
ARC
  8
APS_GEOMETR�
 10
433.34122
 20
483.811162
 40
141.623634
 50
48.786768
 51
74.01084
  0
ARC
  8
APS_GEOMETR�
 10
434.019874
 20
485.868326
 40
139.459142
 50
74.046066
 51
99.532499
  0
ARC
  8
APS_GEOMETR�
 10
409.024154
 20
630.741859
 40
7.582068
 50
270.006557
 51
284.514911
  0
ARC
  8
APS_GEOMETR�
 10
488.644798
 20
342.581108
 40
291.656829
 50
105.842344
 51
132.493341
  0
ARC
  8
APS_GEOMETR�
 10
503.685085
 20
336.997814
 40
306.021009
 50
133.863702
 51
157.771762
  0
ARC
  8
APS_GEOMETR�
 10
509.351078
 20
334.529897
 40
312.199567
 50
157.74587
 51
181.335056
  0
ARC
  8
APS_GEOMETR�
 10
640.284309
 20
340.890428
 40
443.257794
 50
181.762679
 51
205.823832
  0
ARC
  8
APS_GEOMETR�
 10
655.983059
 20
365.180276
 40
460.311721
 50
161.854063
 51
184.725861
  0
ARC
  8
APS_GEOMETR�
 10
656.207535
 20
329.398123
 40
458.976274
 50
154.791244
 51
180.267416
  0
LINE
  8
APS_GEOMETR�
 10
0.0
 11
825.0
 20
2020.0
 21
2020.0
  0
LINE
  8
APS_GEOMETR�
 10
825.0
 11
825.0
 20
2020.0
 21
0.0
  0
LINE
  8
APS_GEOMETR�
 10
825.0
 11
0.0
 20
0.0
 21
0.0
  0
LINE
  8
APS_GEOMETR�
 10
0.0
 11
0.0
 20
0.0
 21
2020.0
  0
ENDSEC
  0
EOF
