999
\"DXF R12 Output\" (www.mydxf.blogspot.com)
 0 
SECTION
 2 
HEADER
 9 
$ACADVER
 1 
AC1009
 9 
$EXTMIN
 10 
 0 
 20 
 0 
 9 
$EXTMAX
 10 
 8.5 
 20 
 11 
 0 
ENDSEC
 0 
SECTION
 2 
ENTITIES
0
LINE
8
Layer 1
10
69.095936
20
278.875243
11
46.923856
21
250.176772
0
LINE
8
Layer 1
10
46.923856
20
250.176772
11
56.678158
21
240.431286
0
LINE
8
Layer 1
10
56.678158
20
240.431286
11
59.569316
21
237.454913
0
LINE
8
Layer 1
10
59.569316
20
237.454913
11
61.833677
21
234.871054
0
LINE
8
Layer 1
10
61.833677
20
234.871054
11
63.545486
21
232.509726
0
LINE
8
Layer 1
10
63.545486
20
232.509726
11
64.778989
21
230.200945
0
LINE
8
Layer 1
10
64.778989
20
230.200945
11
65.608429
21
227.774729
0
LINE
8
Layer 1
10
65.608429
20
227.774729
11
66.108052
21
225.061094
0
LINE
8
Layer 1
10
66.108052
20
225.061094
11
66.352102
21
221.890057
0
LINE
8
Layer 1
10
66.352102
20
221.890057
11
66.414825
21
218.091633
0
LINE
8
Layer 1
10
66.414825
20
218.091633
11
66.123776
21
212.883087
0
LINE
8
Layer 1
10
66.123776
20
212.883087
11
65.274211
21
207.874906
0
LINE
8
Layer 1
10
65.274211
20
207.874906
11
63.889309
21
203.113942
0
LINE
8
Layer 1
10
63.889309
20
203.113942
11
61.992252
21
198.647045
0
LINE
8
Layer 1
10
61.992252
20
198.647045
11
59.606220
21
194.521064
0
LINE
8
Layer 1
10
59.606220
20
194.521064
11
58.237083
21
192.600558
0
LINE
8
Layer 1
10
58.237083
20
192.600558
11
56.754394
21
190.782850
0
LINE
8
Layer 1
10
56.754394
20
190.782850
11
55.161051
21
189.073795
0
LINE
8
Layer 1
10
55.161051
20
189.073795
11
53.459953
21
187.479251
0
LINE
8
Layer 1
10
53.459953
20
187.479251
11
51.653996
21
186.005074
0
LINE
8
Layer 1
10
51.653996
20
186.005074
11
49.746078
21
184.657119
0
LINE
8
Layer 1
10
49.746078
20
184.657119
11
47.725117
21
183.234416
0
LINE
8
Layer 1
10
47.725117
20
183.234416
11
46.162247
21
181.804807
0
LINE
8
Layer 1
10
46.162247
20
181.804807
11
44.999328
21
180.165199
0
LINE
8
Layer 1
10
44.999328
20
180.165199
11
44.178220
21
178.112500
0
LINE
8
Layer 1
10
44.178220
20
178.112500
11
43.640786
21
175.443616
0
LINE
8
Layer 1
10
43.640786
20
175.443616
11
43.328886
21
171.955454
0
LINE
8
Layer 1
10
43.328886
20
171.955454
11
43.149133
21
161.708925
0
LINE
8
Layer 1
10
43.149133
20
161.708925
11
43.331785
21
153.927415
0
LINE
8
Layer 1
10
43.331785
20
153.927415
11
43.894983
21
146.483149
0
LINE
8
Layer 1
10
43.894983
20
146.483149
11
44.861589
21
139.342081
0
LINE
8
Layer 1
10
44.861589
20
139.342081
11
46.254463
21
132.470165
0
LINE
8
Layer 1
10
46.254463
20
132.470165
11
48.096466
21
125.833354
0
LINE
8
Layer 1
10
48.096466
20
125.833354
11
50.410461
21
119.397602
0
LINE
8
Layer 1
10
50.410461
20
119.397602
11
53.219307
21
113.128864
0
LINE
8
Layer 1
10
53.219307
20
113.128864
11
56.545867
21
106.993092
0
LINE
8
Layer 1
10
56.545867
20
106.993092
11
58.665740
21
103.567884
0
LINE
8
Layer 1
10
58.665740
20
103.567884
11
60.962713
21
100.168194
0
LINE
8
Layer 1
10
60.962713
20
100.168194
11
63.440906
21
96.787888
0
LINE
8
Layer 1
10
63.440906
20
96.787888
11
66.104436
21
93.420838
0
LINE
8
Layer 1
10
66.104436
20
93.420838
11
72.003981
21
86.701982
0
LINE
8
Layer 1
10
72.003981
20
86.701982
11
78.694296
21
79.962580
0
LINE
8
Layer 1
10
78.694296
20
79.962580
11
86.208327
21
73.153590
0
LINE
8
Layer 1
10
86.208327
20
73.153590
11
94.579021
21
66.225967
0
LINE
8
Layer 1
10
94.579021
20
66.225967
11
103.839325
21
59.130667
0
LINE
8
Layer 1
10
103.839325
20
59.130667
11
114.022186
21
51.818647
0
LINE
8
Layer 1
10
114.022186
20
51.818647
11
133.039606
21
38.830821
0
LINE
8
Layer 1
10
133.039606
20
38.830821
11
152.201561
21
26.057047
0
LINE
8
Layer 1
10
152.201561
20
26.057047
11
152.395589
21
25.924758
0
LINE
8
Layer 1
10
152.395589
20
25.924758
11
152.598436
21
26.057047
0
LINE
8
Layer 1
10
152.598436
20
26.057047
11
171.760392
21
38.830821
0
LINE
8
Layer 1
10
171.760392
20
38.830821
11
190.777811
21
51.818647
0
LINE
8
Layer 1
10
190.777811
20
51.818647
11
200.960673
21
59.130667
0
LINE
8
Layer 1
10
200.960673
20
59.130667
11
210.220977
21
66.225967
0
LINE
8
Layer 1
10
210.220977
20
66.225967
11
218.591671
21
73.153590
0
LINE
8
Layer 1
10
218.591671
20
73.153590
11
226.105702
21
79.962580
0
LINE
8
Layer 1
10
226.105702
20
79.962580
11
232.796017
21
86.701982
0
LINE
8
Layer 1
10
232.796017
20
86.701982
11
238.695562
21
93.420838
0
LINE
8
Layer 1
10
238.695562
20
93.420838
11
241.359092
21
96.787888
0
LINE
8
Layer 1
10
241.359092
20
96.787888
11
243.837284
21
100.168194
0
LINE
8
Layer 1
10
243.837284
20
100.168194
11
246.134258
21
103.567884
0
LINE
8
Layer 1
10
246.134258
20
103.567884
11
248.254131
21
106.993092
0
LINE
8
Layer 1
10
248.254131
20
106.993092
11
251.580693
21
113.128864
0
LINE
8
Layer 1
10
251.580693
20
113.128864
11
254.389542
21
119.397602
0
LINE
8
Layer 1
10
254.389542
20
119.397602
11
256.703537
21
125.833354
0
LINE
8
Layer 1
10
256.703537
20
125.833354
11
258.545540
21
132.470165
0
LINE
8
Layer 1
10
258.545540
20
132.470165
11
259.938414
21
139.342081
0
LINE
8
Layer 1
10
259.938414
20
139.342081
11
260.905018
21
146.483149
0
LINE
8
Layer 1
10
260.905018
20
146.483149
11
261.468215
21
153.927415
0
LINE
8
Layer 1
10
261.468215
20
153.927415
11
261.650867
21
161.708925
0
LINE
8
Layer 1
10
261.650867
20
161.708925
11
261.471114
21
171.955454
0
LINE
8
Layer 1
10
261.471114
20
171.955454
11
261.159214
21
175.443616
0
LINE
8
Layer 1
10
261.159214
20
175.443616
11
260.621780
21
178.112500
0
LINE
8
Layer 1
10
260.621780
20
178.112500
11
259.800672
21
180.165199
0
LINE
8
Layer 1
10
259.800672
20
180.165199
11
258.637753
21
181.804807
0
LINE
8
Layer 1
10
258.637753
20
181.804807
11
257.074883
21
183.234416
0
LINE
8
Layer 1
10
257.074883
20
183.234416
11
255.053922
21
184.657119
0
LINE
8
Layer 1
10
255.053922
20
184.657119
11
253.146004
21
186.005074
0
LINE
8
Layer 1
10
253.146004
20
186.005074
11
251.340046
21
187.479251
0
LINE
8
Layer 1
10
251.340046
20
187.479251
11
249.638947
21
189.073795
0
LINE
8
Layer 1
10
249.638947
20
189.073795
11
248.045605
21
190.782850
0
LINE
8
Layer 1
10
248.045605
20
190.782850
11
246.562915
21
192.600558
0
LINE
8
Layer 1
10
246.562915
20
192.600558
11
245.193777
21
194.521064
0
LINE
8
Layer 1
10
245.193777
20
194.521064
11
242.807745
21
198.647045
0
LINE
8
Layer 1
10
242.807745
20
198.647045
11
240.910688
21
203.113942
0
LINE
8
Layer 1
10
240.910688
20
203.113942
11
239.525787
21
207.874906
0
LINE
8
Layer 1
10
239.525787
20
207.874906
11
238.676221
21
212.883087
0
LINE
8
Layer 1
10
238.676221
20
212.883087
11
238.385172
21
218.091633
0
LINE
8
Layer 1
10
238.385172
20
218.091633
11
238.447895
21
221.890057
0
LINE
8
Layer 1
10
238.447895
20
221.890057
11
238.691945
21
225.061094
0
LINE
8
Layer 1
10
238.691945
20
225.061094
11
239.191568
21
227.774729
0
LINE
8
Layer 1
10
239.191568
20
227.774729
11
240.021008
21
230.200945
0
LINE
8
Layer 1
10
240.021008
20
230.200945
11
241.254511
21
232.509726
0
LINE
8
Layer 1
10
241.254511
20
232.509726
11
242.966320
21
234.871054
0
LINE
8
Layer 1
10
242.966320
20
234.871054
11
245.230681
21
237.454913
0
LINE
8
Layer 1
10
245.230681
20
237.454913
11
248.121839
21
240.431286
0
LINE
8
Layer 1
10
248.121839
20
240.431286
11
257.876144
21
250.176772
0
LINE
8
Layer 1
10
257.876144
20
250.176772
11
235.704061
21
278.875243
0
LINE
8
Layer 1
10
235.704061
20
278.875243
11
223.700797
21
273.565939
0
LINE
8
Layer 1
10
223.700797
20
273.565939
11
219.784126
21
272.151131
0
LINE
8
Layer 1
10
219.784126
20
272.151131
11
215.610556
21
270.997802
0
LINE
8
Layer 1
10
215.610556
20
270.997802
11
211.223138
21
270.099211
0
LINE
8
Layer 1
10
211.223138
20
270.099211
11
206.664926
21
269.448620
0
LINE
8
Layer 1
10
206.664926
20
269.448620
11
201.978971
21
269.039292
0
LINE
8
Layer 1
10
201.978971
20
269.039292
11
197.208326
21
268.864487
0
LINE
8
Layer 1
10
197.208326
20
268.864487
11
192.396042
21
268.917468
0
LINE
8
Layer 1
10
192.396042
20
268.917468
11
187.585172
21
269.191494
0
LINE
8
Layer 1
10
187.585172
20
269.191494
11
183.073349
21
269.603149
0
LINE
8
Layer 1
10
183.073349
20
269.603149
11
178.574935
21
270.213473
0
LINE
8
Layer 1
10
178.574935
20
270.213473
11
174.103007
21
271.025750
0
LINE
8
Layer 1
10
174.103007
20
271.025750
11
169.670646
21
272.043266
0
LINE
8
Layer 1
10
169.670646
20
272.043266
11
165.290929
21
273.269306
0
LINE
8
Layer 1
10
165.290929
20
273.269306
11
160.976936
21
274.707155
0
LINE
8
Layer 1
10
160.976936
20
274.707155
11
156.741745
21
276.360100
0
LINE
8
Layer 1
10
156.741745
20
276.360100
11
152.598436
21
278.231424
0
LINE
8
Layer 1
10
152.598436
20
278.231424
11
152.395589
21
278.328438
0
LINE
8
Layer 1
10
152.395589
20
278.328438
11
152.201561
21
278.231424
0
LINE
8
Layer 1
10
152.201561
20
278.231424
11
148.057873
21
276.360100
0
LINE
8
Layer 1
10
148.057873
20
276.360100
11
143.821682
21
274.707155
0
LINE
8
Layer 1
10
143.821682
20
274.707155
11
139.506276
21
273.269306
0
LINE
8
Layer 1
10
139.506276
20
273.269306
11
135.124940
21
272.043266
0
LINE
8
Layer 1
10
135.124940
20
272.043266
11
130.690959
21
271.025750
0
LINE
8
Layer 1
10
130.690959
20
271.025750
11
126.217619
21
270.213473
0
LINE
8
Layer 1
10
126.217619
20
270.213473
11
121.718206
21
269.603149
0
LINE
8
Layer 1
10
121.718206
20
269.603149
11
117.206006
21
269.191494
0
LINE
8
Layer 1
10
117.206006
20
269.191494
11
112.395515
21
268.917468
0
LINE
8
Layer 1
10
112.395515
20
268.917468
11
107.584230
21
268.864487
0
LINE
8
Layer 1
10
107.584230
20
268.864487
11
102.814998
21
269.039292
0
LINE
8
Layer 1
10
102.814998
20
269.039292
11
98.130662
21
269.448620
0
LINE
8
Layer 1
10
98.130662
20
269.448620
11
93.574069
21
270.099211
0
LINE
8
Layer 1
10
93.574069
20
270.099211
11
89.188064
21
270.997802
0
LINE
8
Layer 1
10
89.188064
20
270.997802
11
85.015493
21
272.151131
0
LINE
8
Layer 1
10
85.015493
20
272.151131
11
81.099200
21
273.565939
0
LINE
8
Layer 1
10
81.099200
20
273.565939
11
69.095936
21
278.875243
0
LINE
8
Layer 1
10
69.095936
20
278.875243
11
69.095936
21
278.875243
0
LINE
8
Layer 1
10
152.395589
20
266.475106
11
156.671164
21
265.128274
0
LINE
8
Layer 1
10
156.671164
20
265.128274
11
160.991273
21
263.948739
0
LINE
8
Layer 1
10
160.991273
20
263.948739
11
169.740081
21
262.032695
0
LINE
8
Layer 1
10
169.740081
20
262.032695
11
178.591990
21
260.609245
0
LINE
8
Layer 1
10
178.591990
20
260.609245
11
187.496978
21
259.560661
0
LINE
8
Layer 1
10
187.496978
20
259.560661
11
192.217188
21
259.239610
0
LINE
8
Layer 1
10
192.217188
20
259.239610
11
196.665174
21
259.081259
0
LINE
8
Layer 1
10
196.665174
20
259.081259
11
200.810006
21
259.075951
0
LINE
8
Layer 1
10
200.810006
20
259.075951
11
204.620757
21
259.214029
0
LINE
8
Layer 1
10
204.620757
20
259.214029
11
208.066501
21
259.485835
0
LINE
8
Layer 1
10
208.066501
20
259.485835
11
211.116309
21
259.881712
0
LINE
8
Layer 1
10
211.116309
20
259.881712
11
213.739254
21
260.392002
0
LINE
8
Layer 1
10
213.739254
20
260.392002
11
215.904408
21
261.007050
0
LINE
8
Layer 1
10
215.904408
20
261.007050
11
232.290936
21
266.104689
0
LINE
8
Layer 1
10
232.290936
20
266.104689
11
243.668019
21
251.093994
0
LINE
8
Layer 1
10
243.668019
20
251.093994
11
239.324224
21
247.232786
0
LINE
8
Layer 1
10
239.324224
20
247.232786
11
237.315490
21
245.177955
0
LINE
8
Layer 1
10
237.315490
20
245.177955
11
235.422908
21
243.031368
0
LINE
8
Layer 1
10
235.422908
20
243.031368
11
233.652012
21
240.786319
0
LINE
8
Layer 1
10
233.652012
20
240.786319
11
232.008332
21
238.436106
0
LINE
8
Layer 1
10
232.008332
20
238.436106
11
230.497403
21
235.974024
0
LINE
8
Layer 1
10
230.497403
20
235.974024
11
229.124756
21
233.393369
0
LINE
8
Layer 1
10
229.124756
20
233.393369
11
227.759982
21
229.771364
0
LINE
8
Layer 1
10
227.759982
20
229.771364
11
226.857088
21
226.043687
0
LINE
8
Layer 1
10
226.857088
20
226.043687
11
226.399315
21
222.167022
0
LINE
8
Layer 1
10
226.399315
20
222.167022
11
226.369906
21
218.098053
0
LINE
8
Layer 1
10
226.369906
20
218.098053
11
226.752101
21
213.793464
0
LINE
8
Layer 1
10
226.752101
20
213.793464
11
227.529141
21
209.209939
0
LINE
8
Layer 1
10
227.529141
20
209.209939
11
228.684270
21
204.304161
0
LINE
8
Layer 1
10
228.684270
20
204.304161
11
230.200728
21
199.032814
0
LINE
8
Layer 1
10
230.200728
20
199.032814
11
74.599269
21
199.032814
0
LINE
8
Layer 1
10
74.599269
20
199.032814
11
76.115727
21
204.304161
0
LINE
8
Layer 1
10
76.115727
20
204.304161
11
77.270855
21
209.209939
0
LINE
8
Layer 1
10
77.270855
20
209.209939
11
78.047895
21
213.793464
0
LINE
8
Layer 1
10
78.047895
20
213.793464
11
78.430089
21
218.098053
0
LINE
8
Layer 1
10
78.430089
20
218.098053
11
78.400679
21
222.167022
0
LINE
8
Layer 1
10
78.400679
20
222.167022
11
77.942907
21
226.043687
0
LINE
8
Layer 1
10
77.942907
20
226.043687
11
77.040014
21
229.771364
0
LINE
8
Layer 1
10
77.040014
20
229.771364
11
75.675242
21
233.393369
0
LINE
8
Layer 1
10
75.675242
20
233.393369
11
74.302215
21
235.974024
0
LINE
8
Layer 1
10
74.302215
20
235.974024
11
72.790286
21
238.436106
0
LINE
8
Layer 1
10
72.790286
20
238.436106
11
71.145194
21
240.786319
0
LINE
8
Layer 1
10
71.145194
20
240.786319
11
69.372678
21
243.031368
0
LINE
8
Layer 1
10
69.372678
20
243.031368
11
67.478477
21
245.177955
0
LINE
8
Layer 1
10
67.478477
20
245.177955
11
65.468331
21
247.232786
0
LINE
8
Layer 1
10
65.468331
20
247.232786
11
61.123158
21
251.093994
0
LINE
8
Layer 1
10
61.123158
20
251.093994
11
72.509061
21
266.104689
0
LINE
8
Layer 1
10
72.509061
20
266.104689
11
88.895589
21
261.007050
0
LINE
8
Layer 1
10
88.895589
20
261.007050
11
91.060743
21
260.392002
0
LINE
8
Layer 1
10
91.060743
20
260.392002
11
93.683689
21
259.881712
0
LINE
8
Layer 1
10
93.683689
20
259.881712
11
96.733498
21
259.485835
0
LINE
8
Layer 1
10
96.733498
20
259.485835
11
100.179242
21
259.214029
0
LINE
8
Layer 1
10
100.179242
20
259.214029
11
103.989994
21
259.075951
0
LINE
8
Layer 1
10
103.989994
20
259.075951
11
108.134826
21
259.081259
0
LINE
8
Layer 1
10
108.134826
20
259.081259
11
112.582810
21
259.239610
0
LINE
8
Layer 1
10
112.582810
20
259.239610
11
117.303019
21
259.560661
0
LINE
8
Layer 1
10
117.303019
20
259.560661
11
126.205796
21
260.609380
0
LINE
8
Layer 1
10
126.205796
20
260.609380
11
135.055365
21
262.033265
0
LINE
8
Layer 1
10
135.055365
20
262.033265
11
143.801903
21
263.949459
0
LINE
8
Layer 1
10
143.801903
20
263.949459
11
148.120967
21
265.128779
0
LINE
8
Layer 1
10
148.120967
20
265.128779
11
152.395589
21
266.475106
0
LINE
8
Layer 1
10
152.395589
20
266.475106
11
152.395589
21
266.475106
0
LINE
8
Layer 1
10
58.583158
20
126.625175
11
246.216839
21
126.625175
0
LINE
8
Layer 1
10
246.216839
20
126.625175
11
244.004877
21
121.923923
0
LINE
8
Layer 1
10
244.004877
20
121.923923
11
241.638397
21
117.425912
0
LINE
8
Layer 1
10
241.638397
20
117.425912
11
239.123071
21
113.118732
0
LINE
8
Layer 1
10
239.123071
20
113.118732
11
236.464567
21
108.989969
0
LINE
8
Layer 1
10
236.464567
20
108.989969
11
233.668557
21
105.027214
0
LINE
8
Layer 1
10
233.668557
20
105.027214
11
230.740710
21
101.218053
0
LINE
8
Layer 1
10
230.740710
20
101.218053
11
227.686696
21
97.550076
0
LINE
8
Layer 1
10
227.686696
20
97.550076
11
224.512186
21
94.010869
0
LINE
8
Layer 1
10
224.512186
20
94.010869
11
215.092616
21
85.120769
0
LINE
8
Layer 1
10
215.092616
20
85.120769
11
205.298336
21
76.599373
0
LINE
8
Layer 1
10
205.298336
20
76.599373
11
195.160444
21
68.455964
0
LINE
8
Layer 1
10
195.160444
20
68.455964
11
184.710033
21
60.699825
0
LINE
8
Layer 1
10
184.710033
20
60.699825
11
176.830390
21
55.241225
0
LINE
8
Layer 1
10
176.830390
20
55.241225
11
168.809283
21
50.003259
0
LINE
8
Layer 1
10
168.809283
20
50.003259
11
160.659940
21
44.989479
0
LINE
8
Layer 1
10
160.659940
20
44.989479
11
152.395589
21
40.203436
0
LINE
8
Layer 1
10
152.395589
20
40.203436
11
144.133309
21
44.989265
0
LINE
8
Layer 1
10
144.133309
20
44.989265
11
135.986398
21
50.003442
0
LINE
8
Layer 1
10
135.986398
20
50.003442
11
127.967677
21
55.241714
0
LINE
8
Layer 1
10
127.967677
20
55.241714
11
120.089964
21
60.699825
0
LINE
8
Layer 1
10
120.089964
20
60.699825
11
109.639554
21
68.455964
0
LINE
8
Layer 1
10
109.639554
20
68.455964
11
99.501662
21
76.599373
0
LINE
8
Layer 1
10
99.501662
20
76.599373
11
89.707383
21
85.120769
0
LINE
8
Layer 1
10
89.707383
20
85.120769
11
80.287811
21
94.010869
0
LINE
8
Layer 1
10
80.287811
20
94.010869
11
77.113301
21
97.550076
0
LINE
8
Layer 1
10
77.113301
20
97.550076
11
74.059287
21
101.218053
0
LINE
8
Layer 1
10
74.059287
20
101.218053
11
71.131440
21
105.027214
0
LINE
8
Layer 1
10
71.131440
20
105.027214
11
68.335430
21
108.989969
0
LINE
8
Layer 1
10
68.335430
20
108.989969
11
65.676926
21
113.118732
0
LINE
8
Layer 1
10
65.676926
20
113.118732
11
63.161600
21
117.425912
0
LINE
8
Layer 1
10
63.161600
20
117.425912
11
60.795121
21
121.923923
0
LINE
8
Layer 1
10
60.795121
20
121.923923
11
58.583158
21
126.625175
0
LINE
8
Layer 1
10
58.583158
20
126.625175
11
58.583158
21
126.625175
 0 
ENDSEC
 0 
EOF
