  0
SECTION
  2
HEADER
  9
$ACADVER
  1
AC1018
  9
$ACADMAINTVER
 70
     0
  9
$DWGCODEPAGE
  3
ANSI_1256
  9
$INSBASE
 10
0.0
 20
0.0
 30
0.0
  9
$EXTMIN
 10
0.0
 20
0.0
 30
0.0
  9
$EXTMAX
 10
47.7144
 20
47.7144
 30
0.0
  9
$LIMMIN
 10
0.0
 20
0.0
  9
$LIMMAX
 10
12.0
 20
9.0
  9
$ORTHOMODE
 70
     0
  9
$REGENMODE
 70
     1
  9
$FILLMODE
 70
     1
  9
$QTEXTMODE
 70
     0
  9
$MIRRTEXT
 70
     1
  9
$LTSCALE
 40
1.0
  9
$ATTMODE
 70
     1
  9
$TEXTSIZE
 40
0.2
  9
$TRACEWID
 40
0.05
  9
$TEXTSTYLE
  7
Standard
  9
$CLAYER
  8
0
  9
$CELTYPE
  6
ByBlock
  9
$CECOLOR
 62
   256
  9
$CELTSCALE
 40
1.0
  9
$DISPSILH
 70
     0
  9
$DIMSCALE
 40
1.0
  9
$DIMASZ
 40
0.18
  9
$DIMEXO
 40
0.0625
  9
$DIMDLI
 40
0.38
  9
$DIMRND
 40
0.0
  9
$DIMDLE
 40
0.0
  9
$DIMEXE
 40
0.18
  9
$DIMTP
 40
0.0
  9
$DIMTM
 40
0.0
  9
$DIMTXT
 40
0.18
  9
$DIMCEN
 40
0.09
  9
$DIMTSZ
 40
0.0
  9
$DIMTOL
 70
     0
  9
$DIMLIM
 70
     0
  9
$DIMTIH
 70
     1
  9
$DIMTOH
 70
     1
  9
$DIMSE1
 70
     0
  9
$DIMSE2
 70
     0
  9
$DIMTAD
 70
     0
  9
$DIMZIN
 70
     0
  9
$DIMBLK
  1

  9
$DIMASO
 70
     1
  9
$DIMSHO
 70
     1
  9
$DIMPOST
  1

  9
$DIMAPOST
  1

  9
$DIMALT
 70
     0
  9
$DIMALTD
 70
     2
  9
$DIMALTF
 40
25.4
  9
$DIMLFAC
 40
1.0
  9
$DIMTOFL
 70
     0
  9
$DIMTVP
 40
0.0
  9
$DIMTIX
 70
     0
  9
$DIMSOXD
 70
     0
  9
$DIMSAH
 70
     0
  9
$DIMBLK1
  1

  9
$DIMBLK2
  1

  9
$DIMSTYLE
  2
Standard
  9
$DIMCLRD
 70
     0
  9
$DIMCLRE
 70
     0
  9
$DIMCLRT
 70
     0
  9
$DIMTFAC
 40
1.0
  9
$DIMGAP
 40
0.09
  9
$DIMJUST
 70
     0
  9
$DIMSD1
 70
     0
  9
$DIMSD2
 70
     0
  9
$DIMTOLJ
 70
     1
  9
$DIMTZIN
 70
     0
  9
$DIMALTZ
 70
     0
  9
$DIMALTTZ
 70
     0
  9
$DIMUPT
 70
     0
  9
$DIMDEC
 70
     4
  9
$DIMTDEC
 70
     4
  9
$DIMALTU
 70
     2
  9
$DIMALTTD
 70
     2
  9
$DIMTXSTY
  7
Standard
  9
$DIMAUNIT
 70
     0
  9
$DIMADEC
 70
     0
  9
$DIMALTRND
 40
0.0
  9
$DIMAZIN
 70
     0
  9
$DIMDSEP
 70
    46
  9
$DIMATFIT
 70
     3
  9
$DIMFRAC
 70
     0
  9
$DIMLDRBLK
  1

  9
$DIMLUNIT
 70
     2
  9
$DIMLWD
 70
    -2
  9
$DIMLWE
 70
    -2
  9
$DIMTMOVE
 70
     2
  9
$LUNITS
 70
     2
  9
$LUPREC
 70
     4
  9
$SKETCHINC
 40
0.1
  9
$FILLETRAD
 40
0.5
  9
$AUNITS
 70
     0
  9
$AUPREC
 70
     0
  9
$MENU
  1
.
  9
$ELEVATION
 40
0.0
  9
$PELEVATION
 40
0.0
  9
$THICKNESS
 40
0.0
  9
$LIMCHECK
 70
     0
  9
$CHAMFERA
 40
0.0
  9
$CHAMFERB
 40
0.0
  9
$CHAMFERC
 40
0.0
  9
$CHAMFERD
 40
0.0
  9
$SKPOLY
 70
     0
  9
$TDCREATE
 40
2457950.870804144
  9
$TDUCREATE
 40
2457950.745804144
  9
$TDUPDATE
 40
2457950.870805301
  9
$TDUUPDATE
 40
2457950.745805301
  9
$TDINDWG
 40
0.0000000116
  9
$TDUSRTIMER
 40
0.0000000116
  9
$USRTIMER
 70
     1
  9
$ANGBASE
 50
0.0
  9
$ANGDIR
 70
     0
  9
$PDMODE
 70
     0
  9
$PDSIZE
 40
0.0
  9
$PLINEWID
 40
0.0
  9
$SPLFRAME
 70
     0
  9
$SPLINETYPE
 70
     6
  9
$SPLINESEGS
 70
     8
  9
$HANDSEED
  5
AD6
  9
$SURFTAB1
 70
     6
  9
$SURFTAB2
 70
     6
  9
$SURFTYPE
 70
     6
  9
$SURFU
 70
     6
  9
$SURFV
 70
     6
  9
$UCSBASE
  2

  9
$UCSNAME
  2

  9
$UCSORG
 10
0.0
 20
0.0
 30
0.0
  9
$UCSXDIR
 10
1.0
 20
0.0
 30
0.0
  9
$UCSYDIR
 10
0.0
 20
1.0
 30
0.0
  9
$UCSORTHOREF
  2

  9
$UCSORTHOVIEW
 70
     0
  9
$UCSORGTOP
 10
0.0
 20
0.0
 30
0.0
  9
$UCSORGBOTTOM
 10
0.0
 20
0.0
 30
0.0
  9
$UCSORGLEFT
 10
0.0
 20
0.0
 30
0.0
  9
$UCSORGRIGHT
 10
0.0
 20
0.0
 30
0.0
  9
$UCSORGFRONT
 10
0.0
 20
0.0
 30
0.0
  9
$UCSORGBACK
 10
0.0
 20
0.0
 30
0.0
  9
$PUCSBASE
  2

  9
$PUCSNAME
  2

  9
$PUCSORG
 10
0.0
 20
0.0
 30
0.0
  9
$PUCSXDIR
 10
1.0
 20
0.0
 30
0.0
  9
$PUCSYDIR
 10
0.0
 20
1.0
 30
0.0
  9
$PUCSORTHOREF
  2

  9
$PUCSORTHOVIEW
 70
     0
  9
$PUCSORGTOP
 10
0.0
 20
0.0
 30
0.0
  9
$PUCSORGBOTTOM
 10
0.0
 20
0.0
 30
0.0
  9
$PUCSORGLEFT
 10
0.0
 20
0.0
 30
0.0
  9
$PUCSORGRIGHT
 10
0.0
 20
0.0
 30
0.0
  9
$PUCSORGFRONT
 10
0.0
 20
0.0
 30
0.0
  9
$PUCSORGBACK
 10
0.0
 20
0.0
 30
0.0
  9
$USERI1
 70
     0
  9
$USERI2
 70
     0
  9
$USERI3
 70
     0
  9
$USERI4
 70
     0
  9
$USERI5
 70
     0
  9
$USERR1
 40
0.0
  9
$USERR2
 40
0.0
  9
$USERR3
 40
0.0
  9
$USERR4
 40
0.0
  9
$USERR5
 40
0.0
  9
$WORLDVIEW
 70
     1
  9
$SHADEDGE
 70
     3
  9
$SHADEDIF
 70
    70
  9
$TILEMODE
 70
     1
  9
$MAXACTVP
 70
    64
  9
$PINSBASE
 10
0.0
 20
0.0
 30
0.0
  9
$PLIMCHECK
 70
     0
  9
$PEXTMIN
 10
1.000000000000000E+20
 20
1.000000000000000E+20
 30
1.000000000000000E+20
  9
$PEXTMAX
 10
-1.000000000000000E+20
 20
-1.000000000000000E+20
 30
-1.000000000000000E+20
  9
$PLIMMIN
 10
0.0
 20
0.0
  9
$PLIMMAX
 10
12.0
 20
9.0
  9
$UNITMODE
 70
     0
  9
$VISRETAIN
 70
     1
  9
$PLINEGEN
 70
     0
  9
$PSLTSCALE
 70
     1
  9
$TREEDEPTH
 70
  3020
  9
$CMLSTYLE
  2
Standard
  9
$CMLJUST
 70
     0
  9
$CMLSCALE
 40
1.0
  9
$PROXYGRAPHICS
 70
     1
  9
$MEASUREMENT
 70
     0
  9
$CELWEIGHT
370
    -1
  9
$ENDCAPS
280
     0
  9
$JOINSTYLE
280
     0
  9
$LWDISPLAY
290
     0
  9
$INSUNITS
 70
     0
  9
$HYPERLINKBASE
  1

  9
$STYLESHEET
  1

  9
$XEDIT
290
     1
  9
$CEPSNTYPE
380
     0
  9
$PSTYLEMODE
290
     1
  9
$FINGERPRINTGUID
  2
{AAC5B3B9-2ED8-4247-83CA-8C325D398A20}
  9
$VERSIONGUID
  2
{FAEB1C32-E019-11D5-929B-00C0DF256EC4}
  9
$EXTNAMES
290
     1
  9
$PSVPSCALE
 40
0.0
  9
$OLESTARTUP
290
     0
  9
$SORTENTS
280
   127
  9
$INDEXCTL
280
     0
  9
$HIDETEXT
280
     1
  9
$XCLIPFRAME
290
     0
  9
$HALOGAP
280
     0
  9
$OBSCOLOR
 70
   257
  9
$OBSLTYPE
280
     0
  9
$INTERSECTIONDISPLAY
280
     0
  9
$INTERSECTIONCOLOR
 70
   257
  9
$DIMASSOC
280
     2
  9
$PROJECTNAME
  1

  0
ENDSEC
  0
SECTION
  2
CLASSES
  0
CLASS
  1
ACDBDICTIONARYWDFLT
  2
AcDbDictionaryWithDefault
  3
ObjectDBX Classes
 90
        0
 91
        4
280
     0
281
     0
  0
CLASS
  1
SCALE
  2
AcDbScale
  3
ObjectDBX Classes
 90
     1153
 91
        4
280
     0
281
     0
  0
CLASS
  1
VISUALSTYLE
  2
AcDbVisualStyle
  3
ObjectDBX Classes
 90
     4095
 91
        4
280
     0
281
     0
  0
CLASS
  1
MATERIAL
  2
AcDbMaterial
  3
ObjectDBX Classes
 90
     1153
 91
        4
280
     0
281
     0
  0
CLASS
  1
TABLESTYLE
  2
AcDbTableStyle
  3
ObjectDBX Classes
 90
     4095
 91
        4
280
     0
281
     0
  0
CLASS
  1
MLEADERSTYLE
  2
AcDbMLeaderStyle
  3
ACDB_MLEADERSTYLE_CLASS
 90
     4095
 91
        4
280
     0
281
     0
  0
CLASS
  1
DICTIONARYVAR
  2
AcDbDictionaryVar
  3
ObjectDBX Classes
 90
        0
 91
        4
280
     0
281
     0
  0
CLASS
  1
CELLSTYLEMAP
  2
AcDbCellStyleMap
  3
ObjectDBX Classes
 90
     1152
 91
        4
280
     0
281
     0
  0
ENDSEC
  0
SECTION
  2
TABLES
  0
TABLE
  2
VPORT
  5
8
102
{ACAD_XDICTIONARY
360
A8F
102
}
330
0
100
AcDbSymbolTable
 70
     1
  0
VPORT
  5
21
330
8
100
AcDbSymbolTableRecord
100
AcDbViewportTableRecord
  2
*Active
 70
     0
 10
0.0
 20
0.0
 11
1.0
 21
1.0
 12
10.42990654205607
 22
4.5
 13
0.0
 23
0.0
 14
0.5
 24
0.5
 15
0.5
 25
0.5
 16
0.0
 26
0.0
 36
1.0
 17
0.0
 27
0.0
 37
0.0
 40
9.0
 41
1.972972972850329
 42
50.0
 43
0.0
 44
0.0
 50
0.0
 51
0.0
 71
     0
 72
   100
 73
     1
 74
     3
 75
     0
 76
     0
 77
     0
 78
     0
281
     0
 65
     1
110
0.0
120
0.0
130
0.0
111
1.0
121
0.0
131
0.0
112
0.0
122
1.0
132
0.0
 79
     0
146
0.0
  0
ENDTAB
  0
TABLE
  2
LTYPE
  5
5
330
0
100
AcDbSymbolTable
 70
     1
  0
LTYPE
  5
14
330
5
100
AcDbSymbolTableRecord
100
AcDbLinetypeTableRecord
  2
ByBlock
 70
     0
  3

 72
    65
 73
     0
 40
0.0
  0
LTYPE
  5
15
330
5
100
AcDbSymbolTableRecord
100
AcDbLinetypeTableRecord
  2
ByLayer
 70
     0
  3

 72
    65
 73
     0
 40
0.0
  0
LTYPE
  5
16
330
5
100
AcDbSymbolTableRecord
100
AcDbLinetypeTableRecord
  2
Continuous
 70
     0
  3
Solid line
 72
    65
 73
     0
 40
0.0
  0
ENDTAB
  0
TABLE
  2
LAYER
  5
2
330
0
100
AcDbSymbolTable
 70
     1
  0
LAYER
  5
10
330
2
100
AcDbSymbolTableRecord
100
AcDbLayerTableRecord
  2
0
 70
     0
 62
     7
  6
Continuous
370
    -3
390
F
  0
ENDTAB
  0
TABLE
  2
STYLE
  5
3
330
0
100
AcDbSymbolTable
 70
     1
  0
STYLE
  5
11
330
3
100
AcDbSymbolTableRecord
100
AcDbTextStyleTableRecord
  2
Standard
 70
     0
 40
0.0
 41
1.0
 50
0.0
 71
     0
 42
0.2
  3
txt
  4

  0
ENDTAB
  0
TABLE
  2
VIEW
  5
6
330
0
100
AcDbSymbolTable
 70
     0
  0
ENDTAB
  0
TABLE
  2
UCS
  5
7
330
0
100
AcDbSymbolTable
 70
     0
  0
ENDTAB
  0
TABLE
  2
APPID
  5
9
330
0
100
AcDbSymbolTable
 70
     2
  0
APPID
  5
12
330
9
100
AcDbSymbolTableRecord
100
AcDbRegAppTableRecord
  2
ACAD
 70
     0
  0
APPID
  5
ACD
330
9
100
AcDbSymbolTableRecord
100
AcDbRegAppTableRecord
  2
ACAD_MLEADERVER
 70
     0
  0
ENDTAB
  0
TABLE
  2
DIMSTYLE
  5
A
330
0
100
AcDbSymbolTable
 70
     1
100
AcDbDimStyleTable
  0
DIMSTYLE
105
20
330
A
100
AcDbSymbolTableRecord
100
AcDbDimStyleTableRecord
  2
Standard
 70
     0
178
     0
340
11
  0
ENDTAB
  0
TABLE
  2
BLOCK_RECORD
  5
1
330
0
100
AcDbSymbolTable
 70
     0
  0
BLOCK_RECORD
  5
1D
330
1
100
AcDbSymbolTableRecord
100
AcDbBlockTableRecord
  2
*Model_Space
340
1E
  0
BLOCK_RECORD
  5
1B
330
1
100
AcDbSymbolTableRecord
100
AcDbBlockTableRecord
  2
*Paper_Space
340
1C
  0
ENDTAB
  0
ENDSEC
  0
SECTION
  2
BLOCKS
  0
BLOCK
  5
A6A
330
1D
100
AcDbEntity
  8
0
100
AcDbBlockBegin
  2
*Model_Space
 70
     0
 10
0.0
 20
0.0
 30
0.0
  3
*Model_Space
  1

  0
ENDBLK
  5
A6B
330
1D
100
AcDbEntity
  8
0
100
AcDbBlockEnd
  0
BLOCK
  5
A6C
330
1B
100
AcDbEntity
 67
     1
  8
0
100
AcDbBlockBegin
  2
*Paper_Space
 70
     0
 10
0.0
 20
0.0
 30
0.0
  3
*Paper_Space
  1

  0
ENDBLK
  5
A6D
330
1B
100
AcDbEntity
 67
     1
  8
0
100
AcDbBlockEnd
  0
ENDSEC
  0
SECTION
  2
ENTITIES
  0
LWPOLYLINE
  5
22
330
1D
100
AcDbEntity
  8
0
100
AcDbPolyline
 90
      136
 70
     1
 43
0.0
 10
23.8149
 20
47.7144
 10
0.0
 20
47.7144
 10
0.0
 20
24.5763
 10
0.0
 20
1.4382
 10
0.52875
 20
1.430354
 42
0.001715
 10
0.759026
 20
1.427728
 42
0.001265
 10
1.01401
 20
1.426339
 42
0.001278
 10
1.255071
 20
1.426252
 42
0.002861
 10
1.4382
 20
1.427703
 42
-0.01125
 10
1.577458
 20
1.426469
 42
-0.031147
 10
1.67498
 20
1.417311
 42
-0.117833
 10
1.711495
 20
1.402281
 42
-0.580417
 10
1.709659
 20
1.385034
 42
0.182369
 10
1.674525
 20
1.350712
 42
0.208443
 10
1.673343
 20
1.304047
 42
0.08904
 10
1.714639
 20
1.23866
 42
0.020621
 10
1.806723
 20
1.145976
 42
-0.035663
 10
1.884691
 20
1.062633
 42
-0.055987
 10
1.93748
 20
0.980082
 42
-0.072322
 10
1.960991
 20
0.907358
 42
-0.182452
 10
1.950509
 20
0.853619
 42
-0.187422
 10
1.893702
 20
0.810731
 42
-0.034831
 10
1.763285
 20
0.783411
 42
-0.028858
 10
1.581448
 20
0.768987
 42
-0.013609
 10
1.345845
 20
0.770342
 42
0.004094
 10
1.108909
 20
0.776216
 42
0.002965
 10
0.844912
 20
0.779032
 42
0.002995
 10
0.594134
 20
0.778717
 42
0.00653
 10
0.40185
 20
0.774812
 10
0.0
 20
0.7614
 10
0.0
 20
0.3807
 10
0.0
 20
0.0
 10
23.84527
 20
0.0
 10
47.69054
 20
0.0
 10
47.684475
 20
0.3807
 42
0.017119
 10
47.675236
 20
0.564696
 42
0.064242
 10
47.650875
 20
0.677493
 42
0.123946
 10
47.609236
 20
0.739998
 42
0.18055
 10
47.548355
 20
0.764263
 42
0.005507
 10
47.44194
 20
0.765433
 42
0.000001
 10
41.001391
 20
0.765291
 42
0.00002
 10
33.878598
 20
0.764834
 42
0.000012
 10
25.44345
 20
0.763744
 42
-0.000276
 10
17.017174
 20
0.767101
 42
-0.000461
 10
9.923712
 20
0.780381
 42
-0.000009
 10
3.495206
 20
0.79845
 42
-0.413386
 10
3.4686
 20
0.825131
 42
-0.166917
 10
3.479572
 20
0.857081
 42
-0.032284
 10
3.520722
 20
0.903425
 42
-0.031131
 10
3.578103
 20
0.953538
 42
-0.024357
 10
3.646038
 20
1.000711
 42
0.03123
 10
3.710468
 20
1.046775
 42
0.05392
 10
3.756755
 20
1.093571
 42
0.078492
 10
3.779671
 20
1.134012
 42
0.294135
 10
3.773778
 20
1.161222
 42
0.307111
 10
3.742299
 20
1.167258
 42
0.043788
 10
3.681302
 20
1.13441
 42
0.037411
 10
3.60721
 20
1.077345
 42
0.023079
 10
3.528753
 20
1.000158
 42
-0.056962
 10
3.395439
 20
0.885667
 42
-0.085565
 10
3.256087
 20
0.822587
 42
-0.0503
 10
3.054785
 20
0.791372
 42
-0.008969
 10
2.673816
 20
0.777885
 42
-0.006449
 10
2.330015
 20
0.77632
 42
-0.040197
 10
2.154733
 20
0.791908
 42
-0.121866
 10
2.074705
 20
0.826842
 42
-0.332245
 10
2.058898
 20
0.882838
 42
0.136453
 10
2.064181
 20
0.93818
 42
0.06149
 10
2.042522
 20
1.008475
 42
0.054305
 10
1.999504
 20
1.081861
 42
0.04917
 10
1.940393
 20
1.146993
 42
-0.033434
 10
1.865361
 20
1.224622
 42
-0.110905
 10
1.832722
 20
1.287218
 42
-0.15359
 10
1.835354
 20
1.345593
 42
-0.085926
 10
1.871085
 20
1.40781
 42
-0.050646
 10
1.911979
 20
1.448012
 42
-0.064442
 10
1.957131
 20
1.475507
 42
-0.078348
 10
1.999477
 20
1.486857
 42
-0.166276
 10
2.032168
 20
1.479408
 42
0.117234
 10
2.08168
 20
1.46299
 42
0.006137
 10
2.249667
 20
1.450453
 42
0.00942
 10
2.451583
 20
1.441687
 42
0.006688
 10
2.678232
 20
1.439155
 42
0.003409
 10
2.933801
 20
1.441461
 42
0.002338
 10
3.223739
 20
1.447411
 42
0.002357
 10
3.502931
 20
1.455764
 42
0.004783
 10
3.7224
 20
1.465469
 42
-0.007594
 10
3.905651
 20
1.47254
 42
-0.010297
 10
4.071275
 20
1.473002
 42
-0.007526
 10
4.208845
 20
1.468479
 42
-0.104518
 10
4.256661
 20
1.455954
 42
-0.283279
 10
4.272192
 20
1.430861
 42
-0.091029
 10
4.264035
 20
1.385882
 42
-0.059783
 10
4.233882
 20
1.328022
 42
-0.033947
 10
4.184924
 20
1.265932
 42
0.045483
 10
4.135203
 20
1.199798
 42
0.055027
 10
4.101882
 20
1.129714
 42
0.064502
 10
4.088682
 20
1.066245
 42
0.158762
 10
4.099805
 20
1.020531
 42
0.071882
 10
4.128532
 20
0.986224
 42
0.053657
 10
4.168656
 20
0.957398
 42
0.054175
 10
4.213483
 20
0.938047
 42
0.078191
 10
4.256143
 20
0.931895
 42
0.101796
 10
4.286727
 20
0.938598
 42
0.382534
 10
4.2941
 20
0.955045
 42
0.147769
 10
4.276653
 20
0.980401
 42
0.027326
 10
4.23
 20
1.01371
 42
-0.076359
 10
4.171711
 20
1.064611
 42
-0.236714
 10
4.159866
 20
1.113936
 42
-0.122927
 10
4.1918
 20
1.176211
 42
-0.016452
 10
4.293248
 20
1.284813
 10
4.483396
 20
1.475396
 10
19.457798
 20
1.478719
 42
-0.000435
 10
25.37225
 20
1.474886
 42
-0.00081
 10
30.1654
 20
1.459844
 42
-0.000028
 10
34.400365
 20
1.439452
 42
-0.412787
 10
34.4322
 20
1.407462
 42
0.205725
 10
34.441369
 20
1.386119
 42
0.201765
 10
34.463264
 20
1.377852
 42
0.106292
 10
34.497348
 20
1.386517
 42
0.044504
 10
34.53795
 20
1.411392
 42
-0.158361
 10
34.641109
 20
1.446095
 42
-0.000311
 10
36.401908
 20
1.463307
 42
-0.002007
 10
38.482411
 20
1.473999
 42
-0.000979
 10
41.137081
 20
1.471791
 10
47.630462
 20
1.453681
 10
47.678032
 20
1.643214
 42
0.053588
 10
47.694308
 20
1.7597
 42
0.006954
 10
47.698796
 20
2.011125
 42
0.00804
 10
47.695162
 20
2.310561
 42
0.006638
 10
47.68192
 20
2.629524
 42
-0.013109
 10
47.664084
 20
3.25405
 42
-0.000062
 10
47.649831
 20
9.697062
 42
-0.000291
 10
47.638789
 20
17.024471
 42
-0.000184
 10
47.634019
 20
25.57035
 10
47.6298
 20
47.7144
  0
LWPOLYLINE
  5
AC
330
1D
100
AcDbEntity
  8
0
100
AcDbPolyline
 90
      758
 70
     1
 43
0.0
 10
15.077943
 20
41.349938
 10
16.8777
 20
41.3271
 10
16.901313
 20
40.257101
 10
16.924926
 20
39.187102
 10
17.258541
 20
39.155287
 10
17.592155
 20
39.123472
 10
17.615628
 20
40.225286
 10
17.6391
 20
41.3271
 10
20.354793
 20
41.349405
 10
23.070485
 20
41.371711
 10
23.453036
 20
40.962733
 10
23.835587
 20
40.553755
 10
24.264357
 20
40.962773
 10
24.693126
 20
41.37179
 10
27.384213
 20
41.349445
 10
30.0753
 20
41.3271
 10
30.098913
 20
40.257101
 10
30.122526
 20
39.187102
 10
30.456141
 20
39.155287
 10
30.789755
 20
39.123472
 10
30.813228
 20
40.225286
 10
30.8367
 20
41.3271
 10
32.6556
 20
41.3271
 10
34.4745
 20
41.3271
 10
34.497281
 20
39.440025
 10
34.520062
 20
37.552949
 10
33.418483
 20
37.578825
 10
32.316904
 20
37.6047
 10
32.317181
 20
37.2663
 10
32.317458
 20
36.9279
 10
33.417129
 20
36.936506
 10
34.5168
 20
36.945113
 10
34.5168
 20
33.259312
 10
34.5168
 20
29.573512
 10
34.135785
 20
29.18668
 10
33.754769
 20
28.799848
 10
34.135785
 20
28.425909
 10
34.5168
 20
28.051971
 10
34.5168
 20
24.836542
 10
34.5168
 20
21.621112
 10
34.135785
 20
21.23428
 10
33.754769
 20
20.847448
 10
34.135785
 20
20.473509
 10
34.5168
 20
20.099571
 10
34.5168
 20
18.816522
 42
-0.005513
 10
34.509997
 20
18.199486
 42
-0.013637
 10
34.487696
 20
17.747716
 42
-0.018195
 10
34.449621
 20
17.412154
 42
-0.04749
 10
34.390957
 20
17.176795
 42
-0.026775
 10
34.325084
 20
17.017774
 42
-0.015487
 10
34.229984
 20
16.833863
 42
-0.01545
 10
34.122843
 20
16.65476
 42
-0.024969
 10
34.019681
 20
16.510234
 42
-0.029679
 10
33.901397
 20
16.377845
 42
-0.018274
 10
33.747841
 20
16.236016
 42
-0.018304
 10
33.585146
 20
16.106439
 42
-0.030993
 10
33.438917
 20
16.011883
 42
-0.018178
 10
33.306455
 20
15.943647
 42
-0.027311
 10
33.185993
 20
15.894873
 42
-0.025798
 10
33.088201
 20
15.866909
 42
-0.25863
 10
33.048792
 20
15.878208
 42
-0.189685
 10
33.026559
 20
15.929295
 42
-0.001245
 10
33.010095
 20
16.426825
 42
-0.004695
 10
32.997953
 20
16.999512
 42
-0.002953
 10
32.994
 20
17.668897
 42
0.001844
 10
32.989956
 20
18.765254
 42
0.021927
 10
32.968216
 20
19.189294
 42
0.061385
 10
32.915585
 20
19.427238
 42
0.103843
 10
32.809769
 20
19.6009
 10
32.625538
 20
19.797004
 10
32.471927
 20
19.564052
 42
0.104371
 10
32.384898
 20
19.342943
 42
0.0281
 10
32.342974
 20
18.96612
 42
0.01248
 10
32.323356
 20
18.304838
 42
0.001384
 10
32.320438
 20
16.7931
 10
32.32256
 20
14.2551
 10
32.497862
 20
14.490119
 42
-0.033956
 10
32.583082
 20
14.589516
 42
-0.021381
 10
32.694885
 20
14.693962
 42
-0.021444
 10
32.814229
 20
14.787692
 42
-0.036423
 10
32.92241
 20
14.854028
 42
-0.038575
 10
33.029922
 20
14.8995
 42
-0.03494
 10
33.146744
 20
14.929725
 42
-0.036723
 10
33.255424
 20
14.941719
 42
-0.086169
 10
33.336096
 20
14.930727
 42
0.02754
 10
33.417833
 20
14.909659
 42
0.216858
 10
33.455032
 20
14.918365
 42
0.284173
 10
33.466806
 20
14.949642
 42
0.043203
 10
33.447526
 20
15.016675
 42
-0.091016
 10
33.434911
 20
15.084132
 42
-0.041356
 10
33.442051
 20
15.173959
 42
-0.039139
 10
33.465608
 20
15.270126
 42
-0.04326
 10
33.503326
 20
15.358125
 42
-0.062178
 10
33.574147
 20
15.458257
 42
-0.015836
 10
33.713045
 20
15.601082
 42
-0.015894
 10
33.883323
 20
15.75528
 42
-0.015495
 10
34.064467
 20
15.899711
 10
34.5168
 20
16.237986
 10
34.5168
 20
13.362543
 10
34.5168
 20
10.4871
 10
32.67675
 20
10.5099
 10
30.8367
 20
10.5327
 10
30.814847
 20
15.287485
 10
30.792995
 20
20.04227
 10
31.138798
 20
20.384635
 42
-0.012893
 10
31.278259
 20
20.515764
 42
-0.017437
 10
31.411269
 20
20.62643
 42
-0.014502
 10
31.525834
 20
20.709976
 42
-0.151412
 10
31.580761
 20
20.727
 42
0.592272
 10
31.594159
 20
20.751445
 42
0.022401
 10
31.519053
 20
20.858251
 42
0.020128
 10
31.398247
 20
21.002287
 42
0.010247
 10
31.23566
 20
21.17381
 10
30.7944
 20
21.620621
 10
30.7944
 20
24.803846
 10
30.7944
 20
27.987071
 10
31.182436
 20
28.386331
 10
31.570473
 20
28.785592
 10
31.182436
 20
29.179552
 10
30.7944
 20
29.573512
 10
30.7944
 20
32.468156
 10
30.7944
 20
35.3628
 10
30.4983
 20
35.3628
 10
30.2022
 20
35.3628
 10
30.2022
 20
36.175756
 10
30.2022
 20
36.988711
 10
30.4983
 20
36.954143
 42
0.019319
 10
30.688421
 20
36.939363
 42
0.215143
 10
30.757208
 20
36.967227
 42
0.179562
 10
30.788634
 20
37.040178
 42
0.012857
 10
30.7944
 20
37.264373
 10
30.7944
 20
37.609171
 10
30.456
 20
37.5769
 10
30.1176
 20
37.544628
 10
30.114709
 20
35.501964
 42
0.000349
 10
30.113989
 20
34.499017
 42
0.000141
 10
30.114348
 20
33.130444
 42
0.000139
 10
30.11556
 20
31.657389
 42
0.000177
 10
30.11754
 20
30.297127
 10
30.123262
 20
27.134954
 10
29.608248
 20
27.581118
 42
-0.015581
 10
29.384699
 20
27.787318
 42
-0.026882
 10
29.21394
 20
27.974016
 42
-0.032298
 10
29.096896
 20
28.137097
 42
-0.090381
 10
29.045216
 20
28.267368
 42
0.031579
 10
29.021538
 20
28.356186
 42
0.058488
 10
28.989754
 20
28.42361
 42
0.093867
 10
28.955524
 20
28.460758
 42
0.307322
 10
28.923837
 20
28.462113
 42
-0.177103
 10
28.877998
 20
28.452678
 42
-0.026496
 10
28.78428
 20
28.471728
 42
-0.027046
 10
28.671521
 20
28.507551
 42
-0.020348
 10
28.551771
 20
28.558516
 42
-0.035277
 10
28.425151
 20
28.629941
 42
-0.023974
 10
28.291599
 20
28.727736
 42
-0.024215
 10
28.171194
 20
28.835145
 42
-0.043824
 10
28.085534
 20
28.93554
 42
-0.009377
 10
28.021364
 20
29.029332
 42
-0.012717
 10
27.967213
 20
29.116508
 42
-0.00968
 10
27.925691
 20
29.190558
 42
-0.123545
 10
27.918
 20
29.22121
 42
-0.232367
 10
27.927485
 20
29.240518
 42
-0.072545
 10
27.956406
 20
29.256798
 42
-0.055338
 10
27.998673
 20
29.26792
 42
-0.036701
 10
28.048745
 20
29.2716
 42
0.106302
 10
28.112974
 20
29.285411
 42
0.031702
 10
28.202083
 20
29.332599
 42
0.030224
 10
28.29804
 20
29.399781
 42
0.028546
 10
28.387145
 20
29.479255
 42
0.05416
 10
28.499745
 20
29.619301
 42
0.08382
 10
28.560289
 20
29.761815
 42
0.04992
 10
28.587753
 20
29.964448
 42
0.008937
 10
28.594279
 20
30.346405
 10
28.593757
 20
31.0059
 10
28.183657
 20
31.013883
 42
-0.032051
 10
27.985203
 20
31.030501
 42
-0.029751
 10
27.785396
 20
31.072485
 42
-0.029625
 10
27.591122
 20
31.138123
 42
-0.031092
 10
27.409191
 20
31.225383
 42
-0.028109
 10
27.252102
 20
31.325097
 42
-0.017999
 10
27.081044
 20
31.45725
 42
-0.018086
 10
26.922328
 20
31.599272
 42
-0.031966
 10
26.803759
 20
31.728926
 42
-0.040502
 10
26.700739
 20
31.880842
 42
-0.02489
 10
26.603701
 20
32.074179
 42
-0.024218
 10
26.522691
 20
32.284928
 42
-0.029001
 10
26.467927
 20
32.490326
 42
-0.018415
 10
26.4282
 20
32.727796
 42
-0.032452
 10
26.415475
 20
32.926205
 42
-0.03612
 10
26.428863
 20
33.109172
 42
-0.03084
 10
26.468601
 20
33.298472
 42
-0.024485
 10
26.519049
 20
33.451972
 42
-0.01515
 10
26.592442
 20
33.627127
 42
-0.015187
 10
26.675639
 20
33.796126
 42
-0.026296
 10
26.756166
 20
33.93034
 42
-0.041813
 10
26.858035
 20
34.057199
 42
-0.019547
 10
27.009198
 20
34.204236
 42
-0.01921
 10
27.180739
 20
34.346989
 42
-0.025483
 10
27.347759
 20
34.462407
 42
-0.024656
 10
27.563603
 20
34.581567
 42
-0.040936
 10
27.757061
 20
34.657338
 42
-0.041917
 10
27.956978
 20
34.699466
 42
-0.027406
 10
28.192163
 20
34.715745
 10
28.6371
 20
34.722111
 10
28.609202
 20
35.063605
 10
28.581303
 20
35.4051
 10
26.906147
 20
35.380616
 42
0.002355
 10
25.943956
 20
35.36202
 42
0.017972
 10
25.492149
 20
35.334889
 42
0.03848
 10
25.233802
 20
35.289787
 42
0.147422
 10
25.095493
 20
35.20641
 42
0.091071
 10
25.034977
 20
35.108569
 42
0.205096
 10
25.037739
 20
35.02309
 42
0.081879
 10
25.11212
 20
34.914432
 42
0.007776
 10
25.339198
 20
34.68453
 10
25.7184
 20
34.312371
 10
25.7184
 20
31.49184
 10
25.7184
 20
28.671309
 10
25.326014
 20
28.300649
 10
24.933627
 20
27.929989
 10
25.177964
 20
27.715168
 42
0.007724
 10
25.274768
 20
27.632674
 42
0.011001
 10
25.363442
 20
27.562665
 42
0.007207
 10
25.439168
 20
27.507233
 42
0.140093
 10
25.466269
 20
27.497673
 42
0.208283
 10
25.495614
 20
27.508384
 42
0.001299
 10
25.703247
 20
27.707021
 42
0.004961
 10
25.939354
 20
27.938629
 42
0.003107
 10
26.211258
 20
28.2141
 42
-0.004768
 10
26.485115
 20
28.489712
 42
-0.007376
 10
26.727378
 20
28.721964
 42
-0.002978
 10
26.937631
 20
28.915335
 42
-0.18653
 10
26.983852
 20
28.9332
 42
-0.190583
 10
27.03205
 20
28.914136
 42
-0.000985
 10
27.411654
 20
28.556745
 42
-0.004168
 10
27.842209
 20
28.142931
 42
-0.002607
 10
28.339693
 20
27.65165
 10
29.623962
 20
26.370099
 10
28.847232
 20
25.590126
 10
28.070502
 20
24.810153
 10
28.858396
 20
24.034907
 10
29.646289
 20
23.259661
 10
28.317514
 20
21.930885
 10
26.988738
 20
20.602109
 10
26.203762
 20
21.383821
 10
25.418787
 20
22.165532
 10
25.187727
 20
21.934473
 10
24.956668
 20
21.703413
 10
25.738001
 20
20.918817
 10
26.519334
 20
20.134222
 10
25.306003
 20
18.918722
 42
0.003453
 10
24.671203
 20
18.273943
 42
0.018628
 10
24.341986
 20
17.908607
 42
0.030445
 10
24.16543
 20
17.669142
 42
0.224086
 10
24.147008
 20
17.532026
 42
-0.072187
 10
24.160196
 20
17.451938
 42
-0.069643
 10
24.150362
 20
17.370369
 42
-0.068032
 10
24.11811
 20
17.292985
 42
-0.063749
 10
24.065697
 20
17.225182
 42
-0.047745
 10
23.990016
 20
17.162723
 42
-0.114123
 10
23.922451
 20
17.136727
 42
-0.112597
 10
23.849746
 20
17.142864
 42
-0.045765
 10
23.75771
 20
17.181769
 42
-0.062037
 10
23.677769
 20
17.238276
 42
-0.114154
 10
23.632737
 20
17.303502
 42
-0.101627
 10
23.617975
 20
17.387308
 42
-0.042325
 10
23.630962
 20
17.501961
 42
0.167317
 10
23.607564
 20
17.67531
 42
0.054514
 10
23.465218
 20
17.895132
 42
0.023084
 10
23.158342
 20
18.238229
 42
0.002827
 10
22.448556
 20
18.95351
 10
21.220558
 20
20.1771
 10
22.133552
 20
21.0654
 42
0.001331
 10
22.473861
 20
21.398272
 42
0.002846
 10
22.734462
 20
21.657473
 42
0.00365
 10
22.901874
 20
21.82837
 42
0.938983
 10
22.897127
 20
21.833569
 42
-0.060075
 10
22.806488
 20
21.777101
 42
-0.179931
 10
22.734903
 20
21.771283
 42
-0.111409
 10
22.655357
 20
21.814414
 42
-0.016662
 10
22.52166
 20
21.939485
 10
22.295613
 20
22.165532
 10
21.525089
 20
21.398213
 10
20.754566
 20
20.630893
 10
19.435257
 20
21.933063
 10
18.115949
 20
23.235232
 10
19.019624
 20
24.153775
 42
0.002098
 10
19.356057
 20
24.498625
 42
0.004462
 10
19.612825
 20
24.768819
 42
0.005592
 10
19.77764
 20
24.949389
 42
0.904716
 10
19.77004
 20
24.957676
 42
-0.197166
 10
19.656425
 20
24.928315
 42
-0.121107
 10
19.526057
 20
24.980005
 42
-0.040495
 10
19.327409
 20
25.147145
 42
-0.004339
 10
18.90289
 20
25.574814
 42
-0.004115
 10
18.629263
 20
25.859955
 42
-0.006411
 10
18.398705
 20
26.110568
 42
-0.002322
 10
18.205003
 20
26.328644
 42
-0.182391
 10
18.189
 20
26.371054
 42
-0.191559
 10
18.206345
 20
26.414666
 42
-0.000799
 10
18.567598
 20
26.79577
 42
-0.003752
 10
18.983753
 20
27.226865
 42
-0.002336
 10
19.477844
 20
27.726375
 10
20.766688
 20
29.017235
 10
21.550418
 20
28.236764
 10
22.334148
 20
27.456293
 10
22.564368
 20
27.686513
 10
22.794587
 20
27.916733
 10
22.395294
 20
28.322122
 10
21.996
 20
28.727512
 10
21.996
 20
31.519942
 10
21.996
 20
34.312371
 10
22.375202
 20
34.68453
 42
0.007572
 10
22.60475
 20
34.916743
 42
0.08389
 10
22.677877
 20
35.024301
 42
0.20911
 10
22.679365
 20
35.109662
 42
0.085385
 10
22.61589
 20
35.209744
 42
0.145148
 10
22.475861
 20
35.29501
 42
0.04369
 10
22.227553
 20
35.337977
 42
0.018813
 10
21.786243
 20
35.358467
 42
0.002193
 10
20.798488
 20
35.3628
 10
19.1196
 20
35.3628
 10
19.119631
 20
35.04555
 10
19.119662
 20
34.7283
 10
19.522233
 20
34.711356
 42
-0.023122
 10
19.69795
 20
34.6958
 42
-0.016354
 10
19.893307
 20
34.66282
 42
-0.016552
 10
20.078291
 20
34.618911
 42
-0.033203
 10
20.220152
 20
34.569919
 42
-0.036865
 10
20.352729
 20
34.502138
 42
-0.019003
 10
20.508248
 20
34.399286
 42
-0.018783
 10
20.660978
 20
34.280784
 42
-0.026933
 10
20.786162
 20
34.163863
 42
-0.025907
 10
20.89939
 20
34.033154
 42
-0.017227
 10
21.015854
 20
33.872615
 42
-0.017361
 10
21.118372
 20
33.708528
 42
-0.032154
 10
21.188012
 20
33.567767
 42
-0.035584
 10
21.23822
 20
33.418273
 42
-0.018734
 10
21.280118
 20
33.226787
 42
-0.018545
 10
21.308514
 20
33.02653
 42
-0.027099
 10
21.317342
 20
32.848667
 42
-0.031186
 10
21.30527
 20
32.66861
 42
-0.019831
 10
21.269932
 20
32.461442
 42
-0.019912
 10
21.218865
 20
32.260128
 42
-0.034531
 10
21.158555
 20
32.09857
 42
-0.031254
 10
21.077858
 20
31.946841
 42
-0.018422
 10
20.963899
 20
31.775949
 42
-0.018388
 10
20.836977
 20
31.612997
 42
-0.029786
 10
20.716263
 20
31.485497
 42
-0.036141
 10
20.577591
 20
31.373145
 42
-0.020376
 10
20.394963
 20
31.256618
 42
-0.020253
 10
20.200116
 20
31.153517
 42
-0.031109
 10
20.023197
 20
31.082034
 42
-0.02291
 10
19.848914
 20
31.032675
 42
-0.019882
 10
19.662423
 20
30.99673
 42
-0.020353
 10
19.490838
 20
30.977788
 42
-0.053796
 10
19.367547
 20
30.982505
 10
19.1196
 20
31.018896
 10
19.1196
 20
30.496272
 42
0.015305
 10
19.126316
 20
30.276938
 42
0.013694
 10
19.146467
 20
30.050098
 42
0.013876
 10
19.175809
 20
29.847379
 42
0.041007
 10
19.211063
 20
29.711277
 42
0.053991
 10
19.265355
 20
29.596938
 42
0.04688
 10
19.345141
 20
29.490861
 42
0.047199
 10
19.442636
 20
29.402214
 42
0.056774
 10
19.549463
 20
29.339601
 42
-0.016626
 10
19.644068
 20
29.293906
 42
-0.024242
 10
19.723862
 20
29.246971
 42
-0.021603
 10
19.783669
 20
29.20397
 42
-0.229989
 10
19.7964
 20
29.177757
 42
-0.132786
 10
19.78788
 20
29.14624
 42
-0.01066
 10
19.742525
 20
29.07216
 42
-0.013806
 10
19.683245
 20
28.985195
 42
-0.010151
 10
19.612996
 20
28.892057
 42
-0.041689
 10
19.521502
 20
28.793815
 42
-0.024243
 10
19.397051
 20
28.691281
 42
-0.024112
 10
19.261441
 20
28.6
 42
-0.037131
 10
19.135412
 20
28.53598
 42
-0.014906
 10
18.976347
 20
28.475021
 42
-0.076731
 10
18.883819
 20
28.457898
 42
-0.147352
 10
18.820985
 20
28.474799
 42
-0.113072
 10
18.770212
 20
28.525082
 42
0.089561
 10
18.73896
 20
28.559055
 42
0.438443
 10
18.71615
 20
28.554952
 42
0.124715
 10
18.701679
 20
28.511033
 42
0.016102
 10
18.697895
 20
28.411369
 42
-0.019393
 10
18.693605
 20
28.315051
 42
-0.015713
 10
18.681764
 20
28.212292
 42
-0.015997
 10
18.664811
 20
28.118136
 42
-0.039089
 10
18.644798
 20
28.050644
 42
-0.101352
 10
18.598339
 20
27.97791
 42
-0.012222
 10
18.461896
 20
27.84403
 42
-0.014129
 10
18.289423
 20
27.691774
 42
-0.011193
 10
18.094898
 20
27.536844
 10
17.5968
 20
27.158037
 10
17.5968
 20
30.097727
 42
-0.002506
 10
17.602546
 20
31.244125
 42
-0.003647
 10
17.620054
 20
32.254965
 42
-0.001842
 10
17.644303
 20
33.11167
 42
-0.061908
 10
17.675963
 20
33.313441
 42
0.015911
 10
17.704623
 20
33.426873
 42
0.053968
 10
17.712825
 20
33.502648
 42
0.171966
 10
17.700894
 20
33.536311
 42
0.377308
 10
17.675963
 20
33.540539
 42
-0.541328
 10
17.642399
 20
33.556289
 42
-0.012671
 10
17.618634
 20
33.763151
 42
-0.015424
 10
17.601971
 20
34.049135
 42
-0.006838
 10
17.5968
 20
34.427207
 10
17.5968
 20
35.3628
 10
17.297525
 20
35.3628
 10
16.998251
 20
35.3628
 10
17.022575
 20
36.14535
 10
17.0469
 20
36.9279
 10
17.343
 20
36.9279
 42
0.020224
 10
17.530857
 20
36.935502
 42
0.208538
 10
17.597687
 20
36.971326
 42
0.17564
 10
17.623132
 20
37.048155
 42
0.013645
 10
17.610988
 20
37.267872
 10
17.582877
 20
37.607843
 10
17.251438
 20
37.576236
 10
16.92
 20
37.544628
 10
16.92
 20
33.55907
 10
16.92
 20
29.573512
 10
16.538985
 20
29.18668
 10
16.157969
 20
28.799848
 10
16.538985
 20
28.425909
 10
16.92
 20
28.051971
 10
16.92
 20
24.836542
 10
16.92
 20
21.621112
 10
16.538985
 20
21.23428
 10
16.157969
 20
20.847448
 10
16.538985
 20
20.473509
 10
16.92
 20
20.099571
 10
16.92
 20
16.056386
 10
16.92
 20
12.0132
 10
18.0198
 20
12.0132
 10
19.1196
 20
12.0132
 10
19.1196
 20
11.046343
 42
0.005676
 10
19.125283
 20
10.545802
 42
0.024402
 10
19.146566
 20
10.248638
 42
0.041603
 10
19.185663
 20
10.059133
 42
0.125347
 10
19.252543
 20
9.946543
 42
0.034996
 10
19.311085
 20
9.895669
 42
0.033525
 10
19.376965
 20
9.852652
 42
0.03537
 10
19.440256
 20
9.822801
 42
0.092765
 10
19.489423
 20
9.8136
 42
0.076595
 10
19.536554
 20
9.820863
 42
0.038306
 10
19.59265
 20
9.843422
 42
0.036887
 10
19.648368
 20
9.876268
 42
0.044777
 10
19.69488
 20
9.91512
 42
0.167317
 10
19.743164
 20
10.014105
 42
0.012921
 10
19.772031
 20
10.31252
 42
0.01313
 10
19.790848
 20
10.736654
 42
0.00452
 10
19.7964
 20
11.350792
 10
19.7964
 20
12.684945
 10
18.71775
 20
12.708622
 10
17.6391
 20
12.7323
 10
17.614769
 20
13.566859
 42
-0.010909
 10
17.611886
 20
13.960308
 42
-0.016517
 10
17.628148
 20
14.302251
 42
-0.019082
 10
17.663077
 20
14.595103
 42
-0.031521
 10
17.717395
 20
14.83813
 42
-0.034087
 10
17.788322
 20
15.031802
 42
-0.020182
 10
17.897505
 20
15.252417
 42
-0.020125
 10
18.025083
 20
15.465168
 42
-0.031895
 10
18.152665
 20
15.635039
 42
-0.026178
 10
18.296273
 20
15.786046
 42
-0.018075
 10
18.47336
 20
15.941997
 42
-0.01827
 10
18.655031
 20
16.079914
 42
-0.035184
 10
18.81144
 20
16.174194
 42
-0.037993
 10
18.998007
 20
16.252233
 42
-0.024045
 10
19.225254
 20
16.31565
 42
-0.022109
 10
19.480986
 20
16.362146
 42
-0.018791
 10
19.7541
 20
16.389015
 42
0.011669
 10
19.998622
 20
16.409559
 42
0.01143
 10
20.243621
 20
16.441594
 42
0.011383
 10
20.457129
 20
16.479485
 42
0.041714
 10
20.588956
 20
16.517647
 42
0.056312
 10
20.693152
 20
16.571585
 42
0.032061
 10
20.805856
 20
16.658025
 42
0.031626
 10
20.9095
 20
16.760886
 42
0.044925
 10
20.98659
 20
16.865259
 42
0.010589
 10
21.083301
 20
17.032148
 42
0.149487
 10
21.097363
 20
17.099027
 42
0.230484
 10
21.067532
 20
17.148504
 42
0.028788
 10
20.955434
 20
17.21233
 42
-0.076256
 10
20.871065
 20
17.27158
 42
-0.075087
 10
20.807815
 20
17.35368
 42
-0.064577
 10
20.764965
 20
17.461725
 42
-0.038363
 10
20.741238
 20
17.59839
 42
0.023505
 10
20.724017
 20
17.718661
 42
0.02334
 10
20.695555
 20
17.837072
 42
0.023961
 10
20.66095
 20
17.937945
 42
0.078746
 10
20.625129
 20
17.99831
 42
-0.047329
 10
20.590298
 20
18.049427
 42
-0.282435
 10
20.591748
 20
18.080272
 42
-0.219617
 10
20.621819
 20
18.098334
 42
-0.031392
 10
20.695491
 20
18.101709
 42
-0.051539
 10
20.765915
 20
18.09322
 42
-0.030962
 10
20.846798
 20
18.069536
 42
-0.030766
 10
20.925173
 20
18.035632
 42
-0.046281
 10
20.988131
 20
17.995959
 42
-0.039123
 10
21.046636
 20
17.943287
 42
-0.019967
 10
21.111843
 20
17.868892
 42
-0.019711
 10
21.173301
 20
17.786403
 42
-0.027888
 10
21.220781
 20
17.708112
 42
-0.109472
 10
21.268948
 20
17.534958
 42
-0.004943
 10
21.295876
 20
16.914198
 42
-0.00631
 10
21.313939
 20
16.04775
 42
-0.002056
 10
21.3192
 20
14.768262
 10
21.3192
 20
12.0132
 10
23.204315
 20
12.0132
 10
25.089431
 20
12.0132
 10
25.056971
 20
12.587667
 42
-0.01624
 10
25.050378
 20
12.862665
 42
-0.025531
 10
25.064441
 20
13.098501
 42
-0.029629
 10
25.099229
 20
13.301343
 42
-0.041696
 10
25.155624
 20
13.475933
 42
-0.021143
 10
25.221696
 20
13.616988
 42
-0.011916
 10
25.313012
 20
13.782497
 42
-0.011878
 10
25.413288
 20
13.945408
 42
-0.019026
 10
25.507295
 20
14.078898
 42
-0.054307
 10
25.642759
 20
14.221393
 42
-0.021754
 10
25.855835
 20
14.386311
 42
-0.019681
 10
26.120788
 20
14.55832
 42
-0.015351
 10
26.421076
 20
14.724621
 42
0.00634
 10
26.706504
 20
14.876038
 42
0.006153
 10
26.990878
 20
15.036124
 42
0.00609
 10
27.237467
 20
15.183004
 42
0.022579
 10
27.387364
 20
15.284357
 42
0.03931
 10
27.508725
 20
15.390428
 42
0.01839
 10
27.64911
 20
15.545052
 42
0.018091
 10
27.785195
 20
15.718876
 42
0.024158
 10
27.894964
 20
15.886517
 10
28.1295
 20
16.2855
 10
28.155507
 20
15.878221
 42
-0.028791
 10
28.156883
 20
15.656465
 42
-0.049588
 10
28.129231
 20
15.474072
 42
-0.047014
 10
28.064892
 20
15.294201
 42
-0.023158
 10
27.951805
 20
15.078972
 42
0.016376
 10
27.862223
 20
14.913953
 42
0.038432
 10
27.809217
 20
14.784176
 42
0.057094
 10
27.79108
 20
14.693245
 42
0.345841
 10
27.815802
 20
14.655766
 42
-0.049699
 10
27.864307
 20
14.634043
 42
-0.012205
 10
27.939145
 20
14.588694
 42
-0.012377
 10
28.022729
 20
14.53225
 42
-0.012082
 10
28.104104
 20
14.471298
 42
-0.043451
 10
28.192424
 20
14.388378
 42
-0.017276
 10
28.299043
 20
14.260638
 42
-0.016944
 10
28.405245
 20
14.114084
 42
-0.020423
 10
28.494463
 20
13.969333
 42
-0.017671
 10
28.563487
 20
13.835504
 42
-0.033866
 10
28.607514
 20
13.72304
 42
-0.046398
 10
28.624698
 20
13.643473
 42
-0.449805
 10
28.604417
 20
13.6206
 42
-0.104898
 10
28.566637
 20
13.628614
 42
-0.051925
 10
28.523941
 20
13.653164
 42
-0.048291
 10
28.483196
 20
13.689051
 42
-0.051109
 10
28.450954
 20
13.731456
 42
0.052874
 10
28.410917
 20
13.78373
 42
0.017382
 10
28.341728
 20
13.851738
 42
0.017096
 10
28.259168
 20
13.922392
 42
0.018545
 10
28.174126
 20
13.985256
 42
0.055828
 10
28.070789
 20
14.040101
 42
0.028596
 10
27.931287
 20
14.08621
 42
0.028013
 10
27.780466
 20
14.117732
 42
0.037524
 10
27.641175
 20
14.1282
 42
0.032825
 10
27.499083
 20
14.118862
 42
0.022371
 10
27.339608
 20
14.090502
 42
0.0226
 10
27.187579
 20
14.049095
 42
0.041559
 10
27.069231
 20
13.999868
 42
0.047307
 10
26.964829
 20
13.932685
 42
0.029774
 10
26.856265
 20
13.836335
 42
0.029774
 10
26.759915
 20
13.727771
 42
0.047307
 10
26.692732
 20
13.623369
 42
0.042757
 10
26.643494
 20
13.50419
 42
0.022533
 10
26.602098
 20
13.349369
 42
0.022252
 10
26.573752
 20
13.185921
 42
0.031815
 10
26.5644
 20
13.039092
 42
0.037538
 10
26.576934
 20
12.872373
 42
0.048541
 10
26.61444
 20
12.723684
 42
0.04911
 10
26.67946
 20
12.586369
 42
0.039804
 10
26.774187
 20
12.453664
 42
0.032315
 10
26.873055
 20
12.350495
 42
0.022369
 10
26.996992
 20
12.246665
 42
0.022631
 10
27.125616
 20
12.157271
 42
0.042378
 10
27.238077
 20
12.099094
 42
0.044812
 10
27.364198
 20
12.059646
 42
0.033227
 10
27.508742
 20
12.038223
 42
0.032197
 10
27.660323
 20
12.035745
 42
0.034367
 10
27.807643
 20
12.053022
 42
0.04957
 10
27.958869
 20
12.097246
 42
0.038317
 10
28.11281
 20
12.173546
 42
0.036238
 10
28.262069
 20
12.277689
 42
0.033266
 10
28.399343
 20
12.4051
 42
-0.016516
 10
28.551141
 20
12.555759
 42
-0.07645
 10
28.653172
 20
12.624965
 42
-0.134225
 10
28.741057
 20
12.640644
 42
-0.100608
 10
28.835663
 20
12.612324
 42
-0.074487
 10
28.906723
 20
12.559405
 42
-0.028065
 10
28.989237
 20
12.466435
 42
-0.027052
 10
29.069097
 20
12.353544
 42
-0.029639
 10
29.133672
 20
12.23599
 42
-0.014224
 10
29.186471
 20
12.11603
 42
-0.015232
 10
29.231084
 20
11.995947
 42
-0.014933
 10
29.263077
 20
11.890807
 42
-0.066478
 10
29.2716
 20
11.826984
 42
-0.071449
 10
29.263981
 20
11.773939
 42
-0.038585
 10
29.240536
 20
11.71211
 42
-0.037488
 10
29.206326
 20
11.651593
 42
-0.048102
 10
29.16585
 20
11.602108
 42
0.008446
 10
29.110288
 20
11.544211
 42
0.308011
 10
29.107666
 20
11.526898
 42
0.37832
 10
29.12212
 20
11.520783
 42
0.010078
 10
29.192748
 20
11.546029
 42
-0.130863
 10
29.259701
 20
11.552964
 42
-0.046741
 10
29.35353
 20
11.52896
 42
-0.042384
 10
29.456593
 20
11.481869
 42
-0.038323
 10
29.553988
 20
11.416671
 42
-0.032369
 10
29.650946
 20
11.329686
 42
-0.020131
 10
29.753402
 20
11.216253
 42
-0.020174
 10
29.845827
 20
11.095676
 42
-0.034114
 10
29.911842
 20
10.986896
 42
0.046651
 10
29.978053
 20
10.883707
 42
0.032467
 10
30.070284
 20
10.780362
 42
0.032857
 10
30.172743
 20
10.692016
 42
0.056502
 10
30.269702
 20
10.634816
 42
-0.786948
 10
30.259368
 20
10.578907
 42
-0.006533
 10
29.533414
 20
10.548768
 42
-0.00508
 10
28.297793
 20
10.526197
 42
-0.000834
 10
25.90875
 20
10.510821
 10
21.3192
 20
10.488943
 10
21.3192
 20
10.270074
 42
0.050635
 10
21.3295
 20
10.168632
 42
0.025131
 10
21.361854
 20
10.043292
 42
0.024651
 10
21.408802
 20
9.915534
 42
0.03304
 10
21.464405
 20
9.805394
 42
0.03631
 10
21.532337
 20
9.707398
 42
0.032346
 10
21.616224
 20
9.616153
 42
0.033801
 10
21.70273
 20
9.544006
 42
0.080229
 10
21.777333
 20
9.506349
 42
-0.042414
 10
21.86836
 20
9.468707
 42
-0.35402
 10
21.885043
 20
9.430679
 42
-0.141405
 10
21.852738
 20
9.377757
 42
-0.00786
 10
21.706653
 20
9.248049
 42
-0.037313
 10
21.583194
 20
9.156937
 42
-0.054786
 10
21.461928
 20
9.098101
 42
-0.058546
 10
21.337152
 20
9.069504
 42
-0.051367
 10
21.203374
 20
9.068741
 42
0.047941
 10
21.063898
 20
9.0689
 42
0.082661
 10
20.951984
 20
9.039173
 42
0.075804
 10
20.849363
 20
8.972541
 42
0.034735
 10
20.737508
 20
8.85814
 42
-0.037282
 10
20.635644
 20
8.755013
 42
-0.018684
 10
20.493066
 20
8.639794
 42
-0.01844
 10
20.335901
 20
8.531015
 42
-0.025898
 10
20.187608
 20
8.446743
 42
0.015425
 10
20.040036
 20
8.366921
 42
0.012126
 10
19.885109
 20
8.271736
 42
0.012306
 10
19.745319
 20
8.176143
 42
0.029341
 10
19.64778
 20
8.096771
 10
19.456861
 20
7.921836
 10
19.22478
 20
8.135126
 42
0.027305
 10
19.115924
 20
8.22472
 42
0.017215
 10
18.979993
 20
8.317639
 42
0.017278
 10
18.839601
 20
8.400017
 42
0.030174
 10
18.717361
 20
8.456933
 42
-0.042181
 10
18.595153
 20
8.517441
 42
-0.022435
 10
18.454676
 20
8.611277
 42
-0.022171
 10
18.318785
 20
8.720743
 42
-0.031963
 10
18.209761
 20
8.829975
 42
0.028419
 10
18.082053
 20
8.959751
 42
0.070827
 10
17.972082
 20
9.034212
 42
0.084127
 10
17.857797
 20
9.067808
 42
0.053944
 10
17.719195
 20
9.069231
 42
-0.053768
 10
17.592937
 20
9.070484
 42
-0.04951
 10
17.466144
 20
9.098344
 42
-0.047227
 10
17.341865
 20
9.152302
 42
-0.040652
 10
17.223096
 20
9.231012
 10
16.985302
 20
9.41806
 10
17.204324
 20
9.532818
 42
0.03574
 10
17.294538
 20
9.588635
 42
0.027566
 10
17.384484
 20
9.661467
 42
0.028235
 10
17.46125
 20
9.739287
 42
0.057747
 10
17.510073
 20
9.809626
 42
0.049463
 10
17.543386
 20
9.890084
 42
0.022689
 10
17.571324
 20
10.000262
 42
0.022209
 10
17.590448
 20
10.119862
 42
0.028544
 10
17.5968
 20
10.231038
 10
17.5968
 20
10.4904
 10
16.497
 20
10.4904
 10
15.3972
 20
10.4904
 10
15.3972
 20
14.947597
 42
0.000532
 10
15.394057
 20
17.899355
 42
0.009184
 10
15.374279
 20
18.864141
 42
0.025993
 10
15.328771
 20
19.363724
 42
0.154045
 10
15.216395
 20
19.597253
 10
15.03559
 20
19.789711
 10
14.886986
 20
19.600792
 42
0.093373
 10
14.810025
 20
19.453076
 42
0.038939
 10
14.761621
 20
19.232758
 42
0.022527
 10
14.729802
 20
18.89299
 42
0.005102
 10
14.707714
 20
18.313986
 42
-0.004277
 10
14.681694
 20
17.601066
 42
-0.040728
 10
14.643272
 20
17.298829
 42
-0.069589
 10
14.560576
 20
17.070021
 42
-0.024111
 10
14.381473
 20
16.767109
 42
-0.026843
 10
14.241251
 20
16.577141
 42
-0.018578
 10
14.063757
 20
16.377481
 42
-0.018784
 10
13.878318
 20
16.197886
 42
-0.036156
 10
13.714947
 20
16.071213
 42
-0.0164
 10
13.56751
 20
15.979911
 42
-0.023868
 10
13.43146
 20
15.910126
 42
-0.021112
 10
13.318487
 20
15.864478
 42
-0.227654
 10
13.270797
 20
15.869547
 42
-0.249327
 10
13.241094
 20
15.920414
 42
-0.00137
 10
13.219482
 20
16.502673
 42
-0.005399
 10
13.203674
 20
17.173499
 42
-0.003349
 10
13.198895
 20
17.961343
 42
-0.002836
 10
13.203881
 20
18.751909
 42
-0.004446
 10
13.218068
 20
19.431575
 42
-0.001329
 10
13.237152
 20
20.01998
 42
-0.150764
 10
13.262345
 20
20.0925
 42
-0.039394
 10
13.304593
 20
20.141416
 42
-0.004516
 10
13.409099
 20
20.242882
 42
-0.005427
 10
13.536023
 20
20.361303
 42
-0.004398
 10
13.674651
 20
20.485638
 10
14.024802
 20
20.794176
 10
13.611201
 20
21.201558
 10
13.1976
 20
21.608939
 10
13.1976
 20
24.835059
 10
13.1976
 20
28.061178
 10
13.590343
 20
28.418606
 10
13.983087
 20
28.776034
 10
13.590343
 20
29.174773
 10
13.1976
 20
29.573512
 10
13.1976
 20
33.227944
 10
13.1976
 20
36.882376
 10
13.403551
 20
36.934067
 42
-0.050421
 10
13.531018
 20
36.952699
 42
-0.006257
 10
13.811572
 20
36.961646
 42
-0.00733
 10
14.146015
 20
36.963219
 42
-0.006008
 10
14.503351
 20
36.955367
 10
15.3972
 20
36.924977
 10
15.3972
 20
37.241161
 10
15.3972
 20
37.557345
 10
14.31855
 20
37.581022
 10
13.2399
 20
37.6047
 10
13.216976
 20
39.379114
 42
-0.002287
 10
13.211235
 20
40.067083
 42
-0.003483
 10
13.213143
 20
40.664496
 42
-0.001289
 10
13.219685
 20
41.1781
 42
-0.087999
 10
13.236119
 20
41.263152
 42
-0.282729
 10
13.311663
 20
41.320977
 42
-0.013789
 10
13.639817
 20
41.345523
 42
-0.012441
 10
14.157142
 20
41.357012
 42
-0.002503
  0
LWPOLYLINE
  5
3A4
330
1D
100
AcDbEntity
  8
0
100
AcDbPolyline
 90
       40
 70
     1
 43
0.0
 10
19.451597
 20
18.609309
 42
-0.0298
 10
19.577259
 20
18.600691
 42
-0.027383
 10
19.70467
 20
18.577136
 42
-0.028436
 10
19.81593
 20
18.543398
 42
-0.076022
 10
19.888331
 20
18.503559
 42
-0.039123
 10
19.946836
 20
18.450887
 42
-0.019967
 10
20.012043
 20
18.376492
 42
-0.019711
 10
20.073501
 20
18.294003
 42
-0.027888
 10
20.120981
 20
18.215712
 42
-0.037397
 10
20.158701
 20
18.130014
 42
-0.02324
 10
20.190489
 20
18.024795
 42
-0.02327
 10
20.212295
 20
17.917441
 42
-0.038484
 10
20.2194
 20
17.825271
 42
-0.064008
 10
20.207275
 20
17.730946
 42
-0.031933
 10
20.169395
 20
17.616457
 42
-0.031072
 10
20.114336
 20
17.501153
 42
-0.039746
 10
20.049169
 20
17.403205
 42
-0.047384
 10
19.966568
 20
17.316509
 42
-0.033222
 10
19.85901
 20
17.235002
 42
-0.03365
 10
19.744419
 20
17.170185
 42
-0.057888
 10
19.640866
 20
17.134502
 42
-0.043716
 10
19.533524
 20
17.120596
 42
-0.027817
 10
19.407473
 20
17.122382
 42
-0.027878
 10
19.283015
 20
17.138088
 42
-0.045544
 10
19.180649
 20
17.166672
 42
-0.066785
 10
19.085563
 20
17.21821
 42
-0.035692
 10
18.98327
 20
17.304619
 42
-0.034789
 10
18.889753
 20
17.409438
 42
-0.045449
 10
18.820668
 20
17.517677
 42
-0.03698
 10
18.766783
 20
17.643955
 42
-0.040737
 10
18.734161
 20
17.772802
 42
-0.043503
 10
18.724288
 20
17.896597
 42
-0.05902
 10
18.738287
 20
18.007762
 42
-0.043311
 10
18.772299
 20
18.107143
 42
-0.024172
 10
18.829645
 20
18.221551
 42
-0.023953
 10
18.899318
 20
18.332466
 42
-0.035566
 10
18.971418
 20
18.42165
 42
-0.053248
 10
19.069118
 20
18.506209
 42
-0.058685
 10
19.179462
 20
18.565037
 42
-0.055403
 10
19.305909
 20
18.598927
 42
-0.040039
  0
LWPOLYLINE
  5
3CE
330
1D
100
AcDbEntity
  8
0
100
AcDbPolyline
 90
       36
 70
     1
 43
0.0
 10
27.370762
 20
18.612
 42
-0.043719
 10
27.528768
 20
18.598158
 42
-0.061388
 10
27.66399
 20
18.556716
 42
-0.057774
 10
27.790965
 20
18.48139
 42
-0.033651
 10
27.924508
 20
18.364708
 42
-0.03272
 10
28.019143
 20
18.256804
 42
-0.032469
 10
28.099158
 20
18.137209
 42
-0.034262
 10
28.154885
 20
18.023659
 42
-0.09724
 10
28.1718
 20
17.937506
 42
-0.049207
 10
28.163373
 20
17.852081
 42
-0.021833
 10
28.136387
 20
17.741964
 42
-0.021359
 10
28.097403
 20
17.626912
 42
-0.026966
 10
28.051245
 20
17.524469
 42
-0.047873
 10
27.988887
 20
17.427806
 42
-0.032235
 10
27.900941
 20
17.330133
 42
-0.032478
 10
27.802603
 20
17.245887
 42
-0.054031
 10
27.708864
 20
17.19027
 42
-0.023197
 10
27.6123
 20
17.151574
 42
-0.018792
 10
27.505573
 20
17.118889
 42
-0.019186
 10
27.404713
 20
17.096205
 42
-0.045747
 10
27.32831
 20
17.0892
 42
-0.092149
 10
27.249761
 20
17.1038
 42
-0.028529
 10
27.139748
 20
17.153537
 42
-0.027451
 10
27.020602
 20
17.224396
 42
-0.027029
 10
26.909291
 20
17.30822
 42
-0.03312
 10
26.777251
 20
17.435164
 42
-0.075003
 10
26.700436
 20
17.550105
 42
-0.075724
 10
26.661363
 20
17.681885
 42
-0.034285
 10
26.649
 20
17.861966
 42
-0.034932
 10
26.660721
 20
18.029523
 42
-0.056553
 10
26.696392
 20
18.16769
 42
-0.0599
 10
26.760226
 20
18.288734
 42
-0.045142
 10
26.856655
 20
18.404345
 42
-0.044966
 10
26.968532
 20
18.497727
 42
-0.055502
 10
27.088009
 20
18.562187
 42
-0.054588
 10
27.220387
 20
18.59951
 42
-0.041458
  0
LWPOLYLINE
  5
3F4
330
1D
100
AcDbEntity
  8
0
100
AcDbPolyline
 90
      104
 70
     1
 43
0.0
 10
14.702272
 20
13.285784
 42
-0.002159
 10
14.707445
 20
11.977297
 42
-0.005222
 10
14.696993
 20
11.010313
 42
-0.004692
 10
14.675072
 20
10.294984
 42
-0.057437
 10
14.632966
 20
10.0251
 42
-0.028841
 10
14.580929
 20
9.87177
 42
-0.015573
 10
14.500326
 20
9.689317
 42
-0.015465
 10
14.406376
 20
9.508
 42
-0.023467
 10
14.312694
 20
9.357208
 42
-0.04327
 10
14.191935
 20
9.210693
 42
-0.021806
 10
14.016783
 20
9.04707
 42
-0.021301
 10
13.817452
 20
8.890708
 42
-0.027157
 10
13.6206
 20
8.765008
 42
-0.020977
 10
13.330203
 20
8.616752
 42
-0.05567
 10
13.10926
 20
8.543812
 42
-0.043974
 10
12.849449
 20
8.51255
 42
-0.009367
 10
12.3939
 20
8.506571
 42
-0.01516
 10
12.057963
 20
8.518645
 42
-0.010345
 10
11.677297
 20
8.551822
 42
-0.010434
 10
11.311217
 20
8.599121
 42
-0.020634
 10
11.023599
 20
8.654621
 42
0.004132
 10
10.781487
 20
8.709683
 42
0.005292
 10
10.557674
 20
8.756165
 42
0.004134
 10
10.369651
 20
8.791531
 42
0.044443
 10
10.292521
 20
8.7984
 42
0.149556
 10
10.241874
 20
8.782904
 42
0.070844
 10
10.190734
 20
8.73665
 42
0.060637
 10
10.14683
 20
8.668595
 42
0.051524
 10
10.117583
 20
8.588188
 42
-0.066932
 10
10.082548
 20
8.500362
 42
-0.062854
 10
10.024961
 20
8.42282
 42
-0.064191
 10
9.951249
 20
8.363423
 42
-0.076186
 10
9.868909
 20
8.328806
 42
-0.081506
 10
9.766019
 20
8.32022
 42
-0.045421
 10
9.641752
 20
8.341574
 42
-0.039403
 10
9.503663
 20
8.390378
 42
-0.028647
 10
9.358755
 20
8.465041
 42
0.029785
 10
9.189041
 20
8.551997
 42
0.051389
 10
9.038129
 20
8.600547
 42
0.05261
 10
8.882982
 20
8.616653
 42
0.032925
 10
8.700645
 20
8.604325
 10
8.356776
 20
8.558203
 10
8.584823
 20
8.796232
 42
-0.047853
 10
8.699714
 20
8.89522
 42
-0.025378
 10
8.858601
 20
8.9959
 42
-0.025015
 10
9.032987
 20
9.083178
 42
-0.03527
 10
9.196597
 20
9.141699
 42
-0.032467
 10
9.424187
 20
9.189752
 42
-0.033809
 10
9.653008
 20
9.207078
 42
-0.025651
 10
9.930417
 20
9.195057
 42
-0.009441
 10
10.3199
 20
9.150668
 42
0.008881
 10
10.647692
 20
9.112938
 42
0.00603
 10
11.022038
 20
9.081125
 42
0.006077
 10
11.384342
 20
9.059155
 42
0.012104
 10
11.671603
 20
9.0522
 42
0.015971
 10
11.943098
 20
9.060874
 42
0.020669
 10
12.190903
 20
9.087042
 42
0.023001
 10
12.400239
 20
9.127853
 42
0.05362
 10
12.550314
 20
9.181898
 42
0.036362
 10
12.664729
 20
9.248245
 42
0.022917
 10
12.788293
 20
9.341017
 42
0.022979
 10
12.902019
 20
9.443983
 42
0.038643
 10
12.9861
 20
9.541448
 42
0.095519
 10
13.082049
 20
9.743105
 42
0.041022
 10
13.133172
 20
10.038023
 42
0.017113
 10
13.161495
 20
10.548547
 42
0.001886
 10
13.181911
 20
11.719899
 42
0.00158
 10
13.194924
 20
12.959865
 42
0.019501
 10
13.179972
 20
13.431921
 42
0.05494
 10
13.131343
 20
13.698509
 42
0.094358
 10
13.02772
 20
13.898349
 42
0.029737
 10
12.949629
 20
13.98632
 42
0.033537
 10
12.864557
 20
14.060681
 42
0.035696
 10
12.784711
 20
14.112983
 42
0.127825
 10
12.72616
 20
14.1282
 42
-0.127061
 10
12.680106
 20
14.140095
 42
-0.10076
 10
12.640873
 20
14.173571
 42
-0.089638
 10
12.614499
 20
14.223646
 42
-0.076645
 10
12.6054
 20
14.282653
 42
-0.092756
 10
12.618781
 20
14.354163
 42
-0.039044
 10
12.661315
 20
14.442664
 42
-0.036898
 10
12.722912
 20
14.532735
 42
-0.039633
 10
12.79575
 20
14.610481
 42
-0.017984
 10
12.882727
 20
14.684158
 42
-0.012069
 10
12.987039
 20
14.762261
 42
-0.012164
 10
13.091852
 20
14.833084
 42
-0.023401
 10
13.179646
 20
14.883715
 42
-0.048677
 10
13.265902
 20
14.918071
 42
-0.037684
 10
13.364945
 20
14.938813
 42
-0.038743
 10
13.461272
 20
14.943986
 42
-0.071004
 10
13.538663
 20
14.931055
 42
0.028005
 10
13.617935
 20
14.9107
 42
0.190085
 10
13.656982
 20
14.91782
 42
0.294301
 10
13.670568
 20
14.946506
 42
0.059141
 10
13.656001
 20
15.003973
 42
-0.10252
 10
13.645587
 20
15.067657
 42
-0.038189
 10
13.656369
 20
15.158148
 42
-0.035864
 10
13.683637
 20
15.257983
 42
-0.036091
 10
13.724848
 20
15.352678
 42
-0.057198
 10
13.797555
 20
15.459664
 42
-0.017579
 10
13.930293
 20
15.603203
 42
-0.017337
 10
14.091311
 20
15.75461
 42
-0.018183
 10
14.259965
 20
15.892006
 10
14.6781
 20
16.208067
  0
LWPOLYLINE
  5
45E
330
1D
100
AcDbEntity
  8
0
100
AcDbPolyline
 90
       32
 70
     1
 43
0.0
 10
31.951882
 20
9.8136
 42
-0.046516
 10
32.09145
 20
9.800588
 42
-0.052677
 10
32.220222
 20
9.761994
 42
-0.052344
 10
32.338758
 20
9.697079
 42
-0.044974
 10
32.447945
 20
9.605945
 42
-0.045142
 10
32.544374
 20
9.490334
 42
-0.0599
 10
32.608208
 20
9.36929
 42
-0.056553
 10
32.643879
 20
9.231123
 42
-0.034932
 10
32.6556
 20
9.063566
 42
-0.034285
 10
32.643237
 20
8.883485
 42
-0.075724
 10
32.604164
 20
8.751705
 42
-0.075003
 10
32.527349
 20
8.636764
 42
-0.03312
 10
32.395309
 20
8.50982
 42
-0.033268
 10
32.281065
 20
8.425998
 42
-0.030286
 10
32.153164
 20
8.355137
 42
-0.031607
 10
32.030867
 20
8.30598
 42
-0.079918
 10
31.9365
 20
8.2908
 42
-0.079918
 10
31.842133
 20
8.30598
 42
-0.031607
 10
31.719836
 20
8.355137
 42
-0.030286
 10
31.591935
 20
8.425998
 42
-0.033268
 10
31.477691
 20
8.50982
 42
-0.033129
 10
31.347625
 20
8.63487
 42
-0.072244
 10
31.270295
 20
8.749228
 42
-0.074891
 10
31.230291
 20
8.878163
 42
-0.037854
 10
31.2174
 20
9.048184
 42
-0.039013
 10
31.230021
 20
9.209689
 42
-0.058609
 10
31.268093
 20
9.345638
 42
-0.058932
 10
31.336478
 20
9.468508
 42
-0.039972
 10
31.440436
 20
9.590564
 42
-0.040076
 10
31.557802
 20
9.690485
 42
-0.053539
 10
31.67926
 20
9.759738
 42
-0.055401
 10
31.809226
 20
9.800018
 42
-0.047497
  0
LWPOLYLINE
  5
480
330
1D
100
AcDbEntity
  8
0
100
AcDbPolyline
 90
       40
 70
     1
 43
0.0
 10
33.787959
 20
9.810909
 42
-0.03371
 10
33.898707
 20
9.802298
 42
-0.02872
 10
34.013515
 20
9.778736
 42
-0.029737
 10
34.11572
 20
9.744945
 42
-0.069116
 10
34.185731
 20
9.705159
 42
-0.039123
 10
34.244236
 20
9.652487
 42
-0.019967
 10
34.309443
 20
9.578092
 42
-0.019711
 10
34.370901
 20
9.495603
 42
-0.027888
 10
34.418381
 20
9.417312
 42
-0.039968
 10
34.456116
 20
9.330373
 42
-0.023279
 10
34.487889
 20
9.221131
 42
-0.023169
 10
34.509663
 20
9.108023
 42
-0.035976
 10
34.5168
 20
9.008954
 42
-0.077365
 10
34.50002
 20
8.901155
 42
-0.043716
 10
34.448862
 20
8.778867
 42
-0.039891
 10
34.370004
 20
8.654015
 42
-0.035595
 10
34.269508
 20
8.538092
 42
-0.03272
 10
34.161604
 20
8.443457
 42
-0.032469
 10
34.042009
 20
8.363442
 42
-0.034262
 10
33.928459
 20
8.307715
 42
-0.09724
 10
33.842306
 20
8.2908
 42
-0.049877
 10
33.75659
 20
8.299372
 42
-0.02173
 10
33.645427
 20
8.326905
 42
-0.021246
 10
33.528904
 20
8.366652
 42
-0.026513
 10
33.424715
 20
8.41371
 42
-0.052932
 10
33.326284
 20
8.478624
 42
-0.034285
 10
33.227068
 20
8.572421
 42
-0.034322
 10
33.141781
 20
8.678687
 42
-0.053801
 10
33.08564
 20
8.781404
 42
-0.043948
 10
33.05095
 20
8.891646
 42
-0.030586
 10
33.030682
 20
9.020624
 42
-0.030965
 10
33.026509
 20
9.147808
 42
-0.054253
 10
33.040931
 20
9.252032
 42
-0.056927
 10
33.078031
 20
9.350706
 42
-0.031987
 10
33.14365
 20
9.460844
 42
-0.031508
 10
33.225152
 20
9.564938
 42
-0.044283
 10
33.311016
 20
9.645738
 42
-0.050404
 10
33.411959
 20
9.709842
 42
-0.032933
 10
33.539146
 20
9.7635
 42
-0.033036
 10
33.671486
 20
9.799747
 42
-0.052925
  0
LWPOLYLINE
  5
4AA
330
1D
100
AcDbEntity
  8
0
100
AcDbPolyline
 90
       20
 70
     1
 43
0.0
 10
22.681345
 20
9.415895
 42
-0.129132
 10
22.713465
 20
9.360893
 42
-0.03173
 10
22.735303
 20
9.257562
 42
-0.030379
 10
22.745884
 20
9.132042
 42
-0.026294
 10
22.742022
 20
8.999898
 42
-0.02412
 10
22.725567
 20
8.874067
 42
-0.037296
 10
22.698157
 20
8.767967
 42
-0.042428
 10
22.664943
 20
8.692002
 42
-0.275094
 10
22.6305
 20
8.6715
 42
-0.253634
 10
22.59607
 20
8.690166
 42
-0.050357
 10
22.562787
 20
8.754632
 42
-0.042182
 10
22.535331
 20
8.84609
 42
-0.027963
 10
22.518789
 20
8.954504
 42
-0.019736
 10
22.512164
 20
9.072609
 42
-0.018507
 10
22.514634
 20
9.193442
 42
-0.018846
 10
22.524838
 20
9.300385
 42
-0.058463
 10
22.542713
 20
9.3705
 42
-0.05189
 10
22.570764
 20
9.425711
 42
-0.171804
 10
22.602575
 20
9.450233
 42
-0.203335
 10
22.639001
 20
9.447138
 42
-0.075001
  0
LWPOLYLINE
  5
4C0
330
1D
100
AcDbEntity
  8
0
100
AcDbPolyline
 90
       36
 70
     1
 43
0.0
 10
23.306279
 20
9.44734
 42
-0.143182
 10
23.338931
 20
9.424705
 42
-0.063502
 10
23.36674
 20
9.379686
 42
-0.055412
 10
23.385934
 20
9.320941
 42
-0.048702
 10
23.392877
 20
9.25677
 42
-0.036972
 10
23.388471
 20
9.18744
 42
-0.02878
 10
23.373836
 20
9.113315
 42
-0.029528
 10
23.351999
 20
9.045497
 42
-0.060358
 10
23.325678
 20
8.996282
 42
0.086817
 10
23.306021
 20
8.954364
 42
0.100877
 10
23.303199
 20
8.910483
 42
0.107961
 10
23.317601
 20
8.871265
 42
0.113024
 10
23.346872
 20
8.842386
 42
-0.092419
 10
23.3773
 20
8.81472
 42
-0.096141
 10
23.395198
 20
8.778311
 42
-0.099338
 10
23.397853
 20
8.738858
 42
-0.106077
 10
23.384881
 20
8.702443
 42
-0.205877
 10
23.351894
 20
8.679332
 42
-0.121708
 10
23.303056
 20
8.681147
 42
-0.077122
 10
23.241313
 20
8.709713
 42
-0.037092
 10
23.1723
 20
8.763431
 42
-0.033888
 10
23.098273
 20
8.840159
 42
-0.113249
 10
23.066537
 20
8.901991
 42
-0.154285
 10
23.069879
 20
8.960053
 42
-0.082453
 10
23.106458
 20
9.022742
 42
0.022799
 10
23.148662
 20
9.07859
 42
0.153808
 10
23.158667
 20
9.111362
 42
0.319152
 10
23.144954
 20
9.130299
 42
0.081721
 10
23.105442
 20
9.1368
 42
-0.159971
 10
23.070138
 20
9.148392
 42
-0.254278
 10
23.056968
 20
9.176491
 42
-0.103189
 10
23.070621
 20
9.226727
 42
-0.021811
 10
23.115571
 20
9.306221
 42
-0.041037
 10
23.16232
 20
9.368974
 42
-0.052909
 10
23.215236
 20
9.417561
 42
-0.063264
 10
23.266146
 20
9.446084
 42
-0.178378
  0
LWPOLYLINE
  5
4E6
330
1D
100
AcDbEntity
  8
0
100
AcDbPolyline
 90
       28
 70
     1
 43
0.0
 10
24.04755
 20
9.433508
 42
-0.029644
 10
24.1972
 20
9.421261
 42
-0.13148
 10
24.277724
 20
9.386989
 42
-0.153667
 10
24.323539
 20
9.320307
 42
-0.045311
 10
24.349269
 20
9.197476
 42
-0.031899
 10
24.355828
 20
9.071827
 42
-0.171654
 10
24.332608
 20
9.008535
 42
-0.18416
 10
24.275871
 20
8.976429
 42
-0.037694
 10
24.158919
 20
8.9676
 42
0.044884
 10
24.067538
 20
8.95938
 42
0.0876
 10
23.999137
 20
8.934088
 42
0.119945
 10
23.957118
 20
8.893533
 42
0.142037
 10
23.9418
 20
8.8407
 42
-0.085149
 10
23.933487
 20
8.792241
 42
-0.093554
 10
23.909571
 20
8.751077
 42
-0.100399
 10
23.873935
 20
8.723547
 42
-0.114911
 10
23.832083
 20
8.7138
 42
-0.23106
 10
23.784613
 20
8.736974
 42
-0.102559
 10
23.753004
 20
8.801081
 42
-0.056354
 10
23.73745
 20
8.91058
 42
-0.018591
 10
23.738861
 20
9.07335
 42
-0.002201
 10
23.745805
 20
9.211449
 42
-0.003612
 10
23.753043
 20
9.328276
 42
-0.000575
 10
23.760289
 20
9.431268
 42
-0.289073
 10
23.763977
 20
9.436282
 42
-0.095795
 10
23.771004
 20
9.437581
 42
-0.00039
 10
23.850834
 20
9.436862
 42
-0.001935
 10
23.941528
 20
9.435624
 42
-0.001216
  0
LWPOLYLINE
  5
504
330
1D
100
AcDbEntity
  8
0
100
AcDbPolyline
 90
       24
 70
     1
 43
0.0
 10
24.869776
 20
9.306
 42
-0.117541
 10
24.896885
 20
9.299538
 42
-0.028039
 10
24.9373
 20
9.276179
 42
-0.027299
 10
24.981895
 20
9.243339
 42
-0.024026
 10
25.02468
 20
9.20448
 42
-0.072559
 10
25.063603
 20
9.152261
 42
-0.03873
 10
25.096378
 20
9.078521
 42
-0.037563
 10
25.118726
 20
8.996415
 42
-0.047698
 10
25.1262
 20
8.918242
 42
-0.074284
 10
25.113222
 20
8.831372
 42
-0.118105
 10
25.075295
 20
8.766894
 42
-0.104581
 10
25.008375
 20
8.721547
 42
-0.049609
 10
24.908032
 20
8.691819
 42
-0.041281
 10
24.810875
 20
8.681446
 42
-0.079802
 10
24.733622
 20
8.691972
 42
-0.105062
 10
24.677687
 20
8.722823
 42
-0.123369
 10
24.642991
 20
8.772264
 42
-0.100102
 10
24.632665
 20
8.833568
 42
-0.039495
 10
24.642239
 20
8.918984
 42
-0.037087
 10
24.667572
 20
9.012441
 42
-0.038155
 10
24.706254
 20
9.100207
 42
-0.0188
 10
24.752332
 20
9.179031
 42
-0.026217
 10
24.79972
 20
9.245548
 42
-0.024854
 10
24.842858
 20
9.29462
 42
-0.202702
  0
LWPOLYLINE
  5
51E
330
1D
100
AcDbEntity
  8
0
100
AcDbPolyline
 90
       44
 70
     1
 43
0.0
 10
23.440243
 20
4.646731
 42
-0.005269
 10
23.919923
 20
4.641334
 42
-0.019945
 10
24.219399
 20
4.622841
 42
-0.025333
 10
24.409463
 20
4.593684
 42
-0.352403
 10
24.450695
 20
4.543756
 42
0.03888
 10
24.454454
 20
4.502286
 42
0.310803
 10
24.467134
 20
4.48923
 42
0.2646
 10
24.48593
 20
4.495459
 42
0.031713
 10
24.514145
 20
4.53107
 42
-0.147633
 10
24.558291
 20
4.566117
 42
-0.032655
 10
24.651234
 20
4.596154
 42
-0.031249
 10
24.767539
 20
4.617896
 42
-0.025694
 10
24.89355
 20
4.626853
 42
-0.022187
 10
25.015144
 20
4.623839
 42
-0.035831
 10
25.117608
 20
4.609318
 42
-0.040797
 10
25.191362
 20
4.58699
 42
-0.308046
 10
25.2108
 20
4.558433
 42
-0.273564
 10
25.193789
 20
4.529669
 42
-0.054221
 10
25.136246
 20
4.505723
 42
-0.043706
 10
25.054246
 20
4.489217
 42
-0.02783
 10
24.957
 20
4.4838
 42
0.026053
 10
24.859746
 20
4.478729
 42
0.041208
 10
24.777754
 20
4.463253
 42
0.049958
 10
24.719797
 20
4.440856
 42
0.282744
 10
24.7032
 20
4.413852
 42
0.314934
 10
24.72029
 20
4.389411
 42
0.055623
 10
24.777754
 20
4.375394
 42
0.042928
 10
24.859711
 20
4.371923
 42
0.025568
 10
24.957
 20
4.381154
 42
-0.028437
 10
25.11328
 20
4.395079
 42
-0.233603
 10
25.176489
 20
4.366322
 42
-0.160364
 10
25.205413
 20
4.291044
 42
-0.012205
 10
25.2108
 20
4.070402
 10
25.2108
 20
3.7224
 10
24.8724
 20
3.7224
 10
24.534
 20
3.7224
 10
24.51922
 20
4.08195
 10
24.50444
 20
4.4415
 10
24.472055
 20
4.08195
 10
24.439671
 20
3.7224
 10
23.435379
 20
3.7224
 10
22.431086
 20
3.7224
 10
22.431086
 20
4.184925
 10
22.431086
 20
4.647451
  0
LWPOLYLINE
  5
54C
330
1D
100
AcDbEntity
  8
0
100
AcDbPolyline
 90
       48
 70
     1
 43
0.0
 10
0.22201
 20
1.3536
 42
0.41416
 10
0.209253
 20
1.340845
 42
0.073943
 10
0.21474
 20
1.303897
 42
0.04398
 10
0.236714
 20
1.24935
 42
0.021851
 10
0.273433
 20
1.1844
 42
0.014818
 10
0.317049
 20
1.118959
 42
0.019681
 10
0.360721
 20
1.062324
 42
0.017336
 10
0.399777
 20
1.018761
 42
0.152231
 10
0.4222
 20
1.006421
 42
0.036543
 10
0.453757
 20
1.002363
 42
0.000933
 10
0.597094
 20
0.994763
 42
0.001984
 10
0.765504
 20
0.986819
 42
0.001352
 10
0.957059
 20
0.979064
 42
0.002458
 10
1.284713
 20
0.968298
 42
0.104828
 10
1.352987
 20
0.98079
 42
0.589681
 10
1.356375
 20
1.01003
 42
0.018794
 10
1.232009
 20
1.092038
 42
-0.02359
 10
1.148995
 20
1.147928
 42
-0.030593
 10
1.078888
 20
1.207084
 42
-0.031477
 10
1.028441
 20
1.261692
 42
-0.172397
 10
1.0152
 20
1.298954
 42
0.313112
 10
1.002677
 20
1.316991
 42
0.161119
 10
0.973882
 20
1.318072
 42
0.071774
 10
0.928592
 20
1.297561
 42
0.030389
 10
0.874542
 20
1.258209
 42
-0.024158
 10
0.801577
 20
1.203682
 42
-0.134492
 10
0.755701
 20
1.188168
 42
-0.241964
 10
0.72318
 20
1.202539
 42
-0.089044
 10
0.698292
 20
1.24785
 42
0.069262
 10
0.678114
 20
1.288276
 42
0.065445
 10
0.647332
 20
1.322536
 42
0.069972
 10
0.611058
 20
1.345705
 42
0.107585
 10
0.574791
 20
1.3536
 42
0.199466
 10
0.548916
 20
1.34285
 42
0.236878
 10
0.540728
 20
1.317981
 42
0.103845
 10
0.555762
 20
1.277304
 42
0.032944
 10
0.593897
 20
1.224656
 42
-0.043041
 10
0.630897
 20
1.171341
 42
-0.059427
 10
0.653666
 20
1.117779
 42
-0.074891
 10
0.659829
 20
1.07197
 42
-0.194817
 10
0.647092
 20
1.041892
 42
-0.276856
 10
0.615358
 20
1.033951
 42
-0.062781
 10
0.56252
 20
1.057569
 42
-0.047898
 10
0.499405
 20
1.104707
 42
-0.029794
 10
0.434763
 20
1.170837
 42
0.015706
 10
0.370096
 20
1.240831
 42
0.020956
 10
0.306882
 20
1.299913
 42
0.018749
 10
0.251665
 20
1.343859
 42
0.160028
  0
LWPOLYLINE
  5
57E
330
1D
100
AcDbEntity
  8
0
100
AcDbPolyline
 90
       16
 70
     1
 43
0.0
 10
0.920614
 20
1.1844
 42
-0.085235
 10
0.956842
 20
1.178179
 42
-0.053414
 10
0.995722
 20
1.159549
 42
-0.051777
 10
1.031227
 20
1.132162
 42
-0.064269
 10
1.0575
 20
1.0998
 42
-0.076764
 10
1.07119
 20
1.06745
 42
-0.154201
 10
1.069576
 20
1.040051
 42
-0.186277
 10
1.05323
 20
1.021904
 42
-0.117858
 10
1.025186
 20
1.0152
 42
-0.085235
 10
0.988958
 20
1.021421
 42
-0.053414
 10
0.950078
 20
1.040051
 42
-0.051777
 10
0.914573
 20
1.067438
 42
-0.064269
 10
0.8883
 20
1.0998
 42
-0.076764
 10
0.87461
 20
1.13215
 42
-0.154201
 10
0.876224
 20
1.159549
 42
-0.186277
 10
0.89257
 20
1.177696
 42
-0.117858
  0
LWPOLYLINE
  5
590
330
1D
100
AcDbEntity
  8
0
100
AcDbPolyline
 90
       14
 70
     1
 43
0.0
 10
1.490653
 20
1.179636
 10
1.2267
 20
1.386373
 10
1.4382
 20
1.137336
 42
-0.002186
 10
1.520161
 20
1.03997
 42
-0.00321
 10
1.591296
 20
0.953588
 42
-0.001531
 10
1.651079
 20
0.879574
 42
-0.058611
 10
1.662379
 20
0.861521
 42
0.336554
 10
1.670556
 20
0.857272
 42
0.127857
 10
1.683017
 20
0.862901
 42
0.063379
 10
1.698665
 20
0.879182
 42
0.029144
 10
1.714832
 20
0.903821
 42
0.27127
 10
1.714544
 20
0.942977
 42
0.036351
 10
1.665387
 20
1.013337
 42
0.033848
 10
1.588904
 20
1.09541
 42
0.022137
  0
LWPOLYLINE
  5
5A0
330
1D
100
AcDbEntity
  8
0
100
AcDbPolyline
 90
       64
 70
     1
 43
0.0
 10
2.880527
 20
1.262322
 42
0.054342
 10
2.848372
 20
1.303569
 42
0.154386
 10
2.816645
 20
1.320644
 42
0.203454
 10
2.786687
 20
1.314132
 42
0.100771
 10
2.759548
 20
1.285258
 42
0.114805
 10
2.747461
 20
1.249381
 42
0.12525
 10
2.753052
 20
1.213087
 42
0.116596
 10
2.775933
 20
1.18198
 42
0.090632
 10
2.812423
 20
1.160908
 42
-0.076112
 10
2.848448
 20
1.141468
 42
-0.129789
 10
2.869443
 20
1.114741
 42
-0.159268
 10
2.872171
 20
1.085126
 42
-0.132213
 10
2.857294
 20
1.057027
 42
-0.164888
 10
2.824683
 20
1.039459
 42
-0.088526
 10
2.778466
 20
1.039888
 42
-0.071791
 10
2.725903
 20
1.057846
 42
-0.055098
 10
2.675171
 20
1.091275
 42
0.028716
 10
2.612997
 20
1.137116
 42
0.150301
 10
2.572614
 20
1.148707
 42
0.235509
 10
2.54317
 20
1.133325
 42
0.076404
 10
2.520084
 20
1.088353
 42
-0.110755
 10
2.498241
 20
1.052107
 42
-0.142954
 10
2.464752
 20
1.032761
 42
-0.124868
 10
2.422472
 20
1.033125
 42
-0.074268
 10
2.375925
 20
1.053096
 42
-0.038631
 10
2.323305
 20
1.091527
 42
-0.228422
 10
2.309972
 20
1.121902
 42
-0.21228
 10
2.325042
 20
1.152795
 42
-0.033466
 10
2.380918
 20
1.19368
 42
0.021693
 10
2.428578
 20
1.22686
 42
0.185074
 10
2.442015
 20
1.248617
 42
0.398791
 10
2.432836
 20
1.262885
 42
0.056893
 10
2.394943
 20
1.267705
 42
0.081272
 10
2.352096
 20
1.261258
 42
0.054284
 10
2.306707
 20
1.24099
 42
0.053289
 10
2.265761
 20
1.210826
 42
0.069066
 10
2.236054
 20
1.174941
 42
0.123628
 10
2.222845
 20
1.133357
 42
0.099285
 10
2.229247
 20
1.086701
 42
0.08944
 10
2.254358
 20
1.04209
 42
0.078312
 10
2.294511
 20
1.00663
 42
0.063817
 10
2.347987
 20
0.981479
 42
0.046587
 10
2.412142
 20
0.967195
 42
0.047176
 10
2.47669
 20
0.96515
 42
0.072753
 10
2.531236
 20
0.976654
 42
-0.072026
 10
2.581066
 20
0.987239
 42
-0.0738
 10
2.631419
 20
0.983109
 42
-0.080524
 10
2.67457
 20
0.965379
 42
-0.117196
 10
2.703583
 20
0.936452
 42
0.273501
 10
2.740776
 20
0.916934
 42
0.08268
 10
2.80562
 20
0.931138
 42
0.054516
 10
2.889965
 20
0.97608
 42
0.027849
 10
2.985297
 20
1.04918
 42
0.01488
 10
3.073197
 20
1.129378
 42
0.020123
 10
3.147383
 20
1.207247
 42
0.017541
 10
3.2029
 20
1.275082
 42
0.164148
 10
3.2148
 20
1.310352
 42
0.354186
 10
3.203117
 20
1.324776
 42
0.137376
 10
3.175629
 20
1.323019
 42
0.062061
 10
3.132689
 20
1.301699
 42
0.026985
 10
3.081452
 20
1.263649
 42
-0.028701
 10
3.008773
 20
1.210061
 42
-0.143817
 10
2.960858
 20
1.195643
 42
-0.196886
 10
2.921317
 20
1.211537
 42
-0.061635
  0
LWPOLYLINE
  5
5E2
330
1D
100
AcDbEntity
  8
0
100
AcDbPolyline
 90
       16
 70
     1
 43
0.0
 10
4.678161
 20
1.3536
 42
0.106141
 10
4.636505
 20
1.344656
 42
0.039716
 10
4.583839
 20
1.315723
 42
0.037133
 10
4.529627
 20
1.273996
 42
0.036979
 10
4.482103
 20
1.224656
 42
0.024953
 10
4.443504
 20
1.173118
 42
0.039172
 10
4.416278
 20
1.12497
 42
0.046081
 10
4.402291
 20
1.085952
 42
0.281942
 10
4.408294
 20
1.06637
 42
0.306781
 10
4.430144
 20
1.06355
 42
0.028705
 10
4.479584
 20
1.092144
 42
0.029071
 10
4.539535
 20
1.13677
 42
0.018294
 10
4.604352
 20
1.195314
 42
0.025813
 10
4.660837
 20
1.25619
 42
0.065107
 10
4.69321
 20
1.307104
 42
0.167633
 10
4.696543
 20
1.338995
 42
0.348897
  0
LWPOLYLINE
  5
5F4
330
1D
100
AcDbEntity
  8
0
100
AcDbPolyline
 90
       16
 70
     1
 43
0.0
 10
6.885849
 20
1.3536
 42
0.219607
 10
6.873125
 20
1.347728
 42
0.077771
 10
6.862367
 20
1.330215
 42
0.059132
 10
6.855034
 20
1.304475
 42
0.039867
 10
6.8526
 20
1.273993
 42
0.088797
 10
6.858734
 20
1.239724
 42
0.053277
 10
6.877167
 20
1.202587
 42
0.051183
 10
6.904241
 20
1.168374
 42
0.061454
 10
6.936231
 20
1.142699
 42
0.1144
 10
6.964774
 20
1.133057
 42
0.32948
 10
6.981673
 20
1.143155
 42
0.155351
 10
6.98431
 20
1.173257
 42
0.036408
 10
6.96948
 20
1.222306
 42
0.020646
 10
6.947759
 20
1.272599
 42
0.029555
 10
6.92413
 20
1.315032
 42
0.029412
 10
6.901677
 20
1.34609
 42
0.2252
  0
LWPOLYLINE
  5
606
330
1D
100
AcDbEntity
  8
0
100
AcDbPolyline
 90
       16
 70
     1
 43
0.0
 10
13.081059
 20
1.3536
 42
0.184603
 10
13.063098
 20
1.346735
 42
0.013803
 10
13.024393
 20
1.31011
 42
0.017649
 10
12.979813
 20
1.262266
 42
0.012436
 10
12.933009
 20
1.20555
 42
0.001576
 10
12.858554
 20
1.109994
 42
0.377591
 10
12.8592
 20
1.0998
 42
0.377591
 10
12.869394
 20
1.099154
 42
0.001576
 10
12.96495
 20
1.173609
 42
0.012436
 10
13.021666
 20
1.220413
 42
0.017649
 10
13.06951
 20
1.264993
 42
0.013803
 10
13.106135
 20
1.303698
 42
0.184603
 10
13.113
 20
1.321659
 42
0.099038
 10
13.110562
 20
1.333849
 42
0.097945
 10
13.103617
 20
1.344217
 42
0.097945
 10
13.093249
 20
1.351162
 42
0.099038
  0
LWPOLYLINE
  5
618
330
1D
100
AcDbEntity
  8
0
100
AcDbPolyline
 90
       12
 70
     1
 43
0.0
 10
36.606803
 20
1.260507
 42
0.001303
 10
36.479442
 20
1.336541
 42
0.342804
 10
36.467423
 20
1.335032
 42
0.406252
 10
36.467273
 20
1.324059
 42
0.001428
 10
36.566336
 20
1.22004
 42
0.025624
 10
36.62523
 20
1.164543
 42
0.040938
 10
36.681361
 20
1.124246
 42
0.049795
 10
36.727682
 20
1.102365
 42
0.289503
 10
36.752838
 20
1.108038
 42
0.342991
 10
36.755742
 20
1.131232
 42
0.056956
 10
36.726633
 20
1.169518
 42
0.042367
 10
36.675408
 20
1.214652
 42
0.024195
  0
LWPOLYLINE
  5
626
330
1D
100
AcDbEntity
  8
0
100
AcDbPolyline
 90
       28
 70
     1
 43
0.0
 10
43.282127
 20
1.222754
 42
0.00247
 10
43.171903
 20
1.336581
 42
0.257052
 10
43.151731
 20
1.342674
 42
0.438287
 10
43.14356
 20
1.328879
 42
0.003991
 10
43.18284
 20
1.201604
 42
-0.035879
 10
43.201196
 20
1.12514
 42
-0.082536
 10
43.201147
 20
1.066152
 42
-0.141727
 10
43.183557
 20
1.029467
 42
-0.213696
 10
43.151701
 20
1.0152
 42
0.104297
 10
43.117245
 20
1.007934
 42
0.099034
 10
43.087926
 20
0.987306
 42
0.096623
 10
43.068277
 20
0.956488
 42
0.094017
 10
43.0614
 20
0.920241
 42
0.088131
 10
43.068231
 20
0.881789
 42
0.318054
 10
43.087601
 20
0.868443
 42
0.148261
 10
43.121167
 20
0.879082
 42
0.022855
 10
43.177577
 20
0.921701
 42
-0.080322
 10
43.233738
 20
0.954789
 42
-0.052808
 10
43.306267
 20
0.974598
 42
-0.051799
 10
43.383183
 20
0.979032
 42
-0.067377
 10
43.452527
 20
0.966379
 42
0.018138
 10
43.511953
 20
0.949371
 42
0.126806
 10
43.541877
 20
0.949664
 42
0.505571
 10
43.546791
 20
0.962238
 42
0.077751
 10
43.525938
 20
0.986069
 42
-0.014156
 10
43.482621
 20
1.024454
 42
-0.004292
 10
43.419107
 20
1.085061
 42
-0.004295
 10
43.349051
 20
1.154247
 42
-0.004667
  0
LWPOLYLINE
  5
644
330
1D
100
AcDbEntity
  8
0
100
AcDbPolyline
 90
       28
 70
     1
 43
0.0
 10
45.171578
 20
1.162658
 42
0.022404
 10
45.058754
 20
1.253016
 42
0.089605
 10
44.979437
 20
1.291501
 42
0.152947
 10
44.915048
 20
1.289534
 42
0.113312
 10
44.854328
 20
1.251488
 42
0.040282
 10
44.815897
 20
1.20631
 42
0.036557
 10
44.783803
 20
1.154114
 42
0.038522
 10
44.762103
 20
1.102958
 42
0.088515
 10
44.755973
 20
1.06173
 42
0.247559
 10
44.765919
 20
1.044126
 42
0.307129
 10
44.784295
 20
1.044583
 42
0.082126
 10
44.813781
 20
1.074028
 42
0.023901
 10
44.848776
 20
1.128097
 42
-0.028481
 10
44.908127
 20
1.217982
 42
-0.258855
 10
44.949435
 20
1.236612
 42
-0.173778
 10
44.997964
 20
1.21453
 42
-0.012408
 10
45.103299
 20
1.106947
 42
0.026451
 10
45.173203
 20
1.03945
 42
0.029625
 10
45.247355
 20
0.982402
 42
0.030895
 10
45.315477
 20
0.942052
 42
0.1188
 10
45.362996
 20
0.9306
 42
0.020389
 10
45.397445
 20
0.932005
 42
0.064226
 10
45.42002
 20
0.936813
 42
0.253982
 10
45.426433
 20
0.943903
 42
0.328115
 10
45.42315
 20
0.95175
 42
-0.03722
 10
45.400514
 20
0.967734
 42
-0.002117
 10
45.33471
 20
1.022429
 42
-0.00323
 10
45.257008
 20
1.08843
 42
-0.002364
  0
LWPOLYLINE
  5
662
330
1D
100
AcDbEntity
  8
0
100
AcDbPolyline
 90
       40
 70
     1
 43
0.0
 10
45.391485
 20
1.266024
 42
0.025949
 10
45.341351
 20
1.303417
 42
0.059107
 10
45.29933
 20
1.324809
 42
0.129273
 10
45.272335
 20
1.327399
 42
0.367681
 10
45.261
 20
1.31407
 42
0.159058
 10
45.271541
 20
1.281772
 42
0.021123
 10
45.316915
 20
1.224873
 42
0.022739
 10
45.378456
 20
1.16024
 42
0.017293
 10
45.45135
 20
1.095025
 42
0.01952
 10
45.530431
 20
1.034126
 42
0.022334
 10
45.610636
 20
0.982429
 42
0.022188
 10
45.681804
 20
0.94506
 42
0.105688
 10
45.7263
 20
0.93471
 42
0.175591
 10
45.746274
 20
0.941545
 42
0.356572
 10
45.749492
 20
0.956757
 42
0.105941
 10
45.729104
 20
0.981575
 42
0.027031
 10
45.68645
 20
1.011896
 42
-0.054226
 10
45.643153
 20
1.046358
 42
-0.086745
 10
45.615875
 20
1.084799
 42
-0.120964
 10
45.608439
 20
1.120869
 42
-0.189199
 10
45.620956
 20
1.149556
 42
-0.181773
 10
45.6531
 20
1.164134
 42
-0.079305
 10
45.70047
 20
1.159757
 42
-0.063445
 10
45.755162
 20
1.138095
 42
-0.047256
 10
45.808856
 20
1.101497
 42
0.025576
 10
45.858397
 20
1.064489
 42
0.058053
 10
45.899923
 20
1.043161
 42
0.126312
 10
45.926639
 20
1.040287
 42
0.372611
 10
45.9378
 20
1.053184
 42
0.119592
 10
45.930521
 20
1.083181
 42
0.027322
 10
45.903896
 20
1.128546
 42
0.026752
 10
45.866562
 20
1.178809
 42
0.023266
 10
45.822381
 20
1.227304
 42
0.046601
 10
45.763345
 20
1.276254
 42
0.122944
 10
45.712204
 20
1.295181
 42
0.146968
 10
45.663987
 20
1.286306
 42
0.078035
 10
45.614467
 20
1.250227
 42
-0.080024
 10
45.564068
 20
1.213812
 42
-0.134989
 10
45.513284
 20
1.203643
 42
-0.111528
 10
45.457556
 20
1.220447
 42
-0.04446
  0
LWPOLYLINE
  5
68C
330
1D
100
AcDbEntity
  8
0
100
AcDbPolyline
 90
       16
 70
     1
 43
0.0
 10
46.4454
 20
1.3536
 42
0.105053
 10
46.41312
 20
1.346742
 42
0.099167
 10
46.385651
 20
1.327282
 42
0.09642
 10
46.36724
 20
1.298207
 42
0.093332
 10
46.3608
 20
1.264007
 42
0.108972
 10
46.367423
 20
1.233979
 42
0.182303
 10
46.385651
 20
1.216091
 42
0.161196
 10
46.413074
 20
1.213459
 42
0.082592
 10
46.4454
 20
1.2267
 42
0.029505
 10
46.477783
 20
1.249457
 42
0.035638
 10
46.505149
 20
1.274586
 42
0.038439
 10
46.524455
 20
1.298465
 42
0.151918
 10
46.53
 20
1.316293
 42
0.210953
 10
46.523701
 20
1.330559
 42
0.081139
 10
46.505149
 20
1.342641
 42
0.061769
 10
46.477789
 20
1.350864
 42
0.042167
  0
LWPOLYLINE
  5
69E
330
1D
100
AcDbEntity
  8
0
100
AcDbPolyline
 90
       24
 70
     1
 43
0.0
 10
46.857609
 20
1.350909
 42
0.112645
 10
46.838575
 20
1.344822
 42
0.00875
 10
46.792731
 20
1.316628
 42
0.011602
 10
46.73887
 20
1.280403
 42
0.008597
 10
46.680994
 20
1.237986
 42
0.037639
 10
46.614556
 20
1.179136
 42
0.138729
 10
46.588171
 20
1.130253
 42
0.180082
 10
46.594747
 20
1.082584
 42
0.07312
 10
46.634464
 20
1.029176
 42
0.040532
 10
46.678741
 20
0.99155
 42
0.036154
 10
46.730177
 20
0.959937
 42
0.037983
 10
46.7808
 20
0.938362
 42
0.08559
 10
46.82187
 20
0.931895
 42
0.152895
 10
46.844354
 20
0.939297
 42
0.349482
 10
46.848927
 20
0.955387
 42
0.122481
 10
46.830431
 20
0.980268
 42
0.030913
 10
46.78924
 20
1.010048
 42
-0.050531
 10
46.730689
 20
1.055974
 42
-0.190605
 10
46.711703
 20
1.097593
 42
-0.156052
 10
46.724617
 20
1.146471
 42
-0.03121
 10
46.778449
 20
1.220252
 42
0.012233
 10
46.818719
 20
1.271264
 42
0.024774
 10
46.847353
 20
1.313639
 42
0.033413
 10
46.862864
 20
1.343586
 42
0.568286
  0
LWPOLYLINE
  5
6B8
330
1D
100
AcDbEntity
  8
0
100
AcDbPolyline
 90
       32
 70
     1
 43
0.0
 10
47.195256
 20
1.308744
 42
0.236931
 10
47.168408
 20
1.317645
 42
0.083863
 10
47.128755
 20
1.304833
 42
0.060885
 10
47.082808
 20
1.273301
 42
0.038768
 10
47.0376
 20
1.2267
 42
0.04076
 10
46.999792
 20
1.172749
 42
0.05711
 10
46.976051
 20
1.118961
 42
0.072092
 10
46.968787
 20
1.073268
 42
0.202477
 10
46.980728
 20
1.043872
 42
0.128261
 10
47.017508
 20
1.022309
 42
0.016387
 10
47.107222
 20
1.000129
 42
0.018304
 10
47.217587
 20
0.980843
 42
0.014304
 10
47.338549
 20
0.967754
 42
0.00518
 10
47.523033
 20
0.955038
 42
0.148737
 10
47.568781
 20
0.966081
 42
0.511021
 10
47.571163
 20
0.991408
 42
0.022094
 10
47.489651
 20
1.056727
 42
0.036339
 10
47.418138
 20
1.101435
 42
0.092046
 10
47.359851
 20
1.119625
 42
0.141102
 10
47.314316
 20
1.112211
 42
0.144862
 10
47.280244
 20
1.08175
 42
-0.116099
 10
47.251525
 20
1.052992
 42
-0.100488
 10
47.211452
 20
1.038155
 42
-0.093186
 10
47.166125
 20
1.039586
 42
-0.084247
 10
47.122626
 20
1.057236
 42
-0.048443
 10
47.07674
 20
1.092147
 42
-0.227009
 10
47.064855
 20
1.122152
 42
-0.201439
 10
47.080287
 20
1.152768
 42
-0.03822
 10
47.131868
 20
1.190375
 42
0.049805
 10
47.171296
 20
1.220542
 42
0.081812
 10
47.196825
 20
1.253784
 42
0.117745
 10
47.204933
 20
1.284605
 42
0.204851
  0
LWPOLYLINE
  5
6DA
330
1D
100
AcDbEntity
  8
0
100
AcDbPolyline
 90
       16
 70
     1
 43
0.0
 10
47.578449
 20
1.3536
 42
0.219607
 10
47.565725
 20
1.347728
 42
0.077771
 10
47.554967
 20
1.330215
 42
0.059132
 10
47.547634
 20
1.304475
 42
0.039867
 10
47.5452
 20
1.273993
 42
0.088797
 10
47.551334
 20
1.239724
 42
0.053277
 10
47.569767
 20
1.202587
 42
0.051183
 10
47.596841
 20
1.168374
 42
0.061454
 10
47.628831
 20
1.142699
 42
0.1144
 10
47.657374
 20
1.133057
 42
0.32948
 10
47.674273
 20
1.143155
 42
0.155351
 10
47.67691
 20
1.173257
 42
0.036408
 10
47.66208
 20
1.222306
 42
0.020646
 10
47.640359
 20
1.272599
 42
0.029555
 10
47.61673
 20
1.315032
 42
0.029412
 10
47.594277
 20
1.34609
 42
0.2252
  0
LWPOLYLINE
  5
6EC
330
1D
100
AcDbEntity
  8
0
100
AcDbPolyline
 90
       16
 70
     1
 43
0.0
 10
7.947407
 20
1.269
 42
0.039867
 10
7.916925
 20
1.266566
 42
0.059132
 10
7.891185
 20
1.259233
 42
0.077771
 10
7.873672
 20
1.248475
 42
0.219607
 10
7.8678
 20
1.235751
 42
0.2252
 10
7.87531
 20
1.219923
 42
0.029412
 10
7.906368
 20
1.19747
 42
0.029555
 10
7.948801
 20
1.173841
 42
0.020646
 10
7.999094
 20
1.15212
 42
0.036408
 10
8.048143
 20
1.13729
 42
0.155351
 10
8.078245
 20
1.139927
 42
0.32948
 10
8.088343
 20
1.156826
 42
0.1144
 10
8.078701
 20
1.185369
 42
0.061454
 10
8.053026
 20
1.217359
 42
0.051183
 10
8.018813
 20
1.244433
 42
0.053277
 10
7.981676
 20
1.262866
 42
0.088797
  0
LWPOLYLINE
  5
6FE
330
1D
100
AcDbEntity
  8
0
100
AcDbPolyline
 90
       16
 70
     1
 43
0.0
 10
0.128944
 20
1.098103
 42
0.030483
 10
0.074443
 20
1.13799
 42
0.110288
 10
0.034321
 20
1.152687
 42
0.256649
 10
0.010239
 20
1.143319
 42
0.176123
 10
0.0
 20
1.115152
 42
0.085443
 10
0.006634
 20
1.076615
 42
0.053409
 10
0.026505
 20
1.035232
 42
0.051744
 10
0.055714
 20
0.997423
 42
0.0641
 10
0.090229
 20
0.969421
 42
0.04739
 10
0.127614
 20
0.950952
 42
0.058241
 10
0.165325
 20
0.941411
 42
0.069134
 10
0.19775
 20
0.941624
 42
0.161573
 10
0.219173
 20
0.952373
 42
0.274667
 10
0.224888
 20
0.974823
 42
0.066988
 10
0.208639
 20
1.011152
 42
0.05004
 10
0.175546
 20
1.054289
 42
0.030935
  0
LWPOLYLINE
  5
710
330
1D
100
AcDbEntity
  8
0
100
AcDbPolyline
 90
       16
 70
     1
 43
0.0
 10
3.365353
 20
1.146647
 42
0.312473
 10
3.340771
 20
1.151112
 42
0.042906
 10
3.292839
 20
1.124188
 42
0.036839
 10
3.234643
 20
1.077968
 42
0.0226
 10
3.172969
 20
1.015719
 42
0.018783
 10
3.118277
 20
0.950522
 42
0.040791
 10
3.082546
 20
0.895855
 42
0.078427
 10
3.069641
 20
0.859468
 42
0.469284
 10
3.080831
 20
0.846
 42
0.124465
 10
3.112713
 20
0.854061
 42
0.025567
 10
3.162694
 20
0.88446
 42
0.02544
 10
3.21858
 20
0.926807
 42
0.021529
 10
3.273214
 20
0.976929
 42
0.028042
 10
3.320565
 20
1.02991
 42
0.044001
 10
3.354288
 20
1.080791
 42
0.05472
 10
3.371501
 20
1.122901
 42
0.272484
  0
LWPOLYLINE
  5
722
330
1D
100
AcDbEntity
  8
0
100
AcDbPolyline
 90
       16
 70
     1
 43
0.0
 10
4.9068
 20
1.072955
 42
0.048875
 10
4.841128
 20
1.112526
 42
0.1228
 10
4.786737
 20
1.123566
 42
0.133706
 10
4.736474
 20
1.107467
 42
0.062966
 10
4.683986
 20
1.063116
 42
0.080514
 10
4.650632
 20
1.012514
 42
0.359116
 10
4.659355
 20
0.980678
 42
0.13821
 10
4.710248
 20
0.962726
 42
0.016113
 10
4.832036
 20
0.9588
 42
0.003787
 10
4.924176
 20
0.959498
 42
0.007245
 10
4.998123
 20
0.96169
 42
0.005048
 10
5.054116
 20
0.964729
 42
0.776845
 10
5.05485
 20
0.968639
 42
-0.0421
 10
5.04129
 20
0.976395
 42
-0.00252
 10
5.002636
 20
1.00334
 42
-0.003769
 10
4.956949
 20
1.036049
 42
-0.002772
  0
LWPOLYLINE
  5
734
330
1D
100
AcDbEntity
  8
0
100
AcDbPolyline
 90
       16
 70
     1
 43
0.0
 10
6.255407
 20
1.1844
 42
0.108972
 10
6.225379
 20
1.177777
 42
0.182303
 10
6.207491
 20
1.159549
 42
0.161196
 10
6.204859
 20
1.132126
 42
0.082592
 10
6.2181
 20
1.0998
 42
0.029505
 10
6.240857
 20
1.067417
 42
0.035638
 10
6.265986
 20
1.040051
 42
0.038439
 10
6.289865
 20
1.020745
 42
0.151918
 10
6.307693
 20
1.0152
 42
0.210953
 10
6.321959
 20
1.021499
 42
0.081139
 10
6.334041
 20
1.040051
 42
0.061769
 10
6.342264
 20
1.067411
 42
0.042167
 10
6.345
 20
1.0998
 42
0.105053
 10
6.338142
 20
1.13208
 42
0.099167
 10
6.318682
 20
1.159549
 42
0.09642
 10
6.289607
 20
1.17796
 42
0.093332
  0
LWPOLYLINE
  5
746
330
1D
100
AcDbEntity
  8
0
100
AcDbPolyline
 90
       16
 70
     1
 43
0.0
 10
12.508121
 20
1.139196
 42
0.297152
 10
12.489747
 20
1.142578
 42
0.045304
 10
12.455157
 20
1.124298
 42
0.03842
 10
12.413364
 20
1.092294
 42
0.023968
 10
12.369415
 20
1.048967
 42
0.036357
 10
12.333213
 20
1.003454
 42
0.09576
 10
12.316737
 20
0.96537
 42
0.218285
 10
12.321933
 20
0.941286
 42
0.236389
 10
12.343272
 20
0.9306
 42
0.09137
 10
12.379113
 20
0.937205
 42
0.053114
 10
12.418231
 20
0.957105
 42
0.050715
 10
12.454496
 20
0.986315
 42
0.059523
 10
12.481979
 20
1.020829
 42
0.035542
 10
12.501154
 20
1.057436
 42
0.048561
 10
12.512661
 20
1.092818
 42
0.058346
 10
12.515623
 20
1.122097
 42
0.201491
  0
LWPOLYLINE
  5
758
330
1D
100
AcDbEntity
  8
0
100
AcDbPolyline
 90
       16
 70
     1
 43
0.0
 10
37.769584
 20
1.1844
 42
0.367029
 10
37.756584
 20
1.173372
 42
0.129665
 10
37.759063
 20
1.147123
 42
0.059248
 10
37.779842
 20
1.106257
 42
0.025998
 10
37.8162
 20
1.0575
 42
0.034033
 10
37.862426
 20
1.008939
 42
0.035584
 10
37.914164
 20
0.967877
 42
0.038054
 10
37.963706
 20
0.939271
 42
0.112363
 10
38.001802
 20
0.9306
 42
0.292116
 10
38.020179
 20
0.942338
 42
0.19907
 10
38.021225
 20
0.967877
 42
0.078501
 10
37.998465
 20
1.008688
 42
0.030007
 10
37.955186
 20
1.0575
 42
0.021226
 10
37.902296
 20
1.10608
 42
0.025202
 10
37.848319
 20
1.147123
 42
0.025246
 10
37.800121
 20
1.176623
 42
0.125339
  0
LWPOLYLINE
  5
76A
330
1D
100
AcDbEntity
  8
0
100
AcDbPolyline
 90
       20
 70
     1
 43
0.0
 10
38.605198
 20
1.100607
 42
0.000859
 10
38.501956
 20
1.178396
 42
0.419525
 10
38.494547
 20
1.177273
 42
0.353694
 10
38.494996
 20
1.16896
 42
0.000804
 10
38.58373
 20
1.070908
 42
0.059319
 10
38.647225
 20
1.015763
 42
0.068201
 10
38.719093
 20
0.980117
 42
0.074775
 10
38.791878
 20
0.967249
 42
0.098345
 10
38.858194
 20
0.978656
 42
0.064115
 10
38.908387
 20
1.005717
 42
0.09495
 10
38.942693
 20
1.041887
 42
0.122122
 10
38.95599
 20
1.081148
 42
0.160638
 10
38.947239
 20
1.117697
 42
0.109317
 10
38.920782
 20
1.144908
 42
0.19848
 10
38.890797
 20
1.150669
 42
0.148585
 10
38.858906
 20
1.133368
 42
0.056346
 10
38.827273
 20
1.093122
 42
-0.073007
 10
38.785572
 20
1.043546
 42
-0.192164
 10
38.742671
 20
1.028079
 42
-0.128059
 10
38.688601
 20
1.044122
 42
-0.026077
  0
LWPOLYLINE
  5
780
330
1D
100
AcDbEntity
  8
0
100
AcDbPolyline
 90
       12
 70
     1
 43
0.0
 10
40.836803
 20
1.091307
 42
0.001303
 10
40.709442
 20
1.167341
 42
0.342804
 10
40.697423
 20
1.165832
 42
0.406252
 10
40.697273
 20
1.154859
 42
0.001428
 10
40.796336
 20
1.05084
 42
0.025624
 10
40.85523
 20
0.995343
 42
0.040938
 10
40.911361
 20
0.955046
 42
0.049795
 10
40.957682
 20
0.933165
 42
0.289503
 10
40.982838
 20
0.938838
 42
0.342991
 10
40.985742
 20
0.962032
 42
0.056956
 10
40.956633
 20
1.000318
 42
0.042367
 10
40.905408
 20
1.045452
 42
0.024195
  0
LWPOLYLINE
  5
78E
330
1D
100
AcDbEntity
  8
0
100
AcDbPolyline
 90
       14
 70
     1
 43
0.0
 10
42.95565
 20
1.179372
 42
0.128624
 10
42.942209
 20
1.172216
 42
0.003203
 10
42.89101
 20
1.124376
 42
0.006694
 10
42.831671
 20
1.066688
 42
0.004486
 10
42.7653
 20
0.999213
 10
42.5961
 20
0.824082
 10
42.78645
 20
0.922618
 42
0.031395
 10
42.859311
 20
0.966337
 42
0.038691
 10
42.920885
 20
1.016185
 42
0.042623
 10
42.964145
 20
1.06475
 42
0.162023
 10
42.9768
 20
1.102777
 42
0.024568
 10
42.975279
 20
1.133712
 42
0.042816
 10
42.970587
 20
1.158946
 42
0.057548
 10
42.963792
 20
1.175746
 42
0.338298
  0
LWPOLYLINE
  5
79E
330
1D
100
AcDbEntity
  8
0
100
AcDbPolyline
 90
       16
 70
     1
 43
0.0
 10
44.445182
 20
1.122645
 42
0.162263
 10
44.409406
 20
1.130789
 42
0.072431
 10
44.361948
 20
1.119049
 42
0.060595
 10
44.310714
 20
1.090514
 42
0.048917
 10
44.263615
 20
1.04862
 42
0.028423
 10
44.226291
 20
1.003329
 42
0.071307
 10
44.206191
 20
0.965649
 42
0.176471
 10
44.20623
 20
0.942219
 42
0.3201
 10
44.221315
 20
0.931895
 42
0.069759
 10
44.254712
 20
0.93724
 42
0.02229
 10
44.302199
 20
0.954175
 42
0.021757
 10
44.354035
 20
0.977987
 42
0.022665
 10
44.402882
 20
1.00592
 42
0.055855
 10
44.441581
 20
1.036983
 42
0.10922
 10
44.462655
 20
1.070209
 42
0.166991
 10
44.463153
 20
1.099949
 42
0.179665
  0
LWPOLYLINE
  5
7B0
330
1D
100
AcDbEntity
  8
0
100
AcDbPolyline
 90
       16
 70
     1
 43
0.0
 10
15.0588
 20
39.762
 42
0.01583
 10
14.845521
 20
39.755246
 42
0.165362
 10
14.765721
 20
39.722344
 42
0.192545
 10
14.728787
 20
39.649908
 42
0.022778
 10
14.7204
 20
39.4659
 42
0.022778
 10
14.728787
 20
39.281892
 42
0.192545
 10
14.765721
 20
39.209456
 42
0.165362
 10
14.845521
 20
39.176554
 42
0.01583
 10
15.0588
 20
39.1698
 42
0.01583
 10
15.272079
 20
39.176554
 42
0.165362
 10
15.351879
 20
39.209456
 42
0.192545
 10
15.388813
 20
39.281892
 42
0.022778
 10
15.3972
 20
39.4659
 42
0.022778
 10
15.388813
 20
39.649908
 42
0.192545
 10
15.351879
 20
39.722344
 42
0.165362
 10
15.272079
 20
39.755246
 42
0.01583
  0
LWPOLYLINE
  5
7C2
330
1D
100
AcDbEntity
  8
0
100
AcDbPolyline
 90
       16
 70
     1
 43
0.0
 10
20.798488
 20
39.762
 10
19.1196
 20
39.762
 10
19.11951
 20
39.44475
 10
19.119419
 20
39.1275
 10
20.787661
 20
39.152237
 42
0.002697
 10
21.696112
 20
39.170609
 42
0.015766
 10
22.173235
 20
39.197903
 42
0.028118
 10
22.460731
 20
39.239854
 42
0.134413
 10
22.607337
 20
39.314018
 42
0.02515
 10
22.693116
 20
39.399876
 42
0.176285
 10
22.715018
 20
39.453823
 42
0.171265
 10
22.697456
 20
39.51009
 42
0.023448
 10
22.618073
 20
39.606532
 42
0.142966
 10
22.4768
 20
39.693385
 42
0.045527
 10
22.231206
 20
39.737119
 42
0.01915
 10
21.793066
 20
39.757701
 42
0.002161
  0
LWPOLYLINE
  5
7D4
330
1D
100
AcDbEntity
  8
0
100
AcDbPolyline
 90
       16
 70
     1
 43
0.0
 10
26.915912
 20
39.762
 42
0.002161
 10
25.921334
 20
39.757701
 42
0.01915
 10
25.483194
 20
39.737119
 42
0.045527
 10
25.2376
 20
39.693385
 42
0.142966
 10
25.096327
 20
39.606532
 42
0.0242
 10
25.017138
 20
39.51003
 42
0.173816
 10
24.99992
 20
39.453283
 42
0.173904
 10
25.022678
 20
39.398536
 42
0.02423
 10
25.111027
 20
39.310432
 42
0.132315
 10
25.260292
 20
39.234147
 42
0.033069
 10
25.533698
 20
39.194712
 42
0.016775
 10
25.997479
 20
39.174484
 42
0.00251
 10
26.930611
 20
39.1698
 10
28.5948
 20
39.1698
 10
28.5948
 20
39.4659
 10
28.5948
 20
39.762
  0
LWPOLYLINE
  5
7E6
330
1D
100
AcDbEntity
  8
0
100
AcDbPolyline
 90
       14
 70
     1
 43
0.0
 10
32.6556
 20
39.762
 42
0.016022
 10
32.439328
 20
39.755068
 42
0.174895
 10
32.360752
 20
39.720882
 42
0.186906
 10
32.324818
 20
39.645455
 42
0.018764
 10
32.3172
 20
39.442514
 10
32.3172
 20
39.123029
 10
32.6556
 20
39.1553
 42
0.017917
 10
32.861943
 20
39.182468
 42
0.148558
 10
32.945554
 20
39.22407
 42
0.177378
 10
32.984302
 20
39.301684
 42
0.02799
 10
32.994
 20
39.474786
 42
0.024636
 10
32.985281
 20
39.65164
 42
0.194527
 10
32.947931
 20
39.722899
 42
0.161544
 10
32.867595
 20
39.755307
 42
0.015781
  0
LWPOLYLINE
  5
7F6
330
1D
100
AcDbEntity
  8
0
100
AcDbPolyline
 90
       26
 70
     1
 43
0.0
 10
23.844891
 20
38.3238
 42
0.186279
 10
23.820864
 20
38.314527
 42
0.002797
 10
23.70813
 20
38.211122
 42
0.00713
 10
23.578336
 20
38.087235
 42
0.004599
 10
23.431368
 20
37.940214
 10
23.054907
 20
37.556629
 10
21.087184
 20
37.580664
 10
19.119462
 20
37.6047
 10
19.119522
 20
37.2663
 10
19.119582
 20
36.9279
 10
21.113313
 20
36.9279
 10
23.107045
 20
36.9279
 10
23.474781
 20
36.538745
 10
23.842516
 20
36.14959
 10
24.231679
 20
36.538745
 10
24.620842
 20
36.9279
 10
26.607825
 20
36.9279
 10
28.594807
 20
36.9279
 10
28.594804
 20
37.24515
 10
28.5948
 20
37.5624
 10
26.645376
 20
37.5624
 10
24.695951
 20
37.5624
 10
24.288952
 20
37.9431
 42
0.004245
 10
24.130279
 20
38.089014
 42
0.00658
 10
23.990622
 20
38.211969
 42
0.002493
 10
23.869358
 20
38.314886
 42
0.176487
  0
LWPOLYLINE
  5
812
330
1D
100
AcDbEntity
  8
0
100
AcDbPolyline
 90
       12
 70
     1
 43
0.0
 10
18.6966
 20
36.956842
 42
0.017491
 10
18.621184
 20
36.954203
 42
0.078554
 10
18.578292
 20
36.944307
 42
0.447206
 10
18.573136
 20
36.930015
 42
0.174857
 10
18.59085
 20
36.914171
 42
0.057986
 10
18.639073
 20
36.900945
 42
0.037979
 10
18.6966
 20
36.896569
 42
0.037979
 10
18.754127
 20
36.900945
 42
0.057986
 10
18.80235
 20
36.914171
 42
0.174857
 10
18.820064
 20
36.930015
 42
0.447206
 10
18.814908
 20
36.944307
 42
0.078554
 10
18.772016
 20
36.954203
 42
0.017491
  0
LWPOLYLINE
  5
820
330
1D
100
AcDbEntity
  8
0
100
AcDbPolyline
 90
       16
 70
     1
 43
0.0
 10
15.377254
 20
32.804854
 10
15.3549
 20
35.4051
 10
15.03765
 20
35.378843
 10
14.7204
 20
35.352586
 10
14.7204
 20
32.803996
 42
0.001112
 10
14.724026
 20
31.174026
 42
0.015017
 10
14.744579
 20
30.578204
 42
0.043377
 10
14.793144
 20
30.259488
 42
0.129791
 10
14.897204
 20
30.067206
 42
0.015
 10
15.013712
 20
29.950415
 42
0.172162
 10
15.072188
 20
29.924607
 42
0.196933
 10
15.129919
 20
29.94337
 42
0.02057
 10
15.236807
 20
30.041807
 42
0.148884
 10
15.331683
 20
30.219765
 42
0.03587
 10
15.372977
 20
30.555181
 42
0.013716
 10
15.387552
 20
31.179112
 42
0.001131
  0
LWPOLYLINE
  5
832
330
1D
100
AcDbEntity
  8
0
100
AcDbPolyline
 90
       16
 70
     1
 43
0.0
 10
32.660259
 20
35.3628
 10
32.326518
 20
35.3628
 10
32.319718
 20
32.838932
 42
0.001173
 10
32.319159
 20
31.238975
 42
0.014776
 10
32.3382
 20
30.63555
 42
0.041245
 10
32.385875
 20
30.305687
 42
0.110582
 10
32.487695
 20
30.092869
 42
0.012593
 10
32.604416
 20
29.951936
 42
0.174151
 10
32.661323
 20
29.920174
 42
0.219596
 10
32.718863
 20
29.935981
 42
0.021243
 10
32.828237
 20
30.036437
 42
0.1458
 10
32.925371
 20
30.216012
 42
0.036513
 10
32.970133
 20
30.549857
 42
0.013918
 10
32.990275
 20
31.170263
 42
0.001155
 10
32.994
 20
32.7825
 10
32.994
 20
35.3628
  0
LWPOLYLINE
  5
844
330
1D
100
AcDbEntity
  8
0
100
AcDbPolyline
 90
       32
 70
     1
 43
0.0
 10
23.988965
 20
34.0938
 42
0.19808
 10
23.969293
 20
34.085688
 42
0.005272
 10
23.90194
 20
34.01734
 42
0.010256
 10
23.824082
 20
33.933261
 42
0.006747
 10
23.73782
 20
33.833509
 10
23.5188
 20
33.573218
 10
23.5188
 20
31.477821
 42
0.00147
 10
23.52264
 20
30.171198
 42
0.017278
 10
23.543198
 20
29.663023
 42
0.047239
 10
23.590065
 20
29.388992
 42
0.143838
 10
23.687701
 20
29.22957
 42
-0.030323
 10
23.770991
 20
29.144463
 42
-0.122229
 10
23.803714
 20
29.080159
 42
-0.158203
 10
23.798295
 20
29.017543
 42
-0.061881
 10
23.754382
 20
28.941508
 42
0.233028
 10
23.750864
 20
28.923159
 42
0.51158
 10
23.762007
 20
28.919008
 42
0.030691
 10
23.82497
 20
28.966919
 42
0.00723
 10
23.923881
 20
29.054778
 10
24.1956
 20
29.303256
 10
24.1956
 20
31.476669
 42
0.001806
 10
24.191231
 20
32.686584
 42
0.012504
 10
24.172122
 20
33.279296
 42
0.020494
 10
24.137783
 20
33.627791
 42
0.186848
 10
24.06485
 20
33.758595
 42
-0.062963
 10
24.018105
 20
33.808541
 42
-0.063044
 10
23.985284
 20
33.868528
 42
-0.069043
 10
23.970679
 20
33.929039
 42
-0.116874
 10
23.977595
 20
33.980454
 42
0.023431
 10
23.991982
 20
34.023932
 42
0.043207
 10
23.998877
 20
34.060505
 42
0.062619
 10
23.998241
 20
34.085822
 42
0.370884
  0
LWPOLYLINE
  5
866
330
1D
100
AcDbEntity
  8
0
100
AcDbPolyline
 90
       24
 70
     1
 43
0.0
 10
19.450618
 20
33.1632
 42
0.090617
 10
19.38451
 20
33.15112
 42
0.057648
 10
19.314813
 20
33.115131
 42
0.055532
 10
19.252257
 20
33.062145
 42
0.066519
 10
19.207177
 20
32.999562
 42
0.026293
 10
19.173649
 20
32.928127
 42
0.02164
 10
19.145326
 20
32.848809
 42
0.022172
 10
19.12568
 20
32.773556
 42
0.052806
 10
19.1196
 20
32.716152
 42
0.17111
 10
19.137624
 20
32.665025
 42
0.124699
 10
19.18618
 20
32.628509
 42
0.077119
 10
19.26829
 20
32.608176
 42
0.03017
 10
19.38533
 20
32.60484
 42
0.046008
 10
19.494589
 20
32.618433
 42
0.045788
 10
19.599703
 20
32.651784
 42
0.049625
 10
19.686604
 20
32.699024
 42
0.103104
 10
19.739974
 20
32.754259
 42
0.058269
 10
19.775006
 20
32.827463
 42
0.103068
 10
19.783288
 20
32.89363
 42
0.100312
 10
19.764481
 20
32.958826
 42
0.053031
 10
19.717685
 20
33.029209
 42
0.059502
 10
19.663645
 20
33.08049
 42
0.04386
 10
19.593363
 20
33.12384
 42
0.0446
 10
19.518433
 20
33.15341
 42
0.071807
  0
LWPOLYLINE
  5
880
330
1D
100
AcDbEntity
  8
0
100
AcDbPolyline
 90
       24
 70
     1
 43
0.0
 10
28.292625
 20
33.1632
 42
0.067568
 10
28.21036
 20
33.152032
 42
0.055754
 10
28.12813
 20
33.119069
 42
0.057675
 10
28.058251
 20
33.070451
 42
0.089314
 10
28.01275
 20
33.012965
 42
0.06018
 10
27.984274
 20
32.939804
 42
0.064325
 10
27.974894
 20
32.863617
 42
0.064611
 10
27.985189
 20
32.787842
 42
0.061613
 10
28.014527
 20
32.715884
 42
0.092845
 10
28.066176
 20
32.653984
 42
0.080636
 10
28.139198
 20
32.611263
 42
0.068325
 10
28.232958
 20
32.589113
 42
0.042926
 10
28.345753
 20
32.588013
 42
0.036727
 10
28.457799
 20
32.604887
 42
0.089582
 10
28.534362
 20
32.6374
 42
0.127187
 10
28.578727
 20
32.686231
 42
0.121721
 10
28.5948
 20
32.751276
 42
0.028459
 10
28.5911
 20
32.816233
 42
0.017198
 10
28.579716
 20
32.892487
 42
0.017204
 10
28.563137
 20
32.967687
 42
0.02876
 10
28.543449
 20
33.029381
 42
0.113211
 10
28.509032
 20
33.080575
 42
0.065935
 10
28.448587
 20
33.123891
 42
0.060646
 10
28.372724
 20
33.153224
 42
0.062033
  0
LWPOLYLINE
  5
89A
330
1D
100
AcDbEntity
  8
0
100
AcDbPolyline
 90
       18
 70
     1
 43
0.0
 10
15.20685
 20
27.557756
 10
15.0165
 20
27.734606
 10
14.86845
 20
27.535439
 42
0.121159
 10
14.784519
 20
27.335859
 42
0.025686
 10
14.744454
 20
26.957816
 42
0.012147
 10
14.724592
 20
26.294423
 42
0.00141
 10
14.7204
 20
24.807783
 10
14.7204
 20
22.279294
 10
14.922777
 20
22.089171
 10
15.125154
 20
21.899048
 10
15.261177
 20
22.093248
 42
0.121562
 10
15.336819
 20
22.288808
 42
0.019391
 10
15.373308
 20
22.700669
 42
0.010856
 10
15.392776
 20
23.398884
 42
0.001541
 10
15.3972
 20
24.834177
 42
0.001007
 10
15.393812
 20
26.51593
 42
0.016438
 10
15.373
 20
27.079619
 42
0.053695
 10
15.320321
 20
27.374023
 42
0.135265
  0
LWPOLYLINE
  5
8AE
330
1D
100
AcDbEntity
  8
0
100
AcDbPolyline
 90
       24
 70
     1
 43
0.0
 10
32.84118
 20
27.522476
 42
0.032139
 10
32.74783
 20
27.596632
 42
0.147718
 10
32.682819
 20
27.617725
 42
0.133989
 10
32.613485
 20
27.600319
 42
0.024669
 10
32.500835
 20
27.529429
 42
0.169119
 10
32.38865
 20
27.373843
 42
0.055628
 10
32.337824
 20
27.092149
 42
0.01651
 10
32.318757
 20
26.537243
 42
0.000966
 10
32.319773
 20
24.845735
 42
0.001149
 10
32.327562
 20
23.23299
 42
0.014542
 10
32.349546
 20
22.626108
 42
0.040133
 10
32.397372
 20
22.299761
 42
0.132887
 10
32.498659
 20
22.10985
 42
0.0197
 10
32.606187
 20
22.004069
 42
0.151899
 10
32.669439
 20
21.974575
 42
0.181892
 10
32.732404
 20
21.988987
 42
0.030817
 10
32.832542
 20
22.064558
 42
0.168139
 10
32.927438
 20
22.226692
 42
0.034333
 10
32.970403
 20
22.561222
 42
0.013622
 10
32.990293
 20
23.185423
 42
0.001153
 10
32.994
 20
24.79349
 42
0.001233
 10
32.990134
 20
26.360889
 42
0.012752
 10
32.970473
 20
27.006631
 42
0.028681
 10
32.930193
 20
27.36067
 42
0.167695
  0
LWPOLYLINE
  5
8C8
330
1D
100
AcDbEntity
  8
0
100
AcDbPolyline
 90
       14
 70
     1
 43
0.0
 10
24.593469
 20
27.5796
 42
0.197177
 10
24.577014
 20
27.572848
 42
0.00167
 10
24.477485
 20
27.473982
 42
0.005545
 10
24.363924
 20
27.357874
 42
0.003505
 10
24.233919
 20
27.22005
 10
23.8995
 20
26.8605
 10
24.25905
 20
27.194919
 42
0.003505
 10
24.396874
 20
27.324924
 42
0.005545
 10
24.512982
 20
27.438485
 42
0.00167
 10
24.611848
 20
27.538014
 42
0.197177
 10
24.6186
 20
27.554469
 42
0.099038
 10
24.616681
 20
27.56406
 42
0.097945
 10
24.611218
 20
27.572218
 42
0.097945
 10
24.60306
 20
27.577681
 42
0.099038
  0
LWPOLYLINE
  5
8D8
330
1D
100
AcDbEntity
  8
0
100
AcDbPolyline
 90
       18
 70
     1
 43
0.0
 10
20.998032
 20
26.590191
 10
20.759319
 20
26.818892
 10
20.530765
 20
26.580333
 10
20.302211
 20
26.341774
 10
20.514479
 20
26.142359
 42
-0.015564
 10
20.639151
 20
26.017708
 42
-0.139051
 10
20.674436
 20
25.949605
 42
-0.199167
 10
20.661923
 20
25.885063
 42
-0.037739
 10
20.586862
 20
25.788372
 42
0.012655
 10
20.535827
 20
25.729027
 42
0.025319
 10
20.499171
 20
25.679205
 42
0.03325
 10
20.478779
 20
25.64336
 42
0.553314
 10
20.484774
 20
25.6338
 42
0.185014
 10
20.509133
 20
25.643133
 42
0.003182
 10
20.616362
 20
25.740679
 42
0.007622
 10
20.740065
 20
25.858195
 42
0.004943
 10
20.879658
 20
25.997645
 10
21.236745
 20
26.36149
  0
LWPOLYLINE
  5
8EC
330
1D
100
AcDbEntity
  8
0
100
AcDbPolyline
 90
       20
 70
     1
 43
0.0
 10
23.85713
 20
26.8182
 42
0.178953
 10
23.827463
 20
26.807231
 42
0.014818
 10
23.765595
 20
26.750972
 42
0.018335
 10
23.694367
 20
26.677007
 42
0.01308
 10
23.619964
 20
26.589338
 10
23.435812
 20
26.360476
 10
23.646311
 20
26.140763
 42
-0.020114
 10
23.752839
 20
26.02022
 42
-0.09679
 10
23.795778
 20
25.939827
 42
-0.163325
 10
23.793983
 20
25.871389
 42
-0.090579
 10
23.751255
 20
25.798575
 42
0.801253
 10
23.755153
 20
25.793335
 42
0.068959
 10
23.78223
 20
25.810221
 42
0.010175
 10
23.87335
 20
25.889438
 42
0.003298
 10
24.004929
 20
26.010206
 10
24.364158
 20
26.344312
 10
24.137151
 20
26.581256
 42
0.010849
 10
24.046331
 20
26.672025
 42
0.01529
 10
23.961255
 20
26.748598
 42
0.011422
 10
23.888172
 20
26.807627
 42
0.165635
  0
LWPOLYLINE
  5
902
330
1D
100
AcDbEntity
  8
0
100
AcDbPolyline
 90
       14
 70
     1
 43
0.0
 10
26.9874
 20
26.8182
 42
0.159686
 10
26.956146
 20
26.807957
 42
0.014816
 10
26.891235
 20
26.757264
 42
0.017892
 10
26.816075
 20
26.690213
 42
0.013098
 10
26.737412
 20
26.610758
 10
26.54253
 20
26.403316
 10
26.754656
 20
26.151218
 10
26.966782
 20
25.899121
 10
27.203873
 20
26.146591
 10
27.440964
 20
26.394061
 10
27.241735
 20
26.60613
 42
0.012816
 10
27.161407
 20
26.68736
 42
0.017582
 10
27.084842
 20
26.755905
 42
0.014392
 10
27.018768
 20
26.807849
 42
0.160728
  0
LWPOLYLINE
  5
912
330
1D
100
AcDbEntity
  8
0
100
AcDbPolyline
 90
       14
 70
     1
 43
0.0
 10
23.406647
 20
25.4646
 42
0.194102
 10
23.389522
 20
25.457692
 42
0.004632
 10
23.32694
 20
25.396259
 42
0.009492
 10
23.254593
 20
25.321111
 42
0.006223
 10
23.173997
 20
25.23195
 10
22.9689
 20
24.9993
 10
23.20155
 20
25.204397
 42
0.006223
 10
23.290711
 20
25.284993
 42
0.009492
 10
23.365859
 20
25.35734
 42
0.004632
 10
23.427292
 20
25.419922
 42
0.194102
 10
23.4342
 20
25.437047
 42
0.099038
 10
23.432097
 20
25.447562
 42
0.097945
 10
23.426106
 20
25.456506
 42
0.097945
 10
23.417162
 20
25.462497
 42
0.099038
  0
LWPOLYLINE
  5
922
330
1D
100
AcDbEntity
  8
0
100
AcDbPolyline
 90
       14
 70
     1
 43
0.0
 10
22.517875
 20
25.068943
 10
22.2921
 20
25.28397
 10
22.060332
 20
25.050867
 10
21.828565
 20
24.817765
 10
22.08348
 20
24.57354
 10
22.338396
 20
24.329316
 10
22.653648
 20
24.654417
 42
0.007577
 10
22.767424
 20
24.775361
 42
0.020494
 10
22.843211
 20
24.865572
 42
0.074051
 10
22.866755
 20
24.907671
 42
0.699495
 10
22.856275
 20
24.916717
 42
-0.164297
 10
22.794628
 20
24.905309
 42
-0.07012
 10
22.713071
 20
24.929001
 42
-0.05352
 10
22.618597
 20
24.984312
 42
-0.031115
  0
LWPOLYLINE
  5
932
330
1D
100
AcDbEntity
  8
0
100
AcDbPolyline
 90
       16
 70
     1
 43
0.0
 10
25.648412
 20
25.0699
 10
25.412319
 20
25.296092
 10
25.184313
 20
25.058106
 10
24.956308
 20
24.820119
 10
25.189304
 20
24.598219
 42
0.019984
 10
25.315321
 20
24.48746
 42
0.088853
 10
25.401289
 20
24.440065
 42
0.150918
 10
25.473969
 20
24.4381
 42
0.099022
 10
25.5492
 20
24.47631
 42
0.019671
 10
25.605335
 20
24.524237
 42
0.011239
 10
25.669433
 20
24.586203
 42
0.011213
 10
25.731209
 20
24.65154
 42
0.018239
 10
25.780303
 20
24.710004
 42
0.089375
 10
25.821956
 20
24.789286
 42
0.165677
 10
25.82031
 20
24.861156
 42
0.095622
 10
25.770451
 20
24.94397
 42
0.018556
  0
LWPOLYLINE
  5
944
330
1D
100
AcDbEntity
  8
0
100
AcDbPolyline
 90
       22
 70
     1
 43
0.0
 10
24.782793
 20
24.6186
 42
0.190132
 10
24.755098
 20
24.607674
 42
0.00134
 10
24.567954
 20
24.431844
 42
0.004882
 10
24.354822
 20
24.226544
 42
0.003075
 10
24.109743
 20
23.982835
 42
-0.010296
 10
23.84331
 20
23.725435
 42
-0.020067
 10
23.618739
 20
23.533408
 42
-0.017803
 10
23.438236
 20
23.401328
 42
-0.245382
 10
23.360263
 20
23.392334
 42
0.574677
 10
23.343187
 20
23.378616
 42
0.098765
 10
23.361055
 20
23.32906
 42
0.032541
 10
23.42647
 20
23.235067
 42
0.012571
 10
23.528603
 20
23.113369
 10
23.8149
 20
22.78914
 10
24.078255
 20
23.00592
 10
24.34161
 20
23.2227
 10
24.12468
 20
23.4566
 10
23.907749
 20
23.6905
 10
24.366035
 20
24.15455
 42
0.004253
 10
24.538878
 20
24.332571
 42
0.007595
 10
24.6775
 20
24.482285
 42
0.003252
 10
24.788054
 20
24.607007
 42
0.644341
  0
LWPOLYLINE
  5
95C
330
1D
100
AcDbEntity
  8
0
100
AcDbPolyline
 90
       16
 70
     1
 43
0.0
 10
22.789341
 20
23.9418
 42
0.099038
 10
22.777151
 20
23.939362
 42
0.097945
 10
22.766783
 20
23.932417
 42
0.097945
 10
22.759838
 20
23.922049
 42
0.099038
 10
22.7574
 20
23.909859
 42
0.184603
 10
22.764265
 20
23.891898
 42
0.013803
 10
22.80089
 20
23.853193
 42
0.017649
 10
22.848734
 20
23.808613
 42
0.012436
 10
22.90545
 20
23.761809
 42
0.001576
 10
23.001006
 20
23.687354
 42
0.377591
 10
23.0112
 20
23.688
 42
0.377591
 10
23.011846
 20
23.698194
 42
0.001576
 10
22.937391
 20
23.79375
 42
0.012436
 10
22.890587
 20
23.850466
 42
0.017649
 10
22.846007
 20
23.89831
 42
0.013803
 10
22.807302
 20
23.934935
 42
0.184603
  0
LWPOLYLINE
  5
96E
330
1D
100
AcDbEntity
  8
0
100
AcDbPolyline
 90
        8
 70
     1
 43
0.0
 10
20.985837
 20
23.486937
 10
20.748529
 20
23.751175
 10
20.513096
 20
23.501733
 10
20.277663
 20
23.252291
 10
20.526995
 20
23.002958
 10
20.776328
 20
22.753626
 10
20.999736
 20
22.988163
 10
21.223145
 20
23.2227
  0
LWPOLYLINE
  5
978
330
1D
100
AcDbEntity
  8
0
100
AcDbPolyline
 90
        8
 70
     1
 43
0.0
 10
27.227298
 20
23.50048
 10
27.018456
 20
23.748674
 10
26.757032
 20
23.515092
 10
26.495609
 20
23.28151
 10
26.74324
 20
23.044264
 10
26.990872
 20
22.807018
 10
27.213506
 20
23.029651
 10
27.43614
 20
23.252285
  0
LWPOLYLINE
  5
982
330
1D
100
AcDbEntity
  8
0
100
AcDbPolyline
 90
        8
 70
     1
 43
0.0
 10
24.091879
 20
20.376482
 10
23.877818
 20
20.630879
 10
23.638518
 20
20.381103
 10
23.399218
 20
20.131328
 10
23.628209
 20
19.902337
 10
23.8572
 20
19.673345
 10
24.08157
 20
19.897715
 10
24.30594
 20
20.122085
  0
LWPOLYLINE
  5
98C
330
1D
100
AcDbEntity
  8
0
100
AcDbPolyline
 90
       18
 70
     1
 43
0.0
 10
19.705292
 20
14.8896
 42
0.138418
 10
19.655829
 20
14.875639
 42
0.020229
 10
19.568305
 20
14.816958
 42
0.021581
 10
19.468252
 20
14.736998
 42
0.017004
 10
19.366892
 20
14.642308
 42
0.017004
 10
19.272202
 20
14.540948
 42
0.021581
 10
19.192242
 20
14.440895
 42
0.020229
 10
19.133561
 20
14.353371
 42
0.138418
 10
19.1196
 20
14.303908
 42
0.28597
 10
19.141523
 20
14.268712
 42
0.048452
 10
19.219005
 20
14.239563
 42
0.040335
 10
19.328324
 20
14.219403
 42
0.025441
 10
19.458
 20
14.2128
 10
19.7964
 20
14.2128
 10
19.7964
 20
14.5512
 42
0.025441
 10
19.789797
 20
14.680876
 42
0.040335
 10
19.769637
 20
14.790195
 42
0.048452
 10
19.740488
 20
14.867677
 42
0.28597
  0
LWPOLYLINE
  5
9A0
330
1D
100
AcDbEntity
  8
0
100
AcDbPolyline
 90
       16
 70
     1
 43
0.0
 10
32.488441
 20
14.152179
 42
0.237572
 10
32.394279
 20
14.132038
 42
0.184936
 10
32.3408
 20
14.040311
 42
0.038163
 10
32.320532
 20
13.80471
 42
0.002381
 10
32.3172
 20
13.10508
 10
32.3172
 20
12.0132
 10
32.6556
 20
12.0132
 10
32.994
 20
12.0132
 10
32.994
 20
12.847791
 42
0.006929
 10
32.987649
 20
13.306062
 42
0.032659
 10
32.963229
 20
13.567866
 42
0.057149
 10
32.913506
 20
13.745812
 42
0.070081
 10
32.826841
 20
13.89489
 42
0.03449
 10
32.750262
 20
13.979525
 42
0.029085
 10
32.658483
 20
14.058128
 42
0.030099
 10
32.565947
 20
14.120071
 42
0.068589
  0
LWPOLYLINE
  5
9B2
330
1D
100
AcDbEntity
  8
0
100
AcDbPolyline
 90
       12
 70
     1
 43
0.0
 10
22.9266
 20
4.464173
 42
0.011065
 10
22.820682
 20
4.461828
 42
0.052887
 10
22.760969
 20
4.452808
 42
0.542911
 10
22.756627
 20
4.439722
 42
0.161593
 10
22.77855
 20
4.425483
 42
0.039571
 10
22.845999
 20
4.413452
 42
0.024357
 10
22.9266
 20
4.409524
 42
0.024357
 10
23.007201
 20
4.413452
 42
0.039571
 10
23.07465
 20
4.425483
 42
0.161593
 10
23.096573
 20
4.439722
 42
0.542911
 10
23.092231
 20
4.452808
 42
0.052887
 10
23.032518
 20
4.461828
 42
0.011065
  0
LWPOLYLINE
  5
9C0
330
1D
100
AcDbEntity
  8
0
100
AcDbPolyline
 90
       12
 70
     1
 43
0.0
 10
23.9418
 20
4.464173
 42
0.011065
 10
23.835882
 20
4.461828
 42
0.052887
 10
23.776169
 20
4.452808
 42
0.542911
 10
23.771827
 20
4.439722
 42
0.161593
 10
23.79375
 20
4.425483
 42
0.039571
 10
23.861199
 20
4.413452
 42
0.024357
 10
23.9418
 20
4.409524
 42
0.024357
 10
24.022401
 20
4.413452
 42
0.039571
 10
24.08985
 20
4.425483
 42
0.161593
 10
24.111773
 20
4.439722
 42
0.542911
 10
24.107431
 20
4.452808
 42
0.052887
 10
24.047718
 20
4.461828
 42
0.011065
  0
LWPOLYLINE
  5
9CE
330
1D
100
AcDbEntity
  8
0
100
AcDbPolyline
 90
       16
 70
     1
 43
0.0
 10
22.720093
 20
4.3146
 42
0.151918
 10
22.702265
 20
4.309055
 42
0.038439
 10
22.678386
 20
4.289749
 42
0.035638
 10
22.653257
 20
4.262383
 42
0.029505
 10
22.6305
 20
4.23
 42
0.082592
 10
22.617259
 20
4.197674
 42
0.161196
 10
22.619891
 20
4.170251
 42
0.182303
 10
22.637779
 20
4.152023
 42
0.108972
 10
22.667807
 20
4.1454
 42
0.093332
 10
22.702007
 20
4.15184
 42
0.09642
 10
22.731082
 20
4.170251
 42
0.099167
 10
22.750542
 20
4.19772
 42
0.105053
 10
22.7574
 20
4.23
 42
0.042167
 10
22.754664
 20
4.262389
 42
0.061769
 10
22.746441
 20
4.289749
 42
0.081139
 10
22.734359
 20
4.308301
 42
0.210953
  0
LWPOLYLINE
  5
9E0
330
1D
100
AcDbEntity
  8
0
100
AcDbPolyline
 90
       16
 70
     1
 43
0.0
 10
23.175407
 20
4.23
 42
0.108972
 10
23.145379
 20
4.223377
 42
0.182303
 10
23.127491
 20
4.205149
 42
0.161196
 10
23.124859
 20
4.177726
 42
0.082592
 10
23.1381
 20
4.1454
 42
0.029505
 10
23.160857
 20
4.113017
 42
0.035638
 10
23.185986
 20
4.085651
 42
0.038439
 10
23.209865
 20
4.066345
 42
0.151918
 10
23.227693
 20
4.0608
 42
0.210953
 10
23.241959
 20
4.067099
 42
0.081139
 10
23.254041
 20
4.085651
 42
0.061769
 10
23.262264
 20
4.113011
 42
0.042167
 10
23.265
 20
4.1454
 42
0.105053
 10
23.258142
 20
4.17768
 42
0.099167
 10
23.238682
 20
4.205149
 42
0.09642
 10
23.209607
 20
4.22356
 42
0.093332
  0
LWPOLYLINE
  5
9F2
330
1D
100
AcDbEntity
  8
0
100
AcDbPolyline
 90
       16
 70
     1
 43
0.0
 10
23.429207
 20
4.23
 42
0.108972
 10
23.399179
 20
4.223377
 42
0.182303
 10
23.381291
 20
4.205149
 42
0.161196
 10
23.378659
 20
4.177726
 42
0.082592
 10
23.3919
 20
4.1454
 42
0.029505
 10
23.414657
 20
4.113017
 42
0.035638
 10
23.439786
 20
4.085651
 42
0.038439
 10
23.463665
 20
4.066345
 42
0.151918
 10
23.481493
 20
4.0608
 42
0.210953
 10
23.495759
 20
4.067099
 42
0.081139
 10
23.507841
 20
4.085651
 42
0.061769
 10
23.516064
 20
4.113011
 42
0.042167
 10
23.5188
 20
4.1454
 42
0.105053
 10
23.511942
 20
4.17768
 42
0.099167
 10
23.492482
 20
4.205149
 42
0.09642
 10
23.463407
 20
4.22356
 42
0.093332
  0
LWPOLYLINE
  5
A04
330
1D
100
AcDbEntity
  8
0
100
AcDbPolyline
 90
       16
 70
     1
 43
0.0
 10
23.725307
 20
4.23
 42
0.067432
 10
23.678717
 20
4.223688
 42
0.140899
 10
23.647767
 20
4.204743
 42
0.190788
 10
23.637056
 20
4.176672
 42
0.136093
 10
23.646553
 20
4.14402
 42
0.090427
 10
23.672825
 20
4.114894
 42
0.095498
 10
23.707216
 20
4.097594
 42
0.099685
 10
23.744327
 20
4.094733
 42
0.108373
 10
23.778446
 20
4.106713
 42
0.031646
 10
23.808588
 20
4.128088
 42
0.037297
 10
23.834066
 20
4.152047
 42
0.040575
 10
23.851945
 20
4.175062
 42
0.145859
 10
23.8572
 20
4.192693
 42
0.279105
 10
23.848487
 20
4.207086
 42
0.051652
 10
23.818456
 20
4.219041
 42
0.042195
 10
23.775846
 20
4.227294
 42
0.026751
  0
LWPOLYLINE
  5
A16
330
1D
100
AcDbEntity
  8
0
100
AcDbPolyline
 90
       16
 70
     1
 43
0.0
 10
24.232907
 20
4.23
 42
0.067432
 10
24.186317
 20
4.223688
 42
0.140899
 10
24.155367
 20
4.204743
 42
0.190788
 10
24.144656
 20
4.176672
 42
0.136093
 10
24.154153
 20
4.14402
 42
0.090427
 10
24.180425
 20
4.114894
 42
0.095498
 10
24.214816
 20
4.097594
 42
0.099685
 10
24.251927
 20
4.094733
 42
0.108373
 10
24.286046
 20
4.106713
 42
0.031646
 10
24.316188
 20
4.128088
 42
0.037297
 10
24.341666
 20
4.152047
 42
0.040575
 10
24.359545
 20
4.175062
 42
0.145859
 10
24.3648
 20
4.192693
 42
0.279105
 10
24.356087
 20
4.207086
 42
0.051652
 10
24.326056
 20
4.219041
 42
0.042195
 10
24.283446
 20
4.227294
 42
0.026751
  0
LWPOLYLINE
  5
A28
330
1D
100
AcDbEntity
  8
0
100
AcDbPolyline
 90
       16
 70
     1
 43
0.0
 10
24.76665
 20
4.097034
 42
0.129577
 10
24.742624
 20
4.114226
 42
0.297449
 10
24.721838
 20
4.10969
 42
0.152297
 10
24.707468
 20
4.081777
 42
0.043317
 10
24.7032
 20
4.0326
 42
0.102919
 10
24.714451
 20
3.978521
 42
0.101386
 10
24.746363
 20
3.933085
 42
0.098893
 10
24.794339
 20
3.903057
 42
0.092982
 10
24.85125
 20
3.892895
 42
0.037587
 10
24.904657
 20
3.897386
 42
0.159858
 10
24.932763
 20
3.911878
 42
0.327207
 10
24.935808
 20
3.932694
 42
0.111066
 10
24.9147
 20
3.95733
 42
-0.017789
 10
24.877693
 20
3.987055
 42
-0.011028
 10
24.836313
 20
4.024413
 42
-0.01106
 10
24.797041
 20
4.063148
 42
-0.019542
  0
LWPOLYLINE
  5
A3A
330
1D
100
AcDbEntity
  8
0
100
AcDbPolyline
 90
       12
 70
     1
 43
0.0
 10
23.3496
 20
3.962842
 42
0.017491
 10
23.274184
 20
3.960203
 42
0.078554
 10
23.231292
 20
3.950307
 42
0.447206
 10
23.226136
 20
3.936015
 42
0.174857
 10
23.24385
 20
3.920171
 42
0.057986
 10
23.292073
 20
3.906945
 42
0.037979
 10
23.3496
 20
3.902569
 42
0.037979
 10
23.407127
 20
3.906945
 42
0.057986
 10
23.45535
 20
3.920171
 42
0.174857
 10
23.473064
 20
3.936015
 42
0.447206
 10
23.467908
 20
3.950307
 42
0.078554
 10
23.425016
 20
3.960203
 42
0.017491
  0
ENDSEC
  0
SECTION
  2
OBJECTS
  0
DICTIONARY
  5
C
330
0
100
AcDbDictionary
281
     1
  3
ACAD_DETAILVIEWSTYLE
350
AD4
  3
ACAD_GROUP
350
D
  3
ACAD_LAYOUT
350
1A
  3
ACAD_MATERIAL
350
A87
  3
ACAD_MLEADERSTYLE
350
A8D
  3
ACAD_MLINESTYLE
350
17
  3
ACAD_PLOTSETTINGS
350
19
  3
ACAD_PLOTSTYLENAME
350
E
  3
ACAD_SCALELIST
350
A48
  3
ACAD_SECTIONVIEWSTYLE
350
AD5
  3
ACAD_TABLESTYLE
350
A8B
  3
ACAD_VISUALSTYLE
350
A6E
  3
ACDB_RECOMPOSE_DATA
350
AD0
  3
AcDbVariableDictionary
350
A91
  0
DICTIONARY
  5
A8F
330
8
100
AcDbDictionary
280
     1
281
     1
  3
ACAD_XREC_ROUNDTRIP
360
A90
  0
DICTIONARY
  5
AD4
102
{ACAD_REACTORS
330
C
102
}
330
C
100
AcDbDictionary
281
     1
  0
DICTIONARY
  5
D
102
{ACAD_REACTORS
330
C
102
}
330
C
100
AcDbDictionary
281
     1
  0
DICTIONARY
  5
1A
102
{ACAD_REACTORS
330
C
102
}
330
C
100
AcDbDictionary
281
     1
  3
Layout1
350
1C
  3
Model
350
1E
  0
DICTIONARY
  5
A87
102
{ACAD_REACTORS
330
C
102
}
330
C
100
AcDbDictionary
281
     1
  3
ByBlock
350
A89
  3
ByLayer
350
A88
  3
Global
350
A8A
  0
DICTIONARY
  5
A8D
102
{ACAD_REACTORS
330
C
102
}
330
C
100
AcDbDictionary
281
     1
  3
Standard
350
A8E
  0
DICTIONARY
  5
17
102
{ACAD_REACTORS
330
C
102
}
330
C
100
AcDbDictionary
281
     1
  3
Standard
350
18
  0
DICTIONARY
  5
19
102
{ACAD_REACTORS
330
C
102
}
330
C
100
AcDbDictionary
281
     1
  0
ACDBDICTIONARYWDFLT
  5
E
102
{ACAD_REACTORS
330
C
102
}
330
C
100
AcDbDictionary
281
     1
  3
Normal
350
F
100
AcDbDictionaryWithDefault
340
F
  0
DICTIONARY
  5
A48
102
{ACAD_REACTORS
330
C
102
}
330
C
100
AcDbDictionary
281
     1
  3
A0
350
A49
  3
A1
350
A4A
  3
A2
350
A4B
  3
A3
350
A4C
  3
A4
350
A4D
  3
A5
350
A4E
  3
A6
350
A4F
  3
A7
350
A50
  3
A8
350
A51
  3
A9
350
A52
  3
B0
350
A53
  3
B1
350
A54
  3
B2
350
A55
  3
B3
350
A56
  3
B4
350
A57
  3
B5
350
A58
  3
B6
350
A59
  3
B7
350
A5A
  3
B8
350
A5B
  3
B9
350
A5C
  3
C0
350
A5D
  3
C1
350
A5E
  3
C2
350
A5F
  3
C3
350
A60
  3
C4
350
A61
  3
C5
350
A62
  3
C6
350
A63
  3
C7
350
A64
  3
C8
350
A65
  3
C9
350
A66
  3
D0
350
A67
  3
D1
350
A68
  3
D2
350
A69
  0
DICTIONARY
  5
AD5
102
{ACAD_REACTORS
330
C
102
}
330
C
100
AcDbDictionary
281
     1
  0
DICTIONARY
  5
A8B
102
{ACAD_REACTORS
330
C
102
}
330
C
100
AcDbDictionary
281
     1
  3
Standard
350
A8C
  0
DICTIONARY
  5
A6E
102
{ACAD_REACTORS
330
C
102
}
330
C
100
AcDbDictionary
281
     1
  3
2dWireframe
350
A73
  3
Basic
350
A76
  3
Brighten
350
A7A
  3
ColorChange
350
A7E
  3
Conceptual
350
A78
  3
Dim
350
A79
  3
EdgeColorOff
350
A81
  3
Facepattern
350
A7D
  3
Flat
350
A6F
  3
FlatWithEdges
350
A70
  3
Gouraud
350
A71
  3
GouraudWithEdges
350
A72
  3
Hidden
350
A75
  3
JitterOff
350
A7F
  3
Linepattern
350
A7C
  3
OverhangOff
350
A80
  3
Realistic
350
A77
  3
Shaded
350
A86
  3
Shaded with edges
350
A85
  3
Shades of Gray
350
A82
  3
Sketchy
350
A83
  3
Thicken
350
A7B
  3
Wireframe
350
A74
  3
X-Ray
350
A84
  0
XRECORD
  5
AD0
102
{ACAD_REACTORS
330
C
102
}
330
C
100
AcDbXrecord
280
     1
 90
        1
330
A8C
  0
DICTIONARY
  5
A91
102
{ACAD_REACTORS
330
C
102
}
330
C
100
AcDbDictionary
281
     1
  3
CANNOSCALE
350
A92
  3
CMLEADERSTYLE
350
AD2
  3
CTABLESTYLE
350
AD1
  3
MSLTSCALE
350
AD3
  3
XCLIPFRAME
350
A93
  0
XRECORD
  5
A90
102
{ACAD_REACTORS
330
A8F
102
}
330
A8F
100
AcDbXrecord
280
     1
102
VTR_0.000_0.000_1.000_1.000_VISUALSTYLE
340
A73
102
VTR_0.000_0.000_1.000_1.000_GRIDDISPLAY
 70
     3
102
VTR_0.000_0.000_1.000_1.000_GRIDMAJOR
 70
     5
102
VTR_0.000_0.000_1.000_1.000_DEFAULTLIGHTING
280
     1
102
VTR_0.000_0.000_1.000_1.000_DEFAULTLIGHTINGTYPE
 70
     1
102
VTR_0.000_0.000_1.000_1.000_BRIGHTNESS
141
0.0
102
VTR_0.000_0.000_1.000_1.000_CONTRAST
142
0.0
  0
LAYOUT
  5
1C
102
{ACAD_REACTORS
330
1A
102
}
330
1A
100
AcDbPlotSettings
  1

  2
none_device
  4

  6

 40
0.0
 41
0.0
 42
0.0
 43
0.0
 44
0.0
 45
0.0
 46
0.0
 47
0.0
 48
0.0
 49
0.0
140
0.0
141
0.0
142
1.0
143
1.0
 70
   688
 72
     0
 73
     0
 74
     5
  7

 75
    16
 76
     0
 77
     2
 78
   300
147
1.0
148
0.0
149
0.0
100
AcDbLayout
  1
Layout1
 70
     1
 71
     1
 10
0.0
 20
0.0
 11
12.0
 21
9.0
 12
0.0
 22
0.0
 32
0.0
 14
1.000000000000000E+20
 24
1.000000000000000E+20
 34
1.000000000000000E+20
 15
-1.000000000000000E+20
 25
-1.000000000000000E+20
 35
-1.000000000000000E+20
146
0.0
 13
0.0
 23
0.0
 33
0.0
 16
1.0
 26
0.0
 36
0.0
 17
0.0
 27
1.0
 37
0.0
 76
     0
330
1B
  0
LAYOUT
  5
1E
102
{ACAD_REACTORS
330
1A
102
}
330
1A
100
AcDbPlotSettings
  1

  2
none_device
  4
Letter_(8.50_x_11.00_Inches)
  6

 40
6.35
 41
6.35
 42
6.35000508
 43
6.35000508
 44
215.9
 45
279.4
 46
0.0
 47
0.0
 48
0.0
 49
0.0
140
0.0
141
0.0
142
1.0
143
1.0
 70
  1712
 72
     0
 73
     0
 74
     0
  7

 75
     0
 76
     0
 77
     2
 78
   300
147
1.0
148
0.0
149
0.0
100
AcDbLayout
  1
Model
 70
     1
 71
     0
 10
0.0
 20
0.0
 11
12.0
 21
9.0
 12
0.0
 22
0.0
 32
0.0
 14
0.0
 24
0.0
 34
0.0
 15
47.7144
 25
47.7144
 35
0.0
146
0.0
 13
0.0
 23
0.0
 33
0.0
 16
1.0
 26
0.0
 36
0.0
 17
0.0
 27
1.0
 37
0.0
 76
     0
330
1D
331
21
  0
MATERIAL
  5
A89
102
{ACAD_REACTORS
330
A87
102
}
102
{ACAD_XDICTIONARY
360
AC6
102
}
330
A87
100
AcDbMaterial
  1
ByBlock
  0
MATERIAL
  5
A88
102
{ACAD_REACTORS
330
A87
102
}
102
{ACAD_XDICTIONARY
360
AC4
102
}
330
A87
100
AcDbMaterial
  1
ByLayer
  0
MATERIAL
  5
A8A
102
{ACAD_REACTORS
330
A87
102
}
102
{ACAD_XDICTIONARY
360
AC8
102
}
330
A87
100
AcDbMaterial
  1
Global
  0
MLEADERSTYLE
  5
A8E
102
{ACAD_REACTORS
330
A8D
102
}
102
{ACAD_XDICTIONARY
360
ACE
102
}
330
A8D
100
AcDbMLeaderStyle
170
     2
171
     1
172
     0
 90
        2
 40
0.0
 41
0.0
173
     1
 91
-1056964608
340
14
 92
       -2
290
     1
 42
0.09
291
     1
 43
0.36
  3
Standard
341
0
 44
0.18
300

342
11
174
     1
178
     6
175
     1
176
     0
 93
-1056964608
 45
0.18
292
     0
297
     0
 46
0.18
343
0
 94
-1056964608
 47
1.0
 49
1.0
140
1.0
293
     1
141
0.0
294
     1
177
     0
142
1.0
295
     0
296
     0
143
0.125
1001
ACAD_MLEADERVER
1070
     2
  0
MLINESTYLE
  5
18
102
{ACAD_REACTORS
330
17
102
}
330
17
100
AcDbMlineStyle
  2
Standard
 70
     0
  3

 62
   256
 51
90.0
 52
90.0
 71
     2
 49
0.5
 62
   256
  6
BYLAYER
 49
-0.5
 62
   256
  6
BYLAYER
  0
ACDBPLACEHOLDER
  5
F
102
{ACAD_REACTORS
330
E
102
}
330
E
  0
SCALE
  5
A49
102
{ACAD_REACTORS
330
A48
102
}
330
A48
100
AcDbScale
 70
     0
300
1:1
140
1.0
141
1.0
290
     1
  0
SCALE
  5
A4A
102
{ACAD_REACTORS
330
A48
102
}
330
A48
100
AcDbScale
 70
     0
300
1:2
140
1.0
141
2.0
290
     0
  0
SCALE
  5
A4B
102
{ACAD_REACTORS
330
A48
102
}
330
A48
100
AcDbScale
 70
     0
300
1:4
140
1.0
141
4.0
290
     0
  0
SCALE
  5
A4C
102
{ACAD_REACTORS
330
A48
102
}
330
A48
100
AcDbScale
 70
     0
300
1:5
140
1.0
141
5.0
290
     0
  0
SCALE
  5
A4D
102
{ACAD_REACTORS
330
A48
102
}
330
A48
100
AcDbScale
 70
     0
300
1:8
140
1.0
141
8.0
290
     0
  0
SCALE
  5
A4E
102
{ACAD_REACTORS
330
A48
102
}
330
A48
100
AcDbScale
 70
     0
300
1:10
140
1.0
141
10.0
290
     0
  0
SCALE
  5
A4F
102
{ACAD_REACTORS
330
A48
102
}
330
A48
100
AcDbScale
 70
     0
300
1:16
140
1.0
141
16.0
290
     0
  0
SCALE
  5
A50
102
{ACAD_REACTORS
330
A48
102
}
330
A48
100
AcDbScale
 70
     0
300
1:20
140
1.0
141
20.0
290
     0
  0
SCALE
  5
A51
102
{ACAD_REACTORS
330
A48
102
}
330
A48
100
AcDbScale
 70
     0
300
1:30
140
1.0
141
30.0
290
     0
  0
SCALE
  5
A52
102
{ACAD_REACTORS
330
A48
102
}
330
A48
100
AcDbScale
 70
     0
300
1:40
140
1.0
141
40.0
290
     0
  0
SCALE
  5
A53
102
{ACAD_REACTORS
330
A48
102
}
330
A48
100
AcDbScale
 70
     0
300
1:50
140
1.0
141
50.0
290
     0
  0
SCALE
  5
A54
102
{ACAD_REACTORS
330
A48
102
}
330
A48
100
AcDbScale
 70
     0
300
1:100
140
1.0
141
100.0
290
     0
  0
SCALE
  5
A55
102
{ACAD_REACTORS
330
A48
102
}
330
A48
100
AcDbScale
 70
     0
300
2:1
140
2.0
141
1.0
290
     0
  0
SCALE
  5
A56
102
{ACAD_REACTORS
330
A48
102
}
330
A48
100
AcDbScale
 70
     0
300
4:1
140
4.0
141
1.0
290
     0
  0
SCALE
  5
A57
102
{ACAD_REACTORS
330
A48
102
}
330
A48
100
AcDbScale
 70
     0
300
8:1
140
8.0
141
1.0
290
     0
  0
SCALE
  5
A58
102
{ACAD_REACTORS
330
A48
102
}
330
A48
100
AcDbScale
 70
     0
300
10:1
140
10.0
141
1.0
290
     0
  0
SCALE
  5
A59
102
{ACAD_REACTORS
330
A48
102
}
330
A48
100
AcDbScale
 70
     0
300
100:1
140
100.0
141
1.0
290
     0
  0
SCALE
  5
A5A
102
{ACAD_REACTORS
330
A48
102
}
330
A48
100
AcDbScale
 70
     0
300
1/128\" = 1\'-0\"
140
0.0078125
141
12.0
290
     0
  0
SCALE
  5
A5B
102
{ACAD_REACTORS
330
A48
102
}
330
A48
100
AcDbScale
 70
     0
300
1/64\" = 1\'-0\"
140
0.015625
141
12.0
290
     0
  0
SCALE
  5
A5C
102
{ACAD_REACTORS
330
A48
102
}
330
A48
100
AcDbScale
 70
     0
300
1/32\" = 1\'-0\"
140
0.03125
141
12.0
290
     0
  0
SCALE
  5
A5D
102
{ACAD_REACTORS
330
A48
102
}
330
A48
100
AcDbScale
 70
     0
300
1/16\" = 1\'-0\"
140
0.0625
141
12.0
290
     0
  0
SCALE
  5
A5E
102
{ACAD_REACTORS
330
A48
102
}
330
A48
100
AcDbScale
 70
     0
300
3/32\" = 1\'-0\"
140
0.09375
141
12.0
290
     0
  0
SCALE
  5
A5F
102
{ACAD_REACTORS
330
A48
102
}
330
A48
100
AcDbScale
 70
     0
300
1/8\" = 1\'-0\"
140
0.125
141
12.0
290
     0
  0
SCALE
  5
A60
102
{ACAD_REACTORS
330
A48
102
}
330
A48
100
AcDbScale
 70
     0
300
3/16\" = 1\'-0\"
140
0.1875
141
12.0
290
     0
  0
SCALE
  5
A61
102
{ACAD_REACTORS
330
A48
102
}
330
A48
100
AcDbScale
 70
     0
300
1/4\" = 1\'-0\"
140
0.25
141
12.0
290
     0
  0
SCALE
  5
A62
102
{ACAD_REACTORS
330
A48
102
}
330
A48
100
AcDbScale
 70
     0
300
3/8\" = 1\'-0\"
140
0.375
141
12.0
290
     0
  0
SCALE
  5
A63
102
{ACAD_REACTORS
330
A48
102
}
330
A48
100
AcDbScale
 70
     0
300
1/2\" = 1\'-0\"
140
0.5
141
12.0
290
     0
  0
SCALE
  5
A64
102
{ACAD_REACTORS
330
A48
102
}
330
A48
100
AcDbScale
 70
     0
300
3/4\" = 1\'-0\"
140
0.75
141
12.0
290
     0
  0
SCALE
  5
A65
102
{ACAD_REACTORS
330
A48
102
}
330
A48
100
AcDbScale
 70
     0
300
1\" = 1\'-0\"
140
1.0
141
12.0
290
     0
  0
SCALE
  5
A66
102
{ACAD_REACTORS
330
A48
102
}
330
A48
100
AcDbScale
 70
     0
300
1-1/2\" = 1\'-0\"
140
1.5
141
12.0
290
     0
  0
SCALE
  5
A67
102
{ACAD_REACTORS
330
A48
102
}
330
A48
100
AcDbScale
 70
     0
300
3\" = 1\'-0\"
140
3.0
141
12.0
290
     0
  0
SCALE
  5
A68
102
{ACAD_REACTORS
330
A48
102
}
330
A48
100
AcDbScale
 70
     0
300
6\" = 1\'-0\"
140
6.0
141
12.0
290
     0
  0
SCALE
  5
A69
102
{ACAD_REACTORS
330
A48
102
}
330
A48
100
AcDbScale
 70
     0
300
1\'-0\" = 1\'-0\"
140
12.0
141
12.0
290
     0
  0
TABLESTYLE
  5
A8C
102
{ACAD_REACTORS
330
A8B
102
}
102
{ACAD_XDICTIONARY
360
ACA
102
}
330
A8B
100
AcDbTableStyle
  3
Standard
 70
     0
 71
     0
 40
0.06
 41
0.06
280
     0
281
     0
  7
Standard
140
0.18
170
     2
 62
     0
 63
   257
283
     0
274
    -2
284
     1
 64
     0
275
    -2
285
     1
 65
     0
276
    -2
286
     1
 66
     0
277
    -2
287
     1
 67
     0
278
    -2
288
     1
 68
     0
279
    -2
289
     1
 69
     0
  7
Standard
140
0.25
170
     5
 62
     0
 63
   257
283
     0
274
    -2
284
     1
 64
     0
275
    -2
285
     1
 65
     0
276
    -2
286
     1
 66
     0
277
    -2
287
     1
 67
     0
278
    -2
288
     1
 68
     0
279
    -2
289
     1
 69
     0
  7
Standard
140
0.18
170
     5
 62
     0
 63
   257
283
     0
274
    -2
284
     1
 64
     0
275
    -2
285
     1
 65
     0
276
    -2
286
     1
 66
     0
277
    -2
287
     1
 67
     0
278
    -2
288
     1
 68
     0
279
    -2
289
     1
 69
     0
  0
VISUALSTYLE
  5
A73
102
{ACAD_REACTORS
330
A6E
102
}
102
{ACAD_XDICTIONARY
360
A9C
102
}
330
A6E
100
AcDbVisualStyle
  2
2dWireframe
 70
     4
 71
     0
 72
     2
 73
     0
 90
        0
 40
0.6
 41
30.0
 62
     5
 63
     7
421
 16777215
 74
     1
 91
        4
 64
     7
 65
   257
 75
     1
175
     1
 42
1.0
 92
        0
 66
   257
 43
1.0
 76
     1
 77
     6
 78
     2
 67
     7
 79
     5
170
     0
171
     0
290
     0
174
     0
 93
        1
 44
0.0
173
     0
291
     0
 45
0.0
1001
ACAD
1000
AcDbSavedByObjectVersion
1070
     0
  0
VISUALSTYLE
  5
A76
102
{ACAD_REACTORS
330
A6E
102
}
102
{ACAD_XDICTIONARY
360
AA2
102
}
330
A6E
100
AcDbVisualStyle
  2
Basic
 70
     7
 71
     1
 72
     0
 73
     1
 90
        0
 40
0.6
 41
30.0
 62
     5
 63
     7
421
 16777215
 74
     0
 91
        4
 64
     7
 65
   257
 75
     1
175
     1
 42
1.0
 92
        8
 66
     7
 43
1.0
 76
     1
 77
     6
 78
     2
 67
     7
 79
     5
170
     0
171
     0
290
     0
174
     0
 93
        1
 44
0.0
173
     0
291
     1
 45
0.0
1001
ACAD
1000
AcDbSavedByObjectVersion
1070
     0
  0
VISUALSTYLE
  5
A7A
102
{ACAD_REACTORS
330
A6E
102
}
102
{ACAD_XDICTIONARY
360
AAA
102
}
330
A6E
100
AcDbVisualStyle
  2
Brighten
 70
    12
 71
     2
 72
     2
 73
     0
 90
        0
 40
0.6
 41
30.0
 62
     5
 63
     7
421
 16777215
 74
     1
 91
        4
 64
     7
 65
   257
 75
     1
175
     1
 42
1.0
 92
        8
 66
     7
 43
1.0
 76
     1
 77
     6
 78
     2
 67
     7
 79
     5
170
     0
171
     0
290
     0
174
     0
 93
        1
 44
50.0
173
     0
291
     1
 45
0.0
1001
ACAD
1000
AcDbSavedByObjectVersion
1070
     0
  0
VISUALSTYLE
  5
A7E
102
{ACAD_REACTORS
330
A6E
102
}
102
{ACAD_XDICTIONARY
360
AB2
102
}
330
A6E
100
AcDbVisualStyle
  2
ColorChange
 70
    16
 71
     2
 72
     2
 73
     3
 90
        0
 40
0.6
 41
30.0
 62
     5
 63
     8
421
  8421504
 74
     1
 91
        4
 64
     7
 65
   257
 75
     1
175
     1
 42
1.0
 92
        8
 66
     8
424
  8421504
 43
1.0
 76
     1
 77
     6
 78
     2
 67
     7
 79
     5
170
     0
171
     0
290
     0
174
     0
 93
        1
 44
0.0
173
     0
291
     1
 45
0.0
1001
ACAD
1000
AcDbSavedByObjectVersion
1070
     0
  0
VISUALSTYLE
  5
A78
102
{ACAD_REACTORS
330
A6E
102
}
102
{ACAD_XDICTIONARY
360
AA6
102
}
330
A6E
100
AcDbVisualStyle
  2
Conceptual
 70
     9
 71
     3
 72
     2
 73
     0
 90
        0
 40
0.6
 41
30.0
 62
     5
 63
     7
421
 16777215
 74
     2
 91
        2
 64
     7
 65
   257
 75
     1
175
     1
 42
179.0
 92
        8
 66
     7
 43
1.0
 76
     1
 77
     6
 78
     2
 67
     7
 79
     3
170
     0
171
     0
290
     0
174
     0
 93
        1
 44
0.0
173
     0
291
     0
 45
0.0
1001
ACAD
1000
AcDbSavedByObjectVersion
1070
     0
  0
VISUALSTYLE
  5
A79
102
{ACAD_REACTORS
330
A6E
102
}
102
{ACAD_XDICTIONARY
360
AA8
102
}
330
A6E
100
AcDbVisualStyle
  2
Dim
 70
    11
 71
     2
 72
     2
 73
     0
 90
        0
 40
0.6
 41
30.0
 62
     5
 63
     7
421
 16777215
 74
     1
 91
        4
 64
     7
 65
   257
 75
     1
175
     1
 42
1.0
 92
        8
 66
     7
 43
1.0
 76
     1
 77
     6
 78
     2
 67
     7
 79
     5
170
     0
171
     0
290
     0
174
     0
 93
        1
 44
-50.0
173
     0
291
     1
 45
0.0
1001
ACAD
1000
AcDbSavedByObjectVersion
1070
     0
  0
VISUALSTYLE
  5
A81
102
{ACAD_REACTORS
330
A6E
102
}
102
{ACAD_XDICTIONARY
360
AB8
102
}
330
A6E
100
AcDbVisualStyle
  2
EdgeColorOff
 70
    22
 71
     2
 72
     2
 73
     0
 90
        0
 40
0.6
 41
30.0
 62
     5
 63
     7
421
 16777215
 74
     1
 91
        4
 64
     7
 65
   257
 75
     1
175
     1
 42
1.0
 92
        8
 66
     7
 43
1.0
 76
     1
 77
     6
 78
     2
 67
     7
 79
     5
170
     0
171
     0
290
     0
174
     0
 93
        1
 44
0.0
173
     0
291
     1
 45
0.0
1001
ACAD
1000
AcDbSavedByObjectVersion
1070
     0
  0
VISUALSTYLE
  5
A7D
102
{ACAD_REACTORS
330
A6E
102
}
102
{ACAD_XDICTIONARY
360
AB0
102
}
330
A6E
100
AcDbVisualStyle
  2
Facepattern
 70
    15
 71
     2
 72
     2
 73
     0
 90
        0
 40
0.6
 41
30.0
 62
     5
 63
     7
421
 16777215
 74
     1
 91
        4
 64
     7
 65
   257
 75
     1
175
     1
 42
1.0
 92
        8
 66
     7
 43
1.0
 76
     1
 77
     6
 78
     2
 67
     7
 79
     5
170
     0
171
     0
290
     0
174
     0
 93
        1
 44
0.0
173
     0
291
     1
 45
0.0
1001
ACAD
1000
AcDbSavedByObjectVersion
1070
     0
  0
VISUALSTYLE
  5
A6F
102
{ACAD_REACTORS
330
A6E
102
}
102
{ACAD_XDICTIONARY
360
A94
102
}
330
A6E
100
AcDbVisualStyle
  2
Flat
 70
     0
 71
     2
 72
     1
 73
     1
 90
        2
 40
0.6
 41
30.0
 62
     5
 63
     7
421
 16777215
 74
     0
 91
        0
 64
     7
 65
   257
 75
     1
175
     1
 42
1.0
 92
        8
 66
     7
 43
1.0
 76
     1
 77
     6
 78
     2
 67
     7
 79
     5
170
     0
171
     0
290
     0
174
     0
 93
       13
 44
0.0
173
     0
291
     1
 45
0.0
1001
ACAD
1000
AcDbSavedByObjectVersion
1070
     0
  0
VISUALSTYLE
  5
A70
102
{ACAD_REACTORS
330
A6E
102
}
102
{ACAD_XDICTIONARY
360
A96
102
}
330
A6E
100
AcDbVisualStyle
  2
FlatWithEdges
 70
     1
 71
     2
 72
     1
 73
     1
 90
        2
 40
0.6
 41
30.0
 62
     5
 63
     7
421
 16777215
 74
     1
 91
        0
 64
     7
 65
   257
 75
     1
175
     1
 42
1.0
 92
        0
 66
   257
 43
1.0
 76
     1
 77
     6
 78
     2
 67
     7
 79
     5
170
     0
171
     0
290
     0
174
     0
 93
       13
 44
0.0
173
     0
291
     1
 45
0.0
1001
ACAD
1000
AcDbSavedByObjectVersion
1070
     0
  0
VISUALSTYLE
  5
A71
102
{ACAD_REACTORS
330
A6E
102
}
102
{ACAD_XDICTIONARY
360
A98
102
}
330
A6E
100
AcDbVisualStyle
  2
Gouraud
 70
     2
 71
     2
 72
     2
 73
     1
 90
        2
 40
0.6
 41
30.0
 62
     5
 63
     7
421
 16777215
 74
     0
 91
        0
 64
     7
 65
   257
 75
     1
175
     1
 42
1.0
 92
        0
 66
     7
 43
1.0
 76
     1
 77
     6
 78
     2
 67
     7
 79
     5
170
     0
171
     0
290
     0
174
     0
 93
       13
 44
0.0
173
     0
291
     1
 45
0.0
1001
ACAD
1000
AcDbSavedByObjectVersion
1070
     0
  0
VISUALSTYLE
  5
A72
102
{ACAD_REACTORS
330
A6E
102
}
102
{ACAD_XDICTIONARY
360
A9A
102
}
330
A6E
100
AcDbVisualStyle
  2
GouraudWithEdges
 70
     3
 71
     2
 72
     2
 73
     1
 90
        2
 40
0.6
 41
30.0
 62
     5
 63
     7
421
 16777215
 74
     1
 91
        0
 64
     7
 65
   257
 75
     1
175
     1
 42
1.0
 92
        0
 66
   257
 43
1.0
 76
     1
 77
     6
 78
     2
 67
     7
 79
     5
170
     0
171
     0
290
     0
174
     0
 93
       13
 44
0.0
173
     0
291
     1
 45
0.0
1001
ACAD
1000
AcDbSavedByObjectVersion
1070
     0
  0
VISUALSTYLE
  5
A75
102
{ACAD_REACTORS
330
A6E
102
}
102
{ACAD_XDICTIONARY
360
AA0
102
}
330
A6E
100
AcDbVisualStyle
  2
Hidden
 70
     6
 71
     1
 72
     2
 73
     2
 90
        0
 40
0.6
 41
30.0
 62
     5
 63
     7
421
 16777215
 74
     2
 91
        2
 64
     7
 65
   257
 75
     2
175
     1
 42
40.0
 92
        0
 66
   257
 43
1.0
 76
     1
 77
     6
 78
     2
 67
     7
 79
     3
170
     0
171
     0
290
     0
174
     0
 93
        1
 44
0.0
173
     0
291
     0
 45
0.0
1001
ACAD
1000
AcDbSavedByObjectVersion
1070
     0
  0
VISUALSTYLE
  5
A7F
102
{ACAD_REACTORS
330
A6E
102
}
102
{ACAD_XDICTIONARY
360
AB4
102
}
330
A6E
100
AcDbVisualStyle
  2
JitterOff
 70
    20
 71
     2
 72
     2
 73
     0
 90
        0
 40
0.6
 41
30.0
 62
     5
 63
     7
421
 16777215
 74
     1
 91
        4
 64
     7
 65
   257
 75
     1
175
     1
 42
1.0
 92
       10
 66
     7
 43
1.0
 76
     1
 77
     6
 78
     2
 67
     7
 79
     5
170
     0
171
     0
290
     0
174
     0
 93
        1
 44
0.0
173
     0
291
     1
 45
0.0
1001
ACAD
1000
AcDbSavedByObjectVersion
1070
     0
  0
VISUALSTYLE
  5
A7C
102
{ACAD_REACTORS
330
A6E
102
}
102
{ACAD_XDICTIONARY
360
AAE
102
}
330
A6E
100
AcDbVisualStyle
  2
Linepattern
 70
    14
 71
     2
 72
     2
 73
     0
 90
        0
 40
0.6
 41
30.0
 62
     5
 63
     7
421
 16777215
 74
     1
 91
        4
 64
     7
 65
   257
 75
     7
175
     7
 42
1.0
 92
        8
 66
     7
 43
1.0
 76
     1
 77
     6
 78
     2
 67
     7
 79
     5
170
     0
171
     0
290
     0
174
     0
 93
        1
 44
0.0
173
     0
291
     1
 45
0.0
1001
ACAD
1000
AcDbSavedByObjectVersion
1070
     0
  0
VISUALSTYLE
  5
A80
102
{ACAD_REACTORS
330
A6E
102
}
102
{ACAD_XDICTIONARY
360
AB6
102
}
330
A6E
100
AcDbVisualStyle
  2
OverhangOff
 70
    21
 71
     2
 72
     2
 73
     0
 90
        0
 40
0.6
 41
30.0
 62
     5
 63
     7
421
 16777215
 74
     1
 91
        4
 64
     7
 65
   257
 75
     1
175
     1
 42
1.0
 92
        9
 66
     7
 43
1.0
 76
     1
 77
     6
 78
     2
 67
     7
 79
     5
170
     0
171
     0
290
     0
174
     0
 93
        1
 44
0.0
173
     0
291
     1
 45
0.0
1001
ACAD
1000
AcDbSavedByObjectVersion
1070
     0
  0
VISUALSTYLE
  5
A77
102
{ACAD_REACTORS
330
A6E
102
}
102
{ACAD_XDICTIONARY
360
AA4
102
}
330
A6E
100
AcDbVisualStyle
  2
Realistic
 70
     8
 71
     2
 72
     3
 73
     0
 90
        2
 40
0.6
 41
30.0
 62
     5
 63
     7
421
 16777215
 74
     0
 91
        0
 64
     7
 65
   257
 75
     1
175
     1
 42
1.0
 92
        8
 66
   257
 43
1.0
 76
     1
 77
     6
 78
     2
 67
     7
 79
     3
170
     0
171
     0
290
     0
174
     0
 93
       13
 44
0.0
173
     0
291
     0
 45
0.0
1001
ACAD
1000
AcDbSavedByObjectVersion
1070
     0
  0
VISUALSTYLE
  5
A86
102
{ACAD_REACTORS
330
A6E
102
}
102
{ACAD_XDICTIONARY
360
AC2
102
}
330
A6E
100
AcDbVisualStyle
  2
Shaded
 70
    27
 71
     2
 72
     2
 73
     1
 90
        2
 40
0.6
 41
30.0
 62
     5
 63
     7
421
 16777215
 74
     0
 91
        4
 64
     7
 65
   257
 75
     1
175
     1
 42
1.0
 92
        8
 66
   257
 43
1.0
 76
     1
 77
     6
 78
     2
 67
     8
425
  7895160
 79
     3
170
     0
171
     0
290
     0
174
     0
 93
        5
 44
0.0
173
     0
291
     0
 45
0.0
1001
ACAD
1000
AcDbSavedByObjectVersion
1070
     0
  0
VISUALSTYLE
  5
A85
102
{ACAD_REACTORS
330
A6E
102
}
102
{ACAD_XDICTIONARY
360
AC0
102
}
330
A6E
100
AcDbVisualStyle
  2
Shaded with edges
 70
    26
 71
     2
 72
     2
 73
     1
 90
        2
 40
0.6
 41
30.0
 62
     5
 63
     7
421
 16777215
 74
     1
 91
       10
 64
     7
 65
   257
 75
     2
175
     1
 42
1.0
 92
        8
 66
   257
 43
1.0
 76
     1
 77
     6
 78
     2
 67
     7
 79
     3
170
     0
171
     0
290
     0
174
     0
 93
        5
 44
0.0
173
     0
291
     0
 45
0.0
1001
ACAD
1000
AcDbSavedByObjectVersion
1070
     0
  0
VISUALSTYLE
  5
A82
102
{ACAD_REACTORS
330
A6E
102
}
102
{ACAD_XDICTIONARY
360
ABA
102
}
330
A6E
100
AcDbVisualStyle
  2
Shades of Gray
 70
    23
 71
     2
 72
     2
 73
     3
 90
        0
 40
0.6
 41
30.0
 62
     5
 63
     7
421
 16777215
 74
     2
 91
        2
 64
     7
 65
     7
 75
     1
175
     1
 42
40.0
 92
        8
 66
     7
 43
1.0
 76
     1
 77
     6
 78
     2
 67
     7
 79
     3
170
     0
171
     0
290
     0
174
     0
 93
        1
 44
0.0
173
     0
291
     0
 45
0.0
1001
ACAD
1000
AcDbSavedByObjectVersion
1070
     0
  0
VISUALSTYLE
  5
A83
102
{ACAD_REACTORS
330
A6E
102
}
102
{ACAD_XDICTIONARY
360
ABC
102
}
330
A6E
100
AcDbVisualStyle
  2
Sketchy
 70
    24
 71
     1
 72
     2
 73
     2
 90
        0
 40
0.6
 41
30.0
 62
     5
 63
     7
421
 16777215
 74
     2
 91
        2
 64
     7
 65
     7
 75
     1
175
     1
 42
40.0
 92
       11
 66
     7
 43
1.0
 76
     1
 77
     6
 78
     2
 67
     7
 79
     6
170
     0
171
     0
290
     0
174
     0
 93
        1
 44
0.0
173
     0
291
     0
 45
0.0
1001
ACAD
1000
AcDbSavedByObjectVersion
1070
     0
  0
VISUALSTYLE
  5
A7B
102
{ACAD_REACTORS
330
A6E
102
}
102
{ACAD_XDICTIONARY
360
AAC
102
}
330
A6E
100
AcDbVisualStyle
  2
Thicken
 70
    13
 71
     2
 72
     2
 73
     0
 90
        0
 40
0.6
 41
30.0
 62
     5
 63
     7
421
 16777215
 74
     1
 91
        4
 64
     7
 65
   257
 75
     1
175
     1
 42
1.0
 92
       12
 66
     7
 43
1.0
 76
     1
 77
     6
 78
     2
 67
     7
 79
     5
170
     0
171
     0
290
     0
174
     0
 93
        1
 44
0.0
173
     0
291
     1
 45
0.0
1001
ACAD
1000
AcDbSavedByObjectVersion
1070
     0
  0
VISUALSTYLE
  5
A74
102
{ACAD_REACTORS
330
A6E
102
}
102
{ACAD_XDICTIONARY
360
A9E
102
}
330
A6E
100
AcDbVisualStyle
  2
Wireframe
 70
     5
 71
     0
 72
     2
 73
     0
 90
        0
 40
0.6
 41
30.0
 62
     5
 63
     7
421
 16777215
 74
     1
 91
        4
 64
     7
 65
   257
 75
     1
175
     1
 42
1.0
 92
        0
 66
   257
 43
1.0
 76
     1
 77
     6
 78
     2
 67
     7
 79
     3
170
     0
171
     0
290
     0
174
     0
 93
        1
 44
0.0
173
     0
291
     0
 45
0.0
1001
ACAD
1000
AcDbSavedByObjectVersion
1070
     0
  0
VISUALSTYLE
  5
A84
102
{ACAD_REACTORS
330
A6E
102
}
102
{ACAD_XDICTIONARY
360
ABE
102
}
330
A6E
100
AcDbVisualStyle
  2
X-Ray
 70
    25
 71
     2
 72
     2
 73
     1
 90
        1
 40
0.5
 41
30.0
 62
     5
 63
     7
421
 16777215
 74
     1
 91
        0
 64
     7
 65
   257
 75
     1
175
     1
 42
1.0
 92
        8
 66
     7
 43
1.0
 76
     1
 77
     6
 78
     2
 67
     7
 79
     3
170
     0
171
     0
290
     0
174
     0
 93
       13
 44
0.0
173
     0
291
     0
 45
0.0
1001
ACAD
1000
AcDbSavedByObjectVersion
1070
     0
  0
DICTIONARYVAR
  5
A92
102
{ACAD_REACTORS
330
A91
102
}
330
A91
100
DictionaryVariables
280
     0
  1
1:1
  0
DICTIONARYVAR
  5
AD2
102
{ACAD_REACTORS
330
A91
102
}
330
A91
100
DictionaryVariables
280
     0
  1
Standard
  0
DICTIONARYVAR
  5
AD1
102
{ACAD_REACTORS
330
A91
102
}
330
A91
100
DictionaryVariables
280
     0
  1
Standard
  0
DICTIONARYVAR
  5
AD3
102
{ACAD_REACTORS
330
A91
102
}
330
A91
100
DictionaryVariables
280
     0
  1
0
  0
DICTIONARYVAR
  5
A93
102
{ACAD_REACTORS
330
A91
102
}
330
A91
100
DictionaryVariables
280
     0
  1
2
  0
DICTIONARY
  5
AC6
330
A89
100
AcDbDictionary
280
     1
281
     1
  3
ACAD_XREC_ROUNDTRIP
360
AC7
  0
DICTIONARY
  5
AC4
330
A88
100
AcDbDictionary
280
     1
281
     1
  3
ACAD_XREC_ROUNDTRIP
360
AC5
  0
DICTIONARY
  5
AC8
330
A8A
100
AcDbDictionary
280
     1
281
     1
  3
ACAD_XREC_ROUNDTRIP
360
AC9
  0
DICTIONARY
  5
ACE
330
A8E
100
AcDbDictionary
280
     1
281
     1
  3
ACAD_XREC_ROUNDTRIP
360
ACF
  0
DICTIONARY
  5
ACA
330
A8C
100
AcDbDictionary
280
     1
281
     1
  3
ACAD_ROUNDTRIP_2008_TABLESTYLE_CELLSTYLEMAP
360
ACC
  3
ACAD_XREC_ROUNDTRIP
360
ACB
  0
DICTIONARY
  5
A9C
330
A73
100
AcDbDictionary
280
     1
281
     1
  3
ACAD_XREC_ROUNDTRIP
360
A9D
  0
DICTIONARY
  5
AA2
330
A76
100
AcDbDictionary
280
     1
281
     1
  3
ACAD_XREC_ROUNDTRIP
360
AA3
  0
DICTIONARY
  5
AAA
330
A7A
100
AcDbDictionary
280
     1
281
     1
  3
ACAD_XREC_ROUNDTRIP
360
AAB
  0
DICTIONARY
  5
AB2
330
A7E
100
AcDbDictionary
280
     1
281
     1
  3
ACAD_XREC_ROUNDTRIP
360
AB3
  0
DICTIONARY
  5
AA6
330
A78
100
AcDbDictionary
280
     1
281
     1
  3
ACAD_XREC_ROUNDTRIP
360
AA7
  0
DICTIONARY
  5
AA8
330
A79
100
AcDbDictionary
280
     1
281
     1
  3
ACAD_XREC_ROUNDTRIP
360
AA9
  0
DICTIONARY
  5
AB8
330
A81
100
AcDbDictionary
280
     1
281
     1
  3
ACAD_XREC_ROUNDTRIP
360
AB9
  0
DICTIONARY
  5
AB0
330
A7D
100
AcDbDictionary
280
     1
281
     1
  3
ACAD_XREC_ROUNDTRIP
360
AB1
  0
DICTIONARY
  5
A94
330
A6F
100
AcDbDictionary
280
     1
281
     1
  3
ACAD_XREC_ROUNDTRIP
360
A95
  0
DICTIONARY
  5
A96
330
A70
100
AcDbDictionary
280
     1
281
     1
  3
ACAD_XREC_ROUNDTRIP
360
A97
  0
DICTIONARY
  5
A98
330
A71
100
AcDbDictionary
280
     1
281
     1
  3
ACAD_XREC_ROUNDTRIP
360
A99
  0
DICTIONARY
  5
A9A
330
A72
100
AcDbDictionary
280
     1
281
     1
  3
ACAD_XREC_ROUNDTRIP
360
A9B
  0
DICTIONARY
  5
AA0
330
A75
100
AcDbDictionary
280
     1
281
     1
  3
ACAD_XREC_ROUNDTRIP
360
AA1
  0
DICTIONARY
  5
AB4
330
A7F
100
AcDbDictionary
280
     1
281
     1
  3
ACAD_XREC_ROUNDTRIP
360
AB5
  0
DICTIONARY
  5
AAE
330
A7C
100
AcDbDictionary
280
     1
281
     1
  3
ACAD_XREC_ROUNDTRIP
360
AAF
  0
DICTIONARY
  5
AB6
330
A80
100
AcDbDictionary
280
     1
281
     1
  3
ACAD_XREC_ROUNDTRIP
360
AB7
  0
DICTIONARY
  5
AA4
330
A77
100
AcDbDictionary
280
     1
281
     1
  3
ACAD_XREC_ROUNDTRIP
360
AA5
  0
DICTIONARY
  5
AC2
330
A86
100
AcDbDictionary
280
     1
281
     1
  3
ACAD_XREC_ROUNDTRIP
360
AC3
  0
DICTIONARY
  5
AC0
330
A85
100
AcDbDictionary
280
     1
281
     1
  3
ACAD_XREC_ROUNDTRIP
360
AC1
  0
DICTIONARY
  5
ABA
330
A82
100
AcDbDictionary
280
     1
281
     1
  3
ACAD_XREC_ROUNDTRIP
360
ABB
  0
DICTIONARY
  5
ABC
330
A83
100
AcDbDictionary
280
     1
281
     1
  3
ACAD_XREC_ROUNDTRIP
360
ABD
  0
DICTIONARY
  5
AAC
330
A7B
100
AcDbDictionary
280
     1
281
     1
  3
ACAD_XREC_ROUNDTRIP
360
AAD
  0
DICTIONARY
  5
A9E
330
A74
100
AcDbDictionary
280
     1
281
     1
  3
ACAD_XREC_ROUNDTRIP
360
A9F
  0
DICTIONARY
  5
ABE
330
A84
100
AcDbDictionary
280
     1
281
     1
  3
ACAD_XREC_ROUNDTRIP
360
ABF
  0
XRECORD
  5
AC7
102
{ACAD_REACTORS
330
AC6
102
}
330
AC6
100
AcDbXrecord
280
     1
102
MATERIAL
148
0.0
149
0.0
149
0.0
 93
        0
 94
      127
282
     0
 72
     1
 77
     1
171
     1
175
     1
179
     1
273
     0
  0
XRECORD
  5
AC5
102
{ACAD_REACTORS
330
AC4
102
}
330
AC4
100
AcDbXrecord
280
     1
102
MATERIAL
148
0.0
149
0.0
149
0.0
 93
        0
 94
      127
282
     0
 72
     1
 77
     1
171
     1
175
     1
179
     1
273
     0
  0
XRECORD
  5
AC9
102
{ACAD_REACTORS
330
AC8
102
}
330
AC8
100
AcDbXrecord
280
     1
102
MATERIAL
148
0.0
149
0.0
149
0.0
 93
        0
 94
      127
282
     0
 72
     1
 77
     1
171
     1
175
     1
179
     1
273
     0
  0
XRECORD
  5
ACF
102
{ACAD_REACTORS
330
ACE
102
}
330
ACE
100
AcDbXrecord
280
     1
102
ACAD_ROUNDTRIP_2010_MLEADER_STYLE
  0
CELLSTYLEMAP
  5
ACC
102
{ACAD_REACTORS
330
ACA
102
}
330
ACA
100
AcDbCellStyleMap
 90
        3
300
CELLSTYLE
  1
TABLEFORMAT_BEGIN
 90
        5
170
     1
 91
        0
 92
    32768
 62
   257
 93
        1
300
CONTENTFORMAT
  1
CONTENTFORMAT_BEGIN
 90
        0
 91
        0
 92
        4
 93
        0
300

 40
0.0
140
1.0
 94
        5
 62
     0
340
11
144
0.25
309
CONTENTFORMAT_END
171
     1
301
MARGIN
  1
CELLMARGIN_BEGIN
 40
0.06
 40
0.06
 40
0.06
 40
0.06
 40
0.06
 40
0.06
309
CELLMARGIN_END
 94
        6
 95
        1
302
GRIDFORMAT
  1
GRIDFORMAT_BEGIN
 90
        0
 91
        1
 62
     0
 92
       -2
340
14
 93
        0
 40
0.045
309
GRIDFORMAT_END
 95
        2
302
GRIDFORMAT
  1
GRIDFORMAT_BEGIN
 90
        0
 91
        1
 62
     0
 92
       -2
340
14
 93
        0
 40
0.045
309
GRIDFORMAT_END
 95
        4
302
GRIDFORMAT
  1
GRIDFORMAT_BEGIN
 90
        0
 91
        1
 62
     0
 92
       -2
340
14
 93
        0
 40
0.045
309
GRIDFORMAT_END
 95
        8
302
GRIDFORMAT
  1
GRIDFORMAT_BEGIN
 90
        0
 91
        1
 62
     0
 92
       -2
340
14
 93
        0
 40
0.045
309
GRIDFORMAT_END
 95
       16
302
GRIDFORMAT
  1
GRIDFORMAT_BEGIN
 90
        0
 91
        1
 62
     0
 92
       -2
340
14
 93
        0
 40
0.045
309
GRIDFORMAT_END
 95
       32
302
GRIDFORMAT
  1
GRIDFORMAT_BEGIN
 90
        0
 91
        1
 62
     0
 92
       -2
340
14
 93
        0
 40
0.045
309
GRIDFORMAT_END
309
TABLEFORMAT_END
  1
CELLSTYLE_BEGIN
 90
        1
 91
        1
300
_TITLE
309
CELLSTYLE_END
300
CELLSTYLE
  1
TABLEFORMAT_BEGIN
 90
        5
170
     1
 91
        0
 92
        0
 62
   257
 93
        1
300
CONTENTFORMAT
  1
CONTENTFORMAT_BEGIN
 90
        0
 91
        0
 92
        4
 93
        0
300

 40
0.0
140
1.0
 94
        5
 62
     0
340
11
144
0.18
309
CONTENTFORMAT_END
171
     1
301
MARGIN
  1
CELLMARGIN_BEGIN
 40
0.06
 40
0.06
 40
0.06
 40
0.06
 40
0.06
 40
0.06
309
CELLMARGIN_END
 94
        6
 95
        1
302
GRIDFORMAT
  1
GRIDFORMAT_BEGIN
 90
        0
 91
        1
 62
     0
 92
       -2
340
14
 93
        0
 40
0.045
309
GRIDFORMAT_END
 95
        2
302
GRIDFORMAT
  1
GRIDFORMAT_BEGIN
 90
        0
 91
        1
 62
     0
 92
       -2
340
14
 93
        0
 40
0.045
309
GRIDFORMAT_END
 95
        4
302
GRIDFORMAT
  1
GRIDFORMAT_BEGIN
 90
        0
 91
        1
 62
     0
 92
       -2
340
14
 93
        0
 40
0.045
309
GRIDFORMAT_END
 95
        8
302
GRIDFORMAT
  1
GRIDFORMAT_BEGIN
 90
        0
 91
        1
 62
     0
 92
       -2
340
14
 93
        0
 40
0.045
309
GRIDFORMAT_END
 95
       16
302
GRIDFORMAT
  1
GRIDFORMAT_BEGIN
 90
        0
 91
        1
 62
     0
 92
       -2
340
14
 93
        0
 40
0.045
309
GRIDFORMAT_END
 95
       32
302
GRIDFORMAT
  1
GRIDFORMAT_BEGIN
 90
        0
 91
        1
 62
     0
 92
       -2
340
14
 93
        0
 40
0.045
309
GRIDFORMAT_END
309
TABLEFORMAT_END
  1
CELLSTYLE_BEGIN
 90
        2
 91
        1
300
_HEADER
309
CELLSTYLE_END
300
CELLSTYLE
  1
TABLEFORMAT_BEGIN
 90
        5
170
     1
 91
        0
 92
        0
 62
   257
 93
        1
300
CONTENTFORMAT
  1
CONTENTFORMAT_BEGIN
 90
        0
 91
        0
 92
        4
 93
        0
300

 40
0.0
140
1.0
 94
        2
 62
     0
340
11
144
0.18
309
CONTENTFORMAT_END
171
     1
301
MARGIN
  1
CELLMARGIN_BEGIN
 40
0.06
 40
0.06
 40
0.06
 40
0.06
 40
0.06
 40
0.06
309
CELLMARGIN_END
 94
        6
 95
        1
302
GRIDFORMAT
  1
GRIDFORMAT_BEGIN
 90
        0
 91
        1
 62
     0
 92
       -2
340
14
 93
        0
 40
0.045
309
GRIDFORMAT_END
 95
        2
302
GRIDFORMAT
  1
GRIDFORMAT_BEGIN
 90
        0
 91
        1
 62
     0
 92
       -2
340
14
 93
        0
 40
0.045
309
GRIDFORMAT_END
 95
        4
302
GRIDFORMAT
  1
GRIDFORMAT_BEGIN
 90
        0
 91
        1
 62
     0
 92
       -2
340
14
 93
        0
 40
0.045
309
GRIDFORMAT_END
 95
        8
302
GRIDFORMAT
  1
GRIDFORMAT_BEGIN
 90
        0
 91
        1
 62
     0
 92
       -2
340
14
 93
        0
 40
0.045
309
GRIDFORMAT_END
 95
       16
302
GRIDFORMAT
  1
GRIDFORMAT_BEGIN
 90
        0
 91
        1
 62
     0
 92
       -2
340
14
 93
        0
 40
0.045
309
GRIDFORMAT_END
 95
       32
302
GRIDFORMAT
  1
GRIDFORMAT_BEGIN
 90
        0
 91
        1
 62
     0
 92
       -2
340
14
 93
        0
 40
0.045
309
GRIDFORMAT_END
309
TABLEFORMAT_END
  1
CELLSTYLE_BEGIN
 90
        3
 91
        2
300
_DATA
309
CELLSTYLE_END
  0
XRECORD
  5
ACB
102
{ACAD_REACTORS
330
ACA
102
}
330
ACA
100
AcDbXrecord
280
     1
102
ACAD_ROUNDTRIP_PRE2007_TABLESTYLE
 90
        4
 91
        0
  1

 92
        4
 93
        0
  2

 94
        4
 95
        0
  3

  0
XRECORD
  5
A9D
102
{ACAD_REACTORS
330
A9C
102
}
330
A9C
100
AcDbXrecord
280
     1
102
RTVSPropertyOp0
 70
     1
102
RTVSPropertyOp1
 70
     1
102
RTVSPropertyOp2
 70
     1
102
RTVSPropertyOp3
 70
     1
102
RTVSPropertyOp4
 70
     1
102
RTVSPropertyOp5
 70
     1
102
RTVSPropertyOp6
 70
     1
102
RTVSPropertyOp7
 70
     1
102
RTVSPropertyOp8
 70
     1
102
RTVSPropertyOp9
 70
     1
102
RTVSPropertyOp10
 70
     1
102
RTVSPropertyOp11
 70
     1
102
RTVSPropertyOp12
 70
     1
102
RTVSPropertyOp13
 70
     1
102
RTVSPropertyOp14
 70
     1
102
RTVSPropertyOp15
 70
     1
102
RTVSPropertyOp16
 70
     1
102
RTVSPropertyOp17
 70
     1
102
RTVSPropertyOp18
 70
     1
102
RTVSPropertyOp19
 70
     1
102
RTVSPropertyOp20
 70
     1
102
RTVSPropertyOp21
 70
     1
102
RTVSPropertyOp22
 70
     1
102
RTVSPropertyOp23
 70
     1
102
RTVSPropertyOp24
 70
     1
102
RTVSPropertyOp25
 70
     1
102
RTVSPropertyOp26
 70
     1
102
RTVSPropertyOp27
 70
     1
102
RTVSPropertyOp28
 70
     1
102
RTVSPropertyOp29
 70
     1
102
RTVSPropertyOp30
 70
     1
102
RTVSPropertyOp31
 70
     1
102
RTVSPropertyOp32
 70
     1
102
RTVSPropertyOp33
 70
     1
102
RTVSPropertyOp34
 70
     1
102
RTVSPropertyOp35
 70
     1
102
RTVSPropertyOp36
 70
     1
102
RTVSPropertyOp37
 70
     1
102
RTVSPropertyOp38
 70
     1
102
RTVSPropertyOp39
 70
     1
102
RTVSPropertyOp40
 70
     1
102
RTVSPropertyOp41
 70
     1
102
RTVSPropertyOp42
 70
     1
102
RTVSPropertyOp43
 70
     1
102
RTVSPropertyOp44
 70
     1
102
RTVSPropertyOp45
 70
     1
102
RTVSPropertyOp46
 70
     1
102
RTVSPropertyOp47
 70
     1
102
RTVSPropertyOp48
 70
     1
102
RTVSPropertyOp49
 70
     1
102
RTVSPropertyOp50
 70
     1
102
RTVSPropertyOp51
 70
     0
102
RTVSPropertyOp52
 70
     0
102
RTVSPropertyOp53
 70
     1
102
RTVSPropertyOp54
 70
     1
102
RTVSPropertyOp55
 70
     1
102
RTVSPropertyOp56
 70
     1
102
RTVSPropertyOp57
 70
     1
102
RTVSPost2010Prop28
280
     1
102
RTVSPost2010PropOp28
 70
     1
102
RTVSPost2010Prop29
280
     1
102
RTVSPost2010PropOp29
 70
     1
102
RTVSPost2010Prop30
280
     0
102
RTVSPost2010PropOp30
 70
     1
102
RTVSPost2010Prop31
280
     0
102
RTVSPost2010PropOp31
 70
     1
102
RTVSPost2010Prop32
280
     0
102
RTVSPost2010PropOp32
 70
     1
102
RTVSPost2010Prop33
280
     0
102
RTVSPost2010PropOp33
 70
     1
102
RTVSPost2010Prop34
280
     0
102
RTVSPost2010PropOp34
 70
     1
102
RTVSPost2010Prop35
280
     0
102
RTVSPost2010PropOp35
 70
     1
102
RTVSPost2010Prop36
280
     0
102
RTVSPost2010PropOp36
 70
     1
102
RTVSPost2010Prop37
 90
       50
102
RTVSPost2010PropOp37
 70
     1
102
RTVSPost2010Prop38
140
0.0
102
RTVSPost2010PropOp38
 70
     1
102
RTVSPost2010Prop39
140
1.0
102
RTVSPost2010PropOp39
 70
     1
102
RTVSPost2010Prop40
 90
        0
102
RTVSPost2010PropOp40
 70
     1
102
RTVSPost2010Prop41ColorIndex
 90
       18
102
RTVSPost2010Prop41ColorRGB
 90
        0
102
RTVSPost2010PropOp41
 70
     1
102
RTVSPost2010Prop42
 90
       50
102
RTVSPost2010PropOp42
 70
     1
102
RTVSPost2010Prop43
 90
        3
102
RTVSPost2010PropOp43
 70
     1
102
RTVSPost2010Prop44ColorIndex
 90
        5
102
RTVSPost2010Prop44ColorRGB
 90
      255
102
RTVSPost2010PropOp44
 70
     1
102
RTVSPost2010Prop45
280
     0
102
RTVSPost2010PropOp45
 70
     1
102
RTVSPost2010Prop46
 90
       50
102
RTVSPost2010PropOp46
 70
     1
102
RTVSPost2010Prop47
 90
       50
102
RTVSPost2010PropOp47
 70
     1
102
RTVSPost2010Prop48
 90
       50
102
RTVSPost2010PropOp48
 70
     1
102
RTVSPost2010Prop49
280
     0
102
RTVSPost2010PropOp49
 70
     1
102
RTVSPost2010Prop50
 90
       50
102
RTVSPost2010PropOp50
 70
     1
102
RTVSPost2010Prop51ColorIndex
 90
      256
102
RTVSPost2010Prop51ColorRGB
 90
-16777216
102
RTVSPost2010PropOp51
 70
     0
102
RTVSPost2010Prop52
140
1.0
102
RTVSPost2010PropOp52
 70
     0
102
RTVSPost2010Prop53
 90
        2
102
RTVSPost2010PropOp53
 70
     1
102
RTVSPost2010Prop54
  1
strokes_ogs.tif
102
RTVSPost2010PropOp54
 70
     1
102
RTVSPost2010Prop55
280
     0
102
RTVSPost2010PropOp55
 70
     1
102
RTVSPost2010Prop56
140
1.0
102
RTVSPost2010PropOp56
 70
     1
102
RTVSPost2010Prop57
140
1.0
102
RTVSPost2010PropOp57
 70
     1
  0
XRECORD
  5
AA3
102
{ACAD_REACTORS
330
AA2
102
}
330
AA2
100
AcDbXrecord
280
     1
102
RTVSPropertyOp0
 70
     1
102
RTVSPropertyOp1
 70
     1
102
RTVSPropertyOp2
 70
     1
102
RTVSPropertyOp3
 70
     1
102
RTVSPropertyOp4
 70
     1
102
RTVSPropertyOp5
 70
     1
102
RTVSPropertyOp6
 70
     1
102
RTVSPropertyOp7
 70
     1
102
RTVSPropertyOp8
 70
     1
102
RTVSPropertyOp9
 70
     1
102
RTVSPropertyOp10
 70
     1
102
RTVSPropertyOp11
 70
     1
102
RTVSPropertyOp12
 70
     1
102
RTVSPropertyOp13
 70
     1
102
RTVSPropertyOp14
 70
     1
102
RTVSPropertyOp15
 70
     1
102
RTVSPropertyOp16
 70
     1
102
RTVSPropertyOp17
 70
     1
102
RTVSPropertyOp18
 70
     1
102
RTVSPropertyOp19
 70
     1
102
RTVSPropertyOp20
 70
     1
102
RTVSPropertyOp21
 70
     1
102
RTVSPropertyOp22
 70
     1
102
RTVSPropertyOp23
 70
     1
102
RTVSPropertyOp24
 70
     1
102
RTVSPropertyOp25
 70
     1
102
RTVSPropertyOp26
 70
     1
102
RTVSPropertyOp27
 70
     1
102
RTVSPropertyOp28
 70
     1
102
RTVSPropertyOp29
 70
     1
102
RTVSPropertyOp30
 70
     1
102
RTVSPropertyOp31
 70
     1
102
RTVSPropertyOp32
 70
     1
102
RTVSPropertyOp33
 70
     1
102
RTVSPropertyOp34
 70
     1
102
RTVSPropertyOp35
 70
     1
102
RTVSPropertyOp36
 70
     1
102
RTVSPropertyOp37
 70
     1
102
RTVSPropertyOp38
 70
     1
102
RTVSPropertyOp39
 70
     1
102
RTVSPropertyOp40
 70
     1
102
RTVSPropertyOp41
 70
     1
102
RTVSPropertyOp42
 70
     1
102
RTVSPropertyOp43
 70
     1
102
RTVSPropertyOp44
 70
     1
102
RTVSPropertyOp45
 70
     1
102
RTVSPropertyOp46
 70
     1
102
RTVSPropertyOp47
 70
     1
102
RTVSPropertyOp48
 70
     1
102
RTVSPropertyOp49
 70
     1
102
RTVSPropertyOp50
 70
     1
102
RTVSPropertyOp51
 70
     0
102
RTVSPropertyOp52
 70
     0
102
RTVSPropertyOp53
 70
     1
102
RTVSPropertyOp54
 70
     1
102
RTVSPropertyOp55
 70
     1
102
RTVSPropertyOp56
 70
     1
102
RTVSPropertyOp57
 70
     1
102
RTVSPost2010Prop28
280
     0
102
RTVSPost2010PropOp28
 70
     1
102
RTVSPost2010Prop29
280
     1
102
RTVSPost2010PropOp29
 70
     1
102
RTVSPost2010Prop30
280
     1
102
RTVSPost2010PropOp30
 70
     1
102
RTVSPost2010Prop31
280
     0
102
RTVSPost2010PropOp31
 70
     1
102
RTVSPost2010Prop32
280
     0
102
RTVSPost2010PropOp32
 70
     1
102
RTVSPost2010Prop33
280
     0
102
RTVSPost2010PropOp33
 70
     1
102
RTVSPost2010Prop34
280
     0
102
RTVSPost2010PropOp34
 70
     1
102
RTVSPost2010Prop35
280
     0
102
RTVSPost2010PropOp35
 70
     1
102
RTVSPost2010Prop36
280
     0
102
RTVSPost2010PropOp36
 70
     1
102
RTVSPost2010Prop37
 90
       50
102
RTVSPost2010PropOp37
 70
     1
102
RTVSPost2010Prop38
140
0.0
102
RTVSPost2010PropOp38
 70
     1
102
RTVSPost2010Prop39
140
1.0
102
RTVSPost2010PropOp39
 70
     1
102
RTVSPost2010Prop40
 90
        0
102
RTVSPost2010PropOp40
 70
     1
102
RTVSPost2010Prop41ColorIndex
 90
       18
102
RTVSPost2010Prop41ColorRGB
 90
        0
102
RTVSPost2010PropOp41
 70
     1
102
RTVSPost2010Prop42
 90
       50
102
RTVSPost2010PropOp42
 70
     1
102
RTVSPost2010Prop43
 90
        3
102
RTVSPost2010PropOp43
 70
     1
102
RTVSPost2010Prop44ColorIndex
 90
        5
102
RTVSPost2010Prop44ColorRGB
 90
      255
102
RTVSPost2010PropOp44
 70
     1
102
RTVSPost2010Prop45
280
     0
102
RTVSPost2010PropOp45
 70
     1
102
RTVSPost2010Prop46
 90
       50
102
RTVSPost2010PropOp46
 70
     1
102
RTVSPost2010Prop47
 90
       50
102
RTVSPost2010PropOp47
 70
     1
102
RTVSPost2010Prop48
 90
       50
102
RTVSPost2010PropOp48
 70
     1
102
RTVSPost2010Prop49
280
     0
102
RTVSPost2010PropOp49
 70
     1
102
RTVSPost2010Prop50
 90
       50
102
RTVSPost2010PropOp50
 70
     1
102
RTVSPost2010Prop51ColorIndex
 90
      256
102
RTVSPost2010Prop51ColorRGB
 90
-16777216
102
RTVSPost2010PropOp51
 70
     0
102
RTVSPost2010Prop52
140
1.0
102
RTVSPost2010PropOp52
 70
     0
102
RTVSPost2010Prop53
 90
        2
102
RTVSPost2010PropOp53
 70
     1
102
RTVSPost2010Prop54
  1
strokes_ogs.tif
102
RTVSPost2010PropOp54
 70
     1
102
RTVSPost2010Prop55
280
     0
102
RTVSPost2010PropOp55
 70
     1
102
RTVSPost2010Prop56
140
1.0
102
RTVSPost2010PropOp56
 70
     1
102
RTVSPost2010Prop57
140
1.0
102
RTVSPost2010PropOp57
 70
     1
  0
XRECORD
  5
AAB
102
{ACAD_REACTORS
330
AAA
102
}
330
AAA
100
AcDbXrecord
280
     1
102
RTVSPropertyOp0
 70
     1
102
RTVSPropertyOp1
 70
     1
102
RTVSPropertyOp2
 70
     1
102
RTVSPropertyOp3
 70
     1
102
RTVSPropertyOp4
 70
     1
102
RTVSPropertyOp5
 70
     1
102
RTVSPropertyOp6
 70
     1
102
RTVSPropertyOp7
 70
     1
102
RTVSPropertyOp8
 70
     1
102
RTVSPropertyOp9
 70
     1
102
RTVSPropertyOp10
 70
     1
102
RTVSPropertyOp11
 70
     1
102
RTVSPropertyOp12
 70
     1
102
RTVSPropertyOp13
 70
     1
102
RTVSPropertyOp14
 70
     1
102
RTVSPropertyOp15
 70
     1
102
RTVSPropertyOp16
 70
     1
102
RTVSPropertyOp17
 70
     1
102
RTVSPropertyOp18
 70
     1
102
RTVSPropertyOp19
 70
     1
102
RTVSPropertyOp20
 70
     1
102
RTVSPropertyOp21
 70
     1
102
RTVSPropertyOp22
 70
     1
102
RTVSPropertyOp23
 70
     1
102
RTVSPropertyOp24
 70
     1
102
RTVSPropertyOp25
 70
     1
102
RTVSPropertyOp26
 70
     1
102
RTVSPropertyOp27
 70
     1
102
RTVSPropertyOp28
 70
     1
102
RTVSPropertyOp29
 70
     1
102
RTVSPropertyOp30
 70
     1
102
RTVSPropertyOp31
 70
     1
102
RTVSPropertyOp32
 70
     1
102
RTVSPropertyOp33
 70
     1
102
RTVSPropertyOp34
 70
     1
102
RTVSPropertyOp35
 70
     1
102
RTVSPropertyOp36
 70
     1
102
RTVSPropertyOp37
 70
     1
102
RTVSPropertyOp38
 70
     1
102
RTVSPropertyOp39
 70
     1
102
RTVSPropertyOp40
 70
     1
102
RTVSPropertyOp41
 70
     1
102
RTVSPropertyOp42
 70
     1
102
RTVSPropertyOp43
 70
     1
102
RTVSPropertyOp44
 70
     1
102
RTVSPropertyOp45
 70
     1
102
RTVSPropertyOp46
 70
     1
102
RTVSPropertyOp47
 70
     1
102
RTVSPropertyOp48
 70
     1
102
RTVSPropertyOp49
 70
     1
102
RTVSPropertyOp50
 70
     1
102
RTVSPropertyOp51
 70
     0
102
RTVSPropertyOp52
 70
     0
102
RTVSPropertyOp53
 70
     1
102
RTVSPropertyOp54
 70
     1
102
RTVSPropertyOp55
 70
     1
102
RTVSPropertyOp56
 70
     1
102
RTVSPropertyOp57
 70
     1
102
RTVSPost2010Prop28
280
     0
102
RTVSPost2010PropOp28
 70
     1
102
RTVSPost2010Prop29
280
     1
102
RTVSPost2010PropOp29
 70
     1
102
RTVSPost2010Prop30
280
     1
102
RTVSPost2010PropOp30
 70
     1
102
RTVSPost2010Prop31
280
     0
102
RTVSPost2010PropOp31
 70
     1
102
RTVSPost2010Prop32
280
     0
102
RTVSPost2010PropOp32
 70
     1
102
RTVSPost2010Prop33
280
     0
102
RTVSPost2010PropOp33
 70
     1
102
RTVSPost2010Prop34
280
     0
102
RTVSPost2010PropOp34
 70
     1
102
RTVSPost2010Prop35
280
     0
102
RTVSPost2010PropOp35
 70
     1
102
RTVSPost2010Prop36
280
     0
102
RTVSPost2010PropOp36
 70
     1
102
RTVSPost2010Prop37
 90
       50
102
RTVSPost2010PropOp37
 70
     1
102
RTVSPost2010Prop38
140
0.0
102
RTVSPost2010PropOp38
 70
     1
102
RTVSPost2010Prop39
140
1.0
102
RTVSPost2010PropOp39
 70
     1
102
RTVSPost2010Prop40
 90
        0
102
RTVSPost2010PropOp40
 70
     1
102
RTVSPost2010Prop41ColorIndex
 90
       18
102
RTVSPost2010Prop41ColorRGB
 90
        0
102
RTVSPost2010PropOp41
 70
     1
102
RTVSPost2010Prop42
 90
       50
102
RTVSPost2010PropOp42
 70
     1
102
RTVSPost2010Prop43
 90
        3
102
RTVSPost2010PropOp43
 70
     1
102
RTVSPost2010Prop44ColorIndex
 90
        5
102
RTVSPost2010Prop44ColorRGB
 90
      255
102
RTVSPost2010PropOp44
 70
     1
102
RTVSPost2010Prop45
280
     0
102
RTVSPost2010PropOp45
 70
     1
102
RTVSPost2010Prop46
 90
       50
102
RTVSPost2010PropOp46
 70
     1
102
RTVSPost2010Prop47
 90
       50
102
RTVSPost2010PropOp47
 70
     1
102
RTVSPost2010Prop48
 90
       50
102
RTVSPost2010PropOp48
 70
     1
102
RTVSPost2010Prop49
280
     0
102
RTVSPost2010PropOp49
 70
     1
102
RTVSPost2010Prop50
 90
       50
102
RTVSPost2010PropOp50
 70
     1
102
RTVSPost2010Prop51ColorIndex
 90
      256
102
RTVSPost2010Prop51ColorRGB
 90
-16777216
102
RTVSPost2010PropOp51
 70
     0
102
RTVSPost2010Prop52
140
1.0
102
RTVSPost2010PropOp52
 70
     0
102
RTVSPost2010Prop53
 90
        2
102
RTVSPost2010PropOp53
 70
     1
102
RTVSPost2010Prop54
  1
strokes_ogs.tif
102
RTVSPost2010PropOp54
 70
     1
102
RTVSPost2010Prop55
280
     0
102
RTVSPost2010PropOp55
 70
     1
102
RTVSPost2010Prop56
140
1.0
102
RTVSPost2010PropOp56
 70
     1
102
RTVSPost2010Prop57
140
1.0
102
RTVSPost2010PropOp57
 70
     1
  0
XRECORD
  5
AB3
102
{ACAD_REACTORS
330
AB2
102
}
330
AB2
100
AcDbXrecord
280
     1
102
RTVSPropertyOp0
 70
     1
102
RTVSPropertyOp1
 70
     1
102
RTVSPropertyOp2
 70
     1
102
RTVSPropertyOp3
 70
     1
102
RTVSPropertyOp4
 70
     1
102
RTVSPropertyOp5
 70
     1
102
RTVSPropertyOp6
 70
     1
102
RTVSPropertyOp7
 70
     1
102
RTVSPropertyOp8
 70
     1
102
RTVSPropertyOp9
 70
     1
102
RTVSPropertyOp10
 70
     1
102
RTVSPropertyOp11
 70
     1
102
RTVSPropertyOp12
 70
     1
102
RTVSPropertyOp13
 70
     1
102
RTVSPropertyOp14
 70
     1
102
RTVSPropertyOp15
 70
     1
102
RTVSPropertyOp16
 70
     1
102
RTVSPropertyOp17
 70
     1
102
RTVSPropertyOp18
 70
     1
102
RTVSPropertyOp19
 70
     1
102
RTVSPropertyOp20
 70
     1
102
RTVSPropertyOp21
 70
     1
102
RTVSPropertyOp22
 70
     1
102
RTVSPropertyOp23
 70
     1
102
RTVSPropertyOp24
 70
     1
102
RTVSPropertyOp25
 70
     1
102
RTVSPropertyOp26
 70
     1
102
RTVSPropertyOp27
 70
     1
102
RTVSPropertyOp28
 70
     1
102
RTVSPropertyOp29
 70
     1
102
RTVSPropertyOp30
 70
     1
102
RTVSPropertyOp31
 70
     1
102
RTVSPropertyOp32
 70
     1
102
RTVSPropertyOp33
 70
     1
102
RTVSPropertyOp34
 70
     1
102
RTVSPropertyOp35
 70
     1
102
RTVSPropertyOp36
 70
     1
102
RTVSPropertyOp37
 70
     1
102
RTVSPropertyOp38
 70
     1
102
RTVSPropertyOp39
 70
     1
102
RTVSPropertyOp40
 70
     1
102
RTVSPropertyOp41
 70
     1
102
RTVSPropertyOp42
 70
     1
102
RTVSPropertyOp43
 70
     1
102
RTVSPropertyOp44
 70
     1
102
RTVSPropertyOp45
 70
     1
102
RTVSPropertyOp46
 70
     1
102
RTVSPropertyOp47
 70
     1
102
RTVSPropertyOp48
 70
     1
102
RTVSPropertyOp49
 70
     1
102
RTVSPropertyOp50
 70
     1
102
RTVSPropertyOp51
 70
     0
102
RTVSPropertyOp52
 70
     0
102
RTVSPropertyOp53
 70
     1
102
RTVSPropertyOp54
 70
     1
102
RTVSPropertyOp55
 70
     1
102
RTVSPropertyOp56
 70
     1
102
RTVSPropertyOp57
 70
     1
102
RTVSPost2010Prop28
280
     0
102
RTVSPost2010PropOp28
 70
     1
102
RTVSPost2010Prop29
280
     1
102
RTVSPost2010PropOp29
 70
     1
102
RTVSPost2010Prop30
280
     1
102
RTVSPost2010PropOp30
 70
     1
102
RTVSPost2010Prop31
280
     0
102
RTVSPost2010PropOp31
 70
     1
102
RTVSPost2010Prop32
280
     0
102
RTVSPost2010PropOp32
 70
     1
102
RTVSPost2010Prop33
280
     0
102
RTVSPost2010PropOp33
 70
     1
102
RTVSPost2010Prop34
280
     0
102
RTVSPost2010PropOp34
 70
     1
102
RTVSPost2010Prop35
280
     0
102
RTVSPost2010PropOp35
 70
     1
102
RTVSPost2010Prop36
280
     0
102
RTVSPost2010PropOp36
 70
     1
102
RTVSPost2010Prop37
 90
       50
102
RTVSPost2010PropOp37
 70
     1
102
RTVSPost2010Prop38
140
0.0
102
RTVSPost2010PropOp38
 70
     1
102
RTVSPost2010Prop39
140
1.0
102
RTVSPost2010PropOp39
 70
     1
102
RTVSPost2010Prop40
 90
        0
102
RTVSPost2010PropOp40
 70
     1
102
RTVSPost2010Prop41ColorIndex
 90
       18
102
RTVSPost2010Prop41ColorRGB
 90
        0
102
RTVSPost2010PropOp41
 70
     1
102
RTVSPost2010Prop42
 90
       50
102
RTVSPost2010PropOp42
 70
     1
102
RTVSPost2010Prop43
 90
        3
102
RTVSPost2010PropOp43
 70
     1
102
RTVSPost2010Prop44ColorIndex
 90
        5
102
RTVSPost2010Prop44ColorRGB
 90
      255
102
RTVSPost2010PropOp44
 70
     1
102
RTVSPost2010Prop45
280
     0
102
RTVSPost2010PropOp45
 70
     1
102
RTVSPost2010Prop46
 90
       50
102
RTVSPost2010PropOp46
 70
     1
102
RTVSPost2010Prop47
 90
       50
102
RTVSPost2010PropOp47
 70
     1
102
RTVSPost2010Prop48
 90
       50
102
RTVSPost2010PropOp48
 70
     1
102
RTVSPost2010Prop49
280
     0
102
RTVSPost2010PropOp49
 70
     1
102
RTVSPost2010Prop50
 90
       50
102
RTVSPost2010PropOp50
 70
     1
102
RTVSPost2010Prop51ColorIndex
 90
      256
102
RTVSPost2010Prop51ColorRGB
 90
-16777216
102
RTVSPost2010PropOp51
 70
     0
102
RTVSPost2010Prop52
140
1.0
102
RTVSPost2010PropOp52
 70
     0
102
RTVSPost2010Prop53
 90
        2
102
RTVSPost2010PropOp53
 70
     1
102
RTVSPost2010Prop54
  1
strokes_ogs.tif
102
RTVSPost2010PropOp54
 70
     1
102
RTVSPost2010Prop55
280
     0
102
RTVSPost2010PropOp55
 70
     1
102
RTVSPost2010Prop56
140
1.0
102
RTVSPost2010PropOp56
 70
     1
102
RTVSPost2010Prop57
140
1.0
102
RTVSPost2010PropOp57
 70
     1
  0
XRECORD
  5
AA7
102
{ACAD_REACTORS
330
AA6
102
}
330
AA6
100
AcDbXrecord
280
     1
102
RTVSPropertyOp0
 70
     1
102
RTVSPropertyOp1
 70
     1
102
RTVSPropertyOp2
 70
     1
102
RTVSPropertyOp3
 70
     1
102
RTVSPropertyOp4
 70
     1
102
RTVSPropertyOp5
 70
     1
102
RTVSPropertyOp6
 70
     1
102
RTVSPropertyOp7
 70
     1
102
RTVSPropertyOp8
 70
     1
102
RTVSPropertyOp9
 70
     1
102
RTVSPropertyOp10
 70
     1
102
RTVSPropertyOp11
 70
     1
102
RTVSPropertyOp12
 70
     1
102
RTVSPropertyOp13
 70
     1
102
RTVSPropertyOp14
 70
     1
102
RTVSPropertyOp15
 70
     1
102
RTVSPropertyOp16
 70
     1
102
RTVSPropertyOp17
 70
     1
102
RTVSPropertyOp18
 70
     1
102
RTVSPropertyOp19
 70
     1
102
RTVSPropertyOp20
 70
     1
102
RTVSPropertyOp21
 70
     1
102
RTVSPropertyOp22
 70
     1
102
RTVSPropertyOp23
 70
     1
102
RTVSPropertyOp24
 70
     1
102
RTVSPropertyOp25
 70
     1
102
RTVSPropertyOp26
 70
     1
102
RTVSPropertyOp27
 70
     1
102
RTVSPropertyOp28
 70
     1
102
RTVSPropertyOp29
 70
     1
102
RTVSPropertyOp30
 70
     1
102
RTVSPropertyOp31
 70
     1
102
RTVSPropertyOp32
 70
     1
102
RTVSPropertyOp33
 70
     1
102
RTVSPropertyOp34
 70
     1
102
RTVSPropertyOp35
 70
     1
102
RTVSPropertyOp36
 70
     1
102
RTVSPropertyOp37
 70
     1
102
RTVSPropertyOp38
 70
     1
102
RTVSPropertyOp39
 70
     1
102
RTVSPropertyOp40
 70
     1
102
RTVSPropertyOp41
 70
     1
102
RTVSPropertyOp42
 70
     1
102
RTVSPropertyOp43
 70
     1
102
RTVSPropertyOp44
 70
     1
102
RTVSPropertyOp45
 70
     1
102
RTVSPropertyOp46
 70
     1
102
RTVSPropertyOp47
 70
     1
102
RTVSPropertyOp48
 70
     1
102
RTVSPropertyOp49
 70
     1
102
RTVSPropertyOp50
 70
     1
102
RTVSPropertyOp51
 70
     0
102
RTVSPropertyOp52
 70
     0
102
RTVSPropertyOp53
 70
     1
102
RTVSPropertyOp54
 70
     1
102
RTVSPropertyOp55
 70
     1
102
RTVSPropertyOp56
 70
     1
102
RTVSPropertyOp57
 70
     1
102
RTVSPost2010Prop28
280
     0
102
RTVSPost2010PropOp28
 70
     1
102
RTVSPost2010Prop29
280
     1
102
RTVSPost2010PropOp29
 70
     1
102
RTVSPost2010Prop30
280
     1
102
RTVSPost2010PropOp30
 70
     1
102
RTVSPost2010Prop31
280
     0
102
RTVSPost2010PropOp31
 70
     1
102
RTVSPost2010Prop32
280
     0
102
RTVSPost2010PropOp32
 70
     1
102
RTVSPost2010Prop33
280
     0
102
RTVSPost2010PropOp33
 70
     1
102
RTVSPost2010Prop34
280
     0
102
RTVSPost2010PropOp34
 70
     1
102
RTVSPost2010Prop35
280
     0
102
RTVSPost2010PropOp35
 70
     1
102
RTVSPost2010Prop36
280
     0
102
RTVSPost2010PropOp36
 70
     1
102
RTVSPost2010Prop37
 90
       50
102
RTVSPost2010PropOp37
 70
     1
102
RTVSPost2010Prop38
140
0.0
102
RTVSPost2010PropOp38
 70
     1
102
RTVSPost2010Prop39
140
1.0
102
RTVSPost2010PropOp39
 70
     1
102
RTVSPost2010Prop40
 90
        0
102
RTVSPost2010PropOp40
 70
     1
102
RTVSPost2010Prop41ColorIndex
 90
       18
102
RTVSPost2010Prop41ColorRGB
 90
        0
102
RTVSPost2010PropOp41
 70
     1
102
RTVSPost2010Prop42
 90
       50
102
RTVSPost2010PropOp42
 70
     1
102
RTVSPost2010Prop43
 90
        3
102
RTVSPost2010PropOp43
 70
     1
102
RTVSPost2010Prop44ColorIndex
 90
        5
102
RTVSPost2010Prop44ColorRGB
 90
      255
102
RTVSPost2010PropOp44
 70
     1
102
RTVSPost2010Prop45
280
     0
102
RTVSPost2010PropOp45
 70
     1
102
RTVSPost2010Prop46
 90
       50
102
RTVSPost2010PropOp46
 70
     1
102
RTVSPost2010Prop47
 90
       50
102
RTVSPost2010PropOp47
 70
     1
102
RTVSPost2010Prop48
 90
       50
102
RTVSPost2010PropOp48
 70
     1
102
RTVSPost2010Prop49
280
     0
102
RTVSPost2010PropOp49
 70
     1
102
RTVSPost2010Prop50
 90
       50
102
RTVSPost2010PropOp50
 70
     1
102
RTVSPost2010Prop51ColorIndex
 90
      256
102
RTVSPost2010Prop51ColorRGB
 90
-16777216
102
RTVSPost2010PropOp51
 70
     0
102
RTVSPost2010Prop52
140
1.0
102
RTVSPost2010PropOp52
 70
     0
102
RTVSPost2010Prop53
 90
        2
102
RTVSPost2010PropOp53
 70
     1
102
RTVSPost2010Prop54
  1
strokes_ogs.tif
102
RTVSPost2010PropOp54
 70
     1
102
RTVSPost2010Prop55
280
     0
102
RTVSPost2010PropOp55
 70
     1
102
RTVSPost2010Prop56
140
1.0
102
RTVSPost2010PropOp56
 70
     1
102
RTVSPost2010Prop57
140
1.0
102
RTVSPost2010PropOp57
 70
     1
  0
XRECORD
  5
AA9
102
{ACAD_REACTORS
330
AA8
102
}
330
AA8
100
AcDbXrecord
280
     1
102
RTVSPropertyOp0
 70
     1
102
RTVSPropertyOp1
 70
     1
102
RTVSPropertyOp2
 70
     1
102
RTVSPropertyOp3
 70
     1
102
RTVSPropertyOp4
 70
     1
102
RTVSPropertyOp5
 70
     1
102
RTVSPropertyOp6
 70
     1
102
RTVSPropertyOp7
 70
     1
102
RTVSPropertyOp8
 70
     1
102
RTVSPropertyOp9
 70
     1
102
RTVSPropertyOp10
 70
     1
102
RTVSPropertyOp11
 70
     1
102
RTVSPropertyOp12
 70
     1
102
RTVSPropertyOp13
 70
     1
102
RTVSPropertyOp14
 70
     1
102
RTVSPropertyOp15
 70
     1
102
RTVSPropertyOp16
 70
     1
102
RTVSPropertyOp17
 70
     1
102
RTVSPropertyOp18
 70
     1
102
RTVSPropertyOp19
 70
     1
102
RTVSPropertyOp20
 70
     1
102
RTVSPropertyOp21
 70
     1
102
RTVSPropertyOp22
 70
     1
102
RTVSPropertyOp23
 70
     1
102
RTVSPropertyOp24
 70
     1
102
RTVSPropertyOp25
 70
     1
102
RTVSPropertyOp26
 70
     1
102
RTVSPropertyOp27
 70
     1
102
RTVSPropertyOp28
 70
     1
102
RTVSPropertyOp29
 70
     1
102
RTVSPropertyOp30
 70
     1
102
RTVSPropertyOp31
 70
     1
102
RTVSPropertyOp32
 70
     1
102
RTVSPropertyOp33
 70
     1
102
RTVSPropertyOp34
 70
     1
102
RTVSPropertyOp35
 70
     1
102
RTVSPropertyOp36
 70
     1
102
RTVSPropertyOp37
 70
     1
102
RTVSPropertyOp38
 70
     1
102
RTVSPropertyOp39
 70
     1
102
RTVSPropertyOp40
 70
     1
102
RTVSPropertyOp41
 70
     1
102
RTVSPropertyOp42
 70
     1
102
RTVSPropertyOp43
 70
     1
102
RTVSPropertyOp44
 70
     1
102
RTVSPropertyOp45
 70
     1
102
RTVSPropertyOp46
 70
     1
102
RTVSPropertyOp47
 70
     1
102
RTVSPropertyOp48
 70
     1
102
RTVSPropertyOp49
 70
     1
102
RTVSPropertyOp50
 70
     1
102
RTVSPropertyOp51
 70
     0
102
RTVSPropertyOp52
 70
     0
102
RTVSPropertyOp53
 70
     1
102
RTVSPropertyOp54
 70
     1
102
RTVSPropertyOp55
 70
     1
102
RTVSPropertyOp56
 70
     1
102
RTVSPropertyOp57
 70
     1
102
RTVSPost2010Prop28
280
     0
102
RTVSPost2010PropOp28
 70
     1
102
RTVSPost2010Prop29
280
     1
102
RTVSPost2010PropOp29
 70
     1
102
RTVSPost2010Prop30
280
     1
102
RTVSPost2010PropOp30
 70
     1
102
RTVSPost2010Prop31
280
     0
102
RTVSPost2010PropOp31
 70
     1
102
RTVSPost2010Prop32
280
     0
102
RTVSPost2010PropOp32
 70
     1
102
RTVSPost2010Prop33
280
     0
102
RTVSPost2010PropOp33
 70
     1
102
RTVSPost2010Prop34
280
     0
102
RTVSPost2010PropOp34
 70
     1
102
RTVSPost2010Prop35
280
     0
102
RTVSPost2010PropOp35
 70
     1
102
RTVSPost2010Prop36
280
     0
102
RTVSPost2010PropOp36
 70
     1
102
RTVSPost2010Prop37
 90
       50
102
RTVSPost2010PropOp37
 70
     1
102
RTVSPost2010Prop38
140
0.0
102
RTVSPost2010PropOp38
 70
     1
102
RTVSPost2010Prop39
140
1.0
102
RTVSPost2010PropOp39
 70
     1
102
RTVSPost2010Prop40
 90
        0
102
RTVSPost2010PropOp40
 70
     1
102
RTVSPost2010Prop41ColorIndex
 90
       18
102
RTVSPost2010Prop41ColorRGB
 90
        0
102
RTVSPost2010PropOp41
 70
     1
102
RTVSPost2010Prop42
 90
       50
102
RTVSPost2010PropOp42
 70
     1
102
RTVSPost2010Prop43
 90
        3
102
RTVSPost2010PropOp43
 70
     1
102
RTVSPost2010Prop44ColorIndex
 90
        5
102
RTVSPost2010Prop44ColorRGB
 90
      255
102
RTVSPost2010PropOp44
 70
     1
102
RTVSPost2010Prop45
280
     0
102
RTVSPost2010PropOp45
 70
     1
102
RTVSPost2010Prop46
 90
       50
102
RTVSPost2010PropOp46
 70
     1
102
RTVSPost2010Prop47
 90
       50
102
RTVSPost2010PropOp47
 70
     1
102
RTVSPost2010Prop48
 90
       50
102
RTVSPost2010PropOp48
 70
     1
102
RTVSPost2010Prop49
280
     0
102
RTVSPost2010PropOp49
 70
     1
102
RTVSPost2010Prop50
 90
       50
102
RTVSPost2010PropOp50
 70
     1
102
RTVSPost2010Prop51ColorIndex
 90
      256
102
RTVSPost2010Prop51ColorRGB
 90
-16777216
102
RTVSPost2010PropOp51
 70
     0
102
RTVSPost2010Prop52
140
1.0
102
RTVSPost2010PropOp52
 70
     0
102
RTVSPost2010Prop53
 90
        2
102
RTVSPost2010PropOp53
 70
     1
102
RTVSPost2010Prop54
  1
strokes_ogs.tif
102
RTVSPost2010PropOp54
 70
     1
102
RTVSPost2010Prop55
280
     0
102
RTVSPost2010PropOp55
 70
     1
102
RTVSPost2010Prop56
140
1.0
102
RTVSPost2010PropOp56
 70
     1
102
RTVSPost2010Prop57
140
1.0
102
RTVSPost2010PropOp57
 70
     1
  0
XRECORD
  5
AB9
102
{ACAD_REACTORS
330
AB8
102
}
330
AB8
100
AcDbXrecord
280
     1
102
RTVSPropertyOp0
 70
     0
102
RTVSPropertyOp1
 70
     0
102
RTVSPropertyOp2
 70
     0
102
RTVSPropertyOp3
 70
     0
102
RTVSPropertyOp4
 70
     0
102
RTVSPropertyOp5
 70
     0
102
RTVSPropertyOp6
 70
     0
102
RTVSPropertyOp7
 70
     0
102
RTVSPropertyOp8
 70
     0
102
RTVSPropertyOp9
 70
     0
102
RTVSPropertyOp10
 70
     0
102
RTVSPropertyOp11
 70
     0
102
RTVSPropertyOp12
 70
     0
102
RTVSPropertyOp13
 70
     0
102
RTVSPropertyOp14
 70
     2
102
RTVSPropertyOp15
 70
     0
102
RTVSPropertyOp16
 70
     0
102
RTVSPropertyOp17
 70
     0
102
RTVSPropertyOp18
 70
     0
102
RTVSPropertyOp19
 70
     0
102
RTVSPropertyOp20
 70
     0
102
RTVSPropertyOp21
 70
     0
102
RTVSPropertyOp22
 70
     0
102
RTVSPropertyOp23
 70
     0
102
RTVSPropertyOp24
 70
     0
102
RTVSPropertyOp25
 70
     0
102
RTVSPropertyOp26
 70
     0
102
RTVSPropertyOp27
 70
     0
102
RTVSPropertyOp28
 70
     0
102
RTVSPropertyOp29
 70
     0
102
RTVSPropertyOp30
 70
     0
102
RTVSPropertyOp31
 70
     0
102
RTVSPropertyOp32
 70
     0
102
RTVSPropertyOp33
 70
     0
102
RTVSPropertyOp34
 70
     0
102
RTVSPropertyOp35
 70
     0
102
RTVSPropertyOp36
 70
     0
102
RTVSPropertyOp37
 70
     0
102
RTVSPropertyOp38
 70
     0
102
RTVSPropertyOp39
 70
     0
102
RTVSPropertyOp40
 70
     0
102
RTVSPropertyOp41
 70
     0
102
RTVSPropertyOp42
 70
     0
102
RTVSPropertyOp43
 70
     0
102
RTVSPropertyOp44
 70
     0
102
RTVSPropertyOp45
 70
     0
102
RTVSPropertyOp46
 70
     0
102
RTVSPropertyOp47
 70
     0
102
RTVSPropertyOp48
 70
     0
102
RTVSPropertyOp49
 70
     0
102
RTVSPropertyOp50
 70
     0
102
RTVSPropertyOp51
 70
     0
102
RTVSPropertyOp52
 70
     0
102
RTVSPropertyOp53
 70
     0
102
RTVSPropertyOp54
 70
     0
102
RTVSPropertyOp55
 70
     0
102
RTVSPropertyOp56
 70
     0
102
RTVSPropertyOp57
 70
     0
102
RTVSPost2010Prop28
280
     0
102
RTVSPost2010PropOp28
 70
     0
102
RTVSPost2010Prop29
280
     1
102
RTVSPost2010PropOp29
 70
     0
102
RTVSPost2010Prop30
280
     1
102
RTVSPost2010PropOp30
 70
     0
102
RTVSPost2010Prop31
280
     0
102
RTVSPost2010PropOp31
 70
     0
102
RTVSPost2010Prop32
280
     0
102
RTVSPost2010PropOp32
 70
     0
102
RTVSPost2010Prop33
280
     0
102
RTVSPost2010PropOp33
 70
     0
102
RTVSPost2010Prop34
280
     0
102
RTVSPost2010PropOp34
 70
     0
102
RTVSPost2010Prop35
280
     0
102
RTVSPost2010PropOp35
 70
     0
102
RTVSPost2010Prop36
280
     0
102
RTVSPost2010PropOp36
 70
     0
102
RTVSPost2010Prop37
 90
       50
102
RTVSPost2010PropOp37
 70
     0
102
RTVSPost2010Prop38
140
0.0
102
RTVSPost2010PropOp38
 70
     0
102
RTVSPost2010Prop39
140
1.0
102
RTVSPost2010PropOp39
 70
     0
102
RTVSPost2010Prop40
 90
        0
102
RTVSPost2010PropOp40
 70
     0
102
RTVSPost2010Prop41ColorIndex
 90
       18
102
RTVSPost2010Prop41ColorRGB
 90
        0
102
RTVSPost2010PropOp41
 70
     0
102
RTVSPost2010Prop42
 90
       50
102
RTVSPost2010PropOp42
 70
     0
102
RTVSPost2010Prop43
 90
        3
102
RTVSPost2010PropOp43
 70
     0
102
RTVSPost2010Prop44ColorIndex
 90
        5
102
RTVSPost2010Prop44ColorRGB
 90
      255
102
RTVSPost2010PropOp44
 70
     0
102
RTVSPost2010Prop45
280
     0
102
RTVSPost2010PropOp45
 70
     0
102
RTVSPost2010Prop46
 90
       50
102
RTVSPost2010PropOp46
 70
     0
102
RTVSPost2010Prop47
 90
       50
102
RTVSPost2010PropOp47
 70
     0
102
RTVSPost2010Prop48
 90
       50
102
RTVSPost2010PropOp48
 70
     0
102
RTVSPost2010Prop49
280
     0
102
RTVSPost2010PropOp49
 70
     0
102
RTVSPost2010Prop50
 90
       50
102
RTVSPost2010PropOp50
 70
     0
102
RTVSPost2010Prop51ColorIndex
 90
      256
102
RTVSPost2010Prop51ColorRGB
 90
-16777216
102
RTVSPost2010PropOp51
 70
     0
102
RTVSPost2010Prop52
140
1.0
102
RTVSPost2010PropOp52
 70
     0
102
RTVSPost2010Prop53
 90
        2
102
RTVSPost2010PropOp53
 70
     0
102
RTVSPost2010Prop54
  1
strokes_ogs.tif
102
RTVSPost2010PropOp54
 70
     0
102
RTVSPost2010Prop55
280
     0
102
RTVSPost2010PropOp55
 70
     0
102
RTVSPost2010Prop56
140
1.0
102
RTVSPost2010PropOp56
 70
     0
102
RTVSPost2010Prop57
140
1.0
102
RTVSPost2010PropOp57
 70
     0
  0
XRECORD
  5
AB1
102
{ACAD_REACTORS
330
AB0
102
}
330
AB0
100
AcDbXrecord
280
     1
102
RTVSPropertyOp0
 70
     1
102
RTVSPropertyOp1
 70
     1
102
RTVSPropertyOp2
 70
     1
102
RTVSPropertyOp3
 70
     1
102
RTVSPropertyOp4
 70
     1
102
RTVSPropertyOp5
 70
     1
102
RTVSPropertyOp6
 70
     1
102
RTVSPropertyOp7
 70
     1
102
RTVSPropertyOp8
 70
     1
102
RTVSPropertyOp9
 70
     1
102
RTVSPropertyOp10
 70
     1
102
RTVSPropertyOp11
 70
     1
102
RTVSPropertyOp12
 70
     1
102
RTVSPropertyOp13
 70
     1
102
RTVSPropertyOp14
 70
     1
102
RTVSPropertyOp15
 70
     1
102
RTVSPropertyOp16
 70
     1
102
RTVSPropertyOp17
 70
     1
102
RTVSPropertyOp18
 70
     1
102
RTVSPropertyOp19
 70
     1
102
RTVSPropertyOp20
 70
     1
102
RTVSPropertyOp21
 70
     1
102
RTVSPropertyOp22
 70
     1
102
RTVSPropertyOp23
 70
     1
102
RTVSPropertyOp24
 70
     1
102
RTVSPropertyOp25
 70
     1
102
RTVSPropertyOp26
 70
     1
102
RTVSPropertyOp27
 70
     1
102
RTVSPropertyOp28
 70
     1
102
RTVSPropertyOp29
 70
     1
102
RTVSPropertyOp30
 70
     1
102
RTVSPropertyOp31
 70
     1
102
RTVSPropertyOp32
 70
     1
102
RTVSPropertyOp33
 70
     1
102
RTVSPropertyOp34
 70
     1
102
RTVSPropertyOp35
 70
     1
102
RTVSPropertyOp36
 70
     1
102
RTVSPropertyOp37
 70
     1
102
RTVSPropertyOp38
 70
     1
102
RTVSPropertyOp39
 70
     1
102
RTVSPropertyOp40
 70
     1
102
RTVSPropertyOp41
 70
     1
102
RTVSPropertyOp42
 70
     1
102
RTVSPropertyOp43
 70
     1
102
RTVSPropertyOp44
 70
     1
102
RTVSPropertyOp45
 70
     1
102
RTVSPropertyOp46
 70
     1
102
RTVSPropertyOp47
 70
     1
102
RTVSPropertyOp48
 70
     1
102
RTVSPropertyOp49
 70
     1
102
RTVSPropertyOp50
 70
     1
102
RTVSPropertyOp51
 70
     0
102
RTVSPropertyOp52
 70
     0
102
RTVSPropertyOp53
 70
     1
102
RTVSPropertyOp54
 70
     1
102
RTVSPropertyOp55
 70
     1
102
RTVSPropertyOp56
 70
     1
102
RTVSPropertyOp57
 70
     1
102
RTVSPost2010Prop28
280
     0
102
RTVSPost2010PropOp28
 70
     1
102
RTVSPost2010Prop29
280
     1
102
RTVSPost2010PropOp29
 70
     1
102
RTVSPost2010Prop30
280
     1
102
RTVSPost2010PropOp30
 70
     1
102
RTVSPost2010Prop31
280
     0
102
RTVSPost2010PropOp31
 70
     1
102
RTVSPost2010Prop32
280
     0
102
RTVSPost2010PropOp32
 70
     1
102
RTVSPost2010Prop33
280
     0
102
RTVSPost2010PropOp33
 70
     1
102
RTVSPost2010Prop34
280
     0
102
RTVSPost2010PropOp34
 70
     1
102
RTVSPost2010Prop35
280
     0
102
RTVSPost2010PropOp35
 70
     1
102
RTVSPost2010Prop36
280
     0
102
RTVSPost2010PropOp36
 70
     1
102
RTVSPost2010Prop37
 90
       50
102
RTVSPost2010PropOp37
 70
     1
102
RTVSPost2010Prop38
140
0.0
102
RTVSPost2010PropOp38
 70
     1
102
RTVSPost2010Prop39
140
1.0
102
RTVSPost2010PropOp39
 70
     1
102
RTVSPost2010Prop40
 90
        0
102
RTVSPost2010PropOp40
 70
     1
102
RTVSPost2010Prop41ColorIndex
 90
       18
102
RTVSPost2010Prop41ColorRGB
 90
        0
102
RTVSPost2010PropOp41
 70
     1
102
RTVSPost2010Prop42
 90
       50
102
RTVSPost2010PropOp42
 70
     1
102
RTVSPost2010Prop43
 90
        3
102
RTVSPost2010PropOp43
 70
     1
102
RTVSPost2010Prop44ColorIndex
 90
        5
102
RTVSPost2010Prop44ColorRGB
 90
      255
102
RTVSPost2010PropOp44
 70
     1
102
RTVSPost2010Prop45
280
     0
102
RTVSPost2010PropOp45
 70
     1
102
RTVSPost2010Prop46
 90
       50
102
RTVSPost2010PropOp46
 70
     1
102
RTVSPost2010Prop47
 90
       50
102
RTVSPost2010PropOp47
 70
     1
102
RTVSPost2010Prop48
 90
       50
102
RTVSPost2010PropOp48
 70
     1
102
RTVSPost2010Prop49
280
     0
102
RTVSPost2010PropOp49
 70
     1
102
RTVSPost2010Prop50
 90
       50
102
RTVSPost2010PropOp50
 70
     1
102
RTVSPost2010Prop51ColorIndex
 90
      256
102
RTVSPost2010Prop51ColorRGB
 90
-16777216
102
RTVSPost2010PropOp51
 70
     0
102
RTVSPost2010Prop52
140
1.0
102
RTVSPost2010PropOp52
 70
     0
102
RTVSPost2010Prop53
 90
        2
102
RTVSPost2010PropOp53
 70
     1
102
RTVSPost2010Prop54
  1
strokes_ogs.tif
102
RTVSPost2010PropOp54
 70
     1
102
RTVSPost2010Prop55
280
     0
102
RTVSPost2010PropOp55
 70
     1
102
RTVSPost2010Prop56
140
1.0
102
RTVSPost2010PropOp56
 70
     1
102
RTVSPost2010Prop57
140
1.0
102
RTVSPost2010PropOp57
 70
     1
  0
XRECORD
  5
A95
102
{ACAD_REACTORS
330
A94
102
}
330
A94
100
AcDbXrecord
280
     1
102
RTVSPropertyOp0
 70
     1
102
RTVSPropertyOp1
 70
     1
102
RTVSPropertyOp2
 70
     1
102
RTVSPropertyOp3
 70
     1
102
RTVSPropertyOp4
 70
     1
102
RTVSPropertyOp5
 70
     1
102
RTVSPropertyOp6
 70
     1
102
RTVSPropertyOp7
 70
     1
102
RTVSPropertyOp8
 70
     1
102
RTVSPropertyOp9
 70
     1
102
RTVSPropertyOp10
 70
     1
102
RTVSPropertyOp11
 70
     1
102
RTVSPropertyOp12
 70
     1
102
RTVSPropertyOp13
 70
     1
102
RTVSPropertyOp14
 70
     1
102
RTVSPropertyOp15
 70
     1
102
RTVSPropertyOp16
 70
     1
102
RTVSPropertyOp17
 70
     1
102
RTVSPropertyOp18
 70
     1
102
RTVSPropertyOp19
 70
     1
102
RTVSPropertyOp20
 70
     1
102
RTVSPropertyOp21
 70
     1
102
RTVSPropertyOp22
 70
     1
102
RTVSPropertyOp23
 70
     1
102
RTVSPropertyOp24
 70
     1
102
RTVSPropertyOp25
 70
     1
102
RTVSPropertyOp26
 70
     1
102
RTVSPropertyOp27
 70
     1
102
RTVSPropertyOp28
 70
     1
102
RTVSPropertyOp29
 70
     1
102
RTVSPropertyOp30
 70
     1
102
RTVSPropertyOp31
 70
     1
102
RTVSPropertyOp32
 70
     1
102
RTVSPropertyOp33
 70
     1
102
RTVSPropertyOp34
 70
     1
102
RTVSPropertyOp35
 70
     1
102
RTVSPropertyOp36
 70
     1
102
RTVSPropertyOp37
 70
     1
102
RTVSPropertyOp38
 70
     1
102
RTVSPropertyOp39
 70
     1
102
RTVSPropertyOp40
 70
     1
102
RTVSPropertyOp41
 70
     1
102
RTVSPropertyOp42
 70
     1
102
RTVSPropertyOp43
 70
     1
102
RTVSPropertyOp44
 70
     1
102
RTVSPropertyOp45
 70
     1
102
RTVSPropertyOp46
 70
     1
102
RTVSPropertyOp47
 70
     1
102
RTVSPropertyOp48
 70
     1
102
RTVSPropertyOp49
 70
     1
102
RTVSPropertyOp50
 70
     1
102
RTVSPropertyOp51
 70
     0
102
RTVSPropertyOp52
 70
     0
102
RTVSPropertyOp53
 70
     1
102
RTVSPropertyOp54
 70
     1
102
RTVSPropertyOp55
 70
     1
102
RTVSPropertyOp56
 70
     1
102
RTVSPropertyOp57
 70
     1
102
RTVSPost2010Prop28
280
     0
102
RTVSPost2010PropOp28
 70
     1
102
RTVSPost2010Prop29
280
     1
102
RTVSPost2010PropOp29
 70
     1
102
RTVSPost2010Prop30
280
     1
102
RTVSPost2010PropOp30
 70
     1
102
RTVSPost2010Prop31
280
     0
102
RTVSPost2010PropOp31
 70
     1
102
RTVSPost2010Prop32
280
     0
102
RTVSPost2010PropOp32
 70
     1
102
RTVSPost2010Prop33
280
     0
102
RTVSPost2010PropOp33
 70
     1
102
RTVSPost2010Prop34
280
     0
102
RTVSPost2010PropOp34
 70
     1
102
RTVSPost2010Prop35
280
     0
102
RTVSPost2010PropOp35
 70
     1
102
RTVSPost2010Prop36
280
     0
102
RTVSPost2010PropOp36
 70
     1
102
RTVSPost2010Prop37
 90
       50
102
RTVSPost2010PropOp37
 70
     1
102
RTVSPost2010Prop38
140
0.0
102
RTVSPost2010PropOp38
 70
     1
102
RTVSPost2010Prop39
140
1.0
102
RTVSPost2010PropOp39
 70
     1
102
RTVSPost2010Prop40
 90
        0
102
RTVSPost2010PropOp40
 70
     1
102
RTVSPost2010Prop41ColorIndex
 90
       18
102
RTVSPost2010Prop41ColorRGB
 90
        0
102
RTVSPost2010PropOp41
 70
     1
102
RTVSPost2010Prop42
 90
       50
102
RTVSPost2010PropOp42
 70
     1
102
RTVSPost2010Prop43
 90
        3
102
RTVSPost2010PropOp43
 70
     1
102
RTVSPost2010Prop44ColorIndex
 90
        5
102
RTVSPost2010Prop44ColorRGB
 90
      255
102
RTVSPost2010PropOp44
 70
     1
102
RTVSPost2010Prop45
280
     0
102
RTVSPost2010PropOp45
 70
     1
102
RTVSPost2010Prop46
 90
       50
102
RTVSPost2010PropOp46
 70
     1
102
RTVSPost2010Prop47
 90
       50
102
RTVSPost2010PropOp47
 70
     1
102
RTVSPost2010Prop48
 90
       50
102
RTVSPost2010PropOp48
 70
     1
102
RTVSPost2010Prop49
280
     0
102
RTVSPost2010PropOp49
 70
     1
102
RTVSPost2010Prop50
 90
       50
102
RTVSPost2010PropOp50
 70
     1
102
RTVSPost2010Prop51ColorIndex
 90
      256
102
RTVSPost2010Prop51ColorRGB
 90
-16777216
102
RTVSPost2010PropOp51
 70
     0
102
RTVSPost2010Prop52
140
1.0
102
RTVSPost2010PropOp52
 70
     0
102
RTVSPost2010Prop53
 90
        2
102
RTVSPost2010PropOp53
 70
     1
102
RTVSPost2010Prop54
  1
strokes_ogs.tif
102
RTVSPost2010PropOp54
 70
     1
102
RTVSPost2010Prop55
280
     0
102
RTVSPost2010PropOp55
 70
     1
102
RTVSPost2010Prop56
140
1.0
102
RTVSPost2010PropOp56
 70
     1
102
RTVSPost2010Prop57
140
1.0
102
RTVSPost2010PropOp57
 70
     1
  0
XRECORD
  5
A97
102
{ACAD_REACTORS
330
A96
102
}
330
A96
100
AcDbXrecord
280
     1
102
RTVSPropertyOp0
 70
     1
102
RTVSPropertyOp1
 70
     1
102
RTVSPropertyOp2
 70
     1
102
RTVSPropertyOp3
 70
     1
102
RTVSPropertyOp4
 70
     1
102
RTVSPropertyOp5
 70
     1
102
RTVSPropertyOp6
 70
     1
102
RTVSPropertyOp7
 70
     1
102
RTVSPropertyOp8
 70
     1
102
RTVSPropertyOp9
 70
     1
102
RTVSPropertyOp10
 70
     1
102
RTVSPropertyOp11
 70
     1
102
RTVSPropertyOp12
 70
     1
102
RTVSPropertyOp13
 70
     1
102
RTVSPropertyOp14
 70
     1
102
RTVSPropertyOp15
 70
     1
102
RTVSPropertyOp16
 70
     1
102
RTVSPropertyOp17
 70
     1
102
RTVSPropertyOp18
 70
     1
102
RTVSPropertyOp19
 70
     1
102
RTVSPropertyOp20
 70
     1
102
RTVSPropertyOp21
 70
     1
102
RTVSPropertyOp22
 70
     1
102
RTVSPropertyOp23
 70
     1
102
RTVSPropertyOp24
 70
     1
102
RTVSPropertyOp25
 70
     1
102
RTVSPropertyOp26
 70
     1
102
RTVSPropertyOp27
 70
     1
102
RTVSPropertyOp28
 70
     1
102
RTVSPropertyOp29
 70
     1
102
RTVSPropertyOp30
 70
     1
102
RTVSPropertyOp31
 70
     1
102
RTVSPropertyOp32
 70
     1
102
RTVSPropertyOp33
 70
     1
102
RTVSPropertyOp34
 70
     1
102
RTVSPropertyOp35
 70
     1
102
RTVSPropertyOp36
 70
     1
102
RTVSPropertyOp37
 70
     1
102
RTVSPropertyOp38
 70
     1
102
RTVSPropertyOp39
 70
     1
102
RTVSPropertyOp40
 70
     1
102
RTVSPropertyOp41
 70
     1
102
RTVSPropertyOp42
 70
     1
102
RTVSPropertyOp43
 70
     1
102
RTVSPropertyOp44
 70
     1
102
RTVSPropertyOp45
 70
     1
102
RTVSPropertyOp46
 70
     1
102
RTVSPropertyOp47
 70
     1
102
RTVSPropertyOp48
 70
     1
102
RTVSPropertyOp49
 70
     1
102
RTVSPropertyOp50
 70
     1
102
RTVSPropertyOp51
 70
     0
102
RTVSPropertyOp52
 70
     0
102
RTVSPropertyOp53
 70
     1
102
RTVSPropertyOp54
 70
     1
102
RTVSPropertyOp55
 70
     1
102
RTVSPropertyOp56
 70
     1
102
RTVSPropertyOp57
 70
     1
102
RTVSPost2010Prop28
280
     0
102
RTVSPost2010PropOp28
 70
     1
102
RTVSPost2010Prop29
280
     1
102
RTVSPost2010PropOp29
 70
     1
102
RTVSPost2010Prop30
280
     1
102
RTVSPost2010PropOp30
 70
     1
102
RTVSPost2010Prop31
280
     0
102
RTVSPost2010PropOp31
 70
     1
102
RTVSPost2010Prop32
280
     0
102
RTVSPost2010PropOp32
 70
     1
102
RTVSPost2010Prop33
280
     0
102
RTVSPost2010PropOp33
 70
     1
102
RTVSPost2010Prop34
280
     0
102
RTVSPost2010PropOp34
 70
     1
102
RTVSPost2010Prop35
280
     0
102
RTVSPost2010PropOp35
 70
     1
102
RTVSPost2010Prop36
280
     0
102
RTVSPost2010PropOp36
 70
     1
102
RTVSPost2010Prop37
 90
       50
102
RTVSPost2010PropOp37
 70
     1
102
RTVSPost2010Prop38
140
0.0
102
RTVSPost2010PropOp38
 70
     1
102
RTVSPost2010Prop39
140
1.0
102
RTVSPost2010PropOp39
 70
     1
102
RTVSPost2010Prop40
 90
        0
102
RTVSPost2010PropOp40
 70
     1
102
RTVSPost2010Prop41ColorIndex
 90
       18
102
RTVSPost2010Prop41ColorRGB
 90
        0
102
RTVSPost2010PropOp41
 70
     1
102
RTVSPost2010Prop42
 90
       50
102
RTVSPost2010PropOp42
 70
     1
102
RTVSPost2010Prop43
 90
        3
102
RTVSPost2010PropOp43
 70
     1
102
RTVSPost2010Prop44ColorIndex
 90
        5
102
RTVSPost2010Prop44ColorRGB
 90
      255
102
RTVSPost2010PropOp44
 70
     1
102
RTVSPost2010Prop45
280
     0
102
RTVSPost2010PropOp45
 70
     1
102
RTVSPost2010Prop46
 90
       50
102
RTVSPost2010PropOp46
 70
     1
102
RTVSPost2010Prop47
 90
       50
102
RTVSPost2010PropOp47
 70
     1
102
RTVSPost2010Prop48
 90
       50
102
RTVSPost2010PropOp48
 70
     1
102
RTVSPost2010Prop49
280
     0
102
RTVSPost2010PropOp49
 70
     1
102
RTVSPost2010Prop50
 90
       50
102
RTVSPost2010PropOp50
 70
     1
102
RTVSPost2010Prop51ColorIndex
 90
      256
102
RTVSPost2010Prop51ColorRGB
 90
-16777216
102
RTVSPost2010PropOp51
 70
     0
102
RTVSPost2010Prop52
140
1.0
102
RTVSPost2010PropOp52
 70
     0
102
RTVSPost2010Prop53
 90
        2
102
RTVSPost2010PropOp53
 70
     1
102
RTVSPost2010Prop54
  1
strokes_ogs.tif
102
RTVSPost2010PropOp54
 70
     1
102
RTVSPost2010Prop55
280
     0
102
RTVSPost2010PropOp55
 70
     1
102
RTVSPost2010Prop56
140
1.0
102
RTVSPost2010PropOp56
 70
     1
102
RTVSPost2010Prop57
140
1.0
102
RTVSPost2010PropOp57
 70
     1
  0
XRECORD
  5
A99
102
{ACAD_REACTORS
330
A98
102
}
330
A98
100
AcDbXrecord
280
     1
102
RTVSPropertyOp0
 70
     1
102
RTVSPropertyOp1
 70
     1
102
RTVSPropertyOp2
 70
     1
102
RTVSPropertyOp3
 70
     1
102
RTVSPropertyOp4
 70
     1
102
RTVSPropertyOp5
 70
     1
102
RTVSPropertyOp6
 70
     1
102
RTVSPropertyOp7
 70
     1
102
RTVSPropertyOp8
 70
     1
102
RTVSPropertyOp9
 70
     1
102
RTVSPropertyOp10
 70
     1
102
RTVSPropertyOp11
 70
     1
102
RTVSPropertyOp12
 70
     1
102
RTVSPropertyOp13
 70
     1
102
RTVSPropertyOp14
 70
     1
102
RTVSPropertyOp15
 70
     1
102
RTVSPropertyOp16
 70
     1
102
RTVSPropertyOp17
 70
     1
102
RTVSPropertyOp18
 70
     1
102
RTVSPropertyOp19
 70
     1
102
RTVSPropertyOp20
 70
     1
102
RTVSPropertyOp21
 70
     1
102
RTVSPropertyOp22
 70
     1
102
RTVSPropertyOp23
 70
     1
102
RTVSPropertyOp24
 70
     1
102
RTVSPropertyOp25
 70
     1
102
RTVSPropertyOp26
 70
     1
102
RTVSPropertyOp27
 70
     1
102
RTVSPropertyOp28
 70
     1
102
RTVSPropertyOp29
 70
     1
102
RTVSPropertyOp30
 70
     1
102
RTVSPropertyOp31
 70
     1
102
RTVSPropertyOp32
 70
     1
102
RTVSPropertyOp33
 70
     1
102
RTVSPropertyOp34
 70
     1
102
RTVSPropertyOp35
 70
     1
102
RTVSPropertyOp36
 70
     1
102
RTVSPropertyOp37
 70
     1
102
RTVSPropertyOp38
 70
     1
102
RTVSPropertyOp39
 70
     1
102
RTVSPropertyOp40
 70
     1
102
RTVSPropertyOp41
 70
     1
102
RTVSPropertyOp42
 70
     1
102
RTVSPropertyOp43
 70
     1
102
RTVSPropertyOp44
 70
     1
102
RTVSPropertyOp45
 70
     1
102
RTVSPropertyOp46
 70
     1
102
RTVSPropertyOp47
 70
     1
102
RTVSPropertyOp48
 70
     1
102
RTVSPropertyOp49
 70
     1
102
RTVSPropertyOp50
 70
     1
102
RTVSPropertyOp51
 70
     0
102
RTVSPropertyOp52
 70
     0
102
RTVSPropertyOp53
 70
     1
102
RTVSPropertyOp54
 70
     1
102
RTVSPropertyOp55
 70
     1
102
RTVSPropertyOp56
 70
     1
102
RTVSPropertyOp57
 70
     1
102
RTVSPost2010Prop28
280
     0
102
RTVSPost2010PropOp28
 70
     1
102
RTVSPost2010Prop29
280
     1
102
RTVSPost2010PropOp29
 70
     1
102
RTVSPost2010Prop30
280
     1
102
RTVSPost2010PropOp30
 70
     1
102
RTVSPost2010Prop31
280
     0
102
RTVSPost2010PropOp31
 70
     1
102
RTVSPost2010Prop32
280
     0
102
RTVSPost2010PropOp32
 70
     1
102
RTVSPost2010Prop33
280
     0
102
RTVSPost2010PropOp33
 70
     1
102
RTVSPost2010Prop34
280
     0
102
RTVSPost2010PropOp34
 70
     1
102
RTVSPost2010Prop35
280
     0
102
RTVSPost2010PropOp35
 70
     1
102
RTVSPost2010Prop36
280
     0
102
RTVSPost2010PropOp36
 70
     1
102
RTVSPost2010Prop37
 90
       50
102
RTVSPost2010PropOp37
 70
     1
102
RTVSPost2010Prop38
140
0.0
102
RTVSPost2010PropOp38
 70
     1
102
RTVSPost2010Prop39
140
1.0
102
RTVSPost2010PropOp39
 70
     1
102
RTVSPost2010Prop40
 90
        0
102
RTVSPost2010PropOp40
 70
     1
102
RTVSPost2010Prop41ColorIndex
 90
       18
102
RTVSPost2010Prop41ColorRGB
 90
        0
102
RTVSPost2010PropOp41
 70
     1
102
RTVSPost2010Prop42
 90
       50
102
RTVSPost2010PropOp42
 70
     1
102
RTVSPost2010Prop43
 90
        3
102
RTVSPost2010PropOp43
 70
     1
102
RTVSPost2010Prop44ColorIndex
 90
        5
102
RTVSPost2010Prop44ColorRGB
 90
      255
102
RTVSPost2010PropOp44
 70
     1
102
RTVSPost2010Prop45
280
     0
102
RTVSPost2010PropOp45
 70
     1
102
RTVSPost2010Prop46
 90
       50
102
RTVSPost2010PropOp46
 70
     1
102
RTVSPost2010Prop47
 90
       50
102
RTVSPost2010PropOp47
 70
     1
102
RTVSPost2010Prop48
 90
       50
102
RTVSPost2010PropOp48
 70
     1
102
RTVSPost2010Prop49
280
     0
102
RTVSPost2010PropOp49
 70
     1
102
RTVSPost2010Prop50
 90
       50
102
RTVSPost2010PropOp50
 70
     1
102
RTVSPost2010Prop51ColorIndex
 90
      256
102
RTVSPost2010Prop51ColorRGB
 90
-16777216
102
RTVSPost2010PropOp51
 70
     0
102
RTVSPost2010Prop52
140
1.0
102
RTVSPost2010PropOp52
 70
     0
102
RTVSPost2010Prop53
 90
        2
102
RTVSPost2010PropOp53
 70
     1
102
RTVSPost2010Prop54
  1
strokes_ogs.tif
102
RTVSPost2010PropOp54
 70
     1
102
RTVSPost2010Prop55
280
     0
102
RTVSPost2010PropOp55
 70
     1
102
RTVSPost2010Prop56
140
1.0
102
RTVSPost2010PropOp56
 70
     1
102
RTVSPost2010Prop57
140
1.0
102
RTVSPost2010PropOp57
 70
     1
  0
XRECORD
  5
A9B
102
{ACAD_REACTORS
330
A9A
102
}
330
A9A
100
AcDbXrecord
280
     1
102
RTVSPropertyOp0
 70
     1
102
RTVSPropertyOp1
 70
     1
102
RTVSPropertyOp2
 70
     1
102
RTVSPropertyOp3
 70
     1
102
RTVSPropertyOp4
 70
     1
102
RTVSPropertyOp5
 70
     1
102
RTVSPropertyOp6
 70
     1
102
RTVSPropertyOp7
 70
     1
102
RTVSPropertyOp8
 70
     1
102
RTVSPropertyOp9
 70
     1
102
RTVSPropertyOp10
 70
     1
102
RTVSPropertyOp11
 70
     1
102
RTVSPropertyOp12
 70
     1
102
RTVSPropertyOp13
 70
     1
102
RTVSPropertyOp14
 70
     1
102
RTVSPropertyOp15
 70
     1
102
RTVSPropertyOp16
 70
     1
102
RTVSPropertyOp17
 70
     1
102
RTVSPropertyOp18
 70
     1
102
RTVSPropertyOp19
 70
     1
102
RTVSPropertyOp20
 70
     1
102
RTVSPropertyOp21
 70
     1
102
RTVSPropertyOp22
 70
     1
102
RTVSPropertyOp23
 70
     1
102
RTVSPropertyOp24
 70
     1
102
RTVSPropertyOp25
 70
     1
102
RTVSPropertyOp26
 70
     1
102
RTVSPropertyOp27
 70
     1
102
RTVSPropertyOp28
 70
     1
102
RTVSPropertyOp29
 70
     1
102
RTVSPropertyOp30
 70
     1
102
RTVSPropertyOp31
 70
     1
102
RTVSPropertyOp32
 70
     1
102
RTVSPropertyOp33
 70
     1
102
RTVSPropertyOp34
 70
     1
102
RTVSPropertyOp35
 70
     1
102
RTVSPropertyOp36
 70
     1
102
RTVSPropertyOp37
 70
     1
102
RTVSPropertyOp38
 70
     1
102
RTVSPropertyOp39
 70
     1
102
RTVSPropertyOp40
 70
     1
102
RTVSPropertyOp41
 70
     1
102
RTVSPropertyOp42
 70
     1
102
RTVSPropertyOp43
 70
     1
102
RTVSPropertyOp44
 70
     1
102
RTVSPropertyOp45
 70
     1
102
RTVSPropertyOp46
 70
     1
102
RTVSPropertyOp47
 70
     1
102
RTVSPropertyOp48
 70
     1
102
RTVSPropertyOp49
 70
     1
102
RTVSPropertyOp50
 70
     1
102
RTVSPropertyOp51
 70
     0
102
RTVSPropertyOp52
 70
     0
102
RTVSPropertyOp53
 70
     1
102
RTVSPropertyOp54
 70
     1
102
RTVSPropertyOp55
 70
     1
102
RTVSPropertyOp56
 70
     1
102
RTVSPropertyOp57
 70
     1
102
RTVSPost2010Prop28
280
     0
102
RTVSPost2010PropOp28
 70
     1
102
RTVSPost2010Prop29
280
     1
102
RTVSPost2010PropOp29
 70
     1
102
RTVSPost2010Prop30
280
     1
102
RTVSPost2010PropOp30
 70
     1
102
RTVSPost2010Prop31
280
     0
102
RTVSPost2010PropOp31
 70
     1
102
RTVSPost2010Prop32
280
     0
102
RTVSPost2010PropOp32
 70
     1
102
RTVSPost2010Prop33
280
     0
102
RTVSPost2010PropOp33
 70
     1
102
RTVSPost2010Prop34
280
     0
102
RTVSPost2010PropOp34
 70
     1
102
RTVSPost2010Prop35
280
     0
102
RTVSPost2010PropOp35
 70
     1
102
RTVSPost2010Prop36
280
     0
102
RTVSPost2010PropOp36
 70
     1
102
RTVSPost2010Prop37
 90
       50
102
RTVSPost2010PropOp37
 70
     1
102
RTVSPost2010Prop38
140
0.0
102
RTVSPost2010PropOp38
 70
     1
102
RTVSPost2010Prop39
140
1.0
102
RTVSPost2010PropOp39
 70
     1
102
RTVSPost2010Prop40
 90
        0
102
RTVSPost2010PropOp40
 70
     1
102
RTVSPost2010Prop41ColorIndex
 90
       18
102
RTVSPost2010Prop41ColorRGB
 90
        0
102
RTVSPost2010PropOp41
 70
     1
102
RTVSPost2010Prop42
 90
       50
102
RTVSPost2010PropOp42
 70
     1
102
RTVSPost2010Prop43
 90
        3
102
RTVSPost2010PropOp43
 70
     1
102
RTVSPost2010Prop44ColorIndex
 90
        5
102
RTVSPost2010Prop44ColorRGB
 90
      255
102
RTVSPost2010PropOp44
 70
     1
102
RTVSPost2010Prop45
280
     0
102
RTVSPost2010PropOp45
 70
     1
102
RTVSPost2010Prop46
 90
       50
102
RTVSPost2010PropOp46
 70
     1
102
RTVSPost2010Prop47
 90
       50
102
RTVSPost2010PropOp47
 70
     1
102
RTVSPost2010Prop48
 90
       50
102
RTVSPost2010PropOp48
 70
     1
102
RTVSPost2010Prop49
280
     0
102
RTVSPost2010PropOp49
 70
     1
102
RTVSPost2010Prop50
 90
       50
102
RTVSPost2010PropOp50
 70
     1
102
RTVSPost2010Prop51ColorIndex
 90
      256
102
RTVSPost2010Prop51ColorRGB
 90
-16777216
102
RTVSPost2010PropOp51
 70
     0
102
RTVSPost2010Prop52
140
1.0
102
RTVSPost2010PropOp52
 70
     0
102
RTVSPost2010Prop53
 90
        2
102
RTVSPost2010PropOp53
 70
     1
102
RTVSPost2010Prop54
  1
strokes_ogs.tif
102
RTVSPost2010PropOp54
 70
     1
102
RTVSPost2010Prop55
280
     0
102
RTVSPost2010PropOp55
 70
     1
102
RTVSPost2010Prop56
140
1.0
102
RTVSPost2010PropOp56
 70
     1
102
RTVSPost2010Prop57
140
1.0
102
RTVSPost2010PropOp57
 70
     1
  0
XRECORD
  5
AA1
102
{ACAD_REACTORS
330
AA0
102
}
330
AA0
100
AcDbXrecord
280
     1
102
RTVSPropertyOp0
 70
     1
102
RTVSPropertyOp1
 70
     1
102
RTVSPropertyOp2
 70
     1
102
RTVSPropertyOp3
 70
     1
102
RTVSPropertyOp4
 70
     1
102
RTVSPropertyOp5
 70
     1
102
RTVSPropertyOp6
 70
     1
102
RTVSPropertyOp7
 70
     1
102
RTVSPropertyOp8
 70
     1
102
RTVSPropertyOp9
 70
     1
102
RTVSPropertyOp10
 70
     1
102
RTVSPropertyOp11
 70
     1
102
RTVSPropertyOp12
 70
     1
102
RTVSPropertyOp13
 70
     1
102
RTVSPropertyOp14
 70
     1
102
RTVSPropertyOp15
 70
     1
102
RTVSPropertyOp16
 70
     1
102
RTVSPropertyOp17
 70
     1
102
RTVSPropertyOp18
 70
     1
102
RTVSPropertyOp19
 70
     1
102
RTVSPropertyOp20
 70
     1
102
RTVSPropertyOp21
 70
     1
102
RTVSPropertyOp22
 70
     1
102
RTVSPropertyOp23
 70
     1
102
RTVSPropertyOp24
 70
     1
102
RTVSPropertyOp25
 70
     1
102
RTVSPropertyOp26
 70
     1
102
RTVSPropertyOp27
 70
     1
102
RTVSPropertyOp28
 70
     1
102
RTVSPropertyOp29
 70
     1
102
RTVSPropertyOp30
 70
     1
102
RTVSPropertyOp31
 70
     1
102
RTVSPropertyOp32
 70
     1
102
RTVSPropertyOp33
 70
     1
102
RTVSPropertyOp34
 70
     1
102
RTVSPropertyOp35
 70
     1
102
RTVSPropertyOp36
 70
     1
102
RTVSPropertyOp37
 70
     1
102
RTVSPropertyOp38
 70
     1
102
RTVSPropertyOp39
 70
     1
102
RTVSPropertyOp40
 70
     1
102
RTVSPropertyOp41
 70
     1
102
RTVSPropertyOp42
 70
     1
102
RTVSPropertyOp43
 70
     1
102
RTVSPropertyOp44
 70
     1
102
RTVSPropertyOp45
 70
     1
102
RTVSPropertyOp46
 70
     1
102
RTVSPropertyOp47
 70
     1
102
RTVSPropertyOp48
 70
     1
102
RTVSPropertyOp49
 70
     1
102
RTVSPropertyOp50
 70
     1
102
RTVSPropertyOp51
 70
     0
102
RTVSPropertyOp52
 70
     0
102
RTVSPropertyOp53
 70
     1
102
RTVSPropertyOp54
 70
     1
102
RTVSPropertyOp55
 70
     1
102
RTVSPropertyOp56
 70
     1
102
RTVSPropertyOp57
 70
     1
102
RTVSPost2010Prop28
280
     0
102
RTVSPost2010PropOp28
 70
     1
102
RTVSPost2010Prop29
280
     1
102
RTVSPost2010PropOp29
 70
     1
102
RTVSPost2010Prop30
280
     1
102
RTVSPost2010PropOp30
 70
     1
102
RTVSPost2010Prop31
280
     0
102
RTVSPost2010PropOp31
 70
     1
102
RTVSPost2010Prop32
280
     0
102
RTVSPost2010PropOp32
 70
     1
102
RTVSPost2010Prop33
280
     0
102
RTVSPost2010PropOp33
 70
     1
102
RTVSPost2010Prop34
280
     0
102
RTVSPost2010PropOp34
 70
     1
102
RTVSPost2010Prop35
280
     0
102
RTVSPost2010PropOp35
 70
     1
102
RTVSPost2010Prop36
280
     0
102
RTVSPost2010PropOp36
 70
     1
102
RTVSPost2010Prop37
 90
       50
102
RTVSPost2010PropOp37
 70
     1
102
RTVSPost2010Prop38
140
0.0
102
RTVSPost2010PropOp38
 70
     1
102
RTVSPost2010Prop39
140
1.0
102
RTVSPost2010PropOp39
 70
     1
102
RTVSPost2010Prop40
 90
        0
102
RTVSPost2010PropOp40
 70
     1
102
RTVSPost2010Prop41ColorIndex
 90
       18
102
RTVSPost2010Prop41ColorRGB
 90
        0
102
RTVSPost2010PropOp41
 70
     1
102
RTVSPost2010Prop42
 90
       50
102
RTVSPost2010PropOp42
 70
     1
102
RTVSPost2010Prop43
 90
        3
102
RTVSPost2010PropOp43
 70
     1
102
RTVSPost2010Prop44ColorIndex
 90
        5
102
RTVSPost2010Prop44ColorRGB
 90
      255
102
RTVSPost2010PropOp44
 70
     1
102
RTVSPost2010Prop45
280
     0
102
RTVSPost2010PropOp45
 70
     1
102
RTVSPost2010Prop46
 90
       50
102
RTVSPost2010PropOp46
 70
     1
102
RTVSPost2010Prop47
 90
       50
102
RTVSPost2010PropOp47
 70
     1
102
RTVSPost2010Prop48
 90
       50
102
RTVSPost2010PropOp48
 70
     1
102
RTVSPost2010Prop49
280
     0
102
RTVSPost2010PropOp49
 70
     1
102
RTVSPost2010Prop50
 90
       50
102
RTVSPost2010PropOp50
 70
     1
102
RTVSPost2010Prop51ColorIndex
 90
      256
102
RTVSPost2010Prop51ColorRGB
 90
-16777216
102
RTVSPost2010PropOp51
 70
     0
102
RTVSPost2010Prop52
140
1.0
102
RTVSPost2010PropOp52
 70
     0
102
RTVSPost2010Prop53
 90
        2
102
RTVSPost2010PropOp53
 70
     1
102
RTVSPost2010Prop54
  1
strokes_ogs.tif
102
RTVSPost2010PropOp54
 70
     1
102
RTVSPost2010Prop55
280
     0
102
RTVSPost2010PropOp55
 70
     1
102
RTVSPost2010Prop56
140
1.0
102
RTVSPost2010PropOp56
 70
     1
102
RTVSPost2010Prop57
140
1.0
102
RTVSPost2010PropOp57
 70
     1
  0
XRECORD
  5
AB5
102
{ACAD_REACTORS
330
AB4
102
}
330
AB4
100
AcDbXrecord
280
     1
102
RTVSPropertyOp0
 70
     0
102
RTVSPropertyOp1
 70
     0
102
RTVSPropertyOp2
 70
     0
102
RTVSPropertyOp3
 70
     0
102
RTVSPropertyOp4
 70
     0
102
RTVSPropertyOp5
 70
     0
102
RTVSPropertyOp6
 70
     0
102
RTVSPropertyOp7
 70
     0
102
RTVSPropertyOp8
 70
     0
102
RTVSPropertyOp9
 70
     0
102
RTVSPropertyOp10
 70
     0
102
RTVSPropertyOp11
 70
     0
102
RTVSPropertyOp12
 70
     0
102
RTVSPropertyOp13
 70
     0
102
RTVSPropertyOp14
 70
     2
102
RTVSPropertyOp15
 70
     0
102
RTVSPropertyOp16
 70
     0
102
RTVSPropertyOp17
 70
     0
102
RTVSPropertyOp18
 70
     0
102
RTVSPropertyOp19
 70
     0
102
RTVSPropertyOp20
 70
     0
102
RTVSPropertyOp21
 70
     0
102
RTVSPropertyOp22
 70
     0
102
RTVSPropertyOp23
 70
     0
102
RTVSPropertyOp24
 70
     0
102
RTVSPropertyOp25
 70
     0
102
RTVSPropertyOp26
 70
     0
102
RTVSPropertyOp27
 70
     0
102
RTVSPropertyOp28
 70
     0
102
RTVSPropertyOp29
 70
     0
102
RTVSPropertyOp30
 70
     0
102
RTVSPropertyOp31
 70
     0
102
RTVSPropertyOp32
 70
     0
102
RTVSPropertyOp33
 70
     0
102
RTVSPropertyOp34
 70
     0
102
RTVSPropertyOp35
 70
     0
102
RTVSPropertyOp36
 70
     0
102
RTVSPropertyOp37
 70
     0
102
RTVSPropertyOp38
 70
     0
102
RTVSPropertyOp39
 70
     0
102
RTVSPropertyOp40
 70
     0
102
RTVSPropertyOp41
 70
     0
102
RTVSPropertyOp42
 70
     0
102
RTVSPropertyOp43
 70
     0
102
RTVSPropertyOp44
 70
     0
102
RTVSPropertyOp45
 70
     0
102
RTVSPropertyOp46
 70
     0
102
RTVSPropertyOp47
 70
     0
102
RTVSPropertyOp48
 70
     0
102
RTVSPropertyOp49
 70
     0
102
RTVSPropertyOp50
 70
     0
102
RTVSPropertyOp51
 70
     0
102
RTVSPropertyOp52
 70
     0
102
RTVSPropertyOp53
 70
     0
102
RTVSPropertyOp54
 70
     0
102
RTVSPropertyOp55
 70
     0
102
RTVSPropertyOp56
 70
     0
102
RTVSPropertyOp57
 70
     0
102
RTVSPost2010Prop28
280
     0
102
RTVSPost2010PropOp28
 70
     0
102
RTVSPost2010Prop29
280
     1
102
RTVSPost2010PropOp29
 70
     0
102
RTVSPost2010Prop30
280
     1
102
RTVSPost2010PropOp30
 70
     0
102
RTVSPost2010Prop31
280
     0
102
RTVSPost2010PropOp31
 70
     0
102
RTVSPost2010Prop32
280
     0
102
RTVSPost2010PropOp32
 70
     0
102
RTVSPost2010Prop33
280
     0
102
RTVSPost2010PropOp33
 70
     0
102
RTVSPost2010Prop34
280
     0
102
RTVSPost2010PropOp34
 70
     0
102
RTVSPost2010Prop35
280
     0
102
RTVSPost2010PropOp35
 70
     0
102
RTVSPost2010Prop36
280
     0
102
RTVSPost2010PropOp36
 70
     0
102
RTVSPost2010Prop37
 90
       50
102
RTVSPost2010PropOp37
 70
     0
102
RTVSPost2010Prop38
140
0.0
102
RTVSPost2010PropOp38
 70
     0
102
RTVSPost2010Prop39
140
1.0
102
RTVSPost2010PropOp39
 70
     0
102
RTVSPost2010Prop40
 90
        0
102
RTVSPost2010PropOp40
 70
     0
102
RTVSPost2010Prop41ColorIndex
 90
       18
102
RTVSPost2010Prop41ColorRGB
 90
        0
102
RTVSPost2010PropOp41
 70
     0
102
RTVSPost2010Prop42
 90
       50
102
RTVSPost2010PropOp42
 70
     0
102
RTVSPost2010Prop43
 90
        3
102
RTVSPost2010PropOp43
 70
     0
102
RTVSPost2010Prop44ColorIndex
 90
        5
102
RTVSPost2010Prop44ColorRGB
 90
      255
102
RTVSPost2010PropOp44
 70
     0
102
RTVSPost2010Prop45
280
     0
102
RTVSPost2010PropOp45
 70
     0
102
RTVSPost2010Prop46
 90
       50
102
RTVSPost2010PropOp46
 70
     0
102
RTVSPost2010Prop47
 90
       50
102
RTVSPost2010PropOp47
 70
     0
102
RTVSPost2010Prop48
 90
       50
102
RTVSPost2010PropOp48
 70
     0
102
RTVSPost2010Prop49
280
     0
102
RTVSPost2010PropOp49
 70
     0
102
RTVSPost2010Prop50
 90
       50
102
RTVSPost2010PropOp50
 70
     0
102
RTVSPost2010Prop51ColorIndex
 90
      256
102
RTVSPost2010Prop51ColorRGB
 90
-16777216
102
RTVSPost2010PropOp51
 70
     0
102
RTVSPost2010Prop52
140
1.0
102
RTVSPost2010PropOp52
 70
     0
102
RTVSPost2010Prop53
 90
        2
102
RTVSPost2010PropOp53
 70
     0
102
RTVSPost2010Prop54
  1
strokes_ogs.tif
102
RTVSPost2010PropOp54
 70
     0
102
RTVSPost2010Prop55
280
     0
102
RTVSPost2010PropOp55
 70
     0
102
RTVSPost2010Prop56
140
1.0
102
RTVSPost2010PropOp56
 70
     0
102
RTVSPost2010Prop57
140
1.0
102
RTVSPost2010PropOp57
 70
     0
  0
XRECORD
  5
AAF
102
{ACAD_REACTORS
330
AAE
102
}
330
AAE
100
AcDbXrecord
280
     1
102
RTVSPropertyOp0
 70
     1
102
RTVSPropertyOp1
 70
     1
102
RTVSPropertyOp2
 70
     1
102
RTVSPropertyOp3
 70
     1
102
RTVSPropertyOp4
 70
     1
102
RTVSPropertyOp5
 70
     1
102
RTVSPropertyOp6
 70
     1
102
RTVSPropertyOp7
 70
     1
102
RTVSPropertyOp8
 70
     1
102
RTVSPropertyOp9
 70
     1
102
RTVSPropertyOp10
 70
     1
102
RTVSPropertyOp11
 70
     1
102
RTVSPropertyOp12
 70
     1
102
RTVSPropertyOp13
 70
     1
102
RTVSPropertyOp14
 70
     1
102
RTVSPropertyOp15
 70
     1
102
RTVSPropertyOp16
 70
     1
102
RTVSPropertyOp17
 70
     1
102
RTVSPropertyOp18
 70
     1
102
RTVSPropertyOp19
 70
     1
102
RTVSPropertyOp20
 70
     1
102
RTVSPropertyOp21
 70
     1
102
RTVSPropertyOp22
 70
     1
102
RTVSPropertyOp23
 70
     1
102
RTVSPropertyOp24
 70
     1
102
RTVSPropertyOp25
 70
     1
102
RTVSPropertyOp26
 70
     1
102
RTVSPropertyOp27
 70
     1
102
RTVSPropertyOp28
 70
     1
102
RTVSPropertyOp29
 70
     1
102
RTVSPropertyOp30
 70
     1
102
RTVSPropertyOp31
 70
     1
102
RTVSPropertyOp32
 70
     1
102
RTVSPropertyOp33
 70
     1
102
RTVSPropertyOp34
 70
     1
102
RTVSPropertyOp35
 70
     1
102
RTVSPropertyOp36
 70
     1
102
RTVSPropertyOp37
 70
     1
102
RTVSPropertyOp38
 70
     1
102
RTVSPropertyOp39
 70
     1
102
RTVSPropertyOp40
 70
     1
102
RTVSPropertyOp41
 70
     1
102
RTVSPropertyOp42
 70
     1
102
RTVSPropertyOp43
 70
     1
102
RTVSPropertyOp44
 70
     1
102
RTVSPropertyOp45
 70
     1
102
RTVSPropertyOp46
 70
     1
102
RTVSPropertyOp47
 70
     1
102
RTVSPropertyOp48
 70
     1
102
RTVSPropertyOp49
 70
     1
102
RTVSPropertyOp50
 70
     1
102
RTVSPropertyOp51
 70
     0
102
RTVSPropertyOp52
 70
     0
102
RTVSPropertyOp53
 70
     1
102
RTVSPropertyOp54
 70
     1
102
RTVSPropertyOp55
 70
     1
102
RTVSPropertyOp56
 70
     1
102
RTVSPropertyOp57
 70
     1
102
RTVSPost2010Prop28
280
     0
102
RTVSPost2010PropOp28
 70
     1
102
RTVSPost2010Prop29
280
     1
102
RTVSPost2010PropOp29
 70
     1
102
RTVSPost2010Prop30
280
     1
102
RTVSPost2010PropOp30
 70
     1
102
RTVSPost2010Prop31
280
     0
102
RTVSPost2010PropOp31
 70
     1
102
RTVSPost2010Prop32
280
     0
102
RTVSPost2010PropOp32
 70
     1
102
RTVSPost2010Prop33
280
     0
102
RTVSPost2010PropOp33
 70
     1
102
RTVSPost2010Prop34
280
     0
102
RTVSPost2010PropOp34
 70
     1
102
RTVSPost2010Prop35
280
     0
102
RTVSPost2010PropOp35
 70
     1
102
RTVSPost2010Prop36
280
     0
102
RTVSPost2010PropOp36
 70
     1
102
RTVSPost2010Prop37
 90
       50
102
RTVSPost2010PropOp37
 70
     1
102
RTVSPost2010Prop38
140
0.0
102
RTVSPost2010PropOp38
 70
     1
102
RTVSPost2010Prop39
140
1.0
102
RTVSPost2010PropOp39
 70
     1
102
RTVSPost2010Prop40
 90
        0
102
RTVSPost2010PropOp40
 70
     1
102
RTVSPost2010Prop41ColorIndex
 90
       18
102
RTVSPost2010Prop41ColorRGB
 90
        0
102
RTVSPost2010PropOp41
 70
     1
102
RTVSPost2010Prop42
 90
       50
102
RTVSPost2010PropOp42
 70
     1
102
RTVSPost2010Prop43
 90
        3
102
RTVSPost2010PropOp43
 70
     1
102
RTVSPost2010Prop44ColorIndex
 90
        5
102
RTVSPost2010Prop44ColorRGB
 90
      255
102
RTVSPost2010PropOp44
 70
     1
102
RTVSPost2010Prop45
280
     0
102
RTVSPost2010PropOp45
 70
     1
102
RTVSPost2010Prop46
 90
       50
102
RTVSPost2010PropOp46
 70
     1
102
RTVSPost2010Prop47
 90
       50
102
RTVSPost2010PropOp47
 70
     1
102
RTVSPost2010Prop48
 90
       50
102
RTVSPost2010PropOp48
 70
     1
102
RTVSPost2010Prop49
280
     0
102
RTVSPost2010PropOp49
 70
     1
102
RTVSPost2010Prop50
 90
       50
102
RTVSPost2010PropOp50
 70
     1
102
RTVSPost2010Prop51ColorIndex
 90
      256
102
RTVSPost2010Prop51ColorRGB
 90
-16777216
102
RTVSPost2010PropOp51
 70
     0
102
RTVSPost2010Prop52
140
1.0
102
RTVSPost2010PropOp52
 70
     0
102
RTVSPost2010Prop53
 90
        2
102
RTVSPost2010PropOp53
 70
     1
102
RTVSPost2010Prop54
  1
strokes_ogs.tif
102
RTVSPost2010PropOp54
 70
     1
102
RTVSPost2010Prop55
280
     0
102
RTVSPost2010PropOp55
 70
     1
102
RTVSPost2010Prop56
140
1.0
102
RTVSPost2010PropOp56
 70
     1
102
RTVSPost2010Prop57
140
1.0
102
RTVSPost2010PropOp57
 70
     1
  0
XRECORD
  5
AB7
102
{ACAD_REACTORS
330
AB6
102
}
330
AB6
100
AcDbXrecord
280
     1
102
RTVSPropertyOp0
 70
     0
102
RTVSPropertyOp1
 70
     0
102
RTVSPropertyOp2
 70
     0
102
RTVSPropertyOp3
 70
     0
102
RTVSPropertyOp4
 70
     0
102
RTVSPropertyOp5
 70
     0
102
RTVSPropertyOp6
 70
     0
102
RTVSPropertyOp7
 70
     0
102
RTVSPropertyOp8
 70
     0
102
RTVSPropertyOp9
 70
     0
102
RTVSPropertyOp10
 70
     0
102
RTVSPropertyOp11
 70
     0
102
RTVSPropertyOp12
 70
     0
102
RTVSPropertyOp13
 70
     0
102
RTVSPropertyOp14
 70
     2
102
RTVSPropertyOp15
 70
     0
102
RTVSPropertyOp16
 70
     0
102
RTVSPropertyOp17
 70
     0
102
RTVSPropertyOp18
 70
     0
102
RTVSPropertyOp19
 70
     0
102
RTVSPropertyOp20
 70
     0
102
RTVSPropertyOp21
 70
     0
102
RTVSPropertyOp22
 70
     0
102
RTVSPropertyOp23
 70
     0
102
RTVSPropertyOp24
 70
     0
102
RTVSPropertyOp25
 70
     0
102
RTVSPropertyOp26
 70
     0
102
RTVSPropertyOp27
 70
     0
102
RTVSPropertyOp28
 70
     0
102
RTVSPropertyOp29
 70
     0
102
RTVSPropertyOp30
 70
     0
102
RTVSPropertyOp31
 70
     0
102
RTVSPropertyOp32
 70
     0
102
RTVSPropertyOp33
 70
     0
102
RTVSPropertyOp34
 70
     0
102
RTVSPropertyOp35
 70
     0
102
RTVSPropertyOp36
 70
     0
102
RTVSPropertyOp37
 70
     0
102
RTVSPropertyOp38
 70
     0
102
RTVSPropertyOp39
 70
     0
102
RTVSPropertyOp40
 70
     0
102
RTVSPropertyOp41
 70
     0
102
RTVSPropertyOp42
 70
     0
102
RTVSPropertyOp43
 70
     0
102
RTVSPropertyOp44
 70
     0
102
RTVSPropertyOp45
 70
     0
102
RTVSPropertyOp46
 70
     0
102
RTVSPropertyOp47
 70
     0
102
RTVSPropertyOp48
 70
     0
102
RTVSPropertyOp49
 70
     0
102
RTVSPropertyOp50
 70
     0
102
RTVSPropertyOp51
 70
     0
102
RTVSPropertyOp52
 70
     0
102
RTVSPropertyOp53
 70
     0
102
RTVSPropertyOp54
 70
     0
102
RTVSPropertyOp55
 70
     0
102
RTVSPropertyOp56
 70
     0
102
RTVSPropertyOp57
 70
     0
102
RTVSPost2010Prop28
280
     0
102
RTVSPost2010PropOp28
 70
     0
102
RTVSPost2010Prop29
280
     1
102
RTVSPost2010PropOp29
 70
     0
102
RTVSPost2010Prop30
280
     1
102
RTVSPost2010PropOp30
 70
     0
102
RTVSPost2010Prop31
280
     0
102
RTVSPost2010PropOp31
 70
     0
102
RTVSPost2010Prop32
280
     0
102
RTVSPost2010PropOp32
 70
     0
102
RTVSPost2010Prop33
280
     0
102
RTVSPost2010PropOp33
 70
     0
102
RTVSPost2010Prop34
280
     0
102
RTVSPost2010PropOp34
 70
     0
102
RTVSPost2010Prop35
280
     0
102
RTVSPost2010PropOp35
 70
     0
102
RTVSPost2010Prop36
280
     0
102
RTVSPost2010PropOp36
 70
     0
102
RTVSPost2010Prop37
 90
       50
102
RTVSPost2010PropOp37
 70
     0
102
RTVSPost2010Prop38
140
0.0
102
RTVSPost2010PropOp38
 70
     0
102
RTVSPost2010Prop39
140
1.0
102
RTVSPost2010PropOp39
 70
     0
102
RTVSPost2010Prop40
 90
        0
102
RTVSPost2010PropOp40
 70
     0
102
RTVSPost2010Prop41ColorIndex
 90
       18
102
RTVSPost2010Prop41ColorRGB
 90
        0
102
RTVSPost2010PropOp41
 70
     0
102
RTVSPost2010Prop42
 90
       50
102
RTVSPost2010PropOp42
 70
     0
102
RTVSPost2010Prop43
 90
        3
102
RTVSPost2010PropOp43
 70
     0
102
RTVSPost2010Prop44ColorIndex
 90
        5
102
RTVSPost2010Prop44ColorRGB
 90
      255
102
RTVSPost2010PropOp44
 70
     0
102
RTVSPost2010Prop45
280
     0
102
RTVSPost2010PropOp45
 70
     0
102
RTVSPost2010Prop46
 90
       50
102
RTVSPost2010PropOp46
 70
     0
102
RTVSPost2010Prop47
 90
       50
102
RTVSPost2010PropOp47
 70
     0
102
RTVSPost2010Prop48
 90
       50
102
RTVSPost2010PropOp48
 70
     0
102
RTVSPost2010Prop49
280
     0
102
RTVSPost2010PropOp49
 70
     0
102
RTVSPost2010Prop50
 90
       50
102
RTVSPost2010PropOp50
 70
     0
102
RTVSPost2010Prop51ColorIndex
 90
      256
102
RTVSPost2010Prop51ColorRGB
 90
-16777216
102
RTVSPost2010PropOp51
 70
     0
102
RTVSPost2010Prop52
140
1.0
102
RTVSPost2010PropOp52
 70
     0
102
RTVSPost2010Prop53
 90
        2
102
RTVSPost2010PropOp53
 70
     0
102
RTVSPost2010Prop54
  1
strokes_ogs.tif
102
RTVSPost2010PropOp54
 70
     0
102
RTVSPost2010Prop55
280
     0
102
RTVSPost2010PropOp55
 70
     0
102
RTVSPost2010Prop56
140
1.0
102
RTVSPost2010PropOp56
 70
     0
102
RTVSPost2010Prop57
140
1.0
102
RTVSPost2010PropOp57
 70
     0
  0
XRECORD
  5
AA5
102
{ACAD_REACTORS
330
AA4
102
}
330
AA4
100
AcDbXrecord
280
     1
102
RTVSPropertyOp0
 70
     1
102
RTVSPropertyOp1
 70
     1
102
RTVSPropertyOp2
 70
     1
102
RTVSPropertyOp3
 70
     1
102
RTVSPropertyOp4
 70
     1
102
RTVSPropertyOp5
 70
     1
102
RTVSPropertyOp6
 70
     1
102
RTVSPropertyOp7
 70
     1
102
RTVSPropertyOp8
 70
     1
102
RTVSPropertyOp9
 70
     1
102
RTVSPropertyOp10
 70
     1
102
RTVSPropertyOp11
 70
     1
102
RTVSPropertyOp12
 70
     1
102
RTVSPropertyOp13
 70
     1
102
RTVSPropertyOp14
 70
     1
102
RTVSPropertyOp15
 70
     1
102
RTVSPropertyOp16
 70
     1
102
RTVSPropertyOp17
 70
     1
102
RTVSPropertyOp18
 70
     1
102
RTVSPropertyOp19
 70
     1
102
RTVSPropertyOp20
 70
     1
102
RTVSPropertyOp21
 70
     1
102
RTVSPropertyOp22
 70
     1
102
RTVSPropertyOp23
 70
     1
102
RTVSPropertyOp24
 70
     1
102
RTVSPropertyOp25
 70
     1
102
RTVSPropertyOp26
 70
     1
102
RTVSPropertyOp27
 70
     1
102
RTVSPropertyOp28
 70
     1
102
RTVSPropertyOp29
 70
     1
102
RTVSPropertyOp30
 70
     1
102
RTVSPropertyOp31
 70
     1
102
RTVSPropertyOp32
 70
     1
102
RTVSPropertyOp33
 70
     1
102
RTVSPropertyOp34
 70
     1
102
RTVSPropertyOp35
 70
     1
102
RTVSPropertyOp36
 70
     1
102
RTVSPropertyOp37
 70
     1
102
RTVSPropertyOp38
 70
     1
102
RTVSPropertyOp39
 70
     1
102
RTVSPropertyOp40
 70
     1
102
RTVSPropertyOp41
 70
     1
102
RTVSPropertyOp42
 70
     1
102
RTVSPropertyOp43
 70
     1
102
RTVSPropertyOp44
 70
     1
102
RTVSPropertyOp45
 70
     1
102
RTVSPropertyOp46
 70
     1
102
RTVSPropertyOp47
 70
     1
102
RTVSPropertyOp48
 70
     1
102
RTVSPropertyOp49
 70
     1
102
RTVSPropertyOp50
 70
     1
102
RTVSPropertyOp51
 70
     0
102
RTVSPropertyOp52
 70
     0
102
RTVSPropertyOp53
 70
     1
102
RTVSPropertyOp54
 70
     1
102
RTVSPropertyOp55
 70
     1
102
RTVSPropertyOp56
 70
     1
102
RTVSPropertyOp57
 70
     1
102
RTVSPost2010Prop28
280
     0
102
RTVSPost2010PropOp28
 70
     1
102
RTVSPost2010Prop29
280
     1
102
RTVSPost2010PropOp29
 70
     1
102
RTVSPost2010Prop30
280
     1
102
RTVSPost2010PropOp30
 70
     1
102
RTVSPost2010Prop31
280
     0
102
RTVSPost2010PropOp31
 70
     1
102
RTVSPost2010Prop32
280
     0
102
RTVSPost2010PropOp32
 70
     1
102
RTVSPost2010Prop33
280
     0
102
RTVSPost2010PropOp33
 70
     1
102
RTVSPost2010Prop34
280
     0
102
RTVSPost2010PropOp34
 70
     1
102
RTVSPost2010Prop35
280
     0
102
RTVSPost2010PropOp35
 70
     1
102
RTVSPost2010Prop36
280
     0
102
RTVSPost2010PropOp36
 70
     1
102
RTVSPost2010Prop37
 90
       50
102
RTVSPost2010PropOp37
 70
     1
102
RTVSPost2010Prop38
140
0.0
102
RTVSPost2010PropOp38
 70
     1
102
RTVSPost2010Prop39
140
1.0
102
RTVSPost2010PropOp39
 70
     1
102
RTVSPost2010Prop40
 90
        0
102
RTVSPost2010PropOp40
 70
     1
102
RTVSPost2010Prop41ColorIndex
 90
       18
102
RTVSPost2010Prop41ColorRGB
 90
        0
102
RTVSPost2010PropOp41
 70
     1
102
RTVSPost2010Prop42
 90
       50
102
RTVSPost2010PropOp42
 70
     1
102
RTVSPost2010Prop43
 90
        3
102
RTVSPost2010PropOp43
 70
     1
102
RTVSPost2010Prop44ColorIndex
 90
        5
102
RTVSPost2010Prop44ColorRGB
 90
      255
102
RTVSPost2010PropOp44
 70
     1
102
RTVSPost2010Prop45
280
     0
102
RTVSPost2010PropOp45
 70
     1
102
RTVSPost2010Prop46
 90
       50
102
RTVSPost2010PropOp46
 70
     1
102
RTVSPost2010Prop47
 90
       50
102
RTVSPost2010PropOp47
 70
     1
102
RTVSPost2010Prop48
 90
       50
102
RTVSPost2010PropOp48
 70
     1
102
RTVSPost2010Prop49
280
     0
102
RTVSPost2010PropOp49
 70
     1
102
RTVSPost2010Prop50
 90
       50
102
RTVSPost2010PropOp50
 70
     1
102
RTVSPost2010Prop51ColorIndex
 90
      256
102
RTVSPost2010Prop51ColorRGB
 90
-16777216
102
RTVSPost2010PropOp51
 70
     0
102
RTVSPost2010Prop52
140
1.0
102
RTVSPost2010PropOp52
 70
     0
102
RTVSPost2010Prop53
 90
        2
102
RTVSPost2010PropOp53
 70
     1
102
RTVSPost2010Prop54
  1
strokes_ogs.tif
102
RTVSPost2010PropOp54
 70
     1
102
RTVSPost2010Prop55
280
     0
102
RTVSPost2010PropOp55
 70
     1
102
RTVSPost2010Prop56
140
1.0
102
RTVSPost2010PropOp56
 70
     1
102
RTVSPost2010Prop57
140
1.0
102
RTVSPost2010PropOp57
 70
     1
  0
XRECORD
  5
AC3
102
{ACAD_REACTORS
330
AC2
102
}
330
AC2
100
AcDbXrecord
280
     1
102
RTVSPropertyOp0
 70
     1
102
RTVSPropertyOp1
 70
     1
102
RTVSPropertyOp2
 70
     1
102
RTVSPropertyOp3
 70
     1
102
RTVSPropertyOp4
 70
     1
102
RTVSPropertyOp5
 70
     1
102
RTVSPropertyOp6
 70
     1
102
RTVSPropertyOp7
 70
     1
102
RTVSPropertyOp8
 70
     1
102
RTVSPropertyOp9
 70
     1
102
RTVSPropertyOp10
 70
     1
102
RTVSPropertyOp11
 70
     1
102
RTVSPropertyOp12
 70
     1
102
RTVSPropertyOp13
 70
     1
102
RTVSPropertyOp14
 70
     1
102
RTVSPropertyOp15
 70
     1
102
RTVSPropertyOp16
 70
     1
102
RTVSPropertyOp17
 70
     1
102
RTVSPropertyOp18
 70
     1
102
RTVSPropertyOp19
 70
     1
102
RTVSPropertyOp20
 70
     1
102
RTVSPropertyOp21
 70
     1
102
RTVSPropertyOp22
 70
     1
102
RTVSPropertyOp23
 70
     1
102
RTVSPropertyOp24
 70
     1
102
RTVSPropertyOp25
 70
     1
102
RTVSPropertyOp26
 70
     1
102
RTVSPropertyOp27
 70
     1
102
RTVSPropertyOp28
 70
     1
102
RTVSPropertyOp29
 70
     1
102
RTVSPropertyOp30
 70
     1
102
RTVSPropertyOp31
 70
     1
102
RTVSPropertyOp32
 70
     1
102
RTVSPropertyOp33
 70
     1
102
RTVSPropertyOp34
 70
     1
102
RTVSPropertyOp35
 70
     1
102
RTVSPropertyOp36
 70
     1
102
RTVSPropertyOp37
 70
     1
102
RTVSPropertyOp38
 70
     1
102
RTVSPropertyOp39
 70
     1
102
RTVSPropertyOp40
 70
     1
102
RTVSPropertyOp41
 70
     1
102
RTVSPropertyOp42
 70
     1
102
RTVSPropertyOp43
 70
     1
102
RTVSPropertyOp44
 70
     1
102
RTVSPropertyOp45
 70
     1
102
RTVSPropertyOp46
 70
     1
102
RTVSPropertyOp47
 70
     1
102
RTVSPropertyOp48
 70
     1
102
RTVSPropertyOp49
 70
     1
102
RTVSPropertyOp50
 70
     1
102
RTVSPropertyOp51
 70
     0
102
RTVSPropertyOp52
 70
     0
102
RTVSPropertyOp53
 70
     1
102
RTVSPropertyOp54
 70
     1
102
RTVSPropertyOp55
 70
     1
102
RTVSPropertyOp56
 70
     1
102
RTVSPropertyOp57
 70
     1
102
RTVSPost2010Prop28
280
     0
102
RTVSPost2010PropOp28
 70
     1
102
RTVSPost2010Prop29
280
     1
102
RTVSPost2010PropOp29
 70
     1
102
RTVSPost2010Prop30
280
     1
102
RTVSPost2010PropOp30
 70
     1
102
RTVSPost2010Prop31
280
     0
102
RTVSPost2010PropOp31
 70
     1
102
RTVSPost2010Prop32
280
     0
102
RTVSPost2010PropOp32
 70
     1
102
RTVSPost2010Prop33
280
     0
102
RTVSPost2010PropOp33
 70
     1
102
RTVSPost2010Prop34
280
     0
102
RTVSPost2010PropOp34
 70
     1
102
RTVSPost2010Prop35
280
     0
102
RTVSPost2010PropOp35
 70
     1
102
RTVSPost2010Prop36
280
     0
102
RTVSPost2010PropOp36
 70
     1
102
RTVSPost2010Prop37
 90
       50
102
RTVSPost2010PropOp37
 70
     1
102
RTVSPost2010Prop38
140
0.0
102
RTVSPost2010PropOp38
 70
     1
102
RTVSPost2010Prop39
140
1.0
102
RTVSPost2010PropOp39
 70
     1
102
RTVSPost2010Prop40
 90
        0
102
RTVSPost2010PropOp40
 70
     1
102
RTVSPost2010Prop41ColorIndex
 90
       18
102
RTVSPost2010Prop41ColorRGB
 90
        0
102
RTVSPost2010PropOp41
 70
     1
102
RTVSPost2010Prop42
 90
       50
102
RTVSPost2010PropOp42
 70
     1
102
RTVSPost2010Prop43
 90
        3
102
RTVSPost2010PropOp43
 70
     1
102
RTVSPost2010Prop44ColorIndex
 90
        5
102
RTVSPost2010Prop44ColorRGB
 90
      255
102
RTVSPost2010PropOp44
 70
     1
102
RTVSPost2010Prop45
280
     0
102
RTVSPost2010PropOp45
 70
     1
102
RTVSPost2010Prop46
 90
       50
102
RTVSPost2010PropOp46
 70
     1
102
RTVSPost2010Prop47
 90
       50
102
RTVSPost2010PropOp47
 70
     1
102
RTVSPost2010Prop48
 90
       50
102
RTVSPost2010PropOp48
 70
     1
102
RTVSPost2010Prop49
280
     0
102
RTVSPost2010PropOp49
 70
     1
102
RTVSPost2010Prop50
 90
       50
102
RTVSPost2010PropOp50
 70
     1
102
RTVSPost2010Prop51ColorIndex
 90
      256
102
RTVSPost2010Prop51ColorRGB
 90
-16777216
102
RTVSPost2010PropOp51
 70
     0
102
RTVSPost2010Prop52
140
1.0
102
RTVSPost2010PropOp52
 70
     0
102
RTVSPost2010Prop53
 90
        2
102
RTVSPost2010PropOp53
 70
     1
102
RTVSPost2010Prop54
  1
strokes_ogs.tif
102
RTVSPost2010PropOp54
 70
     1
102
RTVSPost2010Prop55
280
     0
102
RTVSPost2010PropOp55
 70
     1
102
RTVSPost2010Prop56
140
1.0
102
RTVSPost2010PropOp56
 70
     1
102
RTVSPost2010Prop57
140
1.0
102
RTVSPost2010PropOp57
 70
     1
  0
XRECORD
  5
AC1
102
{ACAD_REACTORS
330
AC0
102
}
330
AC0
100
AcDbXrecord
280
     1
102
RTVSPropertyOp0
 70
     1
102
RTVSPropertyOp1
 70
     1
102
RTVSPropertyOp2
 70
     1
102
RTVSPropertyOp3
 70
     1
102
RTVSPropertyOp4
 70
     1
102
RTVSPropertyOp5
 70
     1
102
RTVSPropertyOp6
 70
     1
102
RTVSPropertyOp7
 70
     1
102
RTVSPropertyOp8
 70
     1
102
RTVSPropertyOp9
 70
     1
102
RTVSPropertyOp10
 70
     1
102
RTVSPropertyOp11
 70
     1
102
RTVSPropertyOp12
 70
     1
102
RTVSPropertyOp13
 70
     1
102
RTVSPropertyOp14
 70
     1
102
RTVSPropertyOp15
 70
     1
102
RTVSPropertyOp16
 70
     1
102
RTVSPropertyOp17
 70
     1
102
RTVSPropertyOp18
 70
     1
102
RTVSPropertyOp19
 70
     1
102
RTVSPropertyOp20
 70
     1
102
RTVSPropertyOp21
 70
     1
102
RTVSPropertyOp22
 70
     1
102
RTVSPropertyOp23
 70
     1
102
RTVSPropertyOp24
 70
     1
102
RTVSPropertyOp25
 70
     1
102
RTVSPropertyOp26
 70
     1
102
RTVSPropertyOp27
 70
     1
102
RTVSPropertyOp28
 70
     1
102
RTVSPropertyOp29
 70
     1
102
RTVSPropertyOp30
 70
     1
102
RTVSPropertyOp31
 70
     1
102
RTVSPropertyOp32
 70
     1
102
RTVSPropertyOp33
 70
     1
102
RTVSPropertyOp34
 70
     1
102
RTVSPropertyOp35
 70
     1
102
RTVSPropertyOp36
 70
     1
102
RTVSPropertyOp37
 70
     1
102
RTVSPropertyOp38
 70
     1
102
RTVSPropertyOp39
 70
     1
102
RTVSPropertyOp40
 70
     1
102
RTVSPropertyOp41
 70
     1
102
RTVSPropertyOp42
 70
     1
102
RTVSPropertyOp43
 70
     1
102
RTVSPropertyOp44
 70
     1
102
RTVSPropertyOp45
 70
     1
102
RTVSPropertyOp46
 70
     1
102
RTVSPropertyOp47
 70
     1
102
RTVSPropertyOp48
 70
     1
102
RTVSPropertyOp49
 70
     1
102
RTVSPropertyOp50
 70
     1
102
RTVSPropertyOp51
 70
     0
102
RTVSPropertyOp52
 70
     0
102
RTVSPropertyOp53
 70
     1
102
RTVSPropertyOp54
 70
     1
102
RTVSPropertyOp55
 70
     1
102
RTVSPropertyOp56
 70
     1
102
RTVSPropertyOp57
 70
     1
102
RTVSPost2010Prop28
280
     0
102
RTVSPost2010PropOp28
 70
     1
102
RTVSPost2010Prop29
280
     1
102
RTVSPost2010PropOp29
 70
     1
102
RTVSPost2010Prop30
280
     1
102
RTVSPost2010PropOp30
 70
     1
102
RTVSPost2010Prop31
280
     0
102
RTVSPost2010PropOp31
 70
     1
102
RTVSPost2010Prop32
280
     0
102
RTVSPost2010PropOp32
 70
     1
102
RTVSPost2010Prop33
280
     0
102
RTVSPost2010PropOp33
 70
     1
102
RTVSPost2010Prop34
280
     0
102
RTVSPost2010PropOp34
 70
     1
102
RTVSPost2010Prop35
280
     0
102
RTVSPost2010PropOp35
 70
     1
102
RTVSPost2010Prop36
280
     0
102
RTVSPost2010PropOp36
 70
     1
102
RTVSPost2010Prop37
 90
       50
102
RTVSPost2010PropOp37
 70
     1
102
RTVSPost2010Prop38
140
0.0
102
RTVSPost2010PropOp38
 70
     1
102
RTVSPost2010Prop39
140
1.0
102
RTVSPost2010PropOp39
 70
     1
102
RTVSPost2010Prop40
 90
        0
102
RTVSPost2010PropOp40
 70
     1
102
RTVSPost2010Prop41ColorIndex
 90
       18
102
RTVSPost2010Prop41ColorRGB
 90
        0
102
RTVSPost2010PropOp41
 70
     1
102
RTVSPost2010Prop42
 90
       50
102
RTVSPost2010PropOp42
 70
     1
102
RTVSPost2010Prop43
 90
        3
102
RTVSPost2010PropOp43
 70
     1
102
RTVSPost2010Prop44ColorIndex
 90
        5
102
RTVSPost2010Prop44ColorRGB
 90
      255
102
RTVSPost2010PropOp44
 70
     1
102
RTVSPost2010Prop45
280
     0
102
RTVSPost2010PropOp45
 70
     1
102
RTVSPost2010Prop46
 90
       50
102
RTVSPost2010PropOp46
 70
     1
102
RTVSPost2010Prop47
 90
       50
102
RTVSPost2010PropOp47
 70
     1
102
RTVSPost2010Prop48
 90
       50
102
RTVSPost2010PropOp48
 70
     1
102
RTVSPost2010Prop49
280
     0
102
RTVSPost2010PropOp49
 70
     1
102
RTVSPost2010Prop50
 90
       50
102
RTVSPost2010PropOp50
 70
     1
102
RTVSPost2010Prop51ColorIndex
 90
      256
102
RTVSPost2010Prop51ColorRGB
 90
-16777216
102
RTVSPost2010PropOp51
 70
     0
102
RTVSPost2010Prop52
140
1.0
102
RTVSPost2010PropOp52
 70
     0
102
RTVSPost2010Prop53
 90
        2
102
RTVSPost2010PropOp53
 70
     1
102
RTVSPost2010Prop54
  1
strokes_ogs.tif
102
RTVSPost2010PropOp54
 70
     1
102
RTVSPost2010Prop55
280
     0
102
RTVSPost2010PropOp55
 70
     1
102
RTVSPost2010Prop56
140
1.0
102
RTVSPost2010PropOp56
 70
     1
102
RTVSPost2010Prop57
140
1.0
102
RTVSPost2010PropOp57
 70
     1
  0
XRECORD
  5
ABB
102
{ACAD_REACTORS
330
ABA
102
}
330
ABA
100
AcDbXrecord
280
     1
102
RTVSPropertyOp0
 70
     1
102
RTVSPropertyOp1
 70
     1
102
RTVSPropertyOp2
 70
     1
102
RTVSPropertyOp3
 70
     1
102
RTVSPropertyOp4
 70
     1
102
RTVSPropertyOp5
 70
     1
102
RTVSPropertyOp6
 70
     1
102
RTVSPropertyOp7
 70
     1
102
RTVSPropertyOp8
 70
     1
102
RTVSPropertyOp9
 70
     1
102
RTVSPropertyOp10
 70
     1
102
RTVSPropertyOp11
 70
     1
102
RTVSPropertyOp12
 70
     1
102
RTVSPropertyOp13
 70
     1
102
RTVSPropertyOp14
 70
     1
102
RTVSPropertyOp15
 70
     1
102
RTVSPropertyOp16
 70
     1
102
RTVSPropertyOp17
 70
     1
102
RTVSPropertyOp18
 70
     1
102
RTVSPropertyOp19
 70
     1
102
RTVSPropertyOp20
 70
     1
102
RTVSPropertyOp21
 70
     1
102
RTVSPropertyOp22
 70
     1
102
RTVSPropertyOp23
 70
     1
102
RTVSPropertyOp24
 70
     1
102
RTVSPropertyOp25
 70
     1
102
RTVSPropertyOp26
 70
     1
102
RTVSPropertyOp27
 70
     1
102
RTVSPropertyOp28
 70
     1
102
RTVSPropertyOp29
 70
     1
102
RTVSPropertyOp30
 70
     1
102
RTVSPropertyOp31
 70
     1
102
RTVSPropertyOp32
 70
     1
102
RTVSPropertyOp33
 70
     1
102
RTVSPropertyOp34
 70
     1
102
RTVSPropertyOp35
 70
     1
102
RTVSPropertyOp36
 70
     1
102
RTVSPropertyOp37
 70
     1
102
RTVSPropertyOp38
 70
     1
102
RTVSPropertyOp39
 70
     1
102
RTVSPropertyOp40
 70
     1
102
RTVSPropertyOp41
 70
     1
102
RTVSPropertyOp42
 70
     1
102
RTVSPropertyOp43
 70
     1
102
RTVSPropertyOp44
 70
     1
102
RTVSPropertyOp45
 70
     1
102
RTVSPropertyOp46
 70
     1
102
RTVSPropertyOp47
 70
     1
102
RTVSPropertyOp48
 70
     1
102
RTVSPropertyOp49
 70
     1
102
RTVSPropertyOp50
 70
     1
102
RTVSPropertyOp51
 70
     0
102
RTVSPropertyOp52
 70
     0
102
RTVSPropertyOp53
 70
     1
102
RTVSPropertyOp54
 70
     1
102
RTVSPropertyOp55
 70
     1
102
RTVSPropertyOp56
 70
     1
102
RTVSPropertyOp57
 70
     1
102
RTVSPost2010Prop28
280
     0
102
RTVSPost2010PropOp28
 70
     1
102
RTVSPost2010Prop29
280
     1
102
RTVSPost2010PropOp29
 70
     1
102
RTVSPost2010Prop30
280
     1
102
RTVSPost2010PropOp30
 70
     1
102
RTVSPost2010Prop31
280
     0
102
RTVSPost2010PropOp31
 70
     1
102
RTVSPost2010Prop32
280
     0
102
RTVSPost2010PropOp32
 70
     1
102
RTVSPost2010Prop33
280
     0
102
RTVSPost2010PropOp33
 70
     1
102
RTVSPost2010Prop34
280
     0
102
RTVSPost2010PropOp34
 70
     1
102
RTVSPost2010Prop35
280
     0
102
RTVSPost2010PropOp35
 70
     1
102
RTVSPost2010Prop36
280
     0
102
RTVSPost2010PropOp36
 70
     1
102
RTVSPost2010Prop37
 90
       50
102
RTVSPost2010PropOp37
 70
     1
102
RTVSPost2010Prop38
140
0.0
102
RTVSPost2010PropOp38
 70
     1
102
RTVSPost2010Prop39
140
1.0
102
RTVSPost2010PropOp39
 70
     1
102
RTVSPost2010Prop40
 90
        0
102
RTVSPost2010PropOp40
 70
     1
102
RTVSPost2010Prop41ColorIndex
 90
       18
102
RTVSPost2010Prop41ColorRGB
 90
        0
102
RTVSPost2010PropOp41
 70
     1
102
RTVSPost2010Prop42
 90
       50
102
RTVSPost2010PropOp42
 70
     1
102
RTVSPost2010Prop43
 90
        3
102
RTVSPost2010PropOp43
 70
     1
102
RTVSPost2010Prop44ColorIndex
 90
        5
102
RTVSPost2010Prop44ColorRGB
 90
      255
102
RTVSPost2010PropOp44
 70
     1
102
RTVSPost2010Prop45
280
     0
102
RTVSPost2010PropOp45
 70
     1
102
RTVSPost2010Prop46
 90
       50
102
RTVSPost2010PropOp46
 70
     1
102
RTVSPost2010Prop47
 90
       50
102
RTVSPost2010PropOp47
 70
     1
102
RTVSPost2010Prop48
 90
       50
102
RTVSPost2010PropOp48
 70
     1
102
RTVSPost2010Prop49
280
     0
102
RTVSPost2010PropOp49
 70
     1
102
RTVSPost2010Prop50
 90
       50
102
RTVSPost2010PropOp50
 70
     1
102
RTVSPost2010Prop51ColorIndex
 90
      256
102
RTVSPost2010Prop51ColorRGB
 90
-16777216
102
RTVSPost2010PropOp51
 70
     0
102
RTVSPost2010Prop52
140
1.0
102
RTVSPost2010PropOp52
 70
     0
102
RTVSPost2010Prop53
 90
        2
102
RTVSPost2010PropOp53
 70
     1
102
RTVSPost2010Prop54
  1
strokes_ogs.tif
102
RTVSPost2010PropOp54
 70
     1
102
RTVSPost2010Prop55
280
     0
102
RTVSPost2010PropOp55
 70
     1
102
RTVSPost2010Prop56
140
1.0
102
RTVSPost2010PropOp56
 70
     1
102
RTVSPost2010Prop57
140
1.0
102
RTVSPost2010PropOp57
 70
     1
  0
XRECORD
  5
ABD
102
{ACAD_REACTORS
330
ABC
102
}
330
ABC
100
AcDbXrecord
280
     1
102
RTVSPropertyOp0
 70
     1
102
RTVSPropertyOp1
 70
     1
102
RTVSPropertyOp2
 70
     1
102
RTVSPropertyOp3
 70
     1
102
RTVSPropertyOp4
 70
     1
102
RTVSPropertyOp5
 70
     1
102
RTVSPropertyOp6
 70
     1
102
RTVSPropertyOp7
 70
     1
102
RTVSPropertyOp8
 70
     1
102
RTVSPropertyOp9
 70
     1
102
RTVSPropertyOp10
 70
     1
102
RTVSPropertyOp11
 70
     1
102
RTVSPropertyOp12
 70
     1
102
RTVSPropertyOp13
 70
     1
102
RTVSPropertyOp14
 70
     1
102
RTVSPropertyOp15
 70
     1
102
RTVSPropertyOp16
 70
     1
102
RTVSPropertyOp17
 70
     1
102
RTVSPropertyOp18
 70
     1
102
RTVSPropertyOp19
 70
     1
102
RTVSPropertyOp20
 70
     1
102
RTVSPropertyOp21
 70
     1
102
RTVSPropertyOp22
 70
     1
102
RTVSPropertyOp23
 70
     1
102
RTVSPropertyOp24
 70
     1
102
RTVSPropertyOp25
 70
     1
102
RTVSPropertyOp26
 70
     1
102
RTVSPropertyOp27
 70
     1
102
RTVSPropertyOp28
 70
     1
102
RTVSPropertyOp29
 70
     1
102
RTVSPropertyOp30
 70
     1
102
RTVSPropertyOp31
 70
     1
102
RTVSPropertyOp32
 70
     1
102
RTVSPropertyOp33
 70
     1
102
RTVSPropertyOp34
 70
     1
102
RTVSPropertyOp35
 70
     1
102
RTVSPropertyOp36
 70
     1
102
RTVSPropertyOp37
 70
     1
102
RTVSPropertyOp38
 70
     1
102
RTVSPropertyOp39
 70
     1
102
RTVSPropertyOp40
 70
     1
102
RTVSPropertyOp41
 70
     1
102
RTVSPropertyOp42
 70
     1
102
RTVSPropertyOp43
 70
     1
102
RTVSPropertyOp44
 70
     1
102
RTVSPropertyOp45
 70
     1
102
RTVSPropertyOp46
 70
     1
102
RTVSPropertyOp47
 70
     1
102
RTVSPropertyOp48
 70
     1
102
RTVSPropertyOp49
 70
     1
102
RTVSPropertyOp50
 70
     1
102
RTVSPropertyOp51
 70
     0
102
RTVSPropertyOp52
 70
     0
102
RTVSPropertyOp53
 70
     1
102
RTVSPropertyOp54
 70
     1
102
RTVSPropertyOp55
 70
     1
102
RTVSPropertyOp56
 70
     1
102
RTVSPropertyOp57
 70
     1
102
RTVSPost2010Prop28
280
     0
102
RTVSPost2010PropOp28
 70
     1
102
RTVSPost2010Prop29
280
     1
102
RTVSPost2010PropOp29
 70
     1
102
RTVSPost2010Prop30
280
     1
102
RTVSPost2010PropOp30
 70
     1
102
RTVSPost2010Prop31
280
     0
102
RTVSPost2010PropOp31
 70
     1
102
RTVSPost2010Prop32
280
     0
102
RTVSPost2010PropOp32
 70
     1
102
RTVSPost2010Prop33
280
     0
102
RTVSPost2010PropOp33
 70
     1
102
RTVSPost2010Prop34
280
     0
102
RTVSPost2010PropOp34
 70
     1
102
RTVSPost2010Prop35
280
     0
102
RTVSPost2010PropOp35
 70
     1
102
RTVSPost2010Prop36
280
     0
102
RTVSPost2010PropOp36
 70
     1
102
RTVSPost2010Prop37
 90
       50
102
RTVSPost2010PropOp37
 70
     1
102
RTVSPost2010Prop38
140
0.0
102
RTVSPost2010PropOp38
 70
     1
102
RTVSPost2010Prop39
140
1.0
102
RTVSPost2010PropOp39
 70
     1
102
RTVSPost2010Prop40
 90
        0
102
RTVSPost2010PropOp40
 70
     1
102
RTVSPost2010Prop41ColorIndex
 90
       18
102
RTVSPost2010Prop41ColorRGB
 90
        0
102
RTVSPost2010PropOp41
 70
     1
102
RTVSPost2010Prop42
 90
       50
102
RTVSPost2010PropOp42
 70
     1
102
RTVSPost2010Prop43
 90
        3
102
RTVSPost2010PropOp43
 70
     1
102
RTVSPost2010Prop44ColorIndex
 90
        5
102
RTVSPost2010Prop44ColorRGB
 90
      255
102
RTVSPost2010PropOp44
 70
     1
102
RTVSPost2010Prop45
280
     0
102
RTVSPost2010PropOp45
 70
     1
102
RTVSPost2010Prop46
 90
       50
102
RTVSPost2010PropOp46
 70
     1
102
RTVSPost2010Prop47
 90
       50
102
RTVSPost2010PropOp47
 70
     1
102
RTVSPost2010Prop48
 90
       50
102
RTVSPost2010PropOp48
 70
     1
102
RTVSPost2010Prop49
280
     0
102
RTVSPost2010PropOp49
 70
     1
102
RTVSPost2010Prop50
 90
       50
102
RTVSPost2010PropOp50
 70
     1
102
RTVSPost2010Prop51ColorIndex
 90
      256
102
RTVSPost2010Prop51ColorRGB
 90
-16777216
102
RTVSPost2010PropOp51
 70
     0
102
RTVSPost2010Prop52
140
1.0
102
RTVSPost2010PropOp52
 70
     0
102
RTVSPost2010Prop53
 90
        2
102
RTVSPost2010PropOp53
 70
     1
102
RTVSPost2010Prop54
  1
strokes_ogs.tif
102
RTVSPost2010PropOp54
 70
     1
102
RTVSPost2010Prop55
280
     0
102
RTVSPost2010PropOp55
 70
     1
102
RTVSPost2010Prop56
140
1.0
102
RTVSPost2010PropOp56
 70
     1
102
RTVSPost2010Prop57
140
1.0
102
RTVSPost2010PropOp57
 70
     1
  0
XRECORD
  5
AAD
102
{ACAD_REACTORS
330
AAC
102
}
330
AAC
100
AcDbXrecord
280
     1
102
RTVSPropertyOp0
 70
     1
102
RTVSPropertyOp1
 70
     1
102
RTVSPropertyOp2
 70
     1
102
RTVSPropertyOp3
 70
     1
102
RTVSPropertyOp4
 70
     1
102
RTVSPropertyOp5
 70
     1
102
RTVSPropertyOp6
 70
     1
102
RTVSPropertyOp7
 70
     1
102
RTVSPropertyOp8
 70
     1
102
RTVSPropertyOp9
 70
     1
102
RTVSPropertyOp10
 70
     1
102
RTVSPropertyOp11
 70
     1
102
RTVSPropertyOp12
 70
     1
102
RTVSPropertyOp13
 70
     1
102
RTVSPropertyOp14
 70
     1
102
RTVSPropertyOp15
 70
     1
102
RTVSPropertyOp16
 70
     1
102
RTVSPropertyOp17
 70
     1
102
RTVSPropertyOp18
 70
     1
102
RTVSPropertyOp19
 70
     1
102
RTVSPropertyOp20
 70
     1
102
RTVSPropertyOp21
 70
     1
102
RTVSPropertyOp22
 70
     1
102
RTVSPropertyOp23
 70
     1
102
RTVSPropertyOp24
 70
     1
102
RTVSPropertyOp25
 70
     1
102
RTVSPropertyOp26
 70
     1
102
RTVSPropertyOp27
 70
     1
102
RTVSPropertyOp28
 70
     1
102
RTVSPropertyOp29
 70
     1
102
RTVSPropertyOp30
 70
     1
102
RTVSPropertyOp31
 70
     1
102
RTVSPropertyOp32
 70
     1
102
RTVSPropertyOp33
 70
     1
102
RTVSPropertyOp34
 70
     1
102
RTVSPropertyOp35
 70
     1
102
RTVSPropertyOp36
 70
     1
102
RTVSPropertyOp37
 70
     1
102
RTVSPropertyOp38
 70
     1
102
RTVSPropertyOp39
 70
     1
102
RTVSPropertyOp40
 70
     1
102
RTVSPropertyOp41
 70
     1
102
RTVSPropertyOp42
 70
     1
102
RTVSPropertyOp43
 70
     1
102
RTVSPropertyOp44
 70
     1
102
RTVSPropertyOp45
 70
     1
102
RTVSPropertyOp46
 70
     1
102
RTVSPropertyOp47
 70
     1
102
RTVSPropertyOp48
 70
     1
102
RTVSPropertyOp49
 70
     1
102
RTVSPropertyOp50
 70
     1
102
RTVSPropertyOp51
 70
     0
102
RTVSPropertyOp52
 70
     0
102
RTVSPropertyOp53
 70
     1
102
RTVSPropertyOp54
 70
     1
102
RTVSPropertyOp55
 70
     1
102
RTVSPropertyOp56
 70
     1
102
RTVSPropertyOp57
 70
     1
102
RTVSPost2010Prop28
280
     0
102
RTVSPost2010PropOp28
 70
     1
102
RTVSPost2010Prop29
280
     1
102
RTVSPost2010PropOp29
 70
     1
102
RTVSPost2010Prop30
280
     1
102
RTVSPost2010PropOp30
 70
     1
102
RTVSPost2010Prop31
280
     0
102
RTVSPost2010PropOp31
 70
     1
102
RTVSPost2010Prop32
280
     0
102
RTVSPost2010PropOp32
 70
     1
102
RTVSPost2010Prop33
280
     0
102
RTVSPost2010PropOp33
 70
     1
102
RTVSPost2010Prop34
280
     0
102
RTVSPost2010PropOp34
 70
     1
102
RTVSPost2010Prop35
280
     0
102
RTVSPost2010PropOp35
 70
     1
102
RTVSPost2010Prop36
280
     0
102
RTVSPost2010PropOp36
 70
     1
102
RTVSPost2010Prop37
 90
       50
102
RTVSPost2010PropOp37
 70
     1
102
RTVSPost2010Prop38
140
0.0
102
RTVSPost2010PropOp38
 70
     1
102
RTVSPost2010Prop39
140
1.0
102
RTVSPost2010PropOp39
 70
     1
102
RTVSPost2010Prop40
 90
        0
102
RTVSPost2010PropOp40
 70
     1
102
RTVSPost2010Prop41ColorIndex
 90
       18
102
RTVSPost2010Prop41ColorRGB
 90
        0
102
RTVSPost2010PropOp41
 70
     1
102
RTVSPost2010Prop42
 90
       50
102
RTVSPost2010PropOp42
 70
     1
102
RTVSPost2010Prop43
 90
        3
102
RTVSPost2010PropOp43
 70
     1
102
RTVSPost2010Prop44ColorIndex
 90
        5
102
RTVSPost2010Prop44ColorRGB
 90
      255
102
RTVSPost2010PropOp44
 70
     1
102
RTVSPost2010Prop45
280
     0
102
RTVSPost2010PropOp45
 70
     1
102
RTVSPost2010Prop46
 90
       50
102
RTVSPost2010PropOp46
 70
     1
102
RTVSPost2010Prop47
 90
       50
102
RTVSPost2010PropOp47
 70
     1
102
RTVSPost2010Prop48
 90
       50
102
RTVSPost2010PropOp48
 70
     1
102
RTVSPost2010Prop49
280
     0
102
RTVSPost2010PropOp49
 70
     1
102
RTVSPost2010Prop50
 90
       50
102
RTVSPost2010PropOp50
 70
     1
102
RTVSPost2010Prop51ColorIndex
 90
      256
102
RTVSPost2010Prop51ColorRGB
 90
-16777216
102
RTVSPost2010PropOp51
 70
     0
102
RTVSPost2010Prop52
140
1.0
102
RTVSPost2010PropOp52
 70
     0
102
RTVSPost2010Prop53
 90
        2
102
RTVSPost2010PropOp53
 70
     1
102
RTVSPost2010Prop54
  1
strokes_ogs.tif
102
RTVSPost2010PropOp54
 70
     1
102
RTVSPost2010Prop55
280
     0
102
RTVSPost2010PropOp55
 70
     1
102
RTVSPost2010Prop56
140
1.0
102
RTVSPost2010PropOp56
 70
     1
102
RTVSPost2010Prop57
140
1.0
102
RTVSPost2010PropOp57
 70
     1
  0
XRECORD
  5
A9F
102
{ACAD_REACTORS
330
A9E
102
}
330
A9E
100
AcDbXrecord
280
     1
102
RTVSPropertyOp0
 70
     1
102
RTVSPropertyOp1
 70
     1
102
RTVSPropertyOp2
 70
     1
102
RTVSPropertyOp3
 70
     1
102
RTVSPropertyOp4
 70
     1
102
RTVSPropertyOp5
 70
     1
102
RTVSPropertyOp6
 70
     1
102
RTVSPropertyOp7
 70
     1
102
RTVSPropertyOp8
 70
     1
102
RTVSPropertyOp9
 70
     1
102
RTVSPropertyOp10
 70
     1
102
RTVSPropertyOp11
 70
     1
102
RTVSPropertyOp12
 70
     1
102
RTVSPropertyOp13
 70
     1
102
RTVSPropertyOp14
 70
     1
102
RTVSPropertyOp15
 70
     1
102
RTVSPropertyOp16
 70
     1
102
RTVSPropertyOp17
 70
     1
102
RTVSPropertyOp18
 70
     1
102
RTVSPropertyOp19
 70
     1
102
RTVSPropertyOp20
 70
     1
102
RTVSPropertyOp21
 70
     1
102
RTVSPropertyOp22
 70
     1
102
RTVSPropertyOp23
 70
     1
102
RTVSPropertyOp24
 70
     1
102
RTVSPropertyOp25
 70
     1
102
RTVSPropertyOp26
 70
     1
102
RTVSPropertyOp27
 70
     1
102
RTVSPropertyOp28
 70
     1
102
RTVSPropertyOp29
 70
     1
102
RTVSPropertyOp30
 70
     1
102
RTVSPropertyOp31
 70
     1
102
RTVSPropertyOp32
 70
     1
102
RTVSPropertyOp33
 70
     1
102
RTVSPropertyOp34
 70
     1
102
RTVSPropertyOp35
 70
     1
102
RTVSPropertyOp36
 70
     1
102
RTVSPropertyOp37
 70
     1
102
RTVSPropertyOp38
 70
     1
102
RTVSPropertyOp39
 70
     1
102
RTVSPropertyOp40
 70
     1
102
RTVSPropertyOp41
 70
     1
102
RTVSPropertyOp42
 70
     1
102
RTVSPropertyOp43
 70
     1
102
RTVSPropertyOp44
 70
     1
102
RTVSPropertyOp45
 70
     1
102
RTVSPropertyOp46
 70
     1
102
RTVSPropertyOp47
 70
     1
102
RTVSPropertyOp48
 70
     1
102
RTVSPropertyOp49
 70
     1
102
RTVSPropertyOp50
 70
     1
102
RTVSPropertyOp51
 70
     0
102
RTVSPropertyOp52
 70
     0
102
RTVSPropertyOp53
 70
     1
102
RTVSPropertyOp54
 70
     1
102
RTVSPropertyOp55
 70
     1
102
RTVSPropertyOp56
 70
     1
102
RTVSPropertyOp57
 70
     1
102
RTVSPost2010Prop28
280
     0
102
RTVSPost2010PropOp28
 70
     1
102
RTVSPost2010Prop29
280
     1
102
RTVSPost2010PropOp29
 70
     1
102
RTVSPost2010Prop30
280
     1
102
RTVSPost2010PropOp30
 70
     1
102
RTVSPost2010Prop31
280
     0
102
RTVSPost2010PropOp31
 70
     1
102
RTVSPost2010Prop32
280
     0
102
RTVSPost2010PropOp32
 70
     1
102
RTVSPost2010Prop33
280
     0
102
RTVSPost2010PropOp33
 70
     1
102
RTVSPost2010Prop34
280
     0
102
RTVSPost2010PropOp34
 70
     1
102
RTVSPost2010Prop35
280
     0
102
RTVSPost2010PropOp35
 70
     1
102
RTVSPost2010Prop36
280
     0
102
RTVSPost2010PropOp36
 70
     1
102
RTVSPost2010Prop37
 90
       50
102
RTVSPost2010PropOp37
 70
     1
102
RTVSPost2010Prop38
140
0.0
102
RTVSPost2010PropOp38
 70
     1
102
RTVSPost2010Prop39
140
1.0
102
RTVSPost2010PropOp39
 70
     1
102
RTVSPost2010Prop40
 90
        0
102
RTVSPost2010PropOp40
 70
     1
102
RTVSPost2010Prop41ColorIndex
 90
       18
102
RTVSPost2010Prop41ColorRGB
 90
        0
102
RTVSPost2010PropOp41
 70
     1
102
RTVSPost2010Prop42
 90
       50
102
RTVSPost2010PropOp42
 70
     1
102
RTVSPost2010Prop43
 90
        3
102
RTVSPost2010PropOp43
 70
     1
102
RTVSPost2010Prop44ColorIndex
 90
        5
102
RTVSPost2010Prop44ColorRGB
 90
      255
102
RTVSPost2010PropOp44
 70
     1
102
RTVSPost2010Prop45
280
     0
102
RTVSPost2010PropOp45
 70
     1
102
RTVSPost2010Prop46
 90
       50
102
RTVSPost2010PropOp46
 70
     1
102
RTVSPost2010Prop47
 90
       50
102
RTVSPost2010PropOp47
 70
     1
102
RTVSPost2010Prop48
 90
       50
102
RTVSPost2010PropOp48
 70
     1
102
RTVSPost2010Prop49
280
     0
102
RTVSPost2010PropOp49
 70
     1
102
RTVSPost2010Prop50
 90
       50
102
RTVSPost2010PropOp50
 70
     1
102
RTVSPost2010Prop51ColorIndex
 90
      256
102
RTVSPost2010Prop51ColorRGB
 90
-16777216
102
RTVSPost2010PropOp51
 70
     0
102
RTVSPost2010Prop52
140
1.0
102
RTVSPost2010PropOp52
 70
     0
102
RTVSPost2010Prop53
 90
        2
102
RTVSPost2010PropOp53
 70
     1
102
RTVSPost2010Prop54
  1
strokes_ogs.tif
102
RTVSPost2010PropOp54
 70
     1
102
RTVSPost2010Prop55
280
     0
102
RTVSPost2010PropOp55
 70
     1
102
RTVSPost2010Prop56
140
1.0
102
RTVSPost2010PropOp56
 70
     1
102
RTVSPost2010Prop57
140
1.0
102
RTVSPost2010PropOp57
 70
     1
  0
XRECORD
  5
ABF
102
{ACAD_REACTORS
330
ABE
102
}
330
ABE
100
AcDbXrecord
280
     1
102
RTVSPropertyOp0
 70
     1
102
RTVSPropertyOp1
 70
     1
102
RTVSPropertyOp2
 70
     1
102
RTVSPropertyOp3
 70
     1
102
RTVSPropertyOp4
 70
     1
102
RTVSPropertyOp5
 70
     1
102
RTVSPropertyOp6
 70
     1
102
RTVSPropertyOp7
 70
     1
102
RTVSPropertyOp8
 70
     1
102
RTVSPropertyOp9
 70
     1
102
RTVSPropertyOp10
 70
     1
102
RTVSPropertyOp11
 70
     1
102
RTVSPropertyOp12
 70
     1
102
RTVSPropertyOp13
 70
     1
102
RTVSPropertyOp14
 70
     1
102
RTVSPropertyOp15
 70
     1
102
RTVSPropertyOp16
 70
     1
102
RTVSPropertyOp17
 70
     1
102
RTVSPropertyOp18
 70
     1
102
RTVSPropertyOp19
 70
     1
102
RTVSPropertyOp20
 70
     1
102
RTVSPropertyOp21
 70
     1
102
RTVSPropertyOp22
 70
     1
102
RTVSPropertyOp23
 70
     1
102
RTVSPropertyOp24
 70
     1
102
RTVSPropertyOp25
 70
     1
102
RTVSPropertyOp26
 70
     1
102
RTVSPropertyOp27
 70
     1
102
RTVSPropertyOp28
 70
     1
102
RTVSPropertyOp29
 70
     1
102
RTVSPropertyOp30
 70
     1
102
RTVSPropertyOp31
 70
     1
102
RTVSPropertyOp32
 70
     1
102
RTVSPropertyOp33
 70
     1
102
RTVSPropertyOp34
 70
     1
102
RTVSPropertyOp35
 70
     1
102
RTVSPropertyOp36
 70
     1
102
RTVSPropertyOp37
 70
     1
102
RTVSPropertyOp38
 70
     1
102
RTVSPropertyOp39
 70
     1
102
RTVSPropertyOp40
 70
     1
102
RTVSPropertyOp41
 70
     1
102
RTVSPropertyOp42
 70
     1
102
RTVSPropertyOp43
 70
     1
102
RTVSPropertyOp44
 70
     1
102
RTVSPropertyOp45
 70
     1
102
RTVSPropertyOp46
 70
     1
102
RTVSPropertyOp47
 70
     1
102
RTVSPropertyOp48
 70
     1
102
RTVSPropertyOp49
 70
     1
102
RTVSPropertyOp50
 70
     1
102
RTVSPropertyOp51
 70
     0
102
RTVSPropertyOp52
 70
     0
102
RTVSPropertyOp53
 70
     1
102
RTVSPropertyOp54
 70
     1
102
RTVSPropertyOp55
 70
     1
102
RTVSPropertyOp56
 70
     1
102
RTVSPropertyOp57
 70
     1
102
RTVSPost2010Prop28
280
     0
102
RTVSPost2010PropOp28
 70
     1
102
RTVSPost2010Prop29
280
     1
102
RTVSPost2010PropOp29
 70
     1
102
RTVSPost2010Prop30
280
     1
102
RTVSPost2010PropOp30
 70
     1
102
RTVSPost2010Prop31
280
     0
102
RTVSPost2010PropOp31
 70
     1
102
RTVSPost2010Prop32
280
     0
102
RTVSPost2010PropOp32
 70
     1
102
RTVSPost2010Prop33
280
     0
102
RTVSPost2010PropOp33
 70
     1
102
RTVSPost2010Prop34
280
     0
102
RTVSPost2010PropOp34
 70
     1
102
RTVSPost2010Prop35
280
     0
102
RTVSPost2010PropOp35
 70
     1
102
RTVSPost2010Prop36
280
     0
102
RTVSPost2010PropOp36
 70
     1
102
RTVSPost2010Prop37
 90
       50
102
RTVSPost2010PropOp37
 70
     1
102
RTVSPost2010Prop38
140
0.0
102
RTVSPost2010PropOp38
 70
     1
102
RTVSPost2010Prop39
140
1.0
102
RTVSPost2010PropOp39
 70
     1
102
RTVSPost2010Prop40
 90
        0
102
RTVSPost2010PropOp40
 70
     1
102
RTVSPost2010Prop41ColorIndex
 90
       18
102
RTVSPost2010Prop41ColorRGB
 90
        0
102
RTVSPost2010PropOp41
 70
     1
102
RTVSPost2010Prop42
 90
       50
102
RTVSPost2010PropOp42
 70
     1
102
RTVSPost2010Prop43
 90
        3
102
RTVSPost2010PropOp43
 70
     1
102
RTVSPost2010Prop44ColorIndex
 90
        5
102
RTVSPost2010Prop44ColorRGB
 90
      255
102
RTVSPost2010PropOp44
 70
     1
102
RTVSPost2010Prop45
280
     0
102
RTVSPost2010PropOp45
 70
     1
102
RTVSPost2010Prop46
 90
       50
102
RTVSPost2010PropOp46
 70
     1
102
RTVSPost2010Prop47
 90
       50
102
RTVSPost2010PropOp47
 70
     1
102
RTVSPost2010Prop48
 90
       50
102
RTVSPost2010PropOp48
 70
     1
102
RTVSPost2010Prop49
280
     0
102
RTVSPost2010PropOp49
 70
     1
102
RTVSPost2010Prop50
 90
       50
102
RTVSPost2010PropOp50
 70
     1
102
RTVSPost2010Prop51ColorIndex
 90
      256
102
RTVSPost2010Prop51ColorRGB
 90
-16777216
102
RTVSPost2010PropOp51
 70
     0
102
RTVSPost2010Prop52
140
1.0
102
RTVSPost2010PropOp52
 70
     0
102
RTVSPost2010Prop53
 90
        2
102
RTVSPost2010PropOp53
 70
     1
102
RTVSPost2010Prop54
  1
strokes_ogs.tif
102
RTVSPost2010PropOp54
 70
     1
102
RTVSPost2010Prop55
280
     0
102
RTVSPost2010PropOp55
 70
     1
102
RTVSPost2010Prop56
140
1.0
102
RTVSPost2010PropOp56
 70
     1
102
RTVSPost2010Prop57
140
1.0
102
RTVSPost2010PropOp57
 70
     1
  0
ENDSEC
  0
EOF
