  0
SECTION
  2
HEADER
  9
$ACADVER
  1
AC1021
  9
$ACADMAINTVER
 70
    25
  9
$DWGCODEPAGE
  3
ANSI_1251
  9
$INSBASE
 10
0.0
 20
0.0
 30
0.0
  9
$EXTMIN
 10
-103.0395
 20
-88.8463
 30
0.0
  9
$EXTMAX
 10
101.5561
 20
99.4341
 30
0.0
  9
$LIMMIN
 10
0.0
 20
0.0
  9
$LIMMAX
 10
12.0
 20
9.0
  9
$ORTHOMODE
 70
     0
  9
$REGENMODE
 70
     1
  9
$FILLMODE
 70
     1
  9
$QTEXTMODE
 70
     0
  9
$MIRRTEXT
 70
     1
  9
$LTSCALE
 40
1.0
  9
$ATTMODE
 70
     1
  9
$TEXTSIZE
 40
0.2
  9
$TRACEWID
 40
0.05
  9
$TEXTSTYLE
  7
Standard
  9
$CLAYER
  8
0
  9
$CELTYPE
  6
ByLayer
  9
$CECOLOR
 62
   256
  9
$CELTSCALE
 40
1.0
  9
$DISPSILH
 70
     0
  9
$DIMSCALE
 40
1.0
  9
$DIMASZ
 40
0.18
  9
$DIMEXO
 40
0.0625
  9
$DIMDLI
 40
0.38
  9
$DIMRND
 40
0.0
  9
$DIMDLE
 40
0.0
  9
$DIMEXE
 40
0.18
  9
$DIMTP
 40
0.0
  9
$DIMTM
 40
0.0
  9
$DIMTXT
 40
0.18
  9
$DIMCEN
 40
0.09
  9
$DIMTSZ
 40
0.0
  9
$DIMTOL
 70
     0
  9
$DIMLIM
 70
     0
  9
$DIMTIH
 70
     1
  9
$DIMTOH
 70
     1
  9
$DIMSE1
 70
     0
  9
$DIMSE2
 70
     0
  9
$DIMTAD
 70
     0
  9
$DIMZIN
 70
     0
  9
$DIMBLK
  1

  9
$DIMASO
 70
     1
  9
$DIMSHO
 70
     1
  9
$DIMPOST
  1

  9
$DIMAPOST
  1

  9
$DIMALT
 70
     0
  9
$DIMALTD
 70
     2
  9
$DIMALTF
 40
25.4
  9
$DIMLFAC
 40
1.0
  9
$DIMTOFL
 70
     0
  9
$DIMTVP
 40
0.0
  9
$DIMTIX
 70
     0
  9
$DIMSOXD
 70
     0
  9
$DIMSAH
 70
     0
  9
$DIMBLK1
  1

  9
$DIMBLK2
  1

  9
$DIMSTYLE
  2
Standard
  9
$DIMCLRD
 70
     0
  9
$DIMCLRE
 70
     0
  9
$DIMCLRT
 70
     0
  9
$DIMTFAC
 40
1.0
  9
$DIMGAP
 40
0.09
  9
$DIMJUST
 70
     0
  9
$DIMSD1
 70
     0
  9
$DIMSD2
 70
     0
  9
$DIMTOLJ
 70
     1
  9
$DIMTZIN
 70
     0
  9
$DIMALTZ
 70
     0
  9
$DIMALTTZ
 70
     0
  9
$DIMUPT
 70
     0
  9
$DIMDEC
 70
     4
  9
$DIMTDEC
 70
     4
  9
$DIMALTU
 70
     2
  9
$DIMALTTD
 70
     2
  9
$DIMTXSTY
  7
Standard
  9
$DIMAUNIT
 70
     0
  9
$DIMADEC
 70
     0
  9
$DIMALTRND
 40
0.0
  9
$DIMAZIN
 70
     0
  9
$DIMDSEP
 70
    46
  9
$DIMATFIT
 70
     3
  9
$DIMFRAC
 70
     0
  9
$DIMLDRBLK
  1

  9
$DIMLUNIT
 70
     2
  9
$DIMLWD
 70
    -2
  9
$DIMLWE
 70
    -2
  9
$DIMTMOVE
 70
     0
  9
$DIMFXL
 40
1.0
  9
$DIMFXLON
 70
     0
  9
$DIMJOGANG
 40
0.7853981633974483
  9
$DIMTFILL
 70
     0
  9
$DIMTFILLCLR
 70
     0
  9
$DIMARCSYM
 70
     0
  9
$DIMLTYPE
  6

  9
$DIMLTEX1
  6

  9
$DIMLTEX2
  6

  9
$LUNITS
 70
     2
  9
$LUPREC
 70
     4
  9
$SKETCHINC
 40
0.1
  9
$FILLETRAD
 40
0.5
  9
$AUNITS
 70
     0
  9
$AUPREC
 70
     0
  9
$MENU
  1
.
  9
$ELEVATION
 40
0.0
  9
$PELEVATION
 40
0.0
  9
$THICKNESS
 40
0.0
  9
$LIMCHECK
 70
     0
  9
$CHAMFERA
 40
0.0
  9
$CHAMFERB
 40
0.0
  9
$CHAMFERC
 40
0.0
  9
$CHAMFERD
 40
0.0
  9
$SKPOLY
 70
     0
  9
$TDCREATE
 40
2458135.398604248
  9
$TDUCREATE
 40
2458135.148604248
  9
$TDUPDATE
 40
2458135.398605208
  9
$TDUUPDATE
 40
2458135.148605208
  9
$TDINDWG
 40
0.0000000116
  9
$TDUSRTIMER
 40
0.0000000116
  9
$USRTIMER
 70
     1
  9
$ANGBASE
 50
0.0
  9
$ANGDIR
 70
     0
  9
$PDMODE
 70
     0
  9
$PDSIZE
 40
0.0
  9
$PLINEWID
 40
0.0
  9
$SPLFRAME
 70
     0
  9
$SPLINETYPE
 70
     6
  9
$SPLINESEGS
 70
     8
  9
$HANDSEED
  5
F2
  9
$SURFTAB1
 70
     6
  9
$SURFTAB2
 70
     6
  9
$SURFTYPE
 70
     6
  9
$SURFU
 70
     6
  9
$SURFV
 70
     6
  9
$UCSBASE
  2

  9
$UCSNAME
  2

  9
$UCSORG
 10
0.0
 20
0.0
 30
0.0
  9
$UCSXDIR
 10
1.0
 20
0.0
 30
0.0
  9
$UCSYDIR
 10
0.0
 20
1.0
 30
0.0
  9
$UCSORTHOREF
  2

  9
$UCSORTHOVIEW
 70
     0
  9
$UCSORGTOP
 10
0.0
 20
0.0
 30
0.0
  9
$UCSORGBOTTOM
 10
0.0
 20
0.0
 30
0.0
  9
$UCSORGLEFT
 10
0.0
 20
0.0
 30
0.0
  9
$UCSORGRIGHT
 10
0.0
 20
0.0
 30
0.0
  9
$UCSORGFRONT
 10
0.0
 20
0.0
 30
0.0
  9
$UCSORGBACK
 10
0.0
 20
0.0
 30
0.0
  9
$PUCSBASE
  2

  9
$PUCSNAME
  2

  9
$PUCSORG
 10
0.0
 20
0.0
 30
0.0
  9
$PUCSXDIR
 10
1.0
 20
0.0
 30
0.0
  9
$PUCSYDIR
 10
0.0
 20
1.0
 30
0.0
  9
$PUCSORTHOREF
  2

  9
$PUCSORTHOVIEW
 70
     0
  9
$PUCSORGTOP
 10
0.0
 20
0.0
 30
0.0
  9
$PUCSORGBOTTOM
 10
0.0
 20
0.0
 30
0.0
  9
$PUCSORGLEFT
 10
0.0
 20
0.0
 30
0.0
  9
$PUCSORGRIGHT
 10
0.0
 20
0.0
 30
0.0
  9
$PUCSORGFRONT
 10
0.0
 20
0.0
 30
0.0
  9
$PUCSORGBACK
 10
0.0
 20
0.0
 30
0.0
  9
$USERI1
 70
     0
  9
$USERI2
 70
     0
  9
$USERI3
 70
     0
  9
$USERI4
 70
     0
  9
$USERI5
 70
     0
  9
$USERR1
 40
0.0
  9
$USERR2
 40
0.0
  9
$USERR3
 40
0.0
  9
$USERR4
 40
0.0
  9
$USERR5
 40
0.0
  9
$WORLDVIEW
 70
     1
  9
$SHADEDGE
 70
     3
  9
$SHADEDIF
 70
    70
  9
$TILEMODE
 70
     1
  9
$MAXACTVP
 70
    64
  9
$PINSBASE
 10
0.0
 20
0.0
 30
0.0
  9
$PLIMCHECK
 70
     0
  9
$PEXTMIN
 10
1.000000000000000E+20
 20
1.000000000000000E+20
 30
1.000000000000000E+20
  9
$PEXTMAX
 10
-1.000000000000000E+20
 20
-1.000000000000000E+20
 30
-1.000000000000000E+20
  9
$PLIMMIN
 10
0.0
 20
0.0
  9
$PLIMMAX
 10
12.0
 20
9.0
  9
$UNITMODE
 70
     0
  9
$VISRETAIN
 70
     1
  9
$PLINEGEN
 70
     0
  9
$PSLTSCALE
 70
     1
  9
$TREEDEPTH
 70
  3020
  9
$CMLSTYLE
  2
Standard
  9
$CMLJUST
 70
     0
  9
$CMLSCALE
 40
1.0
  9
$PROXYGRAPHICS
 70
     1
  9
$MEASUREMENT
 70
     0
  9
$CELWEIGHT
370
    -1
  9
$ENDCAPS
280
     0
  9
$JOINSTYLE
280
     0
  9
$LWDISPLAY
290
     0
  9
$INSUNITS
 70
     4
  9
$HYPERLINKBASE
  1

  9
$STYLESHEET
  1

  9
$XEDIT
290
     1
  9
$CEPSNTYPE
380
     0
  9
$PSTYLEMODE
290
     1
  9
$FINGERPRINTGUID
  2
{D6E97035-7F14-4AFA-8FE6-3168E22A2D88}
  9
$VERSIONGUID
  2
{FAEB1C32-E019-11D5-929B-00C0DF256EC4}
  9
$EXTNAMES
290
     1
  9
$PSVPSCALE
 40
0.0
  9
$OLESTARTUP
290
     0
  9
$SORTENTS
280
   127
  9
$INDEXCTL
280
     0
  9
$HIDETEXT
280
     1
  9
$XCLIPFRAME
290
     0
  9
$HALOGAP
280
     0
  9
$OBSCOLOR
 70
   257
  9
$OBSLTYPE
280
     0
  9
$INTERSECTIONDISPLAY
280
     0
  9
$INTERSECTIONCOLOR
 70
   257
  9
$DIMASSOC
280
     2
  9
$PROJECTNAME
  1

  9
$CAMERADISPLAY
290
     0
  9
$LENSLENGTH
 40
50.0
  9
$CAMERAHEIGHT
 40
0.0
  9
$STEPSPERSEC
 40
2.0
  9
$STEPSIZE
 40
6.0
  9
$3DDWFPREC
 40
2.0
  9
$PSOLWIDTH
 40
0.25
  9
$PSOLHEIGHT
 40
4.0
  9
$LOFTANG1
 40
1.570796326794897
  9
$LOFTANG2
 40
1.570796326794897
  9
$LOFTMAG1
 40
0.0
  9
$LOFTMAG2
 40
0.0
  9
$LOFTPARAM
 70
     7
  9
$LOFTNORMALS
280
     1
  9
$LATITUDE
 40
37.795
  9
$LONGITUDE
 40
-122.394
  9
$NORTHDIRECTION
 40
0.0
  9
$TIMEZONE
 70
 -8000
  9
$LIGHTGLYPHDISPLAY
280
     1
  9
$TILEMODELIGHTSYNCH
280
     1
  9
$CMATERIAL
347
44
  9
$SOLIDHIST
280
     0
  9
$SHOWHIST
280
     1
  9
$DWFFRAME
280
     2
  9
$DGNFRAME
280
     2
  9
$REALWORLDSCALE
290
     1
  9
$INTERFERECOLOR
 62
   256
  9
$CSHADOW
280
     0
  9
$SHADOWPLANELOCATION
 40
0.0
  0
ENDSEC
  0
SECTION
  2
CLASSES
  0
CLASS
  1
ACDBDICTIONARYWDFLT
  2
AcDbDictionaryWithDefault
  3
ObjectDBX Classes
 90
        0
 91
        4
280
     0
281
     0
  0
CLASS
  1
VISUALSTYLE
  2
AcDbVisualStyle
  3
ObjectDBX Classes
 90
     4095
 91
        4
280
     0
281
     0
  0
CLASS
  1
MATERIAL
  2
AcDbMaterial
  3
ObjectDBX Classes
 90
     1153
 91
        4
280
     0
281
     0
  0
CLASS
  1
SCALE
  2
AcDbScale
  3
ObjectDBX Classes
 90
     1153
 91
        4
280
     0
281
     0
  0
CLASS
  1
TABLESTYLE
  2
AcDbTableStyle
  3
ObjectDBX Classes
 90
     4095
 91
        4
280
     0
281
     0
  0
CLASS
  1
MLEADERSTYLE
  2
AcDbMLeaderStyle
  3
ACDB_MLEADERSTYLE_CLASS
 90
     4095
 91
        4
280
     0
281
     0
  0
CLASS
  1
SUN
  2
AcDbSun
  3
SCENEOE
 90
     1153
 91
        4
280
     0
281
     0
  0
CLASS
  1
DICTIONARYVAR
  2
AcDbDictionaryVar
  3
ObjectDBX Classes
 90
        0
 91
        4
280
     0
281
     0
  0
CLASS
  1
CELLSTYLEMAP
  2
AcDbCellStyleMap
  3
ObjectDBX Classes
 90
     1152
 91
        4
280
     0
281
     0
  0
ENDSEC
  0
SECTION
  2
TABLES
  0
TABLE
  2
VPORT
  5
8
330
0
100
AcDbSymbolTable
 70
     1
  0
VPORT
  5
29
330
8
100
AcDbSymbolTableRecord
100
AcDbViewportTableRecord
  2
*Active
 70
     0
 10
0.0
 20
0.0
 11
1.0
 21
1.0
 12
10.42990654205607
 22
4.5
 13
0.0
 23
0.0
 14
0.5
 24
0.5
 15
0.5
 25
0.5
 16
0.0
 26
0.0
 36
1.0
 17
0.0
 27
0.0
 37
0.0
 40
9.0
 41
1.972972972850329
 42
50.0
 43
0.0
 44
0.0
 50
0.0
 51
0.0
 71
     0
 72
   100
 73
     1
 74
     3
 75
     0
 76
     0
 77
     0
 78
     0
281
     0
 65
     1
110
0.0
120
0.0
130
0.0
111
1.0
121
0.0
131
0.0
112
0.0
122
1.0
132
0.0
 79
     0
146
0.0
 60
     3
 61
     5
292
     1
282
     1
141
0.0
142
0.0
 63
   250
361
6D
  0
ENDTAB
  0
TABLE
  2
LTYPE
  5
5
330
0
100
AcDbSymbolTable
 70
     1
  0
LTYPE
  5
14
330
5
100
AcDbSymbolTableRecord
100
AcDbLinetypeTableRecord
  2
ByBlock
 70
     0
  3

 72
    65
 73
     0
 40
0.0
  0
LTYPE
  5
15
330
5
100
AcDbSymbolTableRecord
100
AcDbLinetypeTableRecord
  2
ByLayer
 70
     0
  3

 72
    65
 73
     0
 40
0.0
  0
LTYPE
  5
16
330
5
100
AcDbSymbolTableRecord
100
AcDbLinetypeTableRecord
  2
Continuous
 70
     0
  3
Solid line
 72
    65
 73
     0
 40
0.0
  0
ENDTAB
  0
TABLE
  2
LAYER
  5
2
330
0
100
AcDbSymbolTable
 70
     2
  0
LAYER
  5
10
330
2
100
AcDbSymbolTableRecord
100
AcDbLayerTableRecord
  2
0
 70
     0
 62
     7
  6
Continuous
370
    -3
390
F
347
46
  0
LAYER
  5
6F
330
2
100
AcDbSymbolTableRecord
100
AcDbLayerTableRecord
  2
layer 1
 70
     0
 62
     7
  6
Continuous
370
    -3
390
F
347
46
  0
ENDTAB
  0
TABLE
  2
STYLE
  5
3
330
0
100
AcDbSymbolTable
 70
     1
  0
STYLE
  5
11
330
3
100
AcDbSymbolTableRecord
100
AcDbTextStyleTableRecord
  2
Standard
 70
     0
 40
0.0
 41
1.0
 50
0.0
 71
     0
 42
0.2
  3
txt
  4

  0
ENDTAB
  0
TABLE
  2
VIEW
  5
6
330
0
100
AcDbSymbolTable
 70
     0
  0
ENDTAB
  0
TABLE
  2
UCS
  5
7
330
0
100
AcDbSymbolTable
 70
     0
  0
ENDTAB
  0
TABLE
  2
APPID
  5
9
330
0
100
AcDbSymbolTable
 70
     3
  0
APPID
  5
12
330
9
100
AcDbSymbolTableRecord
100
AcDbRegAppTableRecord
  2
ACAD
 70
     0
  0
APPID
  5
6E
330
9
100
AcDbSymbolTableRecord
100
AcDbRegAppTableRecord
  2
ODA
 70
     0
  0
APPID
  5
EA
330
9
100
AcDbSymbolTableRecord
100
AcDbRegAppTableRecord
  2
ACAD_MLEADERVER
 70
     0
  0
ENDTAB
  0
TABLE
  2
DIMSTYLE
  5
A
330
0
100
AcDbSymbolTable
 70
     1
100
AcDbDimStyleTable
  0
DIMSTYLE
105
27
330
A
100
AcDbSymbolTableRecord
100
AcDbDimStyleTableRecord
  2
Standard
 70
     0
178
     0
340
11
  0
ENDTAB
  0
TABLE
  2
BLOCK_RECORD
  5
1
330
0
100
AcDbSymbolTable
 70
     1
  0
BLOCK_RECORD
  5
1F
330
1
100
AcDbSymbolTableRecord
100
AcDbBlockTableRecord
  2
*Model_Space
340
22
 70
     0
280
     1
281
     0
  0
BLOCK_RECORD
  5
1B
330
1
100
AcDbSymbolTableRecord
100
AcDbBlockTableRecord
  2
*Paper_Space
340
1E
 70
     0
280
     1
281
     0
  0
BLOCK_RECORD
  5
23
330
1
100
AcDbSymbolTableRecord
100
AcDbBlockTableRecord
  2
*Paper_Space0
340
26
 70
     0
280
     1
281
     0
  0
ENDTAB
  0
ENDSEC
  0
SECTION
  2
BLOCKS
  0
BLOCK
  5
20
330
1F
100
AcDbEntity
  8
0
100
AcDbBlockBegin
  2
*Model_Space
 70
     0
 10
0.0
 20
0.0
 30
0.0
  3
*Model_Space
  1

  0
ENDBLK
  5
21
330
1F
100
AcDbEntity
  8
0
100
AcDbBlockEnd
  0
BLOCK
  5
1C
330
1B
100
AcDbEntity
 67
     1
  8
0
100
AcDbBlockBegin
  2
*Paper_Space
 70
     0
 10
0.0
 20
0.0
 30
0.0
  3
*Paper_Space
  1

  0
ENDBLK
  5
1D
330
1B
100
AcDbEntity
 67
     1
  8
0
100
AcDbBlockEnd
  0
BLOCK
  5
24
330
23
100
AcDbEntity
  8
0
100
AcDbBlockBegin
  2
*Paper_Space0
 70
     0
 10
0.0
 20
0.0
 30
0.0
  3
*Paper_Space0
  1

  0
ENDBLK
  5
25
330
23
100
AcDbEntity
  8
0
100
AcDbBlockEnd
  0
ENDSEC
  0
SECTION
  2
ENTITIES
  0
SPLINE
  5
70
330
1F
100
AcDbEntity
  8
layer 1
 62
   250
100
AcDbSpline
210
0.0
220
0.0
230
1.0
 70
    11
 71
     3
 72
    12
 73
     8
 74
     0
 42
0.000000001
 43
0.0000000001
 40
0.0
 40
0.0
 40
0.0
 40
0.0
 40
0.3333333333333333
 40
0.3333333333333333
 40
0.3333333333333333
 40
0.3333333333333333
 40
1.0
 40
1.0
 40
1.0
 40
1.0
 10
20.3922
 20
-1.5408
 30
0.0
 10
20.8528
 20
-1.1127
 30
0.0
 10
20.95
 20
0.2849
 30
0.0
 10
20.2002
 20
0.4674
 30
0.0
 10
20.2002
 20
0.4674
 30
0.0
 10
19.8525
 20
0.0804
 30
0.0
 10
19.6681
 20
-1.4222
 30
0.0
 10
20.3922
 20
-1.5408
 30
0.0
  0
SPLINE
  5
71
330
1F
100
AcDbEntity
  8
layer 1
 62
   250
100
AcDbSpline
210
0.0
220
0.0
230
1.0
 70
    11
 71
     3
 72
    12
 73
     8
 74
     0
 42
0.000000001
 43
0.0000000001
 40
0.0
 40
0.0
 40
0.0
 40
0.0
 40
0.3333333333333333
 40
0.3333333333333333
 40
0.3333333333333333
 40
0.3333333333333333
 40
1.0
 40
1.0
 40
1.0
 40
1.0
 10
19.054
 20
-2.3068
 30
0.0
 10
18.4092
 20
-1.0831
 30
0.0
 10
18.8666
 20
0.4092
 30
0.0
 10
19.3397
 20
1.518
 30
0.0
 10
19.3397
 20
1.518
 30
0.0
 10
17.3708
 20
1.4741
 30
0.0
 10
17.1845
 20
-1.9886
 30
0.0
 10
19.054
 20
-2.3068
 30
0.0
  0
SPLINE
  5
72
330
1F
100
AcDbEntity
  8
layer 1
 62
   250
100
AcDbSpline
210
0.0
220
0.0
230
1.0
 70
    11
 71
     3
 72
    16
 73
    12
 74
     0
 42
0.000000001
 43
0.0000000001
 40
0.0
 40
0.0
 40
0.0
 40
0.0
 40
0.25
 40
0.25
 40
0.25
 40
0.25
 40
0.5
 40
0.5
 40
0.5
 40
0.5
 40
1.0
 40
1.0
 40
1.0
 40
1.0
 10
22.9744
 20
8.4991
 30
0.0
 10
23.3803
 20
6.5933
 30
0.0
 10
27.682
 20
7.7312
 30
0.0
 10
26.9893
 20
10.0285
 30
0.0
 10
26.9893
 20
10.0285
 30
0.0
 10
26.8287
 20
10.5606
 30
0.0
 10
26.0722
 20
10.8511
 30
0.0
 10
25.2679
 20
10.7926
 30
0.0
 10
25.2679
 20
10.7926
 30
0.0
 10
24.0537
 20
10.7057
 30
0.0
 10
22.6714
 20
9.9139
 30
0.0
 10
22.9744
 20
8.4991
 30
0.0
  0
SPLINE
  5
73
330
1F
100
AcDbEntity
  8
layer 1
 62
   250
100
AcDbSpline
210
0.0
220
0.0
230
1.0
 70
    11
 71
     3
 72
    16
 73
    12
 74
     0
 42
0.000000001
 43
0.0000000001
 40
0.0
 40
0.0
 40
0.0
 40
0.0
 40
0.25
 40
0.25
 40
0.25
 40
0.25
 40
0.5
 40
0.5
 40
0.5
 40
0.5
 40
1.0
 40
1.0
 40
1.0
 40
1.0
 10
34.8301
 20
16.338
 30
0.0
 10
35.8131
 20
16.7431
 30
0.0
 10
36.4253
 20
17.8769
 30
0.0
 10
37.3149
 20
18.6327
 30
0.0
 10
37.3149
 20
18.6327
 30
0.0
 10
38.2423
 20
19.4198
 30
0.0
 10
39.3352
 20
19.9414
 30
0.0
 10
40.1835
 20
20.7361
 30
0.0
 10
40.1835
 20
20.7361
 30
0.0
 10
37.6376
 20
20.4133
 30
0.0
 10
35.7998
 20
18.5582
 30
0.0
 10
34.8301
 20
16.338
 30
0.0
  0
SPLINE
  5
74
330
1F
100
AcDbEntity
  8
layer 1
 62
   250
100
AcDbSpline
210
0.0
220
0.0
230
1.0
 70
    11
 71
     3
 72
   184
 73
   180
 74
     0
 42
0.000000001
 43
0.0000000001
 40
0.0
 40
0.0
 40
0.0
 40
0.0
 40
0.0217391304347826
 40
0.0217391304347826
 40
0.0217391304347826
 40
0.0217391304347826
 40
0.0434782608695652
 40
0.0434782608695652
 40
0.0434782608695652
 40
0.0434782608695652
 40
0.0652173913043478
 40
0.0652173913043478
 40
0.0652173913043478
 40
0.0652173913043478
 40
0.0869565217391304
 40
0.0869565217391304
 40
0.0869565217391304
 40
0.0869565217391304
 40
0.108695652173913
 40
0.108695652173913
 40
0.108695652173913
 40
0.108695652173913
 40
0.1304347826086956
 40
0.1304347826086956
 40
0.1304347826086956
 40
0.1304347826086956
 40
0.1521739130434783
 40
0.1521739130434783
 40
0.1521739130434783
 40
0.1521739130434783
 40
0.1739130434782609
 40
0.1739130434782609
 40
0.1739130434782609
 40
0.1739130434782609
 40
0.1956521739130435
 40
0.1956521739130435
 40
0.1956521739130435
 40
0.1956521739130435
 40
0.2173913043478261
 40
0.2173913043478261
 40
0.2173913043478261
 40
0.2173913043478261
 40
0.2391304347826087
 40
0.2391304347826087
 40
0.2391304347826087
 40
0.2391304347826087
 40
0.2608695652173913
 40
0.2608695652173913
 40
0.2608695652173913
 40
0.2608695652173913
 40
0.2826086956521739
 40
0.2826086956521739
 40
0.2826086956521739
 40
0.2826086956521739
 40
0.3043478260869565
 40
0.3043478260869565
 40
0.3043478260869565
 40
0.3043478260869565
 40
0.3260869565217391
 40
0.3260869565217391
 40
0.3260869565217391
 40
0.3260869565217391
 40
0.3478260869565217
 40
0.3478260869565217
 40
0.3478260869565217
 40
0.3478260869565217
 40
0.3695652173913043
 40
0.3695652173913043
 40
0.3695652173913043
 40
0.3695652173913043
 40
0.391304347826087
 40
0.391304347826087
 40
0.391304347826087
 40
0.391304347826087
 40
0.4130434782608696
 40
0.4130434782608696
 40
0.4130434782608696
 40
0.4130434782608696
 40
0.4347826086956522
 40
0.4347826086956522
 40
0.4347826086956522
 40
0.4347826086956522
 40
0.4565217391304348
 40
0.4565217391304348
 40
0.4565217391304348
 40
0.4565217391304348
 40
0.4782608695652174
 40
0.4782608695652174
 40
0.4782608695652174
 40
0.4782608695652174
 40
0.5
 40
0.5
 40
0.5
 40
0.5
 40
0.5217391304347826
 40
0.5217391304347826
 40
0.5217391304347826
 40
0.5217391304347826
 40
0.5434782608695652
 40
0.5434782608695652
 40
0.5434782608695652
 40
0.5434782608695652
 40
0.5652173913043478
 40
0.5652173913043478
 40
0.5652173913043478
 40
0.5652173913043478
 40
0.5869565217391305
 40
0.5869565217391305
 40
0.5869565217391305
 40
0.5869565217391305
 40
0.6086956521739131
 40
0.6086956521739131
 40
0.6086956521739131
 40
0.6086956521739131
 40
0.6304347826086957
 40
0.6304347826086957
 40
0.6304347826086957
 40
0.6304347826086957
 40
0.6521739130434783
 40
0.6521739130434783
 40
0.6521739130434783
 40
0.6521739130434783
 40
0.6739130434782609
 40
0.6739130434782609
 40
0.6739130434782609
 40
0.6739130434782609
 40
0.6956521739130435
 40
0.6956521739130435
 40
0.6956521739130435
 40
0.6956521739130435
 40
0.717391304347826
 40
0.717391304347826
 40
0.717391304347826
 40
0.717391304347826
 40
0.7391304347826086
 40
0.7391304347826086
 40
0.7391304347826086
 40
0.7391304347826086
 40
0.7608695652173914
 40
0.7608695652173914
 40
0.7608695652173914
 40
0.7608695652173914
 40
0.782608695652174
 40
0.782608695652174
 40
0.782608695652174
 40
0.782608695652174
 40
0.8043478260869565
 40
0.8043478260869565
 40
0.8043478260869565
 40
0.8043478260869565
 40
0.8260869565217391
 40
0.8260869565217391
 40
0.8260869565217391
 40
0.8260869565217391
 40
0.8478260869565217
 40
0.8478260869565217
 40
0.8478260869565217
 40
0.8478260869565217
 40
0.8695652173913043
 40
0.8695652173913043
 40
0.8695652173913043
 40
0.8695652173913043
 40
0.8913043478260869
 40
0.8913043478260869
 40
0.8913043478260869
 40
0.8913043478260869
 40
0.9130434782608695
 40
0.9130434782608695
 40
0.9130434782608695
 40
0.9130434782608695
 40
0.9347826086956522
 40
0.9347826086956522
 40
0.9347826086956522
 40
0.9347826086956522
 40
0.9565217391304348
 40
0.9565217391304348
 40
0.9565217391304348
 40
0.9565217391304348
 40
1.0
 40
1.0
 40
1.0
 40
1.0
 10
22.0172
 20
33.5483
 30
0.0
 10
22.1718
 20
33.5767
 30
0.0
 10
22.1824
 20
33.4584
 30
0.0
 10
22.3037
 20
33.4527
 30
0.0
 10
22.3037
 20
33.4527
 30
0.0
 10
24.5601
 20
31.1599
 30
0.0
 10
27.5157
 20
28.7689
 30
0.0
 10
31.0053
 20
27.2376
 30
0.0
 10
31.0053
 20
27.2376
 30
0.0
 10
32.1708
 20
26.7275
 30
0.0
 10
33.5185
 20
26.3397
 30
0.0
 10
34.2569
 20
25.6137
 30
0.0
 10
34.2569
 20
25.6137
 30
0.0
 10
35.6078
 20
24.2812
 30
0.0
 10
35.5418
 20
21.8252
 30
0.0
 10
34.9257
 20
19.4954
 30
0.0
 10
34.9257
 20
19.4954
 30
0.0
 10
35.5074
 20
19.7036
 30
0.0
 10
35.8532
 20
20.2441
 30
0.0
 10
36.3595
 20
20.6424
 30
0.0
 10
36.3595
 20
20.6424
 30
0.0
 10
37.864
 20
21.8195
 30
0.0
 10
39.7822
 20
22.8071
 30
0.0
 10
42.3834
 20
22.9362
 30
0.0
 10
42.3834
 20
22.9362
 30
0.0
 10
42.6517
 20
20.0207
 30
0.0
 10
40.9141
 20
18.2877
 30
0.0
 10
39.4191
 20
16.8176
 30
0.0
 10
39.4191
 20
16.8176
 30
0.0
 10
44.6875
 20
15.4975
 30
0.0
 10
50.55
 20
12.9909
 30
0.0
 10
53.9526
 20
9.1669
 30
0.0
 10
53.9526
 20
9.1669
 30
0.0
 10
54.973
 20
8.0214
 30
0.0
 10
57.1834
 20
4.9486
 30
0.0
 10
56.3429
 20
2.5708
 30
0.0
 10
56.3429
 20
2.5708
 30
0.0
 10
55.8652
 20
1.2191
 30
0.0
 10
53.3518
 20
0.5494
 30
0.0
 10
52.0401
 20
-0.489
 30
0.0
 10
52.0401
 20
-0.489
 30
0.0
 10
48.8029
 20
-3.0509
 30
0.0
 10
48.5229
 20
-6.8081
 30
0.0
 10
46.7815
 20
-11.3886
 30
0.0
 10
46.7815
 20
-11.3886
 30
0.0
 10
45.3647
 20
-15.1179
 30
0.0
 10
41.4684
 20
-17.9914
 30
0.0
 10
38.1765
 20
-19.1347
 30
0.0
 10
38.1765
 20
-19.1347
 30
0.0
 10
40.0793
 20
-12.6237
 30
0.0
 10
37.8957
 20
-6.5356
 30
0.0
 10
34.447
 20
-3.2611
 30
0.0
 10
34.447
 20
-3.2611
 30
0.0
 10
33.6235
 20
-2.4788
 30
0.0
 10
32.5128
 20
-2.1156
 30
0.0
 10
31.9615
 20
-1.1595
 30
0.0
 10
31.9615
 20
-1.1595
 30
0.0
 10
34.2111
 20
-1.5026
 30
0.0
 10
36.604
 20
-1.3954
 30
0.0
 10
38.0809
 20
-0.5844
 30
0.0
 10
38.0809
 20
-0.5844
 30
0.0
 10
40.1375
 20
0.5437
 30
0.0
 10
40.1091
 20
3.1075
 30
0.0
 10
39.7059
 20
6.0117
 30
0.0
 10
39.7059
 20
6.0117
 30
0.0
 10
39.2615
 20
5.43
 30
0.0
 10
39.3333
 20
4.593
 30
0.0
 10
39.1318
 20
3.9082
 30
0.0
 10
39.1318
 20
3.9082
 30
0.0
 10
38.7525
 20
2.6196
 30
0.0
 10
38.0741
 20
1.2172
 30
0.0
 10
36.9328
 20
0.5627
 30
0.0
 10
36.9328
 20
0.5627
 30
0.0
 10
35.4348
 20
-0.2949
 30
0.0
 10
33.1624
 20
-0.0896
 30
0.0
 10
31.1017
 20
-0.2971
 30
0.0
 10
31.1017
 20
-0.2971
 30
0.0
 10
29.282
 20
-0.4831
 30
0.0
 10
27.3646
 20
-0.958
 30
0.0
 10
26.2252
 20
-2.1148
 30
0.0
 10
26.2252
 20
-2.1148
 30
0.0
 10
24.9709
 20
-3.3872
 30
0.0
 10
24.9316
 20
-5.3905
 30
0.0
 10
22.6868
 20
-4.3139
 30
0.0
 10
22.6868
 20
-4.3139
 30
0.0
 10
23.7681
 20
-3.0777
 30
0.0
 10
25.2365
 20
-0.6217
 30
0.0
 10
23.7386
 20
1.2304
 30
0.0
 10
23.7386
 20
1.2304
 30
0.0
 10
24.1044
 20
1.4704
 30
0.0
 10
24.6939
 20
1.4874
 30
0.0
 10
24.8867
 20
1.9012
 30
0.0
 10
24.8867
 20
1.9012
 30
0.0
 10
24.328
 20
1.8736
 30
0.0
 10
22.9265
 20
1.7685
 30
0.0
 10
22.4003
 20
1.9012
 30
0.0
 10
22.4003
 20
1.9012
 30
0.0
 10
22.5244
 20
1.3547
 30
0.0
 10
23.2991
 20
1.4617
 30
0.0
 10
23.5474
 20
1.0404
 30
0.0
 10
23.5474
 20
1.0404
 30
0.0
 10
23.5961
 20
-1.2321
 30
0.0
 10
22.9208
 20
-3.4704
 30
0.0
 10
21.6351
 20
-4.4103
 30
0.0
 10
21.6351
 20
-4.4103
 30
0.0
 10
21.3551
 20
-4.6139
 30
0.0
 10
20.7315
 20
-4.909
 30
0.0
 10
20.3922
 20
-4.8879
 30
0.0
 10
20.3922
 20
-4.8879
 30
0.0
 10
19.5
 20
-4.8297
 30
0.0
 10
19.4255
 20
-3.9201
 30
0.0
 10
18.8628
 20
-3.6442
 30
0.0
 10
18.8628
 20
-3.6442
 30
0.0
 10
17.7461
 20
-3.0959
 30
0.0
 10
15.8891
 20
-3.5354
 30
0.0
 10
14.9424
 20
-3.071
 30
0.0
 10
14.9424
 20
-3.071
 30
0.0
 10
13.693
 20
-2.4568
 30
0.0
 10
13.0147
 20
-0.127
 30
0.0
 10
14.2738
 20
1.3271
 30
0.0
 10
14.2738
 20
1.3271
 30
0.0
 10
15.0448
 20
2.2193
 30
0.0
 10
16.5806
 20
2.6052
 30
0.0
 10
17.6191
 20
3.527
 30
0.0
 10
17.6191
 20
3.527
 30
0.0
 10
18.5065
 20
4.3152
 30
0.0
 10
19.5669
 20
5.7374
 30
0.0
 10
19.7236
 20
6.4912
 30
0.0
 10
19.7236
 20
6.4912
 30
0.0
 10
19.8439
 20
7.074
 30
0.0
 10
19.5926
 20
7.6348
 30
0.0
 10
19.627
 20
8.1151
 30
0.0
 10
19.627
 20
8.1151
 30
0.0
 10
19.7342
 20
9.5844
 30
0.0
 10
20.5509
 20
10.3553
 30
0.0
 10
21.0618
 20
11.4623
 30
0.0
 10
21.0618
 20
11.4623
 30
0.0
 10
20.1591
 20
10.9887
 30
0.0
 10
19.1715
 20
9.7564
 30
0.0
 10
17.237
 20
10.2197
 30
0.0
 10
17.237
 20
10.2197
 30
0.0
 10
14.6359
 20
10.8425
 30
0.0
 10
13.6356
 20
14.3491
 30
0.0
 10
12.2649
 20
16.9113
 30
0.0
 10
12.2649
 20
16.9113
 30
0.0
 10
10.9638
 20
19.3492
 30
0.0
 10
9.0504
 20
20.8574
 30
0.0
 10
7.9632
 20
22.4567
 30
0.0
 10
7.9632
 20
22.4567
 30
0.0
 10
10.706
 20
21.2492
 30
0.0
 10
13.1133
 20
20.1745
 30
0.0
 10
15.1336
 20
18.155
 30
0.0
 10
15.1336
 20
18.155
 30
0.0
 10
16.5825
 20
16.7049
 30
0.0
 10
18.6546
 20
12.9985
 30
0.0
 10
21.6351
 20
14.8078
 30
0.0
 10
21.6351
 20
14.8078
 30
0.0
 10
22.513
 20
15.3418
 30
0.0
 10
23.0258
 20
16.0697
 30
0.0
 10
23.835
 20
16.6256
 30
0.0
 10
23.835
 20
16.6256
 30
0.0
 10
24.6194
 20
17.1645
 30
0.0
 10
25.5154
 20
17.2628
 30
0.0
 10
26.7981
 20
17.6773
 30
0.0
 10
26.7981
 20
17.6773
 30
0.0
 10
28.2217
 20
18.1379
 30
0.0
 10
29.7454
 20
19.4388
 30
0.0
 10
30.2401
 20
20.4496
 30
0.0
 10
30.2401
 20
20.4496
 30
0.0
 10
31.2612
 20
22.5387
 30
0.0
 10
29.3202
 20
23.4004
 30
0.0
 10
28.0421
 20
24.4664
 30
0.0
 10
28.0421
 20
24.4664
 30
0.0
 10
25.2709
 20
26.7716
 30
0.0
 10
23.5273
 20
29.8466
 30
0.0
 10
22.0172
 20
33.2626
 30
0.0
 10
22.0172
 20
33.2626
 30
0.0
 10
21.9034
 20
33.3877
 30
0.0
 10
21.9809
 20
33.4134
 30
0.0
 10
22.0172
 20
33.5483
 30
0.0
  0
SPLINE
  5
75
330
1F
100
AcDbEntity
  8
layer 1
 62
   250
100
AcDbSpline
210
0.0
220
0.0
230
1.0
 70
    11
 71
     3
 72
    12
 73
     8
 74
     0
 42
0.000000001
 43
0.0000000001
 40
0.0
 40
0.0
 40
0.0
 40
0.0
 40
0.3333333333333333
 40
0.3333333333333333
 40
0.3333333333333333
 40
0.3333333333333333
 40
1.0
 40
1.0
 40
1.0
 40
1.0
 10
-3.586
 20
60.9807
 30
0.0
 10
-3.1973
 20
60.03
 30
0.0
 10
-1.5429
 20
60.4614
 30
0.0
 10
-1.1494
 20
61.0955
 30
0.0
 10
-1.1494
 20
61.0955
 30
0.0
 10
-1.6788
 20
61.2092
 30
0.0
 10
-2.932
 20
61.1237
 30
0.0
 10
-3.586
 20
60.9807
 30
0.0
  0
SPLINE
  5
76
330
1F
100
AcDbEntity
  8
layer 1
 62
   250
100
AcDbSpline
210
0.0
220
0.0
230
1.0
 70
    11
 71
     3
 72
    12
 73
     8
 74
     0
 42
0.000000001
 43
0.0000000001
 40
0.0
 40
0.0
 40
0.0
 40
0.0
 40
0.3333333333333333
 40
0.3333333333333333
 40
0.3333333333333333
 40
0.3333333333333333
 40
1.0
 40
1.0
 40
1.0
 40
1.0
 10
1.8691
 20
60.7489
 30
0.0
 10
2.6137
 20
60.9055
 30
0.0
 10
3.5892
 20
60.9294
 30
0.0
 10
4.1896
 20
60.6316
 30
0.0
 10
4.1896
 20
60.6316
 30
0.0
 10
4.4131
 20
61.4831
 30
0.0
 10
2.0559
 20
61.7963
 30
0.0
 10
1.8691
 20
60.7489
 30
0.0
  0
SPLINE
  5
77
330
1F
100
AcDbEntity
  8
layer 1
 62
   250
100
AcDbSpline
210
0.0
220
0.0
230
1.0
 70
    11
 71
     3
 72
    12
 73
     8
 74
     0
 42
0.000000001
 43
0.0000000001
 40
0.0
 40
0.0
 40
0.0
 40
0.0
 40
0.3333333333333333
 40
0.3333333333333333
 40
0.3333333333333333
 40
0.3333333333333333
 40
1.0
 40
1.0
 40
1.0
 40
1.0
 10
-5.6758
 20
58.0802
 30
0.0
 10
-3.9806
 20
58.6587
 30
0.0
 10
-4.105
 20
61.9038
 30
0.0
 10
-5.7916
 20
62.3739
 30
0.0
 10
-5.7916
 20
62.3739
 30
0.0
 10
-5.6894
 20
61.4964
 30
0.0
 10
-5.3416
 20
59.4036
 30
0.0
 10
-5.6758
 20
58.0802
 30
0.0
  0
SPLINE
  5
78
330
1F
100
AcDbEntity
  8
layer 1
 62
   250
100
AcDbSpline
210
0.0
220
0.0
230
1.0
 70
    11
 71
     3
 72
    12
 73
     8
 74
     0
 42
0.000000001
 43
0.0000000001
 40
0.0
 40
0.0
 40
0.0
 40
0.0
 40
0.3333333333333333
 40
0.3333333333333333
 40
0.3333333333333333
 40
0.3333333333333333
 40
1.0
 40
1.0
 40
1.0
 40
1.0
 10
-4.3984
 20
62.4888
 30
0.0
 10
-3.3583
 20
62.659
 30
0.0
 10
-1.87
 20
62.9627
 30
0.0
 10
-1.8449
 20
63.7651
 30
0.0
 10
-1.8449
 20
63.7651
 30
0.0
 10
-2.8142
 20
63.5258
 30
0.0
 10
-4.409
 20
63.3284
 30
0.0
 10
-4.3984
 20
62.4888
 30
0.0
  0
SPLINE
  5
79
330
1F
100
AcDbEntity
  8
layer 1
 62
   250
100
AcDbSpline
210
0.0
220
0.0
230
1.0
 70
    11
 71
     3
 72
    16
 73
    12
 74
     0
 42
0.000000001
 43
0.0000000001
 40
0.0
 40
0.0
 40
0.0
 40
0.0
 40
0.25
 40
0.25
 40
0.25
 40
0.25
 40
0.5
 40
0.5
 40
0.5
 40
0.5
 40
1.0
 40
1.0
 40
1.0
 40
1.0
 10
1.0556
 20
69.221
 30
0.0
 10
1.6894
 20
67.125
 30
0.0
 10
6.3319
 20
68.5161
 30
0.0
 10
5.9307
 20
70.961
 30
0.0
 10
5.9307
 20
70.961
 30
0.0
 10
5.7856
 20
71.8497
 30
0.0
 10
5.0345
 20
72.3761
 30
0.0
 10
3.4942
 20
72.1224
 30
0.0
 10
3.4942
 20
72.1224
 30
0.0
 10
2.2984
 20
71.9249
 30
0.0
 10
0.4945
 20
71.0865
 30
0.0
 10
1.0556
 20
69.221
 30
0.0
  0
SPLINE
  5
7A
330
1F
100
AcDbEntity
  8
layer 1
 62
   250
100
AcDbSpline
210
0.0
220
0.0
230
1.0
 70
    11
 71
     3
 72
    32
 73
    28
 74
     0
 42
0.000000001
 43
0.0000000001
 40
0.0
 40
0.0
 40
0.0
 40
0.0
 40
0.125
 40
0.125
 40
0.125
 40
0.125
 40
0.25
 40
0.25
 40
0.25
 40
0.25
 40
0.375
 40
0.375
 40
0.375
 40
0.375
 40
0.5
 40
0.5
 40
0.5
 40
0.5
 40
0.625
 40
0.625
 40
0.625
 40
0.625
 40
0.75
 40
0.75
 40
0.75
 40
0.75
 40
1.0
 40
1.0
 40
1.0
 40
1.0
 10
13.2427
 20
81.5221
 30
0.0
 10
13.1802
 20
80.6532
 30
0.0
 10
13.0505
 20
79.3728
 30
0.0
 10
13.5917
 20
78.8526
 30
0.0
 10
13.5917
 20
78.8526
 30
0.0
 10
14.3082
 20
80.5759
 30
0.0
 10
14.3321
 20
83.6016
 30
0.0
 10
16.0282
 20
83.9598
 30
0.0
 10
16.0282
 20
83.9598
 30
0.0
 10
15.6031
 20
81.822
 30
0.0
 10
16.9818
 20
80.6156
 30
0.0
 10
18.5817
 20
80.1289
 30
0.0
 10
18.5817
 20
80.1289
 30
0.0
 10
18.0512
 20
81.3122
 30
0.0
 10
17.1447
 20
82.6773
 30
0.0
 10
17.4215
 20
84.5416
 30
0.0
 10
17.4215
 20
84.5416
 30
0.0
 10
17.8466
 20
87.4169
 30
0.0
 10
20.6248
 20
89.981
 30
0.0
 10
21.5991
 20
92.2014
 30
0.0
 10
21.5991
 20
92.2014
 30
0.0
 10
21.7776
 20
92.2283
 30
0.0
 10
21.6157
 20
92.3915
 30
0.0
 10
21.4822
 20
92.4332
 30
0.0
 10
21.4822
 20
92.4332
 30
0.0
 10
18.2362
 20
89.6026
 30
0.0
 10
13.6314
 20
86.9624
 30
0.0
 10
13.2427
 20
81.5221
 30
0.0
  0
SPLINE
  5
7B
330
1F
100
AcDbEntity
  8
layer 1
 62
   250
100
AcDbSpline
210
0.0
220
0.0
230
1.0
 70
    11
 71
     3
 72
   116
 73
   112
 74
     0
 42
0.000000001
 43
0.0000000001
 40
0.0
 40
0.0
 40
0.0
 40
0.0
 40
0.0344827586206897
 40
0.0344827586206897
 40
0.0344827586206897
 40
0.0344827586206897
 40
0.0689655172413793
 40
0.0689655172413793
 40
0.0689655172413793
 40
0.0689655172413793
 40
0.103448275862069
 40
0.103448275862069
 40
0.103448275862069
 40
0.103448275862069
 40
0.1379310344827586
 40
0.1379310344827586
 40
0.1379310344827586
 40
0.1379310344827586
 40
0.1724137931034483
 40
0.1724137931034483
 40
0.1724137931034483
 40
0.1724137931034483
 40
0.2068965517241379
 40
0.2068965517241379
 40
0.2068965517241379
 40
0.2068965517241379
 40
0.2413793103448276
 40
0.2413793103448276
 40
0.2413793103448276
 40
0.2413793103448276
 40
0.2758620689655172
 40
0.2758620689655172
 40
0.2758620689655172
 40
0.2758620689655172
 40
0.3103448275862069
 40
0.3103448275862069
 40
0.3103448275862069
 40
0.3103448275862069
 40
0.3448275862068966
 40
0.3448275862068966
 40
0.3448275862068966
 40
0.3448275862068966
 40
0.3793103448275862
 40
0.3793103448275862
 40
0.3793103448275862
 40
0.3793103448275862
 40
0.4137931034482759
 40
0.4137931034482759
 40
0.4137931034482759
 40
0.4137931034482759
 40
0.4482758620689655
 40
0.4482758620689655
 40
0.4482758620689655
 40
0.4482758620689655
 40
0.4827586206896552
 40
0.4827586206896552
 40
0.4827586206896552
 40
0.4827586206896552
 40
0.5172413793103449
 40
0.5172413793103449
 40
0.5172413793103449
 40
0.5172413793103449
 40
0.5517241379310345
 40
0.5517241379310345
 40
0.5517241379310345
 40
0.5517241379310345
 40
0.5862068965517241
 40
0.5862068965517241
 40
0.5862068965517241
 40
0.5862068965517241
 40
0.6206896551724138
 40
0.6206896551724138
 40
0.6206896551724138
 40
0.6206896551724138
 40
0.6551724137931034
 40
0.6551724137931034
 40
0.6551724137931034
 40
0.6551724137931034
 40
0.6896551724137931
 40
0.6896551724137931
 40
0.6896551724137931
 40
0.6896551724137931
 40
0.7241379310344828
 40
0.7241379310344828
 40
0.7241379310344828
 40
0.7241379310344828
 40
0.7586206896551724
 40
0.7586206896551724
 40
0.7586206896551724
 40
0.7586206896551724
 40
0.7931034482758621
 40
0.7931034482758621
 40
0.7931034482758621
 40
0.7931034482758621
 40
0.8275862068965517
 40
0.8275862068965517
 40
0.8275862068965517
 40
0.8275862068965517
 40
0.8620689655172413
 40
0.8620689655172413
 40
0.8620689655172413
 40
0.8620689655172413
 40
0.896551724137931
 40
0.896551724137931
 40
0.896551724137931
 40
0.896551724137931
 40
0.9310344827586207
 40
0.9310344827586207
 40
0.9310344827586207
 40
0.9310344827586207
 40
1.0
 40
1.0
 40
1.0
 40
1.0
 10
9.0641
 20
82.3357
 30
0.0
 10
10.1471
 20
83.1137
 30
0.0
 10
10.1868
 20
84.6816
 30
0.0
 10
10.6901
 20
85.9348
 30
0.0
 10
10.6901
 20
85.9348
 30
0.0
 10
12.0614
 20
89.3531
 30
0.0
 10
14.1743
 20
93.1612
 30
0.0
 10
16.7249
 20
95.4494
 30
0.0
 10
16.7249
 20
95.4494
 30
0.0
 10
18.5859
 20
97.1215
 30
0.0
 10
22.5225
 20
99.625
 30
0.0
 10
26.2415
 20
97.8871
 30
0.0
 10
26.2415
 20
97.8871
 30
0.0
 10
30.7587
 20
95.7742
 30
0.0
 10
32.0306
 20
82.9926
 30
0.0
 10
28.0984
 20
78.9707
 30
0.0
 10
28.0984
 20
78.9707
 30
0.0
 10
27.0687
 20
77.9168
 30
0.0
 10
25.5283
 20
77.3371
 30
0.0
 10
24.1526
 20
76.6488
 30
0.0
 10
24.1526
 20
76.6488
 30
0.0
 10
27.4761
 20
74.0911
 30
0.0
 10
31.4938
 20
70.606
 30
0.0
 10
34.134
 20
66.7845
 30
0.0
 10
34.134
 20
66.7845
 30
0.0
 10
35.281
 20
65.1207
 30
0.0
 10
37.772
 20
62.1086
 30
0.0
 10
36.6866
 20
59.4714
 30
0.0
 10
36.6866
 20
59.4714
 30
0.0
 10
36.0466
 20
57.9141
 30
0.0
 10
33.7134
 20
56.8907
 30
0.0
 10
32.0442
 20
55.9904
 30
0.0
 10
32.0442
 20
55.9904
 30
0.0
 10
30.2981
 20
55.0471
 30
0.0
 10
28.326
 20
53.9278
 30
0.0
 10
27.17
 20
52.8572
 30
0.0
 10
27.17
 20
52.8572
 30
0.0
 10
25.4289
 20
51.2434
 30
0.0
 10
24.4578
 20
48.6689
 30
0.0
 10
22.5275
 20
46.9373
 30
0.0
 10
22.5275
 20
46.9373
 30
0.0
 10
19.5018
 20
44.2219
 30
0.0
 10
15.813
 20
42.9122
 30
0.0
 10
11.7337
 20
41.8301
 30
0.0
 10
11.7337
 20
41.8301
 30
0.0
 10
11.977
 20
44.2835
 30
0.0
 10
13.1633
 20
47.0699
 30
0.0
 10
12.8951
 20
50.0708
 30
0.0
 10
12.8951
 20
50.0708
 30
0.0
 10
12.6787
 20
52.4726
 30
0.0
 10
11.6395
 20
54.6158
 30
0.0
 10
11.1528
 20
56.5689
 30
0.0
 10
11.1528
 20
56.5689
 30
0.0
 10
17.2418
 20
57.1382
 30
0.0
 10
20.1881
 20
61.4588
 30
0.0
 10
19.6262
 20
68.2914
 30
0.0
 10
19.6262
 20
68.2914
 30
0.0
 10
19.0391
 20
67.6096
 30
0.0
 10
19.0465
 20
66.73
 30
0.0
 10
18.8135
 20
65.9718
 30
0.0
 10
18.8135
 20
65.9718
 30
0.0
 10
18.1672
 20
63.8725
 30
0.0
 10
16.938
 20
61.5133
 30
0.0
 10
15.2156
 20
60.168
 30
0.0
 10
15.2156
 20
60.168
 30
0.0
 10
11.8494
 20
57.5393
 30
0.0
 10
6.5116
 20
57.3208
 30
0.0
 10
0.8235
 20
57.2655
 30
0.0
 10
0.8235
 20
57.2655
 30
0.0
 10
1.2027
 20
58.6297
 30
0.0
 10
3.5726
 20
57.9997
 30
0.0
 10
3.1454
 20
60.168
 30
0.0
 10
3.1454
 20
60.168
 30
0.0
 10
1.82
 20
59.6552
 30
0.0
 10
0.8788
 20
58.2798
 30
0.0
 10
-0.5686
 20
57.4985
 30
0.0
 10
-0.5686
 20
57.4985
 30
0.0
 10
-2.106
 20
56.6683
 30
0.0
 10
-3.7414
 20
57.1382
 30
0.0
 10
-5.6758
 20
57.2655
 30
0.0
 10
-5.6758
 20
57.2655
 30
0.0
 10
-6.6617
 20
57.3315
 30
0.0
 10
-7.7603
 20
56.7684
 30
0.0
 10
-8.6932
 20
57.3836
 30
0.0
 10
-8.6932
 20
57.3836
 30
0.0
 10
-10.2306
 20
58.3946
 30
0.0
 10
-8.9093
 20
62.9379
 30
0.0
 10
-8.3442
 20
64.6947
 30
0.0
 10
-8.3442
 20
64.6947
 30
0.0
 10
-6.2031
 20
71.3547
 30
0.0
 10
-0.9635
 20
76.0451
 30
0.0
 10
3.3772
 20
79.8971
 30
0.0
 10
3.3772
 20
79.8971
 30
0.0
 10
0.5478
 20
82.3295
 30
0.0
 10
-2.8923
 20
83.7772
 30
0.0
 10
-2.6564
 20
88.8353
 30
0.0
 10
-2.6564
 20
88.8353
 30
0.0
 10
-2.4903
 20
92.4217
 30
0.0
 10
0.4925
 20
96.0865
 30
0.0
 10
3.0305
 20
97.7723
 30
0.0
 10
3.0305
 20
97.7723
 30
0.0
 10
3.8879
 20
98.3404
 30
0.0
 10
5.605
 20
99.0734
 30
0.0
 10
6.5116
 20
99.2804
 30
0.0
 10
6.5116
 20
99.2804
 30
0.0
 10
9.2761
 20
99.9101
 30
0.0
 10
10.9086
 20
98.5911
 30
0.0
 10
10.5743
 20
95.5664
 30
0.0
 10
10.5743
 20
95.5664
 30
0.0
 10
10.1356
 20
91.6217
 30
0.0
 10
7.3586
 20
86.4402
 30
0.0
 10
9.0641
 20
82.3357
 30
0.0
  0
SPLINE
  5
7C
330
1F
100
AcDbEntity
  8
layer 1
 62
   250
100
AcDbSpline
210
0.0
220
0.0
230
1.0
 70
    11
 71
     3
 72
    20
 73
    16
 74
     0
 42
0.000000001
 43
0.0000000001
 40
0.0
 40
0.0
 40
0.0
 40
0.0
 40
0.2
 40
0.2
 40
0.2
 40
0.2
 40
0.4
 40
0.4
 40
0.4
 40
0.4
 40
0.6
 40
0.6
 40
0.6
 40
0.6
 40
1.0
 40
1.0
 40
1.0
 40
1.0
 10
-21.5413
 20
-59.8398
 30
0.0
 10
-22.5713
 20
-61.4668
 30
0.0
 10
-24.0995
 20
-62.5092
 30
0.0
 10
-25.0828
 20
-63.9363
 30
0.0
 10
-25.0828
 20
-63.9363
 30
0.0
 10
-22.8478
 20
-63.0964
 30
0.0
 10
-20.732
 20
-62.4146
 30
0.0
 10
-19.328
 20
-60.6155
 30
0.0
 10
-19.328
 20
-60.6155
 30
0.0
 10
-17.4267
 20
-58.1833
 30
0.0
 10
-18.34
 20
-53.6672
 30
0.0
 10
-19.5489
 20
-50.8733
 30
0.0
 10
-19.5489
 20
-50.8733
 30
0.0
 10
-19.6045
 20
-54.6513
 30
0.0
 10
-20.1096
 20
-57.5779
 30
0.0
 10
-21.5413
 20
-59.8398
 30
0.0
  0
SPLINE
  5
7D
330
1F
100
AcDbEntity
  8
layer 1
 62
   250
100
AcDbSpline
210
0.0
220
0.0
230
1.0
 70
    11
 71
     3
 72
    12
 73
     8
 74
     0
 42
0.000000001
 43
0.0000000001
 40
0.0
 40
0.0
 40
0.0
 40
0.0
 40
0.3333333333333333
 40
0.3333333333333333
 40
0.3333333333333333
 40
0.3333333333333333
 40
1.0
 40
1.0
 40
1.0
 40
1.0
 10
-5.9323
 20
-47.8854
 30
0.0
 10
-4.7836
 20
-50.1102
 30
0.0
 10
-4.6421
 20
-53.7523
 30
0.0
 10
-4.9368
 20
-57.0739
 30
0.0
 10
-4.9368
 20
-57.0739
 30
0.0
 10
-2.3594
 20
-54.8186
 30
0.0
 10
-3.2296
 20
-48.9308
 30
0.0
 10
-5.9323
 20
-47.8854
 30
0.0
  0
SPLINE
  5
7E
330
1F
100
AcDbEntity
  8
layer 1
 62
   250
100
AcDbSpline
210
0.0
220
0.0
230
1.0
 70
    11
 71
     3
 72
    12
 73
     8
 74
     0
 42
0.000000001
 43
0.0000000001
 40
0.0
 40
0.0
 40
0.0
 40
0.0
 40
0.3333333333333333
 40
0.3333333333333333
 40
0.3333333333333333
 40
0.3333333333333333
 40
1.0
 40
1.0
 40
1.0
 40
1.0
 10
-45.1199
 20
-46.6689
 30
0.0
 10
-45.2988
 20
-46.1086
 30
0.0
 10
-45.6803
 20
-45.7518
 30
0.0
 10
-46.3383
 20
-45.6715
 30
0.0
 10
-46.3383
 20
-45.6715
 30
0.0
 10
-46.1805
 20
-46.2032
 30
0.0
 10
-45.7711
 20
-46.9875
 30
0.0
 10
-45.1199
 20
-46.6689
 30
0.0
  0
SPLINE
  5
7F
330
1F
100
AcDbEntity
  8
layer 1
 62
   250
100
AcDbSpline
210
0.0
220
0.0
230
1.0
 70
    11
 71
     3
 72
    12
 73
     8
 74
     0
 42
0.000000001
 43
0.0000000001
 40
0.0
 40
0.0
 40
0.0
 40
0.0
 40
0.3333333333333333
 40
0.3333333333333333
 40
0.3333333333333333
 40
0.3333333333333333
 40
1.0
 40
1.0
 40
1.0
 40
1.0
 10
-45.3427
 20
-44.7858
 30
0.0
 10
-44.7086
 20
-45.0602
 30
0.0
 10
-43.4032
 20
-46.3114
 30
0.0
 10
-42.7967
 20
-45.2296
 30
0.0
 10
-42.7967
 20
-45.2296
 30
0.0
 10
-43.4729
 20
-45.02
 30
0.0
 10
-44.7517
 20
-44.3564
 30
0.0
 10
-45.3427
 20
-44.7858
 30
0.0
  0
SPLINE
  5
80
330
1F
100
AcDbEntity
  8
layer 1
 62
   250
100
AcDbSpline
210
0.0
220
0.0
230
1.0
 70
    11
 71
     3
 72
    12
 73
     8
 74
     0
 42
0.000000001
 43
0.0000000001
 40
0.0
 40
0.0
 40
0.0
 40
0.0
 40
0.3333333333333333
 40
0.3333333333333333
 40
0.3333333333333333
 40
0.3333333333333333
 40
1.0
 40
1.0
 40
1.0
 40
1.0
 10
-44.3442
 20
-43.6791
 30
0.0
 10
-43.4843
 20
-43.8773
 30
0.0
 10
-42.087
 20
-44.5074
 30
0.0
 10
-41.2462
 20
-44.011
 30
0.0
 10
-41.2462
 20
-44.011
 30
0.0
 10
-41.1383
 20
-42.4339
 30
0.0
 10
-43.6938
 20
-43.3636
 30
0.0
 10
-44.3442
 20
-43.6791
 30
0.0
  0
SPLINE
  5
81
330
1F
100
AcDbEntity
  8
layer 1
 62
   250
100
AcDbSpline
210
0.0
220
0.0
230
1.0
 70
    11
 71
     3
 72
    16
 73
    12
 74
     0
 42
0.000000001
 43
0.0000000001
 40
0.0
 40
0.0
 40
0.0
 40
0.0
 40
0.25
 40
0.25
 40
0.25
 40
0.25
 40
0.5
 40
0.5
 40
0.5
 40
0.5
 40
1.0
 40
1.0
 40
1.0
 40
1.0
 10
-11.5782
 20
-48.4385
 30
0.0
 10
-11.2789
 20
-45.8906
 30
0.0
 10
-13.074
 20
-43.639
 30
0.0
 10
-14.4569
 20
-42.6825
 30
0.0
 10
-14.4569
 20
-42.6825
 30
0.0
 10
-13.2673
 20
-45.4926
 30
0.0
 10
-13.209
 20
-49.8941
 30
0.0
 10
-14.4569
 20
-52.6456
 30
0.0
 10
-14.4569
 20
-52.6456
 30
0.0
 10
-13.1829
 20
-51.7151
 30
0.0
 10
-11.7981
 20
-50.3197
 30
0.0
 10
-11.5782
 20
-48.4385
 30
0.0
  0
SPLINE
  5
82
330
1F
100
AcDbEntity
  8
layer 1
 62
   250
100
AcDbSpline
210
0.0
220
0.0
230
1.0
 70
    11
 71
     3
 72
    16
 73
    12
 74
     0
 42
0.000000001
 43
0.0000000001
 40
0.0
 40
0.0
 40
0.0
 40
0.0
 40
0.25
 40
0.25
 40
0.25
 40
0.25
 40
0.5
 40
0.5
 40
0.5
 40
0.5
 40
1.0
 40
1.0
 40
1.0
 40
1.0
 10
-34.1602
 20
-42.2398
 30
0.0
 10
-34.1602
 20
-44.6451
 30
0.0
 10
-29.0129
 20
-44.6912
 30
0.0
 10
-29.1791
 20
-42.1278
 30
0.0
 10
-29.1791
 20
-42.1278
 30
0.0
 10
-29.2585
 20
-40.9095
 30
0.0
 10
-30.4753
 20
-40.3184
 30
0.0
 10
-32.1681
 20
-40.5784
 30
0.0
 10
-32.1681
 20
-40.5784
 30
0.0
 10
-33.2718
 20
-40.7498
 30
0.0
 10
-34.1602
 20
-41.1743
 30
0.0
 10
-34.1602
 20
-42.2398
 30
0.0
  0
SPLINE
  5
83
330
1F
100
AcDbEntity
  8
layer 1
 62
   250
100
AcDbSpline
210
0.0
220
0.0
230
1.0
 70
    11
 71
     3
 72
    28
 73
    24
 74
     0
 42
0.000000001
 43
0.0000000001
 40
0.0
 40
0.0
 40
0.0
 40
0.0
 40
0.1428571428571428
 40
0.1428571428571428
 40
0.1428571428571428
 40
0.1428571428571428
 40
0.2857142857142857
 40
0.2857142857142857
 40
0.2857142857142857
 40
0.2857142857142857
 40
0.4285714285714285
 40
0.4285714285714285
 40
0.4285714285714285
 40
0.4285714285714285
 40
0.5714285714285714
 40
0.5714285714285714
 40
0.5714285714285714
 40
0.5714285714285714
 40
0.7142857142857143
 40
0.7142857142857143
 40
0.7142857142857143
 40
0.7142857142857143
 40
1.0
 40
1.0
 40
1.0
 40
1.0
 10
-18.3324
 20
-38.5863
 30
0.0
 10
-18.3956
 20
-39.2185
 30
0.0
 10
-16.8164
 20
-41.1494
 30
0.0
 10
-16.4493
 20
-41.1323
 30
0.0
 10
-16.4493
 20
-41.1323
 30
0.0
 10
-16.2435
 20
-41.1236
 30
0.0
 10
-15.7875
 20
-40.2753
 30
0.0
 10
-15.3426
 20
-40.0256
 30
0.0
 10
-15.3426
 20
-40.0256
 30
0.0
 10
-14.8606
 20
-39.757
 30
0.0
 10
-14.7096
 20
-39.9722
 30
0.0
 10
-14.2351
 20
-39.5818
 30
0.0
 10
-14.2351
 20
-39.5818
 30
0.0
 10
-14.5239
 20
-39.2069
 30
0.0
 10
-15.5655
 20
-39.5837
 30
0.0
 10
-15.7853
 20
-39.1391
 30
0.0
 10
-15.7853
 20
-39.1391
 30
0.0
 10
-15.444
 20
-38.5576
 30
0.0
 10
-14.1489
 20
-38.9325
 30
0.0
 10
-13.7913
 20
-38.3653
 30
0.0
 10
-13.7913
 20
-38.3653
 30
0.0
 10
-14.9858
 20
-37.9714
 30
0.0
 10
-18.1633
 20
-36.9182
 30
0.0
 10
-18.3324
 20
-38.5863
 30
0.0
  0
SPLINE
  5
84
330
1F
100
AcDbEntity
  8
layer 1
 62
   250
100
AcDbSpline
210
0.0
220
0.0
230
1.0
 70
    11
 71
     3
 72
    16
 73
    12
 74
     0
 42
0.000000001
 43
0.0000000001
 40
0.0
 40
0.0
 40
0.0
 40
0.0
 40
0.25
 40
0.25
 40
0.25
 40
0.25
 40
0.5
 40
0.5
 40
0.5
 40
0.5
 40
1.0
 40
1.0
 40
1.0
 40
1.0
 10
-25.5267
 20
-40.4675
 30
0.0
 10
-24.7816
 20
-41.6859
 30
0.0
 10
-24.6352
 20
-43.1312
 30
0.0
 10
-23.9762
 20
-44.5638
 30
0.0
 10
-23.9762
 20
-44.5638
 30
0.0
 10
-22.5637
 20
-40.8005
 30
0.0
 10
-24.8256
 20
-37.5439
 30
0.0
 10
-28.6263
 20
-37.5905
 30
0.0
 10
-28.6263
 20
-37.5905
 30
0.0
 10
-27.5388
 20
-38.5576
 30
0.0
 10
-26.3129
 20
-39.186
 30
0.0
 10
-25.5267
 20
-40.4675
 30
0.0
  0
SPLINE
  5
85
330
1F
100
AcDbEntity
  8
layer 1
 62
   250
100
AcDbSpline
210
0.0
220
0.0
230
1.0
 70
    11
 71
     3
 72
    16
 73
    12
 74
     0
 42
0.000000001
 43
0.0000000001
 40
0.0
 40
0.0
 40
0.0
 40
0.0
 40
0.25
 40
0.25
 40
0.25
 40
0.25
 40
0.5
 40
0.5
 40
0.5
 40
0.5
 40
1.0
 40
1.0
 40
1.0
 40
1.0
 10
-22.8698
 20
-38.6983
 30
0.0
 10
-22.3446
 20
-39.4604
 30
0.0
 10
-22.3102
 20
-40.3987
 30
0.0
 10
-21.7631
 20
-41.2443
 30
0.0
 10
-21.7631
 20
-41.2443
 30
0.0
 10
-20.4861
 20
-38.9477
 30
0.0
 10
-22.1876
 20
-37.2348
 30
0.0
 10
-24.3091
 20
-37.0369
 30
0.0
 10
-24.3091
 20
-37.0369
 30
0.0
 10
-24.0204
 20
-37.7781
 30
0.0
 10
-23.3117
 20
-38.0544
 30
0.0
 10
-22.8698
 20
-38.6983
 30
0.0
  0
SPLINE
  5
86
330
1F
100
AcDbEntity
  8
layer 1
 62
   250
100
AcDbSpline
210
0.0
220
0.0
230
1.0
 70
    11
 71
     3
 72
   148
 73
   144
 74
     0
 42
0.000000001
 43
0.0000000001
 40
0.0
 40
0.0
 40
0.0
 40
0.0
 40
0.027027027027027
 40
0.027027027027027
 40
0.027027027027027
 40
0.027027027027027
 40
0.0540540540540541
 40
0.0540540540540541
 40
0.0540540540540541
 40
0.0540540540540541
 40
0.0810810810810811
 40
0.0810810810810811
 40
0.0810810810810811
 40
0.0810810810810811
 40
0.1081081081081081
 40
0.1081081081081081
 40
0.1081081081081081
 40
0.1081081081081081
 40
0.1351351351351351
 40
0.1351351351351351
 40
0.1351351351351351
 40
0.1351351351351351
 40
0.1621621621621622
 40
0.1621621621621622
 40
0.1621621621621622
 40
0.1621621621621622
 40
0.1891891891891892
 40
0.1891891891891892
 40
0.1891891891891892
 40
0.1891891891891892
 40
0.2162162162162162
 40
0.2162162162162162
 40
0.2162162162162162
 40
0.2162162162162162
 40
0.2432432432432433
 40
0.2432432432432433
 40
0.2432432432432433
 40
0.2432432432432433
 40
0.2702702702702703
 40
0.2702702702702703
 40
0.2702702702702703
 40
0.2702702702702703
 40
0.2972972972972973
 40
0.2972972972972973
 40
0.2972972972972973
 40
0.2972972972972973
 40
0.3243243243243243
 40
0.3243243243243243
 40
0.3243243243243243
 40
0.3243243243243243
 40
0.3513513513513514
 40
0.3513513513513514
 40
0.3513513513513514
 40
0.3513513513513514
 40
0.3783783783783784
 40
0.3783783783783784
 40
0.3783783783783784
 40
0.3783783783783784
 40
0.4054054054054054
 40
0.4054054054054054
 40
0.4054054054054054
 40
0.4054054054054054
 40
0.4324324324324325
 40
0.4324324324324325
 40
0.4324324324324325
 40
0.4324324324324325
 40
0.4594594594594595
 40
0.4594594594594595
 40
0.4594594594594595
 40
0.4594594594594595
 40
0.4864864864864865
 40
0.4864864864864865
 40
0.4864864864864865
 40
0.4864864864864865
 40
0.5135135135135135
 40
0.5135135135135135
 40
0.5135135135135135
 40
0.5135135135135135
 40
0.5405405405405406
 40
0.5405405405405406
 40
0.5405405405405406
 40
0.5405405405405406
 40
0.5675675675675675
 40
0.5675675675675675
 40
0.5675675675675675
 40
0.5675675675675675
 40
0.5945945945945946
 40
0.5945945945945946
 40
0.5945945945945946
 40
0.5945945945945946
 40
0.6216216216216216
 40
0.6216216216216216
 40
0.6216216216216216
 40
0.6216216216216216
 40
0.6486486486486487
 40
0.6486486486486487
 40
0.6486486486486487
 40
0.6486486486486487
 40
0.6756756756756757
 40
0.6756756756756757
 40
0.6756756756756757
 40
0.6756756756756757
 40
0.7027027027027027
 40
0.7027027027027027
 40
0.7027027027027027
 40
0.7027027027027027
 40
0.7297297297297297
 40
0.7297297297297297
 40
0.7297297297297297
 40
0.7297297297297297
 40
0.7567567567567568
 40
0.7567567567567568
 40
0.7567567567567568
 40
0.7567567567567568
 40
0.7837837837837838
 40
0.7837837837837838
 40
0.7837837837837838
 40
0.7837837837837838
 40
0.8108108108108109
 40
0.8108108108108109
 40
0.8108108108108109
 40
0.8108108108108109
 40
0.8378378378378378
 40
0.8378378378378378
 40
0.8378378378378378
 40
0.8378378378378378
 40
0.8648648648648649
 40
0.8648648648648649
 40
0.8648648648648649
 40
0.8648648648648649
 40
0.8918918918918919
 40
0.8918918918918919
 40
0.8918918918918919
 40
0.8918918918918919
 40
0.918918918918919
 40
0.918918918918919
 40
0.918918918918919
 40
0.918918918918919
 40
0.9459459459459459
 40
0.9459459459459459
 40
0.9459459459459459
 40
0.9459459459459459
 40
1.0
 40
1.0
 40
1.0
 40
1.0
 10
-14.5681
 20
-42.1278
 30
0.0
 10
-13.1504
 20
-42.7793
 30
0.0
 10
-11.6184
 20
-43.3139
 30
0.0
 10
-10.3615
 20
-44.1221
 30
0.0
 10
-10.3615
 20
-44.1221
 30
0.0
 10
-8.3875
 20
-47.3183
 30
0.0
 10
-8.9452
 20
-53.2502
 30
0.0
 10
-10.3615
 20
-56.6309
 30
0.0
 10
-10.3615
 20
-56.6309
 30
0.0
 10
-9.1507
 20
-55.7826
 30
0.0
 10
-7.742
 20
-53.9751
 30
0.0
 10
-7.4828
 20
-51.871
 30
0.0
 10
-7.4828
 20
-51.871
 30
0.0
 10
-7.106
 20
-48.8305
 30
0.0
 10
-8.5608
 20
-46.2959
 30
0.0
 10
-9.6959
 20
-44.4529
 30
0.0
 10
-9.6959
 20
-44.4529
 30
0.0
 10
-6.3856
 20
-46.7053
 30
0.0
 10
-2.429
 20
-48.4632
 30
0.0
 10
0.0443
 20
-51.5381
 30
0.0
 10
0.0443
 20
-51.5381
 30
0.0
 10
0.6009
 20
-52.2297
 30
0.0
 10
1.1548
 20
-53.2347
 30
0.0
 10
1.2627
 20
-54.0841
 30
0.0
 10
1.2627
 20
-54.0841
 30
0.0
 10
1.828
 20
-58.5333
 30
0.0
 10
-2.2216
 20
-59.6476
 30
0.0
 10
-2.6118
 20
-63.9363
 30
0.0
 10
-2.6118
 20
-63.9363
 30
0.0
 10
-2.7484
 20
-65.4377
 30
0.0
 10
-2.4098
 20
-66.8936
 30
0.0
 10
-2.5017
 20
-68.3655
 30
0.0
 10
-2.5017
 20
-68.3655
 30
0.0
 10
-2.6269
 20
-70.3758
 30
0.0
 10
-3.0518
 20
-72.1843
 30
0.0
 10
-3.6084
 20
-73.7901
 30
0.0
 10
-3.6084
 20
-73.7901
 30
0.0
 10
-4.1468
 20
-75.3452
 30
0.0
 10
-5.0745
 20
-76.4977
 30
0.0
 10
-5.8206
 20
-77.9945
 30
0.0
 10
-5.8206
 20
-77.9945
 30
0.0
 10
-7.8768
 20
-82.1168
 30
0.0
 10
-11.0301
 20
-85.8928
 30
0.0
 10
-14.3471
 20
-88.8444
 30
0.0
 10
-14.3471
 20
-88.8444
 30
0.0
 10
-14.4349
 20
-80.8485
 30
0.0
 10
-16.0914
 20
-74.2234
 30
0.0
 10
-20.1017
 20
-69.6939
 30
0.0
 10
-20.1017
 20
-69.6939
 30
0.0
 10
-22.5157
 20
-66.9671
 30
0.0
 10
-26.2841
 20
-64.732
 30
0.0
 10
-30.1749
 20
-64.3801
 30
0.0
 10
-30.1749
 20
-64.3801
 30
0.0
 10
-33.8378
 20
-64.0472
 30
0.0
 10
-35.8522
 20
-65.2466
 30
0.0
 10
-37.5927
 20
-67.0359
 30
0.0
 10
-37.5927
 20
-67.0359
 30
0.0
 10
-40.1829
 20
-65.236
 30
0.0
 10
-42.107
 20
-62.7703
 30
0.0
 10
-42.242
 20
-58.5114
 30
0.0
 10
-42.242
 20
-58.5114
 30
0.0
 10
-41.5765
 20
-58.6597
 30
0.0
 10
-39.1126
 20
-62.1917
 30
0.0
 10
-39.0323
 20
-58.9552
 30
0.0
 10
-39.0323
 20
-58.9552
 30
0.0
 10
-38.3885
 20
-59.0517
 30
0.0
 10
-38.4709
 20
-59.8705
 30
0.0
 10
-37.8137
 20
-59.9507
 30
0.0
 10
-37.8137
 20
-59.9507
 30
0.0
 10
-37.1853
 20
-60.0255
 30
0.0
 10
-37.4992
 20
-59.1607
 30
0.0
 10
-37.2609
 20
-58.8443
 30
0.0
 10
-37.2609
 20
-58.8443
 30
0.0
 10
-35.9306
 20
-59.8379
 30
0.0
 10
-34.7943
 20
-61.8848
 30
0.0
 10
-32.5007
 20
-61.0593
 30
0.0
 10
-32.5007
 20
-61.0593
 30
0.0
 10
-30.2426
 20
-60.2473
 30
0.0
 10
-31.8934
 20
-56.4618
 30
0.0
 10
-32.9426
 20
-54.307
 30
0.0
 10
-32.9426
 20
-54.307
 30
0.0
 10
-33.7557
 20
-52.638
 30
0.0
 10
-34.7274
 20
-50.9384
 30
0.0
 10
-35.7096
 20
-50.2105
 30
0.0
 10
-35.7096
 20
-50.2105
 30
0.0
 10
-36.9722
 20
-49.2762
 30
0.0
 10
-39.0763
 20
-48.7942
 30
0.0
 10
-39.3631
 20
-50.9842
 30
0.0
 10
-39.3631
 20
-50.9842
 30
0.0
 10
-39.9389
 20
-50.8601
 30
0.0
 10
-39.8118
 20
-50.0299
 30
0.0
 10
-40.4698
 20
-49.9887
 30
0.0
 10
-40.4698
 20
-49.9887
 30
0.0
 10
-40.99
 20
-49.9868
 30
0.0
 10
-40.8916
 20
-50.6009
 30
0.0
 10
-41.1345
 20
-50.8733
 30
0.0
 10
-41.1345
 20
-50.8733
 30
0.0
 10
-42.5451
 20
-49.0686
 30
0.0
 10
-43.779
 20
-50.8601
 30
0.0
 10
-44.0132
 20
-52.6456
 30
0.0
 10
-44.0132
 20
-52.6456
 30
0.0
 10
-46.5267
 20
-51.2101
 30
0.0
 10
-48.6262
 20
-48.773
 30
0.0
 10
-48.4405
 20
-45.0068
 30
0.0
 10
-48.4405
 20
-45.0068
 30
0.0
 10
-47.8085
 20
-45.1513
 30
0.0
 10
-47.9576
 20
-46.0741
 30
0.0
 10
-47.4449
 20
-46.336
 30
0.0
 10
-47.4449
 20
-46.336
 30
0.0
 10
-46.7783
 20
-45.0469
 30
0.0
 10
-45.9443
 20
-43.9239
 30
0.0
 10
-45.0098
 20
-42.9046
 30
0.0
 10
-45.0098
 20
-42.9046
 30
0.0
 10
-46.0341
 20
-43.068
 30
0.0
 10
-46.9897
 20
-44.2387
 30
0.0
 10
-47.4449
 20
-45.3397
 30
0.0
 10
-47.4449
 20
-45.3397
 30
0.0
 10
-48.6576
 20
-44.8392
 30
0.0
 10
-48.2751
 20
-43.4804
 30
0.0
 10
-47.7779
 20
-42.7945
 30
0.0
 10
-47.7779
 20
-42.7945
 30
0.0
 10
-46.454
 20
-40.9726
 30
0.0
 10
-41.6385
 20
-40.6427
 30
0.0
 10
-38.5885
 20
-40.4675
 30
0.0
 10
-38.5885
 20
-40.4675
 30
0.0
 10
-38.2518
 20
-40.4505
 30
0.0
 10
-37.6952
 20
-40.5909
 30
0.0
 10
-37.3718
 20
-40.4675
 30
0.0
 10
-37.3718
 20
-40.4675
 30
0.0
 10
-36.886
 20
-40.2859
 30
0.0
 10
-36.7932
 20
-39.6919
 30
0.0
 10
-36.3763
 20
-39.25
 30
0.0
 10
-36.3763
 20
-39.25
 30
0.0
 10
-33.702
 20
-36.4277
 30
0.0
 10
-25.2864
 20
-35.8939
 30
0.0
 10
-19.4391
 20
-36.1512
 30
0.0
 10
-19.4391
 20
-36.1512
 30
0.0
 10
-16.8164
 20
-36.2669
 30
0.0
 10
-11.3066
 20
-36.2938
 30
0.0
 10
-12.0201
 20
-39.6938
 30
0.0
 10
-12.0201
 20
-39.6938
 30
0.0
 10
-12.2715
 20
-40.8807
 30
0.0
 10
-13.6487
 20
-41.1456
 30
0.0
 10
-14.5681
 20
-42.1278
 30
0.0
  0
SPLINE
  5
87
330
1F
100
AcDbEntity
  8
layer 1
 62
   250
100
AcDbSpline
210
0.0
220
0.0
230
1.0
 70
    11
 71
     3
 72
    12
 73
     8
 74
     0
 42
0.000000001
 43
0.0000000001
 40
0.0
 40
0.0
 40
0.0
 40
0.0
 40
0.3333333333333333
 40
0.3333333333333333
 40
0.3333333333333333
 40
0.3333333333333333
 40
1.0
 40
1.0
 40
1.0
 40
1.0
 10
-41.6275
 20
56.2228
 30
0.0
 10
-41.0866
 20
56.6769
 30
0.0
 10
-40.0327
 20
56.3761
 30
0.0
 10
-39.2943
 20
56.2228
 30
0.0
 10
-39.2943
 20
56.2228
 30
0.0
 10
-39.3506
 20
57.4446
 30
0.0
 10
-42.087
 20
56.9925
 30
0.0
 10
-41.6275
 20
56.2228
 30
0.0
  0
SPLINE
  5
88
330
1F
100
AcDbEntity
  8
layer 1
 62
   250
100
AcDbSpline
210
0.0
220
0.0
230
1.0
 70
    11
 71
     3
 72
    12
 73
     8
 74
     0
 42
0.000000001
 43
0.0000000001
 40
0.0
 40
0.0
 40
0.0
 40
0.0
 40
0.3333333333333333
 40
0.3333333333333333
 40
0.3333333333333333
 40
0.3333333333333333
 40
1.0
 40
1.0
 40
1.0
 40
1.0
 10
-46.9769
 20
56.7083
 30
0.0
 10
-46.3857
 20
56.0765
 30
0.0
 10
-44.8924
 20
56.3009
 30
0.0
 10
-44.5457
 20
56.9996
 30
0.0
 10
-44.5457
 20
56.9996
 30
0.0
 10
-45.0416
 20
56.9599
 30
0.0
 10
-46.4402
 20
57.0269
 30
0.0
 10
-46.9769
 20
56.7083
 30
0.0
  0
SPLINE
  5
89
330
1F
100
AcDbEntity
  8
layer 1
 62
   250
100
AcDbSpline
210
0.0
220
0.0
230
1.0
 70
    11
 71
     3
 72
    12
 73
     8
 74
     0
 42
0.000000001
 43
0.0000000001
 40
0.0
 40
0.0
 40
0.0
 40
0.0
 40
0.3333333333333333
 40
0.3333333333333333
 40
0.3333333333333333
 40
0.3333333333333333
 40
1.0
 40
1.0
 40
1.0
 40
1.0
 10
-48.8246
 20
53.9855
 30
0.0
 10
-47.3455
 20
54.7478
 30
0.0
 10
-47.5137
 20
57.7966
 30
0.0
 10
-49.1159
 20
58.2644
 30
0.0
 10
-49.1159
 20
58.2644
 30
0.0
 10
-48.8015
 20
57.4508
 30
0.0
 10
-48.8027
 20
55.1543
 30
0.0
 10
-48.8246
 20
53.9855
 30
0.0
  0
SPLINE
  5
8A
330
1F
100
AcDbEntity
  8
layer 1
 62
   250
100
AcDbSpline
210
0.0
220
0.0
230
1.0
 70
    11
 71
     3
 72
    12
 73
     8
 74
     0
 42
0.000000001
 43
0.0000000001
 40
0.0
 40
0.0
 40
0.0
 40
0.0
 40
0.3333333333333333
 40
0.3333333333333333
 40
0.3333333333333333
 40
0.3333333333333333
 40
1.0
 40
1.0
 40
1.0
 40
1.0
 10
-47.657
 20
57.973
 30
0.0
 10
-46.5018
 20
58.1516
 30
0.0
 10
-45.568
 20
59.0519
 30
0.0
 10
-45.4209
 20
59.9166
 30
0.0
 10
-45.4209
 20
59.9166
 30
0.0
 10
-46.3712
 20
59.4749
 30
0.0
 10
-47.2235
 20
58.9329
 30
0.0
 10
-47.657
 20
57.973
 30
0.0
  0
SPLINE
  5
8B
330
1F
100
AcDbEntity
  8
layer 1
 62
   250
100
AcDbSpline
210
0.0
220
0.0
230
1.0
 70
    11
 71
     3
 72
    16
 73
    12
 74
     0
 42
0.000000001
 43
0.0000000001
 40
0.0
 40
0.0
 40
0.0
 40
0.0
 40
0.25
 40
0.25
 40
0.25
 40
0.25
 40
0.5
 40
0.5
 40
0.5
 40
0.5
 40
1.0
 40
1.0
 40
1.0
 40
1.0
 10
-44.7399
 20
64.0013
 30
0.0
 10
-44.4454
 20
61.6181
 30
0.0
 10
-39.8166
 20
62.884
 30
0.0
 10
-39.9741
 20
65.1681
 30
0.0
 10
-39.9741
 20
65.1681
 30
0.0
 10
-40.0472
 20
66.2105
 30
0.0
 10
-40.8524
 20
66.6543
 30
0.0
 10
-42.3084
 20
66.4319
 30
0.0
 10
-42.3084
 20
66.4319
 30
0.0
 10
-43.4198
 20
66.2638
 30
0.0
 10
-44.906
 20
65.3507
 30
0.0
 10
-44.7399
 20
64.0013
 30
0.0
  0
SPLINE
  5
8C
330
1F
100
AcDbEntity
  8
layer 1
 62
   250
100
AcDbSpline
210
0.0
220
0.0
230
1.0
 70
    11
 71
     3
 72
    20
 73
    16
 74
     0
 42
0.000000001
 43
0.0000000001
 40
0.0
 40
0.0
 40
0.0
 40
0.0
 40
0.2
 40
0.2
 40
0.2
 40
0.2
 40
0.4
 40
0.4
 40
0.4
 40
0.4
 40
0.6
 40
0.6
 40
0.6
 40
0.6
 40
1.0
 40
1.0
 40
1.0
 40
1.0
 10
-31.2221
 20
95.22
 30
0.0
 10
-31.244
 20
95.2952
 30
0.0
 10
-31.3035
 20
95.3319
 30
0.0
 10
-31.4163
 20
95.3171
 30
0.0
 10
-31.4163
 20
95.3171
 30
0.0
 10
-34.6238
 20
92.0617
 30
0.0
 10
-37.0917
 20
86.3727
 30
0.0
 10
-36.6686
 20
79.5622
 30
0.0
 10
-36.6686
 20
79.5622
 30
0.0
 10
-36.5768
 20
78.0834
 30
0.0
 10
-36.3835
 20
76.544
 30
0.0
 10
-35.7935
 20
75.2834
 30
0.0
 10
-35.7935
 20
75.2834
 30
0.0
 10
-34.8274
 20
82.4846
 30
0.0
 10
-34.4002
 20
90.2288
 30
0.0
 10
-31.2221
 20
95.22
 30
0.0
  0
SPLINE
  5
8D
330
1F
100
AcDbEntity
  8
layer 1
 62
   250
100
AcDbSpline
210
0.0
220
0.0
230
1.0
 70
    11
 71
     3
 72
   148
 73
   144
 74
     0
 42
0.000000001
 43
0.0000000001
 40
0.0
 40
0.0
 40
0.0
 40
0.0
 40
0.027027027027027
 40
0.027027027027027
 40
0.027027027027027
 40
0.027027027027027
 40
0.0540540540540541
 40
0.0540540540540541
 40
0.0540540540540541
 40
0.0540540540540541
 40
0.0810810810810811
 40
0.0810810810810811
 40
0.0810810810810811
 40
0.0810810810810811
 40
0.1081081081081081
 40
0.1081081081081081
 40
0.1081081081081081
 40
0.1081081081081081
 40
0.1351351351351351
 40
0.1351351351351351
 40
0.1351351351351351
 40
0.1351351351351351
 40
0.1621621621621622
 40
0.1621621621621622
 40
0.1621621621621622
 40
0.1621621621621622
 40
0.1891891891891892
 40
0.1891891891891892
 40
0.1891891891891892
 40
0.1891891891891892
 40
0.2162162162162162
 40
0.2162162162162162
 40
0.2162162162162162
 40
0.2162162162162162
 40
0.2432432432432433
 40
0.2432432432432433
 40
0.2432432432432433
 40
0.2432432432432433
 40
0.2702702702702703
 40
0.2702702702702703
 40
0.2702702702702703
 40
0.2702702702702703
 40
0.2972972972972973
 40
0.2972972972972973
 40
0.2972972972972973
 40
0.2972972972972973
 40
0.3243243243243243
 40
0.3243243243243243
 40
0.3243243243243243
 40
0.3243243243243243
 40
0.3513513513513514
 40
0.3513513513513514
 40
0.3513513513513514
 40
0.3513513513513514
 40
0.3783783783783784
 40
0.3783783783783784
 40
0.3783783783783784
 40
0.3783783783783784
 40
0.4054054054054054
 40
0.4054054054054054
 40
0.4054054054054054
 40
0.4054054054054054
 40
0.4324324324324325
 40
0.4324324324324325
 40
0.4324324324324325
 40
0.4324324324324325
 40
0.4594594594594595
 40
0.4594594594594595
 40
0.4594594594594595
 40
0.4594594594594595
 40
0.4864864864864865
 40
0.4864864864864865
 40
0.4864864864864865
 40
0.4864864864864865
 40
0.5135135135135135
 40
0.5135135135135135
 40
0.5135135135135135
 40
0.5135135135135135
 40
0.5405405405405406
 40
0.5405405405405406
 40
0.5405405405405406
 40
0.5405405405405406
 40
0.5675675675675675
 40
0.5675675675675675
 40
0.5675675675675675
 40
0.5675675675675675
 40
0.5945945945945946
 40
0.5945945945945946
 40
0.5945945945945946
 40
0.5945945945945946
 40
0.6216216216216216
 40
0.6216216216216216
 40
0.6216216216216216
 40
0.6216216216216216
 40
0.6486486486486487
 40
0.6486486486486487
 40
0.6486486486486487
 40
0.6486486486486487
 40
0.6756756756756757
 40
0.6756756756756757
 40
0.6756756756756757
 40
0.6756756756756757
 40
0.7027027027027027
 40
0.7027027027027027
 40
0.7027027027027027
 40
0.7027027027027027
 40
0.7297297297297297
 40
0.7297297297297297
 40
0.7297297297297297
 40
0.7297297297297297
 40
0.7567567567567568
 40
0.7567567567567568
 40
0.7567567567567568
 40
0.7567567567567568
 40
0.7837837837837838
 40
0.7837837837837838
 40
0.7837837837837838
 40
0.7837837837837838
 40
0.8108108108108109
 40
0.8108108108108109
 40
0.8108108108108109
 40
0.8108108108108109
 40
0.8378378378378378
 40
0.8378378378378378
 40
0.8378378378378378
 40
0.8378378378378378
 40
0.8648648648648649
 40
0.8648648648648649
 40
0.8648648648648649
 40
0.8648648648648649
 40
0.8918918918918919
 40
0.8918918918918919
 40
0.8918918918918919
 40
0.8918918918918919
 40
0.918918918918919
 40
0.918918918918919
 40
0.918918918918919
 40
0.918918918918919
 40
0.9459459459459459
 40
0.9459459459459459
 40
0.9459459459459459
 40
0.9459459459459459
 40
1.0
 40
1.0
 40
1.0
 40
1.0
 10
-34.14
 20
41.8286
 30
0.0
 10
-34.0858
 20
46.6484
 30
0.0
 10
-35.6472
 20
49.8517
 30
0.0
 10
-36.9599
 20
53.3046
 30
0.0
 10
-36.9599
 20
53.3046
 30
0.0
 10
-30.9325
 20
52.3501
 30
0.0
 10
-27.7953
 20
58.8713
 30
0.0
 10
-30.8334
 20
63.9033
 30
0.0
 10
-30.8334
 20
63.9033
 30
0.0
 10
-29.738
 20
55.7976
 30
0.0
 10
-35.5249
 20
53.2388
 30
0.0
 10
-42.6969
 20
53.4028
 30
0.0
 10
-42.6969
 20
53.4028
 30
0.0
 10
-42.4932
 20
54.7854
 30
0.0
 10
-40.3083
 20
54.1904
 30
0.0
 10
-40.5579
 20
56.0274
 30
0.0
 10
-40.5579
 20
56.0274
 30
0.0
 10
-40.9664
 20
56.0336
 30
0.0
 10
-41.1177
 20
55.4634
 30
0.0
 10
-41.4333
 20
55.2493
 30
0.0
 10
-41.4333
 20
55.2493
 30
0.0
 10
-41.9188
 20
54.9201
 30
0.0
 10
-42.6501
 20
54.6895
 30
0.0
 10
-43.2807
 20
54.278
 30
0.0
 10
-43.2807
 20
54.278
 30
0.0
 10
-44.4788
 20
53.4937
 30
0.0
 10
-45.5473
 20
52.6476
 30
0.0
 10
-47.755
 20
52.9161
 30
0.0
 10
-47.755
 20
52.9161
 30
0.0
 10
-48.2168
 20
52.9724
 30
0.0
 10
-48.6188
 20
53.2752
 30
0.0
 10
-49.1159
 20
53.3046
 30
0.0
 10
-49.1159
 20
53.3046
 30
0.0
 10
-49.9546
 20
53.3567
 30
0.0
 10
-50.9905
 20
52.8063
 30
0.0
 10
-51.8387
 20
53.4028
 30
0.0
 10
-51.8387
 20
53.4028
 30
0.0
 10
-52.8394
 20
55.5282
 30
0.0
 10
-52.3817
 20
58.0127
 30
0.0
 10
-51.9358
 20
60.112
 30
0.0
 10
-51.9358
 20
60.112
 30
0.0
 10
-50.9071
 20
64.9602
 30
0.0
 10
-48.3933
 20
68.9102
 30
0.0
 10
-45.0321
 20
71.4909
 30
0.0
 10
-45.0321
 20
71.4909
 30
0.0
 10
-44.4045
 20
71.9714
 30
0.0
 10
-42.7993
 20
72.7755
 30
0.0
 10
-42.6969
 20
73.3386
 30
0.0
 10
-42.6969
 20
73.3386
 30
0.0
 10
-42.5592
 20
74.1
 30
0.0
 10
-43.7695
 20
75.2037
 30
0.0
 10
-44.059
 20
75.5747
 30
0.0
 10
-44.059
 20
75.5747
 30
0.0
 10
-46.7774
 20
79.0557
 30
0.0
 10
-48.3639
 20
82.5796
 30
0.0
 10
-49.6997
 20
87.4382
 30
0.0
 10
-49.6997
 20
87.4382
 30
0.0
 10
-50.2252
 20
89.3495
 30
0.0
 10
-50.5018
 20
91.572
 30
0.0
 10
-50.3798
 20
93.7589
 30
0.0
 10
-50.3798
 20
93.7589
 30
0.0
 10
-50.293
 20
95.3266
 30
0.0
 10
-49.965
 20
97.7539
 30
0.0
 10
-48.7275
 20
98.039
 30
0.0
 10
-48.7275
 20
98.039
 30
0.0
 10
-48.2272
 20
98.1539
 30
0.0
 10
-47.1096
 20
97.7874
 30
0.0
 10
-46.7827
 20
97.6503
 30
0.0
 10
-46.7827
 20
97.6503
 30
0.0
 10
-44.8578
 20
96.8429
 30
0.0
 10
-43.0959
 20
94.7584
 30
0.0
 10
-42.3084
 20
92.7867
 30
0.0
 10
-42.3084
 20
92.7867
 30
0.0
 10
-41.7758
 20
91.453
 30
0.0
 10
-41.3267
 20
89.9227
 30
0.0
 10
-41.4333
 20
88.5075
 30
0.0
 10
-41.4333
 20
88.5075
 30
0.0
 10
-41.4792
 20
87.8968
 30
0.0
 10
-41.8134
 20
87.4465
 30
0.0
 10
-41.9188
 20
86.7573
 30
0.0
 10
-41.9188
 20
86.7573
 30
0.0
 10
-42.2939
 20
84.3509
 30
0.0
 10
-42.0316
 20
81.5049
 30
0.0
 10
-41.6275
 20
79.1738
 30
0.0
 10
-41.6275
 20
79.1738
 30
0.0
 10
-41.2284
 20
76.8687
 30
0.0
 10
-40.8838
 20
74.4583
 30
0.0
 10
-39.4885
 20
73.2415
 30
0.0
 10
-39.4885
 20
73.2415
 30
0.0
 10
-38.7105
 20
74.3662
 30
0.0
 10
-39.3109
 20
75.8148
 30
0.0
 10
-39.4885
 20
77.0336
 30
0.0
 10
-39.4885
 20
77.0336
 30
0.0
 10
-40.0786
 20
81.0766
 30
0.0
 10
-40.1769
 20
85.4694
 30
0.0
 10
-38.7105
 20
89.1885
 30
0.0
 10
-38.7105
 20
89.1885
 30
0.0
 10
-37.8573
 20
91.3535
 30
0.0
 10
-36.8178
 20
93.245
 30
0.0
 10
-35.4047
 20
95.0249
 30
0.0
 10
-35.4047
 20
95.0249
 30
0.0
 10
-34.1181
 20
96.6425
 30
0.0
 10
-32.0158
 20
99.1232
 30
0.0
 10
-29.8599
 20
99.4009
 30
0.0
 10
-29.8599
 20
99.4009
 30
0.0
 10
-27.1978
 20
99.7446
 30
0.0
 10
-26.7049
 20
97.3433
 30
0.0
 10
-26.5545
 20
94.9287
 30
0.0
 10
-26.5545
 20
94.9287
 30
0.0
 10
-26.193
 20
89.1112
 30
0.0
 10
-27.5362
 20
84.3625
 30
0.0
 10
-29.1802
 20
80.1449
 30
0.0
 10
-29.1802
 20
80.1449
 30
0.0
 10
-29.6648
 20
78.9011
 30
0.0
 10
-30.8837
 20
76.9241
 30
0.0
 10
-30.3467
 20
75.4776
 30
0.0
 10
-30.3467
 20
75.4776
 30
0.0
 10
-29.8244
 20
74.0686
 30
0.0
 10
-27.7452
 20
73.1402
 30
0.0
 10
-26.1649
 20
72.1709
 30
0.0
 10
-26.1649
 20
72.1709
 30
0.0
 10
-23.0631
 20
70.2658
 30
0.0
 10
-20.2986
 20
67.8417
 30
0.0
 10
-18.386
 20
64.9738
 30
0.0
 10
-18.386
 20
64.9738
 30
0.0
 10
-17.3886
 20
63.4794
 30
0.0
 10
-16.34
 20
61.8093
 30
0.0
 10
-15.7594
 20
60.112
 30
0.0
 10
-15.7594
 20
60.112
 30
0.0
 10
-15.469
 20
59.2597
 30
0.0
 10
-15.1434
 20
57.7193
 30
0.0
 10
-15.4681
 20
56.7083
 30
0.0
 10
-15.4681
 20
56.7083
 30
0.0
 10
-16.1209
 20
54.6768
 30
0.0
 10
-19.016
 20
54.9225
 30
0.0
 10
-20.6233
 20
53.6942
 30
0.0
 10
-20.6233
 20
53.6942
 30
0.0
 10
-21.7042
 20
52.8658
 30
0.0
 10
-21.7335
 20
51.2689
 30
0.0
 10
-22.3727
 20
49.7075
 30
0.0
 10
-22.3727
 20
49.7075
 30
0.0
 10
-24.144
 20
45.3786
 30
0.0
 10
-29.2116
 20
42.8917
 30
0.0
 10
-34.14
 20
41.8286
 30
0.0
  0
SPLINE
  5
8E
330
1F
100
AcDbEntity
  8
layer 1
 62
   250
100
AcDbSpline
210
0.0
220
0.0
230
1.0
 70
    11
 71
     3
 72
    12
 73
     8
 74
     0
 42
0.000000001
 43
0.0000000001
 40
0.0
 40
0.0
 40
0.0
 40
0.0
 40
0.3333333333333333
 40
0.3333333333333333
 40
0.3333333333333333
 40
0.3333333333333333
 40
1.0
 40
1.0
 40
1.0
 40
1.0
 10
-38.3732
 20
8.5845
 30
0.0
 10
-39.019
 20
9.5448
 30
0.0
 10
-38.5337
 20
10.5809
 30
0.0
 10
-37.8995
 20
11.2403
 30
0.0
 10
-37.8995
 20
11.2403
 30
0.0
 10
-40.1933
 20
12.0749
 30
0.0
 10
-39.625
 20
8.8372
 30
0.0
 10
-38.3732
 20
8.5845
 30
0.0
  0
SPLINE
  5
8F
330
1F
100
AcDbEntity
  8
layer 1
 62
   250
100
AcDbSpline
210
0.0
220
0.0
230
1.0
 70
    11
 71
     3
 72
    16
 73
    12
 74
     0
 42
0.000000001
 43
0.0000000001
 40
0.0
 40
0.0
 40
0.0
 40
0.0
 40
0.25
 40
0.25
 40
0.25
 40
0.25
 40
0.5
 40
0.5
 40
0.5
 40
0.5
 40
1.0
 40
1.0
 40
1.0
 40
1.0
 10
-23.5855
 20
15.0315
 30
0.0
 10
-23.3005
 20
13.0919
 30
0.0
 10
-19.8384
 20
14.0397
 30
0.0
 10
-19.6036
 20
15.5988
 30
0.0
 10
-19.6036
 20
15.5988
 30
0.0
 10
-19.3979
 20
16.9785
 30
0.0
 10
-20.2503
 20
17.4712
 30
0.0
 10
-21.7845
 20
17.1178
 30
0.0
 10
-21.7845
 20
17.1178
 30
0.0
 10
-22.6725
 20
16.9092
 30
0.0
 10
-23.7763
 20
16.3326
 30
0.0
 10
-23.5855
 20
15.0315
 30
0.0
  0
SPLINE
  5
90
330
1F
100
AcDbEntity
  8
layer 1
 62
   250
100
AcDbSpline
210
0.0
220
0.0
230
1.0
 70
    11
 71
     3
 72
   308
 73
   304
 74
     0
 42
0.000000001
 43
0.0000000001
 40
0.0
 40
0.0
 40
0.0
 40
0.0
 40
0.012987012987013
 40
0.012987012987013
 40
0.012987012987013
 40
0.012987012987013
 40
0.025974025974026
 40
0.025974025974026
 40
0.025974025974026
 40
0.025974025974026
 40
0.038961038961039
 40
0.038961038961039
 40
0.038961038961039
 40
0.038961038961039
 40
0.051948051948052
 40
0.051948051948052
 40
0.051948051948052
 40
0.051948051948052
 40
0.0649350649350649
 40
0.0649350649350649
 40
0.0649350649350649
 40
0.0649350649350649
 40
0.0779220779220779
 40
0.0779220779220779
 40
0.0779220779220779
 40
0.0779220779220779
 40
0.0909090909090909
 40
0.0909090909090909
 40
0.0909090909090909
 40
0.0909090909090909
 40
0.1038961038961039
 40
0.1038961038961039
 40
0.1038961038961039
 40
0.1038961038961039
 40
0.1168831168831169
 40
0.1168831168831169
 40
0.1168831168831169
 40
0.1168831168831169
 40
0.1298701298701299
 40
0.1298701298701299
 40
0.1298701298701299
 40
0.1298701298701299
 40
0.1428571428571428
 40
0.1428571428571428
 40
0.1428571428571428
 40
0.1428571428571428
 40
0.1558441558441558
 40
0.1558441558441558
 40
0.1558441558441558
 40
0.1558441558441558
 40
0.1688311688311688
 40
0.1688311688311688
 40
0.1688311688311688
 40
0.1688311688311688
 40
0.1818181818181818
 40
0.1818181818181818
 40
0.1818181818181818
 40
0.1818181818181818
 40
0.1948051948051948
 40
0.1948051948051948
 40
0.1948051948051948
 40
0.1948051948051948
 40
0.2077922077922078
 40
0.2077922077922078
 40
0.2077922077922078
 40
0.2077922077922078
 40
0.2207792207792208
 40
0.2207792207792208
 40
0.2207792207792208
 40
0.2207792207792208
 40
0.2337662337662338
 40
0.2337662337662338
 40
0.2337662337662338
 40
0.2337662337662338
 40
0.2467532467532468
 40
0.2467532467532468
 40
0.2467532467532468
 40
0.2467532467532468
 40
0.2597402597402597
 40
0.2597402597402597
 40
0.2597402597402597
 40
0.2597402597402597
 40
0.2727272727272727
 40
0.2727272727272727
 40
0.2727272727272727
 40
0.2727272727272727
 40
0.2857142857142857
 40
0.2857142857142857
 40
0.2857142857142857
 40
0.2857142857142857
 40
0.2987012987012987
 40
0.2987012987012987
 40
0.2987012987012987
 40
0.2987012987012987
 40
0.3116883116883117
 40
0.3116883116883117
 40
0.3116883116883117
 40
0.3116883116883117
 40
0.3246753246753247
 40
0.3246753246753247
 40
0.3246753246753247
 40
0.3246753246753247
 40
0.3376623376623377
 40
0.3376623376623377
 40
0.3376623376623377
 40
0.3376623376623377
 40
0.3506493506493507
 40
0.3506493506493507
 40
0.3506493506493507
 40
0.3506493506493507
 40
0.3636363636363636
 40
0.3636363636363636
 40
0.3636363636363636
 40
0.3636363636363636
 40
0.3766233766233766
 40
0.3766233766233766
 40
0.3766233766233766
 40
0.3766233766233766
 40
0.3896103896103896
 40
0.3896103896103896
 40
0.3896103896103896
 40
0.3896103896103896
 40
0.4025974025974026
 40
0.4025974025974026
 40
0.4025974025974026
 40
0.4025974025974026
 40
0.4155844155844156
 40
0.4155844155844156
 40
0.4155844155844156
 40
0.4155844155844156
 40
0.4285714285714285
 40
0.4285714285714285
 40
0.4285714285714285
 40
0.4285714285714285
 40
0.4415584415584415
 40
0.4415584415584415
 40
0.4415584415584415
 40
0.4415584415584415
 40
0.4545454545454545
 40
0.4545454545454545
 40
0.4545454545454545
 40
0.4545454545454545
 40
0.4675324675324675
 40
0.4675324675324675
 40
0.4675324675324675
 40
0.4675324675324675
 40
0.4805194805194805
 40
0.4805194805194805
 40
0.4805194805194805
 40
0.4805194805194805
 40
0.4935064935064935
 40
0.4935064935064935
 40
0.4935064935064935
 40
0.4935064935064935
 40
0.5064935064935064
 40
0.5064935064935064
 40
0.5064935064935064
 40
0.5064935064935064
 40
0.5194805194805194
 40
0.5194805194805194
 40
0.5194805194805194
 40
0.5194805194805194
 40
0.5324675324675324
 40
0.5324675324675324
 40
0.5324675324675324
 40
0.5324675324675324
 40
0.5454545454545454
 40
0.5454545454545454
 40
0.5454545454545454
 40
0.5454545454545454
 40
0.5584415584415584
 40
0.5584415584415584
 40
0.5584415584415584
 40
0.5584415584415584
 40
0.5714285714285714
 40
0.5714285714285714
 40
0.5714285714285714
 40
0.5714285714285714
 40
0.5844155844155844
 40
0.5844155844155844
 40
0.5844155844155844
 40
0.5844155844155844
 40
0.5974025974025974
 40
0.5974025974025974
 40
0.5974025974025974
 40
0.5974025974025974
 40
0.6103896103896104
 40
0.6103896103896104
 40
0.6103896103896104
 40
0.6103896103896104
 40
0.6233766233766234
 40
0.6233766233766234
 40
0.6233766233766234
 40
0.6233766233766234
 40
0.6363636363636364
 40
0.6363636363636364
 40
0.6363636363636364
 40
0.6363636363636364
 40
0.6493506493506493
 40
0.6493506493506493
 40
0.6493506493506493
 40
0.6493506493506493
 40
0.6623376623376623
 40
0.6623376623376623
 40
0.6623376623376623
 40
0.6623376623376623
 40
0.6753246753246753
 40
0.6753246753246753
 40
0.6753246753246753
 40
0.6753246753246753
 40
0.6883116883116883
 40
0.6883116883116883
 40
0.6883116883116883
 40
0.6883116883116883
 40
0.7012987012987013
 40
0.7012987012987013
 40
0.7012987012987013
 40
0.7012987012987013
 40
0.7142857142857143
 40
0.7142857142857143
 40
0.7142857142857143
 40
0.7142857142857143
 40
0.7272727272727273
 40
0.7272727272727273
 40
0.7272727272727273
 40
0.7272727272727273
 40
0.7402597402597403
 40
0.7402597402597403
 40
0.7402597402597403
 40
0.7402597402597403
 40
0.7532467532467533
 40
0.7532467532467533
 40
0.7532467532467533
 40
0.7532467532467533
 40
0.7662337662337663
 40
0.7662337662337663
 40
0.7662337662337663
 40
0.7662337662337663
 40
0.7792207792207793
 40
0.7792207792207793
 40
0.7792207792207793
 40
0.7792207792207793
 40
0.7922077922077922
 40
0.7922077922077922
 40
0.7922077922077922
 40
0.7922077922077922
 40
0.8051948051948052
 40
0.8051948051948052
 40
0.8051948051948052
 40
0.8051948051948052
 40
0.8181818181818182
 40
0.8181818181818182
 40
0.8181818181818182
 40
0.8181818181818182
 40
0.8311688311688312
 40
0.8311688311688312
 40
0.8311688311688312
 40
0.8311688311688312
 40
0.8441558441558441
 40
0.8441558441558441
 40
0.8441558441558441
 40
0.8441558441558441
 40
0.8571428571428571
 40
0.8571428571428571
 40
0.8571428571428571
 40
0.8571428571428571
 40
0.8701298701298701
 40
0.8701298701298701
 40
0.8701298701298701
 40
0.8701298701298701
 40
0.8831168831168831
 40
0.8831168831168831
 40
0.8831168831168831
 40
0.8831168831168831
 40
0.8961038961038961
 40
0.8961038961038961
 40
0.8961038961038961
 40
0.8961038961038961
 40
0.9090909090909091
 40
0.9090909090909091
 40
0.9090909090909091
 40
0.9090909090909091
 40
0.922077922077922
 40
0.922077922077922
 40
0.922077922077922
 40
0.922077922077922
 40
0.935064935064935
 40
0.935064935064935
 40
0.935064935064935
 40
0.935064935064935
 40
0.948051948051948
 40
0.948051948051948
 40
0.948051948051948
 40
0.948051948051948
 40
0.961038961038961
 40
0.961038961038961
 40
0.961038961038961
 40
0.961038961038961
 40
0.974025974025974
 40
0.974025974025974
 40
0.974025974025974
 40
0.974025974025974
 40
1.0
 40
1.0
 40
1.0
 40
1.0
 10
-7.9446
 20
32.7591
 30
0.0
 10
-7.9446
 20
32.7591
 30
0.0
 10
-7.6593
 20
32.7591
 30
0.0
 10
-7.6593
 20
32.7591
 30
0.0
 10
-7.6593
 20
32.7591
 30
0.0
 10
-6.3424
 20
30.5214
 30
0.0
 10
-4.5621
 20
26.6096
 30
0.0
 10
-6.1432
 20
23.6584
 30
0.0
 10
-6.1432
 20
23.6584
 30
0.0
 10
-7.1288
 20
21.8172
 30
0.0
 10
-9.0297
 20
20.3074
 30
0.0
 10
-10.9779
 20
19.2966
 30
0.0
 10
-10.9779
 20
19.2966
 30
0.0
 10
-11.6561
 20
18.9465
 30
0.0
 10
-12.4279
 20
18.7629
 30
0.0
 10
-12.9688
 20
18.2555
 30
0.0
 10
-12.9688
 20
18.2555
 30
0.0
 10
-10.055
 20
18.2493
 30
0.0
 10
-7.3145
 20
19.2348
 30
0.0
 10
-5.8582
 20
21.0047
 30
0.0
 10
-5.8582
 20
21.0047
 30
0.0
 10
-4.5874
 20
18.4862
 30
0.0
 10
-5.6787
 20
14.7129
 30
0.0
 10
-7.8501
 20
13.8938
 30
0.0
 10
-7.8501
 20
13.8938
 30
0.0
 10
-3.9511
 20
14.0974
 30
0.0
 10
0.0719
 20
13.6843
 30
0.0
 10
0.8711
 20
10.481
 30
0.0
 10
0.8711
 20
10.481
 30
0.0
 10
-0.1775
 20
10.5199
 30
0.0
 10
-1.1559
 20
10.4855
 30
0.0
 10
-1.4043
 20
9.7219
 30
0.0
 10
-1.4043
 20
9.7219
 30
0.0
 10
0.5007
 20
9.0155
 30
0.0
 10
2.5925
 20
8.7082
 30
0.0
 10
3.9997
 20
7.4468
 30
0.0
 10
3.9997
 20
7.4468
 30
0.0
 10
4.9106
 20
6.6334
 30
0.0
 10
5.6697
 20
5.5314
 30
0.0
 10
5.8953
 20
4.226
 30
0.0
 10
5.8953
 20
4.226
 30
0.0
 10
5.2295
 20
4.3538
 30
0.0
 10
4.2176
 20
4.9191
 30
0.0
 10
3.5257
 20
4.4148
 30
0.0
 10
3.5257
 20
4.4148
 30
0.0
 10
5.525
 20
2.8756
 30
0.0
 10
8.2732
 20
1.5797
 30
0.0
 10
8.1704
 20
-1.7472
 30
0.0
 10
8.1704
 20
-1.7472
 30
0.0
 10
7.5005
 20
-1.595
 30
0.0
 10
7.1608
 20
-1.1129
 30
0.0
 10
6.2748
 20
-1.1789
 30
0.0
 10
6.2748
 20
-1.1789
 30
0.0
 10
5.9488
 20
-1.5994
 30
0.0
 10
6.2487
 20
-2.1279
 30
0.0
 10
6.2748
 20
-2.5995
 30
0.0
 10
6.2748
 20
-2.5995
 30
0.0
 10
6.5013
 20
-6.5838
 30
0.0
 10
4.3748
 20
-8.9261
 30
0.0
 10
1.4402
 20
-9.9943
 30
0.0
 10
1.4402
 20
-9.9943
 30
0.0
 10
-0.3317
 20
-10.2451
 30
0.0
 10
-2.0448
 20
-10.6633
 30
0.0
 10
-4.1532
 20
-10.3729
 30
0.0
 10
-4.1532
 20
-10.3729
 30
0.0
 10
-3.8482
 20
-4.4764
 30
0.0
 10
-6.4422
 20
-0.0046
 30
0.0
 10
-9.556
 20
3.0883
 30
0.0
 10
-9.556
 20
3.0883
 30
0.0
 10
-8.1342
 20
0.503
 30
0.0
 10
-6.1233
 20
-2.7074
 30
0.0
 10
-5.8582
 20
-6.3919
 30
0.0
 10
-5.8582
 20
-6.3919
 30
0.0
 10
-5.8371
 20
-6.695
 30
0.0
 10
-5.8235
 20
-7.0974
 30
0.0
 10
-5.8582
 20
-7.4341
 30
0.0
 10
-5.8582
 20
-7.4341
 30
0.0
 10
-6.3635
 20
-12.2916
 30
0.0
 10
-9.8372
 20
-15.1653
 30
0.0
 10
-15.4338
 20
-14.5447
 30
0.0
 10
-15.4338
 20
-14.5447
 30
0.0
 10
-11.72
 20
-11.1037
 30
0.0
 10
-12.3902
 20
-3.0159
 30
0.0
 10
-15.4338
 20
0.7179
 30
0.0
 10
-15.4338
 20
0.7179
 30
0.0
 10
-15.0228
 20
1.4445
 30
0.0
 10
-15.027
 20
2.5861
 30
0.0
 10
-14.8644
 20
3.5603
 30
0.0
 10
-14.8644
 20
3.5603
 30
0.0
 10
-14.1443
 20
2.9237
 30
0.0
 10
-14.0539
 20
1.6561
 30
0.0
 10
-13.253
 20
1.0962
 30
0.0
 10
-13.253
 20
1.0962
 30
0.0
 10
-12.15
 20
2.4541
 30
0.0
 10
-11.9937
 20
5.7997
 30
0.0
 10
-12.8746
 20
7.5434
 30
0.0
 10
-12.8746
 20
7.5434
 30
0.0
 10
-13.3861
 20
6.5065
 30
0.0
 10
-12.7058
 20
4.2784
 30
0.0
 10
-13.5383
 20
3.5603
 30
0.0
 10
-13.5383
 20
3.5603
 30
0.0
 10
-14.3214
 20
4.2932
 30
0.0
 10
-14.6968
 20
5.4369
 30
0.0
 10
-15.718
 20
5.9317
 30
0.0
 10
-15.718
 20
5.9317
 30
0.0
 10
-15.7233
 20
3.0182
 30
0.0
 10
-16.0146
 20
-0.5812
 30
0.0
 10
-19.3204
 20
0.4337
 30
0.0
 10
-19.3204
 20
0.4337
 30
0.0
 10
-19.1203
 20
0.9705
 30
0.0
 10
-17.9743
 20
1.068
 30
0.0
 10
-18.183
 20
1.8553
 30
0.0
 10
-18.183
 20
1.8553
 30
0.0
 10
-18.3402
 20
2.452
 30
0.0
 10
-20.2126
 20
2.3869
 30
0.0
 10
-21.215
 20
2.3293
 30
0.0
 10
-21.215
 20
2.3293
 30
0.0
 10
-23.1189
 20
2.2223
 30
0.0
 10
-25.8389
 20
2.2372
 30
0.0
 10
-26.1451
 20
1.0962
 30
0.0
 10
-26.1451
 20
1.0962
 30
0.0
 10
-26.6577
 20
-0.816
 30
0.0
 10
-24.6257
 20
-1.2113
 30
0.0
 10
-25.8597
 20
-2.9791
 30
0.0
 10
-25.8597
 20
-2.9791
 30
0.0
 10
-26.3052
 20
-2.8807
 30
0.0
 10
-25.7444
 20
-2.3627
 30
0.0
 10
-26.0496
 20
-2.1258
 30
0.0
 10
-26.0496
 20
-2.1258
 30
0.0
 10
-26.4093
 20
-3.4552
 30
0.0
 10
-28.7714
 20
-3.5672
 30
0.0
 10
-29.5578
 20
-2.5053
 30
0.0
 10
-29.5578
 20
-2.5053
 30
0.0
 10
-28.5658
 20
-2.412
 30
0.0
 10
-27.6453
 20
-2.2693
 30
0.0
 10
-27.7574
 20
-1.3676
 30
0.0
 10
-27.7574
 20
-1.3676
 30
0.0
 10
-27.8477
 20
-0.6252
 30
0.0
 10
-28.4588
 20
-0.9292
 30
0.0
 10
-29.2725
 20
-0.6095
 30
0.0
 10
-29.2725
 20
-0.6095
 30
0.0
 10
-30.4414
 20
-0.1494
 30
0.0
 10
-31.2153
 20
1.3458
 30
0.0
 10
-30.884
 20
2.6146
 30
0.0
 10
-30.884
 20
2.6146
 30
0.0
 10
-29.9855
 20
2.4089
 30
0.0
 10
-28.8321
 20
1.4769
 30
0.0
 10
-27.9461
 20
2.1394
 30
0.0
 10
-27.9461
 20
2.1394
 30
0.0
 10
-27.8486
 20
2.932
 30
0.0
 10
-28.5102
 20
2.9656
 30
0.0
 10
-28.5155
 20
3.6566
 30
0.0
 10
-28.5155
 20
3.6566
 30
0.0
 10
-27.81
 20
3.4911
 30
0.0
 10
-26.4039
 20
2.7109
 30
0.0
 10
-25.8597
 20
3.5603
 30
0.0
 10
-25.8597
 20
3.5603
 30
0.0
 10
-25.7938
 20
4.1306
 30
0.0
 10
-26.4993
 20
4.3372
 30
0.0
 10
-26.2405
 20
4.7943
 30
0.0
 10
-26.2405
 20
4.7943
 30
0.0
 10
-24.5975
 20
4.613
 30
0.0
 10
-21.2382
 20
3.3472
 30
0.0
 10
-20.8355
 20
5.1717
 30
0.0
 10
-20.8355
 20
5.1717
 30
0.0
 10
-20.5713
 20
6.3796
 30
0.0
 10
-21.2926
 20
7.838
 30
0.0
 10
-21.8787
 20
8.7762
 30
0.0
 10
-21.8787
 20
8.7762
 30
0.0
 10
-22.8612
 20
10.3458
 30
0.0
 10
-24.6876
 20
11.0252
 30
0.0
 10
-26.5234
 20
11.0504
 30
0.0
 10
-26.5234
 20
11.0504
 30
0.0
 10
-28.3447
 20
11.0757
 30
0.0
 10
-31.9263
 20
10.4278
 30
0.0
 10
-30.5998
 20
8.0172
 30
0.0
 10
-30.5998
 20
8.0172
 30
0.0
 10
-31.1556
 20
8.0404
 30
0.0
 10
-33.2797
 20
9.8658
 30
0.0
 10
-33.6343
 20
8.4912
 30
0.0
 10
-33.6343
 20
8.4912
 30
0.0
 10
-33.8156
 20
7.7836
 30
0.0
 10
-32.984
 20
7.7877
 30
0.0
 10
-32.8749
 20
7.1639
 30
0.0
 10
-32.8749
 20
7.1639
 30
0.0
 10
-33.6928
 20
7.429
 30
0.0
 10
-35.4029
 20
8.4315
 30
0.0
 10
-36.0981
 20
7.3535
 30
0.0
 10
-36.0981
 20
7.3535
 30
0.0
 10
-36.0351
 20
6.3754
 30
0.0
 10
-35.0885
 20
6.2779
 30
0.0
 10
-34.7717
 20
5.5522
 30
0.0
 10
-34.7717
 20
5.5522
 30
0.0
 10
-35.7908
 20
5.3949
 30
0.0
 10
-36.9737
 20
5.8711
 30
0.0
 10
-37.8041
 20
6.2158
 30
0.0
 10
-37.8041
 20
6.2158
 30
0.0
 10
-38.3785
 20
6.0449
 30
0.0
 10
-38.3994
 20
5.5965
 30
0.0
 10
-38.8472
 20
5.268
 30
0.0
 10
-38.8472
 20
5.268
 30
0.0
 10
-39.8735
 20
4.5123
 30
0.0
 10
-41.6255
 20
4.3708
 30
0.0
 10
-42.4496
 20
3.467
 30
0.0
 10
-42.4496
 20
3.467
 30
0.0
 10
-43.6711
 20
2.126
 30
0.0
 10
-43.1481
 20
-0.3559
 30
0.0
 10
-42.735
 20
-2.4099
 30
0.0
 10
-42.735
 20
-2.4099
 30
0.0
 10
-44.1743
 20
-0.619
 30
0.0
 10
-44.553
 20
3.1787
 30
0.0
 10
-42.735
 20
4.6044
 30
0.0
 10
-42.735
 20
4.6044
 30
0.0
 10
-41.3874
 20
5.6603
 30
0.0
 10
-39.4835
 20
5.5019
 30
0.0
 10
-38.8472
 20
7.0694
 30
0.0
 10
-38.8472
 20
7.0694
 30
0.0
 10
-39.0903
 20
7.3357
 30
0.0
 10
-39.2318
 20
6.7003
 30
0.0
 10
-39.6051
 20
6.7832
 30
0.0
 10
-39.6051
 20
6.7832
 30
0.0
 10
-41.0489
 20
7.7102
 30
0.0
 10
-42.4538
 20
8.6767
 30
0.0
 10
-43.1133
 20
10.3856
 30
0.0
 10
-43.1133
 20
10.3856
 30
0.0
 10
-45.0309
 20
10.3324
 30
0.0
 10
-44.8579
 20
8.186
 30
0.0
 10
-45.5771
 20
6.6899
 30
0.0
 10
-45.5771
 20
6.6899
 30
0.0
 10
-46.2387
 20
5.3153
 30
0.0
 10
-47.7969
 20
4.8897
 30
0.0
 10
-49.6536
 20
5.5522
 30
0.0
 10
-49.6536
 20
5.5522
 30
0.0
 10
-48.0611
 20
5.7673
 30
0.0
 10
-46.6646
 20
5.7629
 30
0.0
 10
-46.1466
 20
6.9731
 30
0.0
 10
-46.1466
 20
6.9731
 30
0.0
 10
-45.4431
 20
8.6169
 30
0.0
 10
-45.8645
 20
11.1669
 30
0.0
 10
-43.302
 20
11.1449
 30
0.0
 10
-43.302
 20
11.1449
 30
0.0
 10
-43.064
 20
12.2583
 30
0.0
 10
-42.628
 20
14.569
 30
0.0
 10
-41.3119
 20
14.6531
 30
0.0
 10
-41.3119
 20
14.6531
 30
0.0
 10
-40.6325
 20
14.695
 30
0.0
 10
-39.8934
 20
13.6486
 30
0.0
 10
-39.1323
 20
13.2313
 30
0.0
 10
-39.1323
 20
13.2313
 30
0.0
 10
-36.6381
 20
11.8621
 30
0.0
 10
-33.9802
 20
12.3296
 30
0.0
 10
-31.4534
 20
13.5154
 30
0.0
 10
-31.4534
 20
13.5154
 30
0.0
 10
-29.8325
 20
14.2745
 30
0.0
 10
-28.3655
 20
14.8847
 30
0.0
 10
-27.4724
 20
16.1692
 30
0.0
 10
-27.4724
 20
16.1692
 30
0.0
 10
-27.7072
 20
16.9241
 30
0.0
 10
-28.6968
 20
16.5781
 30
0.0
 10
-29.178
 20
16.9282
 30
0.0
 10
-29.178
 20
16.9282
 30
0.0
 10
-30.4049
 20
17.8192
 30
0.0
 10
-29.4422
 20
20.1282
 30
0.0
 10
-28.7043
 20
20.9093
 30
0.0
 10
-28.7043
 20
20.9093
 30
0.0
 10
-25.973
 20
23.7978
 30
0.0
 10
-19.611
 20
23.1844
 30
0.0
 10
-16.8557
 20
26.2176
 30
0.0
 10
-16.8557
 20
26.2176
 30
0.0
 10
-15.4086
 20
27.8103
 30
0.0
 10
-15.007
 20
29.3169
 30
0.0
 10
-14.2961
 20
31.8092
 30
0.0
 10
-14.2961
 20
31.8092
 30
0.0
 10
-13.5047
 20
30.9955
 30
0.0
 10
-13.423
 20
29.6105
 30
0.0
 10
-13.3475
 20
28.4927
 30
0.0
 10
-13.3475
 20
28.4927
 30
0.0
 10
-13.2206
 20
26.6117
 30
0.0
 10
-13.7793
 20
24.7729
 30
0.0
 10
-14.8644
 20
23.7538
 30
0.0
 10
-14.8644
 20
23.7538
 30
0.0
 10
-17.3074
 20
21.4543
 30
0.0
 10
-23.1148
 20
21.899
 30
0.0
 10
-25.4823
 20
20.0557
 30
0.0
 10
-25.4823
 20
20.0557
 30
0.0
 10
-26.6114
 20
19.1751
 30
0.0
 10
-26.8788
 20
16.6607
 30
0.0
 10
-25.1028
 20
16.1692
 30
0.0
 10
-25.1028
 20
16.1692
 30
0.0
 10
-25.0986
 20
16.8358
 30
0.0
 10
-25.9165
 20
17.3202
 30
0.0
 10
-25.5768
 20
18.3489
 30
0.0
 10
-25.5768
 20
18.3489
 30
0.0
 10
-24.9215
 20
20.3303
 30
0.0
 10
-20.7633
 20
20.536
 30
0.0
 10
-18.3717
 20
21.1934
 30
0.0
 10
-18.3717
 20
21.1934
 30
0.0
 10
-13.3023
 20
22.5858
 30
0.0
 10
-8.364
 20
25.4009
 30
0.0
 10
-7.6593
 20
31.2419
 30
0.0
 10
-7.6593
 20
31.2419
 30
0.0
 10
-7.9131
 20
31.5878
 30
0.0
 10
-7.8094
 20
32.2934
 30
0.0
 10
-7.9446
 20
32.7591
 30
0.0
  0
SPLINE
  5
91
330
1F
100
AcDbEntity
  8
layer 1
 62
   250
100
AcDbSpline
210
0.0
220
0.0
230
1.0
 70
    11
 71
     3
 72
    24
 73
    20
 74
     0
 42
0.000000001
 43
0.0000000001
 40
0.0
 40
0.0
 40
0.0
 40
0.0
 40
0.1666666666666667
 40
0.1666666666666667
 40
0.1666666666666667
 40
0.1666666666666667
 40
0.3333333333333333
 40
0.3333333333333333
 40
0.3333333333333333
 40
0.3333333333333333
 40
0.5
 40
0.5
 40
0.5
 40
0.5
 40
0.6666666666666666
 40
0.6666666666666666
 40
0.6666666666666666
 40
0.6666666666666666
 40
1.0
 40
1.0
 40
1.0
 40
1.0
 10
12.3286
 20
-56.413
 30
0.0
 10
12.8221
 20
-56.5382
 30
0.0
 10
13.1618
 20
-57.0433
 30
0.0
 10
13.7767
 20
-57.0815
 30
0.0
 10
13.7767
 20
-57.0815
 30
0.0
 10
15.1826
 20
-57.1705
 30
0.0
 10
17.0362
 20
-55.2385
 30
0.0
 10
15.5603
 20
-54.853
 30
0.0
 10
15.5603
 20
-54.853
 30
0.0
 10
14.2329
 20
-54.5068
 30
0.0
 10
13.2344
 20
-56.2159
 30
0.0
 10
12.6635
 20
-56.3021
 30
0.0
 10
12.6635
 20
-56.3021
 30
0.0
 10
12.3574
 20
-53.5446
 30
0.0
 10
14.3143
 20
-53.0501
 30
0.0
 10
15.7823
 20
-52.0671
 30
0.0
 10
15.7823
 20
-52.0671
 30
0.0
 10
13.5175
 20
-51.8653
 30
0.0
 10
11.0316
 20
-53.7428
 30
0.0
 10
12.3286
 20
-56.413
 30
0.0
  0
SPLINE
  5
92
330
1F
100
AcDbEntity
  8
layer 1
 62
   250
100
AcDbSpline
210
0.0
220
0.0
230
1.0
 70
    11
 71
     3
 72
    32
 73
    28
 74
     0
 42
0.000000001
 43
0.0000000001
 40
0.0
 40
0.0
 40
0.0
 40
0.0
 40
0.125
 40
0.125
 40
0.125
 40
0.125
 40
0.25
 40
0.25
 40
0.25
 40
0.25
 40
0.375
 40
0.375
 40
0.375
 40
0.375
 40
0.5
 40
0.5
 40
0.5
 40
0.5
 40
0.625
 40
0.625
 40
0.625
 40
0.625
 40
0.75
 40
0.75
 40
0.75
 40
0.75
 40
1.0
 40
1.0
 40
1.0
 40
1.0
 10
45.0946
 20
-56.6358
 30
0.0
 10
45.0163
 20
-55.7195
 30
0.0
 10
46.4749
 20
-54.9354
 30
0.0
 10
46.9884
 20
-53.8499
 30
0.0
 10
46.9884
 20
-53.8499
 30
0.0
 10
48.5809
 20
-50.4851
 30
0.0
 10
45.5309
 20
-47.2649
 30
0.0
 10
43.9804
 20
-45.7136
 30
0.0
 10
43.9804
 20
-45.7136
 30
0.0
 10
43.6962
 20
-45.4313
 30
0.0
 10
43.4075
 20
-44.7007
 30
0.0
 10
42.9773
 20
-45.045
 30
0.0
 10
42.9773
 20
-45.045
 30
0.0
 10
44.2837
 20
-46.997
 30
0.0
 10
46.4079
 20
-49.1366
 30
0.0
 10
45.9861
 20
-52.1779
 30
0.0
 10
45.9861
 20
-52.1779
 30
0.0
 10
45.5835
 20
-55.0758
 30
0.0
 10
42.6311
 20
-56.4322
 30
0.0
 10
41.0806
 20
-58.3078
 30
0.0
 10
41.0806
 20
-58.3078
 30
0.0
 10
43.2123
 20
-58.7697
 30
0.0
 10
46.3716
 20
-58.6233
 30
0.0
 10
47.7697
 20
-57.6392
 30
0.0
 10
47.7697
 20
-57.6392
 30
0.0
 10
46.9214
 20
-57.357
 30
0.0
 10
45.1998
 20
-57.8715
 30
0.0
 10
45.0946
 20
-56.6358
 30
0.0
  0
SPLINE
  5
93
330
1F
100
AcDbEntity
  8
layer 1
 62
   250
100
AcDbSpline
210
0.0
220
0.0
230
1.0
 70
    11
 71
     3
 72
    16
 73
    12
 74
     0
 42
0.000000001
 43
0.0000000001
 40
0.0
 40
0.0
 40
0.0
 40
0.0
 40
0.25
 40
0.25
 40
0.25
 40
0.25
 40
0.5
 40
0.5
 40
0.5
 40
0.5
 40
1.0
 40
1.0
 40
1.0
 40
1.0
 10
26.4828
 20
-45.2697
 30
0.0
 10
26.5726
 20
-45.6829
 30
0.0
 10
27.2363
 20
-46.2807
 30
0.0
 10
27.708
 20
-46.3829
 30
0.0
 10
27.708
 20
-46.3829
 30
0.0
 10
30.6249
 20
-47.0105
 30
0.0
 10
32.6937
 20
-42.4903
 30
0.0
 10
29.2677
 20
-42.5947
 30
0.0
 10
29.2677
 20
-42.5947
 30
0.0
 10
27.5329
 20
-42.6462
 30
0.0
 10
26.1212
 20
-43.6038
 30
0.0
 10
26.4828
 20
-45.2697
 30
0.0
  0
SPLINE
  5
94
330
1F
100
AcDbEntity
  8
layer 1
 62
   250
100
AcDbSpline
210
0.0
220
0.0
230
1.0
 70
    11
 71
     3
 72
   168
 73
   164
 74
     0
 42
0.000000001
 43
0.0000000001
 40
0.0
 40
0.0
 40
0.0
 40
0.0
 40
0.0238095238095238
 40
0.0238095238095238
 40
0.0238095238095238
 40
0.0238095238095238
 40
0.0476190476190476
 40
0.0476190476190476
 40
0.0476190476190476
 40
0.0476190476190476
 40
0.0714285714285714
 40
0.0714285714285714
 40
0.0714285714285714
 40
0.0714285714285714
 40
0.0952380952380952
 40
0.0952380952380952
 40
0.0952380952380952
 40
0.0952380952380952
 40
0.119047619047619
 40
0.119047619047619
 40
0.119047619047619
 40
0.119047619047619
 40
0.1428571428571428
 40
0.1428571428571428
 40
0.1428571428571428
 40
0.1428571428571428
 40
0.1666666666666667
 40
0.1666666666666667
 40
0.1666666666666667
 40
0.1666666666666667
 40
0.1904761904761905
 40
0.1904761904761905
 40
0.1904761904761905
 40
0.1904761904761905
 40
0.2142857142857143
 40
0.2142857142857143
 40
0.2142857142857143
 40
0.2142857142857143
 40
0.2380952380952381
 40
0.2380952380952381
 40
0.2380952380952381
 40
0.2380952380952381
 40
0.2619047619047619
 40
0.2619047619047619
 40
0.2619047619047619
 40
0.2619047619047619
 40
0.2857142857142857
 40
0.2857142857142857
 40
0.2857142857142857
 40
0.2857142857142857
 40
0.3095238095238095
 40
0.3095238095238095
 40
0.3095238095238095
 40
0.3095238095238095
 40
0.3333333333333333
 40
0.3333333333333333
 40
0.3333333333333333
 40
0.3333333333333333
 40
0.3571428571428572
 40
0.3571428571428572
 40
0.3571428571428572
 40
0.3571428571428572
 40
0.3809523809523809
 40
0.3809523809523809
 40
0.3809523809523809
 40
0.3809523809523809
 40
0.4047619047619048
 40
0.4047619047619048
 40
0.4047619047619048
 40
0.4047619047619048
 40
0.4285714285714285
 40
0.4285714285714285
 40
0.4285714285714285
 40
0.4285714285714285
 40
0.4523809523809524
 40
0.4523809523809524
 40
0.4523809523809524
 40
0.4523809523809524
 40
0.4761904761904762
 40
0.4761904761904762
 40
0.4761904761904762
 40
0.4761904761904762
 40
0.5
 40
0.5
 40
0.5
 40
0.5
 40
0.5238095238095238
 40
0.5238095238095238
 40
0.5238095238095238
 40
0.5238095238095238
 40
0.5476190476190477
 40
0.5476190476190477
 40
0.5476190476190477
 40
0.5476190476190477
 40
0.5714285714285714
 40
0.5714285714285714
 40
0.5714285714285714
 40
0.5714285714285714
 40
0.5952380952380952
 40
0.5952380952380952
 40
0.5952380952380952
 40
0.5952380952380952
 40
0.6190476190476191
 40
0.6190476190476191
 40
0.6190476190476191
 40
0.6190476190476191
 40
0.6428571428571429
 40
0.6428571428571429
 40
0.6428571428571429
 40
0.6428571428571429
 40
0.6666666666666666
 40
0.6666666666666666
 40
0.6666666666666666
 40
0.6666666666666666
 40
0.6904761904761905
 40
0.6904761904761905
 40
0.6904761904761905
 40
0.6904761904761905
 40
0.7142857142857143
 40
0.7142857142857143
 40
0.7142857142857143
 40
0.7142857142857143
 40
0.7380952380952381
 40
0.7380952380952381
 40
0.7380952380952381
 40
0.7380952380952381
 40
0.7619047619047619
 40
0.7619047619047619
 40
0.7619047619047619
 40
0.7619047619047619
 40
0.7857142857142857
 40
0.7857142857142857
 40
0.7857142857142857
 40
0.7857142857142857
 40
0.8095238095238095
 40
0.8095238095238095
 40
0.8095238095238095
 40
0.8095238095238095
 40
0.8333333333333334
 40
0.8333333333333334
 40
0.8333333333333334
 40
0.8333333333333334
 40
0.8571428571428571
 40
0.8571428571428571
 40
0.8571428571428571
 40
0.8571428571428571
 40
0.8809523809523809
 40
0.8809523809523809
 40
0.8809523809523809
 40
0.8809523809523809
 40
0.9047619047619048
 40
0.9047619047619048
 40
0.9047619047619048
 40
0.9047619047619048
 40
0.9285714285714286
 40
0.9285714285714286
 40
0.9285714285714286
 40
0.9285714285714286
 40
0.9523809523809523
 40
0.9523809523809523
 40
0.9523809523809523
 40
0.9523809523809523
 40
1.0
 40
1.0
 40
1.0
 40
1.0
 10
36.0661
 20
-40.698
 30
0.0
 10
46.7224
 20
-41.7664
 30
0.0
 10
54.7153
 20
-49.3901
 30
0.0
 10
54.1213
 20
-61.3176
 30
0.0
 10
54.1213
 20
-61.3176
 30
0.0
 10
53.7157
 20
-69.4537
 30
0.0
 10
49.0141
 20
-74.2112
 30
0.0
 10
43.9804
 20
-77.9238
 30
0.0
 10
43.9804
 20
-77.9238
 30
0.0
 10
41.8936
 20
-79.4618
 30
0.0
 10
39.6049
 20
-80.9681
 30
0.0
 10
38.7411
 20
-83.7199
 30
0.0
 10
38.7411
 20
-83.7199
 30
0.0
 10
38.5001
 20
-85.5572
 30
0.0
 10
39.182
 20
-86.4733
 30
0.0
 10
39.7445
 20
-87.5092
 30
0.0
 10
39.7445
 20
-87.5092
 30
0.0
 10
37.339
 20
-86.9992
 30
0.0
 10
33.5344
 20
-85.6526
 30
0.0
 10
32.1659
 20
-83.6068
 30
0.0
 10
32.1659
 20
-83.6068
 30
0.0
 10
31.304
 20
-82.3188
 30
0.0
 10
31.1088
 20
-80.1935
 30
0.0
 10
32.0547
 20
-78.9253
 30
0.0
 10
32.0547
 20
-78.9253
 30
0.0
 10
34.1111
 20
-76.9714
 30
0.0
 10
37.5981
 20
-76.2041
 30
0.0
 10
39.9674
 20
-74.3573
 30
0.0
 10
39.9674
 20
-74.3573
 30
0.0
 10
42.6769
 20
-72.2437
 30
0.0
 10
44.2675
 20
-69.6538
 30
0.0
 10
44.6489
 20
-64.883
 30
0.0
 10
44.6489
 20
-64.883
 30
0.0
 10
43.7643
 20
-65.3507
 30
0.0
 10
43.6323
 20
-66.575
 30
0.0
 10
43.3118
 20
-67.1135
 30
0.0
 10
43.3118
 20
-67.1135
 30
0.0
 10
41.9769
 20
-69.3428
 30
0.0
 10
39.7673
 20
-71.644
 30
0.0
 10
37.1812
 20
-73.464
 30
0.0
 10
37.1812
 20
-73.464
 30
0.0
 10
34.3733
 20
-75.4447
 30
0.0
 10
28.6528
 20
-76.7206
 30
0.0
 10
28.5991
 20
-81.1546
 30
0.0
 10
28.5991
 20
-81.1546
 30
0.0
 10
28.5783
 20
-82.8705
 30
0.0
 10
29.5068
 20
-83.5886
 30
0.0
 10
30.2711
 20
-84.723
 30
0.0
 10
30.2711
 20
-84.723
 30
0.0
 10
31.5575
 20
-85.5675
 30
0.0
 10
32.8065
 20
-86.5213
 30
0.0
 10
34.3941
 20
-87.1744
 30
0.0
 10
34.3941
 20
-87.1744
 30
0.0
 10
35.9273
 20
-87.8028
 30
0.0
 10
37.7025
 20
-88.0351
 30
0.0
 10
39.1879
 20
-88.8463
 30
0.0
 10
39.1879
 20
-88.8463
 30
0.0
 10
32.3475
 20
-88.0609
 30
0.0
 10
24.8559
 20
-87.667
 30
0.0
 10
21.3553
 20
-83.7199
 30
0.0
 10
21.3553
 20
-83.7199
 30
0.0
 10
20.4707
 20
-82.7222
 30
0.0
 10
19.7877
 20
-80.9174
 30
0.0
 10
20.0182
 20
-79.038
 30
0.0
 10
20.0182
 20
-79.038
 30
0.0
 10
20.3779
 20
-76.1049
 30
0.0
 10
23.2767
 20
-73.7481
 30
0.0
 10
25.9252
 20
-72.129
 30
0.0
 10
25.9252
 20
-72.129
 30
0.0
 10
28.5983
 20
-70.4915
 30
0.0
 10
31.8893
 20
-69.2024
 30
0.0
 10
33.9495
 20
-67.3344
 30
0.0
 10
33.9495
 20
-67.3344
 30
0.0
 10
35.3861
 20
-66.0317
 30
0.0
 10
36.4982
 20
-63.4906
 30
0.0
 10
35.5095
 20
-61.3176
 30
0.0
 10
35.5095
 20
-61.3176
 30
0.0
 10
34.2814
 20
-58.6157
 30
0.0
 10
30.4281
 20
-58.5371
 30
0.0
 10
27.8197
 20
-60.0914
 30
0.0
 10
27.8197
 20
-60.0914
 30
0.0
 10
25.095
 20
-61.7135
 30
0.0
 10
22.5891
 20
-64.1524
 30
0.0
 10
18.9031
 20
-64.2145
 30
0.0
 10
18.9031
 20
-64.2145
 30
0.0
 10
17.4264
 20
-64.2402
 30
0.0
 10
15.0151
 20
-64.0033
 30
0.0
 10
15.3374
 20
-61.7634
 30
0.0
 10
15.3374
 20
-61.7634
 30
0.0
 10
16.5932
 20
-61.175
 30
0.0
 10
17.9198
 20
-61.348
 30
0.0
 10
19.126
 20
-61.0937
 30
0.0
 10
19.126
 20
-61.0937
 30
0.0
 10
22.1348
 20
-60.4596
 30
0.0
 10
24.2188
 20
-58.7678
 30
0.0
 10
27.0394
 20
-57.8629
 30
0.0
 10
27.0394
 20
-57.8629
 30
0.0
 10
27.6142
 20
-57.6774
 30
0.0
 10
28.3055
 20
-57.5665
 30
0.0
 10
28.7111
 20
-57.3055
 30
0.0
 10
28.7111
 20
-57.3055
 30
0.0
 10
29.7251
 20
-56.6513
 30
0.0
 10
29.856
 20
-54.2839
 30
0.0
 10
30.7179
 20
-53.2922
 30
0.0
 10
30.7179
 20
-53.2922
 30
0.0
 10
31.7115
 20
-52.1473
 30
0.0
 10
32.4421
 20
-51.9876
 30
0.0
 10
33.9495
 20
-51.5094
 30
0.0
 10
33.9495
 20
-51.5094
 30
0.0
 10
34.6181
 20
-51.6203
 30
0.0
 10
34.309
 20
-52.7088
 30
0.0
 10
34.9529
 20
-52.8465
 30
0.0
 10
34.9529
 20
-52.8465
 30
0.0
 10
34.7948
 20
-51.5248
 30
0.0
 10
35.2742
 20
-50.31
 30
0.0
 10
36.1789
 20
-49.7265
 30
0.0
 10
36.1789
 20
-49.7265
 30
0.0
 10
35.211
 20
-49.4454
 30
0.0
 10
34.7978
 20
-50.6372
 30
0.0
 10
34.1724
 20
-51.0637
 30
0.0
 10
34.1724
 20
-51.0637
 30
0.0
 10
30.9933
 20
-50.9642
 30
0.0
 10
30.2586
 20
-53.5226
 30
0.0
 10
28.4882
 20
-55.1878
 30
0.0
 10
28.4882
 20
-55.1878
 30
0.0
 10
25.2891
 20
-58.1947
 30
0.0
 10
18.7741
 20
-61.0937
 30
0.0
 10
12.5504
 20
-60.6491
 30
0.0
 10
12.5504
 20
-60.6491
 30
0.0
 10
10.7429
 20
-60.5198
 30
0.0
 10
8.2877
 20
-59.5817
 30
0.0
 10
7.424
 20
-58.0849
 30
0.0
 10
7.424
 20
-58.0849
 30
0.0
 10
5.9703
 20
-55.5657
 30
0.0
 10
6.9181
 20
-50.6266
 30
0.0
 10
9.4307
 20
-50.2834
 30
0.0
 10
9.4307
 20
-50.2834
 30
0.0
 10
10.9159
 20
-50.0814
 30
0.0
 10
12.475
 20
-50.5176
 30
0.0
 10
13.8886
 20
-50.3951
 30
0.0
 10
13.8886
 20
-50.3951
 30
0.0
 10
16.7082
 20
-50.1522
 30
0.0
 10
18.5778
 20
-48.9796
 30
0.0
 10
20.5748
 20
-47.61
 30
0.0
 10
20.5748
 20
-47.61
 30
0.0
 10
19.5047
 20
-46.1419
 30
0.0
 10
17.8089
 20
-43.16
 30
0.0
 10
19.3496
 20
-41.2557
 30
0.0
 10
19.3496
 20
-41.2557
 30
0.0
 10
20.1657
 20
-40.2466
 30
0.0
 10
21.5418
 20
-40.1444
 30
0.0
 10
23.1389
 20
-39.8085
 30
0.0
 10
23.1389
 20
-39.8085
 30
0.0
 10
23.1601
 20
-40.8043
 30
0.0
 10
22.8169
 20
-42.5811
 30
0.0
 10
23.6958
 20
-43.2632
 30
0.0
 10
23.6958
 20
-43.2632
 30
0.0
 10
24.1548
 20
-38.8322
 30
0.0
 10
26.9782
 20
-34.8428
 30
0.0
 10
32.0547
 20
-36.4649
 30
0.0
 10
32.0547
 20
-36.4649
 30
0.0
 10
33.9007
 20
-37.3677
 30
0.0
 10
35.1833
 20
-38.8341
 30
0.0
 10
36.0661
 20
-40.698
 30
0.0
  0
SPLINE
  5
95
330
1F
100
AcDbEntity
  8
layer 1
 62
   250
100
AcDbSpline
210
0.0
220
0.0
230
1.0
 70
    11
 71
     3
 72
    20
 73
    16
 74
     0
 42
0.000000001
 43
0.0000000001
 40
0.0
 40
0.0
 40
0.0
 40
0.0
 40
0.2
 40
0.2
 40
0.2
 40
0.2
 40
0.4
 40
0.4
 40
0.4
 40
0.4
 40
0.6
 40
0.6
 40
0.6
 40
0.6
 40
1.0
 40
1.0
 40
1.0
 40
1.0
 10
62.816
 20
-1.5103
 30
0.0
 10
62.8078
 20
-1.0045
 30
0.0
 10
62.7663
 20
-0.5359
 30
0.0
 10
62.3038
 20
-0.4861
 30
0.0
 10
62.3038
 20
-0.4861
 30
0.0
 10
61.5003
 20
-1.0263
 30
0.0
 10
61.807
 20
-2.2512
 30
0.0
 10
62.5082
 20
-2.3282
 30
0.0
 10
62.5082
 20
-2.3282
 30
0.0
 10
63.499
 20
-2.4387
 30
0.0
 10
64.6383
 20
-0.2689
 30
0.0
 10
63.4295
 20
0.4369
 30
0.0
 10
63.4295
 20
0.4369
 30
0.0
 10
63.3787
 20
-0.3648
 30
0.0
 10
63.567
 20
-1.4079
 30
0.0
 10
62.816
 20
-1.5103
 30
0.0
  0
SPLINE
  5
96
330
1F
100
AcDbEntity
  8
layer 1
 62
   250
100
AcDbSpline
210
0.0
220
0.0
230
1.0
 70
    11
 71
     3
 72
    12
 73
     8
 74
     0
 42
0.000000001
 43
0.0000000001
 40
0.0
 40
0.0
 40
0.0
 40
0.0
 40
0.3333333333333333
 40
0.3333333333333333
 40
0.3333333333333333
 40
0.3333333333333333
 40
1.0
 40
1.0
 40
1.0
 40
1.0
 10
66.9138
 20
0.2333
 30
0.0
 10
67.4324
 20
0.1156
 30
0.0
 10
67.9662
 20
0.8006
 30
0.0
 10
68.861
 20
0.6421
 30
0.0
 10
68.861
 20
0.6421
 30
0.0
 10
68.5543
 20
1.7932
 30
0.0
 10
67.0623
 20
0.9825
 30
0.0
 10
66.9138
 20
0.2333
 30
0.0
  0
SPLINE
  5
97
330
1F
100
AcDbEntity
  8
layer 1
 62
   250
100
AcDbSpline
210
0.0
220
0.0
230
1.0
 70
    11
 71
     3
 72
    24
 73
    20
 74
     0
 42
0.000000001
 43
0.0000000001
 40
0.0
 40
0.0
 40
0.0
 40
0.0
 40
0.1666666666666667
 40
0.1666666666666667
 40
0.1666666666666667
 40
0.1666666666666667
 40
0.3333333333333333
 40
0.3333333333333333
 40
0.3333333333333333
 40
0.3333333333333333
 40
0.5
 40
0.5
 40
0.5
 40
0.5
 40
0.6666666666666666
 40
0.6666666666666666
 40
0.6666666666666666
 40
0.6666666666666666
 40
1.0
 40
1.0
 40
1.0
 40
1.0
 10
79.4148
 20
2.1787
 30
0.0
 10
79.7549
 20
0.8006
 30
0.0
 10
83.035
 20
0.1592
 30
0.0
 10
84.7432
 20
1.0512
 30
0.0
 10
84.7432
 20
1.0512
 30
0.0
 10
83.7714
 20
1.3434
 30
0.0
 10
82.4702
 20
1.3072
 30
0.0
 10
81.9763
 20
2.0754
 30
0.0
 10
81.9763
 20
2.0754
 30
0.0
 10
86.141
 20
2.3821
 30
0.0
 10
88.1244
 20
6.6123
 30
0.0
 10
86.485
 20
10.8883
 30
0.0
 10
86.485
 20
10.8883
 30
0.0
 10
86.485
 20
10.8883
 30
0.0
 10
86.1764
 20
10.8883
 30
0.0
 10
86.1764
 20
10.8883
 30
0.0
 10
86.1764
 20
10.8883
 30
0.0
 10
86.5781
 20
5.3309
 30
0.0
 10
83.4385
 20
3.3124
 30
0.0
 10
79.4148
 20
2.1787
 30
0.0
  0
SPLINE
  5
98
330
1F
100
AcDbEntity
  8
layer 1
 62
   250
100
AcDbSpline
210
0.0
220
0.0
230
1.0
 70
    11
 71
     3
 72
    16
 73
    12
 74
     0
 42
0.000000001
 43
0.0000000001
 40
0.0
 40
0.0
 40
0.0
 40
0.0
 40
0.25
 40
0.25
 40
0.25
 40
0.25
 40
0.5
 40
0.5
 40
0.5
 40
0.5
 40
1.0
 40
1.0
 40
1.0
 40
1.0
 10
68.7587
 20
9.6595
 30
0.0
 10
68.9026
 20
7.423
 30
0.0
 10
73.2684
 20
8.4246
 30
0.0
 10
72.9599
 20
10.6839
 30
0.0
 10
72.9599
 20
10.6839
 30
0.0
 10
72.845
 20
11.5154
 30
0.0
 10
72.2015
 20
11.9317
 30
0.0
 10
70.9103
 20
11.7081
 30
0.0
 10
70.9103
 20
11.7081
 30
0.0
 10
69.8654
 20
11.5262
 30
0.0
 10
68.6756
 20
10.9553
 30
0.0
 10
68.7587
 20
9.6595
 30
0.0
  0
SPLINE
  5
99
330
1F
100
AcDbEntity
  8
layer 1
 62
   250
100
AcDbSpline
210
0.0
220
0.0
230
1.0
 70
    11
 71
     3
 72
    16
 73
    12
 74
     0
 42
0.000000001
 43
0.0000000001
 40
0.0
 40
0.0
 40
0.0
 40
0.0
 40
0.25
 40
0.25
 40
0.25
 40
0.25
 40
0.5
 40
0.5
 40
0.5
 40
0.5
 40
1.0
 40
1.0
 40
1.0
 40
1.0
 10
80.029
 20
18.3676
 30
0.0
 10
81.0724
 20
18.7013
 30
0.0
 10
82.093
 20
19.0632
 30
0.0
 10
83.1027
 20
19.4949
 30
0.0
 10
83.1027
 20
19.4949
 30
0.0
 10
84.1035
 20
19.9211
 30
0.0
 10
85.259
 20
20.1535
 30
0.0
 10
86.0751
 20
20.8268
 30
0.0
 10
86.0751
 20
20.8268
 30
0.0
 10
83.2566
 20
20.8106
 30
0.0
 10
81.2307
 20
20.0017
 30
0.0
 10
80.029
 20
18.3676
 30
0.0
  0
SPLINE
  5
9A
330
1F
100
AcDbEntity
  8
layer 1
 62
   250
100
AcDbSpline
210
0.0
220
0.0
230
1.0
 70
    11
 71
     3
 72
   136
 73
   132
 74
     0
 42
0.000000001
 43
0.0000000001
 40
0.0
 40
0.0
 40
0.0
 40
0.0
 40
0.0294117647058824
 40
0.0294117647058824
 40
0.0294117647058824
 40
0.0294117647058824
 40
0.0588235294117647
 40
0.0588235294117647
 40
0.0588235294117647
 40
0.0588235294117647
 40
0.0882352941176471
 40
0.0882352941176471
 40
0.0882352941176471
 40
0.0882352941176471
 40
0.1176470588235294
 40
0.1176470588235294
 40
0.1176470588235294
 40
0.1176470588235294
 40
0.1470588235294118
 40
0.1470588235294118
 40
0.1470588235294118
 40
0.1470588235294118
 40
0.1764705882352941
 40
0.1764705882352941
 40
0.1764705882352941
 40
0.1764705882352941
 40
0.2058823529411765
 40
0.2058823529411765
 40
0.2058823529411765
 40
0.2058823529411765
 40
0.2352941176470588
 40
0.2352941176470588
 40
0.2352941176470588
 40
0.2352941176470588
 40
0.2647058823529412
 40
0.2647058823529412
 40
0.2647058823529412
 40
0.2647058823529412
 40
0.2941176470588235
 40
0.2941176470588235
 40
0.2941176470588235
 40
0.2941176470588235
 40
0.3235294117647059
 40
0.3235294117647059
 40
0.3235294117647059
 40
0.3235294117647059
 40
0.3529411764705883
 40
0.3529411764705883
 40
0.3529411764705883
 40
0.3529411764705883
 40
0.3823529411764706
 40
0.3823529411764706
 40
0.3823529411764706
 40
0.3823529411764706
 40
0.4117647058823529
 40
0.4117647058823529
 40
0.4117647058823529
 40
0.4117647058823529
 40
0.4411764705882353
 40
0.4411764705882353
 40
0.4411764705882353
 40
0.4411764705882353
 40
0.4705882352941176
 40
0.4705882352941176
 40
0.4705882352941176
 40
0.4705882352941176
 40
0.5
 40
0.5
 40
0.5
 40
0.5
 40
0.5294117647058824
 40
0.5294117647058824
 40
0.5294117647058824
 40
0.5294117647058824
 40
0.5588235294117647
 40
0.5588235294117647
 40
0.5588235294117647
 40
0.5588235294117647
 40
0.5882352941176471
 40
0.5882352941176471
 40
0.5882352941176471
 40
0.5882352941176471
 40
0.6176470588235294
 40
0.6176470588235294
 40
0.6176470588235294
 40
0.6176470588235294
 40
0.6470588235294118
 40
0.6470588235294118
 40
0.6470588235294118
 40
0.6470588235294118
 40
0.6764705882352942
 40
0.6764705882352942
 40
0.6764705882352942
 40
0.6764705882352942
 40
0.7058823529411765
 40
0.7058823529411765
 40
0.7058823529411765
 40
0.7058823529411765
 40
0.7352941176470589
 40
0.7352941176470589
 40
0.7352941176470589
 40
0.7352941176470589
 40
0.7647058823529411
 40
0.7647058823529411
 40
0.7647058823529411
 40
0.7647058823529411
 40
0.7941176470588235
 40
0.7941176470588235
 40
0.7941176470588235
 40
0.7941176470588235
 40
0.8235294117647058
 40
0.8235294117647058
 40
0.8235294117647058
 40
0.8235294117647058
 40
0.8529411764705882
 40
0.8529411764705882
 40
0.8529411764705882
 40
0.8529411764705882
 40
0.8823529411764706
 40
0.8823529411764706
 40
0.8823529411764706
 40
0.8823529411764706
 40
0.9117647058823529
 40
0.9117647058823529
 40
0.9117647058823529
 40
0.9117647058823529
 40
0.9411764705882353
 40
0.9411764705882353
 40
0.9411764705882353
 40
0.9411764705882353
 40
1.0
 40
1.0
 40
1.0
 40
1.0
 10
74.905
 20
19.4949
 30
0.0
 10
75.9076
 20
26.0575
 30
0.0
 10
81.0806
 20
29.7203
 30
0.0
 10
88.4311
 20
29.7418
 30
0.0
 10
88.4311
 20
29.7418
 30
0.0
 10
84.5577
 20
27.7405
 30
0.0
 10
81.3356
 20
25.0874
 30
0.0
 10
80.029
 20
20.52
 30
0.0
 10
80.029
 20
20.52
 30
0.0
 10
80.7203
 20
20.7072
 30
0.0
 10
81.4615
 20
21.2764
 30
0.0
 10
82.3861
 20
21.6475
 30
0.0
 10
82.3861
 20
21.6475
 30
0.0
 10
84.5188
 20
22.5034
 30
0.0
 10
88.0321
 20
22.9114
 30
0.0
 10
90.6859
 20
21.8519
 30
0.0
 10
90.6859
 20
21.8519
 30
0.0
 10
89.9195
 20
19.4415
 30
0.0
 10
87.7689
 20
18.4145
 30
0.0
 10
85.6652
 20
17.3425
 30
0.0
 10
85.6652
 20
17.3425
 30
0.0
 10
89.8264
 20
14.8712
 30
0.0
 10
94.5639
 20
11.6157
 30
0.0
 10
97.8576
 20
7.7115
 30
0.0
 10
97.8576
 20
7.7115
 30
0.0
 10
99.326
 20
5.9726
 30
0.0
 10
101.0262
 20
4.1385
 30
0.0
 10
100.7277
 20
1.0512
 30
0.0
 10
100.7277
 20
1.0512
 30
0.0
 10
100.4155
 20
-2.161
 30
0.0
 10
97.7617
 20
-4.2167
 30
0.0
 10
95.6044
 20
-5.8135
 30
0.0
 10
95.6044
 20
-5.8135
 30
0.0
 10
94.6354
 20
-6.5294
 30
0.0
 10
93.5162
 20
-7.1888
 30
0.0
 10
93.0422
 20
-8.1688
 30
0.0
 10
93.0422
 20
-8.1688
 30
0.0
 10
92.6033
 20
-9.0762
 30
0.0
 10
92.7218
 20
-10.1204
 30
0.0
 10
92.4276
 20
-11.0381
 30
0.0
 10
92.4276
 20
-11.0381
 30
0.0
 10
91.7626
 20
-13.1192
 30
0.0
 10
89.9034
 20
-14.9015
 30
0.0
 10
88.4311
 20
-16.1618
 30
0.0
 10
88.4311
 20
-16.1618
 30
0.0
 10
86.8179
 20
-17.5445
 30
0.0
 10
84.6057
 20
-18.555
 30
0.0
 10
82.4885
 20
-19.1334
 30
0.0
 10
82.4885
 20
-19.1334
 30
0.0
 10
84.3595
 20
-12.9073
 30
0.0
 10
82.2179
 20
-5.4988
 30
0.0
 10
79.107
 20
-1.5103
 30
0.0
 10
79.107
 20
-1.5103
 30
0.0
 10
78.0503
 20
-0.154
 30
0.0
 10
75.99
 20
1.5255
 30
0.0
 10
73.6765
 20
1.4621
 30
0.0
 10
73.6765
 20
1.4621
 30
0.0
 10
72.3436
 20
1.4239
 30
0.0
 10
70.639
 20
0.7781
 30
0.0
 10
70.5005
 20
-0.2797
 30
0.0
 10
70.5005
 20
-0.2797
 30
0.0
 10
70.2717
 20
-2.0143
 30
0.0
 10
73.2412
 20
-2.7952
 30
0.0
 10
71.8324
 20
-4.9938
 30
0.0
 10
71.8324
 20
-4.9938
 30
0.0
 10
71.2969
 20
-4.2646
 30
0.0
 10
71.2533
 20
-3.0458
 30
0.0
 10
70.193
 20
-2.8412
 30
0.0
 10
70.193
 20
-2.8412
 30
0.0
 10
70.145
 20
-3.47
 30
0.0
 10
70.7549
 20
-3.8863
 30
0.0
 10
70.9103
 20
-4.4808
 30
0.0
 10
70.9103
 20
-4.4808
 30
0.0
 10
71.6688
 20
-7.3988
 30
0.0
 10
69.1904
 20
-9.0419
 30
0.0
 10
66.6063
 20
-9.2963
 30
0.0
 10
66.6063
 20
-9.2963
 30
0.0
 10
67.1952
 20
-8.3896
 30
0.0
 10
68.7461
 20
-7.8785
 30
0.0
 10
68.2457
 20
-6.1203
 30
0.0
 10
68.2457
 20
-6.1203
 30
0.0
 10
67.8792
 20
-4.832
 30
0.0
 10
66.4342
 20
-4.4347
 30
0.0
 10
64.8645
 20
-4.4808
 30
0.0
 10
64.8645
 20
-4.4808
 30
0.0
 10
66.1249
 20
-3.2792
 30
0.0
 10
68.5969
 20
-2.7516
 30
0.0
 10
67.9382
 20
0.0261
 30
0.0
 10
67.9382
 20
0.0261
 30
0.0
 10
67.6033
 20
-2.0704
 30
0.0
 10
66.2524
 20
-2.6657
 30
0.0
 10
64.6599
 20
-3.6611
 30
0.0
 10
64.6599
 20
-3.6611
 30
0.0
 10
63.7517
 20
-4.2303
 30
0.0
 10
63.1905
 20
-5.1485
 30
0.0
 10
62.2007
 20
-5.3006
 30
0.0
 10
62.2007
 20
-5.3006
 30
0.0
 10
61.7419
 20
-5.0092
 30
0.0
 10
62.0178
 20
-3.9804
 30
0.0
 10
61.6878
 20
-3.5606
 30
0.0
 10
61.6878
 20
-3.5606
 30
0.0
 10
59.9288
 20
-3.7904
 30
0.0
 10
58.8944
 20
-3.1264
 30
0.0
 10
59.1263
 20
-0.895
 30
0.0
 10
59.1263
 20
-0.895
 30
0.0
 10
59.5515
 20
3.1657
 30
0.0
 10
64.1787
 20
6.9208
 30
0.0
 10
65.991
 20
9.352
 30
0.0
 10
65.991
 20
9.352
 30
0.0
 10
65.6986
 20
10.6431
 30
0.0
 10
65.6471
 20
11.4847
 30
0.0
 10
65.991
 20
12.3226
 30
0.0
 10
65.991
 20
12.3226
 30
0.0
 10
66.7889
 20
14.2624
 30
0.0
 10
70.5005
 20
15.0251
 30
0.0
 10
70.8072
 20
16.9334
 30
0.0
 10
70.8072
 20
16.9334
 30
0.0
 10
71.0145
 20
18.2163
 30
0.0
 10
70.2968
 20
19.2361
 30
0.0
 10
70.3974
 20
20.7244
 30
0.0
 10
70.3974
 20
20.7244
 30
0.0
 10
70.7041
 20
25.2531
 30
0.0
 10
73.9994
 20
28.2968
 30
0.0
 10
77.16
 20
30.7662
 30
0.0
 10
77.16
 20
30.7662
 30
0.0
 10
77.3265
 20
30.796
 30
0.0
 10
77.3365
 20
30.6703
 30
0.0
 10
77.4676
 20
30.6639
 30
0.0
 10
77.4676
 20
30.6639
 30
0.0
 10
75.8081
 20
27.859
 30
0.0
 10
74.2556
 20
23.9358
 30
0.0
 10
74.905
 20
19.4949
 30
0.0
  0
SPLINE
  5
9B
330
1F
100
AcDbEntity
  8
layer 1
 62
   250
100
AcDbSpline
210
0.0
220
0.0
230
1.0
 70
    11
 71
     3
 72
    12
 73
     8
 74
     0
 42
0.000000001
 43
0.0000000001
 40
0.0
 40
0.0
 40
0.0
 40
0.0
 40
0.3333333333333333
 40
0.3333333333333333
 40
0.3333333333333333
 40
0.3333333333333333
 40
1.0
 40
1.0
 40
1.0
 40
1.0
 10
70.6778
 20
-66.5021
 30
0.0
 10
71.4209
 20
-66.6694
 30
0.0
 10
72.2397
 20
-67.3398
 30
0.0
 10
72.7426
 20
-67.3515
 30
0.0
 10
72.7426
 20
-67.3515
 30
0.0
 10
72.7426
 20
-66.4934
 30
0.0
 10
71.3846
 20
-65.8604
 30
0.0
 10
70.6778
 20
-66.5021
 30
0.0
  0
SPLINE
  5
9C
330
1F
100
AcDbEntity
  8
layer 1
 62
   250
100
AcDbSpline
210
0.0
220
0.0
230
1.0
 70
    11
 71
     3
 72
    16
 73
    12
 74
     0
 42
0.000000001
 43
0.0000000001
 40
0.0
 40
0.0
 40
0.0
 40
0.0
 40
0.25
 40
0.25
 40
0.25
 40
0.25
 40
0.5
 40
0.5
 40
0.5
 40
0.5
 40
1.0
 40
1.0
 40
1.0
 40
1.0
 10
63.2713
 20
-62.6152
 30
0.0
 10
64.0402
 20
-62.4937
 30
0.0
 10
64.484
 20
-62.048
 30
0.0
 10
64.6065
 20
-61.2791
 30
0.0
 10
64.6065
 20
-61.2791
 30
0.0
 10
64.5797
 20
-61.1843
 30
0.0
 10
64.5051
 20
-61.1395
 30
0.0
 10
64.3625
 20
-61.1577
 30
0.0
 10
64.3625
 20
-61.1577
 30
0.0
 10
64.0803
 20
-61.7249
 30
0.0
 10
63.5037
 20
-61.9992
 30
0.0
 10
63.2713
 20
-62.6152
 30
0.0
  0
SPLINE
  5
9D
330
1F
100
AcDbEntity
  8
layer 1
 62
   250
100
AcDbSpline
210
0.0
220
0.0
230
1.0
 70
    11
 71
     3
 72
    12
 73
     8
 74
     0
 42
0.000000001
 43
0.0000000001
 40
0.0
 40
0.0
 40
0.0
 40
0.0
 40
0.3333333333333333
 40
0.3333333333333333
 40
0.3333333333333333
 40
0.3333333333333333
 40
1.0
 40
1.0
 40
1.0
 40
1.0
 10
62.176
 20
-62.4937
 30
0.0
 10
62.7291
 20
-62.3704
 30
0.0
 10
63.3459
 20
-61.2466
 30
0.0
 10
62.7855
 20
-60.7941
 30
0.0
 10
62.7855
 20
-60.7941
 30
0.0
 10
62.4859
 20
-61.2141
 30
0.0
 10
61.8824
 20
-61.874
 30
0.0
 10
62.176
 20
-62.4937
 30
0.0
  0
SPLINE
  5
9E
330
1F
100
AcDbEntity
  8
layer 1
 62
   250
100
AcDbSpline
210
0.0
220
0.0
230
1.0
 70
    11
 71
     3
 72
    12
 73
     8
 74
     0
 42
0.000000001
 43
0.0000000001
 40
0.0
 40
0.0
 40
0.0
 40
0.0
 40
0.3333333333333333
 40
0.3333333333333333
 40
0.3333333333333333
 40
0.3333333333333333
 40
1.0
 40
1.0
 40
1.0
 40
1.0
 10
67.0338
 20
-55.0853
 30
0.0
 10
69.9222
 20
-55.7566
 30
0.0
 10
71.8322
 20
-51.9835
 30
0.0
 10
68.6138
 20
-52.0516
 30
0.0
 10
68.6138
 20
-52.0516
 30
0.0
 10
66.3078
 20
-52.0985
 30
0.0
 10
64.8627
 20
-54.5822
 30
0.0
 10
67.0338
 20
-55.0853
 30
0.0
  0
SPLINE
  5
9F
330
1F
100
AcDbEntity
  8
layer 1
 62
   250
100
AcDbSpline
210
0.0
220
0.0
230
1.0
 70
    11
 71
     3
 72
    20
 73
    16
 74
     0
 42
0.000000001
 43
0.0000000001
 40
0.0
 40
0.0
 40
0.0
 40
0.0
 40
0.2
 40
0.2
 40
0.2
 40
0.2
 40
0.4
 40
0.4
 40
0.4
 40
0.4
 40
0.6
 40
0.6
 40
0.6
 40
0.6
 40
1.0
 40
1.0
 40
1.0
 40
1.0
 10
83.1869
 20
-56.1804
 30
0.0
 10
83.1256
 20
-53.4871
 30
0.0
 10
85.0164
 20
-52.7467
 30
0.0
 10
86.8287
 20
-51.9301
 30
0.0
 10
86.8287
 20
-51.9301
 30
0.0
 10
85.2164
 20
-51.4996
 30
0.0
 10
84.3841
 20
-52.876
 30
0.0
 10
83.4287
 20
-53.5083
 30
0.0
 10
83.4287
 20
-53.5083
 30
0.0
 10
83.1972
 20
-51.0463
 30
0.0
 10
85.2929
 20
-49.87
 30
0.0
 10
87.6792
 20
-49.6222
 30
0.0
 10
87.6792
 20
-49.6222
 30
0.0
 10
84.0829
 20
-48.0823
 30
0.0
 10
80.8933
 20
-52.9219
 30
0.0
 10
83.1869
 20
-56.1804
 30
0.0
  0
SPLINE
  5
A0
330
1F
100
AcDbEntity
  8
layer 1
 62
   250
100
AcDbSpline
210
0.0
220
0.0
230
1.0
 70
    11
 71
     3
 72
    24
 73
    20
 74
     0
 42
0.000000001
 43
0.0000000001
 40
0.0
 40
0.0
 40
0.0
 40
0.0
 40
0.1666666666666667
 40
0.1666666666666667
 40
0.1666666666666667
 40
0.1666666666666667
 40
0.3333333333333333
 40
0.3333333333333333
 40
0.3333333333333333
 40
0.3333333333333333
 40
0.5
 40
0.5
 40
0.5
 40
0.5
 40
0.6666666666666666
 40
0.6666666666666666
 40
0.6666666666666666
 40
0.6666666666666666
 40
1.0
 40
1.0
 40
1.0
 40
1.0
 10
93.0217
 20
-52.8999
 30
0.0
 10
93.8719
 20
-44.8707
 30
0.0
 10
81.4911
 20
-43.283
 30
0.0
 10
80.3931
 20
-50.3501
 30
0.0
 10
80.3931
 20
-50.3501
 30
0.0
 10
81.2062
 20
-50.2162
 30
0.0
 10
81.6402
 20
-49.3784
 30
0.0
 10
82.3356
 20
-48.8923
 30
0.0
 10
82.3356
 20
-48.8923
 30
0.0
 10
83.3485
 20
-48.1896
 30
0.0
 10
84.7057
 20
-47.3966
 30
0.0
 10
86.3429
 20
-47.4348
 30
0.0
 10
86.3429
 20
-47.4348
 30
0.0
 10
94.1159
 20
-47.6224
 30
0.0
 10
91.8942
 20
-59.5001
 30
0.0
 10
84.6444
 20
-58.8516
 30
0.0
 10
84.6444
 20
-58.8516
 30
0.0
 10
88.8306
 20
-60.0396
 30
0.0
 10
92.6354
 20
-56.5746
 30
0.0
 10
93.0217
 20
-52.8999
 30
0.0
  0
SPLINE
  5
A1
330
1F
100
AcDbEntity
  8
layer 1
 62
   250
100
AcDbSpline
210
0.0
220
0.0
230
1.0
 70
    11
 71
     3
 72
   180
 73
   176
 74
     0
 42
0.000000001
 43
0.0000000001
 40
0.0
 40
0.0
 40
0.0
 40
0.0
 40
0.0222222222222222
 40
0.0222222222222222
 40
0.0222222222222222
 40
0.0222222222222222
 40
0.0444444444444444
 40
0.0444444444444444
 40
0.0444444444444444
 40
0.0444444444444444
 40
0.0666666666666667
 40
0.0666666666666667
 40
0.0666666666666667
 40
0.0666666666666667
 40
0.0888888888888889
 40
0.0888888888888889
 40
0.0888888888888889
 40
0.0888888888888889
 40
0.1111111111111111
 40
0.1111111111111111
 40
0.1111111111111111
 40
0.1111111111111111
 40
0.1333333333333333
 40
0.1333333333333333
 40
0.1333333333333333
 40
0.1333333333333333
 40
0.1555555555555556
 40
0.1555555555555556
 40
0.1555555555555556
 40
0.1555555555555556
 40
0.1777777777777778
 40
0.1777777777777778
 40
0.1777777777777778
 40
0.1777777777777778
 40
0.2
 40
0.2
 40
0.2
 40
0.2
 40
0.2222222222222222
 40
0.2222222222222222
 40
0.2222222222222222
 40
0.2222222222222222
 40
0.2444444444444444
 40
0.2444444444444444
 40
0.2444444444444444
 40
0.2444444444444444
 40
0.2666666666666667
 40
0.2666666666666667
 40
0.2666666666666667
 40
0.2666666666666667
 40
0.2888888888888889
 40
0.2888888888888889
 40
0.2888888888888889
 40
0.2888888888888889
 40
0.3111111111111111
 40
0.3111111111111111
 40
0.3111111111111111
 40
0.3111111111111111
 40
0.3333333333333333
 40
0.3333333333333333
 40
0.3333333333333333
 40
0.3333333333333333
 40
0.3555555555555556
 40
0.3555555555555556
 40
0.3555555555555556
 40
0.3555555555555556
 40
0.3777777777777778
 40
0.3777777777777778
 40
0.3777777777777778
 40
0.3777777777777778
 40
0.4
 40
0.4
 40
0.4
 40
0.4
 40
0.4222222222222222
 40
0.4222222222222222
 40
0.4222222222222222
 40
0.4222222222222222
 40
0.4444444444444444
 40
0.4444444444444444
 40
0.4444444444444444
 40
0.4444444444444444
 40
0.4666666666666667
 40
0.4666666666666667
 40
0.4666666666666667
 40
0.4666666666666667
 40
0.4888888888888889
 40
0.4888888888888889
 40
0.4888888888888889
 40
0.4888888888888889
 40
0.5111111111111111
 40
0.5111111111111111
 40
0.5111111111111111
 40
0.5111111111111111
 40
0.5333333333333333
 40
0.5333333333333333
 40
0.5333333333333333
 40
0.5333333333333333
 40
0.5555555555555556
 40
0.5555555555555556
 40
0.5555555555555556
 40
0.5555555555555556
 40
0.5777777777777777
 40
0.5777777777777777
 40
0.5777777777777777
 40
0.5777777777777777
 40
0.6
 40
0.6
 40
0.6
 40
0.6
 40
0.6222222222222222
 40
0.6222222222222222
 40
0.6222222222222222
 40
0.6222222222222222
 40
0.6444444444444445
 40
0.6444444444444445
 40
0.6444444444444445
 40
0.6444444444444445
 40
0.6666666666666666
 40
0.6666666666666666
 40
0.6666666666666666
 40
0.6666666666666666
 40
0.6888888888888889
 40
0.6888888888888889
 40
0.6888888888888889
 40
0.6888888888888889
 40
0.7111111111111111
 40
0.7111111111111111
 40
0.7111111111111111
 40
0.7111111111111111
 40
0.7333333333333333
 40
0.7333333333333333
 40
0.7333333333333333
 40
0.7333333333333333
 40
0.7555555555555555
 40
0.7555555555555555
 40
0.7555555555555555
 40
0.7555555555555555
 40
0.7777777777777778
 40
0.7777777777777778
 40
0.7777777777777778
 40
0.7777777777777778
 40
0.8
 40
0.8
 40
0.8
 40
0.8
 40
0.8222222222222222
 40
0.8222222222222222
 40
0.8222222222222222
 40
0.8222222222222222
 40
0.8444444444444444
 40
0.8444444444444444
 40
0.8444444444444444
 40
0.8444444444444444
 40
0.8666666666666667
 40
0.8666666666666667
 40
0.8666666666666667
 40
0.8666666666666667
 40
0.8888888888888888
 40
0.8888888888888888
 40
0.8888888888888888
 40
0.8888888888888888
 40
0.9111111111111111
 40
0.9111111111111111
 40
0.9111111111111111
 40
0.9111111111111111
 40
0.9333333333333333
 40
0.9333333333333333
 40
0.9333333333333333
 40
0.9333333333333333
 40
0.9555555555555556
 40
0.9555555555555556
 40
0.9555555555555556
 40
0.9555555555555556
 40
1.0
 40
1.0
 40
1.0
 40
1.0
 10
98.2447
 20
-74.3944
 30
0.0
 10
98.0669
 20
-71.2124
 30
0.0
 10
96.508
 20
-69.4114
 30
0.0
 10
93.8719
 20
-68.6865
 30
0.0
 10
93.8719
 20
-68.6865
 30
0.0
 10
94.1379
 20
-69.8438
 30
0.0
 10
94.9461
 20
-70.2684
 30
0.0
 10
95.3294
 20
-71.1159
 30
0.0
 10
95.3294
 20
-71.1159
 30
0.0
 10
95.9473
 20
-72.4817
 30
0.0
 10
96.1273
 20
-74.2586
 30
0.0
 10
96.0585
 20
-75.6082
 30
0.0
 10
96.0585
 20
-75.6082
 30
0.0
 10
95.8546
 20
-79.5439
 30
0.0
 10
92.5549
 20
-84.0246
 30
0.0
 10
89.5003
 20
-85.5683
 30
0.0
 10
89.5003
 20
-85.5683
 30
0.0
 10
88.0167
 20
-86.3182
 30
0.0
 10
85.8744
 20
-86.9504
 30
0.0
 10
84.1575
 20
-87.3885
 30
0.0
 10
84.1575
 20
-87.3885
 30
0.0
 10
84.4828
 20
-86.3277
 30
0.0
 10
85.8888
 20
-84.9591
 30
0.0
 10
86.1019
 20
-83.1381
 30
0.0
 10
86.1019
 20
-83.1381
 30
0.0
 10
86.2101
 20
-82.1978
 30
0.0
 10
86.1423
 20
-81.0608
 30
0.0
 10
85.6142
 20
-80.2228
 30
0.0
 10
85.6142
 20
-80.2228
 30
0.0
 10
84.8404
 20
-85.9451
 30
0.0
 10
80.8521
 20
-88.7571
 30
0.0
 10
74.8066
 20
-88.846
 30
0.0
 10
74.8066
 20
-88.846
 30
0.0
 10
76.4115
 20
-86.8835
 30
0.0
 10
78.1819
 20
-83.8305
 30
0.0
 10
78.2068
 20
-80.3453
 30
0.0
 10
78.2068
 20
-80.3453
 30
0.0
 10
78.2239
 20
-78.27
 30
0.0
 10
77.4453
 20
-76.4134
 30
0.0
 10
76.9939
 20
-74.517
 30
0.0
 10
76.9939
 20
-74.517
 30
0.0
 10
79.9588
 20
-73.637
 30
0.0
 10
82.5164
 20
-72.3486
 30
0.0
 10
83.6716
 20
-69.6592
 30
0.0
 10
83.6716
 20
-69.6592
 30
0.0
 10
82.3671
 20
-70.3316
 30
0.0
 10
81.0598
 20
-71.7107
 30
0.0
 10
79.1804
 20
-72.694
 30
0.0
 10
79.1804
 20
-72.694
 30
0.0
 10
76.0117
 20
-74.3532
 30
0.0
 10
68.4062
 20
-75.4886
 30
0.0
 10
66.5499
 20
-71.8457
 30
0.0
 10
66.5499
 20
-71.8457
 30
0.0
 10
65.6717
 20
-71.7432
 30
0.0
 10
64.8896
 20
-72.234
 30
0.0
 10
64.484
 20
-71.6017
 30
0.0
 10
64.484
 20
-71.6017
 30
0.0
 10
64.9449
 20
-68.2982
 30
0.0
 10
69.8745
 20
-69.4632
 30
0.0
 10
71.4076
 20
-67.23
 30
0.0
 10
71.4076
 20
-67.23
 30
0.0
 10
70.0895
 20
-68.0773
 30
0.0
 10
67.5627
 20
-67.5895
 30
0.0
 10
66.064
 20
-68.3232
 30
0.0
 10
66.064
 20
-68.3232
 30
0.0
 10
64.7087
 20
-68.9868
 30
0.0
 10
63.5487
 20
-71.198
 30
0.0
 10
61.3288
 20
-70.1442
 30
0.0
 10
61.3288
 20
-70.1442
 30
0.0
 10
61.1336
 20
-69.7663
 30
0.0
 10
61.1336
 20
-68.7019
 30
0.0
 10
61.3288
 20
-68.3232
 30
0.0
 10
61.3288
 20
-68.3232
 30
0.0
 10
60.294
 20
-67.1688
 30
0.0
 10
60.4412
 20
-64.3034
 30
0.0
 10
61.3288
 20
-63.1021
 30
0.0
 10
61.3288
 20
-63.1021
 30
0.0
 10
61.2713
 20
-62.5759
 30
0.0
 10
60.6001
 20
-62.1226
 30
0.0
 10
60.6001
 20
-61.5229
 30
0.0
 10
60.6001
 20
-61.5229
 30
0.0
 10
60.5982
 20
-60.031
 30
0.0
 10
62.577
 20
-60.0339
 30
0.0
 10
63.2713
 20
-58.9731
 30
0.0
 10
63.2713
 20
-58.9731
 30
0.0
 10
64.3577
 20
-57.3071
 30
0.0
 10
63.1097
 20
-53.774
 30
0.0
 10
64.0001
 20
-52.0516
 30
0.0
 10
64.0001
 20
-52.0516
 30
0.0
 10
65.8257
 20
-48.5177
 30
0.0
 10
71.329
 20
-47.6444
 30
0.0
 10
75.4139
 20
-49.1363
 30
0.0
 10
75.4139
 20
-49.1363
 30
0.0
 10
75.1959
 20
-49.607
 30
0.0
 10
74.1966
 20
-49.2941
 30
0.0
 10
73.9574
 20
-49.7436
 30
0.0
 10
73.9574
 20
-49.7436
 30
0.0
 10
74.9681
 20
-50.8205
 30
0.0
 10
76.6363
 20
-51.2185
 30
0.0
 10
76.7502
 20
-53.1428
 30
0.0
 10
76.7502
 20
-53.1428
 30
0.0
 10
76.8171
 20
-54.2628
 30
0.0
 10
75.872
 20
-55.3808
 30
0.0
 10
75.4139
 20
-56.9091
 30
0.0
 10
75.4139
 20
-56.9091
 30
0.0
 10
74.7149
 20
-59.2401
 30
0.0
 10
73.8205
 20
-63.7745
 30
0.0
 10
75.2924
 20
-66.0152
 30
0.0
 10
75.2924
 20
-66.0152
 30
0.0
 10
75.9629
 20
-67.0367
 30
0.0
 10
76.7607
 20
-67.4242
 30
0.0
 10
78.2068
 20
-68.0792
 30
0.0
 10
78.2068
 20
-68.0792
 30
0.0
 10
76.4631
 20
-65.8336
 30
0.0
 10
75.9065
 20
-63.2531
 30
0.0
 10
76.1429
 20
-59.9439
 30
0.0
 10
76.1429
 20
-59.9439
 30
0.0
 10
76.3102
 20
-57.6219
 30
0.0
 10
77.3298
 20
-55.489
 30
0.0
 10
77.6004
 20
-53.6287
 30
0.0
 10
77.6004
 20
-53.6287
 30
0.0
 10
77.8644
 20
-51.8296
 30
0.0
 10
76.3752
 20
-50.988
 30
0.0
 10
75.6579
 20
-49.9865
 30
0.0
 10
75.6579
 20
-49.9865
 30
0.0
 10
76.0778
 20
-49.6547
 30
0.0
 10
76.5682
 20
-50.063
 30
0.0
 10
77.1145
 20
-49.9865
 30
0.0
 10
77.1145
 20
-49.9865
 30
0.0
 10
76.3752
 20
-48.3637
 30
0.0
 10
74.1724
 20
-47.3584
 30
0.0
 10
72.1353
 20
-47.1938
 30
0.0
 10
72.1353
 20
-47.1938
 30
0.0
 10
70.1058
 20
-47.0284
 30
0.0
 10
67.7311
 20
-47.7485
 30
0.0
 10
66.1863
 20
-48.4076
 30
0.0
 10
66.1863
 20
-48.4076
 30
0.0
 10
64.8703
 20
-48.9691
 30
0.0
 10
63.3727
 20
-50.6369
 30
0.0
 10
62.5426
 20
-50.7153
 30
0.0
 10
62.5426
 20
-50.7153
 30
0.0
 10
61.2667
 20
-50.833
 30
0.0
 10
59.9792
 20
-49.1287
 30
0.0
 10
59.7488
 20
-48.285
 30
0.0
 10
59.7488
 20
-48.285
 30
0.0
 10
58.7435
 20
-44.6145
 30
0.0
 10
62.3062
 20
-41.1188
 30
0.0
 10
64.728
 20
-40.6348
 30
0.0
 10
64.728
 20
-40.6348
 30
0.0
 10
64.4485
 20
-41.4495
 30
0.0
 10
63.7284
 20
-41.8217
 30
0.0
 10
63.7561
 20
-42.9425
 30
0.0
 10
63.7561
 20
-42.9425
 30
0.0
 10
64.722
 20
-42.4759
 30
0.0
 10
65.2203
 20
-41.4075
 30
0.0
 10
66.064
 20
-40.6348
 30
0.0
 10
66.064
 20
-40.6348
 30
0.0
 10
68.17
 20
-38.7067
 30
0.0
 10
71.9824
 20
-36.2992
 30
0.0
 10
75.7793
 20
-36.1425
 30
0.0
 10
75.7793
 20
-36.1425
 30
0.0
 10
77.5066
 20
-36.0717
 30
0.0
 10
79.894
 20
-36.0343
 30
0.0
 10
82.0927
 20
-36.3862
 30
0.0
 10
82.0927
 20
-36.3862
 30
0.0
 10
84.2868
 20
-36.7354
 30
0.0
 10
86.2789
 20
-37.8966
 30
0.0
 10
88.164
 20
-38.3287
 30
0.0
 10
88.164
 20
-38.3287
 30
0.0
 10
95.9934
 20
-42.4109
 30
0.0
 10
102.0579
 20
-50.4371
 30
0.0
 10
101.5233
 20
-62.6152
 30
0.0
 10
101.5233
 20
-62.6152
 30
0.0
 10
101.3177
 20
-67.271
 30
0.0
 10
100.3602
 20
-71.3981
 30
0.0
 10
98.2447
 20
-74.3944
 30
0.0
  0
SPLINE
  5
A2
330
1F
100
AcDbEntity
  8
layer 1
 62
   250
100
AcDbSpline
210
0.0
220
0.0
230
1.0
 70
    11
 71
     3
 72
    12
 73
     8
 74
     0
 42
0.000000001
 43
0.0000000001
 40
0.0
 40
0.0
 40
0.0
 40
0.0
 40
0.3333333333333333
 40
0.3333333333333333
 40
0.3333333333333333
 40
0.3333333333333333
 40
1.0
 40
1.0
 40
1.0
 40
1.0
 10
46.412
 20
66.3526
 30
0.0
 10
47.4636
 20
66.4227
 30
0.0
 10
48.3962
 20
67.7301
 30
0.0
 10
47.7727
 20
68.7317
 30
0.0
 10
47.7727
 20
68.7317
 30
0.0
 10
47.4897
 20
67.7677
 30
0.0
 10
46.907
 20
67.1057
 30
0.0
 10
46.412
 20
66.3526
 30
0.0
  0
SPLINE
  5
A3
330
1F
100
AcDbEntity
  8
layer 1
 62
   250
100
AcDbSpline
210
0.0
220
0.0
230
1.0
 70
    11
 71
     3
 72
    12
 73
     8
 74
     0
 42
0.000000001
 43
0.0000000001
 40
0.0
 40
0.0
 40
0.0
 40
0.0
 40
0.3333333333333333
 40
0.3333333333333333
 40
0.3333333333333333
 40
0.3333333333333333
 40
1.0
 40
1.0
 40
1.0
 40
1.0
 10
45.8457
 20
68.7317
 30
0.0
 10
45.3726
 20
68.2932
 30
0.0
 10
44.5726
 20
66.4236
 30
0.0
 10
45.8457
 20
66.2377
 30
0.0
 10
45.8457
 20
66.2377
 30
0.0
 10
46.2877
 20
66.7067
 30
0.0
 10
47.1273
 20
68.5386
 30
0.0
 10
45.8457
 20
68.7317
 30
0.0
  0
SPLINE
  5
A4
330
1F
100
AcDbEntity
  8
layer 1
 62
   250
100
AcDbSpline
210
0.0
220
0.0
230
1.0
 70
    11
 71
     3
 72
    16
 73
    12
 74
     0
 42
0.000000001
 43
0.0000000001
 40
0.0
 40
0.0
 40
0.0
 40
0.0
 40
0.25
 40
0.25
 40
0.25
 40
0.25
 40
0.5
 40
0.5
 40
0.5
 40
0.5
 40
1.0
 40
1.0
 40
1.0
 40
1.0
 10
57.067
 20
76.5534
 30
0.0
 10
57.2716
 20
75.6345
 30
0.0
 10
58.7557
 20
75.3316
 30
0.0
 10
59.6738
 20
75.5329
 30
0.0
 10
59.6738
 20
75.5329
 30
0.0
 10
61.771
 20
75.9957
 30
0.0
 10
62.568
 20
79.5072
 30
0.0
 10
59.5601
 20
79.1614
 30
0.0
 10
59.5601
 20
79.1614
 30
0.0
 10
58.0739
 20
78.9891
 30
0.0
 10
56.7224
 20
78.0826
 30
0.0
 10
57.067
 20
76.5534
 30
0.0
  0
SPLINE
  5
A5
330
1F
100
AcDbEntity
  8
layer 1
 62
   250
100
AcDbSpline
210
0.0
220
0.0
230
1.0
 70
    11
 71
     3
 72
    16
 73
    12
 74
     0
 42
0.000000001
 43
0.0000000001
 40
0.0
 40
0.0
 40
0.0
 40
0.0
 40
0.25
 40
0.25
 40
0.25
 40
0.25
 40
0.5
 40
0.5
 40
0.5
 40
0.5
 40
1.0
 40
1.0
 40
1.0
 40
1.0
 10
64.5472
 20
83.127
 30
0.0
 10
62.8395
 20
84.7447
 30
0.0
 10
61.5955
 20
86.8253
 30
0.0
 10
60.9208
 20
89.475
 30
0.0
 10
60.9208
 20
89.475
 30
0.0
 10
60.7757
 20
89.4812
 30
0.0
 10
60.7633
 20
89.6192
 30
0.0
 10
60.5803
 20
89.5878
 30
0.0
 10
60.5803
 20
89.5878
 30
0.0
 10
60.7047
 20
86.2353
 30
0.0
 10
61.8066
 20
83.8621
 30
0.0
 10
64.5472
 20
83.127
 30
0.0
  0
SPLINE
  5
A6
330
1F
100
AcDbEntity
  8
layer 1
 62
   250
100
AcDbSpline
210
0.0
220
0.0
230
1.0
 70
    11
 71
     3
 72
   180
 73
   176
 74
     0
 42
0.000000001
 43
0.0000000001
 40
0.0
 40
0.0
 40
0.0
 40
0.0
 40
0.0222222222222222
 40
0.0222222222222222
 40
0.0222222222222222
 40
0.0222222222222222
 40
0.0444444444444444
 40
0.0444444444444444
 40
0.0444444444444444
 40
0.0444444444444444
 40
0.0666666666666667
 40
0.0666666666666667
 40
0.0666666666666667
 40
0.0666666666666667
 40
0.0888888888888889
 40
0.0888888888888889
 40
0.0888888888888889
 40
0.0888888888888889
 40
0.1111111111111111
 40
0.1111111111111111
 40
0.1111111111111111
 40
0.1111111111111111
 40
0.1333333333333333
 40
0.1333333333333333
 40
0.1333333333333333
 40
0.1333333333333333
 40
0.1555555555555556
 40
0.1555555555555556
 40
0.1555555555555556
 40
0.1555555555555556
 40
0.1777777777777778
 40
0.1777777777777778
 40
0.1777777777777778
 40
0.1777777777777778
 40
0.2
 40
0.2
 40
0.2
 40
0.2
 40
0.2222222222222222
 40
0.2222222222222222
 40
0.2222222222222222
 40
0.2222222222222222
 40
0.2444444444444444
 40
0.2444444444444444
 40
0.2444444444444444
 40
0.2444444444444444
 40
0.2666666666666667
 40
0.2666666666666667
 40
0.2666666666666667
 40
0.2666666666666667
 40
0.2888888888888889
 40
0.2888888888888889
 40
0.2888888888888889
 40
0.2888888888888889
 40
0.3111111111111111
 40
0.3111111111111111
 40
0.3111111111111111
 40
0.3111111111111111
 40
0.3333333333333333
 40
0.3333333333333333
 40
0.3333333333333333
 40
0.3333333333333333
 40
0.3555555555555556
 40
0.3555555555555556
 40
0.3555555555555556
 40
0.3555555555555556
 40
0.3777777777777778
 40
0.3777777777777778
 40
0.3777777777777778
 40
0.3777777777777778
 40
0.4
 40
0.4
 40
0.4
 40
0.4
 40
0.4222222222222222
 40
0.4222222222222222
 40
0.4222222222222222
 40
0.4222222222222222
 40
0.4444444444444444
 40
0.4444444444444444
 40
0.4444444444444444
 40
0.4444444444444444
 40
0.4666666666666667
 40
0.4666666666666667
 40
0.4666666666666667
 40
0.4666666666666667
 40
0.4888888888888889
 40
0.4888888888888889
 40
0.4888888888888889
 40
0.4888888888888889
 40
0.5111111111111111
 40
0.5111111111111111
 40
0.5111111111111111
 40
0.5111111111111111
 40
0.5333333333333333
 40
0.5333333333333333
 40
0.5333333333333333
 40
0.5333333333333333
 40
0.5555555555555556
 40
0.5555555555555556
 40
0.5555555555555556
 40
0.5555555555555556
 40
0.5777777777777777
 40
0.5777777777777777
 40
0.5777777777777777
 40
0.5777777777777777
 40
0.6
 40
0.6
 40
0.6
 40
0.6
 40
0.6222222222222222
 40
0.6222222222222222
 40
0.6222222222222222
 40
0.6222222222222222
 40
0.6444444444444445
 40
0.6444444444444445
 40
0.6444444444444445
 40
0.6444444444444445
 40
0.6666666666666666
 40
0.6666666666666666
 40
0.6666666666666666
 40
0.6666666666666666
 40
0.6888888888888889
 40
0.6888888888888889
 40
0.6888888888888889
 40
0.6888888888888889
 40
0.7111111111111111
 40
0.7111111111111111
 40
0.7111111111111111
 40
0.7111111111111111
 40
0.7333333333333333
 40
0.7333333333333333
 40
0.7333333333333333
 40
0.7333333333333333
 40
0.7555555555555555
 40
0.7555555555555555
 40
0.7555555555555555
 40
0.7555555555555555
 40
0.7777777777777778
 40
0.7777777777777778
 40
0.7777777777777778
 40
0.7777777777777778
 40
0.8
 40
0.8
 40
0.8
 40
0.8
 40
0.8222222222222222
 40
0.8222222222222222
 40
0.8222222222222222
 40
0.8222222222222222
 40
0.8444444444444444
 40
0.8444444444444444
 40
0.8444444444444444
 40
0.8444444444444444
 40
0.8666666666666667
 40
0.8666666666666667
 40
0.8666666666666667
 40
0.8666666666666667
 40
0.8888888888888888
 40
0.8888888888888888
 40
0.8888888888888888
 40
0.8888888888888888
 40
0.9111111111111111
 40
0.9111111111111111
 40
0.9111111111111111
 40
0.9111111111111111
 40
0.9333333333333333
 40
0.9333333333333333
 40
0.9333333333333333
 40
0.9333333333333333
 40
0.9555555555555556
 40
0.9555555555555556
 40
0.9555555555555556
 40
0.9555555555555556
 40
1.0
 40
1.0
 40
1.0
 40
1.0
 10
88.1238
 20
53.2033
 30
0.0
 10
90.883
 20
56.1372
 30
0.0
 10
90.5227
 20
63.3843
 30
0.0
 10
89.7091
 20
67.7124
 30
0.0
 10
89.7091
 20
67.7124
 30
0.0
 10
93.1756
 20
66.7025
 30
0.0
 10
97.067
 20
63.8231
 30
0.0
 10
96.5104
 20
59.0981
 30
0.0
 10
96.5104
 20
59.0981
 30
0.0
 10
96.3559
 20
57.78
 30
0.0
 10
95.8315
 20
56.5037
 30
0.0
 10
94.6974
 20
55.9252
 30
0.0
 10
94.6974
 20
55.9252
 30
0.0
 10
94.7329
 20
58.1895
 30
0.0
 10
93.866
 20
59.5504
 30
0.0
 10
92.5436
 20
60.459
 30
0.0
 10
92.5436
 20
60.459
 30
0.0
 10
93.5108
 20
58.7452
 30
0.0
 10
94.1739
 20
56.7859
 30
0.0
 10
94.0173
 20
54.4506
 30
0.0
 10
94.0173
 20
54.4506
 30
0.0
 10
93.9723
 20
53.7874
 30
0.0
 10
93.6937
 20
53.0375
 30
0.0
 10
93.7908
 20
52.4096
 30
0.0
 10
93.7908
 20
52.4096
 30
0.0
 10
94.2127
 20
49.6933
 30
0.0
 10
98.4886
 20
49.3913
 30
0.0
 10
100.4781
 20
50.937
 30
0.0
 10
100.4781
 20
50.937
 30
0.0
 10
100.5335
 20
47.8885
 30
0.0
 10
98.1115
 20
45.693
 30
0.0
 10
94.9238
 20
45.3827
 30
0.0
 10
94.9238
 20
45.3827
 30
0.0
 10
92.1981
 20
45.1186
 30
0.0
 10
88.9154
 20
45.7975
 30
0.0
 10
87.2161
 20
47.3097
 30
0.0
 10
87.2161
 20
47.3097
 30
0.0
 10
86.2645
 20
48.1568
 30
0.0
 10
86.0067
 20
49.2587
 30
0.0
 10
85.5158
 20
50.3701
 30
0.0
 10
85.5158
 20
50.3701
 30
0.0
 10
83.7937
 20
49.3839
 30
0.0
 10
82.158
 20
48.1464
 30
0.0
 10
79.8487
 20
47.4225
 30
0.0
 10
79.8487
 20
47.4225
 30
0.0
 10
75.8144
 20
46.1569
 30
0.0
 10
70.2569
 20
46.2028
 30
0.0
 10
65.4537
 20
46.8577
 30
0.0
 10
65.4537
 20
46.8577
 30
0.0
 10
68.6682
 20
50.4891
 30
0.0
 10
70.7187
 20
58.2084
 30
0.0
 10
68.4009
 20
64.3107
 30
0.0
 10
68.4009
 20
64.3107
 30
0.0
 10
70.8146
 20
63.5483
 30
0.0
 10
72.1359
 20
60.7189
 30
0.0
 10
72.5942
 20
57.6255
 30
0.0
 10
72.5942
 20
57.6255
 30
0.0
 10
73.3755
 20
59.0584
 30
0.0
 10
72.6664
 20
60.7933
 30
0.0
 10
72.1421
 20
61.9316
 30
0.0
 10
72.1421
 20
61.9316
 30
0.0
 10
71.5551
 20
63.2037
 30
0.0
 10
70.5514
 20
64.1425
 30
0.0
 10
70.1014
 20
65.2175
 30
0.0
 10
70.1014
 20
65.2175
 30
0.0
 10
77.9262
 20
64.8622
 30
0.0
 10
75.0633
 20
75.5457
 30
0.0
 10
72.2549
 20
78.5932
 30
0.0
 10
72.2549
 20
78.5932
 30
0.0
 10
72.7437
 20
75.7304
 30
0.0
 10
73.6428
 20
72.9241
 30
0.0
 10
73.2754
 20
70.0917
 30
0.0
 10
73.2754
 20
70.0917
 30
0.0
 10
72.4595
 20
63.8305
 30
0.0
 10
64.8447
 20
66.4654
 30
0.0
 10
58.9941
 20
66.4654
 30
0.0
 10
58.9941
 20
66.4654
 30
0.0
 10
56.5782
 20
66.4654
 30
0.0
 10
54.3765
 20
65.5799
 30
0.0
 10
53.0993
 20
64.3107
 30
0.0
 10
53.0993
 20
64.3107
 30
0.0
 10
52.7044
 20
63.9202
 30
0.0
 10
52.4234
 20
63.0607
 30
0.0
 10
51.8523
 20
62.8393
 30
0.0
 10
51.8523
 20
62.8393
 30
0.0
 10
50.86
 20
62.4538
 30
0.0
 10
49.8261
 20
63.024
 30
0.0
 10
49.1316
 20
63.7458
 30
0.0
 10
49.1316
 20
63.7458
 30
0.0
 10
49.8803
 20
65.3386
 30
0.0
 10
52.5729
 20
64.9895
 30
0.0
 10
52.08
 20
67.8251
 30
0.0
 10
52.08
 20
67.8251
 30
0.0
 10
52.4308
 20
68.1866
 30
0.0
 10
52.8015
 20
67.4053
 30
0.0
 10
53.0993
 20
67.7124
 30
0.0
 10
53.0993
 20
67.7124
 30
0.0
 10
52.8654
 20
68.2722
 30
0.0
 10
52.3453
 20
68.546
 30
0.0
 10
51.5128
 20
68.5052
 30
0.0
 10
51.5128
 20
68.5052
 30
0.0
 10
51.1243
 20
68.0623
 30
0.0
 10
52.0276
 20
68.1825
 30
0.0
 10
51.8523
 20
67.5987
 30
0.0
 10
51.8523
 20
67.5987
 30
0.0
 10
50.3889
 20
65.9641
 30
0.0
 10
49.163
 20
64.0925
 30
0.0
 10
46.2992
 20
63.8586
 30
0.0
 10
46.2992
 20
63.8586
 30
0.0
 10
45.615
 20
64.2689
 30
0.0
 10
45.7278
 20
64.9081
 30
0.0
 10
45.1647
 20
65.3303
 30
0.0
 10
45.1647
 20
65.3303
 30
0.0
 10
44.8024
 20
65.6047
 30
0.0
 10
44.1925
 20
65.5589
 30
0.0
 10
43.805
 20
65.8984
 30
0.0
 10
43.805
 20
65.8984
 30
0.0
 10
43.2004
 20
66.4278
 30
0.0
 10
42.5988
 20
67.8627
 30
0.0
 10
43.0112
 20
69.0724
 30
0.0
 10
43.0112
 20
69.0724
 30
0.0
 10
43.4083
 20
70.2347
 30
0.0
 10
44.4545
 20
70.3872
 30
0.0
 10
45.618
 20
70.9983
 30
0.0
 10
45.618
 20
70.9983
 30
0.0
 10
47.0334
 20
71.7449
 30
0.0
 10
48.2292
 20
73.7314
 30
0.0
 10
49.8125
 20
75.0788
 30
0.0
 10
49.8125
 20
75.0788
 30
0.0
 10
51.4376
 20
76.4646
 30
0.0
 10
53.6245
 20
77.5938
 30
0.0
 10
54.2326
 20
78.8188
 30
0.0
 10
54.2326
 20
78.8188
 30
0.0
 10
54.6198
 20
79.6001
 30
0.0
 10
54.5814
 20
80.4451
 30
0.0
 10
55.0272
 20
81.0872
 30
0.0
 10
55.0272
 20
81.0872
 30
0.0
 10
55.4701
 20
81.7276
 30
0.0
 10
55.9808
 20
81.8892
 30
0.0
 10
56.3861
 20
82.447
 30
0.0
 10
56.3861
 20
82.447
 30
0.0
 10
54.0843
 20
84.4744
 30
0.0
 10
52.7994
 20
89.7705
 30
0.0
 10
54.9123
 20
92.9895
 30
0.0
 10
54.9123
 20
92.9895
 30
0.0
 10
57.0357
 20
89.4069
 30
0.0
 10
58.3652
 20
85.031
 30
0.0
 10
61.8264
 20
82.7866
 30
0.0
 10
61.8264
 20
82.7866
 30
0.0
 10
61.6239
 20
83.834
 30
0.0
 10
60.4071
 20
84.4596
 30
0.0
 10
59.7866
 20
85.7338
 30
0.0
 10
59.7866
 20
85.7338
 30
0.0
 10
58.7024
 20
87.9616
 30
0.0
 10
58.2409
 20
93.1053
 30
0.0
 10
59.4473
 20
95.9358
 30
0.0
 10
59.4473
 20
95.9358
 30
0.0
 10
59.4473
 20
95.9358
 30
0.0
 10
59.7866
 20
95.9358
 30
0.0
 10
59.7866
 20
95.9358
 30
0.0
 10
59.7866
 20
95.9358
 30
0.0
 10
60.7464
 20
94.2948
 30
0.0
 10
61.4107
 20
91.9868
 30
0.0
 10
62.6201
 20
90.042
 30
0.0
 10
62.6201
 20
90.042
 30
0.0
 10
63.5246
 20
88.5872
 30
0.0
 10
65.509
 20
85.6325
 30
0.0
 10
67.2679
 20
85.3933
 30
0.0
 10
67.2679
 20
85.3933
 30
0.0
 10
73.6304
 20
84.5348
 30
0.0
 10
78.4608
 20
81.0706
 30
0.0
 10
82.3418
 20
76.6662
 30
0.0
 10
82.3418
 20
76.6662
 30
0.0
 10
87.2507
 20
71.1004
 30
0.0
 10
92.2377
 20
62.2407
 30
0.0
 10
88.1238
 20
53.2033
 30
0.0
  0
SPLINE
  5
A7
330
1F
100
AcDbEntity
  8
layer 1
 62
   250
100
AcDbSpline
210
0.0
220
0.0
230
1.0
 70
    11
 71
     3
 72
    28
 73
    24
 74
     0
 42
0.000000001
 43
0.0000000001
 40
0.0
 40
0.0
 40
0.0
 40
0.0
 40
0.1428571428571428
 40
0.1428571428571428
 40
0.1428571428571428
 40
0.1428571428571428
 40
0.2857142857142857
 40
0.2857142857142857
 40
0.2857142857142857
 40
0.2857142857142857
 40
0.4285714285714285
 40
0.4285714285714285
 40
0.4285714285714285
 40
0.4285714285714285
 40
0.5714285714285714
 40
0.5714285714285714
 40
0.5714285714285714
 40
0.5714285714285714
 40
0.7142857142857143
 40
0.7142857142857143
 40
0.7142857142857143
 40
0.7142857142857143
 40
1.0
 40
1.0
 40
1.0
 40
1.0
 10
75.7688
 20
91.2881
 30
0.0
 10
75.6841
 20
90.5873
 30
0.0
 10
74.9102
 20
89.8771
 30
0.0
 10
74.1822
 20
89.5878
 30
0.0
 10
74.1822
 20
89.5878
 30
0.0
 10
72.434
 20
88.8954
 30
0.0
 10
69.5158
 20
89.7205
 30
0.0
 10
67.8342
 20
88.6801
 30
0.0
 10
67.8342
 20
88.6801
 30
0.0
 10
67.0781
 20
88.2144
 30
0.0
 10
66.9976
 20
87.7757
 30
0.0
 10
66.3617
 20
86.982
 30
0.0
 10
66.3617
 20
86.982
 30
0.0
 10
65.1271
 20
87.522
 30
0.0
 10
64.6363
 20
88.8098
 30
0.0
 10
63.9805
 20
89.9283
 30
0.0
 10
63.9805
 20
89.9283
 30
0.0
 10
64.8932
 20
91.1137
 30
0.0
 10
65.9502
 20
91.7686
 30
0.0
 10
67.8342
 20
91.8562
 30
0.0
 10
67.8342
 20
91.8562
 30
0.0
 10
70.5236
 20
91.9785
 30
0.0
 10
73.4021
 20
89.9011
 30
0.0
 10
75.7688
 20
91.2881
 30
0.0
  0
SPLINE
  5
A8
330
1F
100
AcDbEntity
  8
layer 1
 62
   250
100
AcDbSpline
210
0.0
220
0.0
230
1.0
 70
    11
 71
     3
 72
    44
 73
    40
 74
     0
 42
0.000000001
 43
0.0000000001
 40
0.0
 40
0.0
 40
0.0
 40
0.0
 40
0.0909090909090909
 40
0.0909090909090909
 40
0.0909090909090909
 40
0.0909090909090909
 40
0.1818181818181818
 40
0.1818181818181818
 40
0.1818181818181818
 40
0.1818181818181818
 40
0.2727272727272727
 40
0.2727272727272727
 40
0.2727272727272727
 40
0.2727272727272727
 40
0.3636363636363636
 40
0.3636363636363636
 40
0.3636363636363636
 40
0.3636363636363636
 40
0.4545454545454545
 40
0.4545454545454545
 40
0.4545454545454545
 40
0.4545454545454545
 40
0.5454545454545454
 40
0.5454545454545454
 40
0.5454545454545454
 40
0.5454545454545454
 40
0.6363636363636364
 40
0.6363636363636364
 40
0.6363636363636364
 40
0.6363636363636364
 40
0.7272727272727273
 40
0.7272727272727273
 40
0.7272727272727273
 40
0.7272727272727273
 40
0.8181818181818182
 40
0.8181818181818182
 40
0.8181818181818182
 40
0.8181818181818182
 40
1.0
 40
1.0
 40
1.0
 40
1.0
 10
85.0628
 20
87.4346
 30
0.0
 10
84.9438
 20
85.6269
 30
0.0
 10
83.4606
 20
85.184
 30
0.0
 10
82.1165
 20
84.6002
 30
0.0
 10
82.1165
 20
84.6002
 30
0.0
 10
88.7067
 20
83.2727
 30
0.0
 10
93.4693
 20
80.6751
 30
0.0
 10
93.4507
 20
73.38
 30
0.0
 10
93.4507
 20
73.38
 30
0.0
 10
93.4486
 20
72.6958
 30
0.0
 10
93.2239
 20
71.9513
 30
0.0
 10
93.3379
 20
71.2265
 30
0.0
 10
93.3379
 20
71.2265
 30
0.0
 10
93.5655
 20
69.7622
 30
0.0
 10
94.8708
 20
68.726
 30
0.0
 10
96.7375
 20
68.8451
 30
0.0
 10
96.7375
 20
68.8451
 30
0.0
 10
96.2798
 20
67.8468
 30
0.0
 10
94.8531
 20
67.6212
 30
0.0
 10
93.6783
 20
67.5993
 30
0.0
 10
93.6783
 20
67.5993
 30
0.0
 10
88.4311
 20
67.4998
 30
0.0
 10
86.6234
 20
72.7376
 30
0.0
 10
84.2691
 20
75.9859
 30
0.0
 10
84.2691
 20
75.9859
 30
0.0
 10
80.3671
 20
81.3729
 30
0.0
 10
75.3768
 20
85.6956
 30
0.0
 10
67.0405
 20
86.7537
 30
0.0
 10
67.0405
 20
86.7537
 30
0.0
 10
69.0019
 20
88.663
 30
0.0
 10
71.5397
 20
89.0087
 30
0.0
 10
74.5215
 20
88.7935
 30
0.0
 10
74.5215
 20
88.7935
 30
0.0
 10
77.2257
 20
88.6014
 30
0.0
 10
79.6308
 20
87.0033
 30
0.0
 10
81.6624
 20
86.7537
 30
0.0
 10
81.6624
 20
86.7537
 30
0.0
 10
83.3804
 20
86.545
 30
0.0
 10
84.0047
 20
87.2561
 30
0.0
 10
85.0628
 20
87.4346
 30
0.0
  0
SPLINE
  5
A9
330
1F
100
AcDbEntity
  8
layer 1
 62
   250
100
AcDbSpline
210
0.0
220
0.0
230
1.0
 70
    11
 71
     3
 72
    12
 73
     8
 74
     0
 42
0.000000001
 43
0.0000000001
 40
0.0
 40
0.0
 40
0.0
 40
0.0
 40
0.3333333333333333
 40
0.3333333333333333
 40
0.3333333333333333
 40
0.3333333333333333
 40
1.0
 40
1.0
 40
1.0
 40
1.0
 10
-100.0014
 20
-65.0676
 30
0.0
 10
-100.5585
 20
-66.1728
 30
0.0
 10
-99.8707
 20
-67.7793
 30
0.0
 10
-98.8905
 20
-68.0679
 30
0.0
 10
-98.8905
 20
-68.0679
 30
0.0
 10
-98.2432
 20
-67.1728
 30
0.0
 10
-98.929
 20
-65.2926
 30
0.0
 10
-100.0014
 20
-65.0676
 30
0.0
  0
SPLINE
  5
AA
330
1F
100
AcDbEntity
  8
layer 1
 62
   250
100
AcDbSpline
210
0.0
220
0.0
230
1.0
 70
    11
 71
     3
 72
    16
 73
    12
 74
     0
 42
0.000000001
 43
0.0000000001
 40
0.0
 40
0.0
 40
0.0
 40
0.0
 40
0.25
 40
0.25
 40
0.25
 40
0.25
 40
0.5
 40
0.5
 40
0.5
 40
0.5
 40
1.0
 40
1.0
 40
1.0
 40
1.0
 10
-90.2239
 20
-58.7343
 30
0.0
 10
-90.0373
 20
-60.5788
 30
0.0
 10
-85.6823
 20
-60.0545
 30
0.0
 10
-85.8905
 20
-58.0682
 30
0.0
 10
-85.8905
 20
-58.0682
 30
0.0
 10
-85.9798
 20
-57.2129
 30
0.0
 10
-86.9679
 20
-56.7471
 30
0.0
 10
-88.4457
 20
-57.0682
 30
0.0
 10
-88.4457
 20
-57.0682
 30
0.0
 10
-89.317
 20
-57.2554
 30
0.0
 10
-90.3337
 20
-57.6251
 30
0.0
 10
-90.2239
 20
-58.7343
 30
0.0
  0
SPLINE
  5
AB
330
1F
100
AcDbEntity
  8
layer 1
 62
   250
100
AcDbSpline
210
0.0
220
0.0
230
1.0
 70
    11
 71
     3
 72
    36
 73
    32
 74
     0
 42
0.000000001
 43
0.0000000001
 40
0.0
 40
0.0
 40
0.0
 40
0.0
 40
0.1111111111111111
 40
0.1111111111111111
 40
0.1111111111111111
 40
0.1111111111111111
 40
0.2222222222222222
 40
0.2222222222222222
 40
0.2222222222222222
 40
0.2222222222222222
 40
0.3333333333333333
 40
0.3333333333333333
 40
0.3333333333333333
 40
0.3333333333333333
 40
0.4444444444444444
 40
0.4444444444444444
 40
0.4444444444444444
 40
0.4444444444444444
 40
0.5555555555555556
 40
0.5555555555555556
 40
0.5555555555555556
 40
0.5555555555555556
 40
0.6666666666666666
 40
0.6666666666666666
 40
0.6666666666666666
 40
0.6666666666666666
 40
0.7777777777777778
 40
0.7777777777777778
 40
0.7777777777777778
 40
0.7777777777777778
 40
1.0
 40
1.0
 40
1.0
 40
1.0
 10
-67.3343
 20
-65.2906
 30
0.0
 10
-66.6266
 20
-62.337
 30
0.0
 10
-68.2491
 20
-58.185
 30
0.0
 10
-69.6684
 20
-57.0682
 30
0.0
 10
-69.6684
 20
-57.0682
 30
0.0
 10
-69.7072
 20
-57.0373
 30
0.0
 10
-69.8539
 20
-56.644
 30
0.0
 10
-70.1126
 20
-57.0682
 30
0.0
 10
-70.1126
 20
-57.0682
 30
0.0
 10
-67.9796
 20
-60.0635
 30
0.0
 10
-69.0046
 20
-64.7852
 30
0.0
 10
-71.5576
 20
-66.1787
 30
0.0
 10
-71.5576
 20
-66.1787
 30
0.0
 10
-71.9849
 20
-66.4128
 30
0.0
 10
-72.5766
 20
-66.2866
 30
0.0
 10
-72.7797
 20
-66.8457
 30
0.0
 10
-72.7797
 20
-66.8457
 30
0.0
 10
-71.4733
 20
-66.9657
 30
0.0
 10
-70.9252
 20
-66.3293
 30
0.0
 10
-70.0014
 20
-66.0678
 30
0.0
 10
-70.0014
 20
-66.0678
 30
0.0
 10
-70.3762
 20
-67.4354
 30
0.0
 10
-71.3238
 20
-68.273
 30
0.0
 10
-72.2246
 20
-69.0678
 30
0.0
 10
-72.2246
 20
-69.0678
 30
0.0
 10
-72.6747
 20
-69.4653
 30
0.0
 10
-73.5428
 20
-69.857
 30
0.0
 10
-73.3357
 20
-70.4009
 30
0.0
 10
-73.3357
 20
-70.4009
 30
0.0
 10
-71.0005
 20
-69.3257
 30
0.0
 10
-68.0032
 20
-68.0749
 30
0.0
 10
-67.3343
 20
-65.2906
 30
0.0
  0
SPLINE
  5
AC
330
1F
100
AcDbEntity
  8
layer 1
 62
   250
100
AcDbSpline
210
0.0
220
0.0
230
1.0
 70
    11
 71
     3
 72
    20
 73
    16
 74
     0
 42
0.000000001
 43
0.0000000001
 40
0.0
 40
0.0
 40
0.0
 40
0.0
 40
0.2
 40
0.2
 40
0.2
 40
0.2
 40
0.4
 40
0.4
 40
0.4
 40
0.4
 40
0.6
 40
0.6
 40
0.6
 40
0.6
 40
1.0
 40
1.0
 40
1.0
 40
1.0
 10
-74.3348
 20
-49.1788
 30
0.0
 10
-75.2319
 20
-48.473
 30
0.0
 10
-76.2122
 20
-47.9951
 30
0.0
 10
-77.1129
 20
-47.4006
 30
0.0
 10
-77.1129
 20
-47.4006
 30
0.0
 10
-79.9575
 20
-45.5233
 30
0.0
 10
-81.9428
 20
-43.1236
 30
0.0
 10
-83.5563
 20
-40.0671
 30
0.0
 10
-83.5563
 20
-40.0671
 30
0.0
 10
-83.7001
 20
-40.061
 30
0.0
 10
-83.7111
 20
-39.9264
 30
0.0
 10
-83.8895
 20
-39.9562
 30
0.0
 10
-83.8895
 20
-39.9562
 30
0.0
 10
-83.6465
 20
-45.4558
 30
0.0
 10
-78.546
 20
-47.6493
 30
0.0
 10
-74.3348
 20
-49.1788
 30
0.0
  0
SPLINE
  5
AD
330
1F
100
AcDbEntity
  8
layer 1
 62
   250
100
AcDbSpline
210
0.0
220
0.0
230
1.0
 70
    11
 71
     3
 72
   152
 73
   148
 74
     0
 42
0.000000001
 43
0.0000000001
 40
0.0
 40
0.0
 40
0.0
 40
0.0
 40
0.0263157894736842
 40
0.0263157894736842
 40
0.0263157894736842
 40
0.0263157894736842
 40
0.0526315789473684
 40
0.0526315789473684
 40
0.0526315789473684
 40
0.0526315789473684
 40
0.0789473684210526
 40
0.0789473684210526
 40
0.0789473684210526
 40
0.0789473684210526
 40
0.1052631578947368
 40
0.1052631578947368
 40
0.1052631578947368
 40
0.1052631578947368
 40
0.131578947368421
 40
0.131578947368421
 40
0.131578947368421
 40
0.131578947368421
 40
0.1578947368421053
 40
0.1578947368421053
 40
0.1578947368421053
 40
0.1578947368421053
 40
0.1842105263157895
 40
0.1842105263157895
 40
0.1842105263157895
 40
0.1842105263157895
 40
0.2105263157894737
 40
0.2105263157894737
 40
0.2105263157894737
 40
0.2105263157894737
 40
0.2368421052631579
 40
0.2368421052631579
 40
0.2368421052631579
 40
0.2368421052631579
 40
0.2631578947368421
 40
0.2631578947368421
 40
0.2631578947368421
 40
0.2631578947368421
 40
0.2894736842105263
 40
0.2894736842105263
 40
0.2894736842105263
 40
0.2894736842105263
 40
0.3157894736842105
 40
0.3157894736842105
 40
0.3157894736842105
 40
0.3157894736842105
 40
0.3421052631578947
 40
0.3421052631578947
 40
0.3421052631578947
 40
0.3421052631578947
 40
0.3684210526315789
 40
0.3684210526315789
 40
0.3684210526315789
 40
0.3684210526315789
 40
0.3947368421052632
 40
0.3947368421052632
 40
0.3947368421052632
 40
0.3947368421052632
 40
0.4210526315789473
 40
0.4210526315789473
 40
0.4210526315789473
 40
0.4210526315789473
 40
0.4473684210526316
 40
0.4473684210526316
 40
0.4473684210526316
 40
0.4473684210526316
 40
0.4736842105263158
 40
0.4736842105263158
 40
0.4736842105263158
 40
0.4736842105263158
 40
0.5
 40
0.5
 40
0.5
 40
0.5
 40
0.5263157894736842
 40
0.5263157894736842
 40
0.5263157894736842
 40
0.5263157894736842
 40
0.5526315789473685
 40
0.5526315789473685
 40
0.5526315789473685
 40
0.5526315789473685
 40
0.5789473684210527
 40
0.5789473684210527
 40
0.5789473684210527
 40
0.5789473684210527
 40
0.6052631578947368
 40
0.6052631578947368
 40
0.6052631578947368
 40
0.6052631578947368
 40
0.631578947368421
 40
0.631578947368421
 40
0.631578947368421
 40
0.631578947368421
 40
0.6578947368421053
 40
0.6578947368421053
 40
0.6578947368421053
 40
0.6578947368421053
 40
0.6842105263157895
 40
0.6842105263157895
 40
0.6842105263157895
 40
0.6842105263157895
 40
0.7105263157894737
 40
0.7105263157894737
 40
0.7105263157894737
 40
0.7105263157894737
 40
0.7368421052631579
 40
0.7368421052631579
 40
0.7368421052631579
 40
0.7368421052631579
 40
0.7631578947368421
 40
0.7631578947368421
 40
0.7631578947368421
 40
0.7631578947368421
 40
0.7894736842105263
 40
0.7894736842105263
 40
0.7894736842105263
 40
0.7894736842105263
 40
0.8157894736842105
 40
0.8157894736842105
 40
0.8157894736842105
 40
0.8157894736842105
 40
0.8421052631578947
 40
0.8421052631578947
 40
0.8421052631578947
 40
0.8421052631578947
 40
0.868421052631579
 40
0.868421052631579
 40
0.868421052631579
 40
0.868421052631579
 40
0.8947368421052632
 40
0.8947368421052632
 40
0.8947368421052632
 40
0.8947368421052632
 40
0.9210526315789473
 40
0.9210526315789473
 40
0.9210526315789473
 40
0.9210526315789473
 40
0.9473684210526315
 40
0.9473684210526315
 40
0.9473684210526315
 40
0.9473684210526315
 40
1.0
 40
1.0
 40
1.0
 40
1.0
 10
-79.002
 20
-88.8441
 30
0.0
 10
-77.8583
 20
-83.821
 30
0.0
 10
-77.91
 20
-76.3667
 30
0.0
 10
-81.1111
 20
-73.7342
 30
0.0
 10
-81.1111
 20
-73.7342
 30
0.0
 10
-79.7395
 20
-73.4032
 30
0.0
 10
-78.5224
 20
-72.9174
 30
0.0
 10
-77.89
 20
-71.8461
 30
0.0
 10
-77.89
 20
-71.8461
 30
0.0
 10
-80.8327
 20
-72.5033
 30
0.0
 10
-84.613
 20
-74.336
 30
0.0
 10
-87.6678
 20
-72.6233
 30
0.0
 10
-87.6678
 20
-72.6233
 30
0.0
 10
-88.1681
 20
-72.3426
 30
0.0
 10
-88.5073
 20
-71.7192
 30
0.0
 10
-89.0006
 20
-71.5121
 30
0.0
 10
-89.0006
 20
-71.5121
 30
0.0
 10
-89.7055
 20
-71.2168
 30
0.0
 10
-90.6827
 20
-71.52
 30
0.0
 10
-91.0007
 20
-70.735
 30
0.0
 10
-91.0007
 20
-70.735
 30
0.0
 10
-90.1197
 20
-67.5107
 30
0.0
 10
-84.2899
 20
-69.9045
 30
0.0
 10
-82.8893
 20
-67.1787
 30
0.0
 10
-82.8893
 20
-67.1787
 30
0.0
 10
-81.9756
 20
-67.168
 30
0.0
 10
-81.4581
 20
-66.7586
 30
0.0
 10
-81.0002
 20
-66.2897
 30
0.0
 10
-81.0002
 20
-66.2897
 30
0.0
 10
-82.1827
 20
-66.4692
 30
0.0
 10
-83.7833
 20
-66.1372
 30
0.0
 10
-84.7796
 20
-65.5118
 30
0.0
 10
-84.7796
 20
-65.5118
 30
0.0
 10
-85.0105
 20
-66.2995
 30
0.0
 10
-83.6574
 20
-66.4631
 30
0.0
 10
-83.4453
 20
-67.1787
 30
0.0
 10
-83.4453
 20
-67.1787
 30
0.0
 10
-85.5446
 20
-68.1024
 30
0.0
 10
-88.2803
 20
-67.3276
 30
0.0
 10
-90.2239
 20
-68.6239
 30
0.0
 10
-90.2239
 20
-68.6239
 30
0.0
 10
-90.8572
 20
-69.047
 30
0.0
 10
-91.3022
 20
-69.7876
 30
0.0
 10
-91.8899
 20
-70.068
 30
0.0
 10
-91.8899
 20
-70.068
 30
0.0
 10
-95.0962
 20
-71.5913
 30
0.0
 10
-100.7102
 20
-70.4009
 30
0.0
 10
-102.0026
 20
-67.6237
 30
0.0
 10
-102.0026
 20
-67.6237
 30
0.0
 10
-101.4901
 20
-67.2225
 30
0.0
 10
-101.5208
 20
-65.5651
 30
0.0
 10
-102.1136
 20
-65.2906
 30
0.0
 10
-102.1136
 20
-65.2906
 30
0.0
 10
-102.6915
 20
-65.2291
 30
0.0
 10
-102.274
 20
-66.1658
 30
0.0
 10
-102.6685
 20
-66.2897
 30
0.0
 10
-102.6685
 20
-66.2897
 30
0.0
 10
-103.4051
 20
-65.469
 30
0.0
 10
-102.9531
 20
-63.3768
 30
0.0
 10
-102.1136
 20
-63.0675
 30
0.0
 10
-102.1136
 20
-63.0675
 30
0.0
 10
-98.6137
 20
-62.791
 30
0.0
 10
-97.3778
 20
-64.7782
 30
0.0
 10
-96.2242
 20
-66.8457
 30
0.0
 10
-96.2242
 20
-66.8457
 30
0.0
 10
-96.2529
 20
-64.8347
 30
0.0
 10
-97.8428
 20
-63.4313
 30
0.0
 10
-99.5575
 20
-62.7345
 30
0.0
 10
-99.5575
 20
-62.7345
 30
0.0
 10
-97.357
 20
-61.7641
 30
0.0
 10
-94.6978
 20
-60.8215
 30
0.0
 10
-94.1131
 20
-58.2901
 30
0.0
 10
-94.1131
 20
-58.2901
 30
0.0
 10
-93.7968
 20
-56.9244
 30
0.0
 10
-93.9673
 20
-55.7896
 30
0.0
 10
-93.5571
 20
-54.7341
 30
0.0
 10
-93.5571
 20
-54.7341
 30
0.0
 10
-92.5898
 20
-52.2502
 30
0.0
 10
-90.5172
 20
-50.8308
 30
0.0
 10
-87.8897
 20
-49.6227
 30
0.0
 10
-87.8897
 20
-49.6227
 30
0.0
 10
-89.5667
 20
-48.4491
 30
0.0
 10
-90.8642
 20
-45.7393
 30
0.0
 10
-90.5568
 20
-42.7342
 30
0.0
 10
-90.5568
 20
-42.7342
 30
0.0
 10
-90.4161
 20
-41.3666
 30
0.0
 10
-89.8204
 20
-40.0214
 30
0.0
 10
-88.6677
 20
-39.512
 30
0.0
 10
-88.6677
 20
-39.512
 30
0.0
 10
-87.7063
 20
-40.4684
 30
0.0
 10
-87.5776
 20
-41.8304
 30
0.0
 10
-87.0005
 20
-42.9562
 30
0.0
 10
-87.0005
 20
-42.9562
 30
0.0
 10
-85.7767
 20
-45.3519
 30
0.0
 10
-83.7496
 20
-47.5889
 30
0.0
 10
-80.6681
 20
-48.2895
 30
0.0
 10
-80.6681
 20
-48.2895
 30
0.0
 10
-80.9209
 20
-47.7265
 30
0.0
 10
-81.6039
 20
-47.3708
 30
0.0
 10
-82.1113
 20
-46.9564
 30
0.0
 10
-82.1113
 20
-46.9564
 30
0.0
 10
-84.0589
 20
-45.3727
 30
0.0
 10
-86.1672
 20
-43.4875
 30
0.0
 10
-86.2237
 20
-39.8449
 30
0.0
 10
-86.2237
 20
-39.8449
 30
0.0
 10
-86.2582
 20
-37.6209
 30
0.0
 10
-85.4345
 20
-35.3631
 30
0.0
 10
-83.8895
 20
-34.1806
 30
0.0
 10
-83.8895
 20
-34.1806
 30
0.0
 10
-82.4266
 20
-34.5256
 30
0.0
 10
-80.1994
 20
-38.0679
 30
0.0
 10
-79.1122
 20
-39.7351
 30
0.0
 10
-79.1122
 20
-39.7351
 30
0.0
 10
-77.8018
 20
-41.7489
 30
0.0
 10
-76.2388
 20
-43.9106
 30
0.0
 10
-74.6677
 20
-45.4005
 30
0.0
 10
-74.6677
 20
-45.4005
 30
0.0
 10
-72.748
 20
-47.2242
 30
0.0
 10
-70.5981
 20
-48.5365
 30
0.0
 10
-68.6685
 20
-49.7337
 30
0.0
 10
-68.6685
 20
-49.7337
 30
0.0
 10
-64.697
 20
-52.2016
 30
0.0
 10
-61.0387
 20
-54.9569
 30
0.0
 10
-58.1128
 20
-58.4002
 30
0.0
 10
-58.1128
 20
-58.4002
 30
0.0
 10
-55.0987
 20
-61.9504
 30
0.0
 10
-52.5564
 20
-66.6148
 30
0.0
 10
-52.1133
 20
-71.5121
 30
0.0
 10
-52.1133
 20
-71.5121
 30
0.0
 10
-51.8824
 20
-74.0643
 30
0.0
 10
-53.3672
 20
-76.1655
 30
0.0
 10
-54.7796
 20
-77.5124
 30
0.0
 10
-54.7796
 20
-77.5124
 30
0.0
 10
-56.8749
 20
-79.5086
 30
0.0
 10
-60.5658
 20
-80.7614
 30
0.0
 10
-64.0022
 20
-80.9566
 30
0.0
 10
-64.0022
 20
-80.9566
 30
0.0
 10
-66.3383
 20
-81.0884
 30
0.0
 10
-68.1482
 20
-81.0707
 30
0.0
 10
-69.8904
 20
-81.7326
 30
0.0
 10
-69.8904
 20
-81.7326
 30
0.0
 10
-72.3625
 20
-82.6772
 30
0.0
 10
-74.6242
 20
-84.4098
 30
0.0
 10
-76.3349
 20
-86.0669
 30
0.0
 10
-76.3349
 20
-86.0669
 30
0.0
 10
-77.2874
 20
-86.9887
 30
0.0
 10
-77.881
 20
-88.2038
 30
0.0
 10
-79.002
 20
-88.8441
 30
0.0
  0
SPLINE
  5
AE
330
1F
100
AcDbEntity
  8
layer 1
 62
   250
100
AcDbSpline
210
0.0
220
0.0
230
1.0
 70
    11
 71
     3
 72
    12
 73
     8
 74
     0
 42
0.000000001
 43
0.0000000001
 40
0.0
 40
0.0
 40
0.0
 40
0.0
 40
0.3333333333333333
 40
0.3333333333333333
 40
0.3333333333333333
 40
0.3333333333333333
 40
1.0
 40
1.0
 40
1.0
 40
1.0
 10
-97.4215
 20
3.3293
 30
0.0
 10
-96.5374
 20
3.3726
 30
0.0
 10
-95.2534
 20
5.5143
 30
0.0
 10
-96.2245
 20
6.7023
 30
0.0
 10
-96.2245
 20
6.7023
 30
0.0
 10
-96.3745
 20
5.3306
 30
0.0
 10
-96.8054
 20
4.2367
 30
0.0
 10
-97.4215
 20
3.3293
 30
0.0
  0
SPLINE
  5
AF
330
1F
100
AcDbEntity
  8
layer 1
 62
   250
100
AcDbSpline
210
0.0
220
0.0
230
1.0
 70
    11
 71
     3
 72
    12
 73
     8
 74
     0
 42
0.000000001
 43
0.0000000001
 40
0.0
 40
0.0
 40
0.0
 40
0.0
 40
0.3333333333333333
 40
0.3333333333333333
 40
0.3333333333333333
 40
0.3333333333333333
 40
1.0
 40
1.0
 40
1.0
 40
1.0
 10
-86.5402
 20
11.9248
 30
0.0
 10
-83.9633
 20
11.8227
 30
0.0
 10
-82.4532
 20
15.9767
 30
0.0
 10
-85.8869
 20
15.5153
 30
0.0
 10
-85.8869
 20
15.5153
 30
0.0
 10
-88.2176
 20
15.2021
 30
0.0
 10
-89.1568
 20
12.0281
 30
0.0
 10
-86.5402
 20
11.9248
 30
0.0
  0
SPLINE
  5
B0
330
1F
100
AcDbEntity
  8
layer 1
 62
   250
100
AcDbSpline
210
0.0
220
0.0
230
1.0
 70
    11
 71
     3
 72
   148
 73
   144
 74
     0
 42
0.000000001
 43
0.0000000001
 40
0.0
 40
0.0
 40
0.0
 40
0.0
 40
0.027027027027027
 40
0.027027027027027
 40
0.027027027027027
 40
0.027027027027027
 40
0.0540540540540541
 40
0.0540540540540541
 40
0.0540540540540541
 40
0.0540540540540541
 40
0.0810810810810811
 40
0.0810810810810811
 40
0.0810810810810811
 40
0.0810810810810811
 40
0.1081081081081081
 40
0.1081081081081081
 40
0.1081081081081081
 40
0.1081081081081081
 40
0.1351351351351351
 40
0.1351351351351351
 40
0.1351351351351351
 40
0.1351351351351351
 40
0.1621621621621622
 40
0.1621621621621622
 40
0.1621621621621622
 40
0.1621621621621622
 40
0.1891891891891892
 40
0.1891891891891892
 40
0.1891891891891892
 40
0.1891891891891892
 40
0.2162162162162162
 40
0.2162162162162162
 40
0.2162162162162162
 40
0.2162162162162162
 40
0.2432432432432433
 40
0.2432432432432433
 40
0.2432432432432433
 40
0.2432432432432433
 40
0.2702702702702703
 40
0.2702702702702703
 40
0.2702702702702703
 40
0.2702702702702703
 40
0.2972972972972973
 40
0.2972972972972973
 40
0.2972972972972973
 40
0.2972972972972973
 40
0.3243243243243243
 40
0.3243243243243243
 40
0.3243243243243243
 40
0.3243243243243243
 40
0.3513513513513514
 40
0.3513513513513514
 40
0.3513513513513514
 40
0.3513513513513514
 40
0.3783783783783784
 40
0.3783783783783784
 40
0.3783783783783784
 40
0.3783783783783784
 40
0.4054054054054054
 40
0.4054054054054054
 40
0.4054054054054054
 40
0.4054054054054054
 40
0.4324324324324325
 40
0.4324324324324325
 40
0.4324324324324325
 40
0.4324324324324325
 40
0.4594594594594595
 40
0.4594594594594595
 40
0.4594594594594595
 40
0.4594594594594595
 40
0.4864864864864865
 40
0.4864864864864865
 40
0.4864864864864865
 40
0.4864864864864865
 40
0.5135135135135135
 40
0.5135135135135135
 40
0.5135135135135135
 40
0.5135135135135135
 40
0.5405405405405406
 40
0.5405405405405406
 40
0.5405405405405406
 40
0.5405405405405406
 40
0.5675675675675675
 40
0.5675675675675675
 40
0.5675675675675675
 40
0.5675675675675675
 40
0.5945945945945946
 40
0.5945945945945946
 40
0.5945945945945946
 40
0.5945945945945946
 40
0.6216216216216216
 40
0.6216216216216216
 40
0.6216216216216216
 40
0.6216216216216216
 40
0.6486486486486487
 40
0.6486486486486487
 40
0.6486486486486487
 40
0.6486486486486487
 40
0.6756756756756757
 40
0.6756756756756757
 40
0.6756756756756757
 40
0.6756756756756757
 40
0.7027027027027027
 40
0.7027027027027027
 40
0.7027027027027027
 40
0.7027027027027027
 40
0.7297297297297297
 40
0.7297297297297297
 40
0.7297297297297297
 40
0.7297297297297297
 40
0.7567567567567568
 40
0.7567567567567568
 40
0.7567567567567568
 40
0.7567567567567568
 40
0.7837837837837838
 40
0.7837837837837838
 40
0.7837837837837838
 40
0.7837837837837838
 40
0.8108108108108109
 40
0.8108108108108109
 40
0.8108108108108109
 40
0.8108108108108109
 40
0.8378378378378378
 40
0.8378378378378378
 40
0.8378378378378378
 40
0.8378378378378378
 40
0.8648648648648649
 40
0.8648648648648649
 40
0.8648648648648649
 40
0.8648648648648649
 40
0.8918918918918919
 40
0.8918918918918919
 40
0.8918918918918919
 40
0.8918918918918919
 40
0.918918918918919
 40
0.918918918918919
 40
0.918918918918919
 40
0.918918918918919
 40
0.9459459459459459
 40
0.9459459459459459
 40
0.9459459459459459
 40
0.9459459459459459
 40
1.0
 40
1.0
 40
1.0
 40
1.0
 10
-68.9145
 20
20.955
 30
0.0
 10
-63.9444
 20
17.275
 30
0.0
 10
-58.9053
 20
13.8333
 30
0.0
 10
-54.9875
 20
8.8793
 30
0.0
 10
-54.9875
 20
8.8793
 30
0.0
 10
-53.4386
 20
6.9195
 30
0.0
 10
-51.3131
 20
3.8766
 30
0.0
 10
-52.5935
 20
1.0446
 30
0.0
 10
-52.5935
 20
1.0446
 30
0.0
 10
-53.386
 20
-0.7098
 30
0.0
 10
-55.315
 20
-1.7785
 30
0.0
 10
-57.055
 20
-2.764
 30
0.0
 10
-57.055
 20
-2.764
 30
0.0
 10
-58.0938
 20
-3.3521
 30
0.0
 10
-59.3939
 20
-3.8125
 30
0.0
 10
-60.1015
 20
-4.5037
 30
0.0
 10
-60.1015
 20
-4.5037
 30
0.0
 10
-61.2995
 20
-5.6745
 30
0.0
 10
-61.8848
 20
-8.2416
 30
0.0
 10
-62.7138
 20
-10.1617
 30
0.0
 10
-62.7138
 20
-10.1617
 30
0.0
 10
-64.3117
 20
-13.8758
 30
0.0
 10
-66.561
 20
-17.4409
 30
0.0
 10
-72.178
 20
-17.0164
 30
0.0
 10
-72.178
 20
-17.0164
 30
0.0
 10
-70.5514
 20
-8.3963
 30
0.0
 10
-75.4137
 20
-3.617
 30
0.0
 10
-78.8157
 20
1.0446
 30
0.0
 10
-78.8157
 20
1.0446
 30
0.0
 10
-73.6592
 20
0.6455
 30
0.0
 10
-70.8217
 20
4.0359
 30
0.0
 10
-72.178
 20
9.0955
 30
0.0
 10
-72.178
 20
9.0955
 30
0.0
 10
-72.9182
 20
5.8292
 30
0.0
 10
-74.6102
 20
2.6876
 30
0.0
 10
-78.4882
 20
2.3511
 30
0.0
 10
-78.4882
 20
2.3511
 30
0.0
 10
-79.2284
 20
2.2859
 30
0.0
 10
-79.9984
 20
2.4452
 30
0.0
 10
-80.8825
 20
2.3511
 30
0.0
 10
-80.8825
 20
2.3511
 30
0.0
 10
-83.2149
 20
2.0987
 30
0.0
 10
-84.4147
 20
-0.3589
 30
0.0
 10
-85.8869
 20
-1.1325
 30
0.0
 10
-85.8869
 20
-1.1325
 30
0.0
 10
-87.1157
 20
-1.7768
 30
0.0
 10
-89.1586
 20
-1.5993
 30
0.0
 10
-89.5867
 20
-0.3707
 30
0.0
 10
-89.5867
 20
-0.3707
 30
0.0
 10
-88.4123
 20
0.7486
 30
0.0
 10
-86.818
 20
0.7793
 30
0.0
 10
-85.8869
 20
2.1331
 30
0.0
 10
-85.8869
 20
2.1331
 30
0.0
 10
-84.9985
 20
3.4242
 30
0.0
 10
-84.9631
 20
5.4366
 30
0.0
 10
-83.0585
 20
5.8328
 30
0.0
 10
-83.0585
 20
5.8328
 30
0.0
 10
-82.5147
 20
5.7587
 30
0.0
 10
-82.1646
 20
5.4945
 30
0.0
 10
-81.5347
 20
5.5053
 30
0.0
 10
-81.5347
 20
5.5053
 30
0.0
 10
-81.6406
 20
6.1403
 30
0.0
 10
-83.1398
 20
6.2853
 30
0.0
 10
-83.6022
 20
6.9213
 30
0.0
 10
-83.6022
 20
6.9213
 30
0.0
 10
-83.9967
 20
6.6056
 30
0.0
 10
-83.0892
 20
6.2853
 30
0.0
 10
-83.4927
 20
5.9405
 30
0.0
 10
-83.4927
 20
5.9405
 30
0.0
 10
-86.9375
 20
5.7741
 30
0.0
 10
-87.0542
 20
0.5985
 30
0.0
 10
-90.5665
 20
0.0663
 30
0.0
 10
-90.5665
 20
0.0663
 30
0.0
 10
-93.6304
 20
-0.3994
 30
0.0
 10
-96.1873
 20
0.6147
 30
0.0
 10
-97.9644
 20
2.4588
 30
0.0
 10
-97.9644
 20
2.4588
 30
0.0
 10
-100.7221
 20
2.4932
 30
0.0
 10
-102.1989
 20
3.8105
 30
0.0
 10
-102.0994
 20
6.7023
 30
0.0
 10
-102.0994
 20
6.7023
 30
0.0
 10
-101.1356
 20
8.284
 30
0.0
 10
-98.9506
 20
8.7229
 30
0.0
 10
-97.0947
 20
9.3135
 30
0.0
 10
-97.0947
 20
9.3135
 30
0.0
 10
-95.2055
 20
9.9152
 30
0.0
 10
-93.4067
 20
10.6572
 30
0.0
 10
-92.0894
 20
11.8155
 30
0.0
 10
-92.0894
 20
11.8155
 30
0.0
 10
-91.6704
 20
12.1846
 30
0.0
 10
-90.905
 20
12.9248
 30
0.0
 10
-90.7829
 20
13.5573
 30
0.0
 10
-90.7829
 20
13.5573
 30
0.0
 10
-90.5954
 20
14.5317
 30
0.0
 10
-91.2154
 20
15.622
 30
0.0
 10
-91.1094
 20
16.495
 30
0.0
 10
-91.1094
 20
16.495
 30
0.0
 10
-91.0045
 20
17.3727
 30
0.0
 10
-90.3567
 20
18.3997
 30
0.0
 10
-89.8047
 20
18.996
 30
0.0
 10
-89.8047
 20
18.996
 30
0.0
 10
-88.1796
 20
20.7503
 30
0.0
 10
-85.9467
 20
22.2307
 30
0.0
 10
-83.6022
 20
23.35
 30
0.0
 10
-83.6022
 20
23.35
 30
0.0
 10
-82.9128
 20
20.0537
 30
0.0
 10
-81.6406
 20
14.7661
 30
0.0
 10
-78.4882
 20
13.5573
 30
0.0
 10
-78.4882
 20
13.5573
 30
0.0
 10
-76.4325
 20
12.7699
 30
0.0
 10
-73.0323
 20
13.0189
 30
0.0
 10
-71.961
 20
14.5371
 30
0.0
 10
-71.961
 20
14.5371
 30
0.0
 10
-71.2831
 20
15.4945
 30
0.0
 10
-71.3041
 20
16.6843
 30
0.0
 10
-70.981
 20
18.0178
 30
0.0
 10
-70.981
 20
18.0178
 30
0.0
 10
-71.883
 20
17.2324
 30
0.0
 10
-71.8107
 20
16.2852
 30
0.0
 10
-72.7227
 20
15.6238
 30
0.0
 10
-72.7227
 20
15.6238
 30
0.0
 10
-74.7723
 20
14.1362
 30
0.0
 10
-78.7914
 20
15.346
 30
0.0
 10
-80.012
 20
16.9295
 30
0.0
 10
-80.012
 20
16.9295
 30
0.0
 10
-81.4824
 20
18.8367
 30
0.0
 10
-82.8966
 20
22.8414
 30
0.0
 10
-82.8404
 20
25.8518
 30
0.0
 10
-82.8404
 20
25.8518
 30
0.0
 10
-82.8043
 20
27.7836
 30
0.0
 10
-82.0841
 20
29.0973
 30
0.0
 10
-79.794
 20
28.5715
 30
0.0
 10
-79.794
 20
28.5715
 30
0.0
 10
-78.1137
 20
28.1863
 30
0.0
 10
-75.8652
 20
26.4137
 30
0.0
 10
-73.5922
 20
26.1775
 30
0.0
 10
-73.5922
 20
26.1775
 30
0.0
 10
-71.2036
 20
25.9323
 30
0.0
 10
-69.1243
 20
25.9323
 30
0.0
 10
-68.48
 20
24.1118
 30
0.0
 10
-68.48
 20
24.1118
 30
0.0
 10
-68.0984
 20
23.0351
 30
0.0
 10
-68.4421
 20
21.7421
 30
0.0
 10
-68.9145
 20
20.955
 30
0.0
  0
SPLINE
  5
B1
330
1F
100
AcDbEntity
  8
layer 1
 62
   250
100
AcDbSpline
210
0.0
220
0.0
230
1.0
 70
    11
 71
     3
 72
   116
 73
   112
 74
     0
 42
0.000000001
 43
0.0000000001
 40
0.0
 40
0.0
 40
0.0
 40
0.0
 40
0.0344827586206897
 40
0.0344827586206897
 40
0.0344827586206897
 40
0.0344827586206897
 40
0.0689655172413793
 40
0.0689655172413793
 40
0.0689655172413793
 40
0.0689655172413793
 40
0.103448275862069
 40
0.103448275862069
 40
0.103448275862069
 40
0.103448275862069
 40
0.1379310344827586
 40
0.1379310344827586
 40
0.1379310344827586
 40
0.1379310344827586
 40
0.1724137931034483
 40
0.1724137931034483
 40
0.1724137931034483
 40
0.1724137931034483
 40
0.2068965517241379
 40
0.2068965517241379
 40
0.2068965517241379
 40
0.2068965517241379
 40
0.2413793103448276
 40
0.2413793103448276
 40
0.2413793103448276
 40
0.2413793103448276
 40
0.2758620689655172
 40
0.2758620689655172
 40
0.2758620689655172
 40
0.2758620689655172
 40
0.3103448275862069
 40
0.3103448275862069
 40
0.3103448275862069
 40
0.3103448275862069
 40
0.3448275862068966
 40
0.3448275862068966
 40
0.3448275862068966
 40
0.3448275862068966
 40
0.3793103448275862
 40
0.3793103448275862
 40
0.3793103448275862
 40
0.3793103448275862
 40
0.4137931034482759
 40
0.4137931034482759
 40
0.4137931034482759
 40
0.4137931034482759
 40
0.4482758620689655
 40
0.4482758620689655
 40
0.4482758620689655
 40
0.4482758620689655
 40
0.4827586206896552
 40
0.4827586206896552
 40
0.4827586206896552
 40
0.4827586206896552
 40
0.5172413793103449
 40
0.5172413793103449
 40
0.5172413793103449
 40
0.5172413793103449
 40
0.5517241379310345
 40
0.5517241379310345
 40
0.5517241379310345
 40
0.5517241379310345
 40
0.5862068965517241
 40
0.5862068965517241
 40
0.5862068965517241
 40
0.5862068965517241
 40
0.6206896551724138
 40
0.6206896551724138
 40
0.6206896551724138
 40
0.6206896551724138
 40
0.6551724137931034
 40
0.6551724137931034
 40
0.6551724137931034
 40
0.6551724137931034
 40
0.6896551724137931
 40
0.6896551724137931
 40
0.6896551724137931
 40
0.6896551724137931
 40
0.7241379310344828
 40
0.7241379310344828
 40
0.7241379310344828
 40
0.7241379310344828
 40
0.7586206896551724
 40
0.7586206896551724
 40
0.7586206896551724
 40
0.7586206896551724
 40
0.7931034482758621
 40
0.7931034482758621
 40
0.7931034482758621
 40
0.7931034482758621
 40
0.8275862068965517
 40
0.8275862068965517
 40
0.8275862068965517
 40
0.8275862068965517
 40
0.8620689655172413
 40
0.8620689655172413
 40
0.8620689655172413
 40
0.8620689655172413
 40
0.896551724137931
 40
0.896551724137931
 40
0.896551724137931
 40
0.896551724137931
 40
0.9310344827586207
 40
0.9310344827586207
 40
0.9310344827586207
 40
0.9310344827586207
 40
1.0
 40
1.0
 40
1.0
 40
1.0
 10
-66.9434
 20
99.3872
 30
0.0
 10
-67.0323
 20
94.0514
 30
0.0
 10
-68.4391
 20
89.2231
 30
0.0
 10
-71.4669
 20
86.5118
 30
0.0
 10
-71.4669
 20
86.5118
 30
0.0
 10
-73.5588
 20
84.6402
 30
0.0
 10
-76.8696
 20
84.9537
 30
0.0
 10
-80.5146
 20
85.1207
 30
0.0
 10
-80.5146
 20
85.1207
 30
0.0
 10
-84.0436
 20
85.2814
 30
0.0
 10
-88.2538
 20
84.5327
 30
0.0
 10
-90.0271
 20
82.2181
 30
0.0
 10
-90.0271
 20
82.2181
 30
0.0
 10
-87.6498
 20
83.1279
 30
0.0
 10
-85.0034
 20
83.884
 30
0.0
 10
-81.2112
 20
83.6114
 30
0.0
 10
-81.2112
 20
83.6114
 30
0.0
 10
-68.628
 20
82.7111
 30
0.0
 10
-58.3916
 20
73.1026
 30
0.0
 10
-58.3593
 20
60.0641
 30
0.0
 10
-58.3593
 20
60.0641
 30
0.0
 10
-58.3383
 20
52.1402
 30
0.0
 10
-62.6601
 20
48.2728
 30
0.0
 10
-67.2901
 20
44.7509
 30
0.0
 10
-67.2901
 20
44.7509
 30
0.0
 10
-66.1411
 20
47.9688
 30
0.0
 10
-64.7834
 20
52.5215
 30
0.0
 10
-65.9001
 20
56.5851
 30
0.0
 10
-65.9001
 20
56.5851
 30
0.0
 10
-66.7229
 20
45.1521
 30
0.0
 10
-75.4313
 20
40.9848
 30
0.0
 10
-88.2869
 20
41.9686
 30
0.0
 10
-88.2869
 20
41.9686
 30
0.0
 10
-86.1574
 20
43.5131
 30
0.0
 10
-84.3035
 20
45.3306
 30
0.0
 10
-83.7626
 20
48.465
 30
0.0
 10
-83.7626
 20
48.465
 30
0.0
 10
-85.9735
 20
44.3332
 30
0.0
 10
-90.3676
 20
41.7691
 30
0.0
 10
-96.6383
 20
42.0844
 30
0.0
 10
-96.6383
 20
42.0844
 30
0.0
 10
-96.0897
 20
43.1206
 30
0.0
 10
-95.0757
 20
43.694
 30
0.0
 10
-94.3184
 20
44.5221
 30
0.0
 10
-94.3184
 20
44.5221
 30
0.0
 10
-92.096
 20
46.9483
 30
0.0
 10
-90.1346
 20
49.6826
 30
0.0
 10
-88.8657
 20
53.2202
 30
0.0
 10
-88.8657
 20
53.2202
 30
0.0
 10
-83.4503
 20
51.7432
 30
0.0
 10
-78.9615
 20
54.3251
 30
0.0
 10
-78.4268
 20
58.7878
 30
0.0
 10
-78.4268
 20
58.7878
 30
0.0
 10
-77.6654
 20
65.1462
 30
0.0
 10
-82.5355
 20
69.8922
 30
0.0
 10
-86.0822
 20
72.3601
 30
0.0
 10
-86.0822
 20
72.3601
 30
0.0
 10
-80.2419
 20
72.475
 30
0.0
 10
-77.7927
 20
75.98
 30
0.0
 10
-77.2663
 20
81.4078
 30
0.0
 10
-77.2663
 20
81.4078
 30
0.0
 10
-79.0376
 20
82.2987
 30
0.0
 10
-81.5922
 20
82.2685
 30
0.0
 10
-83.7626
 20
82.1033
 30
0.0
 10
-83.7626
 20
82.1033
 30
0.0
 10
-87.1391
 20
81.8475
 30
0.0
 10
-89.5987
 20
80.4175
 30
0.0
 10
-91.534
 20
78.7392
 30
0.0
 10
-91.534
 20
78.7392
 30
0.0
 10
-91.9447
 20
79.2961
 30
0.0
 10
-92.2067
 20
80.001
 30
0.0
 10
-92.8103
 20
80.3634
 30
0.0
 10
-92.8103
 20
80.3634
 30
0.0
 10
-96.1661
 20
79.7899
 30
0.0
 10
-100.8722
 20
79.0202
 30
0.0
 10
-101.8581
 20
82.2181
 30
0.0
 10
-101.8581
 20
82.2181
 30
0.0
 10
-101.8749
 20
83.056
 30
0.0
 10
-101.663
 20
83.4737
 30
0.0
 10
-101.975
 20
84.0762
 30
0.0
 10
-101.975
 20
84.0762
 30
0.0
 10
-101.2284
 20
87.641
 30
0.0
 10
-98.8744
 20
89.8478
 30
0.0
 10
-96.4062
 20
91.8476
 30
0.0
 10
-96.4062
 20
91.8476
 30
0.0
 10
-95.6699
 20
92.4462
 30
0.0
 10
-94.8836
 20
93.1991
 30
0.0
 10
-93.9697
 20
93.3569
 30
0.0
 10
-93.9697
 20
93.3569
 30
0.0
 10
-93.93
 20
92.4075
 30
0.0
 10
-94.3708
 20
91.384
 30
0.0
 10
-94.0857
 20
90.5725
 30
0.0
 10
-94.0857
 20
90.5725
 30
0.0
 10
-93.0119
 20
91.876
 30
0.0
 10
-92.3979
 20
93.3424
 30
0.0
 10
-91.0704
 20
94.4002
 30
0.0
 10
-91.0704
 20
94.4002
 30
0.0
 10
-88.3443
 20
96.5738
 30
0.0
 10
-84.403
 20
97.52
 30
0.0
 10
-79.9349
 20
97.9961
 30
0.0
 10
-79.9349
 20
97.9961
 30
0.0
 10
-80.408
 20
96.6866
 30
0.0
 10
-81.7417
 20
95.2451
 30
0.0
 10
-81.443
 20
92.7763
 30
0.0
 10
-81.443
 20
92.7763
 30
0.0
 10
-80.5688
 20
93.4457
 30
0.0
 10
-80.2179
 20
94.7626
 30
0.0
 10
-79.4701
 20
95.6756
 30
0.0
 10
-79.4701
 20
95.6756
 30
0.0
 10
-77.1567
 20
98.4976
 30
0.0
 10
-72.2553
 20
99.688
 30
0.0
 10
-66.9434
 20
99.3872
 30
0.0
  0
SPLINE
  5
B2
330
1F
100
AcDbEntity
  8
layer 1
 62
   250
100
AcDbSpline
210
0.0
220
0.0
230
1.0
 70
    11
 71
     3
 72
    12
 73
     8
 74
     0
 42
0.000000001
 43
0.0000000001
 40
0.0
 40
0.0
 40
0.0
 40
0.0
 40
0.3333333333333333
 40
0.3333333333333333
 40
0.3333333333333333
 40
0.3333333333333333
 40
1.0
 40
1.0
 40
1.0
 40
1.0
 10
-94.7826
 20
76.8844
 30
0.0
 10
-94.3753
 20
76.5212
 30
0.0
 10
-93.173
 20
76.5315
 30
0.0
 10
-93.1585
 20
77.2323
 30
0.0
 10
-93.1585
 20
77.2323
 30
0.0
 10
-93.4688
 20
77.8611
 30
0.0
 10
-94.7711
 20
77.5769
 30
0.0
 10
-94.7826
 20
76.8844
 30
0.0
  0
SPLINE
  5
B3
330
1F
100
AcDbEntity
  8
layer 1
 62
   250
100
AcDbSpline
210
0.0
220
0.0
230
1.0
 70
    11
 71
     3
 72
    16
 73
    12
 74
     0
 42
0.000000001
 43
0.0000000001
 40
0.0
 40
0.0
 40
0.0
 40
0.0
 40
0.25
 40
0.25
 40
0.25
 40
0.25
 40
0.5
 40
0.5
 40
0.5
 40
0.5
 40
1.0
 40
1.0
 40
1.0
 40
1.0
 10
-88.866
 20
76.9993
 30
0.0
 10
-88.5371
 20
74.7611
 30
0.0
 10
-84.4794
 20
76.0729
 30
0.0
 10
-84.5744
 20
78.0438
 30
0.0
 10
-84.5744
 20
78.0438
 30
0.0
 10
-84.6226
 20
79.0433
 30
0.0
 10
-85.366
 20
79.5122
 30
0.0
 10
-86.894
 20
79.2052
 30
0.0
 10
-86.894
 20
79.2052
 30
0.0
 10
-87.9479
 20
78.992
 30
0.0
 10
-89.0842
 20
78.4784
 30
0.0
 10
-88.866
 20
76.9993
 30
0.0
  0
SPLINE
  5
B4
330
1F
100
AcDbEntity
  8
layer 1
 62
   250
100
AcDbSpline
210
0.0
220
0.0
230
1.0
 70
    11
 71
     3
 72
    60
 73
    56
 74
     0
 42
0.000000001
 43
0.0000000001
 40
0.0
 40
0.0
 40
0.0
 40
0.0
 40
0.0666666666666667
 40
0.0666666666666667
 40
0.0666666666666667
 40
0.0666666666666667
 40
0.1333333333333333
 40
0.1333333333333333
 40
0.1333333333333333
 40
0.1333333333333333
 40
0.2
 40
0.2
 40
0.2
 40
0.2
 40
0.2666666666666667
 40
0.2666666666666667
 40
0.2666666666666667
 40
0.2666666666666667
 40
0.3333333333333333
 40
0.3333333333333333
 40
0.3333333333333333
 40
0.3333333333333333
 40
0.4
 40
0.4
 40
0.4
 40
0.4
 40
0.4666666666666667
 40
0.4666666666666667
 40
0.4666666666666667
 40
0.4666666666666667
 40
0.5333333333333333
 40
0.5333333333333333
 40
0.5333333333333333
 40
0.5333333333333333
 40
0.6
 40
0.6
 40
0.6
 40
0.6
 40
0.6666666666666666
 40
0.6666666666666666
 40
0.6666666666666666
 40
0.6666666666666666
 40
0.7333333333333333
 40
0.7333333333333333
 40
0.7333333333333333
 40
0.7333333333333333
 40
0.8
 40
0.8
 40
0.8
 40
0.8
 40
0.8666666666666667
 40
0.8666666666666667
 40
0.8666666666666667
 40
0.8666666666666667
 40
1.0
 40
1.0
 40
1.0
 40
1.0
 10
-79.1225
 20
81.1748
 30
0.0
 10
-80.6632
 20
76.9117
 30
0.0
 10
-82.9535
 20
72.7947
 30
0.0
 10
-88.4024
 20
72.8237
 30
0.0
 10
-88.4024
 20
72.8237
 30
0.0
 10
-87.8079
 20
71.9548
 30
0.0
 10
-86.7803
 20
71.5883
 30
0.0
 10
-85.9667
 20
70.969
 30
0.0
 10
-85.9667
 20
70.969
 30
0.0
 10
-83.103
 20
68.7882
 30
0.0
 10
-79.3564
 20
65.47
 30
0.0
 10
-79.9352
 20
59.8323
 30
0.0
 10
-79.9352
 20
59.8323
 30
0.0
 10
-80.2381
 20
56.8673
 30
0.0
 10
-83.4328
 20
53.9127
 30
0.0
 10
-87.243
 20
54.4953
 30
0.0
 10
-87.243
 20
54.4953
 30
0.0
 10
-91.5761
 20
55.1608
 30
0.0
 10
-85.4007
 20
58.7638
 30
0.0
 10
-87.01
 20
61.4576
 30
0.0
 10
-87.01
 20
61.4576
 30
0.0
 10
-87.7984
 20
60.7515
 30
0.0
 10
-90.0618
 20
60.1301
 30
0.0
 10
-90.9547
 20
61.2255
 30
0.0
 10
-90.9547
 20
61.2255
 30
0.0
 10
-90.936
 20
61.3602
 30
0.0
 10
-90.9798
 20
61.4313
 30
0.0
 10
-91.0707
 20
61.4576
 30
0.0
 10
-91.0707
 20
61.4576
 30
0.0
 10
-90.7646
 20
64.7255
 30
0.0
 10
-87.9364
 20
67.8817
 30
0.0
 10
-90.1423
 20
71.5486
 30
0.0
 10
-90.1423
 20
71.5486
 30
0.0
 10
-91.4414
 20
70.7736
 30
0.0
 10
-93.8051
 20
70.3976
 30
0.0
 10
-95.2463
 20
71.3168
 30
0.0
 10
-95.2463
 20
71.3168
 30
0.0
 10
-94.8223
 20
72.1292
 30
0.0
 10
-93.4803
 20
72.025
 30
0.0
 10
-93.1585
 20
72.9398
 30
0.0
 10
-93.1585
 20
72.9398
 30
0.0
 10
-94.4067
 20
73.8442
 30
0.0
 10
-96.6031
 20
73.3084
 30
0.0
 10
-97.2183
 20
72.2452
 30
0.0
 10
-97.2183
 20
72.2452
 30
0.0
 10
-100.5134
 20
74.6412
 30
0.0
 10
-96.254
 20
79.0184
 30
0.0
 10
-93.6233
 20
79.8997
 30
0.0
 10
-93.6233
 20
79.8997
 30
0.0
 10
-92.6457
 20
79.6774
 30
0.0
 10
-92.2218
 20
78.9035
 30
0.0
 10
-91.5343
 20
78.3925
 30
0.0
 10
-91.5343
 20
78.3925
 30
0.0
 10
-89.0028
 20
80.8219
 30
0.0
 10
-83.9876
 20
82.185
 30
0.0
 10
-79.1225
 20
81.1748
 30
0.0
  0
ENDSEC
  0
SECTION
  2
OBJECTS
  0
DICTIONARY
  5
C
330
0
100
AcDbDictionary
281
     1
  3
ACAD_DETAILVIEWSTYLE
350
F0
  3
ACAD_GROUP
350
D
  3
ACAD_LAYOUT
350
1A
  3
ACAD_MATERIAL
350
43
  3
ACAD_MLEADERSTYLE
350
6B
  3
ACAD_MLINESTYLE
350
17
  3
ACAD_PLOTSETTINGS
350
19
  3
ACAD_PLOTSTYLENAME
350
E
  3
ACAD_SCALELIST
350
47
  3
ACAD_SECTIONVIEWSTYLE
350
F1
  3
ACAD_TABLESTYLE
350
69
  3
ACAD_VISUALSTYLE
350
2A
  3
ACDB_RECOMPOSE_DATA
350
ED
  3
AcDbVariableDictionary
350
B5
  0
SUN
  5
6D
330
29
100
AcDbSun
 90
        1
290
     0
 63
     7
421
 16777215
 40
1.0
291
     1
 91
  2455826
 92
 54000000
292
     0
 70
     2
 71
   256
280
     1
  0
DICTIONARY
  5
F0
102
{ACAD_REACTORS
330
C
102
}
330
C
100
AcDbDictionary
281
     1
  0
DICTIONARY
  5
D
102
{ACAD_REACTORS
330
C
102
}
330
C
100
AcDbDictionary
281
     1
  0
DICTIONARY
  5
1A
102
{ACAD_REACTORS
330
C
102
}
330
C
100
AcDbDictionary
281
     1
  3
Layout1
350
1E
  3
Layout2
350
26
  3
Model
350
22
  0
DICTIONARY
  5
43
102
{ACAD_REACTORS
330
C
102
}
330
C
100
AcDbDictionary
281
     1
  3
ByBlock
350
45
  3
ByLayer
350
44
  3
Global
350
46
  0
DICTIONARY
  5
6B
102
{ACAD_REACTORS
330
C
102
}
330
C
100
AcDbDictionary
281
     1
  3
Standard
350
6C
  0
DICTIONARY
  5
17
102
{ACAD_REACTORS
330
C
102
}
330
C
100
AcDbDictionary
281
     1
  3
Standard
350
18
  0
DICTIONARY
  5
19
102
{ACAD_REACTORS
330
C
102
}
330
C
100
AcDbDictionary
281
     1
  0
ACDBDICTIONARYWDFLT
  5
E
102
{ACAD_REACTORS
330
C
102
}
330
C
100
AcDbDictionary
281
     1
  3
Normal
350
F
100
AcDbDictionaryWithDefault
340
F
  0
DICTIONARY
  5
47
102
{ACAD_REACTORS
330
C
102
}
330
C
100
AcDbDictionary
281
     1
  3
A0
350
48
  3
A1
350
49
  3
A2
350
4A
  3
A3
350
4B
  3
A4
350
4C
  3
A5
350
4D
  3
A6
350
4E
  3
A7
350
4F
  3
A8
350
50
  3
A9
350
51
  3
B0
350
52
  3
B1
350
53
  3
B2
350
54
  3
B3
350
55
  3
B4
350
56
  3
B5
350
57
  3
B6
350
58
  3
B7
350
59
  3
B8
350
5A
  3
B9
350
5B
  3
C0
350
5C
  3
C1
350
5D
  3
C2
350
5E
  3
C3
350
5F
  3
C4
350
60
  3
C5
350
61
  3
C6
350
62
  3
C7
350
63
  3
C8
350
64
  3
C9
350
65
  3
D0
350
66
  3
D1
350
67
  3
D2
350
68
  0
DICTIONARY
  5
F1
102
{ACAD_REACTORS
330
C
102
}
330
C
100
AcDbDictionary
281
     1
  0
DICTIONARY
  5
69
102
{ACAD_REACTORS
330
C
102
}
330
C
100
AcDbDictionary
281
     1
  3
Standard
350
6A
  0
DICTIONARY
  5
2A
102
{ACAD_REACTORS
330
C
102
}
330
C
100
AcDbDictionary
281
     1
  3
2dWireframe
350
2F
  3
Basic
350
32
  3
Brighten
350
36
  3
ColorChange
350
3A
  3
Conceptual
350
34
  3
Dim
350
35
  3
EdgeColorOff
350
3D
  3
Facepattern
350
39
  3
Flat
350
2B
  3
FlatWithEdges
350
2C
  3
Gouraud
350
2D
  3
GouraudWithEdges
350
2E
  3
Hidden
350
31
  3
JitterOff
350
3B
  3
Linepattern
350
38
  3
OverhangOff
350
3C
  3
Realistic
350
33
  3
Shaded
350
42
  3
Shaded with edges
350
41
  3
Shades of Gray
350
3E
  3
Sketchy
350
3F
  3
Thicken
350
37
  3
Wireframe
350
30
  3
X-Ray
350
40
  0
XRECORD
  5
ED
102
{ACAD_REACTORS
330
C
102
}
330
C
100
AcDbXrecord
280
     1
 90
        1
330
6A
  0
DICTIONARY
  5
B5
102
{ACAD_REACTORS
330
C
102
}
330
C
100
AcDbDictionary
281
     1
  3
CANNOSCALE
350
B6
  3
CMLEADERSTYLE
350
EF
  3
CTABLESTYLE
350
EE
  3
XCLIPFRAME
350
B7
  0
LAYOUT
  5
1E
102
{ACAD_REACTORS
330
1A
102
}
330
1A
100
AcDbPlotSettings
  1

  2
none_device
  4

  6

 40
0.0
 41
0.0
 42
0.0
 43
0.0
 44
0.0
 45
0.0
 46
0.0
 47
0.0
 48
0.0
 49
0.0
140
0.0
141
0.0
142
1.0
143
1.0
 70
   688
 72
     0
 73
     0
 74
     5
  7

 75
    16
 76
     0
 77
     2
 78
   300
147
1.0
148
0.0
149
0.0
100
AcDbLayout
  1
Layout1
 70
     1
 71
     1
 10
0.0
 20
0.0
 11
12.0
 21
9.0
 12
0.0
 22
0.0
 32
0.0
 14
1.000000000000000E+20
 24
1.000000000000000E+20
 34
1.000000000000000E+20
 15
-1.000000000000000E+20
 25
-1.000000000000000E+20
 35
-1.000000000000000E+20
146
0.0
 13
0.0
 23
0.0
 33
0.0
 16
1.0
 26
0.0
 36
0.0
 17
0.0
 27
1.0
 37
0.0
 76
     0
330
1B
  0
LAYOUT
  5
26
102
{ACAD_REACTORS
330
1A
102
}
330
1A
100
AcDbPlotSettings
  1

  2
none_device
  4

  6

 40
0.0
 41
0.0
 42
0.0
 43
0.0
 44
0.0
 45
0.0
 46
0.0
 47
0.0
 48
0.0
 49
0.0
140
0.0
141
0.0
142
1.0
143
1.0
 70
   688
 72
     0
 73
     0
 74
     5
  7

 75
    16
 76
     0
 77
     2
 78
   300
147
1.0
148
0.0
149
0.0
100
AcDbLayout
  1
Layout2
 70
     1
 71
     2
 10
0.0
 20
0.0
 11
0.0
 21
0.0
 12
0.0
 22
0.0
 32
0.0
 14
0.0
 24
0.0
 34
0.0
 15
0.0
 25
0.0
 35
0.0
146
0.0
 13
0.0
 23
0.0
 33
0.0
 16
1.0
 26
0.0
 36
0.0
 17
0.0
 27
1.0
 37
0.0
 76
     0
330
23
  0
LAYOUT
  5
22
102
{ACAD_REACTORS
330
1A
102
}
330
1A
100
AcDbPlotSettings
  1

  2
none_device
  4
Letter_(8.50_x_11.00_Inches)
  6

 40
6.35
 41
6.35
 42
6.35000508
 43
6.35000508
 44
215.9
 45
279.4
 46
0.0
 47
0.0
 48
0.0
 49
0.0
140
0.0
141
0.0
142
1.0
143
1.0
 70
  1712
 72
     0
 73
     0
 74
     0
  7

 75
     0
 76
     0
 77
     2
 78
   300
147
1.0
148
0.0
149
0.0
100
AcDbLayout
  1
Model
 70
     1
 71
     0
 10
0.0
 20
0.0
 11
12.0
 21
9.0
 12
0.0
 22
0.0
 32
0.0
 14
-103.0395
 24
-88.8463
 34
0.0
 15
101.5561
 25
99.4341
 35
0.0
146
0.0
 13
0.0
 23
0.0
 33
0.0
 16
1.0
 26
0.0
 36
0.0
 17
0.0
 27
1.0
 37
0.0
 76
     0
330
1F
331
29
  0
MATERIAL
  5
45
102
{ACAD_REACTORS
330
43
102
}
330
43
100
AcDbMaterial
  1
ByBlock
 72
     1
 94
      127
  0
MATERIAL
  5
44
102
{ACAD_REACTORS
330
43
102
}
330
43
100
AcDbMaterial
  1
ByLayer
 72
     1
 94
      127
  0
MATERIAL
  5
46
102
{ACAD_REACTORS
330
43
102
}
330
43
100
AcDbMaterial
  1
Global
 72
     1
 94
      127
  0
MLEADERSTYLE
  5
6C
102
{ACAD_REACTORS
330
6B
102
}
102
{ACAD_XDICTIONARY
360
EB
102
}
330
6B
100
AcDbMLeaderStyle
170
     2
171
     1
172
     0
 90
        2
 40
0.0
 41
0.0
173
     1
 91
-1056964608
340
14
 92
       -2
290
     1
 42
0.09
291
     1
 43
0.36
  3
Standard
341
0
 44
0.18
300

342
11
174
     1
178
     6
175
     1
176
     0
 93
-1056964608
 45
0.18
292
     0
297
     0
 46
0.18
343
0
 94
-1056964608
 47
1.0
 49
1.0
140
1.0
293
     1
141
0.0
294
     1
177
     0
142
1.0
295
     0
296
     0
143
0.125
1001
ACAD_MLEADERVER
1070
     2
  0
MLINESTYLE
  5
18
102
{ACAD_REACTORS
330
17
102
}
330
17
100
AcDbMlineStyle
  2
Standard
 70
     0
  3

 62
   256
 51
90.0
 52
90.0
 71
     2
 49
0.5
 62
   256
  6
BYLAYER
 49
-0.5
 62
   256
  6
BYLAYER
  0
ACDBPLACEHOLDER
  5
F
102
{ACAD_REACTORS
330
E
102
}
330
E
  0
SCALE
  5
48
102
{ACAD_REACTORS
330
47
102
}
330
47
100
AcDbScale
 70
     0
300
1:1
140
1.0
141
1.0
290
     1
  0
SCALE
  5
49
102
{ACAD_REACTORS
330
47
102
}
330
47
100
AcDbScale
 70
     0
300
1:2
140
1.0
141
2.0
290
     0
  0
SCALE
  5
4A
102
{ACAD_REACTORS
330
47
102
}
330
47
100
AcDbScale
 70
     0
300
1:4
140
1.0
141
4.0
290
     0
  0
SCALE
  5
4B
102
{ACAD_REACTORS
330
47
102
}
330
47
100
AcDbScale
 70
     0
300
1:5
140
1.0
141
5.0
290
     0
  0
SCALE
  5
4C
102
{ACAD_REACTORS
330
47
102
}
330
47
100
AcDbScale
 70
     0
300
1:8
140
1.0
141
8.0
290
     0
  0
SCALE
  5
4D
102
{ACAD_REACTORS
330
47
102
}
330
47
100
AcDbScale
 70
     0
300
1:10
140
1.0
141
10.0
290
     0
  0
SCALE
  5
4E
102
{ACAD_REACTORS
330
47
102
}
330
47
100
AcDbScale
 70
     0
300
1:16
140
1.0
141
16.0
290
     0
  0
SCALE
  5
4F
102
{ACAD_REACTORS
330
47
102
}
330
47
100
AcDbScale
 70
     0
300
1:20
140
1.0
141
20.0
290
     0
  0
SCALE
  5
50
102
{ACAD_REACTORS
330
47
102
}
330
47
100
AcDbScale
 70
     0
300
1:30
140
1.0
141
30.0
290
     0
  0
SCALE
  5
51
102
{ACAD_REACTORS
330
47
102
}
330
47
100
AcDbScale
 70
     0
300
1:40
140
1.0
141
40.0
290
     0
  0
SCALE
  5
52
102
{ACAD_REACTORS
330
47
102
}
330
47
100
AcDbScale
 70
     0
300
1:50
140
1.0
141
50.0
290
     0
  0
SCALE
  5
53
102
{ACAD_REACTORS
330
47
102
}
330
47
100
AcDbScale
 70
     0
300
1:100
140
1.0
141
100.0
290
     0
  0
SCALE
  5
54
102
{ACAD_REACTORS
330
47
102
}
330
47
100
AcDbScale
 70
     0
300
2:1
140
2.0
141
1.0
290
     0
  0
SCALE
  5
55
102
{ACAD_REACTORS
330
47
102
}
330
47
100
AcDbScale
 70
     0
300
4:1
140
4.0
141
1.0
290
     0
  0
SCALE
  5
56
102
{ACAD_REACTORS
330
47
102
}
330
47
100
AcDbScale
 70
     0
300
8:1
140
8.0
141
1.0
290
     0
  0
SCALE
  5
57
102
{ACAD_REACTORS
330
47
102
}
330
47
100
AcDbScale
 70
     0
300
10:1
140
10.0
141
1.0
290
     0
  0
SCALE
  5
58
102
{ACAD_REACTORS
330
47
102
}
330
47
100
AcDbScale
 70
     0
300
100:1
140
100.0
141
1.0
290
     0
  0
SCALE
  5
59
102
{ACAD_REACTORS
330
47
102
}
330
47
100
AcDbScale
 70
     0
300
1/128\" = 1\'-0\"
140
0.0078125
141
12.0
290
     0
  0
SCALE
  5
5A
102
{ACAD_REACTORS
330
47
102
}
330
47
100
AcDbScale
 70
     0
300
1/64\" = 1\'-0\"
140
0.015625
141
12.0
290
     0
  0
SCALE
  5
5B
102
{ACAD_REACTORS
330
47
102
}
330
47
100
AcDbScale
 70
     0
300
1/32\" = 1\'-0\"
140
0.03125
141
12.0
290
     0
  0
SCALE
  5
5C
102
{ACAD_REACTORS
330
47
102
}
330
47
100
AcDbScale
 70
     0
300
1/16\" = 1\'-0\"
140
0.0625
141
12.0
290
     0
  0
SCALE
  5
5D
102
{ACAD_REACTORS
330
47
102
}
330
47
100
AcDbScale
 70
     0
300
3/32\" = 1\'-0\"
140
0.09375
141
12.0
290
     0
  0
SCALE
  5
5E
102
{ACAD_REACTORS
330
47
102
}
330
47
100
AcDbScale
 70
     0
300
1/8\" = 1\'-0\"
140
0.125
141
12.0
290
     0
  0
SCALE
  5
5F
102
{ACAD_REACTORS
330
47
102
}
330
47
100
AcDbScale
 70
     0
300
3/16\" = 1\'-0\"
140
0.1875
141
12.0
290
     0
  0
SCALE
  5
60
102
{ACAD_REACTORS
330
47
102
}
330
47
100
AcDbScale
 70
     0
300
1/4\" = 1\'-0\"
140
0.25
141
12.0
290
     0
  0
SCALE
  5
61
102
{ACAD_REACTORS
330
47
102
}
330
47
100
AcDbScale
 70
     0
300
3/8\" = 1\'-0\"
140
0.375
141
12.0
290
     0
  0
SCALE
  5
62
102
{ACAD_REACTORS
330
47
102
}
330
47
100
AcDbScale
 70
     0
300
1/2\" = 1\'-0\"
140
0.5
141
12.0
290
     0
  0
SCALE
  5
63
102
{ACAD_REACTORS
330
47
102
}
330
47
100
AcDbScale
 70
     0
300
3/4\" = 1\'-0\"
140
0.75
141
12.0
290
     0
  0
SCALE
  5
64
102
{ACAD_REACTORS
330
47
102
}
330
47
100
AcDbScale
 70
     0
300
1\" = 1\'-0\"
140
1.0
141
12.0
290
     0
  0
SCALE
  5
65
102
{ACAD_REACTORS
330
47
102
}
330
47
100
AcDbScale
 70
     0
300
1-1/2\" = 1\'-0\"
140
1.5
141
12.0
290
     0
  0
SCALE
  5
66
102
{ACAD_REACTORS
330
47
102
}
330
47
100
AcDbScale
 70
     0
300
3\" = 1\'-0\"
140
3.0
141
12.0
290
     0
  0
SCALE
  5
67
102
{ACAD_REACTORS
330
47
102
}
330
47
100
AcDbScale
 70
     0
300
6\" = 1\'-0\"
140
6.0
141
12.0
290
     0
  0
SCALE
  5
68
102
{ACAD_REACTORS
330
47
102
}
330
47
100
AcDbScale
 70
     0
300
1\'-0\" = 1\'-0\"
140
12.0
141
12.0
290
     0
  0
TABLESTYLE
  5
6A
102
{ACAD_REACTORS
330
69
102
}
102
{ACAD_XDICTIONARY
360
E8
102
}
330
69
100
AcDbTableStyle
  3
Standard
 70
     0
 71
     0
 40
0.06
 41
0.06
280
     0
281
     0
  7
Standard
140
0.18
170
     2
 62
     0
 63
   257
283
     0
 90
        4
 91
        0
  1

274
    -2
284
     1
 64
     0
275
    -2
285
     1
 65
     0
276
    -2
286
     1
 66
     0
277
    -2
287
     1
 67
     0
278
    -2
288
     1
 68
     0
279
    -2
289
     1
 69
     0
  7
Standard
140
0.25
170
     5
 62
     0
 63
   257
283
     0
 90
        4
 91
        0
  1

274
    -2
284
     1
 64
     0
275
    -2
285
     1
 65
     0
276
    -2
286
     1
 66
     0
277
    -2
287
     1
 67
     0
278
    -2
288
     1
 68
     0
279
    -2
289
     1
 69
     0
  7
Standard
140
0.18
170
     5
 62
     0
 63
   257
283
     0
 90
        4
 91
        0
  1

274
    -2
284
     1
 64
     0
275
    -2
285
     1
 65
     0
276
    -2
286
     1
 66
     0
277
    -2
287
     1
 67
     0
278
    -2
288
     1
 68
     0
279
    -2
289
     1
 69
     0
  0
VISUALSTYLE
  5
2F
102
{ACAD_REACTORS
330
2A
102
}
102
{ACAD_XDICTIONARY
360
C0
102
}
330
2A
100
AcDbVisualStyle
  2
2dWireframe
 70
     4
 71
     0
 72
     2
 73
     0
 90
        0
 40
0.6
 41
30.0
 62
     5
 63
     7
421
 16777215
 74
     1
 91
        4
 64
     7
 65
   257
 75
     1
175
     1
 42
1.0
 92
        0
 66
   257
 43
1.0
 76
     1
 77
     6
 78
     2
 67
     7
 79
     5
170
     0
171
     0
290
     0
174
     0
 93
        1
 44
0.0
173
     0
291
     0
 45
0.0
  0
VISUALSTYLE
  5
32
102
{ACAD_REACTORS
330
2A
102
}
102
{ACAD_XDICTIONARY
360
C6
102
}
330
2A
100
AcDbVisualStyle
  2
Basic
 70
     7
 71
     1
 72
     0
 73
     1
 90
        0
 40
0.6
 41
30.0
 62
     5
 63
     7
421
 16777215
 74
     0
 91
        4
 64
     7
 65
   257
 75
     1
175
     1
 42
1.0
 92
        8
 66
     7
 43
1.0
 76
     1
 77
     6
 78
     2
 67
     7
 79
     5
170
     0
171
     0
290
     0
174
     0
 93
        1
 44
0.0
173
     0
291
     1
 45
0.0
  0
VISUALSTYLE
  5
36
102
{ACAD_REACTORS
330
2A
102
}
102
{ACAD_XDICTIONARY
360
CE
102
}
330
2A
100
AcDbVisualStyle
  2
Brighten
 70
    12
 71
     2
 72
     2
 73
     0
 90
        0
 40
0.6
 41
30.0
 62
     5
 63
     7
421
 16777215
 74
     1
 91
        4
 64
     7
 65
   257
 75
     1
175
     1
 42
1.0
 92
        8
 66
     7
 43
1.0
 76
     1
 77
     6
 78
     2
 67
     7
 79
     5
170
     0
171
     0
290
     0
174
     0
 93
        1
 44
50.0
173
     0
291
     1
 45
0.0
  0
VISUALSTYLE
  5
3A
102
{ACAD_REACTORS
330
2A
102
}
102
{ACAD_XDICTIONARY
360
D6
102
}
330
2A
100
AcDbVisualStyle
  2
ColorChange
 70
    16
 71
     2
 72
     2
 73
     3
 90
        0
 40
0.6
 41
30.0
 62
     5
 63
     8
421
  8421504
 74
     1
 91
        4
 64
     7
 65
   257
 75
     1
175
     1
 42
1.0
 92
        8
 66
     8
424
  8421504
 43
1.0
 76
     1
 77
     6
 78
     2
 67
     7
 79
     5
170
     0
171
     0
290
     0
174
     0
 93
        1
 44
0.0
173
     0
291
     1
 45
0.0
  0
VISUALSTYLE
  5
34
102
{ACAD_REACTORS
330
2A
102
}
102
{ACAD_XDICTIONARY
360
CA
102
}
330
2A
100
AcDbVisualStyle
  2
Conceptual
 70
     9
 71
     3
 72
     2
 73
     0
 90
        0
 40
0.6
 41
30.0
 62
     5
 63
     7
421
 16777215
 74
     2
 91
        2
 64
     7
 65
   257
 75
     1
175
     1
 42
179.0
 92
        8
 66
     7
 43
1.0
 76
     1
 77
     6
 78
     2
 67
     7
 79
     3
170
     0
171
     0
290
     0
174
     0
 93
        1
 44
0.0
173
     0
291
     0
 45
0.0
  0
VISUALSTYLE
  5
35
102
{ACAD_REACTORS
330
2A
102
}
102
{ACAD_XDICTIONARY
360
CC
102
}
330
2A
100
AcDbVisualStyle
  2
Dim
 70
    11
 71
     2
 72
     2
 73
     0
 90
        0
 40
0.6
 41
30.0
 62
     5
 63
     7
421
 16777215
 74
     1
 91
        4
 64
     7
 65
   257
 75
     1
175
     1
 42
1.0
 92
        8
 66
     7
 43
1.0
 76
     1
 77
     6
 78
     2
 67
     7
 79
     5
170
     0
171
     0
290
     0
174
     0
 93
        1
 44
-50.0
173
     0
291
     1
 45
0.0
  0
VISUALSTYLE
  5
3D
102
{ACAD_REACTORS
330
2A
102
}
102
{ACAD_XDICTIONARY
360
DC
102
}
330
2A
100
AcDbVisualStyle
  2
EdgeColorOff
 70
    22
 71
     2
 72
     2
 73
     0
 90
        0
 40
0.6
 41
30.0
 62
     5
 63
     7
421
 16777215
 74
     1
 91
        4
 64
     7
 65
   257
 75
     1
175
     1
 42
1.0
 92
        8
 66
     7
 43
1.0
 76
     1
 77
     6
 78
     2
 67
     7
 79
     5
170
     0
171
     0
290
     0
174
     0
 93
        1
 44
0.0
173
     0
291
     1
 45
0.0
  0
VISUALSTYLE
  5
39
102
{ACAD_REACTORS
330
2A
102
}
102
{ACAD_XDICTIONARY
360
D4
102
}
330
2A
100
AcDbVisualStyle
  2
Facepattern
 70
    15
 71
     2
 72
     2
 73
     0
 90
        0
 40
0.6
 41
30.0
 62
     5
 63
     7
421
 16777215
 74
     1
 91
        4
 64
     7
 65
   257
 75
     1
175
     1
 42
1.0
 92
        8
 66
     7
 43
1.0
 76
     1
 77
     6
 78
     2
 67
     7
 79
     5
170
     0
171
     0
290
     0
174
     0
 93
        1
 44
0.0
173
     0
291
     1
 45
0.0
  0
VISUALSTYLE
  5
2B
102
{ACAD_REACTORS
330
2A
102
}
102
{ACAD_XDICTIONARY
360
B8
102
}
330
2A
100
AcDbVisualStyle
  2
Flat
 70
     0
 71
     2
 72
     1
 73
     1
 90
        2
 40
0.6
 41
30.0
 62
     5
 63
     7
421
 16777215
 74
     0
 91
        0
 64
     7
 65
   257
 75
     1
175
     1
 42
1.0
 92
        8
 66
     7
 43
1.0
 76
     1
 77
     6
 78
     2
 67
     7
 79
     5
170
     0
171
     0
290
     0
174
     0
 93
       13
 44
0.0
173
     0
291
     1
 45
0.0
  0
VISUALSTYLE
  5
2C
102
{ACAD_REACTORS
330
2A
102
}
102
{ACAD_XDICTIONARY
360
BA
102
}
330
2A
100
AcDbVisualStyle
  2
FlatWithEdges
 70
     1
 71
     2
 72
     1
 73
     1
 90
        2
 40
0.6
 41
30.0
 62
     5
 63
     7
421
 16777215
 74
     1
 91
        0
 64
     7
 65
   257
 75
     1
175
     1
 42
1.0
 92
        0
 66
   257
 43
1.0
 76
     1
 77
     6
 78
     2
 67
     7
 79
     5
170
     0
171
     0
290
     0
174
     0
 93
       13
 44
0.0
173
     0
291
     1
 45
0.0
  0
VISUALSTYLE
  5
2D
102
{ACAD_REACTORS
330
2A
102
}
102
{ACAD_XDICTIONARY
360
BC
102
}
330
2A
100
AcDbVisualStyle
  2
Gouraud
 70
     2
 71
     2
 72
     2
 73
     1
 90
        2
 40
0.6
 41
30.0
 62
     5
 63
     7
421
 16777215
 74
     0
 91
        0
 64
     7
 65
   257
 75
     1
175
     1
 42
1.0
 92
        0
 66
     7
 43
1.0
 76
     1
 77
     6
 78
     2
 67
     7
 79
     5
170
     0
171
     0
290
     0
174
     0
 93
       13
 44
0.0
173
     0
291
     1
 45
0.0
  0
VISUALSTYLE
  5
2E
102
{ACAD_REACTORS
330
2A
102
}
102
{ACAD_XDICTIONARY
360
BE
102
}
330
2A
100
AcDbVisualStyle
  2
GouraudWithEdges
 70
     3
 71
     2
 72
     2
 73
     1
 90
        2
 40
0.6
 41
30.0
 62
     5
 63
     7
421
 16777215
 74
     1
 91
        0
 64
     7
 65
   257
 75
     1
175
     1
 42
1.0
 92
        0
 66
   257
 43
1.0
 76
     1
 77
     6
 78
     2
 67
     7
 79
     5
170
     0
171
     0
290
     0
174
     0
 93
       13
 44
0.0
173
     0
291
     1
 45
0.0
  0
VISUALSTYLE
  5
31
102
{ACAD_REACTORS
330
2A
102
}
102
{ACAD_XDICTIONARY
360
C4
102
}
330
2A
100
AcDbVisualStyle
  2
Hidden
 70
     6
 71
     1
 72
     2
 73
     2
 90
        0
 40
0.6
 41
30.0
 62
     5
 63
     7
421
 16777215
 74
     2
 91
        2
 64
     7
 65
   257
 75
     2
175
     1
 42
40.0
 92
        0
 66
   257
 43
1.0
 76
     1
 77
     6
 78
     2
 67
     7
 79
     3
170
     0
171
     0
290
     0
174
     0
 93
        1
 44
0.0
173
     0
291
     0
 45
0.0
  0
VISUALSTYLE
  5
3B
102
{ACAD_REACTORS
330
2A
102
}
102
{ACAD_XDICTIONARY
360
D8
102
}
330
2A
100
AcDbVisualStyle
  2
JitterOff
 70
    20
 71
     2
 72
     2
 73
     0
 90
        0
 40
0.6
 41
30.0
 62
     5
 63
     7
421
 16777215
 74
     1
 91
        4
 64
     7
 65
   257
 75
     1
175
     1
 42
1.0
 92
       10
 66
     7
 43
1.0
 76
     1
 77
     6
 78
     2
 67
     7
 79
     5
170
     0
171
     0
290
     0
174
     0
 93
        1
 44
0.0
173
     0
291
     1
 45
0.0
  0
VISUALSTYLE
  5
38
102
{ACAD_REACTORS
330
2A
102
}
102
{ACAD_XDICTIONARY
360
D2
102
}
330
2A
100
AcDbVisualStyle
  2
Linepattern
 70
    14
 71
     2
 72
     2
 73
     0
 90
        0
 40
0.6
 41
30.0
 62
     5
 63
     7
421
 16777215
 74
     1
 91
        4
 64
     7
 65
   257
 75
     7
175
     7
 42
1.0
 92
        8
 66
     7
 43
1.0
 76
     1
 77
     6
 78
     2
 67
     7
 79
     5
170
     0
171
     0
290
     0
174
     0
 93
        1
 44
0.0
173
     0
291
     1
 45
0.0
  0
VISUALSTYLE
  5
3C
102
{ACAD_REACTORS
330
2A
102
}
102
{ACAD_XDICTIONARY
360
DA
102
}
330
2A
100
AcDbVisualStyle
  2
OverhangOff
 70
    21
 71
     2
 72
     2
 73
     0
 90
        0
 40
0.6
 41
30.0
 62
     5
 63
     7
421
 16777215
 74
     1
 91
        4
 64
     7
 65
   257
 75
     1
175
     1
 42
1.0
 92
        9
 66
     7
 43
1.0
 76
     1
 77
     6
 78
     2
 67
     7
 79
     5
170
     0
171
     0
290
     0
174
     0
 93
        1
 44
0.0
173
     0
291
     1
 45
0.0
  0
VISUALSTYLE
  5
33
102
{ACAD_REACTORS
330
2A
102
}
102
{ACAD_XDICTIONARY
360
C8
102
}
330
2A
100
AcDbVisualStyle
  2
Realistic
 70
     8
 71
     2
 72
     3
 73
     0
 90
        2
 40
0.6
 41
30.0
 62
     5
 63
     7
421
 16777215
 74
     0
 91
        0
 64
     7
 65
   257
 75
     1
175
     1
 42
1.0
 92
        8
 66
   257
 43
1.0
 76
     1
 77
     6
 78
     2
 67
     7
 79
     3
170
     0
171
     0
290
     0
174
     0
 93
       13
 44
0.0
173
     0
291
     0
 45
0.0
  0
VISUALSTYLE
  5
42
102
{ACAD_REACTORS
330
2A
102
}
102
{ACAD_XDICTIONARY
360
E6
102
}
330
2A
100
AcDbVisualStyle
  2
Shaded
 70
    27
 71
     2
 72
     2
 73
     1
 90
        2
 40
0.6
 41
30.0
 62
     5
 63
     7
421
 16777215
 74
     0
 91
        4
 64
     7
 65
   257
 75
     1
175
     1
 42
1.0
 92
        8
 66
   257
 43
1.0
 76
     1
 77
     6
 78
     2
 67
     8
425
  7895160
 79
     3
170
     0
171
     0
290
     0
174
     0
 93
        5
 44
0.0
173
     0
291
     0
 45
0.0
  0
VISUALSTYLE
  5
41
102
{ACAD_REACTORS
330
2A
102
}
102
{ACAD_XDICTIONARY
360
E4
102
}
330
2A
100
AcDbVisualStyle
  2
Shaded with edges
 70
    26
 71
     2
 72
     2
 73
     1
 90
        2
 40
0.6
 41
30.0
 62
     5
 63
     7
421
 16777215
 74
     1
 91
       10
 64
     7
 65
   257
 75
     2
175
     1
 42
1.0
 92
        8
 66
   257
 43
1.0
 76
     1
 77
     6
 78
     2
 67
     7
 79
     3
170
     0
171
     0
290
     0
174
     0
 93
        5
 44
0.0
173
     0
291
     0
 45
0.0
  0
VISUALSTYLE
  5
3E
102
{ACAD_REACTORS
330
2A
102
}
102
{ACAD_XDICTIONARY
360
DE
102
}
330
2A
100
AcDbVisualStyle
  2
Shades of Gray
 70
    23
 71
     2
 72
     2
 73
     3
 90
        0
 40
0.6
 41
30.0
 62
     5
 63
     7
421
 16777215
 74
     2
 91
        2
 64
     7
 65
     7
 75
     1
175
     1
 42
40.0
 92
        8
 66
     7
 43
1.0
 76
     1
 77
     6
 78
     2
 67
     7
 79
     3
170
     0
171
     0
290
     0
174
     0
 93
        1
 44
0.0
173
     0
291
     0
 45
0.0
  0
VISUALSTYLE
  5
3F
102
{ACAD_REACTORS
330
2A
102
}
102
{ACAD_XDICTIONARY
360
E0
102
}
330
2A
100
AcDbVisualStyle
  2
Sketchy
 70
    24
 71
     1
 72
     2
 73
     2
 90
        0
 40
0.6
 41
30.0
 62
     5
 63
     7
421
 16777215
 74
     2
 91
        2
 64
     7
 65
     7
 75
     1
175
     1
 42
40.0
 92
       11
 66
     7
 43
1.0
 76
     1
 77
     6
 78
     2
 67
     7
 79
     6
170
     0
171
     0
290
     0
174
     0
 93
        1
 44
0.0
173
     0
291
     0
 45
0.0
  0
VISUALSTYLE
  5
37
102
{ACAD_REACTORS
330
2A
102
}
102
{ACAD_XDICTIONARY
360
D0
102
}
330
2A
100
AcDbVisualStyle
  2
Thicken
 70
    13
 71
     2
 72
     2
 73
     0
 90
        0
 40
0.6
 41
30.0
 62
     5
 63
     7
421
 16777215
 74
     1
 91
        4
 64
     7
 65
   257
 75
     1
175
     1
 42
1.0
 92
       12
 66
     7
 43
1.0
 76
     1
 77
     6
 78
     2
 67
     7
 79
     5
170
     0
171
     0
290
     0
174
     0
 93
        1
 44
0.0
173
     0
291
     1
 45
0.0
  0
VISUALSTYLE
  5
30
102
{ACAD_REACTORS
330
2A
102
}
102
{ACAD_XDICTIONARY
360
C2
102
}
330
2A
100
AcDbVisualStyle
  2
Wireframe
 70
     5
 71
     0
 72
     2
 73
     0
 90
        0
 40
0.6
 41
30.0
 62
     5
 63
     7
421
 16777215
 74
     1
 91
        4
 64
     7
 65
   257
 75
     1
175
     1
 42
1.0
 92
        0
 66
   257
 43
1.0
 76
     1
 77
     6
 78
     2
 67
     7
 79
     3
170
     0
171
     0
290
     0
174
     0
 93
        1
 44
0.0
173
     0
291
     0
 45
0.0
  0
VISUALSTYLE
  5
40
102
{ACAD_REACTORS
330
2A
102
}
102
{ACAD_XDICTIONARY
360
E2
102
}
330
2A
100
AcDbVisualStyle
  2
X-Ray
 70
    25
 71
     2
 72
     2
 73
     1
 90
        1
 40
0.5
 41
30.0
 62
     5
 63
     7
421
 16777215
 74
     1
 91
        0
 64
     7
 65
   257
 75
     1
175
     1
 42
1.0
 92
        8
 66
     7
 43
1.0
 76
     1
 77
     6
 78
     2
 67
     7
 79
     3
170
     0
171
     0
290
     0
174
     0
 93
       13
 44
0.0
173
     0
291
     0
 45
0.0
  0
DICTIONARYVAR
  5
B6
102
{ACAD_REACTORS
330
B5
102
}
330
B5
100
DictionaryVariables
280
     0
  1
1:1
  0
DICTIONARYVAR
  5
EF
102
{ACAD_REACTORS
330
B5
102
}
330
B5
100
DictionaryVariables
280
     0
  1
Standard
  0
DICTIONARYVAR
  5
EE
102
{ACAD_REACTORS
330
B5
102
}
330
B5
100
DictionaryVariables
280
     0
  1
Standard
  0
DICTIONARYVAR
  5
B7
102
{ACAD_REACTORS
330
B5
102
}
330
B5
100
DictionaryVariables
280
     0
  1
2
  0
DICTIONARY
  5
EB
330
6C
100
AcDbDictionary
280
     1
281
     1
  3
ACAD_XREC_ROUNDTRIP
360
EC
  0
DICTIONARY
  5
E8
330
6A
100
AcDbDictionary
280
     1
281
     1
  3
ACAD_ROUNDTRIP_2008_TABLESTYLE_CELLSTYLEMAP
360
E9
  0
DICTIONARY
  5
C0
330
2F
100
AcDbDictionary
280
     1
281
     1
  3
ACAD_XREC_ROUNDTRIP
360
C1
  0
DICTIONARY
  5
C6
330
32
100
AcDbDictionary
280
     1
281
     1
  3
ACAD_XREC_ROUNDTRIP
360
C7
  0
DICTIONARY
  5
CE
330
36
100
AcDbDictionary
280
     1
281
     1
  3
ACAD_XREC_ROUNDTRIP
360
CF
  0
DICTIONARY
  5
D6
330
3A
100
AcDbDictionary
280
     1
281
     1
  3
ACAD_XREC_ROUNDTRIP
360
D7
  0
DICTIONARY
  5
CA
330
34
100
AcDbDictionary
280
     1
281
     1
  3
ACAD_XREC_ROUNDTRIP
360
CB
  0
DICTIONARY
  5
CC
330
35
100
AcDbDictionary
280
     1
281
     1
  3
ACAD_XREC_ROUNDTRIP
360
CD
  0
DICTIONARY
  5
DC
330
3D
100
AcDbDictionary
280
     1
281
     1
  3
ACAD_XREC_ROUNDTRIP
360
DD
  0
DICTIONARY
  5
D4
330
39
100
AcDbDictionary
280
     1
281
     1
  3
ACAD_XREC_ROUNDTRIP
360
D5
  0
DICTIONARY
  5
B8
330
2B
100
AcDbDictionary
280
     1
281
     1
  3
ACAD_XREC_ROUNDTRIP
360
B9
  0
DICTIONARY
  5
BA
330
2C
100
AcDbDictionary
280
     1
281
     1
  3
ACAD_XREC_ROUNDTRIP
360
BB
  0
DICTIONARY
  5
BC
330
2D
100
AcDbDictionary
280
     1
281
     1
  3
ACAD_XREC_ROUNDTRIP
360
BD
  0
DICTIONARY
  5
BE
330
2E
100
AcDbDictionary
280
     1
281
     1
  3
ACAD_XREC_ROUNDTRIP
360
BF
  0
DICTIONARY
  5
C4
330
31
100
AcDbDictionary
280
     1
281
     1
  3
ACAD_XREC_ROUNDTRIP
360
C5
  0
DICTIONARY
  5
D8
330
3B
100
AcDbDictionary
280
     1
281
     1
  3
ACAD_XREC_ROUNDTRIP
360
D9
  0
DICTIONARY
  5
D2
330
38
100
AcDbDictionary
280
     1
281
     1
  3
ACAD_XREC_ROUNDTRIP
360
D3
  0
DICTIONARY
  5
DA
330
3C
100
AcDbDictionary
280
     1
281
     1
  3
ACAD_XREC_ROUNDTRIP
360
DB
  0
DICTIONARY
  5
C8
330
33
100
AcDbDictionary
280
     1
281
     1
  3
ACAD_XREC_ROUNDTRIP
360
C9
  0
DICTIONARY
  5
E6
330
42
100
AcDbDictionary
280
     1
281
     1
  3
ACAD_XREC_ROUNDTRIP
360
E7
  0
DICTIONARY
  5
E4
330
41
100
AcDbDictionary
280
     1
281
     1
  3
ACAD_XREC_ROUNDTRIP
360
E5
  0
DICTIONARY
  5
DE
330
3E
100
AcDbDictionary
280
     1
281
     1
  3
ACAD_XREC_ROUNDTRIP
360
DF
  0
DICTIONARY
  5
E0
330
3F
100
AcDbDictionary
280
     1
281
     1
  3
ACAD_XREC_ROUNDTRIP
360
E1
  0
DICTIONARY
  5
D0
330
37
100
AcDbDictionary
280
     1
281
     1
  3
ACAD_XREC_ROUNDTRIP
360
D1
  0
DICTIONARY
  5
C2
330
30
100
AcDbDictionary
280
     1
281
     1
  3
ACAD_XREC_ROUNDTRIP
360
C3
  0
DICTIONARY
  5
E2
330
40
100
AcDbDictionary
280
     1
281
     1
  3
ACAD_XREC_ROUNDTRIP
360
E3
  0
XRECORD
  5
EC
102
{ACAD_REACTORS
330
EB
102
}
330
EB
100
AcDbXrecord
280
     1
102
ACAD_ROUNDTRIP_2010_MLEADER_STYLE
  0
CELLSTYLEMAP
  5
E9
102
{ACAD_REACTORS
330
E8
102
}
330
E8
100
AcDbCellStyleMap
 90
        3
300
CELLSTYLE
  1
TABLEFORMAT_BEGIN
 90
        5
170
     1
 91
        0
 92
    32768
 62
   257
 93
        1
300
CONTENTFORMAT
  1
CONTENTFORMAT_BEGIN
 90
        0
 91
        0
 92
        4
 93
        0
300

 40
0.0
140
1.0
 94
        5
 62
     0
340
11
144
0.25
309
CONTENTFORMAT_END
171
     1
301
MARGIN
  1
CELLMARGIN_BEGIN
 40
0.06
 40
0.06
 40
0.06
 40
0.06
 40
0.06
 40
0.06
309
CELLMARGIN_END
 94
        6
 95
        1
302
GRIDFORMAT
  1
GRIDFORMAT_BEGIN
 90
        0
 91
        1
 62
     0
 92
       -2
340
14
 93
        0
 40
0.045
309
GRIDFORMAT_END
 95
        2
302
GRIDFORMAT
  1
GRIDFORMAT_BEGIN
 90
        0
 91
        1
 62
     0
 92
       -2
340
14
 93
        0
 40
0.045
309
GRIDFORMAT_END
 95
        4
302
GRIDFORMAT
  1
GRIDFORMAT_BEGIN
 90
        0
 91
        1
 62
     0
 92
       -2
340
14
 93
        0
 40
0.045
309
GRIDFORMAT_END
 95
        8
302
GRIDFORMAT
  1
GRIDFORMAT_BEGIN
 90
        0
 91
        1
 62
     0
 92
       -2
340
14
 93
        0
 40
0.045
309
GRIDFORMAT_END
 95
       16
302
GRIDFORMAT
  1
GRIDFORMAT_BEGIN
 90
        0
 91
        1
 62
     0
 92
       -2
340
14
 93
        0
 40
0.045
309
GRIDFORMAT_END
 95
       32
302
GRIDFORMAT
  1
GRIDFORMAT_BEGIN
 90
        0
 91
        1
 62
     0
 92
       -2
340
14
 93
        0
 40
0.045
309
GRIDFORMAT_END
309
TABLEFORMAT_END
  1
CELLSTYLE_BEGIN
 90
        1
 91
        1
300
_TITLE
309
CELLSTYLE_END
300
CELLSTYLE
  1
TABLEFORMAT_BEGIN
 90
        5
170
     1
 91
        0
 92
        0
 62
   257
 93
        1
300
CONTENTFORMAT
  1
CONTENTFORMAT_BEGIN
 90
        0
 91
        0
 92
        4
 93
        0
300

 40
0.0
140
1.0
 94
        5
 62
     0
340
11
144
0.18
309
CONTENTFORMAT_END
171
     1
301
MARGIN
  1
CELLMARGIN_BEGIN
 40
0.06
 40
0.06
 40
0.06
 40
0.06
 40
0.06
 40
0.06
309
CELLMARGIN_END
 94
        6
 95
        1
302
GRIDFORMAT
  1
GRIDFORMAT_BEGIN
 90
        0
 91
        1
 62
     0
 92
       -2
340
14
 93
        0
 40
0.045
309
GRIDFORMAT_END
 95
        2
302
GRIDFORMAT
  1
GRIDFORMAT_BEGIN
 90
        0
 91
        1
 62
     0
 92
       -2
340
14
 93
        0
 40
0.045
309
GRIDFORMAT_END
 95
        4
302
GRIDFORMAT
  1
GRIDFORMAT_BEGIN
 90
        0
 91
        1
 62
     0
 92
       -2
340
14
 93
        0
 40
0.045
309
GRIDFORMAT_END
 95
        8
302
GRIDFORMAT
  1
GRIDFORMAT_BEGIN
 90
        0
 91
        1
 62
     0
 92
       -2
340
14
 93
        0
 40
0.045
309
GRIDFORMAT_END
 95
       16
302
GRIDFORMAT
  1
GRIDFORMAT_BEGIN
 90
        0
 91
        1
 62
     0
 92
       -2
340
14
 93
        0
 40
0.045
309
GRIDFORMAT_END
 95
       32
302
GRIDFORMAT
  1
GRIDFORMAT_BEGIN
 90
        0
 91
        1
 62
     0
 92
       -2
340
14
 93
        0
 40
0.045
309
GRIDFORMAT_END
309
TABLEFORMAT_END
  1
CELLSTYLE_BEGIN
 90
        2
 91
        1
300
_HEADER
309
CELLSTYLE_END
300
CELLSTYLE
  1
TABLEFORMAT_BEGIN
 90
        5
170
     1
 91
        0
 92
        0
 62
   257
 93
        1
300
CONTENTFORMAT
  1
CONTENTFORMAT_BEGIN
 90
        0
 91
        0
 92
        4
 93
        0
300

 40
0.0
140
1.0
 94
        2
 62
     0
340
11
144
0.18
309
CONTENTFORMAT_END
171
     1
301
MARGIN
  1
CELLMARGIN_BEGIN
 40
0.06
 40
0.06
 40
0.06
 40
0.06
 40
0.06
 40
0.06
309
CELLMARGIN_END
 94
        6
 95
        1
302
GRIDFORMAT
  1
GRIDFORMAT_BEGIN
 90
        0
 91
        1
 62
     0
 92
       -2
340
14
 93
        0
 40
0.045
309
GRIDFORMAT_END
 95
        2
302
GRIDFORMAT
  1
GRIDFORMAT_BEGIN
 90
        0
 91
        1
 62
     0
 92
       -2
340
14
 93
        0
 40
0.045
309
GRIDFORMAT_END
 95
        4
302
GRIDFORMAT
  1
GRIDFORMAT_BEGIN
 90
        0
 91
        1
 62
     0
 92
       -2
340
14
 93
        0
 40
0.045
309
GRIDFORMAT_END
 95
        8
302
GRIDFORMAT
  1
GRIDFORMAT_BEGIN
 90
        0
 91
        1
 62
     0
 92
       -2
340
14
 93
        0
 40
0.045
309
GRIDFORMAT_END
 95
       16
302
GRIDFORMAT
  1
GRIDFORMAT_BEGIN
 90
        0
 91
        1
 62
     0
 92
       -2
340
14
 93
        0
 40
0.045
309
GRIDFORMAT_END
 95
       32
302
GRIDFORMAT
  1
GRIDFORMAT_BEGIN
 90
        0
 91
        1
 62
     0
 92
       -2
340
14
 93
        0
 40
0.045
309
GRIDFORMAT_END
309
TABLEFORMAT_END
  1
CELLSTYLE_BEGIN
 90
        3
 91
        2
300
_DATA
309
CELLSTYLE_END
  0
XRECORD
  5
C1
102
{ACAD_REACTORS
330
C0
102
}
330
C0
100
AcDbXrecord
280
     1
102
RTVSPropertyOp0
 70
     1
102
RTVSPropertyOp1
 70
     1
102
RTVSPropertyOp2
 70
     1
102
RTVSPropertyOp3
 70
     1
102
RTVSPropertyOp4
 70
     1
102
RTVSPropertyOp5
 70
     1
102
RTVSPropertyOp6
 70
     1
102
RTVSPropertyOp7
 70
     1
102
RTVSPropertyOp8
 70
     1
102
RTVSPropertyOp9
 70
     1
102
RTVSPropertyOp10
 70
     1
102
RTVSPropertyOp11
 70
     1
102
RTVSPropertyOp12
 70
     1
102
RTVSPropertyOp13
 70
     1
102
RTVSPropertyOp14
 70
     1
102
RTVSPropertyOp15
 70
     1
102
RTVSPropertyOp16
 70
     1
102
RTVSPropertyOp17
 70
     1
102
RTVSPropertyOp18
 70
     1
102
RTVSPropertyOp19
 70
     1
102
RTVSPropertyOp20
 70
     1
102
RTVSPropertyOp21
 70
     1
102
RTVSPropertyOp22
 70
     1
102
RTVSPropertyOp23
 70
     1
102
RTVSPropertyOp24
 70
     1
102
RTVSPropertyOp25
 70
     1
102
RTVSPropertyOp26
 70
     1
102
RTVSPropertyOp27
 70
     1
102
RTVSPropertyOp28
 70
     1
102
RTVSPropertyOp29
 70
     1
102
RTVSPropertyOp30
 70
     1
102
RTVSPropertyOp31
 70
     1
102
RTVSPropertyOp32
 70
     1
102
RTVSPropertyOp33
 70
     1
102
RTVSPropertyOp34
 70
     1
102
RTVSPropertyOp35
 70
     1
102
RTVSPropertyOp36
 70
     1
102
RTVSPropertyOp37
 70
     1
102
RTVSPropertyOp38
 70
     1
102
RTVSPropertyOp39
 70
     1
102
RTVSPropertyOp40
 70
     1
102
RTVSPropertyOp41
 70
     1
102
RTVSPropertyOp42
 70
     1
102
RTVSPropertyOp43
 70
     1
102
RTVSPropertyOp44
 70
     1
102
RTVSPropertyOp45
 70
     1
102
RTVSPropertyOp46
 70
     1
102
RTVSPropertyOp47
 70
     1
102
RTVSPropertyOp48
 70
     1
102
RTVSPropertyOp49
 70
     1
102
RTVSPropertyOp50
 70
     1
102
RTVSPropertyOp51
 70
     0
102
RTVSPropertyOp52
 70
     0
102
RTVSPropertyOp53
 70
     1
102
RTVSPropertyOp54
 70
     1
102
RTVSPropertyOp55
 70
     1
102
RTVSPropertyOp56
 70
     1
102
RTVSPropertyOp57
 70
     1
102
RTVSPost2010Prop28
280
     1
102
RTVSPost2010PropOp28
 70
     1
102
RTVSPost2010Prop29
280
     1
102
RTVSPost2010PropOp29
 70
     1
102
RTVSPost2010Prop30
280
     0
102
RTVSPost2010PropOp30
 70
     1
102
RTVSPost2010Prop31
280
     0
102
RTVSPost2010PropOp31
 70
     1
102
RTVSPost2010Prop32
280
     0
102
RTVSPost2010PropOp32
 70
     1
102
RTVSPost2010Prop33
280
     0
102
RTVSPost2010PropOp33
 70
     1
102
RTVSPost2010Prop34
280
     0
102
RTVSPost2010PropOp34
 70
     1
102
RTVSPost2010Prop35
280
     0
102
RTVSPost2010PropOp35
 70
     1
102
RTVSPost2010Prop36
280
     0
102
RTVSPost2010PropOp36
 70
     1
102
RTVSPost2010Prop37
 90
       50
102
RTVSPost2010PropOp37
 70
     1
102
RTVSPost2010Prop38
140
0.0
102
RTVSPost2010PropOp38
 70
     1
102
RTVSPost2010Prop39
140
1.0
102
RTVSPost2010PropOp39
 70
     1
102
RTVSPost2010Prop40
 90
        0
102
RTVSPost2010PropOp40
 70
     1
102
RTVSPost2010Prop41ColorIndex
 90
       18
102
RTVSPost2010Prop41ColorRGB
 90
        0
102
RTVSPost2010PropOp41
 70
     1
102
RTVSPost2010Prop42
 90
       50
102
RTVSPost2010PropOp42
 70
     1
102
RTVSPost2010Prop43
 90
        3
102
RTVSPost2010PropOp43
 70
     1
102
RTVSPost2010Prop44ColorIndex
 90
        5
102
RTVSPost2010Prop44ColorRGB
 90
      255
102
RTVSPost2010PropOp44
 70
     1
102
RTVSPost2010Prop45
280
     0
102
RTVSPost2010PropOp45
 70
     1
102
RTVSPost2010Prop46
 90
       50
102
RTVSPost2010PropOp46
 70
     1
102
RTVSPost2010Prop47
 90
       50
102
RTVSPost2010PropOp47
 70
     1
102
RTVSPost2010Prop48
 90
       50
102
RTVSPost2010PropOp48
 70
     1
102
RTVSPost2010Prop49
280
     0
102
RTVSPost2010PropOp49
 70
     1
102
RTVSPost2010Prop50
 90
       50
102
RTVSPost2010PropOp50
 70
     1
102
RTVSPost2010Prop51ColorIndex
 90
      256
102
RTVSPost2010Prop51ColorRGB
 90
-16777216
102
RTVSPost2010PropOp51
 70
     0
102
RTVSPost2010Prop52
140
1.0
102
RTVSPost2010PropOp52
 70
     0
102
RTVSPost2010Prop53
 90
        2
102
RTVSPost2010PropOp53
 70
     1
102
RTVSPost2010Prop54
  1
strokes_ogs.tif
102
RTVSPost2010PropOp54
 70
     1
102
RTVSPost2010Prop55
280
     0
102
RTVSPost2010PropOp55
 70
     1
102
RTVSPost2010Prop56
140
1.0
102
RTVSPost2010PropOp56
 70
     1
102
RTVSPost2010Prop57
140
1.0
102
RTVSPost2010PropOp57
 70
     1
  0
XRECORD
  5
C7
102
{ACAD_REACTORS
330
C6
102
}
330
C6
100
AcDbXrecord
280
     1
102
RTVSPropertyOp0
 70
     1
102
RTVSPropertyOp1
 70
     1
102
RTVSPropertyOp2
 70
     1
102
RTVSPropertyOp3
 70
     1
102
RTVSPropertyOp4
 70
     1
102
RTVSPropertyOp5
 70
     1
102
RTVSPropertyOp6
 70
     1
102
RTVSPropertyOp7
 70
     1
102
RTVSPropertyOp8
 70
     1
102
RTVSPropertyOp9
 70
     1
102
RTVSPropertyOp10
 70
     1
102
RTVSPropertyOp11
 70
     1
102
RTVSPropertyOp12
 70
     1
102
RTVSPropertyOp13
 70
     1
102
RTVSPropertyOp14
 70
     1
102
RTVSPropertyOp15
 70
     1
102
RTVSPropertyOp16
 70
     1
102
RTVSPropertyOp17
 70
     1
102
RTVSPropertyOp18
 70
     1
102
RTVSPropertyOp19
 70
     1
102
RTVSPropertyOp20
 70
     1
102
RTVSPropertyOp21
 70
     1
102
RTVSPropertyOp22
 70
     1
102
RTVSPropertyOp23
 70
     1
102
RTVSPropertyOp24
 70
     1
102
RTVSPropertyOp25
 70
     1
102
RTVSPropertyOp26
 70
     1
102
RTVSPropertyOp27
 70
     1
102
RTVSPropertyOp28
 70
     1
102
RTVSPropertyOp29
 70
     1
102
RTVSPropertyOp30
 70
     1
102
RTVSPropertyOp31
 70
     1
102
RTVSPropertyOp32
 70
     1
102
RTVSPropertyOp33
 70
     1
102
RTVSPropertyOp34
 70
     1
102
RTVSPropertyOp35
 70
     1
102
RTVSPropertyOp36
 70
     1
102
RTVSPropertyOp37
 70
     1
102
RTVSPropertyOp38
 70
     1
102
RTVSPropertyOp39
 70
     1
102
RTVSPropertyOp40
 70
     1
102
RTVSPropertyOp41
 70
     1
102
RTVSPropertyOp42
 70
     1
102
RTVSPropertyOp43
 70
     1
102
RTVSPropertyOp44
 70
     1
102
RTVSPropertyOp45
 70
     1
102
RTVSPropertyOp46
 70
     1
102
RTVSPropertyOp47
 70
     1
102
RTVSPropertyOp48
 70
     1
102
RTVSPropertyOp49
 70
     1
102
RTVSPropertyOp50
 70
     1
102
RTVSPropertyOp51
 70
     0
102
RTVSPropertyOp52
 70
     0
102
RTVSPropertyOp53
 70
     1
102
RTVSPropertyOp54
 70
     1
102
RTVSPropertyOp55
 70
     1
102
RTVSPropertyOp56
 70
     1
102
RTVSPropertyOp57
 70
     1
102
RTVSPost2010Prop28
280
     0
102
RTVSPost2010PropOp28
 70
     1
102
RTVSPost2010Prop29
280
     1
102
RTVSPost2010PropOp29
 70
     1
102
RTVSPost2010Prop30
280
     1
102
RTVSPost2010PropOp30
 70
     1
102
RTVSPost2010Prop31
280
     0
102
RTVSPost2010PropOp31
 70
     1
102
RTVSPost2010Prop32
280
     0
102
RTVSPost2010PropOp32
 70
     1
102
RTVSPost2010Prop33
280
     0
102
RTVSPost2010PropOp33
 70
     1
102
RTVSPost2010Prop34
280
     0
102
RTVSPost2010PropOp34
 70
     1
102
RTVSPost2010Prop35
280
     0
102
RTVSPost2010PropOp35
 70
     1
102
RTVSPost2010Prop36
280
     0
102
RTVSPost2010PropOp36
 70
     1
102
RTVSPost2010Prop37
 90
       50
102
RTVSPost2010PropOp37
 70
     1
102
RTVSPost2010Prop38
140
0.0
102
RTVSPost2010PropOp38
 70
     1
102
RTVSPost2010Prop39
140
1.0
102
RTVSPost2010PropOp39
 70
     1
102
RTVSPost2010Prop40
 90
        0
102
RTVSPost2010PropOp40
 70
     1
102
RTVSPost2010Prop41ColorIndex
 90
       18
102
RTVSPost2010Prop41ColorRGB
 90
        0
102
RTVSPost2010PropOp41
 70
     1
102
RTVSPost2010Prop42
 90
       50
102
RTVSPost2010PropOp42
 70
     1
102
RTVSPost2010Prop43
 90
        3
102
RTVSPost2010PropOp43
 70
     1
102
RTVSPost2010Prop44ColorIndex
 90
        5
102
RTVSPost2010Prop44ColorRGB
 90
      255
102
RTVSPost2010PropOp44
 70
     1
102
RTVSPost2010Prop45
280
     0
102
RTVSPost2010PropOp45
 70
     1
102
RTVSPost2010Prop46
 90
       50
102
RTVSPost2010PropOp46
 70
     1
102
RTVSPost2010Prop47
 90
       50
102
RTVSPost2010PropOp47
 70
     1
102
RTVSPost2010Prop48
 90
       50
102
RTVSPost2010PropOp48
 70
     1
102
RTVSPost2010Prop49
280
     0
102
RTVSPost2010PropOp49
 70
     1
102
RTVSPost2010Prop50
 90
       50
102
RTVSPost2010PropOp50
 70
     1
102
RTVSPost2010Prop51ColorIndex
 90
      256
102
RTVSPost2010Prop51ColorRGB
 90
-16777216
102
RTVSPost2010PropOp51
 70
     0
102
RTVSPost2010Prop52
140
1.0
102
RTVSPost2010PropOp52
 70
     0
102
RTVSPost2010Prop53
 90
        2
102
RTVSPost2010PropOp53
 70
     1
102
RTVSPost2010Prop54
  1
strokes_ogs.tif
102
RTVSPost2010PropOp54
 70
     1
102
RTVSPost2010Prop55
280
     0
102
RTVSPost2010PropOp55
 70
     1
102
RTVSPost2010Prop56
140
1.0
102
RTVSPost2010PropOp56
 70
     1
102
RTVSPost2010Prop57
140
1.0
102
RTVSPost2010PropOp57
 70
     1
  0
XRECORD
  5
CF
102
{ACAD_REACTORS
330
CE
102
}
330
CE
100
AcDbXrecord
280
     1
102
RTVSPropertyOp0
 70
     1
102
RTVSPropertyOp1
 70
     1
102
RTVSPropertyOp2
 70
     1
102
RTVSPropertyOp3
 70
     1
102
RTVSPropertyOp4
 70
     1
102
RTVSPropertyOp5
 70
     1
102
RTVSPropertyOp6
 70
     1
102
RTVSPropertyOp7
 70
     1
102
RTVSPropertyOp8
 70
     1
102
RTVSPropertyOp9
 70
     1
102
RTVSPropertyOp10
 70
     1
102
RTVSPropertyOp11
 70
     1
102
RTVSPropertyOp12
 70
     1
102
RTVSPropertyOp13
 70
     1
102
RTVSPropertyOp14
 70
     1
102
RTVSPropertyOp15
 70
     1
102
RTVSPropertyOp16
 70
     1
102
RTVSPropertyOp17
 70
     1
102
RTVSPropertyOp18
 70
     1
102
RTVSPropertyOp19
 70
     1
102
RTVSPropertyOp20
 70
     1
102
RTVSPropertyOp21
 70
     1
102
RTVSPropertyOp22
 70
     1
102
RTVSPropertyOp23
 70
     1
102
RTVSPropertyOp24
 70
     1
102
RTVSPropertyOp25
 70
     1
102
RTVSPropertyOp26
 70
     1
102
RTVSPropertyOp27
 70
     1
102
RTVSPropertyOp28
 70
     1
102
RTVSPropertyOp29
 70
     1
102
RTVSPropertyOp30
 70
     1
102
RTVSPropertyOp31
 70
     1
102
RTVSPropertyOp32
 70
     1
102
RTVSPropertyOp33
 70
     1
102
RTVSPropertyOp34
 70
     1
102
RTVSPropertyOp35
 70
     1
102
RTVSPropertyOp36
 70
     1
102
RTVSPropertyOp37
 70
     1
102
RTVSPropertyOp38
 70
     1
102
RTVSPropertyOp39
 70
     1
102
RTVSPropertyOp40
 70
     1
102
RTVSPropertyOp41
 70
     1
102
RTVSPropertyOp42
 70
     1
102
RTVSPropertyOp43
 70
     1
102
RTVSPropertyOp44
 70
     1
102
RTVSPropertyOp45
 70
     1
102
RTVSPropertyOp46
 70
     1
102
RTVSPropertyOp47
 70
     1
102
RTVSPropertyOp48
 70
     1
102
RTVSPropertyOp49
 70
     1
102
RTVSPropertyOp50
 70
     1
102
RTVSPropertyOp51
 70
     0
102
RTVSPropertyOp52
 70
     0
102
RTVSPropertyOp53
 70
     1
102
RTVSPropertyOp54
 70
     1
102
RTVSPropertyOp55
 70
     1
102
RTVSPropertyOp56
 70
     1
102
RTVSPropertyOp57
 70
     1
102
RTVSPost2010Prop28
280
     0
102
RTVSPost2010PropOp28
 70
     1
102
RTVSPost2010Prop29
280
     1
102
RTVSPost2010PropOp29
 70
     1
102
RTVSPost2010Prop30
280
     1
102
RTVSPost2010PropOp30
 70
     1
102
RTVSPost2010Prop31
280
     0
102
RTVSPost2010PropOp31
 70
     1
102
RTVSPost2010Prop32
280
     0
102
RTVSPost2010PropOp32
 70
     1
102
RTVSPost2010Prop33
280
     0
102
RTVSPost2010PropOp33
 70
     1
102
RTVSPost2010Prop34
280
     0
102
RTVSPost2010PropOp34
 70
     1
102
RTVSPost2010Prop35
280
     0
102
RTVSPost2010PropOp35
 70
     1
102
RTVSPost2010Prop36
280
     0
102
RTVSPost2010PropOp36
 70
     1
102
RTVSPost2010Prop37
 90
       50
102
RTVSPost2010PropOp37
 70
     1
102
RTVSPost2010Prop38
140
0.0
102
RTVSPost2010PropOp38
 70
     1
102
RTVSPost2010Prop39
140
1.0
102
RTVSPost2010PropOp39
 70
     1
102
RTVSPost2010Prop40
 90
        0
102
RTVSPost2010PropOp40
 70
     1
102
RTVSPost2010Prop41ColorIndex
 90
       18
102
RTVSPost2010Prop41ColorRGB
 90
        0
102
RTVSPost2010PropOp41
 70
     1
102
RTVSPost2010Prop42
 90
       50
102
RTVSPost2010PropOp42
 70
     1
102
RTVSPost2010Prop43
 90
        3
102
RTVSPost2010PropOp43
 70
     1
102
RTVSPost2010Prop44ColorIndex
 90
        5
102
RTVSPost2010Prop44ColorRGB
 90
      255
102
RTVSPost2010PropOp44
 70
     1
102
RTVSPost2010Prop45
280
     0
102
RTVSPost2010PropOp45
 70
     1
102
RTVSPost2010Prop46
 90
       50
102
RTVSPost2010PropOp46
 70
     1
102
RTVSPost2010Prop47
 90
       50
102
RTVSPost2010PropOp47
 70
     1
102
RTVSPost2010Prop48
 90
       50
102
RTVSPost2010PropOp48
 70
     1
102
RTVSPost2010Prop49
280
     0
102
RTVSPost2010PropOp49
 70
     1
102
RTVSPost2010Prop50
 90
       50
102
RTVSPost2010PropOp50
 70
     1
102
RTVSPost2010Prop51ColorIndex
 90
      256
102
RTVSPost2010Prop51ColorRGB
 90
-16777216
102
RTVSPost2010PropOp51
 70
     0
102
RTVSPost2010Prop52
140
1.0
102
RTVSPost2010PropOp52
 70
     0
102
RTVSPost2010Prop53
 90
        2
102
RTVSPost2010PropOp53
 70
     1
102
RTVSPost2010Prop54
  1
strokes_ogs.tif
102
RTVSPost2010PropOp54
 70
     1
102
RTVSPost2010Prop55
280
     0
102
RTVSPost2010PropOp55
 70
     1
102
RTVSPost2010Prop56
140
1.0
102
RTVSPost2010PropOp56
 70
     1
102
RTVSPost2010Prop57
140
1.0
102
RTVSPost2010PropOp57
 70
     1
  0
XRECORD
  5
D7
102
{ACAD_REACTORS
330
D6
102
}
330
D6
100
AcDbXrecord
280
     1
102
RTVSPropertyOp0
 70
     1
102
RTVSPropertyOp1
 70
     1
102
RTVSPropertyOp2
 70
     1
102
RTVSPropertyOp3
 70
     1
102
RTVSPropertyOp4
 70
     1
102
RTVSPropertyOp5
 70
     1
102
RTVSPropertyOp6
 70
     1
102
RTVSPropertyOp7
 70
     1
102
RTVSPropertyOp8
 70
     1
102
RTVSPropertyOp9
 70
     1
102
RTVSPropertyOp10
 70
     1
102
RTVSPropertyOp11
 70
     1
102
RTVSPropertyOp12
 70
     1
102
RTVSPropertyOp13
 70
     1
102
RTVSPropertyOp14
 70
     1
102
RTVSPropertyOp15
 70
     1
102
RTVSPropertyOp16
 70
     1
102
RTVSPropertyOp17
 70
     1
102
RTVSPropertyOp18
 70
     1
102
RTVSPropertyOp19
 70
     1
102
RTVSPropertyOp20
 70
     1
102
RTVSPropertyOp21
 70
     1
102
RTVSPropertyOp22
 70
     1
102
RTVSPropertyOp23
 70
     1
102
RTVSPropertyOp24
 70
     1
102
RTVSPropertyOp25
 70
     1
102
RTVSPropertyOp26
 70
     1
102
RTVSPropertyOp27
 70
     1
102
RTVSPropertyOp28
 70
     1
102
RTVSPropertyOp29
 70
     1
102
RTVSPropertyOp30
 70
     1
102
RTVSPropertyOp31
 70
     1
102
RTVSPropertyOp32
 70
     1
102
RTVSPropertyOp33
 70
     1
102
RTVSPropertyOp34
 70
     1
102
RTVSPropertyOp35
 70
     1
102
RTVSPropertyOp36
 70
     1
102
RTVSPropertyOp37
 70
     1
102
RTVSPropertyOp38
 70
     1
102
RTVSPropertyOp39
 70
     1
102
RTVSPropertyOp40
 70
     1
102
RTVSPropertyOp41
 70
     1
102
RTVSPropertyOp42
 70
     1
102
RTVSPropertyOp43
 70
     1
102
RTVSPropertyOp44
 70
     1
102
RTVSPropertyOp45
 70
     1
102
RTVSPropertyOp46
 70
     1
102
RTVSPropertyOp47
 70
     1
102
RTVSPropertyOp48
 70
     1
102
RTVSPropertyOp49
 70
     1
102
RTVSPropertyOp50
 70
     1
102
RTVSPropertyOp51
 70
     0
102
RTVSPropertyOp52
 70
     0
102
RTVSPropertyOp53
 70
     1
102
RTVSPropertyOp54
 70
     1
102
RTVSPropertyOp55
 70
     1
102
RTVSPropertyOp56
 70
     1
102
RTVSPropertyOp57
 70
     1
102
RTVSPost2010Prop28
280
     0
102
RTVSPost2010PropOp28
 70
     1
102
RTVSPost2010Prop29
280
     1
102
RTVSPost2010PropOp29
 70
     1
102
RTVSPost2010Prop30
280
     1
102
RTVSPost2010PropOp30
 70
     1
102
RTVSPost2010Prop31
280
     0
102
RTVSPost2010PropOp31
 70
     1
102
RTVSPost2010Prop32
280
     0
102
RTVSPost2010PropOp32
 70
     1
102
RTVSPost2010Prop33
280
     0
102
RTVSPost2010PropOp33
 70
     1
102
RTVSPost2010Prop34
280
     0
102
RTVSPost2010PropOp34
 70
     1
102
RTVSPost2010Prop35
280
     0
102
RTVSPost2010PropOp35
 70
     1
102
RTVSPost2010Prop36
280
     0
102
RTVSPost2010PropOp36
 70
     1
102
RTVSPost2010Prop37
 90
       50
102
RTVSPost2010PropOp37
 70
     1
102
RTVSPost2010Prop38
140
0.0
102
RTVSPost2010PropOp38
 70
     1
102
RTVSPost2010Prop39
140
1.0
102
RTVSPost2010PropOp39
 70
     1
102
RTVSPost2010Prop40
 90
        0
102
RTVSPost2010PropOp40
 70
     1
102
RTVSPost2010Prop41ColorIndex
 90
       18
102
RTVSPost2010Prop41ColorRGB
 90
        0
102
RTVSPost2010PropOp41
 70
     1
102
RTVSPost2010Prop42
 90
       50
102
RTVSPost2010PropOp42
 70
     1
102
RTVSPost2010Prop43
 90
        3
102
RTVSPost2010PropOp43
 70
     1
102
RTVSPost2010Prop44ColorIndex
 90
        5
102
RTVSPost2010Prop44ColorRGB
 90
      255
102
RTVSPost2010PropOp44
 70
     1
102
RTVSPost2010Prop45
280
     0
102
RTVSPost2010PropOp45
 70
     1
102
RTVSPost2010Prop46
 90
       50
102
RTVSPost2010PropOp46
 70
     1
102
RTVSPost2010Prop47
 90
       50
102
RTVSPost2010PropOp47
 70
     1
102
RTVSPost2010Prop48
 90
       50
102
RTVSPost2010PropOp48
 70
     1
102
RTVSPost2010Prop49
280
     0
102
RTVSPost2010PropOp49
 70
     1
102
RTVSPost2010Prop50
 90
       50
102
RTVSPost2010PropOp50
 70
     1
102
RTVSPost2010Prop51ColorIndex
 90
      256
102
RTVSPost2010Prop51ColorRGB
 90
-16777216
102
RTVSPost2010PropOp51
 70
     0
102
RTVSPost2010Prop52
140
1.0
102
RTVSPost2010PropOp52
 70
     0
102
RTVSPost2010Prop53
 90
        2
102
RTVSPost2010PropOp53
 70
     1
102
RTVSPost2010Prop54
  1
strokes_ogs.tif
102
RTVSPost2010PropOp54
 70
     1
102
RTVSPost2010Prop55
280
     0
102
RTVSPost2010PropOp55
 70
     1
102
RTVSPost2010Prop56
140
1.0
102
RTVSPost2010PropOp56
 70
     1
102
RTVSPost2010Prop57
140
1.0
102
RTVSPost2010PropOp57
 70
     1
  0
XRECORD
  5
CB
102
{ACAD_REACTORS
330
CA
102
}
330
CA
100
AcDbXrecord
280
     1
102
RTVSPropertyOp0
 70
     1
102
RTVSPropertyOp1
 70
     1
102
RTVSPropertyOp2
 70
     1
102
RTVSPropertyOp3
 70
     1
102
RTVSPropertyOp4
 70
     1
102
RTVSPropertyOp5
 70
     1
102
RTVSPropertyOp6
 70
     1
102
RTVSPropertyOp7
 70
     1
102
RTVSPropertyOp8
 70
     1
102
RTVSPropertyOp9
 70
     1
102
RTVSPropertyOp10
 70
     1
102
RTVSPropertyOp11
 70
     1
102
RTVSPropertyOp12
 70
     1
102
RTVSPropertyOp13
 70
     1
102
RTVSPropertyOp14
 70
     1
102
RTVSPropertyOp15
 70
     1
102
RTVSPropertyOp16
 70
     1
102
RTVSPropertyOp17
 70
     1
102
RTVSPropertyOp18
 70
     1
102
RTVSPropertyOp19
 70
     1
102
RTVSPropertyOp20
 70
     1
102
RTVSPropertyOp21
 70
     1
102
RTVSPropertyOp22
 70
     1
102
RTVSPropertyOp23
 70
     1
102
RTVSPropertyOp24
 70
     1
102
RTVSPropertyOp25
 70
     1
102
RTVSPropertyOp26
 70
     1
102
RTVSPropertyOp27
 70
     1
102
RTVSPropertyOp28
 70
     1
102
RTVSPropertyOp29
 70
     1
102
RTVSPropertyOp30
 70
     1
102
RTVSPropertyOp31
 70
     1
102
RTVSPropertyOp32
 70
     1
102
RTVSPropertyOp33
 70
     1
102
RTVSPropertyOp34
 70
     1
102
RTVSPropertyOp35
 70
     1
102
RTVSPropertyOp36
 70
     1
102
RTVSPropertyOp37
 70
     1
102
RTVSPropertyOp38
 70
     1
102
RTVSPropertyOp39
 70
     1
102
RTVSPropertyOp40
 70
     1
102
RTVSPropertyOp41
 70
     1
102
RTVSPropertyOp42
 70
     1
102
RTVSPropertyOp43
 70
     1
102
RTVSPropertyOp44
 70
     1
102
RTVSPropertyOp45
 70
     1
102
RTVSPropertyOp46
 70
     1
102
RTVSPropertyOp47
 70
     1
102
RTVSPropertyOp48
 70
     1
102
RTVSPropertyOp49
 70
     1
102
RTVSPropertyOp50
 70
     1
102
RTVSPropertyOp51
 70
     0
102
RTVSPropertyOp52
 70
     0
102
RTVSPropertyOp53
 70
     1
102
RTVSPropertyOp54
 70
     1
102
RTVSPropertyOp55
 70
     1
102
RTVSPropertyOp56
 70
     1
102
RTVSPropertyOp57
 70
     1
102
RTVSPost2010Prop28
280
     0
102
RTVSPost2010PropOp28
 70
     1
102
RTVSPost2010Prop29
280
     1
102
RTVSPost2010PropOp29
 70
     1
102
RTVSPost2010Prop30
280
     1
102
RTVSPost2010PropOp30
 70
     1
102
RTVSPost2010Prop31
280
     0
102
RTVSPost2010PropOp31
 70
     1
102
RTVSPost2010Prop32
280
     0
102
RTVSPost2010PropOp32
 70
     1
102
RTVSPost2010Prop33
280
     0
102
RTVSPost2010PropOp33
 70
     1
102
RTVSPost2010Prop34
280
     0
102
RTVSPost2010PropOp34
 70
     1
102
RTVSPost2010Prop35
280
     0
102
RTVSPost2010PropOp35
 70
     1
102
RTVSPost2010Prop36
280
     0
102
RTVSPost2010PropOp36
 70
     1
102
RTVSPost2010Prop37
 90
       50
102
RTVSPost2010PropOp37
 70
     1
102
RTVSPost2010Prop38
140
0.0
102
RTVSPost2010PropOp38
 70
     1
102
RTVSPost2010Prop39
140
1.0
102
RTVSPost2010PropOp39
 70
     1
102
RTVSPost2010Prop40
 90
        0
102
RTVSPost2010PropOp40
 70
     1
102
RTVSPost2010Prop41ColorIndex
 90
       18
102
RTVSPost2010Prop41ColorRGB
 90
        0
102
RTVSPost2010PropOp41
 70
     1
102
RTVSPost2010Prop42
 90
       50
102
RTVSPost2010PropOp42
 70
     1
102
RTVSPost2010Prop43
 90
        3
102
RTVSPost2010PropOp43
 70
     1
102
RTVSPost2010Prop44ColorIndex
 90
        5
102
RTVSPost2010Prop44ColorRGB
 90
      255
102
RTVSPost2010PropOp44
 70
     1
102
RTVSPost2010Prop45
280
     0
102
RTVSPost2010PropOp45
 70
     1
102
RTVSPost2010Prop46
 90
       50
102
RTVSPost2010PropOp46
 70
     1
102
RTVSPost2010Prop47
 90
       50
102
RTVSPost2010PropOp47
 70
     1
102
RTVSPost2010Prop48
 90
       50
102
RTVSPost2010PropOp48
 70
     1
102
RTVSPost2010Prop49
280
     0
102
RTVSPost2010PropOp49
 70
     1
102
RTVSPost2010Prop50
 90
       50
102
RTVSPost2010PropOp50
 70
     1
102
RTVSPost2010Prop51ColorIndex
 90
      256
102
RTVSPost2010Prop51ColorRGB
 90
-16777216
102
RTVSPost2010PropOp51
 70
     0
102
RTVSPost2010Prop52
140
1.0
102
RTVSPost2010PropOp52
 70
     0
102
RTVSPost2010Prop53
 90
        2
102
RTVSPost2010PropOp53
 70
     1
102
RTVSPost2010Prop54
  1
strokes_ogs.tif
102
RTVSPost2010PropOp54
 70
     1
102
RTVSPost2010Prop55
280
     0
102
RTVSPost2010PropOp55
 70
     1
102
RTVSPost2010Prop56
140
1.0
102
RTVSPost2010PropOp56
 70
     1
102
RTVSPost2010Prop57
140
1.0
102
RTVSPost2010PropOp57
 70
     1
  0
XRECORD
  5
CD
102
{ACAD_REACTORS
330
CC
102
}
330
CC
100
AcDbXrecord
280
     1
102
RTVSPropertyOp0
 70
     1
102
RTVSPropertyOp1
 70
     1
102
RTVSPropertyOp2
 70
     1
102
RTVSPropertyOp3
 70
     1
102
RTVSPropertyOp4
 70
     1
102
RTVSPropertyOp5
 70
     1
102
RTVSPropertyOp6
 70
     1
102
RTVSPropertyOp7
 70
     1
102
RTVSPropertyOp8
 70
     1
102
RTVSPropertyOp9
 70
     1
102
RTVSPropertyOp10
 70
     1
102
RTVSPropertyOp11
 70
     1
102
RTVSPropertyOp12
 70
     1
102
RTVSPropertyOp13
 70
     1
102
RTVSPropertyOp14
 70
     1
102
RTVSPropertyOp15
 70
     1
102
RTVSPropertyOp16
 70
     1
102
RTVSPropertyOp17
 70
     1
102
RTVSPropertyOp18
 70
     1
102
RTVSPropertyOp19
 70
     1
102
RTVSPropertyOp20
 70
     1
102
RTVSPropertyOp21
 70
     1
102
RTVSPropertyOp22
 70
     1
102
RTVSPropertyOp23
 70
     1
102
RTVSPropertyOp24
 70
     1
102
RTVSPropertyOp25
 70
     1
102
RTVSPropertyOp26
 70
     1
102
RTVSPropertyOp27
 70
     1
102
RTVSPropertyOp28
 70
     1
102
RTVSPropertyOp29
 70
     1
102
RTVSPropertyOp30
 70
     1
102
RTVSPropertyOp31
 70
     1
102
RTVSPropertyOp32
 70
     1
102
RTVSPropertyOp33
 70
     1
102
RTVSPropertyOp34
 70
     1
102
RTVSPropertyOp35
 70
     1
102
RTVSPropertyOp36
 70
     1
102
RTVSPropertyOp37
 70
     1
102
RTVSPropertyOp38
 70
     1
102
RTVSPropertyOp39
 70
     1
102
RTVSPropertyOp40
 70
     1
102
RTVSPropertyOp41
 70
     1
102
RTVSPropertyOp42
 70
     1
102
RTVSPropertyOp43
 70
     1
102
RTVSPropertyOp44
 70
     1
102
RTVSPropertyOp45
 70
     1
102
RTVSPropertyOp46
 70
     1
102
RTVSPropertyOp47
 70
     1
102
RTVSPropertyOp48
 70
     1
102
RTVSPropertyOp49
 70
     1
102
RTVSPropertyOp50
 70
     1
102
RTVSPropertyOp51
 70
     0
102
RTVSPropertyOp52
 70
     0
102
RTVSPropertyOp53
 70
     1
102
RTVSPropertyOp54
 70
     1
102
RTVSPropertyOp55
 70
     1
102
RTVSPropertyOp56
 70
     1
102
RTVSPropertyOp57
 70
     1
102
RTVSPost2010Prop28
280
     0
102
RTVSPost2010PropOp28
 70
     1
102
RTVSPost2010Prop29
280
     1
102
RTVSPost2010PropOp29
 70
     1
102
RTVSPost2010Prop30
280
     1
102
RTVSPost2010PropOp30
 70
     1
102
RTVSPost2010Prop31
280
     0
102
RTVSPost2010PropOp31
 70
     1
102
RTVSPost2010Prop32
280
     0
102
RTVSPost2010PropOp32
 70
     1
102
RTVSPost2010Prop33
280
     0
102
RTVSPost2010PropOp33
 70
     1
102
RTVSPost2010Prop34
280
     0
102
RTVSPost2010PropOp34
 70
     1
102
RTVSPost2010Prop35
280
     0
102
RTVSPost2010PropOp35
 70
     1
102
RTVSPost2010Prop36
280
     0
102
RTVSPost2010PropOp36
 70
     1
102
RTVSPost2010Prop37
 90
       50
102
RTVSPost2010PropOp37
 70
     1
102
RTVSPost2010Prop38
140
0.0
102
RTVSPost2010PropOp38
 70
     1
102
RTVSPost2010Prop39
140
1.0
102
RTVSPost2010PropOp39
 70
     1
102
RTVSPost2010Prop40
 90
        0
102
RTVSPost2010PropOp40
 70
     1
102
RTVSPost2010Prop41ColorIndex
 90
       18
102
RTVSPost2010Prop41ColorRGB
 90
        0
102
RTVSPost2010PropOp41
 70
     1
102
RTVSPost2010Prop42
 90
       50
102
RTVSPost2010PropOp42
 70
     1
102
RTVSPost2010Prop43
 90
        3
102
RTVSPost2010PropOp43
 70
     1
102
RTVSPost2010Prop44ColorIndex
 90
        5
102
RTVSPost2010Prop44ColorRGB
 90
      255
102
RTVSPost2010PropOp44
 70
     1
102
RTVSPost2010Prop45
280
     0
102
RTVSPost2010PropOp45
 70
     1
102
RTVSPost2010Prop46
 90
       50
102
RTVSPost2010PropOp46
 70
     1
102
RTVSPost2010Prop47
 90
       50
102
RTVSPost2010PropOp47
 70
     1
102
RTVSPost2010Prop48
 90
       50
102
RTVSPost2010PropOp48
 70
     1
102
RTVSPost2010Prop49
280
     0
102
RTVSPost2010PropOp49
 70
     1
102
RTVSPost2010Prop50
 90
       50
102
RTVSPost2010PropOp50
 70
     1
102
RTVSPost2010Prop51ColorIndex
 90
      256
102
RTVSPost2010Prop51ColorRGB
 90
-16777216
102
RTVSPost2010PropOp51
 70
     0
102
RTVSPost2010Prop52
140
1.0
102
RTVSPost2010PropOp52
 70
     0
102
RTVSPost2010Prop53
 90
        2
102
RTVSPost2010PropOp53
 70
     1
102
RTVSPost2010Prop54
  1
strokes_ogs.tif
102
RTVSPost2010PropOp54
 70
     1
102
RTVSPost2010Prop55
280
     0
102
RTVSPost2010PropOp55
 70
     1
102
RTVSPost2010Prop56
140
1.0
102
RTVSPost2010PropOp56
 70
     1
102
RTVSPost2010Prop57
140
1.0
102
RTVSPost2010PropOp57
 70
     1
  0
XRECORD
  5
DD
102
{ACAD_REACTORS
330
DC
102
}
330
DC
100
AcDbXrecord
280
     1
102
RTVSPropertyOp0
 70
     0
102
RTVSPropertyOp1
 70
     0
102
RTVSPropertyOp2
 70
     0
102
RTVSPropertyOp3
 70
     0
102
RTVSPropertyOp4
 70
     0
102
RTVSPropertyOp5
 70
     0
102
RTVSPropertyOp6
 70
     0
102
RTVSPropertyOp7
 70
     0
102
RTVSPropertyOp8
 70
     0
102
RTVSPropertyOp9
 70
     0
102
RTVSPropertyOp10
 70
     0
102
RTVSPropertyOp11
 70
     0
102
RTVSPropertyOp12
 70
     0
102
RTVSPropertyOp13
 70
     0
102
RTVSPropertyOp14
 70
     2
102
RTVSPropertyOp15
 70
     0
102
RTVSPropertyOp16
 70
     0
102
RTVSPropertyOp17
 70
     0
102
RTVSPropertyOp18
 70
     0
102
RTVSPropertyOp19
 70
     0
102
RTVSPropertyOp20
 70
     0
102
RTVSPropertyOp21
 70
     0
102
RTVSPropertyOp22
 70
     0
102
RTVSPropertyOp23
 70
     0
102
RTVSPropertyOp24
 70
     0
102
RTVSPropertyOp25
 70
     0
102
RTVSPropertyOp26
 70
     0
102
RTVSPropertyOp27
 70
     0
102
RTVSPropertyOp28
 70
     0
102
RTVSPropertyOp29
 70
     0
102
RTVSPropertyOp30
 70
     0
102
RTVSPropertyOp31
 70
     0
102
RTVSPropertyOp32
 70
     0
102
RTVSPropertyOp33
 70
     0
102
RTVSPropertyOp34
 70
     0
102
RTVSPropertyOp35
 70
     0
102
RTVSPropertyOp36
 70
     0
102
RTVSPropertyOp37
 70
     0
102
RTVSPropertyOp38
 70
     0
102
RTVSPropertyOp39
 70
     0
102
RTVSPropertyOp40
 70
     0
102
RTVSPropertyOp41
 70
     0
102
RTVSPropertyOp42
 70
     0
102
RTVSPropertyOp43
 70
     0
102
RTVSPropertyOp44
 70
     0
102
RTVSPropertyOp45
 70
     0
102
RTVSPropertyOp46
 70
     0
102
RTVSPropertyOp47
 70
     0
102
RTVSPropertyOp48
 70
     0
102
RTVSPropertyOp49
 70
     0
102
RTVSPropertyOp50
 70
     0
102
RTVSPropertyOp51
 70
     0
102
RTVSPropertyOp52
 70
     0
102
RTVSPropertyOp53
 70
     0
102
RTVSPropertyOp54
 70
     0
102
RTVSPropertyOp55
 70
     0
102
RTVSPropertyOp56
 70
     0
102
RTVSPropertyOp57
 70
     0
102
RTVSPost2010Prop28
280
     0
102
RTVSPost2010PropOp28
 70
     0
102
RTVSPost2010Prop29
280
     1
102
RTVSPost2010PropOp29
 70
     0
102
RTVSPost2010Prop30
280
     1
102
RTVSPost2010PropOp30
 70
     0
102
RTVSPost2010Prop31
280
     0
102
RTVSPost2010PropOp31
 70
     0
102
RTVSPost2010Prop32
280
     0
102
RTVSPost2010PropOp32
 70
     0
102
RTVSPost2010Prop33
280
     0
102
RTVSPost2010PropOp33
 70
     0
102
RTVSPost2010Prop34
280
     0
102
RTVSPost2010PropOp34
 70
     0
102
RTVSPost2010Prop35
280
     0
102
RTVSPost2010PropOp35
 70
     0
102
RTVSPost2010Prop36
280
     0
102
RTVSPost2010PropOp36
 70
     0
102
RTVSPost2010Prop37
 90
       50
102
RTVSPost2010PropOp37
 70
     0
102
RTVSPost2010Prop38
140
0.0
102
RTVSPost2010PropOp38
 70
     0
102
RTVSPost2010Prop39
140
1.0
102
RTVSPost2010PropOp39
 70
     0
102
RTVSPost2010Prop40
 90
        0
102
RTVSPost2010PropOp40
 70
     0
102
RTVSPost2010Prop41ColorIndex
 90
       18
102
RTVSPost2010Prop41ColorRGB
 90
        0
102
RTVSPost2010PropOp41
 70
     0
102
RTVSPost2010Prop42
 90
       50
102
RTVSPost2010PropOp42
 70
     0
102
RTVSPost2010Prop43
 90
        3
102
RTVSPost2010PropOp43
 70
     0
102
RTVSPost2010Prop44ColorIndex
 90
        5
102
RTVSPost2010Prop44ColorRGB
 90
      255
102
RTVSPost2010PropOp44
 70
     0
102
RTVSPost2010Prop45
280
     0
102
RTVSPost2010PropOp45
 70
     0
102
RTVSPost2010Prop46
 90
       50
102
RTVSPost2010PropOp46
 70
     0
102
RTVSPost2010Prop47
 90
       50
102
RTVSPost2010PropOp47
 70
     0
102
RTVSPost2010Prop48
 90
       50
102
RTVSPost2010PropOp48
 70
     0
102
RTVSPost2010Prop49
280
     0
102
RTVSPost2010PropOp49
 70
     0
102
RTVSPost2010Prop50
 90
       50
102
RTVSPost2010PropOp50
 70
     0
102
RTVSPost2010Prop51ColorIndex
 90
      256
102
RTVSPost2010Prop51ColorRGB
 90
-16777216
102
RTVSPost2010PropOp51
 70
     0
102
RTVSPost2010Prop52
140
1.0
102
RTVSPost2010PropOp52
 70
     0
102
RTVSPost2010Prop53
 90
        2
102
RTVSPost2010PropOp53
 70
     0
102
RTVSPost2010Prop54
  1
strokes_ogs.tif
102
RTVSPost2010PropOp54
 70
     0
102
RTVSPost2010Prop55
280
     0
102
RTVSPost2010PropOp55
 70
     0
102
RTVSPost2010Prop56
140
1.0
102
RTVSPost2010PropOp56
 70
     0
102
RTVSPost2010Prop57
140
1.0
102
RTVSPost2010PropOp57
 70
     0
  0
XRECORD
  5
D5
102
{ACAD_REACTORS
330
D4
102
}
330
D4
100
AcDbXrecord
280
     1
102
RTVSPropertyOp0
 70
     1
102
RTVSPropertyOp1
 70
     1
102
RTVSPropertyOp2
 70
     1
102
RTVSPropertyOp3
 70
     1
102
RTVSPropertyOp4
 70
     1
102
RTVSPropertyOp5
 70
     1
102
RTVSPropertyOp6
 70
     1
102
RTVSPropertyOp7
 70
     1
102
RTVSPropertyOp8
 70
     1
102
RTVSPropertyOp9
 70
     1
102
RTVSPropertyOp10
 70
     1
102
RTVSPropertyOp11
 70
     1
102
RTVSPropertyOp12
 70
     1
102
RTVSPropertyOp13
 70
     1
102
RTVSPropertyOp14
 70
     1
102
RTVSPropertyOp15
 70
     1
102
RTVSPropertyOp16
 70
     1
102
RTVSPropertyOp17
 70
     1
102
RTVSPropertyOp18
 70
     1
102
RTVSPropertyOp19
 70
     1
102
RTVSPropertyOp20
 70
     1
102
RTVSPropertyOp21
 70
     1
102
RTVSPropertyOp22
 70
     1
102
RTVSPropertyOp23
 70
     1
102
RTVSPropertyOp24
 70
     1
102
RTVSPropertyOp25
 70
     1
102
RTVSPropertyOp26
 70
     1
102
RTVSPropertyOp27
 70
     1
102
RTVSPropertyOp28
 70
     1
102
RTVSPropertyOp29
 70
     1
102
RTVSPropertyOp30
 70
     1
102
RTVSPropertyOp31
 70
     1
102
RTVSPropertyOp32
 70
     1
102
RTVSPropertyOp33
 70
     1
102
RTVSPropertyOp34
 70
     1
102
RTVSPropertyOp35
 70
     1
102
RTVSPropertyOp36
 70
     1
102
RTVSPropertyOp37
 70
     1
102
RTVSPropertyOp38
 70
     1
102
RTVSPropertyOp39
 70
     1
102
RTVSPropertyOp40
 70
     1
102
RTVSPropertyOp41
 70
     1
102
RTVSPropertyOp42
 70
     1
102
RTVSPropertyOp43
 70
     1
102
RTVSPropertyOp44
 70
     1
102
RTVSPropertyOp45
 70
     1
102
RTVSPropertyOp46
 70
     1
102
RTVSPropertyOp47
 70
     1
102
RTVSPropertyOp48
 70
     1
102
RTVSPropertyOp49
 70
     1
102
RTVSPropertyOp50
 70
     1
102
RTVSPropertyOp51
 70
     0
102
RTVSPropertyOp52
 70
     0
102
RTVSPropertyOp53
 70
     1
102
RTVSPropertyOp54
 70
     1
102
RTVSPropertyOp55
 70
     1
102
RTVSPropertyOp56
 70
     1
102
RTVSPropertyOp57
 70
     1
102
RTVSPost2010Prop28
280
     0
102
RTVSPost2010PropOp28
 70
     1
102
RTVSPost2010Prop29
280
     1
102
RTVSPost2010PropOp29
 70
     1
102
RTVSPost2010Prop30
280
     1
102
RTVSPost2010PropOp30
 70
     1
102
RTVSPost2010Prop31
280
     0
102
RTVSPost2010PropOp31
 70
     1
102
RTVSPost2010Prop32
280
     0
102
RTVSPost2010PropOp32
 70
     1
102
RTVSPost2010Prop33
280
     0
102
RTVSPost2010PropOp33
 70
     1
102
RTVSPost2010Prop34
280
     0
102
RTVSPost2010PropOp34
 70
     1
102
RTVSPost2010Prop35
280
     0
102
RTVSPost2010PropOp35
 70
     1
102
RTVSPost2010Prop36
280
     0
102
RTVSPost2010PropOp36
 70
     1
102
RTVSPost2010Prop37
 90
       50
102
RTVSPost2010PropOp37
 70
     1
102
RTVSPost2010Prop38
140
0.0
102
RTVSPost2010PropOp38
 70
     1
102
RTVSPost2010Prop39
140
1.0
102
RTVSPost2010PropOp39
 70
     1
102
RTVSPost2010Prop40
 90
        0
102
RTVSPost2010PropOp40
 70
     1
102
RTVSPost2010Prop41ColorIndex
 90
       18
102
RTVSPost2010Prop41ColorRGB
 90
        0
102
RTVSPost2010PropOp41
 70
     1
102
RTVSPost2010Prop42
 90
       50
102
RTVSPost2010PropOp42
 70
     1
102
RTVSPost2010Prop43
 90
        3
102
RTVSPost2010PropOp43
 70
     1
102
RTVSPost2010Prop44ColorIndex
 90
        5
102
RTVSPost2010Prop44ColorRGB
 90
      255
102
RTVSPost2010PropOp44
 70
     1
102
RTVSPost2010Prop45
280
     0
102
RTVSPost2010PropOp45
 70
     1
102
RTVSPost2010Prop46
 90
       50
102
RTVSPost2010PropOp46
 70
     1
102
RTVSPost2010Prop47
 90
       50
102
RTVSPost2010PropOp47
 70
     1
102
RTVSPost2010Prop48
 90
       50
102
RTVSPost2010PropOp48
 70
     1
102
RTVSPost2010Prop49
280
     0
102
RTVSPost2010PropOp49
 70
     1
102
RTVSPost2010Prop50
 90
       50
102
RTVSPost2010PropOp50
 70
     1
102
RTVSPost2010Prop51ColorIndex
 90
      256
102
RTVSPost2010Prop51ColorRGB
 90
-16777216
102
RTVSPost2010PropOp51
 70
     0
102
RTVSPost2010Prop52
140
1.0
102
RTVSPost2010PropOp52
 70
     0
102
RTVSPost2010Prop53
 90
        2
102
RTVSPost2010PropOp53
 70
     1
102
RTVSPost2010Prop54
  1
strokes_ogs.tif
102
RTVSPost2010PropOp54
 70
     1
102
RTVSPost2010Prop55
280
     0
102
RTVSPost2010PropOp55
 70
     1
102
RTVSPost2010Prop56
140
1.0
102
RTVSPost2010PropOp56
 70
     1
102
RTVSPost2010Prop57
140
1.0
102
RTVSPost2010PropOp57
 70
     1
  0
XRECORD
  5
B9
102
{ACAD_REACTORS
330
B8
102
}
330
B8
100
AcDbXrecord
280
     1
102
RTVSPropertyOp0
 70
     1
102
RTVSPropertyOp1
 70
     1
102
RTVSPropertyOp2
 70
     1
102
RTVSPropertyOp3
 70
     1
102
RTVSPropertyOp4
 70
     1
102
RTVSPropertyOp5
 70
     1
102
RTVSPropertyOp6
 70
     1
102
RTVSPropertyOp7
 70
     1
102
RTVSPropertyOp8
 70
     1
102
RTVSPropertyOp9
 70
     1
102
RTVSPropertyOp10
 70
     1
102
RTVSPropertyOp11
 70
     1
102
RTVSPropertyOp12
 70
     1
102
RTVSPropertyOp13
 70
     1
102
RTVSPropertyOp14
 70
     1
102
RTVSPropertyOp15
 70
     1
102
RTVSPropertyOp16
 70
     1
102
RTVSPropertyOp17
 70
     1
102
RTVSPropertyOp18
 70
     1
102
RTVSPropertyOp19
 70
     1
102
RTVSPropertyOp20
 70
     1
102
RTVSPropertyOp21
 70
     1
102
RTVSPropertyOp22
 70
     1
102
RTVSPropertyOp23
 70
     1
102
RTVSPropertyOp24
 70
     1
102
RTVSPropertyOp25
 70
     1
102
RTVSPropertyOp26
 70
     1
102
RTVSPropertyOp27
 70
     1
102
RTVSPropertyOp28
 70
     1
102
RTVSPropertyOp29
 70
     1
102
RTVSPropertyOp30
 70
     1
102
RTVSPropertyOp31
 70
     1
102
RTVSPropertyOp32
 70
     1
102
RTVSPropertyOp33
 70
     1
102
RTVSPropertyOp34
 70
     1
102
RTVSPropertyOp35
 70
     1
102
RTVSPropertyOp36
 70
     1
102
RTVSPropertyOp37
 70
     1
102
RTVSPropertyOp38
 70
     1
102
RTVSPropertyOp39
 70
     1
102
RTVSPropertyOp40
 70
     1
102
RTVSPropertyOp41
 70
     1
102
RTVSPropertyOp42
 70
     1
102
RTVSPropertyOp43
 70
     1
102
RTVSPropertyOp44
 70
     1
102
RTVSPropertyOp45
 70
     1
102
RTVSPropertyOp46
 70
     1
102
RTVSPropertyOp47
 70
     1
102
RTVSPropertyOp48
 70
     1
102
RTVSPropertyOp49
 70
     1
102
RTVSPropertyOp50
 70
     1
102
RTVSPropertyOp51
 70
     0
102
RTVSPropertyOp52
 70
     0
102
RTVSPropertyOp53
 70
     1
102
RTVSPropertyOp54
 70
     1
102
RTVSPropertyOp55
 70
     1
102
RTVSPropertyOp56
 70
     1
102
RTVSPropertyOp57
 70
     1
102
RTVSPost2010Prop28
280
     0
102
RTVSPost2010PropOp28
 70
     1
102
RTVSPost2010Prop29
280
     1
102
RTVSPost2010PropOp29
 70
     1
102
RTVSPost2010Prop30
280
     1
102
RTVSPost2010PropOp30
 70
     1
102
RTVSPost2010Prop31
280
     0
102
RTVSPost2010PropOp31
 70
     1
102
RTVSPost2010Prop32
280
     0
102
RTVSPost2010PropOp32
 70
     1
102
RTVSPost2010Prop33
280
     0
102
RTVSPost2010PropOp33
 70
     1
102
RTVSPost2010Prop34
280
     0
102
RTVSPost2010PropOp34
 70
     1
102
RTVSPost2010Prop35
280
     0
102
RTVSPost2010PropOp35
 70
     1
102
RTVSPost2010Prop36
280
     0
102
RTVSPost2010PropOp36
 70
     1
102
RTVSPost2010Prop37
 90
       50
102
RTVSPost2010PropOp37
 70
     1
102
RTVSPost2010Prop38
140
0.0
102
RTVSPost2010PropOp38
 70
     1
102
RTVSPost2010Prop39
140
1.0
102
RTVSPost2010PropOp39
 70
     1
102
RTVSPost2010Prop40
 90
        0
102
RTVSPost2010PropOp40
 70
     1
102
RTVSPost2010Prop41ColorIndex
 90
       18
102
RTVSPost2010Prop41ColorRGB
 90
        0
102
RTVSPost2010PropOp41
 70
     1
102
RTVSPost2010Prop42
 90
       50
102
RTVSPost2010PropOp42
 70
     1
102
RTVSPost2010Prop43
 90
        3
102
RTVSPost2010PropOp43
 70
     1
102
RTVSPost2010Prop44ColorIndex
 90
        5
102
RTVSPost2010Prop44ColorRGB
 90
      255
102
RTVSPost2010PropOp44
 70
     1
102
RTVSPost2010Prop45
280
     0
102
RTVSPost2010PropOp45
 70
     1
102
RTVSPost2010Prop46
 90
       50
102
RTVSPost2010PropOp46
 70
     1
102
RTVSPost2010Prop47
 90
       50
102
RTVSPost2010PropOp47
 70
     1
102
RTVSPost2010Prop48
 90
       50
102
RTVSPost2010PropOp48
 70
     1
102
RTVSPost2010Prop49
280
     0
102
RTVSPost2010PropOp49
 70
     1
102
RTVSPost2010Prop50
 90
       50
102
RTVSPost2010PropOp50
 70
     1
102
RTVSPost2010Prop51ColorIndex
 90
      256
102
RTVSPost2010Prop51ColorRGB
 90
-16777216
102
RTVSPost2010PropOp51
 70
     0
102
RTVSPost2010Prop52
140
1.0
102
RTVSPost2010PropOp52
 70
     0
102
RTVSPost2010Prop53
 90
        2
102
RTVSPost2010PropOp53
 70
     1
102
RTVSPost2010Prop54
  1
strokes_ogs.tif
102
RTVSPost2010PropOp54
 70
     1
102
RTVSPost2010Prop55
280
     0
102
RTVSPost2010PropOp55
 70
     1
102
RTVSPost2010Prop56
140
1.0
102
RTVSPost2010PropOp56
 70
     1
102
RTVSPost2010Prop57
140
1.0
102
RTVSPost2010PropOp57
 70
     1
  0
XRECORD
  5
BB
102
{ACAD_REACTORS
330
BA
102
}
330
BA
100
AcDbXrecord
280
     1
102
RTVSPropertyOp0
 70
     1
102
RTVSPropertyOp1
 70
     1
102
RTVSPropertyOp2
 70
     1
102
RTVSPropertyOp3
 70
     1
102
RTVSPropertyOp4
 70
     1
102
RTVSPropertyOp5
 70
     1
102
RTVSPropertyOp6
 70
     1
102
RTVSPropertyOp7
 70
     1
102
RTVSPropertyOp8
 70
     1
102
RTVSPropertyOp9
 70
     1
102
RTVSPropertyOp10
 70
     1
102
RTVSPropertyOp11
 70
     1
102
RTVSPropertyOp12
 70
     1
102
RTVSPropertyOp13
 70
     1
102
RTVSPropertyOp14
 70
     1
102
RTVSPropertyOp15
 70
     1
102
RTVSPropertyOp16
 70
     1
102
RTVSPropertyOp17
 70
     1
102
RTVSPropertyOp18
 70
     1
102
RTVSPropertyOp19
 70
     1
102
RTVSPropertyOp20
 70
     1
102
RTVSPropertyOp21
 70
     1
102
RTVSPropertyOp22
 70
     1
102
RTVSPropertyOp23
 70
     1
102
RTVSPropertyOp24
 70
     1
102
RTVSPropertyOp25
 70
     1
102
RTVSPropertyOp26
 70
     1
102
RTVSPropertyOp27
 70
     1
102
RTVSPropertyOp28
 70
     1
102
RTVSPropertyOp29
 70
     1
102
RTVSPropertyOp30
 70
     1
102
RTVSPropertyOp31
 70
     1
102
RTVSPropertyOp32
 70
     1
102
RTVSPropertyOp33
 70
     1
102
RTVSPropertyOp34
 70
     1
102
RTVSPropertyOp35
 70
     1
102
RTVSPropertyOp36
 70
     1
102
RTVSPropertyOp37
 70
     1
102
RTVSPropertyOp38
 70
     1
102
RTVSPropertyOp39
 70
     1
102
RTVSPropertyOp40
 70
     1
102
RTVSPropertyOp41
 70
     1
102
RTVSPropertyOp42
 70
     1
102
RTVSPropertyOp43
 70
     1
102
RTVSPropertyOp44
 70
     1
102
RTVSPropertyOp45
 70
     1
102
RTVSPropertyOp46
 70
     1
102
RTVSPropertyOp47
 70
     1
102
RTVSPropertyOp48
 70
     1
102
RTVSPropertyOp49
 70
     1
102
RTVSPropertyOp50
 70
     1
102
RTVSPropertyOp51
 70
     0
102
RTVSPropertyOp52
 70
     0
102
RTVSPropertyOp53
 70
     1
102
RTVSPropertyOp54
 70
     1
102
RTVSPropertyOp55
 70
     1
102
RTVSPropertyOp56
 70
     1
102
RTVSPropertyOp57
 70
     1
102
RTVSPost2010Prop28
280
     0
102
RTVSPost2010PropOp28
 70
     1
102
RTVSPost2010Prop29
280
     1
102
RTVSPost2010PropOp29
 70
     1
102
RTVSPost2010Prop30
280
     1
102
RTVSPost2010PropOp30
 70
     1
102
RTVSPost2010Prop31
280
     0
102
RTVSPost2010PropOp31
 70
     1
102
RTVSPost2010Prop32
280
     0
102
RTVSPost2010PropOp32
 70
     1
102
RTVSPost2010Prop33
280
     0
102
RTVSPost2010PropOp33
 70
     1
102
RTVSPost2010Prop34
280
     0
102
RTVSPost2010PropOp34
 70
     1
102
RTVSPost2010Prop35
280
     0
102
RTVSPost2010PropOp35
 70
     1
102
RTVSPost2010Prop36
280
     0
102
RTVSPost2010PropOp36
 70
     1
102
RTVSPost2010Prop37
 90
       50
102
RTVSPost2010PropOp37
 70
     1
102
RTVSPost2010Prop38
140
0.0
102
RTVSPost2010PropOp38
 70
     1
102
RTVSPost2010Prop39
140
1.0
102
RTVSPost2010PropOp39
 70
     1
102
RTVSPost2010Prop40
 90
        0
102
RTVSPost2010PropOp40
 70
     1
102
RTVSPost2010Prop41ColorIndex
 90
       18
102
RTVSPost2010Prop41ColorRGB
 90
        0
102
RTVSPost2010PropOp41
 70
     1
102
RTVSPost2010Prop42
 90
       50
102
RTVSPost2010PropOp42
 70
     1
102
RTVSPost2010Prop43
 90
        3
102
RTVSPost2010PropOp43
 70
     1
102
RTVSPost2010Prop44ColorIndex
 90
        5
102
RTVSPost2010Prop44ColorRGB
 90
      255
102
RTVSPost2010PropOp44
 70
     1
102
RTVSPost2010Prop45
280
     0
102
RTVSPost2010PropOp45
 70
     1
102
RTVSPost2010Prop46
 90
       50
102
RTVSPost2010PropOp46
 70
     1
102
RTVSPost2010Prop47
 90
       50
102
RTVSPost2010PropOp47
 70
     1
102
RTVSPost2010Prop48
 90
       50
102
RTVSPost2010PropOp48
 70
     1
102
RTVSPost2010Prop49
280
     0
102
RTVSPost2010PropOp49
 70
     1
102
RTVSPost2010Prop50
 90
       50
102
RTVSPost2010PropOp50
 70
     1
102
RTVSPost2010Prop51ColorIndex
 90
      256
102
RTVSPost2010Prop51ColorRGB
 90
-16777216
102
RTVSPost2010PropOp51
 70
     0
102
RTVSPost2010Prop52
140
1.0
102
RTVSPost2010PropOp52
 70
     0
102
RTVSPost2010Prop53
 90
        2
102
RTVSPost2010PropOp53
 70
     1
102
RTVSPost2010Prop54
  1
strokes_ogs.tif
102
RTVSPost2010PropOp54
 70
     1
102
RTVSPost2010Prop55
280
     0
102
RTVSPost2010PropOp55
 70
     1
102
RTVSPost2010Prop56
140
1.0
102
RTVSPost2010PropOp56
 70
     1
102
RTVSPost2010Prop57
140
1.0
102
RTVSPost2010PropOp57
 70
     1
  0
XRECORD
  5
BD
102
{ACAD_REACTORS
330
BC
102
}
330
BC
100
AcDbXrecord
280
     1
102
RTVSPropertyOp0
 70
     1
102
RTVSPropertyOp1
 70
     1
102
RTVSPropertyOp2
 70
     1
102
RTVSPropertyOp3
 70
     1
102
RTVSPropertyOp4
 70
     1
102
RTVSPropertyOp5
 70
     1
102
RTVSPropertyOp6
 70
     1
102
RTVSPropertyOp7
 70
     1
102
RTVSPropertyOp8
 70
     1
102
RTVSPropertyOp9
 70
     1
102
RTVSPropertyOp10
 70
     1
102
RTVSPropertyOp11
 70
     1
102
RTVSPropertyOp12
 70
     1
102
RTVSPropertyOp13
 70
     1
102
RTVSPropertyOp14
 70
     1
102
RTVSPropertyOp15
 70
     1
102
RTVSPropertyOp16
 70
     1
102
RTVSPropertyOp17
 70
     1
102
RTVSPropertyOp18
 70
     1
102
RTVSPropertyOp19
 70
     1
102
RTVSPropertyOp20
 70
     1
102
RTVSPropertyOp21
 70
     1
102
RTVSPropertyOp22
 70
     1
102
RTVSPropertyOp23
 70
     1
102
RTVSPropertyOp24
 70
     1
102
RTVSPropertyOp25
 70
     1
102
RTVSPropertyOp26
 70
     1
102
RTVSPropertyOp27
 70
     1
102
RTVSPropertyOp28
 70
     1
102
RTVSPropertyOp29
 70
     1
102
RTVSPropertyOp30
 70
     1
102
RTVSPropertyOp31
 70
     1
102
RTVSPropertyOp32
 70
     1
102
RTVSPropertyOp33
 70
     1
102
RTVSPropertyOp34
 70
     1
102
RTVSPropertyOp35
 70
     1
102
RTVSPropertyOp36
 70
     1
102
RTVSPropertyOp37
 70
     1
102
RTVSPropertyOp38
 70
     1
102
RTVSPropertyOp39
 70
     1
102
RTVSPropertyOp40
 70
     1
102
RTVSPropertyOp41
 70
     1
102
RTVSPropertyOp42
 70
     1
102
RTVSPropertyOp43
 70
     1
102
RTVSPropertyOp44
 70
     1
102
RTVSPropertyOp45
 70
     1
102
RTVSPropertyOp46
 70
     1
102
RTVSPropertyOp47
 70
     1
102
RTVSPropertyOp48
 70
     1
102
RTVSPropertyOp49
 70
     1
102
RTVSPropertyOp50
 70
     1
102
RTVSPropertyOp51
 70
     0
102
RTVSPropertyOp52
 70
     0
102
RTVSPropertyOp53
 70
     1
102
RTVSPropertyOp54
 70
     1
102
RTVSPropertyOp55
 70
     1
102
RTVSPropertyOp56
 70
     1
102
RTVSPropertyOp57
 70
     1
102
RTVSPost2010Prop28
280
     0
102
RTVSPost2010PropOp28
 70
     1
102
RTVSPost2010Prop29
280
     1
102
RTVSPost2010PropOp29
 70
     1
102
RTVSPost2010Prop30
280
     1
102
RTVSPost2010PropOp30
 70
     1
102
RTVSPost2010Prop31
280
     0
102
RTVSPost2010PropOp31
 70
     1
102
RTVSPost2010Prop32
280
     0
102
RTVSPost2010PropOp32
 70
     1
102
RTVSPost2010Prop33
280
     0
102
RTVSPost2010PropOp33
 70
     1
102
RTVSPost2010Prop34
280
     0
102
RTVSPost2010PropOp34
 70
     1
102
RTVSPost2010Prop35
280
     0
102
RTVSPost2010PropOp35
 70
     1
102
RTVSPost2010Prop36
280
     0
102
RTVSPost2010PropOp36
 70
     1
102
RTVSPost2010Prop37
 90
       50
102
RTVSPost2010PropOp37
 70
     1
102
RTVSPost2010Prop38
140
0.0
102
RTVSPost2010PropOp38
 70
     1
102
RTVSPost2010Prop39
140
1.0
102
RTVSPost2010PropOp39
 70
     1
102
RTVSPost2010Prop40
 90
        0
102
RTVSPost2010PropOp40
 70
     1
102
RTVSPost2010Prop41ColorIndex
 90
       18
102
RTVSPost2010Prop41ColorRGB
 90
        0
102
RTVSPost2010PropOp41
 70
     1
102
RTVSPost2010Prop42
 90
       50
102
RTVSPost2010PropOp42
 70
     1
102
RTVSPost2010Prop43
 90
        3
102
RTVSPost2010PropOp43
 70
     1
102
RTVSPost2010Prop44ColorIndex
 90
        5
102
RTVSPost2010Prop44ColorRGB
 90
      255
102
RTVSPost2010PropOp44
 70
     1
102
RTVSPost2010Prop45
280
     0
102
RTVSPost2010PropOp45
 70
     1
102
RTVSPost2010Prop46
 90
       50
102
RTVSPost2010PropOp46
 70
     1
102
RTVSPost2010Prop47
 90
       50
102
RTVSPost2010PropOp47
 70
     1
102
RTVSPost2010Prop48
 90
       50
102
RTVSPost2010PropOp48
 70
     1
102
RTVSPost2010Prop49
280
     0
102
RTVSPost2010PropOp49
 70
     1
102
RTVSPost2010Prop50
 90
       50
102
RTVSPost2010PropOp50
 70
     1
102
RTVSPost2010Prop51ColorIndex
 90
      256
102
RTVSPost2010Prop51ColorRGB
 90
-16777216
102
RTVSPost2010PropOp51
 70
     0
102
RTVSPost2010Prop52
140
1.0
102
RTVSPost2010PropOp52
 70
     0
102
RTVSPost2010Prop53
 90
        2
102
RTVSPost2010PropOp53
 70
     1
102
RTVSPost2010Prop54
  1
strokes_ogs.tif
102
RTVSPost2010PropOp54
 70
     1
102
RTVSPost2010Prop55
280
     0
102
RTVSPost2010PropOp55
 70
     1
102
RTVSPost2010Prop56
140
1.0
102
RTVSPost2010PropOp56
 70
     1
102
RTVSPost2010Prop57
140
1.0
102
RTVSPost2010PropOp57
 70
     1
  0
XRECORD
  5
BF
102
{ACAD_REACTORS
330
BE
102
}
330
BE
100
AcDbXrecord
280
     1
102
RTVSPropertyOp0
 70
     1
102
RTVSPropertyOp1
 70
     1
102
RTVSPropertyOp2
 70
     1
102
RTVSPropertyOp3
 70
     1
102
RTVSPropertyOp4
 70
     1
102
RTVSPropertyOp5
 70
     1
102
RTVSPropertyOp6
 70
     1
102
RTVSPropertyOp7
 70
     1
102
RTVSPropertyOp8
 70
     1
102
RTVSPropertyOp9
 70
     1
102
RTVSPropertyOp10
 70
     1
102
RTVSPropertyOp11
 70
     1
102
RTVSPropertyOp12
 70
     1
102
RTVSPropertyOp13
 70
     1
102
RTVSPropertyOp14
 70
     1
102
RTVSPropertyOp15
 70
     1
102
RTVSPropertyOp16
 70
     1
102
RTVSPropertyOp17
 70
     1
102
RTVSPropertyOp18
 70
     1
102
RTVSPropertyOp19
 70
     1
102
RTVSPropertyOp20
 70
     1
102
RTVSPropertyOp21
 70
     1
102
RTVSPropertyOp22
 70
     1
102
RTVSPropertyOp23
 70
     1
102
RTVSPropertyOp24
 70
     1
102
RTVSPropertyOp25
 70
     1
102
RTVSPropertyOp26
 70
     1
102
RTVSPropertyOp27
 70
     1
102
RTVSPropertyOp28
 70
     1
102
RTVSPropertyOp29
 70
     1
102
RTVSPropertyOp30
 70
     1
102
RTVSPropertyOp31
 70
     1
102
RTVSPropertyOp32
 70
     1
102
RTVSPropertyOp33
 70
     1
102
RTVSPropertyOp34
 70
     1
102
RTVSPropertyOp35
 70
     1
102
RTVSPropertyOp36
 70
     1
102
RTVSPropertyOp37
 70
     1
102
RTVSPropertyOp38
 70
     1
102
RTVSPropertyOp39
 70
     1
102
RTVSPropertyOp40
 70
     1
102
RTVSPropertyOp41
 70
     1
102
RTVSPropertyOp42
 70
     1
102
RTVSPropertyOp43
 70
     1
102
RTVSPropertyOp44
 70
     1
102
RTVSPropertyOp45
 70
     1
102
RTVSPropertyOp46
 70
     1
102
RTVSPropertyOp47
 70
     1
102
RTVSPropertyOp48
 70
     1
102
RTVSPropertyOp49
 70
     1
102
RTVSPropertyOp50
 70
     1
102
RTVSPropertyOp51
 70
     0
102
RTVSPropertyOp52
 70
     0
102
RTVSPropertyOp53
 70
     1
102
RTVSPropertyOp54
 70
     1
102
RTVSPropertyOp55
 70
     1
102
RTVSPropertyOp56
 70
     1
102
RTVSPropertyOp57
 70
     1
102
RTVSPost2010Prop28
280
     0
102
RTVSPost2010PropOp28
 70
     1
102
RTVSPost2010Prop29
280
     1
102
RTVSPost2010PropOp29
 70
     1
102
RTVSPost2010Prop30
280
     1
102
RTVSPost2010PropOp30
 70
     1
102
RTVSPost2010Prop31
280
     0
102
RTVSPost2010PropOp31
 70
     1
102
RTVSPost2010Prop32
280
     0
102
RTVSPost2010PropOp32
 70
     1
102
RTVSPost2010Prop33
280
     0
102
RTVSPost2010PropOp33
 70
     1
102
RTVSPost2010Prop34
280
     0
102
RTVSPost2010PropOp34
 70
     1
102
RTVSPost2010Prop35
280
     0
102
RTVSPost2010PropOp35
 70
     1
102
RTVSPost2010Prop36
280
     0
102
RTVSPost2010PropOp36
 70
     1
102
RTVSPost2010Prop37
 90
       50
102
RTVSPost2010PropOp37
 70
     1
102
RTVSPost2010Prop38
140
0.0
102
RTVSPost2010PropOp38
 70
     1
102
RTVSPost2010Prop39
140
1.0
102
RTVSPost2010PropOp39
 70
     1
102
RTVSPost2010Prop40
 90
        0
102
RTVSPost2010PropOp40
 70
     1
102
RTVSPost2010Prop41ColorIndex
 90
       18
102
RTVSPost2010Prop41ColorRGB
 90
        0
102
RTVSPost2010PropOp41
 70
     1
102
RTVSPost2010Prop42
 90
       50
102
RTVSPost2010PropOp42
 70
     1
102
RTVSPost2010Prop43
 90
        3
102
RTVSPost2010PropOp43
 70
     1
102
RTVSPost2010Prop44ColorIndex
 90
        5
102
RTVSPost2010Prop44ColorRGB
 90
      255
102
RTVSPost2010PropOp44
 70
     1
102
RTVSPost2010Prop45
280
     0
102
RTVSPost2010PropOp45
 70
     1
102
RTVSPost2010Prop46
 90
       50
102
RTVSPost2010PropOp46
 70
     1
102
RTVSPost2010Prop47
 90
       50
102
RTVSPost2010PropOp47
 70
     1
102
RTVSPost2010Prop48
 90
       50
102
RTVSPost2010PropOp48
 70
     1
102
RTVSPost2010Prop49
280
     0
102
RTVSPost2010PropOp49
 70
     1
102
RTVSPost2010Prop50
 90
       50
102
RTVSPost2010PropOp50
 70
     1
102
RTVSPost2010Prop51ColorIndex
 90
      256
102
RTVSPost2010Prop51ColorRGB
 90
-16777216
102
RTVSPost2010PropOp51
 70
     0
102
RTVSPost2010Prop52
140
1.0
102
RTVSPost2010PropOp52
 70
     0
102
RTVSPost2010Prop53
 90
        2
102
RTVSPost2010PropOp53
 70
     1
102
RTVSPost2010Prop54
  1
strokes_ogs.tif
102
RTVSPost2010PropOp54
 70
     1
102
RTVSPost2010Prop55
280
     0
102
RTVSPost2010PropOp55
 70
     1
102
RTVSPost2010Prop56
140
1.0
102
RTVSPost2010PropOp56
 70
     1
102
RTVSPost2010Prop57
140
1.0
102
RTVSPost2010PropOp57
 70
     1
  0
XRECORD
  5
C5
102
{ACAD_REACTORS
330
C4
102
}
330
C4
100
AcDbXrecord
280
     1
102
RTVSPropertyOp0
 70
     1
102
RTVSPropertyOp1
 70
     1
102
RTVSPropertyOp2
 70
     1
102
RTVSPropertyOp3
 70
     1
102
RTVSPropertyOp4
 70
     1
102
RTVSPropertyOp5
 70
     1
102
RTVSPropertyOp6
 70
     1
102
RTVSPropertyOp7
 70
     1
102
RTVSPropertyOp8
 70
     1
102
RTVSPropertyOp9
 70
     1
102
RTVSPropertyOp10
 70
     1
102
RTVSPropertyOp11
 70
     1
102
RTVSPropertyOp12
 70
     1
102
RTVSPropertyOp13
 70
     1
102
RTVSPropertyOp14
 70
     1
102
RTVSPropertyOp15
 70
     1
102
RTVSPropertyOp16
 70
     1
102
RTVSPropertyOp17
 70
     1
102
RTVSPropertyOp18
 70
     1
102
RTVSPropertyOp19
 70
     1
102
RTVSPropertyOp20
 70
     1
102
RTVSPropertyOp21
 70
     1
102
RTVSPropertyOp22
 70
     1
102
RTVSPropertyOp23
 70
     1
102
RTVSPropertyOp24
 70
     1
102
RTVSPropertyOp25
 70
     1
102
RTVSPropertyOp26
 70
     1
102
RTVSPropertyOp27
 70
     1
102
RTVSPropertyOp28
 70
     1
102
RTVSPropertyOp29
 70
     1
102
RTVSPropertyOp30
 70
     1
102
RTVSPropertyOp31
 70
     1
102
RTVSPropertyOp32
 70
     1
102
RTVSPropertyOp33
 70
     1
102
RTVSPropertyOp34
 70
     1
102
RTVSPropertyOp35
 70
     1
102
RTVSPropertyOp36
 70
     1
102
RTVSPropertyOp37
 70
     1
102
RTVSPropertyOp38
 70
     1
102
RTVSPropertyOp39
 70
     1
102
RTVSPropertyOp40
 70
     1
102
RTVSPropertyOp41
 70
     1
102
RTVSPropertyOp42
 70
     1
102
RTVSPropertyOp43
 70
     1
102
RTVSPropertyOp44
 70
     1
102
RTVSPropertyOp45
 70
     1
102
RTVSPropertyOp46
 70
     1
102
RTVSPropertyOp47
 70
     1
102
RTVSPropertyOp48
 70
     1
102
RTVSPropertyOp49
 70
     1
102
RTVSPropertyOp50
 70
     1
102
RTVSPropertyOp51
 70
     0
102
RTVSPropertyOp52
 70
     0
102
RTVSPropertyOp53
 70
     1
102
RTVSPropertyOp54
 70
     1
102
RTVSPropertyOp55
 70
     1
102
RTVSPropertyOp56
 70
     1
102
RTVSPropertyOp57
 70
     1
102
RTVSPost2010Prop28
280
     0
102
RTVSPost2010PropOp28
 70
     1
102
RTVSPost2010Prop29
280
     1
102
RTVSPost2010PropOp29
 70
     1
102
RTVSPost2010Prop30
280
     1
102
RTVSPost2010PropOp30
 70
     1
102
RTVSPost2010Prop31
280
     0
102
RTVSPost2010PropOp31
 70
     1
102
RTVSPost2010Prop32
280
     0
102
RTVSPost2010PropOp32
 70
     1
102
RTVSPost2010Prop33
280
     0
102
RTVSPost2010PropOp33
 70
     1
102
RTVSPost2010Prop34
280
     0
102
RTVSPost2010PropOp34
 70
     1
102
RTVSPost2010Prop35
280
     0
102
RTVSPost2010PropOp35
 70
     1
102
RTVSPost2010Prop36
280
     0
102
RTVSPost2010PropOp36
 70
     1
102
RTVSPost2010Prop37
 90
       50
102
RTVSPost2010PropOp37
 70
     1
102
RTVSPost2010Prop38
140
0.0
102
RTVSPost2010PropOp38
 70
     1
102
RTVSPost2010Prop39
140
1.0
102
RTVSPost2010PropOp39
 70
     1
102
RTVSPost2010Prop40
 90
        0
102
RTVSPost2010PropOp40
 70
     1
102
RTVSPost2010Prop41ColorIndex
 90
       18
102
RTVSPost2010Prop41ColorRGB
 90
        0
102
RTVSPost2010PropOp41
 70
     1
102
RTVSPost2010Prop42
 90
       50
102
RTVSPost2010PropOp42
 70
     1
102
RTVSPost2010Prop43
 90
        3
102
RTVSPost2010PropOp43
 70
     1
102
RTVSPost2010Prop44ColorIndex
 90
        5
102
RTVSPost2010Prop44ColorRGB
 90
      255
102
RTVSPost2010PropOp44
 70
     1
102
RTVSPost2010Prop45
280
     0
102
RTVSPost2010PropOp45
 70
     1
102
RTVSPost2010Prop46
 90
       50
102
RTVSPost2010PropOp46
 70
     1
102
RTVSPost2010Prop47
 90
       50
102
RTVSPost2010PropOp47
 70
     1
102
RTVSPost2010Prop48
 90
       50
102
RTVSPost2010PropOp48
 70
     1
102
RTVSPost2010Prop49
280
     0
102
RTVSPost2010PropOp49
 70
     1
102
RTVSPost2010Prop50
 90
       50
102
RTVSPost2010PropOp50
 70
     1
102
RTVSPost2010Prop51ColorIndex
 90
      256
102
RTVSPost2010Prop51ColorRGB
 90
-16777216
102
RTVSPost2010PropOp51
 70
     0
102
RTVSPost2010Prop52
140
1.0
102
RTVSPost2010PropOp52
 70
     0
102
RTVSPost2010Prop53
 90
        2
102
RTVSPost2010PropOp53
 70
     1
102
RTVSPost2010Prop54
  1
strokes_ogs.tif
102
RTVSPost2010PropOp54
 70
     1
102
RTVSPost2010Prop55
280
     0
102
RTVSPost2010PropOp55
 70
     1
102
RTVSPost2010Prop56
140
1.0
102
RTVSPost2010PropOp56
 70
     1
102
RTVSPost2010Prop57
140
1.0
102
RTVSPost2010PropOp57
 70
     1
  0
XRECORD
  5
D9
102
{ACAD_REACTORS
330
D8
102
}
330
D8
100
AcDbXrecord
280
     1
102
RTVSPropertyOp0
 70
     0
102
RTVSPropertyOp1
 70
     0
102
RTVSPropertyOp2
 70
     0
102
RTVSPropertyOp3
 70
     0
102
RTVSPropertyOp4
 70
     0
102
RTVSPropertyOp5
 70
     0
102
RTVSPropertyOp6
 70
     0
102
RTVSPropertyOp7
 70
     0
102
RTVSPropertyOp8
 70
     0
102
RTVSPropertyOp9
 70
     0
102
RTVSPropertyOp10
 70
     0
102
RTVSPropertyOp11
 70
     0
102
RTVSPropertyOp12
 70
     0
102
RTVSPropertyOp13
 70
     0
102
RTVSPropertyOp14
 70
     2
102
RTVSPropertyOp15
 70
     0
102
RTVSPropertyOp16
 70
     0
102
RTVSPropertyOp17
 70
     0
102
RTVSPropertyOp18
 70
     0
102
RTVSPropertyOp19
 70
     0
102
RTVSPropertyOp20
 70
     0
102
RTVSPropertyOp21
 70
     0
102
RTVSPropertyOp22
 70
     0
102
RTVSPropertyOp23
 70
     0
102
RTVSPropertyOp24
 70
     0
102
RTVSPropertyOp25
 70
     0
102
RTVSPropertyOp26
 70
     0
102
RTVSPropertyOp27
 70
     0
102
RTVSPropertyOp28
 70
     0
102
RTVSPropertyOp29
 70
     0
102
RTVSPropertyOp30
 70
     0
102
RTVSPropertyOp31
 70
     0
102
RTVSPropertyOp32
 70
     0
102
RTVSPropertyOp33
 70
     0
102
RTVSPropertyOp34
 70
     0
102
RTVSPropertyOp35
 70
     0
102
RTVSPropertyOp36
 70
     0
102
RTVSPropertyOp37
 70
     0
102
RTVSPropertyOp38
 70
     0
102
RTVSPropertyOp39
 70
     0
102
RTVSPropertyOp40
 70
     0
102
RTVSPropertyOp41
 70
     0
102
RTVSPropertyOp42
 70
     0
102
RTVSPropertyOp43
 70
     0
102
RTVSPropertyOp44
 70
     0
102
RTVSPropertyOp45
 70
     0
102
RTVSPropertyOp46
 70
     0
102
RTVSPropertyOp47
 70
     0
102
RTVSPropertyOp48
 70
     0
102
RTVSPropertyOp49
 70
     0
102
RTVSPropertyOp50
 70
     0
102
RTVSPropertyOp51
 70
     0
102
RTVSPropertyOp52
 70
     0
102
RTVSPropertyOp53
 70
     0
102
RTVSPropertyOp54
 70
     0
102
RTVSPropertyOp55
 70
     0
102
RTVSPropertyOp56
 70
     0
102
RTVSPropertyOp57
 70
     0
102
RTVSPost2010Prop28
280
     0
102
RTVSPost2010PropOp28
 70
     0
102
RTVSPost2010Prop29
280
     1
102
RTVSPost2010PropOp29
 70
     0
102
RTVSPost2010Prop30
280
     1
102
RTVSPost2010PropOp30
 70
     0
102
RTVSPost2010Prop31
280
     0
102
RTVSPost2010PropOp31
 70
     0
102
RTVSPost2010Prop32
280
     0
102
RTVSPost2010PropOp32
 70
     0
102
RTVSPost2010Prop33
280
     0
102
RTVSPost2010PropOp33
 70
     0
102
RTVSPost2010Prop34
280
     0
102
RTVSPost2010PropOp34
 70
     0
102
RTVSPost2010Prop35
280
     0
102
RTVSPost2010PropOp35
 70
     0
102
RTVSPost2010Prop36
280
     0
102
RTVSPost2010PropOp36
 70
     0
102
RTVSPost2010Prop37
 90
       50
102
RTVSPost2010PropOp37
 70
     0
102
RTVSPost2010Prop38
140
0.0
102
RTVSPost2010PropOp38
 70
     0
102
RTVSPost2010Prop39
140
1.0
102
RTVSPost2010PropOp39
 70
     0
102
RTVSPost2010Prop40
 90
        0
102
RTVSPost2010PropOp40
 70
     0
102
RTVSPost2010Prop41ColorIndex
 90
       18
102
RTVSPost2010Prop41ColorRGB
 90
        0
102
RTVSPost2010PropOp41
 70
     0
102
RTVSPost2010Prop42
 90
       50
102
RTVSPost2010PropOp42
 70
     0
102
RTVSPost2010Prop43
 90
        3
102
RTVSPost2010PropOp43
 70
     0
102
RTVSPost2010Prop44ColorIndex
 90
        5
102
RTVSPost2010Prop44ColorRGB
 90
      255
102
RTVSPost2010PropOp44
 70
     0
102
RTVSPost2010Prop45
280
     0
102
RTVSPost2010PropOp45
 70
     0
102
RTVSPost2010Prop46
 90
       50
102
RTVSPost2010PropOp46
 70
     0
102
RTVSPost2010Prop47
 90
       50
102
RTVSPost2010PropOp47
 70
     0
102
RTVSPost2010Prop48
 90
       50
102
RTVSPost2010PropOp48
 70
     0
102
RTVSPost2010Prop49
280
     0
102
RTVSPost2010PropOp49
 70
     0
102
RTVSPost2010Prop50
 90
       50
102
RTVSPost2010PropOp50
 70
     0
102
RTVSPost2010Prop51ColorIndex
 90
      256
102
RTVSPost2010Prop51ColorRGB
 90
-16777216
102
RTVSPost2010PropOp51
 70
     0
102
RTVSPost2010Prop52
140
1.0
102
RTVSPost2010PropOp52
 70
     0
102
RTVSPost2010Prop53
 90
        2
102
RTVSPost2010PropOp53
 70
     0
102
RTVSPost2010Prop54
  1
strokes_ogs.tif
102
RTVSPost2010PropOp54
 70
     0
102
RTVSPost2010Prop55
280
     0
102
RTVSPost2010PropOp55
 70
     0
102
RTVSPost2010Prop56
140
1.0
102
RTVSPost2010PropOp56
 70
     0
102
RTVSPost2010Prop57
140
1.0
102
RTVSPost2010PropOp57
 70
     0
  0
XRECORD
  5
D3
102
{ACAD_REACTORS
330
D2
102
}
330
D2
100
AcDbXrecord
280
     1
102
RTVSPropertyOp0
 70
     1
102
RTVSPropertyOp1
 70
     1
102
RTVSPropertyOp2
 70
     1
102
RTVSPropertyOp3
 70
     1
102
RTVSPropertyOp4
 70
     1
102
RTVSPropertyOp5
 70
     1
102
RTVSPropertyOp6
 70
     1
102
RTVSPropertyOp7
 70
     1
102
RTVSPropertyOp8
 70
     1
102
RTVSPropertyOp9
 70
     1
102
RTVSPropertyOp10
 70
     1
102
RTVSPropertyOp11
 70
     1
102
RTVSPropertyOp12
 70
     1
102
RTVSPropertyOp13
 70
     1
102
RTVSPropertyOp14
 70
     1
102
RTVSPropertyOp15
 70
     1
102
RTVSPropertyOp16
 70
     1
102
RTVSPropertyOp17
 70
     1
102
RTVSPropertyOp18
 70
     1
102
RTVSPropertyOp19
 70
     1
102
RTVSPropertyOp20
 70
     1
102
RTVSPropertyOp21
 70
     1
102
RTVSPropertyOp22
 70
     1
102
RTVSPropertyOp23
 70
     1
102
RTVSPropertyOp24
 70
     1
102
RTVSPropertyOp25
 70
     1
102
RTVSPropertyOp26
 70
     1
102
RTVSPropertyOp27
 70
     1
102
RTVSPropertyOp28
 70
     1
102
RTVSPropertyOp29
 70
     1
102
RTVSPropertyOp30
 70
     1
102
RTVSPropertyOp31
 70
     1
102
RTVSPropertyOp32
 70
     1
102
RTVSPropertyOp33
 70
     1
102
RTVSPropertyOp34
 70
     1
102
RTVSPropertyOp35
 70
     1
102
RTVSPropertyOp36
 70
     1
102
RTVSPropertyOp37
 70
     1
102
RTVSPropertyOp38
 70
     1
102
RTVSPropertyOp39
 70
     1
102
RTVSPropertyOp40
 70
     1
102
RTVSPropertyOp41
 70
     1
102
RTVSPropertyOp42
 70
     1
102
RTVSPropertyOp43
 70
     1
102
RTVSPropertyOp44
 70
     1
102
RTVSPropertyOp45
 70
     1
102
RTVSPropertyOp46
 70
     1
102
RTVSPropertyOp47
 70
     1
102
RTVSPropertyOp48
 70
     1
102
RTVSPropertyOp49
 70
     1
102
RTVSPropertyOp50
 70
     1
102
RTVSPropertyOp51
 70
     0
102
RTVSPropertyOp52
 70
     0
102
RTVSPropertyOp53
 70
     1
102
RTVSPropertyOp54
 70
     1
102
RTVSPropertyOp55
 70
     1
102
RTVSPropertyOp56
 70
     1
102
RTVSPropertyOp57
 70
     1
102
RTVSPost2010Prop28
280
     0
102
RTVSPost2010PropOp28
 70
     1
102
RTVSPost2010Prop29
280
     1
102
RTVSPost2010PropOp29
 70
     1
102
RTVSPost2010Prop30
280
     1
102
RTVSPost2010PropOp30
 70
     1
102
RTVSPost2010Prop31
280
     0
102
RTVSPost2010PropOp31
 70
     1
102
RTVSPost2010Prop32
280
     0
102
RTVSPost2010PropOp32
 70
     1
102
RTVSPost2010Prop33
280
     0
102
RTVSPost2010PropOp33
 70
     1
102
RTVSPost2010Prop34
280
     0
102
RTVSPost2010PropOp34
 70
     1
102
RTVSPost2010Prop35
280
     0
102
RTVSPost2010PropOp35
 70
     1
102
RTVSPost2010Prop36
280
     0
102
RTVSPost2010PropOp36
 70
     1
102
RTVSPost2010Prop37
 90
       50
102
RTVSPost2010PropOp37
 70
     1
102
RTVSPost2010Prop38
140
0.0
102
RTVSPost2010PropOp38
 70
     1
102
RTVSPost2010Prop39
140
1.0
102
RTVSPost2010PropOp39
 70
     1
102
RTVSPost2010Prop40
 90
        0
102
RTVSPost2010PropOp40
 70
     1
102
RTVSPost2010Prop41ColorIndex
 90
       18
102
RTVSPost2010Prop41ColorRGB
 90
        0
102
RTVSPost2010PropOp41
 70
     1
102
RTVSPost2010Prop42
 90
       50
102
RTVSPost2010PropOp42
 70
     1
102
RTVSPost2010Prop43
 90
        3
102
RTVSPost2010PropOp43
 70
     1
102
RTVSPost2010Prop44ColorIndex
 90
        5
102
RTVSPost2010Prop44ColorRGB
 90
      255
102
RTVSPost2010PropOp44
 70
     1
102
RTVSPost2010Prop45
280
     0
102
RTVSPost2010PropOp45
 70
     1
102
RTVSPost2010Prop46
 90
       50
102
RTVSPost2010PropOp46
 70
     1
102
RTVSPost2010Prop47
 90
       50
102
RTVSPost2010PropOp47
 70
     1
102
RTVSPost2010Prop48
 90
       50
102
RTVSPost2010PropOp48
 70
     1
102
RTVSPost2010Prop49
280
     0
102
RTVSPost2010PropOp49
 70
     1
102
RTVSPost2010Prop50
 90
       50
102
RTVSPost2010PropOp50
 70
     1
102
RTVSPost2010Prop51ColorIndex
 90
      256
102
RTVSPost2010Prop51ColorRGB
 90
-16777216
102
RTVSPost2010PropOp51
 70
     0
102
RTVSPost2010Prop52
140
1.0
102
RTVSPost2010PropOp52
 70
     0
102
RTVSPost2010Prop53
 90
        2
102
RTVSPost2010PropOp53
 70
     1
102
RTVSPost2010Prop54
  1
strokes_ogs.tif
102
RTVSPost2010PropOp54
 70
     1
102
RTVSPost2010Prop55
280
     0
102
RTVSPost2010PropOp55
 70
     1
102
RTVSPost2010Prop56
140
1.0
102
RTVSPost2010PropOp56
 70
     1
102
RTVSPost2010Prop57
140
1.0
102
RTVSPost2010PropOp57
 70
     1
  0
XRECORD
  5
DB
102
{ACAD_REACTORS
330
DA
102
}
330
DA
100
AcDbXrecord
280
     1
102
RTVSPropertyOp0
 70
     0
102
RTVSPropertyOp1
 70
     0
102
RTVSPropertyOp2
 70
     0
102
RTVSPropertyOp3
 70
     0
102
RTVSPropertyOp4
 70
     0
102
RTVSPropertyOp5
 70
     0
102
RTVSPropertyOp6
 70
     0
102
RTVSPropertyOp7
 70
     0
102
RTVSPropertyOp8
 70
     0
102
RTVSPropertyOp9
 70
     0
102
RTVSPropertyOp10
 70
     0
102
RTVSPropertyOp11
 70
     0
102
RTVSPropertyOp12
 70
     0
102
RTVSPropertyOp13
 70
     0
102
RTVSPropertyOp14
 70
     2
102
RTVSPropertyOp15
 70
     0
102
RTVSPropertyOp16
 70
     0
102
RTVSPropertyOp17
 70
     0
102
RTVSPropertyOp18
 70
     0
102
RTVSPropertyOp19
 70
     0
102
RTVSPropertyOp20
 70
     0
102
RTVSPropertyOp21
 70
     0
102
RTVSPropertyOp22
 70
     0
102
RTVSPropertyOp23
 70
     0
102
RTVSPropertyOp24
 70
     0
102
RTVSPropertyOp25
 70
     0
102
RTVSPropertyOp26
 70
     0
102
RTVSPropertyOp27
 70
     0
102
RTVSPropertyOp28
 70
     0
102
RTVSPropertyOp29
 70
     0
102
RTVSPropertyOp30
 70
     0
102
RTVSPropertyOp31
 70
     0
102
RTVSPropertyOp32
 70
     0
102
RTVSPropertyOp33
 70
     0
102
RTVSPropertyOp34
 70
     0
102
RTVSPropertyOp35
 70
     0
102
RTVSPropertyOp36
 70
     0
102
RTVSPropertyOp37
 70
     0
102
RTVSPropertyOp38
 70
     0
102
RTVSPropertyOp39
 70
     0
102
RTVSPropertyOp40
 70
     0
102
RTVSPropertyOp41
 70
     0
102
RTVSPropertyOp42
 70
     0
102
RTVSPropertyOp43
 70
     0
102
RTVSPropertyOp44
 70
     0
102
RTVSPropertyOp45
 70
     0
102
RTVSPropertyOp46
 70
     0
102
RTVSPropertyOp47
 70
     0
102
RTVSPropertyOp48
 70
     0
102
RTVSPropertyOp49
 70
     0
102
RTVSPropertyOp50
 70
     0
102
RTVSPropertyOp51
 70
     0
102
RTVSPropertyOp52
 70
     0
102
RTVSPropertyOp53
 70
     0
102
RTVSPropertyOp54
 70
     0
102
RTVSPropertyOp55
 70
     0
102
RTVSPropertyOp56
 70
     0
102
RTVSPropertyOp57
 70
     0
102
RTVSPost2010Prop28
280
     0
102
RTVSPost2010PropOp28
 70
     0
102
RTVSPost2010Prop29
280
     1
102
RTVSPost2010PropOp29
 70
     0
102
RTVSPost2010Prop30
280
     1
102
RTVSPost2010PropOp30
 70
     0
102
RTVSPost2010Prop31
280
     0
102
RTVSPost2010PropOp31
 70
     0
102
RTVSPost2010Prop32
280
     0
102
RTVSPost2010PropOp32
 70
     0
102
RTVSPost2010Prop33
280
     0
102
RTVSPost2010PropOp33
 70
     0
102
RTVSPost2010Prop34
280
     0
102
RTVSPost2010PropOp34
 70
     0
102
RTVSPost2010Prop35
280
     0
102
RTVSPost2010PropOp35
 70
     0
102
RTVSPost2010Prop36
280
     0
102
RTVSPost2010PropOp36
 70
     0
102
RTVSPost2010Prop37
 90
       50
102
RTVSPost2010PropOp37
 70
     0
102
RTVSPost2010Prop38
140
0.0
102
RTVSPost2010PropOp38
 70
     0
102
RTVSPost2010Prop39
140
1.0
102
RTVSPost2010PropOp39
 70
     0
102
RTVSPost2010Prop40
 90
        0
102
RTVSPost2010PropOp40
 70
     0
102
RTVSPost2010Prop41ColorIndex
 90
       18
102
RTVSPost2010Prop41ColorRGB
 90
        0
102
RTVSPost2010PropOp41
 70
     0
102
RTVSPost2010Prop42
 90
       50
102
RTVSPost2010PropOp42
 70
     0
102
RTVSPost2010Prop43
 90
        3
102
RTVSPost2010PropOp43
 70
     0
102
RTVSPost2010Prop44ColorIndex
 90
        5
102
RTVSPost2010Prop44ColorRGB
 90
      255
102
RTVSPost2010PropOp44
 70
     0
102
RTVSPost2010Prop45
280
     0
102
RTVSPost2010PropOp45
 70
     0
102
RTVSPost2010Prop46
 90
       50
102
RTVSPost2010PropOp46
 70
     0
102
RTVSPost2010Prop47
 90
       50
102
RTVSPost2010PropOp47
 70
     0
102
RTVSPost2010Prop48
 90
       50
102
RTVSPost2010PropOp48
 70
     0
102
RTVSPost2010Prop49
280
     0
102
RTVSPost2010PropOp49
 70
     0
102
RTVSPost2010Prop50
 90
       50
102
RTVSPost2010PropOp50
 70
     0
102
RTVSPost2010Prop51ColorIndex
 90
      256
102
RTVSPost2010Prop51ColorRGB
 90
-16777216
102
RTVSPost2010PropOp51
 70
     0
102
RTVSPost2010Prop52
140
1.0
102
RTVSPost2010PropOp52
 70
     0
102
RTVSPost2010Prop53
 90
        2
102
RTVSPost2010PropOp53
 70
     0
102
RTVSPost2010Prop54
  1
strokes_ogs.tif
102
RTVSPost2010PropOp54
 70
     0
102
RTVSPost2010Prop55
280
     0
102
RTVSPost2010PropOp55
 70
     0
102
RTVSPost2010Prop56
140
1.0
102
RTVSPost2010PropOp56
 70
     0
102
RTVSPost2010Prop57
140
1.0
102
RTVSPost2010PropOp57
 70
     0
  0
XRECORD
  5
C9
102
{ACAD_REACTORS
330
C8
102
}
330
C8
100
AcDbXrecord
280
     1
102
RTVSPropertyOp0
 70
     1
102
RTVSPropertyOp1
 70
     1
102
RTVSPropertyOp2
 70
     1
102
RTVSPropertyOp3
 70
     1
102
RTVSPropertyOp4
 70
     1
102
RTVSPropertyOp5
 70
     1
102
RTVSPropertyOp6
 70
     1
102
RTVSPropertyOp7
 70
     1
102
RTVSPropertyOp8
 70
     1
102
RTVSPropertyOp9
 70
     1
102
RTVSPropertyOp10
 70
     1
102
RTVSPropertyOp11
 70
     1
102
RTVSPropertyOp12
 70
     1
102
RTVSPropertyOp13
 70
     1
102
RTVSPropertyOp14
 70
     1
102
RTVSPropertyOp15
 70
     1
102
RTVSPropertyOp16
 70
     1
102
RTVSPropertyOp17
 70
     1
102
RTVSPropertyOp18
 70
     1
102
RTVSPropertyOp19
 70
     1
102
RTVSPropertyOp20
 70
     1
102
RTVSPropertyOp21
 70
     1
102
RTVSPropertyOp22
 70
     1
102
RTVSPropertyOp23
 70
     1
102
RTVSPropertyOp24
 70
     1
102
RTVSPropertyOp25
 70
     1
102
RTVSPropertyOp26
 70
     1
102
RTVSPropertyOp27
 70
     1
102
RTVSPropertyOp28
 70
     1
102
RTVSPropertyOp29
 70
     1
102
RTVSPropertyOp30
 70
     1
102
RTVSPropertyOp31
 70
     1
102
RTVSPropertyOp32
 70
     1
102
RTVSPropertyOp33
 70
     1
102
RTVSPropertyOp34
 70
     1
102
RTVSPropertyOp35
 70
     1
102
RTVSPropertyOp36
 70
     1
102
RTVSPropertyOp37
 70
     1
102
RTVSPropertyOp38
 70
     1
102
RTVSPropertyOp39
 70
     1
102
RTVSPropertyOp40
 70
     1
102
RTVSPropertyOp41
 70
     1
102
RTVSPropertyOp42
 70
     1
102
RTVSPropertyOp43
 70
     1
102
RTVSPropertyOp44
 70
     1
102
RTVSPropertyOp45
 70
     1
102
RTVSPropertyOp46
 70
     1
102
RTVSPropertyOp47
 70
     1
102
RTVSPropertyOp48
 70
     1
102
RTVSPropertyOp49
 70
     1
102
RTVSPropertyOp50
 70
     1
102
RTVSPropertyOp51
 70
     0
102
RTVSPropertyOp52
 70
     0
102
RTVSPropertyOp53
 70
     1
102
RTVSPropertyOp54
 70
     1
102
RTVSPropertyOp55
 70
     1
102
RTVSPropertyOp56
 70
     1
102
RTVSPropertyOp57
 70
     1
102
RTVSPost2010Prop28
280
     0
102
RTVSPost2010PropOp28
 70
     1
102
RTVSPost2010Prop29
280
     1
102
RTVSPost2010PropOp29
 70
     1
102
RTVSPost2010Prop30
280
     1
102
RTVSPost2010PropOp30
 70
     1
102
RTVSPost2010Prop31
280
     0
102
RTVSPost2010PropOp31
 70
     1
102
RTVSPost2010Prop32
280
     0
102
RTVSPost2010PropOp32
 70
     1
102
RTVSPost2010Prop33
280
     0
102
RTVSPost2010PropOp33
 70
     1
102
RTVSPost2010Prop34
280
     0
102
RTVSPost2010PropOp34
 70
     1
102
RTVSPost2010Prop35
280
     0
102
RTVSPost2010PropOp35
 70
     1
102
RTVSPost2010Prop36
280
     0
102
RTVSPost2010PropOp36
 70
     1
102
RTVSPost2010Prop37
 90
       50
102
RTVSPost2010PropOp37
 70
     1
102
RTVSPost2010Prop38
140
0.0
102
RTVSPost2010PropOp38
 70
     1
102
RTVSPost2010Prop39
140
1.0
102
RTVSPost2010PropOp39
 70
     1
102
RTVSPost2010Prop40
 90
        0
102
RTVSPost2010PropOp40
 70
     1
102
RTVSPost2010Prop41ColorIndex
 90
       18
102
RTVSPost2010Prop41ColorRGB
 90
        0
102
RTVSPost2010PropOp41
 70
     1
102
RTVSPost2010Prop42
 90
       50
102
RTVSPost2010PropOp42
 70
     1
102
RTVSPost2010Prop43
 90
        3
102
RTVSPost2010PropOp43
 70
     1
102
RTVSPost2010Prop44ColorIndex
 90
        5
102
RTVSPost2010Prop44ColorRGB
 90
      255
102
RTVSPost2010PropOp44
 70
     1
102
RTVSPost2010Prop45
280
     0
102
RTVSPost2010PropOp45
 70
     1
102
RTVSPost2010Prop46
 90
       50
102
RTVSPost2010PropOp46
 70
     1
102
RTVSPost2010Prop47
 90
       50
102
RTVSPost2010PropOp47
 70
     1
102
RTVSPost2010Prop48
 90
       50
102
RTVSPost2010PropOp48
 70
     1
102
RTVSPost2010Prop49
280
     0
102
RTVSPost2010PropOp49
 70
     1
102
RTVSPost2010Prop50
 90
       50
102
RTVSPost2010PropOp50
 70
     1
102
RTVSPost2010Prop51ColorIndex
 90
      256
102
RTVSPost2010Prop51ColorRGB
 90
-16777216
102
RTVSPost2010PropOp51
 70
     0
102
RTVSPost2010Prop52
140
1.0
102
RTVSPost2010PropOp52
 70
     0
102
RTVSPost2010Prop53
 90
        2
102
RTVSPost2010PropOp53
 70
     1
102
RTVSPost2010Prop54
  1
strokes_ogs.tif
102
RTVSPost2010PropOp54
 70
     1
102
RTVSPost2010Prop55
280
     0
102
RTVSPost2010PropOp55
 70
     1
102
RTVSPost2010Prop56
140
1.0
102
RTVSPost2010PropOp56
 70
     1
102
RTVSPost2010Prop57
140
1.0
102
RTVSPost2010PropOp57
 70
     1
  0
XRECORD
  5
E7
102
{ACAD_REACTORS
330
E6
102
}
330
E6
100
AcDbXrecord
280
     1
102
RTVSPropertyOp0
 70
     1
102
RTVSPropertyOp1
 70
     1
102
RTVSPropertyOp2
 70
     1
102
RTVSPropertyOp3
 70
     1
102
RTVSPropertyOp4
 70
     1
102
RTVSPropertyOp5
 70
     1
102
RTVSPropertyOp6
 70
     1
102
RTVSPropertyOp7
 70
     1
102
RTVSPropertyOp8
 70
     1
102
RTVSPropertyOp9
 70
     1
102
RTVSPropertyOp10
 70
     1
102
RTVSPropertyOp11
 70
     1
102
RTVSPropertyOp12
 70
     1
102
RTVSPropertyOp13
 70
     1
102
RTVSPropertyOp14
 70
     1
102
RTVSPropertyOp15
 70
     1
102
RTVSPropertyOp16
 70
     1
102
RTVSPropertyOp17
 70
     1
102
RTVSPropertyOp18
 70
     1
102
RTVSPropertyOp19
 70
     1
102
RTVSPropertyOp20
 70
     1
102
RTVSPropertyOp21
 70
     1
102
RTVSPropertyOp22
 70
     1
102
RTVSPropertyOp23
 70
     1
102
RTVSPropertyOp24
 70
     1
102
RTVSPropertyOp25
 70
     1
102
RTVSPropertyOp26
 70
     1
102
RTVSPropertyOp27
 70
     1
102
RTVSPropertyOp28
 70
     1
102
RTVSPropertyOp29
 70
     1
102
RTVSPropertyOp30
 70
     1
102
RTVSPropertyOp31
 70
     1
102
RTVSPropertyOp32
 70
     1
102
RTVSPropertyOp33
 70
     1
102
RTVSPropertyOp34
 70
     1
102
RTVSPropertyOp35
 70
     1
102
RTVSPropertyOp36
 70
     1
102
RTVSPropertyOp37
 70
     1
102
RTVSPropertyOp38
 70
     1
102
RTVSPropertyOp39
 70
     1
102
RTVSPropertyOp40
 70
     1
102
RTVSPropertyOp41
 70
     1
102
RTVSPropertyOp42
 70
     1
102
RTVSPropertyOp43
 70
     1
102
RTVSPropertyOp44
 70
     1
102
RTVSPropertyOp45
 70
     1
102
RTVSPropertyOp46
 70
     1
102
RTVSPropertyOp47
 70
     1
102
RTVSPropertyOp48
 70
     1
102
RTVSPropertyOp49
 70
     1
102
RTVSPropertyOp50
 70
     1
102
RTVSPropertyOp51
 70
     0
102
RTVSPropertyOp52
 70
     0
102
RTVSPropertyOp53
 70
     1
102
RTVSPropertyOp54
 70
     1
102
RTVSPropertyOp55
 70
     1
102
RTVSPropertyOp56
 70
     1
102
RTVSPropertyOp57
 70
     1
102
RTVSPost2010Prop28
280
     0
102
RTVSPost2010PropOp28
 70
     1
102
RTVSPost2010Prop29
280
     1
102
RTVSPost2010PropOp29
 70
     1
102
RTVSPost2010Prop30
280
     1
102
RTVSPost2010PropOp30
 70
     1
102
RTVSPost2010Prop31
280
     0
102
RTVSPost2010PropOp31
 70
     1
102
RTVSPost2010Prop32
280
     0
102
RTVSPost2010PropOp32
 70
     1
102
RTVSPost2010Prop33
280
     0
102
RTVSPost2010PropOp33
 70
     1
102
RTVSPost2010Prop34
280
     0
102
RTVSPost2010PropOp34
 70
     1
102
RTVSPost2010Prop35
280
     0
102
RTVSPost2010PropOp35
 70
     1
102
RTVSPost2010Prop36
280
     0
102
RTVSPost2010PropOp36
 70
     1
102
RTVSPost2010Prop37
 90
       50
102
RTVSPost2010PropOp37
 70
     1
102
RTVSPost2010Prop38
140
0.0
102
RTVSPost2010PropOp38
 70
     1
102
RTVSPost2010Prop39
140
1.0
102
RTVSPost2010PropOp39
 70
     1
102
RTVSPost2010Prop40
 90
        0
102
RTVSPost2010PropOp40
 70
     1
102
RTVSPost2010Prop41ColorIndex
 90
       18
102
RTVSPost2010Prop41ColorRGB
 90
        0
102
RTVSPost2010PropOp41
 70
     1
102
RTVSPost2010Prop42
 90
       50
102
RTVSPost2010PropOp42
 70
     1
102
RTVSPost2010Prop43
 90
        3
102
RTVSPost2010PropOp43
 70
     1
102
RTVSPost2010Prop44ColorIndex
 90
        5
102
RTVSPost2010Prop44ColorRGB
 90
      255
102
RTVSPost2010PropOp44
 70
     1
102
RTVSPost2010Prop45
280
     0
102
RTVSPost2010PropOp45
 70
     1
102
RTVSPost2010Prop46
 90
       50
102
RTVSPost2010PropOp46
 70
     1
102
RTVSPost2010Prop47
 90
       50
102
RTVSPost2010PropOp47
 70
     1
102
RTVSPost2010Prop48
 90
       50
102
RTVSPost2010PropOp48
 70
     1
102
RTVSPost2010Prop49
280
     0
102
RTVSPost2010PropOp49
 70
     1
102
RTVSPost2010Prop50
 90
       50
102
RTVSPost2010PropOp50
 70
     1
102
RTVSPost2010Prop51ColorIndex
 90
      256
102
RTVSPost2010Prop51ColorRGB
 90
-16777216
102
RTVSPost2010PropOp51
 70
     0
102
RTVSPost2010Prop52
140
1.0
102
RTVSPost2010PropOp52
 70
     0
102
RTVSPost2010Prop53
 90
        2
102
RTVSPost2010PropOp53
 70
     1
102
RTVSPost2010Prop54
  1
strokes_ogs.tif
102
RTVSPost2010PropOp54
 70
     1
102
RTVSPost2010Prop55
280
     0
102
RTVSPost2010PropOp55
 70
     1
102
RTVSPost2010Prop56
140
1.0
102
RTVSPost2010PropOp56
 70
     1
102
RTVSPost2010Prop57
140
1.0
102
RTVSPost2010PropOp57
 70
     1
  0
XRECORD
  5
E5
102
{ACAD_REACTORS
330
E4
102
}
330
E4
100
AcDbXrecord
280
     1
102
RTVSPropertyOp0
 70
     1
102
RTVSPropertyOp1
 70
     1
102
RTVSPropertyOp2
 70
     1
102
RTVSPropertyOp3
 70
     1
102
RTVSPropertyOp4
 70
     1
102
RTVSPropertyOp5
 70
     1
102
RTVSPropertyOp6
 70
     1
102
RTVSPropertyOp7
 70
     1
102
RTVSPropertyOp8
 70
     1
102
RTVSPropertyOp9
 70
     1
102
RTVSPropertyOp10
 70
     1
102
RTVSPropertyOp11
 70
     1
102
RTVSPropertyOp12
 70
     1
102
RTVSPropertyOp13
 70
     1
102
RTVSPropertyOp14
 70
     1
102
RTVSPropertyOp15
 70
     1
102
RTVSPropertyOp16
 70
     1
102
RTVSPropertyOp17
 70
     1
102
RTVSPropertyOp18
 70
     1
102
RTVSPropertyOp19
 70
     1
102
RTVSPropertyOp20
 70
     1
102
RTVSPropertyOp21
 70
     1
102
RTVSPropertyOp22
 70
     1
102
RTVSPropertyOp23
 70
     1
102
RTVSPropertyOp24
 70
     1
102
RTVSPropertyOp25
 70
     1
102
RTVSPropertyOp26
 70
     1
102
RTVSPropertyOp27
 70
     1
102
RTVSPropertyOp28
 70
     1
102
RTVSPropertyOp29
 70
     1
102
RTVSPropertyOp30
 70
     1
102
RTVSPropertyOp31
 70
     1
102
RTVSPropertyOp32
 70
     1
102
RTVSPropertyOp33
 70
     1
102
RTVSPropertyOp34
 70
     1
102
RTVSPropertyOp35
 70
     1
102
RTVSPropertyOp36
 70
     1
102
RTVSPropertyOp37
 70
     1
102
RTVSPropertyOp38
 70
     1
102
RTVSPropertyOp39
 70
     1
102
RTVSPropertyOp40
 70
     1
102
RTVSPropertyOp41
 70
     1
102
RTVSPropertyOp42
 70
     1
102
RTVSPropertyOp43
 70
     1
102
RTVSPropertyOp44
 70
     1
102
RTVSPropertyOp45
 70
     1
102
RTVSPropertyOp46
 70
     1
102
RTVSPropertyOp47
 70
     1
102
RTVSPropertyOp48
 70
     1
102
RTVSPropertyOp49
 70
     1
102
RTVSPropertyOp50
 70
     1
102
RTVSPropertyOp51
 70
     0
102
RTVSPropertyOp52
 70
     0
102
RTVSPropertyOp53
 70
     1
102
RTVSPropertyOp54
 70
     1
102
RTVSPropertyOp55
 70
     1
102
RTVSPropertyOp56
 70
     1
102
RTVSPropertyOp57
 70
     1
102
RTVSPost2010Prop28
280
     0
102
RTVSPost2010PropOp28
 70
     1
102
RTVSPost2010Prop29
280
     1
102
RTVSPost2010PropOp29
 70
     1
102
RTVSPost2010Prop30
280
     1
102
RTVSPost2010PropOp30
 70
     1
102
RTVSPost2010Prop31
280
     0
102
RTVSPost2010PropOp31
 70
     1
102
RTVSPost2010Prop32
280
     0
102
RTVSPost2010PropOp32
 70
     1
102
RTVSPost2010Prop33
280
     0
102
RTVSPost2010PropOp33
 70
     1
102
RTVSPost2010Prop34
280
     0
102
RTVSPost2010PropOp34
 70
     1
102
RTVSPost2010Prop35
280
     0
102
RTVSPost2010PropOp35
 70
     1
102
RTVSPost2010Prop36
280
     0
102
RTVSPost2010PropOp36
 70
     1
102
RTVSPost2010Prop37
 90
       50
102
RTVSPost2010PropOp37
 70
     1
102
RTVSPost2010Prop38
140
0.0
102
RTVSPost2010PropOp38
 70
     1
102
RTVSPost2010Prop39
140
1.0
102
RTVSPost2010PropOp39
 70
     1
102
RTVSPost2010Prop40
 90
        0
102
RTVSPost2010PropOp40
 70
     1
102
RTVSPost2010Prop41ColorIndex
 90
       18
102
RTVSPost2010Prop41ColorRGB
 90
        0
102
RTVSPost2010PropOp41
 70
     1
102
RTVSPost2010Prop42
 90
       50
102
RTVSPost2010PropOp42
 70
     1
102
RTVSPost2010Prop43
 90
        3
102
RTVSPost2010PropOp43
 70
     1
102
RTVSPost2010Prop44ColorIndex
 90
        5
102
RTVSPost2010Prop44ColorRGB
 90
      255
102
RTVSPost2010PropOp44
 70
     1
102
RTVSPost2010Prop45
280
     0
102
RTVSPost2010PropOp45
 70
     1
102
RTVSPost2010Prop46
 90
       50
102
RTVSPost2010PropOp46
 70
     1
102
RTVSPost2010Prop47
 90
       50
102
RTVSPost2010PropOp47
 70
     1
102
RTVSPost2010Prop48
 90
       50
102
RTVSPost2010PropOp48
 70
     1
102
RTVSPost2010Prop49
280
     0
102
RTVSPost2010PropOp49
 70
     1
102
RTVSPost2010Prop50
 90
       50
102
RTVSPost2010PropOp50
 70
     1
102
RTVSPost2010Prop51ColorIndex
 90
      256
102
RTVSPost2010Prop51ColorRGB
 90
-16777216
102
RTVSPost2010PropOp51
 70
     0
102
RTVSPost2010Prop52
140
1.0
102
RTVSPost2010PropOp52
 70
     0
102
RTVSPost2010Prop53
 90
        2
102
RTVSPost2010PropOp53
 70
     1
102
RTVSPost2010Prop54
  1
strokes_ogs.tif
102
RTVSPost2010PropOp54
 70
     1
102
RTVSPost2010Prop55
280
     0
102
RTVSPost2010PropOp55
 70
     1
102
RTVSPost2010Prop56
140
1.0
102
RTVSPost2010PropOp56
 70
     1
102
RTVSPost2010Prop57
140
1.0
102
RTVSPost2010PropOp57
 70
     1
  0
XRECORD
  5
DF
102
{ACAD_REACTORS
330
DE
102
}
330
DE
100
AcDbXrecord
280
     1
102
RTVSPropertyOp0
 70
     1
102
RTVSPropertyOp1
 70
     1
102
RTVSPropertyOp2
 70
     1
102
RTVSPropertyOp3
 70
     1
102
RTVSPropertyOp4
 70
     1
102
RTVSPropertyOp5
 70
     1
102
RTVSPropertyOp6
 70
     1
102
RTVSPropertyOp7
 70
     1
102
RTVSPropertyOp8
 70
     1
102
RTVSPropertyOp9
 70
     1
102
RTVSPropertyOp10
 70
     1
102
RTVSPropertyOp11
 70
     1
102
RTVSPropertyOp12
 70
     1
102
RTVSPropertyOp13
 70
     1
102
RTVSPropertyOp14
 70
     1
102
RTVSPropertyOp15
 70
     1
102
RTVSPropertyOp16
 70
     1
102
RTVSPropertyOp17
 70
     1
102
RTVSPropertyOp18
 70
     1
102
RTVSPropertyOp19
 70
     1
102
RTVSPropertyOp20
 70
     1
102
RTVSPropertyOp21
 70
     1
102
RTVSPropertyOp22
 70
     1
102
RTVSPropertyOp23
 70
     1
102
RTVSPropertyOp24
 70
     1
102
RTVSPropertyOp25
 70
     1
102
RTVSPropertyOp26
 70
     1
102
RTVSPropertyOp27
 70
     1
102
RTVSPropertyOp28
 70
     1
102
RTVSPropertyOp29
 70
     1
102
RTVSPropertyOp30
 70
     1
102
RTVSPropertyOp31
 70
     1
102
RTVSPropertyOp32
 70
     1
102
RTVSPropertyOp33
 70
     1
102
RTVSPropertyOp34
 70
     1
102
RTVSPropertyOp35
 70
     1
102
RTVSPropertyOp36
 70
     1
102
RTVSPropertyOp37
 70
     1
102
RTVSPropertyOp38
 70
     1
102
RTVSPropertyOp39
 70
     1
102
RTVSPropertyOp40
 70
     1
102
RTVSPropertyOp41
 70
     1
102
RTVSPropertyOp42
 70
     1
102
RTVSPropertyOp43
 70
     1
102
RTVSPropertyOp44
 70
     1
102
RTVSPropertyOp45
 70
     1
102
RTVSPropertyOp46
 70
     1
102
RTVSPropertyOp47
 70
     1
102
RTVSPropertyOp48
 70
     1
102
RTVSPropertyOp49
 70
     1
102
RTVSPropertyOp50
 70
     1
102
RTVSPropertyOp51
 70
     0
102
RTVSPropertyOp52
 70
     0
102
RTVSPropertyOp53
 70
     1
102
RTVSPropertyOp54
 70
     1
102
RTVSPropertyOp55
 70
     1
102
RTVSPropertyOp56
 70
     1
102
RTVSPropertyOp57
 70
     1
102
RTVSPost2010Prop28
280
     0
102
RTVSPost2010PropOp28
 70
     1
102
RTVSPost2010Prop29
280
     1
102
RTVSPost2010PropOp29
 70
     1
102
RTVSPost2010Prop30
280
     1
102
RTVSPost2010PropOp30
 70
     1
102
RTVSPost2010Prop31
280
     0
102
RTVSPost2010PropOp31
 70
     1
102
RTVSPost2010Prop32
280
     0
102
RTVSPost2010PropOp32
 70
     1
102
RTVSPost2010Prop33
280
     0
102
RTVSPost2010PropOp33
 70
     1
102
RTVSPost2010Prop34
280
     0
102
RTVSPost2010PropOp34
 70
     1
102
RTVSPost2010Prop35
280
     0
102
RTVSPost2010PropOp35
 70
     1
102
RTVSPost2010Prop36
280
     0
102
RTVSPost2010PropOp36
 70
     1
102
RTVSPost2010Prop37
 90
       50
102
RTVSPost2010PropOp37
 70
     1
102
RTVSPost2010Prop38
140
0.0
102
RTVSPost2010PropOp38
 70
     1
102
RTVSPost2010Prop39
140
1.0
102
RTVSPost2010PropOp39
 70
     1
102
RTVSPost2010Prop40
 90
        0
102
RTVSPost2010PropOp40
 70
     1
102
RTVSPost2010Prop41ColorIndex
 90
       18
102
RTVSPost2010Prop41ColorRGB
 90
        0
102
RTVSPost2010PropOp41
 70
     1
102
RTVSPost2010Prop42
 90
       50
102
RTVSPost2010PropOp42
 70
     1
102
RTVSPost2010Prop43
 90
        3
102
RTVSPost2010PropOp43
 70
     1
102
RTVSPost2010Prop44ColorIndex
 90
        5
102
RTVSPost2010Prop44ColorRGB
 90
      255
102
RTVSPost2010PropOp44
 70
     1
102
RTVSPost2010Prop45
280
     0
102
RTVSPost2010PropOp45
 70
     1
102
RTVSPost2010Prop46
 90
       50
102
RTVSPost2010PropOp46
 70
     1
102
RTVSPost2010Prop47
 90
       50
102
RTVSPost2010PropOp47
 70
     1
102
RTVSPost2010Prop48
 90
       50
102
RTVSPost2010PropOp48
 70
     1
102
RTVSPost2010Prop49
280
     0
102
RTVSPost2010PropOp49
 70
     1
102
RTVSPost2010Prop50
 90
       50
102
RTVSPost2010PropOp50
 70
     1
102
RTVSPost2010Prop51ColorIndex
 90
      256
102
RTVSPost2010Prop51ColorRGB
 90
-16777216
102
RTVSPost2010PropOp51
 70
     0
102
RTVSPost2010Prop52
140
1.0
102
RTVSPost2010PropOp52
 70
     0
102
RTVSPost2010Prop53
 90
        2
102
RTVSPost2010PropOp53
 70
     1
102
RTVSPost2010Prop54
  1
strokes_ogs.tif
102
RTVSPost2010PropOp54
 70
     1
102
RTVSPost2010Prop55
280
     0
102
RTVSPost2010PropOp55
 70
     1
102
RTVSPost2010Prop56
140
1.0
102
RTVSPost2010PropOp56
 70
     1
102
RTVSPost2010Prop57
140
1.0
102
RTVSPost2010PropOp57
 70
     1
  0
XRECORD
  5
E1
102
{ACAD_REACTORS
330
E0
102
}
330
E0
100
AcDbXrecord
280
     1
102
RTVSPropertyOp0
 70
     1
102
RTVSPropertyOp1
 70
     1
102
RTVSPropertyOp2
 70
     1
102
RTVSPropertyOp3
 70
     1
102
RTVSPropertyOp4
 70
     1
102
RTVSPropertyOp5
 70
     1
102
RTVSPropertyOp6
 70
     1
102
RTVSPropertyOp7
 70
     1
102
RTVSPropertyOp8
 70
     1
102
RTVSPropertyOp9
 70
     1
102
RTVSPropertyOp10
 70
     1
102
RTVSPropertyOp11
 70
     1
102
RTVSPropertyOp12
 70
     1
102
RTVSPropertyOp13
 70
     1
102
RTVSPropertyOp14
 70
     1
102
RTVSPropertyOp15
 70
     1
102
RTVSPropertyOp16
 70
     1
102
RTVSPropertyOp17
 70
     1
102
RTVSPropertyOp18
 70
     1
102
RTVSPropertyOp19
 70
     1
102
RTVSPropertyOp20
 70
     1
102
RTVSPropertyOp21
 70
     1
102
RTVSPropertyOp22
 70
     1
102
RTVSPropertyOp23
 70
     1
102
RTVSPropertyOp24
 70
     1
102
RTVSPropertyOp25
 70
     1
102
RTVSPropertyOp26
 70
     1
102
RTVSPropertyOp27
 70
     1
102
RTVSPropertyOp28
 70
     1
102
RTVSPropertyOp29
 70
     1
102
RTVSPropertyOp30
 70
     1
102
RTVSPropertyOp31
 70
     1
102
RTVSPropertyOp32
 70
     1
102
RTVSPropertyOp33
 70
     1
102
RTVSPropertyOp34
 70
     1
102
RTVSPropertyOp35
 70
     1
102
RTVSPropertyOp36
 70
     1
102
RTVSPropertyOp37
 70
     1
102
RTVSPropertyOp38
 70
     1
102
RTVSPropertyOp39
 70
     1
102
RTVSPropertyOp40
 70
     1
102
RTVSPropertyOp41
 70
     1
102
RTVSPropertyOp42
 70
     1
102
RTVSPropertyOp43
 70
     1
102
RTVSPropertyOp44
 70
     1
102
RTVSPropertyOp45
 70
     1
102
RTVSPropertyOp46
 70
     1
102
RTVSPropertyOp47
 70
     1
102
RTVSPropertyOp48
 70
     1
102
RTVSPropertyOp49
 70
     1
102
RTVSPropertyOp50
 70
     1
102
RTVSPropertyOp51
 70
     0
102
RTVSPropertyOp52
 70
     0
102
RTVSPropertyOp53
 70
     1
102
RTVSPropertyOp54
 70
     1
102
RTVSPropertyOp55
 70
     1
102
RTVSPropertyOp56
 70
     1
102
RTVSPropertyOp57
 70
     1
102
RTVSPost2010Prop28
280
     0
102
RTVSPost2010PropOp28
 70
     1
102
RTVSPost2010Prop29
280
     1
102
RTVSPost2010PropOp29
 70
     1
102
RTVSPost2010Prop30
280
     1
102
RTVSPost2010PropOp30
 70
     1
102
RTVSPost2010Prop31
280
     0
102
RTVSPost2010PropOp31
 70
     1
102
RTVSPost2010Prop32
280
     0
102
RTVSPost2010PropOp32
 70
     1
102
RTVSPost2010Prop33
280
     0
102
RTVSPost2010PropOp33
 70
     1
102
RTVSPost2010Prop34
280
     0
102
RTVSPost2010PropOp34
 70
     1
102
RTVSPost2010Prop35
280
     0
102
RTVSPost2010PropOp35
 70
     1
102
RTVSPost2010Prop36
280
     0
102
RTVSPost2010PropOp36
 70
     1
102
RTVSPost2010Prop37
 90
       50
102
RTVSPost2010PropOp37
 70
     1
102
RTVSPost2010Prop38
140
0.0
102
RTVSPost2010PropOp38
 70
     1
102
RTVSPost2010Prop39
140
1.0
102
RTVSPost2010PropOp39
 70
     1
102
RTVSPost2010Prop40
 90
        0
102
RTVSPost2010PropOp40
 70
     1
102
RTVSPost2010Prop41ColorIndex
 90
       18
102
RTVSPost2010Prop41ColorRGB
 90
        0
102
RTVSPost2010PropOp41
 70
     1
102
RTVSPost2010Prop42
 90
       50
102
RTVSPost2010PropOp42
 70
     1
102
RTVSPost2010Prop43
 90
        3
102
RTVSPost2010PropOp43
 70
     1
102
RTVSPost2010Prop44ColorIndex
 90
        5
102
RTVSPost2010Prop44ColorRGB
 90
      255
102
RTVSPost2010PropOp44
 70
     1
102
RTVSPost2010Prop45
280
     0
102
RTVSPost2010PropOp45
 70
     1
102
RTVSPost2010Prop46
 90
       50
102
RTVSPost2010PropOp46
 70
     1
102
RTVSPost2010Prop47
 90
       50
102
RTVSPost2010PropOp47
 70
     1
102
RTVSPost2010Prop48
 90
       50
102
RTVSPost2010PropOp48
 70
     1
102
RTVSPost2010Prop49
280
     0
102
RTVSPost2010PropOp49
 70
     1
102
RTVSPost2010Prop50
 90
       50
102
RTVSPost2010PropOp50
 70
     1
102
RTVSPost2010Prop51ColorIndex
 90
      256
102
RTVSPost2010Prop51ColorRGB
 90
-16777216
102
RTVSPost2010PropOp51
 70
     0
102
RTVSPost2010Prop52
140
1.0
102
RTVSPost2010PropOp52
 70
     0
102
RTVSPost2010Prop53
 90
        2
102
RTVSPost2010PropOp53
 70
     1
102
RTVSPost2010Prop54
  1
strokes_ogs.tif
102
RTVSPost2010PropOp54
 70
     1
102
RTVSPost2010Prop55
280
     0
102
RTVSPost2010PropOp55
 70
     1
102
RTVSPost2010Prop56
140
1.0
102
RTVSPost2010PropOp56
 70
     1
102
RTVSPost2010Prop57
140
1.0
102
RTVSPost2010PropOp57
 70
     1
  0
XRECORD
  5
D1
102
{ACAD_REACTORS
330
D0
102
}
330
D0
100
AcDbXrecord
280
     1
102
RTVSPropertyOp0
 70
     1
102
RTVSPropertyOp1
 70
     1
102
RTVSPropertyOp2
 70
     1
102
RTVSPropertyOp3
 70
     1
102
RTVSPropertyOp4
 70
     1
102
RTVSPropertyOp5
 70
     1
102
RTVSPropertyOp6
 70
     1
102
RTVSPropertyOp7
 70
     1
102
RTVSPropertyOp8
 70
     1
102
RTVSPropertyOp9
 70
     1
102
RTVSPropertyOp10
 70
     1
102
RTVSPropertyOp11
 70
     1
102
RTVSPropertyOp12
 70
     1
102
RTVSPropertyOp13
 70
     1
102
RTVSPropertyOp14
 70
     1
102
RTVSPropertyOp15
 70
     1
102
RTVSPropertyOp16
 70
     1
102
RTVSPropertyOp17
 70
     1
102
RTVSPropertyOp18
 70
     1
102
RTVSPropertyOp19
 70
     1
102
RTVSPropertyOp20
 70
     1
102
RTVSPropertyOp21
 70
     1
102
RTVSPropertyOp22
 70
     1
102
RTVSPropertyOp23
 70
     1
102
RTVSPropertyOp24
 70
     1
102
RTVSPropertyOp25
 70
     1
102
RTVSPropertyOp26
 70
     1
102
RTVSPropertyOp27
 70
     1
102
RTVSPropertyOp28
 70
     1
102
RTVSPropertyOp29
 70
     1
102
RTVSPropertyOp30
 70
     1
102
RTVSPropertyOp31
 70
     1
102
RTVSPropertyOp32
 70
     1
102
RTVSPropertyOp33
 70
     1
102
RTVSPropertyOp34
 70
     1
102
RTVSPropertyOp35
 70
     1
102
RTVSPropertyOp36
 70
     1
102
RTVSPropertyOp37
 70
     1
102
RTVSPropertyOp38
 70
     1
102
RTVSPropertyOp39
 70
     1
102
RTVSPropertyOp40
 70
     1
102
RTVSPropertyOp41
 70
     1
102
RTVSPropertyOp42
 70
     1
102
RTVSPropertyOp43
 70
     1
102
RTVSPropertyOp44
 70
     1
102
RTVSPropertyOp45
 70
     1
102
RTVSPropertyOp46
 70
     1
102
RTVSPropertyOp47
 70
     1
102
RTVSPropertyOp48
 70
     1
102
RTVSPropertyOp49
 70
     1
102
RTVSPropertyOp50
 70
     1
102
RTVSPropertyOp51
 70
     0
102
RTVSPropertyOp52
 70
     0
102
RTVSPropertyOp53
 70
     1
102
RTVSPropertyOp54
 70
     1
102
RTVSPropertyOp55
 70
     1
102
RTVSPropertyOp56
 70
     1
102
RTVSPropertyOp57
 70
     1
102
RTVSPost2010Prop28
280
     0
102
RTVSPost2010PropOp28
 70
     1
102
RTVSPost2010Prop29
280
     1
102
RTVSPost2010PropOp29
 70
     1
102
RTVSPost2010Prop30
280
     1
102
RTVSPost2010PropOp30
 70
     1
102
RTVSPost2010Prop31
280
     0
102
RTVSPost2010PropOp31
 70
     1
102
RTVSPost2010Prop32
280
     0
102
RTVSPost2010PropOp32
 70
     1
102
RTVSPost2010Prop33
280
     0
102
RTVSPost2010PropOp33
 70
     1
102
RTVSPost2010Prop34
280
     0
102
RTVSPost2010PropOp34
 70
     1
102
RTVSPost2010Prop35
280
     0
102
RTVSPost2010PropOp35
 70
     1
102
RTVSPost2010Prop36
280
     0
102
RTVSPost2010PropOp36
 70
     1
102
RTVSPost2010Prop37
 90
       50
102
RTVSPost2010PropOp37
 70
     1
102
RTVSPost2010Prop38
140
0.0
102
RTVSPost2010PropOp38
 70
     1
102
RTVSPost2010Prop39
140
1.0
102
RTVSPost2010PropOp39
 70
     1
102
RTVSPost2010Prop40
 90
        0
102
RTVSPost2010PropOp40
 70
     1
102
RTVSPost2010Prop41ColorIndex
 90
       18
102
RTVSPost2010Prop41ColorRGB
 90
        0
102
RTVSPost2010PropOp41
 70
     1
102
RTVSPost2010Prop42
 90
       50
102
RTVSPost2010PropOp42
 70
     1
102
RTVSPost2010Prop43
 90
        3
102
RTVSPost2010PropOp43
 70
     1
102
RTVSPost2010Prop44ColorIndex
 90
        5
102
RTVSPost2010Prop44ColorRGB
 90
      255
102
RTVSPost2010PropOp44
 70
     1
102
RTVSPost2010Prop45
280
     0
102
RTVSPost2010PropOp45
 70
     1
102
RTVSPost2010Prop46
 90
       50
102
RTVSPost2010PropOp46
 70
     1
102
RTVSPost2010Prop47
 90
       50
102
RTVSPost2010PropOp47
 70
     1
102
RTVSPost2010Prop48
 90
       50
102
RTVSPost2010PropOp48
 70
     1
102
RTVSPost2010Prop49
280
     0
102
RTVSPost2010PropOp49
 70
     1
102
RTVSPost2010Prop50
 90
       50
102
RTVSPost2010PropOp50
 70
     1
102
RTVSPost2010Prop51ColorIndex
 90
      256
102
RTVSPost2010Prop51ColorRGB
 90
-16777216
102
RTVSPost2010PropOp51
 70
     0
102
RTVSPost2010Prop52
140
1.0
102
RTVSPost2010PropOp52
 70
     0
102
RTVSPost2010Prop53
 90
        2
102
RTVSPost2010PropOp53
 70
     1
102
RTVSPost2010Prop54
  1
strokes_ogs.tif
102
RTVSPost2010PropOp54
 70
     1
102
RTVSPost2010Prop55
280
     0
102
RTVSPost2010PropOp55
 70
     1
102
RTVSPost2010Prop56
140
1.0
102
RTVSPost2010PropOp56
 70
     1
102
RTVSPost2010Prop57
140
1.0
102
RTVSPost2010PropOp57
 70
     1
  0
XRECORD
  5
C3
102
{ACAD_REACTORS
330
C2
102
}
330
C2
100
AcDbXrecord
280
     1
102
RTVSPropertyOp0
 70
     1
102
RTVSPropertyOp1
 70
     1
102
RTVSPropertyOp2
 70
     1
102
RTVSPropertyOp3
 70
     1
102
RTVSPropertyOp4
 70
     1
102
RTVSPropertyOp5
 70
     1
102
RTVSPropertyOp6
 70
     1
102
RTVSPropertyOp7
 70
     1
102
RTVSPropertyOp8
 70
     1
102
RTVSPropertyOp9
 70
     1
102
RTVSPropertyOp10
 70
     1
102
RTVSPropertyOp11
 70
     1
102
RTVSPropertyOp12
 70
     1
102
RTVSPropertyOp13
 70
     1
102
RTVSPropertyOp14
 70
     1
102
RTVSPropertyOp15
 70
     1
102
RTVSPropertyOp16
 70
     1
102
RTVSPropertyOp17
 70
     1
102
RTVSPropertyOp18
 70
     1
102
RTVSPropertyOp19
 70
     1
102
RTVSPropertyOp20
 70
     1
102
RTVSPropertyOp21
 70
     1
102
RTVSPropertyOp22
 70
     1
102
RTVSPropertyOp23
 70
     1
102
RTVSPropertyOp24
 70
     1
102
RTVSPropertyOp25
 70
     1
102
RTVSPropertyOp26
 70
     1
102
RTVSPropertyOp27
 70
     1
102
RTVSPropertyOp28
 70
     1
102
RTVSPropertyOp29
 70
     1
102
RTVSPropertyOp30
 70
     1
102
RTVSPropertyOp31
 70
     1
102
RTVSPropertyOp32
 70
     1
102
RTVSPropertyOp33
 70
     1
102
RTVSPropertyOp34
 70
     1
102
RTVSPropertyOp35
 70
     1
102
RTVSPropertyOp36
 70
     1
102
RTVSPropertyOp37
 70
     1
102
RTVSPropertyOp38
 70
     1
102
RTVSPropertyOp39
 70
     1
102
RTVSPropertyOp40
 70
     1
102
RTVSPropertyOp41
 70
     1
102
RTVSPropertyOp42
 70
     1
102
RTVSPropertyOp43
 70
     1
102
RTVSPropertyOp44
 70
     1
102
RTVSPropertyOp45
 70
     1
102
RTVSPropertyOp46
 70
     1
102
RTVSPropertyOp47
 70
     1
102
RTVSPropertyOp48
 70
     1
102
RTVSPropertyOp49
 70
     1
102
RTVSPropertyOp50
 70
     1
102
RTVSPropertyOp51
 70
     0
102
RTVSPropertyOp52
 70
     0
102
RTVSPropertyOp53
 70
     1
102
RTVSPropertyOp54
 70
     1
102
RTVSPropertyOp55
 70
     1
102
RTVSPropertyOp56
 70
     1
102
RTVSPropertyOp57
 70
     1
102
RTVSPost2010Prop28
280
     0
102
RTVSPost2010PropOp28
 70
     1
102
RTVSPost2010Prop29
280
     1
102
RTVSPost2010PropOp29
 70
     1
102
RTVSPost2010Prop30
280
     1
102
RTVSPost2010PropOp30
 70
     1
102
RTVSPost2010Prop31
280
     0
102
RTVSPost2010PropOp31
 70
     1
102
RTVSPost2010Prop32
280
     0
102
RTVSPost2010PropOp32
 70
     1
102
RTVSPost2010Prop33
280
     0
102
RTVSPost2010PropOp33
 70
     1
102
RTVSPost2010Prop34
280
     0
102
RTVSPost2010PropOp34
 70
     1
102
RTVSPost2010Prop35
280
     0
102
RTVSPost2010PropOp35
 70
     1
102
RTVSPost2010Prop36
280
     0
102
RTVSPost2010PropOp36
 70
     1
102
RTVSPost2010Prop37
 90
       50
102
RTVSPost2010PropOp37
 70
     1
102
RTVSPost2010Prop38
140
0.0
102
RTVSPost2010PropOp38
 70
     1
102
RTVSPost2010Prop39
140
1.0
102
RTVSPost2010PropOp39
 70
     1
102
RTVSPost2010Prop40
 90
        0
102
RTVSPost2010PropOp40
 70
     1
102
RTVSPost2010Prop41ColorIndex
 90
       18
102
RTVSPost2010Prop41ColorRGB
 90
        0
102
RTVSPost2010PropOp41
 70
     1
102
RTVSPost2010Prop42
 90
       50
102
RTVSPost2010PropOp42
 70
     1
102
RTVSPost2010Prop43
 90
        3
102
RTVSPost2010PropOp43
 70
     1
102
RTVSPost2010Prop44ColorIndex
 90
        5
102
RTVSPost2010Prop44ColorRGB
 90
      255
102
RTVSPost2010PropOp44
 70
     1
102
RTVSPost2010Prop45
280
     0
102
RTVSPost2010PropOp45
 70
     1
102
RTVSPost2010Prop46
 90
       50
102
RTVSPost2010PropOp46
 70
     1
102
RTVSPost2010Prop47
 90
       50
102
RTVSPost2010PropOp47
 70
     1
102
RTVSPost2010Prop48
 90
       50
102
RTVSPost2010PropOp48
 70
     1
102
RTVSPost2010Prop49
280
     0
102
RTVSPost2010PropOp49
 70
     1
102
RTVSPost2010Prop50
 90
       50
102
RTVSPost2010PropOp50
 70
     1
102
RTVSPost2010Prop51ColorIndex
 90
      256
102
RTVSPost2010Prop51ColorRGB
 90
-16777216
102
RTVSPost2010PropOp51
 70
     0
102
RTVSPost2010Prop52
140
1.0
102
RTVSPost2010PropOp52
 70
     0
102
RTVSPost2010Prop53
 90
        2
102
RTVSPost2010PropOp53
 70
     1
102
RTVSPost2010Prop54
  1
strokes_ogs.tif
102
RTVSPost2010PropOp54
 70
     1
102
RTVSPost2010Prop55
280
     0
102
RTVSPost2010PropOp55
 70
     1
102
RTVSPost2010Prop56
140
1.0
102
RTVSPost2010PropOp56
 70
     1
102
RTVSPost2010Prop57
140
1.0
102
RTVSPost2010PropOp57
 70
     1
  0
XRECORD
  5
E3
102
{ACAD_REACTORS
330
E2
102
}
330
E2
100
AcDbXrecord
280
     1
102
RTVSPropertyOp0
 70
     1
102
RTVSPropertyOp1
 70
     1
102
RTVSPropertyOp2
 70
     1
102
RTVSPropertyOp3
 70
     1
102
RTVSPropertyOp4
 70
     1
102
RTVSPropertyOp5
 70
     1
102
RTVSPropertyOp6
 70
     1
102
RTVSPropertyOp7
 70
     1
102
RTVSPropertyOp8
 70
     1
102
RTVSPropertyOp9
 70
     1
102
RTVSPropertyOp10
 70
     1
102
RTVSPropertyOp11
 70
     1
102
RTVSPropertyOp12
 70
     1
102
RTVSPropertyOp13
 70
     1
102
RTVSPropertyOp14
 70
     1
102
RTVSPropertyOp15
 70
     1
102
RTVSPropertyOp16
 70
     1
102
RTVSPropertyOp17
 70
     1
102
RTVSPropertyOp18
 70
     1
102
RTVSPropertyOp19
 70
     1
102
RTVSPropertyOp20
 70
     1
102
RTVSPropertyOp21
 70
     1
102
RTVSPropertyOp22
 70
     1
102
RTVSPropertyOp23
 70
     1
102
RTVSPropertyOp24
 70
     1
102
RTVSPropertyOp25
 70
     1
102
RTVSPropertyOp26
 70
     1
102
RTVSPropertyOp27
 70
     1
102
RTVSPropertyOp28
 70
     1
102
RTVSPropertyOp29
 70
     1
102
RTVSPropertyOp30
 70
     1
102
RTVSPropertyOp31
 70
     1
102
RTVSPropertyOp32
 70
     1
102
RTVSPropertyOp33
 70
     1
102
RTVSPropertyOp34
 70
     1
102
RTVSPropertyOp35
 70
     1
102
RTVSPropertyOp36
 70
     1
102
RTVSPropertyOp37
 70
     1
102
RTVSPropertyOp38
 70
     1
102
RTVSPropertyOp39
 70
     1
102
RTVSPropertyOp40
 70
     1
102
RTVSPropertyOp41
 70
     1
102
RTVSPropertyOp42
 70
     1
102
RTVSPropertyOp43
 70
     1
102
RTVSPropertyOp44
 70
     1
102
RTVSPropertyOp45
 70
     1
102
RTVSPropertyOp46
 70
     1
102
RTVSPropertyOp47
 70
     1
102
RTVSPropertyOp48
 70
     1
102
RTVSPropertyOp49
 70
     1
102
RTVSPropertyOp50
 70
     1
102
RTVSPropertyOp51
 70
     0
102
RTVSPropertyOp52
 70
     0
102
RTVSPropertyOp53
 70
     1
102
RTVSPropertyOp54
 70
     1
102
RTVSPropertyOp55
 70
     1
102
RTVSPropertyOp56
 70
     1
102
RTVSPropertyOp57
 70
     1
102
RTVSPost2010Prop28
280
     0
102
RTVSPost2010PropOp28
 70
     1
102
RTVSPost2010Prop29
280
     1
102
RTVSPost2010PropOp29
 70
     1
102
RTVSPost2010Prop30
280
     1
102
RTVSPost2010PropOp30
 70
     1
102
RTVSPost2010Prop31
280
     0
102
RTVSPost2010PropOp31
 70
     1
102
RTVSPost2010Prop32
280
     0
102
RTVSPost2010PropOp32
 70
     1
102
RTVSPost2010Prop33
280
     0
102
RTVSPost2010PropOp33
 70
     1
102
RTVSPost2010Prop34
280
     0
102
RTVSPost2010PropOp34
 70
     1
102
RTVSPost2010Prop35
280
     0
102
RTVSPost2010PropOp35
 70
     1
102
RTVSPost2010Prop36
280
     0
102
RTVSPost2010PropOp36
 70
     1
102
RTVSPost2010Prop37
 90
       50
102
RTVSPost2010PropOp37
 70
     1
102
RTVSPost2010Prop38
140
0.0
102
RTVSPost2010PropOp38
 70
     1
102
RTVSPost2010Prop39
140
1.0
102
RTVSPost2010PropOp39
 70
     1
102
RTVSPost2010Prop40
 90
        0
102
RTVSPost2010PropOp40
 70
     1
102
RTVSPost2010Prop41ColorIndex
 90
       18
102
RTVSPost2010Prop41ColorRGB
 90
        0
102
RTVSPost2010PropOp41
 70
     1
102
RTVSPost2010Prop42
 90
       50
102
RTVSPost2010PropOp42
 70
     1
102
RTVSPost2010Prop43
 90
        3
102
RTVSPost2010PropOp43
 70
     1
102
RTVSPost2010Prop44ColorIndex
 90
        5
102
RTVSPost2010Prop44ColorRGB
 90
      255
102
RTVSPost2010PropOp44
 70
     1
102
RTVSPost2010Prop45
280
     0
102
RTVSPost2010PropOp45
 70
     1
102
RTVSPost2010Prop46
 90
       50
102
RTVSPost2010PropOp46
 70
     1
102
RTVSPost2010Prop47
 90
       50
102
RTVSPost2010PropOp47
 70
     1
102
RTVSPost2010Prop48
 90
       50
102
RTVSPost2010PropOp48
 70
     1
102
RTVSPost2010Prop49
280
     0
102
RTVSPost2010PropOp49
 70
     1
102
RTVSPost2010Prop50
 90
       50
102
RTVSPost2010PropOp50
 70
     1
102
RTVSPost2010Prop51ColorIndex
 90
      256
102
RTVSPost2010Prop51ColorRGB
 90
-16777216
102
RTVSPost2010PropOp51
 70
     0
102
RTVSPost2010Prop52
140
1.0
102
RTVSPost2010PropOp52
 70
     0
102
RTVSPost2010Prop53
 90
        2
102
RTVSPost2010PropOp53
 70
     1
102
RTVSPost2010Prop54
  1
strokes_ogs.tif
102
RTVSPost2010PropOp54
 70
     1
102
RTVSPost2010Prop55
280
     0
102
RTVSPost2010PropOp55
 70
     1
102
RTVSPost2010Prop56
140
1.0
102
RTVSPost2010PropOp56
 70
     1
102
RTVSPost2010Prop57
140
1.0
102
RTVSPost2010PropOp57
 70
     1
  0
ENDSEC
  0
EOF
