 0 
SECTION
 2 
ENTITIES
 0 
LINE
 10 
 608.7 
 20 
 538 
 30 
 0 
 11 
 605.55439453125 
 21 
 536.611181640625 
 31 
 0 
 0 
LINE
 10 
 605.55439453125 
 20 
 536.611181640625 
 30 
 0 
 11 
 603.671240234375 
 21 
 534.809619140625 
 31 
 0 
 0 
LINE
 10 
 603.671240234375 
 20 
 534.809619140625 
 30 
 0 
 11 
 603.040771484375 
 21 
 532.5423828125 
 31 
 0 
 0 
LINE
 10 
 603.040771484375 
 20 
 532.5423828125 
 30 
 0 
 11 
 603.65361328125 
 21 
 529.756787109375 
 31 
 0 
 0 
LINE
 10 
 603.65361328125 
 20 
 529.756787109375 
 30 
 0 
 11 
 605.5 
 21 
 526.4 
 31 
 0 
 0 
LINE
 10 
 605.5 
 20 
 526.4 
 30 
 0 
 11 
 606.8744140625 
 21 
 524.224755859375 
 31 
 0 
 0 
LINE
 10 
 606.8744140625 
 20 
 524.224755859375 
 30 
 0 
 11 
 607.66318359375 
 21 
 522.534375 
 31 
 0 
 0 
LINE
 10 
 607.66318359375 
 20 
 522.534375 
 30 
 0 
 11 
 607.904833984375 
 21 
 521.02158203125 
 31 
 0 
 0 
LINE
 10 
 607.904833984375 
 20 
 521.02158203125 
 30 
 0 
 11 
 607.637646484375 
 21 
 519.37919921875 
 31 
 0 
 0 
LINE
 10 
 607.637646484375 
 20 
 519.37919921875 
 30 
 0 
 11 
 606.9 
 21 
 517.3 
 31 
 0 
 0 
LINE
 10 
 606.9 
 20 
 517.3 
 30 
 0 
 11 
 605.7 
 21 
 514.5 
 31 
 0 
 0 
LINE
 10 
 605.7 
 20 
 514.5 
 30 
 0 
 11 
 603 
 21 
 520.4 
 31 
 0 
 0 
LINE
 10 
 603 
 20 
 520.4 
 30 
 0 
 11 
 601.86396484375 
 21 
 523.041552734375 
 31 
 0 
 0 
LINE
 10 
 601.86396484375 
 20 
 523.041552734375 
 30 
 0 
 11 
 601.184033203125 
 21 
 525.04482421875 
 31 
 0 
 0 
LINE
 10 
 601.184033203125 
 20 
 525.04482421875 
 30 
 0 
 11 
 600.911962890625 
 21 
 526.707177734375 
 31 
 0 
 0 
LINE
 10 
 600.911962890625 
 20 
 526.707177734375 
 30 
 0 
 11 
 601 
 21 
 528.326416015625 
 31 
 0 
 0 
LINE
 10 
 601 
 20 
 528.326416015625 
 30 
 0 
 11 
 601.4 
 21 
 530.2 
 31 
 0 
 0 
LINE
 10 
 601.4 
 20 
 530.2 
 30 
 0 
 11 
 601.8591796875 
 21 
 532.07197265625 
 31 
 0 
 0 
LINE
 10 
 601.8591796875 
 20 
 532.07197265625 
 30 
 0 
 11 
 602.001611328125 
 21 
 533.3919921875 
 31 
 0 
 0 
LINE
 10 
 602.001611328125 
 20 
 533.3919921875 
 30 
 0 
 11 
 601.7744140625 
 21 
 534.3759765625 
 31 
 0 
 0 
LINE
 10 
 601.7744140625 
 20 
 534.3759765625 
 30 
 0 
 11 
 601.1248046875 
 21 
 535.239990234375 
 31 
 0 
 0 
LINE
 10 
 601.1248046875 
 20 
 535.239990234375 
 30 
 0 
 11 
 600 
 21 
 536.2 
 31 
 0 
 0 
LINE
 10 
 600 
 20 
 536.2 
 30 
 0 
 11 
 598.686376953125 
 21 
 537.095947265625 
 31 
 0 
 0 
LINE
 10 
 598.686376953125 
 20 
 537.095947265625 
 30 
 0 
 11 
 597.075244140625 
 21 
 537.656005859375 
 31 
 0 
 0 
LINE
 10 
 597.075244140625 
 20 
 537.656005859375 
 30 
 0 
 11 
 594.70078125 
 21 
 537.927978515625 
 31 
 0 
 0 
LINE
 10 
 594.70078125 
 20 
 537.927978515625 
 30 
 0 
 11 
 591.097607421875 
 21 
 537.960009765625 
 31 
 0 
 0 
LINE
 10 
 591.097607421875 
 20 
 537.960009765625 
 30 
 0 
 11 
 585.8 
 21 
 537.8 
 31 
 0 
 0 
LINE
 10 
 585.8 
 20 
 537.8 
 30 
 0 
 11 
 580.444775390625 
 21 
 537.615234375 
 31 
 0 
 0 
LINE
 10 
 580.444775390625 
 20 
 537.615234375 
 30 
 0 
 11 
 576.87041015625 
 21 
 537.35361328125 
 31 
 0 
 0 
LINE
 10 
 576.87041015625 
 20 
 537.35361328125 
 30 
 0 
 11 
 574.55361328125 
 21 
 536.914404296875 
 31 
 0 
 0 
LINE
 10 
 574.55361328125 
 20 
 536.914404296875 
 30 
 0 
 11 
 572.97119140625 
 21 
 536.19677734375 
 31 
 0 
 0 
LINE
 10 
 572.97119140625 
 20 
 536.19677734375 
 30 
 0 
 11 
 571.6 
 21 
 535.1 
 31 
 0 
 0 
LINE
 10 
 571.6 
 20 
 535.1 
 30 
 0 
 11 
 569.883984375 
 21 
 532.976025390625 
 31 
 0 
 0 
LINE
 10 
 569.883984375 
 20 
 532.976025390625 
 30 
 0 
 11 
 569.056005859375 
 21 
 530.77998046875 
 31 
 0 
 0 
LINE
 10 
 569.056005859375 
 20 
 530.77998046875 
 30 
 0 
 11 
 569.116015625 
 21 
 528.656005859375 
 31 
 0 
 0 
LINE
 10 
 569.116015625 
 20 
 528.656005859375 
 30 
 0 
 11 
 570.064013671875 
 21 
 526.747998046875 
 31 
 0 
 0 
LINE
 10 
 570.064013671875 
 20 
 526.747998046875 
 30 
 0 
 11 
 571.9 
 21 
 525.2 
 31 
 0 
 0 
LINE
 10 
 571.9 
 20 
 525.2 
 30 
 0 
 11 
 573.61513671875 
 21 
 524.01123046875 
 31 
 0 
 0 
LINE
 10 
 573.61513671875 
 20 
 524.01123046875 
 30 
 0 
 11 
 575.349609375 
 21 
 521.83359375 
 31 
 0 
 0 
LINE
 10 
 575.349609375 
 20 
 521.83359375 
 30 
 0 
 11 
 577.746435546875 
 21 
 517.510400390625 
 31 
 0 
 0 
LINE
 10 
 577.746435546875 
 20 
 517.510400390625 
 30 
 0 
 11 
 581.448779296875 
 21 
 509.884814453125 
 31 
 0 
 0 
LINE
 10 
 581.448779296875 
 20 
 509.884814453125 
 30 
 0 
 11 
 587.1 
 21 
 497.8 
 31 
 0 
 0 
LINE
 10 
 587.1 
 20 
 497.8 
 30 
 0 
 11 
 594.8 
 21 
 481 
 31 
 0 
 0 
LINE
 10 
 594.8 
 20 
 481 
 30 
 0 
 11 
 576.9 
 21 
 481 
 31 
 0 
 0 
LINE
 10 
 576.9 
 20 
 481 
 30 
 0 
 11 
 559.1 
 21 
 481 
 31 
 0 
 0 
LINE
 10 
 559.1 
 20 
 481 
 30 
 0 
 11 
 563.3 
 21 
 485.3 
 31 
 0 
 0 
LINE
 10 
 563.3 
 20 
 485.3 
 30 
 0 
 11 
 566.449560546875 
 21 
 488.799951171875 
 31 
 0 
 0 
LINE
 10 
 566.449560546875 
 20 
 488.799951171875 
 30 
 0 
 11 
 568.76884765625 
 21 
 492.276025390625 
 31 
 0 
 0 
LINE
 10 
 568.76884765625 
 20 
 492.276025390625 
 30 
 0 
 11 
 570.36318359375 
 21 
 495.9919921875 
 31 
 0 
 0 
LINE
 10 
 570.36318359375 
 20 
 495.9919921875 
 30 
 0 
 11 
 571.338427734375 
 21 
 500.21201171875 
 31 
 0 
 0 
LINE
 10 
 571.338427734375 
 20 
 500.21201171875 
 30 
 0 
 11 
 571.8 
 21 
 505.2 
 31 
 0 
 0 
LINE
 10 
 571.8 
 20 
 505.2 
 30 
 0 
 11 
 571.52236328125 
 21 
 512.857568359375 
 31 
 0 
 0 
LINE
 10 
 571.52236328125 
 20 
 512.857568359375 
 30 
 0 
 11 
 569.843212890625 
 21 
 519.516796875 
 31 
 0 
 0 
LINE
 10 
 569.843212890625 
 20 
 519.516796875 
 30 
 0 
 11 
 566.752783203125 
 21 
 525.18720703125 
 31 
 0 
 0 
LINE
 10 
 566.752783203125 
 20 
 525.18720703125 
 30 
 0 
 11 
 562.2416015625 
 21 
 529.87841796875 
 31 
 0 
 0 
LINE
 10 
 562.2416015625 
 20 
 529.87841796875 
 30 
 0 
 11 
 556.3 
 21 
 533.6 
 31 
 0 
 0 
LINE
 10 
 556.3 
 20 
 533.6 
 30 
 0 
 11 
 553.7751953125 
 21 
 534.77353515625 
 31 
 0 
 0 
LINE
 10 
 553.7751953125 
 20 
 534.77353515625 
 30 
 0 
 11 
 551.509619140625 
 21 
 535.572802734375 
 31 
 0 
 0 
LINE
 10 
 551.509619140625 
 20 
 535.572802734375 
 30 
 0 
 11 
 549.18642578125 
 21 
 536.055224609375 
 31 
 0 
 0 
LINE
 10 
 549.18642578125 
 20 
 536.055224609375 
 30 
 0 
 11 
 546.488818359375 
 21 
 536.27841796875 
 31 
 0 
 0 
LINE
 10 
 546.488818359375 
 20 
 536.27841796875 
 30 
 0 
 11 
 543.1 
 21 
 536.3 
 31 
 0 
 0 
LINE
 10 
 543.1 
 20 
 536.3 
 30 
 0 
 11 
 536.165625 
 21 
 535.670361328125 
 31 
 0 
 0 
LINE
 10 
 536.165625 
 20 
 535.670361328125 
 30 
 0 
 11 
 530.080810546875 
 21 
 533.87919921875 
 31 
 0 
 0 
LINE
 10 
 530.080810546875 
 20 
 533.87919921875 
 30 
 0 
 11 
 524.783203125 
 21 
 530.8927734375 
 31 
 0 
 0 
LINE
 10 
 524.783203125 
 20 
 530.8927734375 
 30 
 0 
 11 
 520.210400390625 
 21 
 526.677587890625 
 31 
 0 
 0 
LINE
 10 
 520.210400390625 
 20 
 526.677587890625 
 30 
 0 
 11 
 516.3 
 21 
 521.2 
 31 
 0 
 0 
LINE
 10 
 516.3 
 20 
 521.2 
 30 
 0 
 11 
 513.517626953125 
 21 
 513.58232421875 
 31 
 0 
 0 
LINE
 10 
 513.517626953125 
 20 
 513.58232421875 
 30 
 0 
 11 
 513.192822265625 
 21 
 505.115234375 
 31 
 0 
 0 
LINE
 10 
 513.192822265625 
 20 
 505.115234375 
 30 
 0 
 11 
 515.119189453125 
 21 
 496.676806640625 
 31 
 0 
 0 
LINE
 10 
 515.119189453125 
 20 
 496.676806640625 
 30 
 0 
 11 
 519.0904296875 
 21 
 489.14560546875 
 31 
 0 
 0 
LINE
 10 
 519.0904296875 
 20 
 489.14560546875 
 30 
 0 
 11 
 524.9 
 21 
 483.4 
 31 
 0 
 0 
LINE
 10 
 524.9 
 20 
 483.4 
 30 
 0 
 11 
 528.5 
 21 
 481 
 31 
 0 
 0 
LINE
 10 
 528.5 
 20 
 481 
 30 
 0 
 11 
 519.2 
 21 
 481 
 31 
 0 
 0 
LINE
 10 
 519.2 
 20 
 481 
 30 
 0 
 11 
 509.9 
 21 
 481 
 31 
 0 
 0 
LINE
 10 
 509.9 
 20 
 481 
 30 
 0 
 11 
 511.5 
 21 
 484 
 31 
 0 
 0 
LINE
 10 
 511.5 
 20 
 484 
 30 
 0 
 11 
 512.385546875 
 21 
 486.505615234375 
 31 
 0 
 0 
LINE
 10 
 512.385546875 
 20 
 486.505615234375 
 30 
 0 
 11 
 512.8728515625 
 21 
 489.5248046875 
 31 
 0 
 0 
LINE
 10 
 512.8728515625 
 20 
 489.5248046875 
 30 
 0 
 11 
 512.947216796875 
 21 
 492.611181640625 
 31 
 0 
 0 
LINE
 10 
 512.947216796875 
 20 
 492.611181640625 
 30 
 0 
 11 
 512.594384765625 
 21 
 495.318408203125 
 31 
 0 
 0 
LINE
 10 
 512.594384765625 
 20 
 495.318408203125 
 30 
 0 
 11 
 511.8 
 21 
 497.2 
 31 
 0 
 0 
LINE
 10 
 511.8 
 20 
 497.2 
 30 
 0 
 11 
 510.53681640625 
 21 
 498.3935546875 
 31 
 0 
 0 
LINE
 10 
 510.53681640625 
 20 
 498.3935546875 
 30 
 0 
 11 
 509.038427734375 
 21 
 499.188818359375 
 31 
 0 
 0 
LINE
 10 
 509.038427734375 
 20 
 499.188818359375 
 30 
 0 
 11 
 507.501611328125 
 21 
 499.547216796875 
 31 
 0 
 0 
LINE
 10 
 507.501611328125 
 20 
 499.547216796875 
 30 
 0 
 11 
 506.123193359375 
 21 
 499.430419921875 
 31 
 0 
 0 
LINE
 10 
 506.123193359375 
 20 
 499.430419921875 
 30 
 0 
 11 
 505.1 
 21 
 498.8 
 31 
 0 
 0 
LINE
 10 
 505.1 
 20 
 498.8 
 30 
 0 
 11 
 504.631201171875 
 21 
 498.21435546875 
 31 
 0 
 0 
LINE
 10 
 504.631201171875 
 20 
 498.21435546875 
 30 
 0 
 11 
 503.989599609375 
 21 
 497.355224609375 
 31 
 0 
 0 
LINE
 10 
 503.989599609375 
 20 
 497.355224609375 
 30 
 0 
 11 
 503.2423828125 
 21 
 496.3087890625 
 31 
 0 
 0 
LINE
 10 
 503.2423828125 
 20 
 496.3087890625 
 30 
 0 
 11 
 502.4568359375 
 21 
 495.16162109375 
 31 
 0 
 0 
LINE
 10 
 502.4568359375 
 20 
 495.16162109375 
 30 
 0 
 11 
 501.7 
 21 
 494 
 31 
 0 
 0 
LINE
 10 
 501.7 
 20 
 494 
 30 
 0 
 11 
 500.61357421875 
 21 
 492.483984375 
 31 
 0 
 0 
LINE
 10 
 500.61357421875 
 20 
 492.483984375 
 30 
 0 
 11 
 499.6328125 
 21 
 491.47197265625 
 31 
 0 
 0 
LINE
 10 
 499.6328125 
 20 
 491.47197265625 
 30 
 0 
 11 
 498.5751953125 
 21 
 490.868017578125 
 31 
 0 
 0 
LINE
 10 
 498.5751953125 
 20 
 490.868017578125 
 30 
 0 
 11 
 497.2583984375 
 21 
 490.576025390625 
 31 
 0 
 0 
LINE
 10 
 497.2583984375 
 20 
 490.576025390625 
 30 
 0 
 11 
 495.5 
 21 
 490.5 
 31 
 0 
 0 
LINE
 10 
 495.5 
 20 
 490.5 
 30 
 0 
 11 
 491.5 
 21 
 490.5 
 31 
 0 
 0 
LINE
 10 
 491.5 
 20 
 490.5 
 30 
 0 
 11 
 491.2 
 21 
 506.3 
 31 
 0 
 0 
LINE
 10 
 491.2 
 20 
 506.3 
 30 
 0 
 11 
 490.9 
 21 
 522.2 
 31 
 0 
 0 
LINE
 10 
 490.9 
 20 
 522.2 
 30 
 0 
 11 
 493.5 
 21 
 524.2 
 31 
 0 
 0 
LINE
 10 
 493.5 
 20 
 524.2 
 30 
 0 
 11 
 494.96318359375 
 21 
 525.706396484375 
 31 
 0 
 0 
LINE
 10 
 494.96318359375 
 20 
 525.706396484375 
 30 
 0 
 11 
 495.749609375 
 21 
 527.395166015625 
 31 
 0 
 0 
LINE
 10 
 495.749609375 
 20 
 527.395166015625 
 30 
 0 
 11 
 495.85439453125 
 21 
 529.160791015625 
 31 
 0 
 0 
LINE
 10 
 495.85439453125 
 20 
 529.160791015625 
 30 
 0 
 11 
 495.272802734375 
 21 
 530.897607421875 
 31 
 0 
 0 
LINE
 10 
 495.272802734375 
 20 
 530.897607421875 
 30 
 0 
 11 
 494 
 21 
 532.5 
 31 
 0 
 0 
LINE
 10 
 494 
 20 
 532.5 
 30 
 0 
 11 
 492.865625 
 21 
 533.264013671875 
 31 
 0 
 0 
LINE
 10 
 492.865625 
 20 
 533.264013671875 
 30 
 0 
 11 
 491.284814453125 
 21 
 533.788037109375 
 31 
 0 
 0 
LINE
 10 
 491.284814453125 
 20 
 533.788037109375 
 30 
 0 
 11 
 488.931201171875 
 21 
 534.12001953125 
 31 
 0 
 0 
LINE
 10 
 488.931201171875 
 20 
 534.12001953125 
 30 
 0 
 11 
 485.47841796875 
 21 
 534.3080078125 
 31 
 0 
 0 
LINE
 10 
 485.47841796875 
 20 
 534.3080078125 
 30 
 0 
 11 
 480.6 
 21 
 534.4 
 31 
 0 
 0 
LINE
 10 
 480.6 
 20 
 534.4 
 30 
 0 
 11 
 475.435986328125 
 21 
 534.403173828125 
 31 
 0 
 0 
LINE
 10 
 475.435986328125 
 20 
 534.403173828125 
 30 
 0 
 11 
 471.880029296875 
 21 
 534.257568359375 
 31 
 0 
 0 
LINE
 10 
 471.880029296875 
 20 
 534.257568359375 
 30 
 0 
 11 
 469.476025390625 
 21 
 533.910400390625 
 31 
 0 
 0 
LINE
 10 
 469.476025390625 
 20 
 533.910400390625 
 30 
 0 
 11 
 467.768017578125 
 21 
 533.3087890625 
 31 
 0 
 0 
LINE
 10 
 467.768017578125 
 20 
 533.3087890625 
 30 
 0 
 11 
 466.3 
 21 
 532.4 
 31 
 0 
 0 
LINE
 10 
 466.3 
 20 
 532.4 
 30 
 0 
 11 
 464.3671875 
 21 
 530.623193359375 
 31 
 0 
 0 
LINE
 10 
 464.3671875 
 20 
 530.623193359375 
 30 
 0 
 11 
 463.365576171875 
 21 
 528.889599609375 
 31 
 0 
 0 
LINE
 10 
 463.365576171875 
 20 
 528.889599609375 
 30 
 0 
 11 
 463.290380859375 
 21 
 527.194384765625 
 31 
 0 
 0 
LINE
 10 
 463.290380859375 
 20 
 527.194384765625 
 30 
 0 
 11 
 464.13681640625 
 21 
 525.5328125 
 31 
 0 
 0 
LINE
 10 
 464.13681640625 
 20 
 525.5328125 
 30 
 0 
 11 
 465.9 
 21 
 523.9 
 31 
 0 
 0 
LINE
 10 
 465.9 
 20 
 523.9 
 30 
 0 
 11 
 469 
 21 
 521.6 
 31 
 0 
 0 
LINE
 10 
 469 
 20 
 521.6 
 30 
 0 
 11 
 469 
 21 
 506 
 31 
 0 
 0 
LINE
 10 
 469 
 20 
 506 
 30 
 0 
 11 
 468.97919921875 
 21 
 498.39599609375 
 31 
 0 
 0 
LINE
 10 
 468.97919921875 
 20 
 498.39599609375 
 30 
 0 
 11 
 468.833642578125 
 21 
 493.623974609375 
 31 
 0 
 0 
LINE
 10 
 468.833642578125 
 20 
 493.623974609375 
 30 
 0 
 11 
 468.438427734375 
 21 
 490.843994140625 
 31 
 0 
 0 
LINE
 10 
 468.438427734375 
 20 
 490.843994140625 
 30 
 0 
 11 
 467.668798828125 
 21 
 489.216015625 
 31 
 0 
 0 
LINE
 10 
 467.668798828125 
 20 
 489.216015625 
 30 
 0 
 11 
 466.4 
 21 
 487.9 
 31 
 0 
 0 
LINE
 10 
 466.4 
 20 
 487.9 
 30 
 0 
 11 
 465.5 
 21 
 486.951220703125 
 31 
 0 
 0 
LINE
 10 
 465.5 
 20 
 486.951220703125 
 30 
 0 
 11 
 464.839990234375 
 21 
 486.021630859375 
 31 
 0 
 0 
LINE
 10 
 464.839990234375 
 20 
 486.021630859375 
 30 
 0 
 11 
 464.42001953125 
 21 
 485.106396484375 
 31 
 0 
 0 
LINE
 10 
 464.42001953125 
 20 
 485.106396484375 
 30 
 0 
 11 
 464.2400390625 
 21 
 484.200830078125 
 31 
 0 
 0 
LINE
 10 
 464.2400390625 
 20 
 484.200830078125 
 30 
 0 
 11 
 464.3 
 21 
 483.3 
 31 
 0 
 0 
LINE
 10 
 464.3 
 20 
 483.3 
 30 
 0 
 11 
 464.403173828125 
 21 
 482.369580078125 
 31 
 0 
 0 
LINE
 10 
 464.403173828125 
 20 
 482.369580078125 
 30 
 0 
 11 
 464.33359375 
 21 
 481.71279296875 
 31 
 0 
 0 
LINE
 10 
 464.33359375 
 20 
 481.71279296875 
 30 
 0 
 11 
 464.06240234375 
 21 
 481.2912109375 
 31 
 0 
 0 
LINE
 10 
 464.06240234375 
 20 
 481.2912109375 
 30 
 0 
 11 
 463.560791015625 
 21 
 481.06640625 
 31 
 0 
 0 
LINE
 10 
 463.560791015625 
 20 
 481.06640625 
 30 
 0 
 11 
 462.8 
 21 
 481 
 31 
 0 
 0 
LINE
 10 
 462.8 
 20 
 481 
 30 
 0 
 11 
 462.00322265625 
 21 
 481.052783203125 
 31 
 0 
 0 
LINE
 10 
 462.00322265625 
 20 
 481.052783203125 
 30 
 0 
 11 
 461.51357421875 
 21 
 481.230419921875 
 31 
 0 
 0 
LINE
 10 
 461.51357421875 
 20 
 481.230419921875 
 30 
 0 
 11 
 461.302392578125 
 21 
 481.561572265625 
 31 
 0 
 0 
LINE
 10 
 461.302392578125 
 20 
 481.561572265625 
 30 
 0 
 11 
 461.3408203125 
 21 
 482.0751953125 
 31 
 0 
 0 
LINE
 10 
 461.3408203125 
 20 
 482.0751953125 
 30 
 0 
 11 
 461.6 
 21 
 482.8 
 31 
 0 
 0 
LINE
 10 
 461.6 
 20 
 482.8 
 30 
 0 
 11 
 461.848779296875 
 21 
 483.583203125 
 31 
 0 
 0 
LINE
 10 
 461.848779296875 
 20 
 483.583203125 
 30 
 0 
 11 
 462.102392578125 
 21 
 484.769580078125 
 31 
 0 
 0 
LINE
 10 
 462.102392578125 
 20 
 484.769580078125 
 30 
 0 
 11 
 462.3416015625 
 21 
 486.234423828125 
 31 
 0 
 0 
LINE
 10 
 462.3416015625 
 20 
 486.234423828125 
 30 
 0 
 11 
 462.547216796875 
 21 
 487.85283203125 
 31 
 0 
 0 
LINE
 10 
 462.547216796875 
 20 
 487.85283203125 
 30 
 0 
 11 
 462.7 
 21 
 489.5 
 31 
 0 
 0 
LINE
 10 
 462.7 
 20 
 489.5 
 30 
 0 
 11 
 462.75517578125 
 21 
 492.651953125 
 31 
 0 
 0 
LINE
 10 
 462.75517578125 
 20 
 492.651953125 
 30 
 0 
 11 
 462.30166015625 
 21 
 495.060009765625 
 31 
 0 
 0 
LINE
 10 
 462.30166015625 
 20 
 495.060009765625 
 30 
 0 
 11 
 461.310400390625 
 21 
 496.77197265625 
 31 
 0 
 0 
LINE
 10 
 461.310400390625 
 20 
 496.77197265625 
 30 
 0 
 11 
 459.75283203125 
 21 
 497.835986328125 
 31 
 0 
 0 
LINE
 10 
 459.75283203125 
 20 
 497.835986328125 
 30 
 0 
 11 
 457.6 
 21 
 498.3 
 31 
 0 
 0 
LINE
 10 
 457.6 
 20 
 498.3 
 30 
 0 
 11 
 456.27841796875 
 21 
 498.29443359375 
 31 
 0 
 0 
LINE
 10 
 456.27841796875 
 20 
 498.29443359375 
 30 
 0 
 11 
 455.211181640625 
 21 
 497.967236328125 
 31 
 0 
 0 
LINE
 10 
 455.211181640625 
 20 
 497.967236328125 
 30 
 0 
 11 
 454.24482421875 
 21 
 497.21279296875 
 31 
 0 
 0 
LINE
 10 
 454.24482421875 
 20 
 497.21279296875 
 30 
 0 
 11 
 453.2255859375 
 21 
 495.925634765625 
 31 
 0 
 0 
LINE
 10 
 453.2255859375 
 20 
 495.925634765625 
 30 
 0 
 11 
 452 
 21 
 494 
 31 
 0 
 0 
LINE
 10 
 452 
 20 
 494 
 30 
 0 
 11 
 450.737548828125 
 21 
 491.957568359375 
 31 
 0 
 0 
LINE
 10 
 450.737548828125 
 20 
 491.957568359375 
 30 
 0 
 11 
 449.676806640625 
 21 
 490.644775390625 
 31 
 0 
 0 
LINE
 10 
 449.676806640625 
 20 
 490.644775390625 
 30 
 0 
 11 
 448.58720703125 
 21 
 489.90322265625 
 31 
 0 
 0 
LINE
 10 
 448.58720703125 
 20 
 489.90322265625 
 30 
 0 
 11 
 447.238427734375 
 21 
 489.5744140625 
 31 
 0 
 0 
LINE
 10 
 447.238427734375 
 20 
 489.5744140625 
 30 
 0 
 11 
 445.4 
 21 
 489.5 
 31 
 0 
 0 
LINE
 10 
 445.4 
 20 
 489.5 
 30 
 0 
 11 
 441.5 
 21 
 489.5 
 31 
 0 
 0 
LINE
 10 
 441.5 
 20 
 489.5 
 30 
 0 
 11 
 440.9 
 21 
 496.5 
 31 
 0 
 0 
LINE
 10 
 440.9 
 20 
 496.5 
 30 
 0 
 11 
 440.672802734375 
 21 
 499.14638671875 
 31 
 0 
 0 
LINE
 10 
 440.672802734375 
 20 
 499.14638671875 
 30 
 0 
 11 
 440.4744140625 
 21 
 502.239208984375 
 31 
 0 
 0 
LINE
 10 
 440.4744140625 
 20 
 502.239208984375 
 30 
 0 
 11 
 440.309619140625 
 21 
 505.52880859375 
 31 
 0 
 0 
LINE
 10 
 440.309619140625 
 20 
 505.52880859375 
 30 
 0 
 11 
 440.183203125 
 21 
 508.765625 
 31 
 0 
 0 
LINE
 10 
 440.183203125 
 20 
 508.765625 
 30 
 0 
 11 
 440.1 
 21 
 511.7 
 31 
 0 
 0 
LINE
 10 
 440.1 
 20 
 511.7 
 30 
 0 
 11 
 440.084765625 
 21 
 515.63037109375 
 31 
 0 
 0 
LINE
 10 
 440.084765625 
 20 
 515.63037109375 
 30 
 0 
 11 
 440.242431640625 
 21 
 518.255224609375 
 31 
 0 
 0 
LINE
 10 
 440.242431640625 
 20 
 518.255224609375 
 30 
 0 
 11 
 440.697607421875 
 21 
 520.04482421875 
 31 
 0 
 0 
LINE
 10 
 440.697607421875 
 20 
 520.04482421875 
 30 
 0 
 11 
 441.5751953125 
 21 
 521.46962890625 
 31 
 0 
 0 
LINE
 10 
 441.5751953125 
 20 
 521.46962890625 
 30 
 0 
 11 
 443 
 21 
 523 
 31 
 0 
 0 
LINE
 10 
 443 
 20 
 523 
 30 
 0 
 11 
 444.707958984375 
 21 
 524.95439453125 
 31 
 0 
 0 
LINE
 10 
 444.707958984375 
 20 
 524.95439453125 
 30 
 0 
 11 
 445.647998046875 
 21 
 526.58720703125 
 31 
 0 
 0 
LINE
 10 
 445.647998046875 
 20 
 526.58720703125 
 30 
 0 
 11 
 445.843994140625 
 21 
 528.0328125 
 31 
 0 
 0 
LINE
 10 
 445.843994140625 
 20 
 528.0328125 
 30 
 0 
 11 
 445.32001953125 
 21 
 529.425634765625 
 31 
 0 
 0 
LINE
 10 
 445.32001953125 
 20 
 529.425634765625 
 30 
 0 
 11 
 444.1 
 21 
 530.9 
 31 
 0 
 0 
LINE
 10 
 444.1 
 20 
 530.9 
 30 
 0 
 11 
 440.40078125 
 21 
 532.719189453125 
 31 
 0 
 0 
LINE
 10 
 440.40078125 
 20 
 532.719189453125 
 30 
 0 
 11 
 434.54638671875 
 21 
 533.717626953125 
 31 
 0 
 0 
LINE
 10 
 434.54638671875 
 20 
 533.717626953125 
 30 
 0 
 11 
 427.7416015625 
 21 
 533.86640625 
 31 
 0 
 0 
LINE
 10 
 427.7416015625 
 20 
 533.86640625 
 30 
 0 
 11 
 421.1912109375 
 21 
 533.13681640625 
 31 
 0 
 0 
LINE
 10 
 421.1912109375 
 20 
 533.13681640625 
 30 
 0 
 11 
 416.1 
 21 
 531.5 
 31 
 0 
 0 
LINE
 10 
 416.1 
 20 
 531.5 
 30 
 0 
 11 
 414.1095703125 
 21 
 529.995166015625 
 31 
 0 
 0 
LINE
 10 
 414.1095703125 
 20 
 529.995166015625 
 30 
 0 
 11 
 413.064794921875 
 21 
 528.125634765625 
 31 
 0 
 0 
LINE
 10 
 413.064794921875 
 20 
 528.125634765625 
 30 
 0 
 11 
 412.9751953125 
 21 
 526.07841796875 
 31 
 0 
 0 
LINE
 10 
 412.9751953125 
 20 
 526.07841796875 
 30 
 0 
 11 
 413.850390625 
 21 
 524.0408203125 
 31 
 0 
 0 
LINE
 10 
 413.850390625 
 20 
 524.0408203125 
 30 
 0 
 11 
 415.7 
 21 
 522.2 
 31 
 0 
 0 
LINE
 10 
 415.7 
 20 
 522.2 
 30 
 0 
 11 
 418.5 
 21 
 520.2 
 31 
 0 
 0 
LINE
 10 
 418.5 
 20 
 520.2 
 30 
 0 
 11 
 418.9 
 21 
 504.7 
 31 
 0 
 0 
LINE
 10 
 418.9 
 20 
 504.7 
 30 
 0 
 11 
 419.2 
 21 
 489.2 
 31 
 0 
 0 
LINE
 10 
 419.2 
 20 
 489.2 
 30 
 0 
 11 
 416.6 
 21 
 486.9 
 31 
 0 
 0 
LINE
 10 
 416.6 
 20 
 486.9 
 30 
 0 
 11 
 415.7919921875 
 21 
 486.1087890625 
 31 
 0 
 0 
LINE
 10 
 415.7919921875 
 20 
 486.1087890625 
 30 
 0 
 11 
 415.080029296875 
 21 
 485.226416015625 
 31 
 0 
 0 
LINE
 10 
 415.080029296875 
 20 
 485.226416015625 
 30 
 0 
 11 
 414.51201171875 
 21 
 484.32958984375 
 31 
 0 
 0 
LINE
 10 
 414.51201171875 
 20 
 484.32958984375 
 30 
 0 
 11 
 414.13603515625 
 21 
 483.49521484375 
 31 
 0 
 0 
LINE
 10 
 414.13603515625 
 20 
 483.49521484375 
 30 
 0 
 11 
 414 
 21 
 482.8 
 31 
 0 
 0 
LINE
 10 
 414 
 20 
 482.8 
 30 
 0 
 11 
 413.916796875 
 21 
 482.19033203125 
 31 
 0 
 0 
LINE
 10 
 413.916796875 
 20 
 482.19033203125 
 30 
 0 
 11 
 413.67041015625 
 21 
 481.6912109375 
 31 
 0 
 0 
LINE
 10 
 413.67041015625 
 20 
 481.6912109375 
 30 
 0 
 11 
 413.265576171875 
 21 
 481.316796875 
 31 
 0 
 0 
LINE
 10 
 413.265576171875 
 20 
 481.316796875 
 30 
 0 
 11 
 412.7072265625 
 21 
 481.081591796875 
 31 
 0 
 0 
LINE
 10 
 412.7072265625 
 20 
 481.081591796875 
 30 
 0 
 11 
 412 
 21 
 481 
 31 
 0 
 0 
LINE
 10 
 412 
 20 
 481 
 30 
 0 
 11 
 411.331201171875 
 21 
 481.080810546875 
 31 
 0 
 0 
LINE
 10 
 411.331201171875 
 20 
 481.080810546875 
 30 
 0 
 11 
 410.777587890625 
 21 
 481.31044921875 
 31 
 0 
 0 
LINE
 10 
 410.777587890625 
 20 
 481.31044921875 
 30 
 0 
 11 
 410.3583984375 
 21 
 481.66962890625 
 31 
 0 
 0 
LINE
 10 
 410.3583984375 
 20 
 481.66962890625 
 30 
 0 
 11 
 410.092822265625 
 21 
 482.139208984375 
 31 
 0 
 0 
LINE
 10 
 410.092822265625 
 20 
 482.139208984375 
 30 
 0 
 11 
 410 
 21 
 482.7 
 31 
 0 
 0 
LINE
 10 
 410 
 20 
 482.7 
 30 
 0 
 11 
 409.851171875 
 21 
 483.347998046875 
 31 
 0 
 0 
LINE
 10 
 409.851171875 
 20 
 483.347998046875 
 30 
 0 
 11 
 409.433618164063 
 21 
 484.164013671875 
 31 
 0 
 0 
LINE
 10 
 409.433618164063 
 20 
 484.164013671875 
 30 
 0 
 11 
 408.790405273438 
 21 
 485.0759765625 
 31 
 0 
 0 
LINE
 10 
 408.790405273438 
 20 
 485.0759765625 
 30 
 0 
 11 
 407.964819335938 
 21 
 486.01201171875 
 31 
 0 
 0 
LINE
 10 
 407.964819335938 
 20 
 486.01201171875 
 30 
 0 
 11 
 407 
 21 
 486.9 
 31 
 0 
 0 
LINE
 10 
 407 
 20 
 486.9 
 30 
 0 
 11 
 405.644799804688 
 21 
 488.43359375 
 31 
 0 
 0 
LINE
 10 
 405.644799804688 
 20 
 488.43359375 
 30 
 0 
 11 
 403.982397460938 
 21 
 490.984814453125 
 31 
 0 
 0 
LINE
 10 
 403.982397460938 
 20 
 490.984814453125 
 30 
 0 
 11 
 402.017602539063 
 21 
 494.539208984375 
 31 
 0 
 0 
LINE
 10 
 402.017602539063 
 20 
 494.539208984375 
 30 
 0 
 11 
 399.755200195313 
 21 
 499.082421875 
 31 
 0 
 0 
LINE
 10 
 399.755200195313 
 20 
 499.082421875 
 30 
 0 
 11 
 397.2 
 21 
 504.6 
 31 
 0 
 0 
LINE
 10 
 397.2 
 20 
 504.6 
 30 
 0 
 11 
 392.486376953125 
 21 
 514.583154296875 
 31 
 0 
 0 
LINE
 10 
 392.486376953125 
 20 
 514.583154296875 
 30 
 0 
 11 
 388.675219726563 
 21 
 521.8255859375 
 31 
 0 
 0 
LINE
 10 
 388.675219726563 
 20 
 521.8255859375 
 30 
 0 
 11 
 385.42080078125 
 21 
 526.8263671875 
 31 
 0 
 0 
LINE
 10 
 385.42080078125 
 20 
 526.8263671875 
 30 
 0 
 11 
 382.377612304688 
 21 
 530.084814453125 
 31 
 0 
 0 
LINE
 10 
 382.377612304688 
 20 
 530.084814453125 
 30 
 0 
 11 
 379.2 
 21 
 532.1 
 31 
 0 
 0 
LINE
 10 
 379.2 
 20 
 532.1 
 30 
 0 
 11 
 374.3416015625 
 21 
 533.718359375 
 31 
 0 
 0 
LINE
 10 
 374.3416015625 
 20 
 533.718359375 
 30 
 0 
 11 
 370.260815429688 
 21 
 533.455224609375 
 31 
 0 
 0 
LINE
 10 
 370.260815429688 
 20 
 533.455224609375 
 30 
 0 
 11 
 367.039208984375 
 21 
 531.372802734375 
 31 
 0 
 0 
LINE
 10 
 367.039208984375 
 20 
 531.372802734375 
 30 
 0 
 11 
 364.7583984375 
 21 
 527.53359375 
 31 
 0 
 0 
LINE
 10 
 364.7583984375 
 20 
 527.53359375 
 30 
 0 
 11 
 363.5 
 21 
 522 
 31 
 0 
 0 
LINE
 10 
 363.5 
 20 
 522 
 30 
 0 
 11 
 363.002368164063 
 21 
 519.20400390625 
 31 
 0 
 0 
LINE
 10 
 363.002368164063 
 20 
 519.20400390625 
 30 
 0 
 11 
 362.135205078125 
 21 
 515.71201171875 
 31 
 0 
 0 
LINE
 10 
 362.135205078125 
 20 
 515.71201171875 
 30 
 0 
 11 
 360.93681640625 
 21 
 511.668017578125 
 31 
 0 
 0 
LINE
 10 
 360.93681640625 
 20 
 511.668017578125 
 30 
 0 
 11 
 359.44560546875 
 21 
 507.216015625 
 31 
 0 
 0 
LINE
 10 
 359.44560546875 
 20 
 507.216015625 
 30 
 0 
 11 
 357.7 
 21 
 502.5 
 31 
 0 
 0 
LINE
 10 
 357.7 
 20 
 502.5 
 30 
 0 
 11 
 355.523193359375 
 21 
 497.082373046875 
 31 
 0 
 0 
LINE
 10 
 355.523193359375 
 20 
 497.082373046875 
 30 
 0 
 11 
 353.677612304688 
 21 
 492.9751953125 
 31 
 0 
 0 
LINE
 10 
 353.677612304688 
 20 
 492.9751953125 
 30 
 0 
 11 
 351.990405273438 
 21 
 489.856787109375 
 31 
 0 
 0 
LINE
 10 
 351.990405273438 
 20 
 489.856787109375 
 30 
 0 
 11 
 350.288793945313 
 21 
 487.405615234375 
 31 
 0 
 0 
LINE
 10 
 350.288793945313 
 20 
 487.405615234375 
 30 
 0 
 11 
 348.4 
 21 
 485.3 
 31 
 0 
 0 
LINE
 10 
 348.4 
 20 
 485.3 
 30 
 0 
 11 
 346.187182617188 
 21 
 483.09443359375 
 31 
 0 
 0 
LINE
 10 
 346.187182617188 
 20 
 483.09443359375 
 30 
 0 
 11 
 344.6416015625 
 21 
 481.71923828125 
 31 
 0 
 0 
LINE
 10 
 344.6416015625 
 20 
 481.71923828125 
 30 
 0 
 11 
 343.66240234375 
 21 
 481.116796875 
 31 
 0 
 0 
LINE
 10 
 343.66240234375 
 20 
 481.116796875 
 30 
 0 
 11 
 343.148803710938 
 21 
 481.229638671875 
 31 
 0 
 0 
LINE
 10 
 343.148803710938 
 20 
 481.229638671875 
 30 
 0 
 11 
 343 
 21 
 482 
 31 
 0 
 0 
LINE
 10 
 343 
 20 
 482 
 30 
 0 
 11 
 342.88720703125 
 21 
 482.4927734375 
 31 
 0 
 0 
LINE
 10 
 342.88720703125 
 20 
 482.4927734375 
 30 
 0 
 11 
 342.577587890625 
 21 
 483.2064453125 
 31 
 0 
 0 
LINE
 10 
 342.577587890625 
 20 
 483.2064453125 
 30 
 0 
 11 
 342.114379882813 
 21 
 484.0736328125 
 31 
 0 
 0 
LINE
 10 
 342.114379882813 
 20 
 484.0736328125 
 30 
 0 
 11 
 341.5408203125 
 21 
 485.027197265625 
 31 
 0 
 0 
LINE
 10 
 341.5408203125 
 20 
 485.027197265625 
 30 
 0 
 11 
 340.9 
 21 
 486 
 31 
 0 
 0 
LINE
 10 
 340.9 
 20 
 486 
 30 
 0 
 11 
 339.916796875 
 21 
 487.53515625 
 31 
 0 
 0 
LINE
 10 
 339.916796875 
 20 
 487.53515625 
 30 
 0 
 11 
 339.322412109375 
 21 
 489.37763671875 
 31 
 0 
 0 
LINE
 10 
 339.322412109375 
 20 
 489.37763671875 
 30 
 0 
 11 
 339.049609375 
 21 
 492.242431640625 
 31 
 0 
 0 
LINE
 10 
 339.049609375 
 20 
 492.242431640625 
 30 
 0 
 11 
 339.031201171875 
 21 
 496.84482421875 
 31 
 0 
 0 
LINE
 10 
 339.031201171875 
 20 
 496.84482421875 
 30 
 0 
 11 
 339.2 
 21 
 503.9 
 31 
 0 
 0 
LINE
 10 
 339.2 
 20 
 503.9 
 30 
 0 
 11 
 339.431982421875 
 21 
 510.79755859375 
 31 
 0 
 0 
LINE
 10 
 339.431982421875 
 20 
 510.79755859375 
 30 
 0 
 11 
 339.71201171875 
 21 
 515.352783203125 
 31 
 0 
 0 
LINE
 10 
 339.71201171875 
 20 
 515.352783203125 
 30 
 0 
 11 
 340.136010742188 
 21 
 518.19921875 
 31 
 0 
 0 
LINE
 10 
 340.136010742188 
 20 
 518.19921875 
 30 
 0 
 11 
 340.8 
 21 
 519.97041015625 
 31 
 0 
 0 
LINE
 10 
 340.8 
 20 
 519.97041015625 
 30 
 0 
 11 
 341.8 
 21 
 521.3 
 31 
 0 
 0 
LINE
 10 
 341.8 
 20 
 521.3 
 30 
 0 
 11 
 342.924780273438 
 21 
 522.835986328125 
 31 
 0 
 0 
LINE
 10 
 342.924780273438 
 20 
 522.835986328125 
 30 
 0 
 11 
 343.64638671875 
 21 
 524.58798828125 
 31 
 0 
 0 
LINE
 10 
 343.64638671875 
 20 
 524.58798828125 
 30 
 0 
 11 
 343.94560546875 
 21 
 526.41201171875 
 31 
 0 
 0 
LINE
 10 
 343.94560546875 
 20 
 526.41201171875 
 30 
 0 
 11 
 343.80322265625 
 21 
 528.164013671875 
 31 
 0 
 0 
LINE
 10 
 343.80322265625 
 20 
 528.164013671875 
 30 
 0 
 11 
 343.2 
 21 
 529.7 
 31 
 0 
 0 
LINE
 10 
 343.2 
 20 
 529.7 
 30 
 0 
 11 
 341.936791992188 
 21 
 530.88798828125 
 31 
 0 
 0 
LINE
 10 
 341.936791992188 
 20 
 530.88798828125 
 30 
 0 
 11 
 339.814404296875 
 21 
 531.81201171875 
 31 
 0 
 0 
LINE
 10 
 339.814404296875 
 20 
 531.81201171875 
 30 
 0 
 11 
 336.813598632813 
 21 
 532.472021484375 
 31 
 0 
 0 
LINE
 10 
 336.813598632813 
 20 
 532.472021484375 
 30 
 0 
 11 
 332.915209960938 
 21 
 532.868017578125 
 31 
 0 
 0 
LINE
 10 
 332.915209960938 
 20 
 532.868017578125 
 30 
 0 
 11 
 328.1 
 21 
 533 
 31 
 0 
 0 
LINE
 10 
 328.1 
 20 
 533 
 30 
 0 
 11 
 324.273583984375 
 21 
 532.95439453125 
 31 
 0 
 0 
LINE
 10 
 324.273583984375 
 20 
 532.95439453125 
 30 
 0 
 11 
 321.488818359375 
 21 
 532.77919921875 
 31 
 0 
 0 
LINE
 10 
 321.488818359375 
 20 
 532.77919921875 
 30 
 0 
 11 
 319.4671875 
 21 
 532.416796875 
 31 
 0 
 0 
LINE
 10 
 319.4671875 
 20 
 532.416796875 
 30 
 0 
 11 
 317.930419921875 
 21 
 531.809619140625 
 31 
 0 
 0 
LINE
 10 
 317.930419921875 
 20 
 531.809619140625 
 30 
 0 
 11 
 316.6 
 21 
 530.9 
 31 
 0 
 0 
LINE
 10 
 316.6 
 20 
 530.9 
 30 
 0 
 11 
 315.08720703125 
 21 
 529.416796875 
 31 
 0 
 0 
LINE
 10 
 315.08720703125 
 20 
 529.416796875 
 30 
 0 
 11 
 314.265600585938 
 21 
 527.86640625 
 31 
 0 
 0 
LINE
 10 
 314.265600585938 
 20 
 527.86640625 
 30 
 0 
 11 
 314.130395507813 
 21 
 526.277587890625 
 31 
 0 
 0 
LINE
 10 
 314.130395507813 
 20 
 526.277587890625 
 30 
 0 
 11 
 314.676806640625 
 21 
 524.67919921875 
 31 
 0 
 0 
LINE
 10 
 314.676806640625 
 20 
 524.67919921875 
 30 
 0 
 11 
 315.9 
 21 
 523.1 
 31 
 0 
 0 
LINE
 10 
 315.9 
 20 
 523.1 
 30 
 0 
 11 
 316.8591796875 
 21 
 521.843994140625 
 31 
 0 
 0 
LINE
 10 
 316.8591796875 
 20 
 521.843994140625 
 30 
 0 
 11 
 317.573608398438 
 21 
 520.25205078125 
 31 
 0 
 0 
LINE
 10 
 317.573608398438 
 20 
 520.25205078125 
 30 
 0 
 11 
 318.038403320313 
 21 
 518.347998046875 
 31 
 0 
 0 
LINE
 10 
 318.038403320313 
 20 
 518.347998046875 
 30 
 0 
 11 
 318.248803710938 
 21 
 516.156005859375 
 31 
 0 
 0 
LINE
 10 
 318.248803710938 
 20 
 516.156005859375 
 30 
 0 
 11 
 318.2 
 21 
 513.7 
 31 
 0 
 0 
LINE
 10 
 318.2 
 20 
 513.7 
 30 
 0 
 11 
 317.98798828125 
 21 
 512.93916015625 
 31 
 0 
 0 
LINE
 10 
 317.98798828125 
 20 
 512.93916015625 
 30 
 0 
 11 
 317.51201171875 
 21 
 512.43759765625 
 31 
 0 
 0 
LINE
 10 
 317.51201171875 
 20 
 512.43759765625 
 30 
 0 
 11 
 316.652001953125 
 21 
 512.16640625 
 31 
 0 
 0 
LINE
 10 
 316.652001953125 
 20 
 512.16640625 
 30 
 0 
 11 
 315.288012695313 
 21 
 512.096826171875 
 31 
 0 
 0 
LINE
 10 
 315.288012695313 
 20 
 512.096826171875 
 30 
 0 
 11 
 313.3 
 21 
 512.2 
 31 
 0 
 0 
LINE
 10 
 313.3 
 20 
 512.2 
 30 
 0 
 11 
 310.993579101563 
 21 
 512.383984375 
 31 
 0 
 0 
LINE
 10 
 310.993579101563 
 20 
 512.383984375 
 30 
 0 
 11 
 309.560815429688 
 21 
 512.688037109375 
 31 
 0 
 0 
LINE
 10 
 309.560815429688 
 20 
 512.688037109375 
 30 
 0 
 11 
 308.771215820313 
 21 
 513.280029296875 
 31 
 0 
 0 
LINE
 10 
 308.771215820313 
 20 
 513.280029296875 
 30 
 0 
 11 
 308.394409179688 
 21 
 514.327978515625 
 31 
 0 
 0 
LINE
 10 
 308.394409179688 
 20 
 514.327978515625 
 30 
 0 
 11 
 308.2 
 21 
 516 
 31 
 0 
 0 
LINE
 10 
 308.2 
 20 
 516 
 30 
 0 
 11 
 308.170385742188 
 21 
 517.516748046875 
 31 
 0 
 0 
LINE
 10 
 308.170385742188 
 20 
 517.516748046875 
 30 
 0 
 11 
 308.347192382813 
 21 
 518.7744140625 
 31 
 0 
 0 
LINE
 10 
 308.347192382813 
 20 
 518.7744140625 
 30 
 0 
 11 
 308.768823242188 
 21 
 519.8736328125 
 31 
 0 
 0 
LINE
 10 
 308.768823242188 
 20 
 519.8736328125 
 30 
 0 
 11 
 309.473608398438 
 21 
 520.915185546875 
 31 
 0 
 0 
LINE
 10 
 309.473608398438 
 20 
 520.915185546875 
 30 
 0 
 11 
 310.5 
 21 
 522 
 31 
 0 
 0 
LINE
 10 
 310.5 
 20 
 522 
 30 
 0 
 11 
 312.047998046875 
 21 
 523.937646484375 
 31 
 0 
 0 
LINE
 10 
 312.047998046875 
 20 
 523.937646484375 
 30 
 0 
 11 
 312.852026367188 
 21 
 526.02880859375 
 31 
 0 
 0 
LINE
 10 
 312.852026367188 
 20 
 526.02880859375 
 30 
 0 
 11 
 312.91201171875 
 21 
 528.0912109375 
 31 
 0 
 0 
LINE
 10 
 312.91201171875 
 20 
 528.0912109375 
 30 
 0 
 11 
 312.228002929688 
 21 
 529.942431640625 
 31 
 0 
 0 
LINE
 10 
 312.228002929688 
 20 
 529.942431640625 
 30 
 0 
 11 
 310.8 
 21 
 531.4 
 31 
 0 
 0 
LINE
 10 
 310.8 
 20 
 531.4 
 30 
 0 
 11 
 308.25439453125 
 21 
 532.434375 
 31 
 0 
 0 
LINE
 10 
 308.25439453125 
 20 
 532.434375 
 30 
 0 
 11 
 304.619213867188 
 21 
 533.219189453125 
 31 
 0 
 0 
LINE
 10 
 304.619213867188 
 20 
 533.219189453125 
 30 
 0 
 11 
 300.316796875 
 21 
 533.696826171875 
 31 
 0 
 0 
LINE
 10 
 300.316796875 
 20 
 533.696826171875 
 30 
 0 
 11 
 295.769604492188 
 21 
 533.809619140625 
 31 
 0 
 0 
LINE
 10 
 295.769604492188 
 20 
 533.809619140625 
 30 
 0 
 11 
 291.4 
 21 
 533.5 
 31 
 0 
 0 
LINE
 10 
 291.4 
 20 
 533.5 
 30 
 0 
 11 
 286.756787109375 
 21 
 532.452001953125 
 31 
 0 
 0 
LINE
 10 
 286.756787109375 
 20 
 532.452001953125 
 30 
 0 
 11 
 283.67841796875 
 21 
 530.7080078125 
 31 
 0 
 0 
LINE
 10 
 283.67841796875 
 20 
 530.7080078125 
 30 
 0 
 11 
 282.2416015625 
 21 
 528.38798828125 
 31 
 0 
 0 
LINE
 10 
 282.2416015625 
 20 
 528.38798828125 
 30 
 0 
 11 
 282.523193359375 
 21 
 525.61201171875 
 31 
 0 
 0 
LINE
 10 
 282.523193359375 
 20 
 525.61201171875 
 30 
 0 
 11 
 284.6 
 21 
 522.5 
 31 
 0 
 0 
LINE
 10 
 284.6 
 20 
 522.5 
 30 
 0 
 11 
 285.817602539063 
 21 
 521.048828125 
 31 
 0 
 0 
LINE
 10 
 285.817602539063 
 20 
 521.048828125 
 30 
 0 
 11 
 286.540795898438 
 21 
 519.36240234375 
 31 
 0 
 0 
LINE
 10 
 286.540795898438 
 20 
 519.36240234375 
 30 
 0 
 11 
 286.8751953125 
 21 
 516.581591796875 
 31 
 0 
 0 
LINE
 10 
 286.8751953125 
 20 
 516.581591796875 
 30 
 0 
 11 
 286.926416015625 
 21 
 511.847216796875 
 31 
 0 
 0 
LINE
 10 
 286.926416015625 
 20 
 511.847216796875 
 30 
 0 
 11 
 286.8 
 21 
 504.3 
 31 
 0 
 0 
LINE
 10 
 286.8 
 20 
 504.3 
 30 
 0 
 11 
 286.626391601563 
 21 
 497.107177734375 
 31 
 0 
 0 
LINE
 10 
 286.626391601563 
 20 
 497.107177734375 
 30 
 0 
 11 
 286.395190429688 
 21 
 492.47763671875 
 31 
 0 
 0 
LINE
 10 
 286.395190429688 
 20 
 492.47763671875 
 30 
 0 
 11 
 286.000805664063 
 21 
 489.734423828125 
 31 
 0 
 0 
LINE
 10 
 286.000805664063 
 20 
 489.734423828125 
 30 
 0 
 11 
 285.33759765625 
 21 
 488.200830078125 
 31 
 0 
 0 
LINE
 10 
 285.33759765625 
 20 
 488.200830078125 
 30 
 0 
 11 
 284.3 
 21 
 487.2 
 31 
 0 
 0 
LINE
 10 
 284.3 
 20 
 487.2 
 30 
 0 
 11 
 283.598388671875 
 21 
 486.5751953125 
 31 
 0 
 0 
LINE
 10 
 283.598388671875 
 20 
 486.5751953125 
 30 
 0 
 11 
 282.959204101563 
 21 
 485.8255859375 
 31 
 0 
 0 
LINE
 10 
 282.959204101563 
 20 
 485.8255859375 
 30 
 0 
 11 
 282.42080078125 
 21 
 485.018408203125 
 31 
 0 
 0 
LINE
 10 
 282.42080078125 
 20 
 485.018408203125 
 30 
 0 
 11 
 282.021606445313 
 21 
 484.22080078125 
 31 
 0 
 0 
LINE
 10 
 282.021606445313 
 20 
 484.22080078125 
 30 
 0 
 11 
 281.8 
 21 
 483.5 
 31 
 0 
 0 
LINE
 10 
 281.8 
 20 
 483.5 
 30 
 0 
 11 
 281.567993164063 
 21 
 482.740771484375 
 31 
 0 
 0 
LINE
 10 
 281.567993164063 
 20 
 482.740771484375 
 30 
 0 
 11 
 281.09599609375 
 21 
 482.13037109375 
 31 
 0 
 0 
LINE
 10 
 281.09599609375 
 20 
 482.13037109375 
 30 
 0 
 11 
 280.359985351563 
 21 
 481.649609375 
 31 
 0 
 0 
LINE
 10 
 280.359985351563 
 20 
 481.649609375 
 30 
 0 
 11 
 279.336010742188 
 21 
 481.27919921875 
 31 
 0 
 0 
LINE
 10 
 279.336010742188 
 20 
 481.27919921875 
 30 
 0 
 11 
 278 
 21 
 481 
 31 
 0 
 0 
LINE
 10 
 278 
 20 
 481 
 30 
 0 
 11 
 275.890405273438 
 21 
 480.434326171875 
 31 
 0 
 0 
LINE
 10 
 275.890405273438 
 20 
 480.434326171875 
 30 
 0 
 11 
 274.611206054688 
 21 
 479.49921875 
 31 
 0 
 0 
LINE
 10 
 274.611206054688 
 20 
 479.49921875 
 30 
 0 
 11 
 274.176806640625 
 21 
 478.256787109375 
 31 
 0 
 0 
LINE
 10 
 274.176806640625 
 20 
 478.256787109375 
 30 
 0 
 11 
 274.601611328125 
 21 
 476.76962890625 
 31 
 0 
 0 
LINE
 10 
 274.601611328125 
 20 
 476.76962890625 
 30 
 0 
 11 
 275.9 
 21 
 475.1 
 31 
 0 
 0 
LINE
 10 
 275.9 
 20 
 475.1 
 30 
 0 
 11 
 277.147998046875 
 21 
 474.11357421875 
 31 
 0 
 0 
LINE
 10 
 277.147998046875 
 20 
 474.11357421875 
 30 
 0 
 11 
 279.067993164063 
 21 
 473.496826171875 
 31 
 0 
 0 
LINE
 10 
 279.067993164063 
 20 
 473.496826171875 
 30 
 0 
 11 
 282.523999023438 
 21 
 473.16318359375 
 31 
 0 
 0 
LINE
 10 
 282.523999023438 
 20 
 473.16318359375 
 30 
 0 
 11 
 288.380004882813 
 21 
 473.026416015625 
 31 
 0 
 0 
LINE
 10 
 288.380004882813 
 20 
 473.026416015625 
 30 
 0 
 11 
 297.5 
 21 
 473 
 31 
 0 
 0 
LINE
 10 
 297.5 
 20 
 473 
 30 
 0 
 11 
 317 
 21 
 473 
 31 
 0 
 0 
LINE
 10 
 317 
 20 
 473 
 30 
 0 
 11 
 317 
 21 
 470.7 
 31 
 0 
 0 
LINE
 10 
 317 
 20 
 470.7 
 30 
 0 
 11 
 316.863989257813 
 21 
 469.649609375 
 31 
 0 
 0 
LINE
 10 
 316.863989257813 
 20 
 469.649609375 
 30 
 0 
 11 
 316.344018554688 
 21 
 468.8248046875 
 31 
 0 
 0 
LINE
 10 
 316.344018554688 
 20 
 468.8248046875 
 30 
 0 
 11 
 315.272021484375 
 21 
 468.115185546875 
 31 
 0 
 0 
LINE
 10 
 315.272021484375 
 20 
 468.115185546875 
 30 
 0 
 11 
 313.480004882813 
 21 
 467.410400390625 
 31 
 0 
 0 
LINE
 10 
 313.480004882813 
 20 
 467.410400390625 
 30 
 0 
 11 
 310.8 
 21 
 466.6 
 31 
 0 
 0 
LINE
 10 
 310.8 
 20 
 466.6 
 30 
 0 
 11 
 308.289599609375 
 21 
 465.77763671875 
 31 
 0 
 0 
LINE
 10 
 308.289599609375 
 20 
 465.77763671875 
 30 
 0 
 11 
 305.140795898438 
 21 
 464.580810546875 
 31 
 0 
 0 
LINE
 10 
 305.140795898438 
 20 
 464.580810546875 
 30 
 0 
 11 
 301.627221679688 
 21 
 463.115185546875 
 31 
 0 
 0 
LINE
 10 
 301.627221679688 
 20 
 463.115185546875 
 30 
 0 
 11 
 298.022412109375 
 21 
 461.48642578125 
 31 
 0 
 0 
LINE
 10 
 298.022412109375 
 20 
 461.48642578125 
 30 
 0 
 11 
 294.6 
 21 
 459.8 
 31 
 0 
 0 
LINE
 10 
 294.6 
 20 
 459.8 
 30 
 0 
 11 
 287.476000976563 
 21 
 456.524755859375 
 31 
 0 
 0 
LINE
 10 
 287.476000976563 
 20 
 456.524755859375 
 30 
 0 
 11 
 281.7919921875 
 21 
 455.030419921875 
 31 
 0 
 0 
LINE
 10 
 281.7919921875 
 20 
 455.030419921875 
 30 
 0 
 11 
 276.419995117188 
 21 
 455.393603515625 
 31 
 0 
 0 
LINE
 10 
 276.419995117188 
 20 
 455.393603515625 
 30 
 0 
 11 
 270.232006835938 
 21 
 457.6912109375 
 31 
 0 
 0 
LINE
 10 
 270.232006835938 
 20 
 457.6912109375 
 30 
 0 
 11 
 262.1 
 21 
 462 
 31 
 0 
 0 
LINE
 10 
 262.1 
 20 
 462 
 30 
 0 
 11 
 256.947192382813 
 21 
 464.828759765625 
 31 
 0 
 0 
LINE
 10 
 256.947192382813 
 20 
 464.828759765625 
 30 
 0 
 11 
 253.133618164063 
 21 
 466.72646484375 
 31 
 0 
 0 
LINE
 10 
 253.133618164063 
 20 
 466.72646484375 
 30 
 0 
 11 
 250.126391601563 
 21 
 467.889599609375 
 31 
 0 
 0 
LINE
 10 
 250.126391601563 
 20 
 467.889599609375 
 30 
 0 
 11 
 247.392797851563 
 21 
 468.515234375 
 31 
 0 
 0 
LINE
 10 
 247.392797851563 
 20 
 468.515234375 
 30 
 0 
 11 
 244.4 
 21 
 468.8 
 31 
 0 
 0 
LINE
 10 
 244.4 
 20 
 468.8 
 30 
 0 
 11 
 241.615185546875 
 21 
 468.935986328125 
 31 
 0 
 0 
LINE
 10 
 241.615185546875 
 20 
 468.935986328125 
 30 
 0 
 11 
 239.305615234375 
 21 
 468.83203125 
 31 
 0 
 0 
LINE
 10 
 239.305615234375 
 20 
 468.83203125 
 30 
 0 
 11 
 237.178393554688 
 21 
 468.439990234375 
 31 
 0 
 0 
LINE
 10 
 237.178393554688 
 20 
 468.439990234375 
 30 
 0 
 11 
 234.940795898438 
 21 
 467.71201171875 
 31 
 0 
 0 
LINE
 10 
 234.940795898438 
 20 
 467.71201171875 
 30 
 0 
 11 
 232.3 
 21 
 466.6 
 31 
 0 
 0 
LINE
 10 
 232.3 
 20 
 466.6 
 30 
 0 
 11 
 226.556811523438 
 21 
 463.2671875 
 31 
 0 
 0 
LINE
 10 
 226.556811523438 
 20 
 463.2671875 
 30 
 0 
 11 
 221.538403320313 
 21 
 459.0416015625 
 31 
 0 
 0 
LINE
 10 
 221.538403320313 
 20 
 459.0416015625 
 30 
 0 
 11 
 217.561596679688 
 21 
 454.302392578125 
 31 
 0 
 0 
LINE
 10 
 217.561596679688 
 20 
 454.302392578125 
 30 
 0 
 11 
 214.943188476563 
 21 
 449.42880859375 
 31 
 0 
 0 
LINE
 10 
 214.943188476563 
 20 
 449.42880859375 
 30 
 0 
 11 
 214 
 21 
 444.8 
 31 
 0 
 0 
LINE
 10 
 214 
 20 
 444.8 
 30 
 0 
 11 
 213.947973632813 
 21 
 443.291162109375 
 31 
 0 
 0 
LINE
 10 
 213.947973632813 
 20 
 443.291162109375 
 30 
 0 
 11 
 213.776000976563 
 21 
 442.209619140625 
 31 
 0 
 0 
LINE
 10 
 213.776000976563 
 20 
 442.209619140625 
 30 
 0 
 11 
 213.460009765625 
 21 
 441.502392578125 
 31 
 0 
 0 
LINE
 10 
 213.460009765625 
 20 
 441.502392578125 
 30 
 0 
 11 
 212.976000976563 
 21 
 441.116796875 
 31 
 0 
 0 
LINE
 10 
 212.976000976563 
 20 
 441.116796875 
 30 
 0 
 11 
 212.3 
 21 
 441 
 31 
 0 
 0 
LINE
 10 
 212.3 
 20 
 441 
 30 
 0 
 11 
 211.567993164063 
 21 
 440.972802734375 
 31 
 0 
 0 
LINE
 10 
 211.567993164063 
 20 
 440.972802734375 
 30 
 0 
 11 
 211.171997070313 
 21 
 440.87841796875 
 31 
 0 
 0 
LINE
 10 
 211.171997070313 
 20 
 440.87841796875 
 30 
 0 
 11 
 211.111987304688 
 21 
 440.697607421875 
 31 
 0 
 0 
LINE
 10 
 211.111987304688 
 20 
 440.697607421875 
 30 
 0 
 11 
 211.38798828125 
 21 
 440.41123046875 
 31 
 0 
 0 
LINE
 10 
 211.38798828125 
 20 
 440.41123046875 
 30 
 0 
 11 
 212 
 21 
 440 
 31 
 0 
 0 
LINE
 10 
 212 
 20 
 440 
 30 
 0 
 11 
 212.656787109375 
 21 
 439.70400390625 
 31 
 0 
 0 
LINE
 10 
 212.656787109375 
 20 
 439.70400390625 
 30 
 0 
 11 
 213.606396484375 
 21 
 439.43203125 
 31 
 0 
 0 
LINE
 10 
 213.606396484375 
 20 
 439.43203125 
 30 
 0 
 11 
 214.7576171875 
 21 
 439.2080078125 
 31 
 0 
 0 
LINE
 10 
 214.7576171875 
 20 
 439.2080078125 
 30 
 0 
 11 
 216.019213867188 
 21 
 439.056005859375 
 31 
 0 
 0 
LINE
 10 
 216.019213867188 
 20 
 439.056005859375 
 30 
 0 
 11 
 217.3 
 21 
 439 
 31 
 0 
 0 
LINE
 10 
 217.3 
 20 
 439 
 30 
 0 
 11 
 218.902392578125 
 21 
 439.0583984375 
 31 
 0 
 0 
LINE
 10 
 218.902392578125 
 20 
 439.0583984375 
 30 
 0 
 11 
 220.063208007813 
 21 
 439.2751953125 
 31 
 0 
 0 
LINE
 10 
 220.063208007813 
 20 
 439.2751953125 
 30 
 0 
 11 
 220.892797851563 
 21 
 439.71279296875 
 31 
 0 
 0 
LINE
 10 
 220.892797851563 
 20 
 439.71279296875 
 30 
 0 
 11 
 221.501611328125 
 21 
 440.43359375 
 31 
 0 
 0 
LINE
 10 
 221.501611328125 
 20 
 440.43359375 
 30 
 0 
 11 
 222 
 21 
 441.5 
 31 
 0 
 0 
LINE
 10 
 222 
 20 
 441.5 
 30 
 0 
 11 
 222.419213867188 
 21 
 442.41279296875 
 31 
 0 
 0 
LINE
 10 
 222.419213867188 
 20 
 442.41279296875 
 30 
 0 
 11 
 222.953588867188 
 21 
 443.114404296875 
 31 
 0 
 0 
LINE
 10 
 222.953588867188 
 20 
 443.114404296875 
 30 
 0 
 11 
 223.598413085938 
 21 
 443.609619140625 
 31 
 0 
 0 
LINE
 10 
 223.598413085938 
 20 
 443.609619140625 
 30 
 0 
 11 
 224.348803710938 
 21 
 443.90322265625 
 31 
 0 
 0 
LINE
 10 
 224.348803710938 
 20 
 443.90322265625 
 30 
 0 
 11 
 225.2 
 21 
 444 
 31 
 0 
 0 
LINE
 10 
 225.2 
 20 
 444 
 30 
 0 
 11 
 226.803979492188 
 21 
 444.334375 
 31 
 0 
 0 
LINE
 10 
 226.803979492188 
 20 
 444.334375 
 30 
 0 
 11 
 229.2 
 21 
 445.33125 
 31 
 0 
 0 
LINE
 10 
 229.2 
 20 
 445.33125 
 30 
 0 
 11 
 232.363989257813 
 21 
 446.980810546875 
 31 
 0 
 0 
LINE
 10 
 232.363989257813 
 20 
 446.980810546875 
 30 
 0 
 11 
 236.271997070313 
 21 
 449.273583984375 
 31 
 0 
 0 
LINE
 10 
 236.271997070313 
 20 
 449.273583984375 
 30 
 0 
 11 
 240.9 
 21 
 452.2 
 31 
 0 
 0 
LINE
 10 
 240.9 
 20 
 452.2 
 30 
 0 
 11 
 243.413598632813 
 21 
 453.228759765625 
 31 
 0 
 0 
LINE
 10 
 243.413598632813 
 20 
 453.228759765625 
 30 
 0 
 11 
 246.6087890625 
 21 
 453.782421875 
 31 
 0 
 0 
LINE
 10 
 246.6087890625 
 20 
 453.782421875 
 30 
 0 
 11 
 250.08720703125 
 21 
 453.8416015625 
 31 
 0 
 0 
LINE
 10 
 250.08720703125 
 20 
 453.8416015625 
 30 
 0 
 11 
 253.450390625 
 21 
 453.38720703125 
 31 
 0 
 0 
LINE
 10 
 253.450390625 
 20 
 453.38720703125 
 30 
 0 
 11 
 256.3 
 21 
 452.4 
 31 
 0 
 0 
LINE
 10 
 256.3 
 20 
 452.4 
 30 
 0 
 11 
 257.65439453125 
 21 
 451.63837890625 
 31 
 0 
 0 
LINE
 10 
 257.65439453125 
 20 
 451.63837890625 
 30 
 0 
 11 
 259.455200195313 
 21 
 450.5072265625 
 31 
 0 
 0 
LINE
 10 
 259.455200195313 
 20 
 450.5072265625 
 30 
 0 
 11 
 261.548803710938 
 21 
 449.116796875 
 31 
 0 
 0 
LINE
 10 
 261.548803710938 
 20 
 449.116796875 
 30 
 0 
 11 
 263.781616210938 
 21 
 447.577587890625 
 31 
 0 
 0 
LINE
 10 
 263.781616210938 
 20 
 447.577587890625 
 30 
 0 
 11 
 266 
 21 
 446 
 31 
 0 
 0 
LINE
 10 
 266 
 20 
 446 
 30 
 0 
 11 
 270.563208007813 
 21 
 442.80556640625 
 31 
 0 
 0 
LINE
 10 
 270.563208007813 
 20 
 442.80556640625 
 30 
 0 
 11 
 274.617602539063 
 21 
 440.316845703125 
 31 
 0 
 0 
LINE
 10 
 274.617602539063 
 20 
 440.316845703125 
 30 
 0 
 11 
 278.47041015625 
 21 
 438.3751953125 
 31 
 0 
 0 
LINE
 10 
 278.47041015625 
 20 
 438.3751953125 
 30 
 0 
 11 
 282.42880859375 
 21 
 436.822412109375 
 31 
 0 
 0 
LINE
 10 
 282.42880859375 
 20 
 436.822412109375 
 30 
 0 
 11 
 286.8 
 21 
 435.5 
 31 
 0 
 0 
LINE
 10 
 286.8 
 20 
 435.5 
 30 
 0 
 11 
 290.444775390625 
 21 
 434.686376953125 
 31 
 0 
 0 
LINE
 10 
 290.444775390625 
 20 
 434.686376953125 
 30 
 0 
 11 
 293.47041015625 
 21 
 434.511181640625 
 31 
 0 
 0 
LINE
 10 
 293.47041015625 
 20 
 434.511181640625 
 30 
 0 
 11 
 296.793603515625 
 21 
 435.1328125 
 31 
 0 
 0 
LINE
 10 
 296.793603515625 
 20 
 435.1328125 
 30 
 0 
 11 
 301.331201171875 
 21 
 436.709619140625 
 31 
 0 
 0 
LINE
 10 
 301.331201171875 
 20 
 436.709619140625 
 30 
 0 
 11 
 308 
 21 
 439.4 
 31 
 0 
 0 
LINE
 10 
 308 
 20 
 439.4 
 30 
 0 
 11 
 313.878369140625 
 21 
 441.65439453125 
 31 
 0 
 0 
LINE
 10 
 313.878369140625 
 20 
 441.65439453125 
 30 
 0 
 11 
 318.78720703125 
 21 
 442.77119140625 
 31 
 0 
 0 
LINE
 10 
 318.78720703125 
 20 
 442.77119140625 
 30 
 0 
 11 
 323.796801757813 
 21 
 442.740771484375 
 31 
 0 
 0 
LINE
 10 
 323.796801757813 
 20 
 442.740771484375 
 30 
 0 
 11 
 329.977612304688 
 21 
 441.55361328125 
 31 
 0 
 0 
LINE
 10 
 329.977612304688 
 20 
 441.55361328125 
 30 
 0 
 11 
 338.4 
 21 
 439.2 
 31 
 0 
 0 
LINE
 10 
 338.4 
 20 
 439.2 
 30 
 0 
 11 
 340.587182617188 
 21 
 438.394384765625 
 31 
 0 
 0 
LINE
 10 
 340.587182617188 
 20 
 438.394384765625 
 30 
 0 
 11 
 341.521606445313 
 21 
 437.57919921875 
 31 
 0 
 0 
LINE
 10 
 341.521606445313 
 20 
 437.57919921875 
 30 
 0 
 11 
 341.222412109375 
 21 
 436.816796875 
 31 
 0 
 0 
LINE
 10 
 341.222412109375 
 20 
 436.816796875 
 30 
 0 
 11 
 339.708813476563 
 21 
 436.169580078125 
 31 
 0 
 0 
LINE
 10 
 339.708813476563 
 20 
 436.169580078125 
 30 
 0 
 11 
 337 
 21 
 435.7 
 31 
 0 
 0 
LINE
 10 
 337 
 20 
 435.7 
 30 
 0 
 11 
 334.902392578125 
 21 
 435.279150390625 
 31 
 0 
 0 
LINE
 10 
 334.902392578125 
 20 
 435.279150390625 
 30 
 0 
 11 
 332.243188476563 
 21 
 434.5416015625 
 31 
 0 
 0 
LINE
 10 
 332.243188476563 
 20 
 434.5416015625 
 30 
 0 
 11 
 329.252807617188 
 21 
 433.55439453125 
 31 
 0 
 0 
LINE
 10 
 329.252807617188 
 20 
 433.55439453125 
 30 
 0 
 11 
 326.16162109375 
 21 
 432.384814453125 
 31 
 0 
 0 
LINE
 10 
 326.16162109375 
 20 
 432.384814453125 
 30 
 0 
 11 
 323.2 
 21 
 431.1 
 31 
 0 
 0 
LINE
 10 
 323.2 
 20 
 431.1 
 30 
 0 
 11 
 320.315209960938 
 21 
 429.805615234375 
 31 
 0 
 0 
LINE
 10 
 320.315209960938 
 20 
 429.805615234375 
 30 
 0 
 11 
 317.54560546875 
 21 
 428.616796875 
 31 
 0 
 0 
LINE
 10 
 317.54560546875 
 20 
 428.616796875 
 30 
 0 
 11 
 315.078393554688 
 21 
 427.615185546875 
 31 
 0 
 0 
LINE
 10 
 315.078393554688 
 20 
 427.615185546875 
 30 
 0 
 11 
 313.100805664063 
 21 
 426.882421875 
 31 
 0 
 0 
LINE
 10 
 313.100805664063 
 20 
 426.882421875 
 30 
 0 
 11 
 311.8 
 21 
 426.5 
 31 
 0 
 0 
LINE
 10 
 311.8 
 20 
 426.5 
 30 
 0 
 11 
 310.017578125 
 21 
 425.85595703125 
 31 
 0 
 0 
LINE
 10 
 310.017578125 
 20 
 425.85595703125 
 30 
 0 
 11 
 309.516796875 
 21 
 425.188037109375 
 31 
 0 
 0 
LINE
 10 
 309.516796875 
 20 
 425.188037109375 
 30 
 0 
 11 
 310.18720703125 
 21 
 424.5919921875 
 31 
 0 
 0 
LINE
 10 
 310.18720703125 
 20 
 424.5919921875 
 30 
 0 
 11 
 311.918408203125 
 21 
 424.164013671875 
 31 
 0 
 0 
LINE
 10 
 311.918408203125 
 20 
 424.164013671875 
 30 
 0 
 11 
 314.6 
 21 
 424 
 31 
 0 
 0 
LINE
 10 
 314.6 
 20 
 424 
 30 
 0 
 11 
 315.979174804688 
 21 
 423.95517578125 
 31 
 0 
 0 
LINE
 10 
 315.979174804688 
 20 
 423.95517578125 
 30 
 0 
 11 
 317.185595703125 
 21 
 423.83359375 
 31 
 0 
 0 
LINE
 10 
 317.185595703125 
 20 
 423.83359375 
 30 
 0 
 11 
 318.142407226563 
 21 
 423.65439453125 
 31 
 0 
 0 
LINE
 10 
 318.142407226563 
 20 
 423.65439453125 
 30 
 0 
 11 
 318.772802734375 
 21 
 423.43681640625 
 31 
 0 
 0 
LINE
 10 
 318.772802734375 
 20 
 423.43681640625 
 30 
 0 
 11 
 319 
 21 
 423.2 
 31 
 0 
 0 
LINE
 10 
 319 
 20 
 423.2 
 30 
 0 
 11 
 316.818408203125 
 21 
 422.560009765625 
 31 
 0 
 0 
LINE
 10 
 316.818408203125 
 20 
 422.560009765625 
 30 
 0 
 11 
 311.38720703125 
 21 
 421.727978515625 
 31 
 0 
 0 
LINE
 10 
 311.38720703125 
 20 
 421.727978515625 
 30 
 0 
 11 
 304.376806640625 
 21 
 420.89599609375 
 31 
 0 
 0 
LINE
 10 
 304.376806640625 
 20 
 420.89599609375 
 30 
 0 
 11 
 297.4576171875 
 21 
 420.256005859375 
 31 
 0 
 0 
LINE
 10 
 297.4576171875 
 20 
 420.256005859375 
 30 
 0 
 11 
 292.3 
 21 
 420 
 31 
 0 
 0 
LINE
 10 
 292.3 
 20 
 420 
 30 
 0 
 11 
 290.547192382813 
 21 
 419.8416015625 
 31 
 0 
 0 
LINE
 10 
 290.547192382813 
 20 
 419.8416015625 
 30 
 0 
 11 
 289.485595703125 
 21 
 419.356787109375 
 31 
 0 
 0 
LINE
 10 
 289.485595703125 
 20 
 419.356787109375 
 30 
 0 
 11 
 289.110400390625 
 21 
 418.531201171875 
 31 
 0 
 0 
LINE
 10 
 289.110400390625 
 20 
 418.531201171875 
 30 
 0 
 11 
 289.416796875 
 21 
 417.350390625 
 31 
 0 
 0 
LINE
 10 
 289.416796875 
 20 
 417.350390625 
 30 
 0 
 11 
 290.4 
 21 
 415.8 
 31 
 0 
 0 
LINE
 10 
 290.4 
 20 
 415.8 
 30 
 0 
 11 
 292.156787109375 
 21 
 414.248779296875 
 31 
 0 
 0 
LINE
 10 
 292.156787109375 
 20 
 414.248779296875 
 30 
 0 
 11 
 295.04638671875 
 21 
 412.67841796875 
 31 
 0 
 0 
LINE
 10 
 295.04638671875 
 20 
 412.67841796875 
 30 
 0 
 11 
 298.73759765625 
 21 
 411.213623046875 
 31 
 0 
 0 
LINE
 10 
 298.73759765625 
 20 
 411.213623046875 
 30 
 0 
 11 
 302.89921875 
 21 
 409.97919921875 
 31 
 0 
 0 
LINE
 10 
 302.89921875 
 20 
 409.97919921875 
 30 
 0 
 11 
 307.2 
 21 
 409.1 
 31 
 0 
 0 
LINE
 10 
 307.2 
 20 
 409.1 
 30 
 0 
 11 
 311.07041015625 
 21 
 408.064770507813 
 31 
 0 
 0 
LINE
 10 
 311.07041015625 
 20 
 408.064770507813 
 30 
 0 
 11 
 315.267211914063 
 21 
 406.386401367188 
 31 
 0 
 0 
LINE
 10 
 315.267211914063 
 20 
 406.386401367188 
 30 
 0 
 11 
 319.108813476563 
 21 
 404.405590820313 
 31 
 0 
 0 
LINE
 10 
 319.108813476563 
 20 
 404.405590820313 
 30 
 0 
 11 
 321.913598632813 
 21 
 402.463208007813 
 31 
 0 
 0 
LINE
 10 
 321.913598632813 
 20 
 402.463208007813 
 30 
 0 
 11 
 323 
 21 
 400.9 
 31 
 0 
 0 
LINE
 10 
 323 
 20 
 400.9 
 30 
 0 
 11 
 322.628784179688 
 21 
 399.86640625 
 31 
 0 
 0 
LINE
 10 
 322.628784179688 
 20 
 399.86640625 
 30 
 0 
 11 
 321.614404296875 
 21 
 399.39921875 
 31 
 0 
 0 
LINE
 10 
 321.614404296875 
 20 
 399.39921875 
 30 
 0 
 11 
 320.105590820313 
 21 
 399.488793945313 
 31 
 0 
 0 
LINE
 10 
 320.105590820313 
 20 
 399.488793945313 
 30 
 0 
 11 
 318.251196289063 
 21 
 400.125610351563 
 31 
 0 
 0 
LINE
 10 
 318.251196289063 
 20 
 400.125610351563 
 30 
 0 
 11 
 316.2 
 21 
 401.3 
 31 
 0 
 0 
LINE
 10 
 316.2 
 20 
 401.3 
 30 
 0 
 11 
 311.594384765625 
 21 
 404.035180664063 
 31 
 0 
 0 
LINE
 10 
 311.594384765625 
 20 
 404.035180664063 
 30 
 0 
 11 
 306.59521484375 
 21 
 406.04560546875 
 31 
 0 
 0 
LINE
 10 
 306.59521484375 
 20 
 406.04560546875 
 30 
 0 
 11 
 300.92880859375 
 21 
 407.398388671875 
 31 
 0 
 0 
LINE
 10 
 300.92880859375 
 20 
 407.398388671875 
 30 
 0 
 11 
 294.321606445313 
 21 
 408.160815429688 
 31 
 0 
 0 
LINE
 10 
 294.321606445313 
 20 
 408.160815429688 
 30 
 0 
 11 
 286.5 
 21 
 408.4 
 31 
 0 
 0 
LINE
 10 
 286.5 
 20 
 408.4 
 30 
 0 
 11 
 281.8759765625 
 21 
 408.403173828125 
 31 
 0 
 0 
LINE
 10 
 281.8759765625 
 20 
 408.403173828125 
 30 
 0 
 11 
 276.796020507813 
 21 
 408.305615234375 
 31 
 0 
 0 
LINE
 10 
 276.796020507813 
 20 
 408.305615234375 
 30 
 0 
 11 
 271.667993164063 
 21 
 408.126391601563 
 31 
 0 
 0 
LINE
 10 
 271.667993164063 
 20 
 408.126391601563 
 30 
 0 
 11 
 266.9 
 21 
 407.884814453125 
 31 
 0 
 0 
LINE
 10 
 266.9 
 20 
 407.884814453125 
 30 
 0 
 11 
 262.9 
 21 
 407.6 
 31 
 0 
 0 
LINE
 10 
 262.9 
 20 
 407.6 
 30 
 0 
 11 
 259.331176757813 
 21 
 407.348779296875 
 31 
 0 
 0 
LINE
 10 
 259.331176757813 
 20 
 407.348779296875 
 30 
 0 
 11 
 255.7576171875 
 21 
 407.198413085938 
 31 
 0 
 0 
LINE
 10 
 255.7576171875 
 20 
 407.198413085938 
 30 
 0 
 11 
 252.438403320313 
 21 
 407.15361328125 
 31 
 0 
 0 
LINE
 10 
 252.438403320313 
 20 
 407.15361328125 
 30 
 0 
 11 
 249.6328125 
 21 
 407.219213867188 
 31 
 0 
 0 
LINE
 10 
 249.6328125 
 20 
 407.219213867188 
 30 
 0 
 11 
 247.6 
 21 
 407.4 
 31 
 0 
 0 
LINE
 10 
 247.6 
 20 
 407.4 
 30 
 0 
 11 
 244.451196289063 
 21 
 408.213598632813 
 31 
 0 
 0 
LINE
 10 
 244.451196289063 
 20 
 408.213598632813 
 30 
 0 
 11 
 241.801611328125 
 21 
 409.516796875 
 31 
 0 
 0 
LINE
 10 
 241.801611328125 
 20 
 409.516796875 
 30 
 0 
 11 
 239.76640625 
 21 
 411.223193359375 
 31 
 0 
 0 
LINE
 10 
 239.76640625 
 20 
 411.223193359375 
 30 
 0 
 11 
 238.460791015625 
 21 
 413.24638671875 
 31 
 0 
 0 
LINE
 10 
 238.460791015625 
 20 
 413.24638671875 
 30 
 0 
 11 
 238 
 21 
 415.5 
 31 
 0 
 0 
LINE
 10 
 238 
 20 
 415.5 
 30 
 0 
 11 
 237.931201171875 
 21 
 416.335986328125 
 31 
 0 
 0 
LINE
 10 
 237.931201171875 
 20 
 416.335986328125 
 30 
 0 
 11 
 237.737622070313 
 21 
 417.027978515625 
 31 
 0 
 0 
LINE
 10 
 237.737622070313 
 20 
 417.027978515625 
 30 
 0 
 11 
 237.438403320313 
 21 
 417.552001953125 
 31 
 0 
 0 
LINE
 10 
 237.438403320313 
 20 
 417.552001953125 
 30 
 0 
 11 
 237.052807617188 
 21 
 417.883984375 
 31 
 0 
 0 
LINE
 10 
 237.052807617188 
 20 
 417.883984375 
 30 
 0 
 11 
 236.6 
 21 
 418 
 31 
 0 
 0 
LINE
 10 
 236.6 
 20 
 418 
 30 
 0 
 11 
 236.16240234375 
 21 
 418.102392578125 
 31 
 0 
 0 
LINE
 10 
 236.16240234375 
 20 
 418.102392578125 
 30 
 0 
 11 
 235.715209960938 
 21 
 418.38720703125 
 31 
 0 
 0 
LINE
 10 
 235.715209960938 
 20 
 418.38720703125 
 30 
 0 
 11 
 235.296801757813 
 21 
 418.82080078125 
 31 
 0 
 0 
LINE
 10 
 235.296801757813 
 20 
 418.82080078125 
 30 
 0 
 11 
 234.94560546875 
 21 
 419.36962890625 
 31 
 0 
 0 
LINE
 10 
 234.94560546875 
 20 
 419.36962890625 
 30 
 0 
 11 
 234.7 
 21 
 420 
 31 
 0 
 0 
LINE
 10 
 234.7 
 20 
 420 
 30 
 0 
 11 
 234.136791992188 
 21 
 421.3744140625 
 31 
 0 
 0 
LINE
 10 
 234.136791992188 
 20 
 421.3744140625 
 30 
 0 
 11 
 233.4583984375 
 21 
 421.923193359375 
 31 
 0 
 0 
LINE
 10 
 233.4583984375 
 20 
 421.923193359375 
 30 
 0 
 11 
 232.7416015625 
 21 
 421.684814453125 
 31 
 0 
 0 
LINE
 10 
 232.7416015625 
 20 
 421.684814453125 
 30 
 0 
 11 
 232.063208007813 
 21 
 420.697607421875 
 31 
 0 
 0 
LINE
 10 
 232.063208007813 
 20 
 420.697607421875 
 30 
 0 
 11 
 231.5 
 21 
 419 
 31 
 0 
 0 
LINE
 10 
 231.5 
 20 
 419 
 30 
 0 
 11 
 231.340795898438 
 21 
 413.418408203125 
 31 
 0 
 0 
LINE
 10 
 231.340795898438 
 20 
 413.418408203125 
 30 
 0 
 11 
 232.86640625 
 21 
 406.77119140625 
 31 
 0 
 0 
LINE
 10 
 232.86640625 
 20 
 406.77119140625 
 30 
 0 
 11 
 235.8416015625 
 21 
 399.6248046875 
 31 
 0 
 0 
LINE
 10 
 235.8416015625 
 20 
 399.6248046875 
 30 
 0 
 11 
 240.031201171875 
 21 
 392.54560546875 
 31 
 0 
 0 
LINE
 10 
 240.031201171875 
 20 
 392.54560546875 
 30 
 0 
 11 
 245.2 
 21 
 386.1 
 31 
 0 
 0 
LINE
 10 
 245.2 
 20 
 386.1 
 30 
 0 
 11 
 251.330419921875 
 21 
 379.938403320313 
 31 
 0 
 0 
LINE
 10 
 251.330419921875 
 20 
 379.938403320313 
 30 
 0 
 11 
 257.331225585938 
 21 
 374.919189453125 
 31 
 0 
 0 
LINE
 10 
 257.331225585938 
 20 
 374.919189453125 
 30 
 0 
 11 
 263.696801757813 
 21 
 370.72080078125 
 31 
 0 
 0 
LINE
 10 
 263.696801757813 
 20 
 370.72080078125 
 30 
 0 
 11 
 270.921606445313 
 21 
 367.021606445313 
 31 
 0 
 0 
LINE
 10 
 270.921606445313 
 20 
 367.021606445313 
 30 
 0 
 11 
 279.5 
 21 
 363.5 
 31 
 0 
 0 
LINE
 10 
 279.5 
 20 
 363.5 
 30 
 0 
 11 
 288.735986328125 
 21 
 360.010375976563 
 31 
 0 
 0 
LINE
 10 
 288.735986328125 
 20 
 360.010375976563 
 30 
 0 
 11 
 294.7080078125 
 21 
 357.591235351563 
 31 
 0 
 0 
LINE
 10 
 294.7080078125 
 20 
 357.591235351563 
 30 
 0 
 11 
 298.11201171875 
 21 
 355.896826171875 
 31 
 0 
 0 
LINE
 10 
 298.11201171875 
 20 
 355.896826171875 
 30 
 0 
 11 
 299.643994140625 
 21 
 354.581616210938 
 31 
 0 
 0 
LINE
 10 
 299.643994140625 
 20 
 354.581616210938 
 30 
 0 
 11 
 300 
 21 
 353.3 
 31 
 0 
 0 
LINE
 10 
 300 
 20 
 353.3 
 30 
 0 
 11 
 299.931201171875 
 21 
 352.561596679688 
 31 
 0 
 0 
LINE
 10 
 299.931201171875 
 20 
 352.561596679688 
 30 
 0 
 11 
 299.73759765625 
 21 
 351.92880859375 
 31 
 0 
 0 
LINE
 10 
 299.73759765625 
 20 
 351.92880859375 
 30 
 0 
 11 
 299.438403320313 
 21 
 351.435205078125 
 31 
 0 
 0 
LINE
 10 
 299.438403320313 
 20 
 351.435205078125 
 30 
 0 
 11 
 299.052807617188 
 21 
 351.114404296875 
 31 
 0 
 0 
LINE
 10 
 299.052807617188 
 20 
 351.114404296875 
 30 
 0 
 11 
 298.6 
 21 
 351 
 31 
 0 
 0 
LINE
 10 
 298.6 
 20 
 351 
 30 
 0 
 11 
 294.7423828125 
 21 
 351.926391601563 
 31 
 0 
 0 
LINE
 10 
 294.7423828125 
 20 
 351.926391601563 
 30 
 0 
 11 
 287.803198242188 
 21 
 354.235205078125 
 31 
 0 
 0 
LINE
 10 
 287.803198242188 
 20 
 354.235205078125 
 30 
 0 
 11 
 279.692797851563 
 21 
 357.22080078125 
 31 
 0 
 0 
LINE
 10 
 279.692797851563 
 20 
 357.22080078125 
 30 
 0 
 11 
 272.321606445313 
 21 
 360.177612304688 
 31 
 0 
 0 
LINE
 10 
 272.321606445313 
 20 
 360.177612304688 
 30 
 0 
 11 
 267.6 
 21 
 362.4 
 31 
 0 
 0 
LINE
 10 
 267.6 
 20 
 362.4 
 30 
 0 
 11 
 265.623999023438 
 21 
 363.700805664063 
 31 
 0 
 0 
LINE
 10 
 265.623999023438 
 20 
 363.700805664063 
 30 
 0 
 11 
 262.976000976563 
 21 
 365.678393554688 
 31 
 0 
 0 
LINE
 10 
 262.976000976563 
 20 
 365.678393554688 
 30 
 0 
 11 
 259.89599609375 
 21 
 368.145581054688 
 31 
 0 
 0 
LINE
 10 
 259.89599609375 
 20 
 368.145581054688 
 30 
 0 
 11 
 256.623999023438 
 21 
 370.915209960938 
 31 
 0 
 0 
LINE
 10 
 256.623999023438 
 20 
 370.915209960938 
 30 
 0 
 11 
 253.4 
 21 
 373.8 
 31 
 0 
 0 
LINE
 10 
 253.4 
 20 
 373.8 
 30 
 0 
 11 
 246.5 
 21 
 379.919189453125 
 31 
 0 
 0 
LINE
 10 
 246.5 
 20 
 379.919189453125 
 30 
 0 
 11 
 240.968017578125 
 21 
 384.497607421875 
 31 
 0 
 0 
LINE
 10 
 240.968017578125 
 20 
 384.497607421875 
 30 
 0 
 11 
 236.515991210938 
 21 
 387.746411132813 
 31 
 0 
 0 
LINE
 10 
 236.515991210938 
 20 
 387.746411132813 
 30 
 0 
 11 
 232.856005859375 
 21 
 389.876806640625 
 31 
 0 
 0 
LINE
 10 
 232.856005859375 
 20 
 389.876806640625 
 30 
 0 
 11 
 229.7 
 21 
 391.1 
 31 
 0 
 0 
LINE
 10 
 229.7 
 20 
 391.1 
 30 
 0 
 11 
 228.083984375 
 21 
 391.535986328125 
 31 
 0 
 0 
LINE
 10 
 228.083984375 
 20 
 391.535986328125 
 30 
 0 
 11 
 226.1080078125 
 21 
 392.0919921875 
 31 
 0 
 0 
LINE
 10 
 226.1080078125 
 20 
 392.0919921875 
 30 
 0 
 11 
 223.939990234375 
 21 
 392.719995117188 
 31 
 0 
 0 
LINE
 10 
 223.939990234375 
 20 
 392.719995117188 
 30 
 0 
 11 
 221.747998046875 
 21 
 393.371997070313 
 31 
 0 
 0 
LINE
 10 
 221.747998046875 
 20 
 393.371997070313 
 30 
 0 
 11 
 219.7 
 21 
 394 
 31 
 0 
 0 
LINE
 10 
 219.7 
 20 
 394 
 30 
 0 
 11 
 214 
 21 
 395.9 
 31 
 0 
 0 
LINE
 10 
 214 
 20 
 395.9 
 30 
 0 
 11 
 214 
 21 
 392.4 
 31 
 0 
 0 
LINE
 10 
 214 
 20 
 392.4 
 30 
 0 
 11 
 214.109594726563 
 21 
 390.851977539063 
 31 
 0 
 0 
LINE
 10 
 214.109594726563 
 20 
 390.851977539063 
 30 
 0 
 11 
 214.492797851563 
 21 
 389.471997070313 
 31 
 0 
 0 
LINE
 10 
 214.492797851563 
 20 
 389.471997070313 
 30 
 0 
 11 
 215.231201171875 
 21 
 388.116015625 
 31 
 0 
 0 
LINE
 10 
 215.231201171875 
 20 
 388.116015625 
 30 
 0 
 11 
 216.406396484375 
 21 
 386.639990234375 
 31 
 0 
 0 
LINE
 10 
 216.406396484375 
 20 
 386.639990234375 
 30 
 0 
 11 
 218.1 
 21 
 384.9 
 31 
 0 
 0 
LINE
 10 
 218.1 
 20 
 384.9 
 30 
 0 
 11 
 219.507177734375 
 21 
 383.654370117188 
 31 
 0 
 0 
LINE
 10 
 219.507177734375 
 20 
 383.654370117188 
 30 
 0 
 11 
 221.005615234375 
 21 
 382.49521484375 
 31 
 0 
 0 
LINE
 10 
 221.005615234375 
 20 
 382.49521484375 
 30 
 0 
 11 
 222.47041015625 
 21 
 381.508813476563 
 31 
 0 
 0 
LINE
 10 
 222.47041015625 
 20 
 381.508813476563 
 30 
 0 
 11 
 223.776806640625 
 21 
 380.781616210938 
 31 
 0 
 0 
LINE
 10 
 223.776806640625 
 20 
 380.781616210938 
 30 
 0 
 11 
 224.8 
 21 
 380.4 
 31 
 0 
 0 
LINE
 10 
 224.8 
 20 
 380.4 
 30 
 0 
 11 
 228.885595703125 
 21 
 378.731982421875 
 31 
 0 
 0 
LINE
 10 
 228.885595703125 
 20 
 378.731982421875 
 30 
 0 
 11 
 233.340795898438 
 21 
 375.264013671875 
 31 
 0 
 0 
LINE
 10 
 233.340795898438 
 20 
 375.264013671875 
 30 
 0 
 11 
 238.703198242188 
 21 
 369.419995117188 
 31 
 0 
 0 
LINE
 10 
 238.703198242188 
 20 
 369.419995117188 
 30 
 0 
 11 
 245.510400390625 
 21 
 360.623999023438 
 31 
 0 
 0 
LINE
 10 
 245.510400390625 
 20 
 360.623999023438 
 30 
 0 
 11 
 254.3 
 21 
 348.3 
 31 
 0 
 0 
LINE
 10 
 254.3 
 20 
 348.3 
 30 
 0 
 11 
 259.358374023438 
 21 
 341.953588867188 
 31 
 0 
 0 
LINE
 10 
 259.358374023438 
 20 
 341.953588867188 
 30 
 0 
 11 
 266.831201171875 
 21 
 333.648779296875 
 31 
 0 
 0 
LINE
 10 
 266.831201171875 
 20 
 333.648779296875 
 30 
 0 
 11 
 275.604809570313 
 21 
 324.547216796875 
 31 
 0 
 0 
LINE
 10 
 275.604809570313 
 20 
 324.547216796875 
 30 
 0 
 11 
 284.565600585938 
 21 
 315.810400390625 
 31 
 0 
 0 
LINE
 10 
 284.565600585938 
 20 
 315.810400390625 
 30 
 0 
 11 
 292.6 
 21 
 308.6 
 31 
 0 
 0 
LINE
 10 
 292.6 
 20 
 308.6 
 30 
 0 
 11 
 295.044799804688 
 21 
 306.565600585938 
 31 
 0 
 0 
LINE
 10 
 295.044799804688 
 20 
 306.565600585938 
 30 
 0 
 11 
 297.902416992188 
 21 
 304.300805664063 
 31 
 0 
 0 
LINE
 10 
 297.902416992188 
 20 
 304.300805664063 
 30 
 0 
 11 
 300.93759765625 
 21 
 301.983203125 
 31 
 0 
 0 
LINE
 10 
 300.93759765625 
 20 
 301.983203125 
 30 
 0 
 11 
 303.915209960938 
 21 
 299.790405273438 
 31 
 0 
 0 
LINE
 10 
 303.915209960938 
 20 
 299.790405273438 
 30 
 0 
 11 
 306.6 
 21 
 297.9 
 31 
 0 
 0 
LINE
 10 
 306.6 
 20 
 297.9 
 30 
 0 
 11 
 308.943994140625 
 21 
 296.297607421875 
 31 
 0 
 0 
LINE
 10 
 308.943994140625 
 20 
 296.297607421875 
 30 
 0 
 11 
 310.976000976563 
 21 
 294.800830078125 
 31 
 0 
 0 
LINE
 10 
 310.976000976563 
 20 
 294.800830078125 
 30 
 0 
 11 
 312.576000976563 
 21 
 293.515185546875 
 31 
 0 
 0 
LINE
 10 
 312.576000976563 
 20 
 293.515185546875 
 30 
 0 
 11 
 313.6240234375 
 21 
 292.546411132813 
 31 
 0 
 0 
LINE
 10 
 313.6240234375 
 20 
 292.546411132813 
 30 
 0 
 11 
 314 
 21 
 292 
 31 
 0 
 0 
LINE
 10 
 314 
 20 
 292 
 30 
 0 
 11 
 313.903173828125 
 21 
 291.35439453125 
 31 
 0 
 0 
LINE
 10 
 313.903173828125 
 20 
 291.35439453125 
 30 
 0 
 11 
 313.417602539063 
 21 
 291.155224609375 
 31 
 0 
 0 
LINE
 10 
 313.417602539063 
 20 
 291.155224609375 
 30 
 0 
 11 
 312.250415039063 
 21 
 291.488793945313 
 31 
 0 
 0 
LINE
 10 
 312.250415039063 
 20 
 291.488793945313 
 30 
 0 
 11 
 310.1087890625 
 21 
 292.4416015625 
 31 
 0 
 0 
LINE
 10 
 310.1087890625 
 20 
 292.4416015625 
 30 
 0 
 11 
 306.7 
 21 
 294.1 
 31 
 0 
 0 
LINE
 10 
 306.7 
 20 
 294.1 
 30 
 0 
 11 
 298.115966796875 
 21 
 298.856787109375 
 31 
 0 
 0 
LINE
 10 
 298.115966796875 
 20 
 298.856787109375 
 30 
 0 
 11 
 290.42001953125 
 21 
 304.026391601563 
 31 
 0 
 0 
LINE
 10 
 290.42001953125 
 20 
 304.026391601563 
 30 
 0 
 11 
 283.155981445313 
 21 
 309.997607421875 
 31 
 0 
 0 
LINE
 10 
 283.155981445313 
 20 
 309.997607421875 
 30 
 0 
 11 
 275.867993164063 
 21 
 317.159204101563 
 31 
 0 
 0 
LINE
 10 
 275.867993164063 
 20 
 317.159204101563 
 30 
 0 
 11 
 268.1 
 21 
 325.9 
 31 
 0 
 0 
LINE
 10 
 268.1 
 20 
 325.9 
 30 
 0 
 11 
 262.666381835938 
 21 
 331.93837890625 
 31 
 0 
 0 
LINE
 10 
 262.666381835938 
 20 
 331.93837890625 
 30 
 0 
 11 
 257.751196289063 
 21 
 336.599194335938 
 31 
 0 
 0 
LINE
 10 
 257.751196289063 
 20 
 336.599194335938 
 30 
 0 
 11 
 253.152807617188 
 21 
 340.040795898438 
 31 
 0 
 0 
LINE
 10 
 253.152807617188 
 20 
 340.040795898438 
 30 
 0 
 11 
 248.669604492188 
 21 
 342.421606445313 
 31 
 0 
 0 
LINE
 10 
 248.669604492188 
 20 
 342.421606445313 
 30 
 0 
 11 
 244.1 
 21 
 343.9 
 31 
 0 
 0 
LINE
 10 
 244.1 
 20 
 343.9 
 30 
 0 
 11 
 240.578393554688 
 21 
 344.345556640625 
 31 
 0 
 0 
LINE
 10 
 240.578393554688 
 20 
 344.345556640625 
 30 
 0 
 11 
 238.103198242188 
 21 
 344.104809570313 
 31 
 0 
 0 
LINE
 10 
 238.103198242188 
 20 
 344.104809570313 
 30 
 0 
 11 
 236.92880859375 
 21 
 343.331225585938 
 31 
 0 
 0 
LINE
 10 
 236.92880859375 
 20 
 343.331225585938 
 30 
 0 
 11 
 237.309594726563 
 21 
 342.178393554688 
 31 
 0 
 0 
LINE
 10 
 237.309594726563 
 20 
 342.178393554688 
 30 
 0 
 11 
 239.5 
 21 
 340.8 
 31 
 0 
 0 
LINE
 10 
 239.5 
 20 
 340.8 
 30 
 0 
 11 
 240.297607421875 
 21 
 340.387182617188 
 31 
 0 
 0 
LINE
 10 
 240.297607421875 
 20 
 340.387182617188 
 30 
 0 
 11 
 240.984814453125 
 21 
 339.897607421875 
 31 
 0 
 0 
LINE
 10 
 240.984814453125 
 20 
 339.897607421875 
 30 
 0 
 11 
 241.523193359375 
 21 
 339.3744140625 
 31 
 0 
 0 
LINE
 10 
 241.523193359375 
 20 
 339.3744140625 
 30 
 0 
 11 
 241.8744140625 
 21 
 338.860815429688 
 31 
 0 
 0 
LINE
 10 
 241.8744140625 
 20 
 338.860815429688 
 30 
 0 
 11 
 242 
 21 
 338.4 
 31 
 0 
 0 
LINE
 10 
 242 
 20 
 338.4 
 30 
 0 
 11 
 242.079174804688 
 21 
 338.02080078125 
 31 
 0 
 0 
LINE
 10 
 242.079174804688 
 20 
 338.02080078125 
 30 
 0 
 11 
 242.297607421875 
 21 
 337.622412109375 
 31 
 0 
 0 
LINE
 10 
 242.297607421875 
 20 
 337.622412109375 
 30 
 0 
 11 
 242.626391601563 
 21 
 337.233618164063 
 31 
 0 
 0 
LINE
 10 
 242.626391601563 
 20 
 337.233618164063 
 30 
 0 
 11 
 243.036791992188 
 21 
 336.883203125 
 31 
 0 
 0 
LINE
 10 
 243.036791992188 
 20 
 336.883203125 
 30 
 0 
 11 
 243.5 
 21 
 336.6 
 31 
 0 
 0 
LINE
 10 
 243.5 
 20 
 336.6 
 30 
 0 
 11 
 244.001611328125 
 21 
 336.27998046875 
 31 
 0 
 0 
LINE
 10 
 244.001611328125 
 20 
 336.27998046875 
 30 
 0 
 11 
 244.416796875 
 21 
 335.696020507813 
 31 
 0 
 0 
LINE
 10 
 244.416796875 
 20 
 335.696020507813 
 30 
 0 
 11 
 244.731201171875 
 21 
 334.871997070313 
 31 
 0 
 0 
LINE
 10 
 244.731201171875 
 20 
 334.871997070313 
 30 
 0 
 11 
 244.930395507813 
 21 
 333.832006835938 
 31 
 0 
 0 
LINE
 10 
 244.930395507813 
 20 
 333.832006835938 
 30 
 0 
 11 
 245 
 21 
 332.6 
 31 
 0 
 0 
LINE
 10 
 245 
 20 
 332.6 
 30 
 0 
 11 
 245.435180664063 
 21 
 329.952001953125 
 31 
 0 
 0 
LINE
 10 
 245.435180664063 
 20 
 329.952001953125 
 30 
 0 
 11 
 246.6576171875 
 21 
 327.400024414063 
 31 
 0 
 0 
LINE
 10 
 246.6576171875 
 20 
 327.400024414063 
 30 
 0 
 11 
 248.542407226563 
 21 
 325.11201171875 
 31 
 0 
 0 
LINE
 10 
 248.542407226563 
 20 
 325.11201171875 
 30 
 0 
 11 
 250.964819335938 
 21 
 323.256005859375 
 31 
 0 
 0 
LINE
 10 
 250.964819335938 
 20 
 323.256005859375 
 30 
 0 
 11 
 253.8 
 21 
 322 
 31 
 0 
 0 
LINE
 10 
 253.8 
 20 
 322 
 30 
 0 
 11 
 257.277587890625 
 21 
 320.263208007813 
 31 
 0 
 0 
LINE
 10 
 257.277587890625 
 20 
 320.263208007813 
 30 
 0 
 11 
 261.100805664063 
 21 
 317.225610351563 
 31 
 0 
 0 
LINE
 10 
 261.100805664063 
 20 
 317.225610351563 
 30 
 0 
 11 
 265.255224609375 
 21 
 312.906396484375 
 31 
 0 
 0 
LINE
 10 
 265.255224609375 
 20 
 312.906396484375 
 30 
 0 
 11 
 269.726416015625 
 21 
 307.3248046875 
 31 
 0 
 0 
LINE
 10 
 269.726416015625 
 20 
 307.3248046875 
 30 
 0 
 11 
 274.5 
 21 
 300.5 
 31 
 0 
 0 
LINE
 10 
 274.5 
 20 
 300.5 
 30 
 0 
 11 
 283.082421875 
 21 
 288.352783203125 
 31 
 0 
 0 
LINE
 10 
 283.082421875 
 20 
 288.352783203125 
 30 
 0 
 11 
 291.511206054688 
 21 
 278.514404296875 
 31 
 0 
 0 
LINE
 10 
 291.511206054688 
 20 
 278.514404296875 
 30 
 0 
 11 
 300.448803710938 
 21 
 270.389599609375 
 31 
 0 
 0 
LINE
 10 
 300.448803710938 
 20 
 270.389599609375 
 30 
 0 
 11 
 310.5576171875 
 21 
 263.383203125 
 31 
 0 
 0 
LINE
 10 
 310.5576171875 
 20 
 263.383203125 
 30 
 0 
 11 
 322.5 
 21 
 256.9 
 31 
 0 
 0 
LINE
 10 
 322.5 
 20 
 256.9 
 30 
 0 
 11 
 328.0255859375 
 21 
 254.135986328125 
 31 
 0 
 0 
LINE
 10 
 328.0255859375 
 20 
 254.135986328125 
 30 
 0 
 11 
 331.256811523438 
 21 
 252.40400390625 
 31 
 0 
 0 
LINE
 10 
 331.256811523438 
 20 
 252.40400390625 
 30 
 0 
 11 
 332.515209960938 
 21 
 251.464013671875 
 31 
 0 
 0 
LINE
 10 
 332.515209960938 
 20 
 251.464013671875 
 30 
 0 
 11 
 332.122412109375 
 21 
 251.076000976563 
 31 
 0 
 0 
LINE
 10 
 332.122412109375 
 20 
 251.076000976563 
 30 
 0 
 11 
 330.4 
 21 
 251 
 31 
 0 
 0 
LINE
 10 
 330.4 
 20 
 251 
 30 
 0 
 11 
 325.9255859375 
 21 
 251.406396484375 
 31 
 0 
 0 
LINE
 10 
 325.9255859375 
 20 
 251.406396484375 
 30 
 0 
 11 
 320.5248046875 
 21 
 252.523193359375 
 31 
 0 
 0 
LINE
 10 
 320.5248046875 
 20 
 252.523193359375 
 30 
 0 
 11 
 314.711206054688 
 21 
 254.196801757813 
 31 
 0 
 0 
LINE
 10 
 314.711206054688 
 20 
 254.196801757813 
 30 
 0 
 11 
 308.998413085938 
 21 
 256.273608398438 
 31 
 0 
 0 
LINE
 10 
 308.998413085938 
 20 
 256.273608398438 
 30 
 0 
 11 
 303.9 
 21 
 258.6 
 31 
 0 
 0 
LINE
 10 
 303.9 
 20 
 258.6 
 30 
 0 
 11 
 299.227172851563 
 21 
 261.378393554688 
 31 
 0 
 0 
LINE
 10 
 299.227172851563 
 20 
 261.378393554688 
 30 
 0 
 11 
 295.005615234375 
 21 
 264.483227539063 
 31 
 0 
 0 
LINE
 10 
 295.005615234375 
 20 
 264.483227539063 
 30 
 0 
 11 
 291.350415039063 
 21 
 267.808813476563 
 31 
 0 
 0 
LINE
 10 
 291.350415039063 
 20 
 267.808813476563 
 30 
 0 
 11 
 288.376806640625 
 21 
 271.249609375 
 31 
 0 
 0 
LINE
 10 
 288.376806640625 
 20 
 271.249609375 
 30 
 0 
 11 
 286.2 
 21 
 274.7 
 31 
 0 
 0 
LINE
 10 
 286.2 
 20 
 274.7 
 30 
 0 
 11 
 285.2095703125 
 21 
 276.523193359375 
 31 
 0 
 0 
LINE
 10 
 285.2095703125 
 20 
 276.523193359375 
 30 
 0 
 11 
 284.348803710938 
 21 
 277.645629882813 
 31 
 0 
 0 
LINE
 10 
 284.348803710938 
 20 
 277.645629882813 
 30 
 0 
 11 
 283.363208007813 
 21 
 278.206396484375 
 31 
 0 
 0 
LINE
 10 
 283.363208007813 
 20 
 278.206396484375 
 30 
 0 
 11 
 281.998413085938 
 21 
 278.344799804688 
 31 
 0 
 0 
LINE
 10 
 281.998413085938 
 20 
 278.344799804688 
 30 
 0 
 11 
 280 
 21 
 278.2 
 31 
 0 
 0 
LINE
 10 
 280 
 20 
 278.2 
 30 
 0 
 11 
 278.282397460938 
 21 
 278.00078125 
 31 
 0 
 0 
LINE
 10 
 278.282397460938 
 20 
 278.00078125 
 30 
 0 
 11 
 277.155200195313 
 21 
 277.734423828125 
 31 
 0 
 0 
LINE
 10 
 277.155200195313 
 20 
 277.734423828125 
 30 
 0 
 11 
 276.536791992188 
 21 
 277.357592773438 
 31 
 0 
 0 
LINE
 10 
 276.536791992188 
 20 
 277.357592773438 
 30 
 0 
 11 
 276.34560546875 
 21 
 276.827197265625 
 31 
 0 
 0 
LINE
 10 
 276.34560546875 
 20 
 276.827197265625 
 30 
 0 
 11 
 276.5 
 21 
 276.1 
 31 
 0 
 0 
LINE
 10 
 276.5 
 20 
 276.1 
 30 
 0 
 11 
 276.782397460938 
 21 
 275.406372070313 
 31 
 0 
 0 
LINE
 10 
 276.782397460938 
 20 
 275.406372070313 
 30 
 0 
 11 
 277.127221679688 
 21 
 274.463208007813 
 31 
 0 
 0 
LINE
 10 
 277.127221679688 
 20 
 274.463208007813 
 30 
 0 
 11 
 277.500805664063 
 21 
 273.356811523438 
 31 
 0 
 0 
LINE
 10 
 277.500805664063 
 20 
 273.356811523438 
 30 
 0 
 11 
 277.869604492188 
 21 
 272.173608398438 
 31 
 0 
 0 
LINE
 10 
 277.869604492188 
 20 
 272.173608398438 
 30 
 0 
 11 
 278.2 
 21 
 271 
 31 
 0 
 0 
LINE
 10 
 278.2 
 20 
 271 
 30 
 0 
 11 
 279.191186523438 
 21 
 267.982373046875 
 31 
 0 
 0 
LINE
 10 
 279.191186523438 
 20 
 267.982373046875 
 30 
 0 
 11 
 280.489624023438 
 21 
 265.075219726563 
 31 
 0 
 0 
LINE
 10 
 280.489624023438 
 20 
 265.075219726563 
 30 
 0 
 11 
 282.282421875 
 21 
 261.956787109375 
 31 
 0 
 0 
LINE
 10 
 282.282421875 
 20 
 261.956787109375 
 30 
 0 
 11 
 284.756811523438 
 21 
 258.305615234375 
 31 
 0 
 0 
LINE
 10 
 284.756811523438 
 20 
 258.305615234375 
 30 
 0 
 11 
 288.1 
 21 
 253.8 
 31 
 0 
 0 
LINE
 10 
 288.1 
 20 
 253.8 
 30 
 0 
 11 
 295.52080078125 
 21 
 244.9927734375 
 31 
 0 
 0 
LINE
 10 
 295.52080078125 
 20 
 244.9927734375 
 30 
 0 
 11 
 303.114379882813 
 21 
 237.87041015625 
 31 
 0 
 0 
LINE
 10 
 303.114379882813 
 20 
 237.87041015625 
 30 
 0 
 11 
 311.197607421875 
 21 
 232.221606445313 
 31 
 0 
 0 
LINE
 10 
 311.197607421875 
 20 
 232.221606445313 
 30 
 0 
 11 
 320.08720703125 
 21 
 227.835205078125 
 31 
 0 
 0 
LINE
 10 
 320.08720703125 
 20 
 227.835205078125 
 30 
 0 
 11 
 330.1 
 21 
 224.5 
 31 
 0 
 0 
LINE
 10 
 330.1 
 20 
 224.5 
 30 
 0 
 11 
 336.270385742188 
 21 
 223.10478515625 
 31 
 0 
 0 
LINE
 10 
 336.270385742188 
 20 
 223.10478515625 
 30 
 0 
 11 
 344.015209960938 
 21 
 221.810424804688 
 31 
 0 
 0 
LINE
 10 
 344.015209960938 
 20 
 221.810424804688 
 30 
 0 
 11 
 351.764794921875 
 21 
 220.813598632813 
 31 
 0 
 0 
LINE
 10 
 351.764794921875 
 20 
 220.813598632813 
 30 
 0 
 11 
 357.949609375 
 21 
 220.311206054688 
 31 
 0 
 0 
LINE
 10 
 357.949609375 
 20 
 220.311206054688 
 30 
 0 
 11 
 361 
 21 
 220.5 
 31 
 0 
 0 
LINE
 10 
 361 
 20 
 220.5 
 30 
 0 
 11 
 361.64560546875 
 21 
 220.626391601563 
 31 
 0 
 0 
LINE
 10 
 361.64560546875 
 20 
 220.626391601563 
 30 
 0 
 11 
 363.116796875 
 21 
 220.863208007813 
 31 
 0 
 0 
LINE
 10 
 363.116796875 
 20 
 220.863208007813 
 30 
 0 
 11 
 365.255200195313 
 21 
 221.176806640625 
 31 
 0 
 0 
LINE
 10 
 365.255200195313 
 20 
 221.176806640625 
 30 
 0 
 11 
 367.902416992188 
 21 
 221.533618164063 
 31 
 0 
 0 
LINE
 10 
 367.902416992188 
 20 
 221.533618164063 
 30 
 0 
 11 
 370.9 
 21 
 221.9 
 31 
 0 
 0 
LINE
 10 
 370.9 
 20 
 221.9 
 30 
 0 
 11 
 374.0080078125 
 21 
 222.36240234375 
 31 
 0 
 0 
LINE
 10 
 374.0080078125 
 20 
 222.36240234375 
 30 
 0 
 11 
 377.068017578125 
 21 
 222.88720703125 
 31 
 0 
 0 
LINE
 10 
 377.068017578125 
 20 
 222.88720703125 
 30 
 0 
 11 
 379.863989257813 
 21 
 223.440795898438 
 31 
 0 
 0 
LINE
 10 
 379.863989257813 
 20 
 223.440795898438 
 30 
 0 
 11 
 382.180004882813 
 21 
 223.989599609375 
 31 
 0 
 0 
LINE
 10 
 382.180004882813 
 20 
 223.989599609375 
 30 
 0 
 11 
 383.8 
 21 
 224.5 
 31 
 0 
 0 
LINE
 10 
 383.8 
 20 
 224.5 
 30 
 0 
 11 
 384.904809570313 
 21 
 224.990380859375 
 31 
 0 
 0 
LINE
 10 
 384.904809570313 
 20 
 224.990380859375 
 30 
 0 
 11 
 385.894409179688 
 21 
 225.3751953125 
 31 
 0 
 0 
LINE
 10 
 385.894409179688 
 20 
 225.3751953125 
 30 
 0 
 11 
 386.701586914063 
 21 
 225.644799804688 
 31 
 0 
 0 
LINE
 10 
 386.701586914063 
 20 
 225.644799804688 
 30 
 0 
 11 
 387.259204101563 
 21 
 225.789599609375 
 31 
 0 
 0 
LINE
 10 
 387.259204101563 
 20 
 225.789599609375 
 30 
 0 
 11 
 387.5 
 21 
 225.8 
 31 
 0 
 0 
LINE
 10 
 387.5 
 20 
 225.8 
 30 
 0 
 11 
 387.591967773438 
 21 
 225.452807617188 
 31 
 0 
 0 
LINE
 10 
 387.591967773438 
 20 
 225.452807617188 
 30 
 0 
 11 
 387.732006835938 
 21 
 224.702392578125 
 31 
 0 
 0 
LINE
 10 
 387.732006835938 
 20 
 224.702392578125 
 30 
 0 
 11 
 387.89599609375 
 21 
 223.625610351563 
 31 
 0 
 0 
LINE
 10 
 387.89599609375 
 20 
 223.625610351563 
 30 
 0 
 11 
 388.060009765625 
 21 
 222.299194335938 
 31 
 0 
 0 
LINE
 10 
 388.060009765625 
 20 
 222.299194335938 
 30 
 0 
 11 
 388.2 
 21 
 220.8 
 31 
 0 
 0 
LINE
 10 
 388.2 
 20 
 220.8 
 30 
 0 
 11 
 388.8 
 21 
 216 
 31 
 0 
 0 
LINE
 10 
 388.8 
 20 
 216 
 30 
 0 
 11 
 383.6 
 21 
 216 
 31 
 0 
 0 
LINE
 10 
 383.6 
 20 
 216 
 30 
 0 
 11 
 381.561596679688 
 21 
 215.943994140625 
 31 
 0 
 0 
LINE
 10 
 381.561596679688 
 20 
 215.943994140625 
 30 
 0 
 11 
 378.956811523438 
 21 
 215.7919921875 
 31 
 0 
 0 
LINE
 10 
 378.956811523438 
 20 
 215.7919921875 
 30 
 0 
 11 
 376.011206054688 
 21 
 215.568017578125 
 31 
 0 
 0 
LINE
 10 
 376.011206054688 
 20 
 215.568017578125 
 30 
 0 
 11 
 372.950415039063 
 21 
 215.296020507813 
 31 
 0 
 0 
LINE
 10 
 372.950415039063 
 20 
 215.296020507813 
 30 
 0 
 11 
 370 
 21 
 215 
 31 
 0 
 0 
LINE
 10 
 370 
 20 
 215 
 30 
 0 
 11 
 366.184765625 
 21 
 214.56318359375 
 31 
 0 
 0 
LINE
 10 
 366.184765625 
 20 
 214.56318359375 
 30 
 0 
 11 
 360.718408203125 
 21 
 214.001611328125 
 31 
 0 
 0 
LINE
 10 
 360.718408203125 
 20 
 214.001611328125 
 30 
 0 
 11 
 354.109594726563 
 21 
 213.3583984375 
 31 
 0 
 0 
LINE
 10 
 354.109594726563 
 20 
 213.3583984375 
 30 
 0 
 11 
 346.867211914063 
 21 
 212.676806640625 
 31 
 0 
 0 
LINE
 10 
 346.867211914063 
 20 
 212.676806640625 
 30 
 0 
 11 
 339.5 
 21 
 212 
 31 
 0 
 0 
LINE
 10 
 339.5 
 20 
 212 
 30 
 0 
 11 
 332.065576171875 
 21 
 211.252001953125 
 31 
 0 
 0 
LINE
 10 
 332.065576171875 
 20 
 211.252001953125 
 30 
 0 
 11 
 324.640795898438 
 21 
 210.480004882813 
 31 
 0 
 0 
LINE
 10 
 324.640795898438 
 20 
 210.480004882813 
 30 
 0 
 11 
 317.763208007813 
 21 
 209.732006835938 
 31 
 0 
 0 
LINE
 10 
 317.763208007813 
 20 
 209.732006835938 
 30 
 0 
 11 
 311.97041015625 
 21 
 209.056005859375 
 31 
 0 
 0 
LINE
 10 
 311.97041015625 
 20 
 209.056005859375 
 30 
 0 
 11 
 307.8 
 21 
 208.5 
 31 
 0 
 0 
LINE
 10 
 307.8 
 20 
 208.5 
 30 
 0 
 11 
 304.683984375 
 21 
 208.036791992188 
 31 
 0 
 0 
LINE
 10 
 304.683984375 
 20 
 208.036791992188 
 30 
 0 
 11 
 301.927978515625 
 21 
 207.626416015625 
 31 
 0 
 0 
LINE
 10 
 301.927978515625 
 20 
 207.626416015625 
 30 
 0 
 11 
 299.7 
 21 
 207.297607421875 
 31 
 0 
 0 
LINE
 10 
 299.7 
 20 
 207.297607421875 
 30 
 0 
 11 
 298.167993164063 
 21 
 207.07919921875 
 31 
 0 
 0 
LINE
 10 
 298.167993164063 
 20 
 207.07919921875 
 30 
 0 
 11 
 297.5 
 21 
 207 
 31 
 0 
 0 
LINE
 10 
 297.5 
 20 
 207 
 30 
 0 
 11 
 297.41279296875 
 21 
 207.125610351563 
 31 
 0 
 0 
LINE
 10 
 297.41279296875 
 20 
 207.125610351563 
 30 
 0 
 11 
 297.498413085938 
 21 
 207.476806640625 
 31 
 0 
 0 
LINE
 10 
 297.498413085938 
 20 
 207.476806640625 
 30 
 0 
 11 
 297.73759765625 
 21 
 208.015209960938 
 31 
 0 
 0 
LINE
 10 
 297.73759765625 
 20 
 208.015209960938 
 30 
 0 
 11 
 298.111206054688 
 21 
 208.702392578125 
 31 
 0 
 0 
LINE
 10 
 298.111206054688 
 20 
 208.702392578125 
 30 
 0 
 11 
 298.6 
 21 
 209.5 
 31 
 0 
 0 
LINE
 10 
 298.6 
 20 
 209.5 
 30 
 0 
 11 
 299.680810546875 
 21 
 211.370385742188 
 31 
 0 
 0 
LINE
 10 
 299.680810546875 
 20 
 211.370385742188 
 30 
 0 
 11 
 299.806396484375 
 21 
 212.295190429688 
 31 
 0 
 0 
LINE
 10 
 299.806396484375 
 20 
 212.295190429688 
 30 
 0 
 11 
 298.981616210938 
 21 
 212.264794921875 
 31 
 0 
 0 
LINE
 10 
 298.981616210938 
 20 
 212.264794921875 
 30 
 0 
 11 
 297.211206054688 
 21 
 211.269604492188 
 31 
 0 
 0 
LINE
 10 
 297.211206054688 
 20 
 211.269604492188 
 30 
 0 
 11 
 294.5 
 21 
 209.3 
 31 
 0 
 0 
LINE
 10 
 294.5 
 20 
 209.3 
 30 
 0 
 11 
 289.7 
 21 
 205.7 
 31 
 0 
 0 
LINE
 10 
 289.7 
 20 
 205.7 
 30 
 0 
 11 
 290.4 
 21 
 210.9 
 31 
 0 
 0 
LINE
 10 
 290.4 
 20 
 210.9 
 30 
 0 
 11 
 290.611206054688 
 21 
 213.876000976563 
 31 
 0 
 0 
LINE
 10 
 290.611206054688 
 20 
 213.876000976563 
 30 
 0 
 11 
 290.36162109375 
 21 
 215.364013671875 
 31 
 0 
 0 
LINE
 10 
 290.36162109375 
 20 
 215.364013671875 
 30 
 0 
 11 
 289.76640625 
 21 
 215.363989257813 
 31 
 0 
 0 
LINE
 10 
 289.76640625 
 20 
 215.363989257813 
 30 
 0 
 11 
 288.9408203125 
 21 
 213.876000976563 
 31 
 0 
 0 
LINE
 10 
 288.9408203125 
 20 
 213.876000976563 
 30 
 0 
 11 
 288 
 21 
 210.9 
 31 
 0 
 0 
LINE
 10 
 288 
 20 
 210.9 
 30 
 0 
 11 
 287.610400390625 
 21 
 209.671997070313 
 31 
 0 
 0 
LINE
 10 
 287.610400390625 
 20 
 209.671997070313 
 30 
 0 
 11 
 287.18720703125 
 21 
 208.660009765625 
 31 
 0 
 0 
LINE
 10 
 287.18720703125 
 20 
 208.660009765625 
 30 
 0 
 11 
 286.768798828125 
 21 
 207.91201171875 
 31 
 0 
 0 
LINE
 10 
 286.768798828125 
 20 
 207.91201171875 
 30 
 0 
 11 
 286.393603515625 
 21 
 207.476000976563 
 31 
 0 
 0 
LINE
 10 
 286.393603515625 
 20 
 207.476000976563 
 30 
 0 
 11 
 286.1 
 21 
 207.4 
 31 
 0 
 0 
LINE
 10 
 286.1 
 20 
 207.4 
 30 
 0 
 11 
 284.680786132813 
 21 
 207.611987304688 
 31 
 0 
 0 
LINE
 10 
 284.680786132813 
 20 
 207.611987304688 
 30 
 0 
 11 
 282.54638671875 
 21 
 207.176000976563 
 31 
 0 
 0 
LINE
 10 
 282.54638671875 
 20 
 207.176000976563 
 30 
 0 
 11 
 280.181616210938 
 21 
 206.284008789063 
 31 
 0 
 0 
LINE
 10 
 280.181616210938 
 20 
 206.284008789063 
 30 
 0 
 11 
 278.07119140625 
 21 
 205.128002929688 
 31 
 0 
 0 
LINE
 10 
 278.07119140625 
 20 
 205.128002929688 
 30 
 0 
 11 
 276.7 
 21 
 203.9 
 31 
 0 
 0 
LINE
 10 
 276.7 
 20 
 203.9 
 30 
 0 
 11 
 276.01201171875 
 21 
 202.940783691406 
 31 
 0 
 0 
LINE
 10 
 276.01201171875 
 20 
 202.940783691406 
 30 
 0 
 11 
 275.564013671875 
 21 
 202.46640625 
 31 
 0 
 0 
LINE
 10 
 275.564013671875 
 20 
 202.46640625 
 30 
 0 
 11 
 275.260009765625 
 21 
 202.481604003906 
 31 
 0 
 0 
LINE
 10 
 275.260009765625 
 20 
 202.481604003906 
 30 
 0 
 11 
 275.00400390625 
 21 
 202.9912109375 
 31 
 0 
 0 
LINE
 10 
 275.00400390625 
 20 
 202.9912109375 
 30 
 0 
 11 
 274.7 
 21 
 204 
 31 
 0 
 0 
LINE
 10 
 274.7 
 20 
 204 
 30 
 0 
 11 
 274.578393554688 
 21 
 204.663989257813 
 31 
 0 
 0 
LINE
 10 
 274.578393554688 
 20 
 204.663989257813 
 30 
 0 
 11 
 274.567211914063 
 21 
 205.30400390625 
 31 
 0 
 0 
LINE
 10 
 274.567211914063 
 20 
 205.30400390625 
 30 
 0 
 11 
 274.656811523438 
 21 
 205.871997070313 
 31 
 0 
 0 
LINE
 10 
 274.656811523438 
 20 
 205.871997070313 
 30 
 0 
 11 
 274.83759765625 
 21 
 206.319995117188 
 31 
 0 
 0 
LINE
 10 
 274.83759765625 
 20 
 206.319995117188 
 30 
 0 
 11 
 275.1 
 21 
 206.6 
 31 
 0 
 0 
LINE
 10 
 275.1 
 20 
 206.6 
 30 
 0 
 11 
 275.734399414063 
 21 
 207.11279296875 
 31 
 0 
 0 
LINE
 10 
 275.734399414063 
 20 
 207.11279296875 
 30 
 0 
 11 
 275.951220703125 
 21 
 207.726391601563 
 31 
 0 
 0 
LINE
 10 
 275.951220703125 
 20 
 207.726391601563 
 30 
 0 
 11 
 275.740795898438 
 21 
 208.493603515625 
 31 
 0 
 0 
LINE
 10 
 275.740795898438 
 20 
 208.493603515625 
 30 
 0 
 11 
 275.093603515625 
 21 
 209.467211914063 
 31 
 0 
 0 
LINE
 10 
 275.093603515625 
 20 
 209.467211914063 
 30 
 0 
 11 
 274 
 21 
 210.7 
 31 
 0 
 0 
LINE
 10 
 274 
 20 
 210.7 
 30 
 0 
 11 
 273.28798828125 
 21 
 211.394384765625 
 31 
 0 
 0 
LINE
 10 
 273.28798828125 
 20 
 211.394384765625 
 30 
 0 
 11 
 272.50400390625 
 21 
 211.911206054688 
 31 
 0 
 0 
LINE
 10 
 272.50400390625 
 20 
 211.911206054688 
 30 
 0 
 11 
 271.69599609375 
 21 
 212.240795898438 
 31 
 0 
 0 
LINE
 10 
 271.69599609375 
 20 
 212.240795898438 
 30 
 0 
 11 
 270.91201171875 
 21 
 212.373608398438 
 31 
 0 
 0 
LINE
 10 
 270.91201171875 
 20 
 212.373608398438 
 30 
 0 
 11 
 270.2 
 21 
 212.3 
 31 
 0 
 0 
LINE
 10 
 270.2 
 20 
 212.3 
 30 
 0 
 11 
 269.292016601563 
 21 
 212.296801757813 
 31 
 0 
 0 
LINE
 10 
 269.292016601563 
 20 
 212.296801757813 
 30 
 0 
 11 
 268.143994140625 
 21 
 212.634399414063 
 31 
 0 
 0 
LINE
 10 
 268.143994140625 
 20 
 212.634399414063 
 30 
 0 
 11 
 266.780004882813 
 21 
 213.293603515625 
 31 
 0 
 0 
LINE
 10 
 266.780004882813 
 20 
 213.293603515625 
 30 
 0 
 11 
 265.223999023438 
 21 
 214.255200195313 
 31 
 0 
 0 
LINE
 10 
 265.223999023438 
 20 
 214.255200195313 
 30 
 0 
 11 
 263.5 
 21 
 215.5 
 31 
 0 
 0 
LINE
 10 
 263.5 
 20 
 215.5 
 30 
 0 
 11 
 257.37919921875 
 21 
 219.6 
 31 
 0 
 0 
LINE
 10 
 257.37919921875 
 20 
 219.6 
 30 
 0 
 11 
 250.461596679688 
 21 
 223.243994140625 
 31 
 0 
 0 
LINE
 10 
 250.461596679688 
 20 
 223.243994140625 
 30 
 0 
 11 
 242.814404296875 
 21 
 226.4080078125 
 31 
 0 
 0 
LINE
 10 
 242.814404296875 
 20 
 226.4080078125 
 30 
 0 
 11 
 234.504809570313 
 21 
 229.068017578125 
 31 
 0 
 0 
LINE
 10 
 234.504809570313 
 20 
 229.068017578125 
 30 
 0 
 11 
 225.6 
 21 
 231.2 
 31 
 0 
 0 
LINE
 10 
 225.6 
 20 
 231.2 
 30 
 0 
 11 
 220.08720703125 
 21 
 232.245581054688 
 31 
 0 
 0 
LINE
 10 
 220.08720703125 
 20 
 232.245581054688 
 30 
 0 
 11 
 214.617602539063 
 21 
 232.916796875 
 31 
 0 
 0 
LINE
 10 
 214.617602539063 
 20 
 232.916796875 
 30 
 0 
 11 
 207.794409179688 
 21 
 233.295190429688 
 31 
 0 
 0 
LINE
 10 
 207.794409179688 
 20 
 233.295190429688 
 30 
 0 
 11 
 198.22080078125 
 21 
 233.46240234375 
 31 
 0 
 0 
LINE
 10 
 198.22080078125 
 20 
 233.46240234375 
 30 
 0 
 11 
 184.5 
 21 
 233.5 
 31 
 0 
 0 
LINE
 10 
 184.5 
 20 
 233.5 
 30 
 0 
 11 
 173.346398925781 
 21 
 233.439990234375 
 31 
 0 
 0 
LINE
 10 
 173.346398925781 
 20 
 233.439990234375 
 30 
 0 
 11 
 163.359216308594 
 21 
 233.260009765625 
 31 
 0 
 0 
LINE
 10 
 163.359216308594 
 20 
 233.260009765625 
 30 
 0 
 11 
 154.648803710938 
 21 
 232.960009765625 
 31 
 0 
 0 
LINE
 10 
 154.648803710938 
 20 
 232.960009765625 
 30 
 0 
 11 
 147.325598144531 
 21 
 232.539990234375 
 31 
 0 
 0 
LINE
 10 
 147.325598144531 
 20 
 232.539990234375 
 30 
 0 
 11 
 141.5 
 21 
 232 
 31 
 0 
 0 
LINE
 10 
 141.5 
 20 
 232 
 30 
 0 
 11 
 127.999194335938 
 21 
 230.995190429688 
 31 
 0 
 0 
LINE
 10 
 127.999194335938 
 20 
 230.995190429688 
 30 
 0 
 11 
 113.197595214844 
 21 
 230.705590820313 
 31 
 0 
 0 
LINE
 10 
 113.197595214844 
 20 
 230.705590820313 
 30 
 0 
 11 
 98.7463989257813 
 21 
 231.078393554688 
 31 
 0 
 0 
LINE
 10 
 98.7463989257813 
 20 
 231.078393554688 
 30 
 0 
 11 
 86.2968017578125 
 21 
 232.060791015625 
 31 
 0 
 0 
LINE
 10 
 86.2968017578125 
 20 
 232.060791015625 
 30 
 0 
 11 
 77.5 
 21 
 233.6 
 31 
 0 
 0 
LINE
 10 
 77.5 
 20 
 233.6 
 30 
 0 
 11 
 76.7536010742188 
 21 
 233.816772460938 
 31 
 0 
 0 
LINE
 10 
 76.7536010742188 
 20 
 233.816772460938 
 30 
 0 
 11 
 76.3047973632813 
 21 
 233.87041015625 
 31 
 0 
 0 
LINE
 10 
 76.3047973632813 
 20 
 233.87041015625 
 30 
 0 
 11 
 76.1391967773438 
 21 
 233.765600585938 
 31 
 0 
 0 
LINE
 10 
 76.1391967773438 
 20 
 233.765600585938 
 30 
 0 
 11 
 76.2424011230469 
 21 
 233.507202148438 
 31 
 0 
 0 
LINE
 10 
 76.2424011230469 
 20 
 233.507202148438 
 30 
 0 
 11 
 76.6 
 21 
 233.1 
 31 
 0 
 0 
LINE
 10 
 76.6 
 20 
 233.1 
 30 
 0 
 11 
 81.1056030273438 
 21 
 231.001586914063 
 31 
 0 
 0 
LINE
 10 
 81.1056030273438 
 20 
 231.001586914063 
 30 
 0 
 11 
 89.8447998046875 
 21 
 228.600805664063 
 31 
 0 
 0 
LINE
 10 
 89.8447998046875 
 20 
 228.600805664063 
 30 
 0 
 11 
 100.691198730469 
 21 
 226.339208984375 
 31 
 0 
 0 
LINE
 10 
 100.691198730469 
 20 
 226.339208984375 
 30 
 0 
 11 
 111.518408203125 
 21 
 224.6583984375 
 31 
 0 
 0 
LINE
 10 
 111.518408203125 
 20 
 224.6583984375 
 30 
 0 
 11 
 120.2 
 21 
 224 
 31 
 0 
 0 
LINE
 10 
 120.2 
 20 
 224 
 30 
 0 
 11 
 122.404797363281 
 21 
 223.953588867188 
 31 
 0 
 0 
LINE
 10 
 122.404797363281 
 20 
 223.953588867188 
 30 
 0 
 11 
 124.278405761719 
 21 
 223.82080078125 
 31 
 0 
 0 
LINE
 10 
 124.278405761719 
 20 
 223.82080078125 
 30 
 0 
 11 
 125.729602050781 
 21 
 223.611181640625 
 31 
 0 
 0 
LINE
 10 
 125.729602050781 
 20 
 223.611181640625 
 30 
 0 
 11 
 126.667199707031 
 21 
 223.334399414063 
 31 
 0 
 0 
LINE
 10 
 126.667199707031 
 20 
 223.334399414063 
 30 
 0 
 11 
 127 
 21 
 223 
 31 
 0 
 0 
LINE
 10 
 127 
 20 
 223 
 30 
 0 
 11 
 126.3583984375 
 21 
 222.664794921875 
 31 
 0 
 0 
LINE
 10 
 126.3583984375 
 20 
 222.664794921875 
 30 
 0 
 11 
 124.507202148438 
 21 
 222.382421875 
 31 
 0 
 0 
LINE
 10 
 124.507202148438 
 20 
 222.382421875 
 30 
 0 
 11 
 121.556799316406 
 21 
 222.157592773438 
 31 
 0 
 0 
LINE
 10 
 121.556799316406 
 20 
 222.157592773438 
 30 
 0 
 11 
 117.617602539063 
 21 
 221.99521484375 
 31 
 0 
 0 
LINE
 10 
 117.617602539063 
 20 
 221.99521484375 
 30 
 0 
 11 
 112.8 
 21 
 221.9 
 31 
 0 
 0 
LINE
 10 
 112.8 
 20 
 221.9 
 30 
 0 
 11 
 107.683203125 
 21 
 221.815991210938 
 31 
 0 
 0 
LINE
 10 
 107.683203125 
 20 
 221.815991210938 
 30 
 0 
 11 
 104.073608398438 
 21 
 221.683984375 
 31 
 0 
 0 
LINE
 10 
 104.073608398438 
 20 
 221.683984375 
 30 
 0 
 11 
 101.942401123047 
 21 
 221.50400390625 
 31 
 0 
 0 
LINE
 10 
 101.942401123047 
 20 
 221.50400390625 
 30 
 0 
 11 
 101.260803222656 
 21 
 221.276000976563 
 31 
 0 
 0 
LINE
 10 
 101.260803222656 
 20 
 221.276000976563 
 30 
 0 
 11 
 102 
 21 
 221 
 31 
 0 
 0 
LINE
 10 
 102 
 20 
 221 
 30 
 0 
 11 
 108.373596191406 
 21 
 219.910375976563 
 31 
 0 
 0 
LINE
 10 
 108.373596191406 
 20 
 219.910375976563 
 30 
 0 
 11 
 117.228796386719 
 21 
 219.051220703125 
 31 
 0 
 0 
LINE
 10 
 117.228796386719 
 20 
 219.051220703125 
 30 
 0 
 11 
 128.28720703125 
 21 
 218.43681640625 
 31 
 0 
 0 
LINE
 10 
 128.28720703125 
 20 
 218.43681640625 
 30 
 0 
 11 
 141.270397949219 
 21 
 218.081616210938 
 31 
 0 
 0 
LINE
 10 
 141.270397949219 
 20 
 218.081616210938 
 30 
 0 
 11 
 155.9 
 21 
 218 
 31 
 0 
 0 
LINE
 10 
 155.9 
 20 
 218 
 30 
 0 
 11 
 165.1751953125 
 21 
 218.047998046875 
 31 
 0 
 0 
LINE
 10 
 165.1751953125 
 20 
 218.047998046875 
 30 
 0 
 11 
 174.325598144531 
 21 
 218.071997070313 
 31 
 0 
 0 
LINE
 10 
 174.325598144531 
 20 
 218.071997070313 
 30 
 0 
 11 
 182.698400878906 
 21 
 218.071997070313 
 31 
 0 
 0 
LINE
 10 
 182.698400878906 
 20 
 218.071997070313 
 30 
 0 
 11 
 189.640808105469 
 21 
 218.047998046875 
 31 
 0 
 0 
LINE
 10 
 189.640808105469 
 20 
 218.047998046875 
 30 
 0 
 11 
 194.5 
 21 
 218 
 31 
 0 
 0 
LINE
 10 
 194.5 
 20 
 218 
 30 
 0 
 11 
 202.850402832031 
 21 
 217.606372070313 
 31 
 0 
 0 
LINE
 10 
 202.850402832031 
 20 
 217.606372070313 
 30 
 0 
 11 
 212.295190429688 
 21 
 216.651196289063 
 31 
 0 
 0 
LINE
 10 
 212.295190429688 
 20 
 216.651196289063 
 30 
 0 
 11 
 221.744799804688 
 21 
 215.292797851563 
 31 
 0 
 0 
LINE
 10 
 221.744799804688 
 20 
 215.292797851563 
 30 
 0 
 11 
 230.109594726563 
 21 
 213.689599609375 
 31 
 0 
 0 
LINE
 10 
 230.109594726563 
 20 
 213.689599609375 
 30 
 0 
 11 
 236.3 
 21 
 212 
 31 
 0 
 0 
LINE
 10 
 236.3 
 20 
 212 
 30 
 0 
 11 
 239.310375976563 
 21 
 210.847998046875 
 31 
 0 
 0 
LINE
 10 
 239.310375976563 
 20 
 210.847998046875 
 30 
 0 
 11 
 240.007202148438 
 21 
 210.271997070313 
 31 
 0 
 0 
LINE
 10 
 240.007202148438 
 20 
 210.271997070313 
 30 
 0 
 11 
 238.3087890625 
 21 
 210.271997070313 
 31 
 0 
 0 
LINE
 10 
 238.3087890625 
 20 
 210.271997070313 
 30 
 0 
 11 
 234.13359375 
 21 
 210.847998046875 
 31 
 0 
 0 
LINE
 10 
 234.13359375 
 20 
 210.847998046875 
 30 
 0 
 11 
 227.4 
 21 
 212 
 31 
 0 
 0 
LINE
 10 
 227.4 
 20 
 212 
 30 
 0 
 11 
 223.222387695313 
 21 
 212.686376953125 
 31 
 0 
 0 
LINE
 10 
 223.222387695313 
 20 
 212.686376953125 
 30 
 0 
 11 
 218.17119140625 
 21 
 213.38720703125 
 31 
 0 
 0 
LINE
 10 
 218.17119140625 
 20 
 213.38720703125 
 30 
 0 
 11 
 212.668798828125 
 21 
 214.044799804688 
 31 
 0 
 0 
LINE
 10 
 212.668798828125 
 20 
 214.044799804688 
 30 
 0 
 11 
 207.13759765625 
 21 
 214.601611328125 
 31 
 0 
 0 
LINE
 10 
 207.13759765625 
 20 
 214.601611328125 
 30 
 0 
 11 
 202 
 21 
 215 
 31 
 0 
 0 
LINE
 10 
 202 
 20 
 215 
 30 
 0 
 11 
 186.979187011719 
 21 
 215.70478515625 
 31 
 0 
 0 
LINE
 10 
 186.979187011719 
 20 
 215.70478515625 
 30 
 0 
 11 
 169.121606445313 
 21 
 216.126416015625 
 31 
 0 
 0 
LINE
 10 
 169.121606445313 
 20 
 216.126416015625 
 30 
 0 
 11 
 151.974401855469 
 21 
 216.24560546875 
 31 
 0 
 0 
LINE
 10 
 151.974401855469 
 20 
 216.24560546875 
 30 
 0 
 11 
 139.084802246094 
 21 
 216.043212890625 
 31 
 0 
 0 
LINE
 10 
 139.084802246094 
 20 
 216.043212890625 
 30 
 0 
 11 
 134 
 21 
 215.5 
 31 
 0 
 0 
LINE
 10 
 134 
 20 
 215.5 
 30 
 0 
 11 
 133.95439453125 
 21 
 215.272778320313 
 31 
 0 
 0 
LINE
 10 
 133.95439453125 
 20 
 215.272778320313 
 30 
 0 
 11 
 133.827197265625 
 21 
 215.194409179688 
 31 
 0 
 0 
LINE
 10 
 133.827197265625 
 20 
 215.194409179688 
 30 
 0 
 11 
 133.632800292969 
 21 
 215.269604492188 
 31 
 0 
 0 
LINE
 10 
 133.632800292969 
 20 
 215.269604492188 
 30 
 0 
 11 
 133.385595703125 
 21 
 215.503198242188 
 31 
 0 
 0 
LINE
 10 
 133.385595703125 
 20 
 215.503198242188 
 30 
 0 
 11 
 133.1 
 21 
 215.9 
 31 
 0 
 0 
LINE
 10 
 133.1 
 20 
 215.9 
 30 
 0 
 11 
 132.628796386719 
 21 
 216.48720703125 
 31 
 0 
 0 
LINE
 10 
 132.628796386719 
 20 
 216.48720703125 
 30 
 0 
 11 
 132.114416503906 
 21 
 216.805615234375 
 31 
 0 
 0 
LINE
 10 
 132.114416503906 
 20 
 216.805615234375 
 30 
 0 
 11 
 131.465600585938 
 21 
 216.850415039063 
 31 
 0 
 0 
LINE
 10 
 131.465600585938 
 20 
 216.850415039063 
 30 
 0 
 11 
 130.591198730469 
 21 
 216.616796875 
 31 
 0 
 0 
LINE
 10 
 130.591198730469 
 20 
 216.616796875 
 30 
 0 
 11 
 129.4 
 21 
 216.1 
 31 
 0 
 0 
LINE
 10 
 129.4 
 20 
 216.1 
 30 
 0 
 11 
 128.287194824219 
 21 
 215.667993164063 
 31 
 0 
 0 
LINE
 10 
 128.287194824219 
 20 
 215.667993164063 
 30 
 0 
 11 
 127.433605957031 
 21 
 215.452001953125 
 31 
 0 
 0 
LINE
 10 
 127.433605957031 
 20 
 215.452001953125 
 30 
 0 
 11 
 126.786401367188 
 21 
 215.452001953125 
 31 
 0 
 0 
LINE
 10 
 126.786401367188 
 20 
 215.452001953125 
 30 
 0 
 11 
 126.292797851563 
 21 
 215.668017578125 
 31 
 0 
 0 
LINE
 10 
 126.292797851563 
 20 
 215.668017578125 
 30 
 0 
 11 
 125.9 
 21 
 216.1 
 31 
 0 
 0 
LINE
 10 
 125.9 
 20 
 216.1 
 30 
 0 
 11 
 125.5583984375 
 21 
 216.459985351563 
 31 
 0 
 0 
LINE
 10 
 125.5583984375 
 20 
 216.459985351563 
 30 
 0 
 11 
 125.039208984375 
 21 
 216.700024414063 
 31 
 0 
 0 
LINE
 10 
 125.039208984375 
 20 
 216.700024414063 
 30 
 0 
 11 
 124.380798339844 
 21 
 216.819995117188 
 31 
 0 
 0 
LINE
 10 
 124.380798339844 
 20 
 216.819995117188 
 30 
 0 
 11 
 123.621606445313 
 21 
 216.82001953125 
 31 
 0 
 0 
LINE
 10 
 123.621606445313 
 20 
 216.82001953125 
 30 
 0 
 11 
 122.8 
 21 
 216.7 
 31 
 0 
 0 
LINE
 10 
 122.8 
 20 
 216.7 
 30 
 0 
 11 
 121.992797851563 
 21 
 216.567993164063 
 31 
 0 
 0 
LINE
 10 
 121.992797851563 
 20 
 216.567993164063 
 30 
 0 
 11 
 121.16640625 
 21 
 216.532006835938 
 31 
 0 
 0 
LINE
 10 
 121.16640625 
 20 
 216.532006835938 
 30 
 0 
 11 
 120.373596191406 
 21 
 216.5919921875 
 31 
 0 
 0 
LINE
 10 
 120.373596191406 
 20 
 216.5919921875 
 30 
 0 
 11 
 119.667199707031 
 21 
 216.747998046875 
 31 
 0 
 0 
LINE
 10 
 119.667199707031 
 20 
 216.747998046875 
 30 
 0 
 11 
 119.1 
 21 
 217 
 31 
 0 
 0 
LINE
 10 
 119.1 
 20 
 217 
 30 
 0 
 11 
 118.539196777344 
 21 
 217.215991210938 
 31 
 0 
 0 
LINE
 10 
 118.539196777344 
 20 
 217.215991210938 
 30 
 0 
 11 
 117.949609375 
 21 
 217.264013671875 
 31 
 0 
 0 
LINE
 10 
 117.949609375 
 20 
 217.264013671875 
 30 
 0 
 11 
 117.350402832031 
 21 
 217.143994140625 
 31 
 0 
 0 
LINE
 10 
 117.350402832031 
 20 
 217.143994140625 
 30 
 0 
 11 
 116.760803222656 
 21 
 216.856005859375 
 31 
 0 
 0 
LINE
 10 
 116.760803222656 
 20 
 216.856005859375 
 30 
 0 
 11 
 116.2 
 21 
 216.4 
 31 
 0 
 0 
LINE
 10 
 116.2 
 20 
 216.4 
 30 
 0 
 11 
 115.656787109375 
 21 
 215.931982421875 
 31 
 0 
 0 
LINE
 10 
 115.656787109375 
 20 
 215.931982421875 
 30 
 0 
 11 
 115.022412109375 
 21 
 215.6080078125 
 31 
 0 
 0 
LINE
 10 
 115.022412109375 
 20 
 215.6080078125 
 30 
 0 
 11 
 114.349609375 
 21 
 215.428002929688 
 31 
 0 
 0 
LINE
 10 
 114.349609375 
 20 
 215.428002929688 
 30 
 0 
 11 
 113.6912109375 
 21 
 215.3919921875 
 31 
 0 
 0 
LINE
 10 
 113.6912109375 
 20 
 215.3919921875 
 30 
 0 
 11 
 113.1 
 21 
 215.5 
 31 
 0 
 0 
LINE
 10 
 113.1 
 20 
 215.5 
 30 
 0 
 11 
 112.450402832031 
 21 
 215.73759765625 
 31 
 0 
 0 
LINE
 10 
 112.450402832031 
 20 
 215.73759765625 
 30 
 0 
 11 
 111.623205566406 
 21 
 215.960815429688 
 31 
 0 
 0 
LINE
 10 
 111.623205566406 
 20 
 215.960815429688 
 30 
 0 
 11 
 110.680798339844 
 21 
 216.155200195313 
 31 
 0 
 0 
LINE
 10 
 110.680798339844 
 20 
 216.155200195313 
 30 
 0 
 11 
 109.685607910156 
 21 
 216.306396484375 
 31 
 0 
 0 
LINE
 10 
 109.685607910156 
 20 
 216.306396484375 
 30 
 0 
 11 
 108.7 
 21 
 216.4 
 31 
 0 
 0 
LINE
 10 
 108.7 
 20 
 216.4 
 30 
 0 
 11 
 107.528002929688 
 21 
 216.4671875 
 31 
 0 
 0 
LINE
 10 
 107.528002929688 
 20 
 216.4671875 
 30 
 0 
 11 
 106.859997558594 
 21 
 216.409594726563 
 31 
 0 
 0 
LINE
 10 
 106.859997558594 
 20 
 216.409594726563 
 30 
 0 
 11 
 106.647998046875 
 21 
 216.198413085938 
 31 
 0 
 0 
LINE
 10 
 106.647998046875 
 20 
 216.198413085938 
 30 
 0 
 11 
 106.844006347656 
 21 
 215.804809570313 
 31 
 0 
 0 
LINE
 10 
 106.844006347656 
 20 
 215.804809570313 
 30 
 0 
 11 
 107.4 
 21 
 215.2 
 31 
 0 
 0 
LINE
 10 
 107.4 
 20 
 215.2 
 30 
 0 
 11 
 108.087194824219 
 21 
 214.723999023438 
 31 
 0 
 0 
LINE
 10 
 108.087194824219 
 20 
 214.723999023438 
 30 
 0 
 11 
 109.225610351563 
 21 
 214.272021484375 
 31 
 0 
 0 
LINE
 10 
 109.225610351563 
 20 
 214.272021484375 
 30 
 0 
 11 
 110.690405273438 
 21 
 213.868017578125 
 31 
 0 
 0 
LINE
 10 
 110.690405273438 
 20 
 213.868017578125 
 30 
 0 
 11 
 112.356799316406 
 21 
 213.536010742188 
 31 
 0 
 0 
LINE
 10 
 112.356799316406 
 20 
 213.536010742188 
 30 
 0 
 11 
 114.1 
 21 
 213.3 
 31 
 0 
 0 
LINE
 10 
 114.1 
 20 
 213.3 
 30 
 0 
 11 
 116.27919921875 
 21 
 213.136791992188 
 31 
 0 
 0 
LINE
 10 
 116.27919921875 
 20 
 213.136791992188 
 30 
 0 
 11 
 119.053601074219 
 21 
 212.906396484375 
 31 
 0 
 0 
LINE
 10 
 119.053601074219 
 20 
 212.906396484375 
 30 
 0 
 11 
 122.178405761719 
 21 
 212.63759765625 
 31 
 0 
 0 
LINE
 10 
 122.178405761719 
 20 
 212.63759765625 
 30 
 0 
 11 
 125.408801269531 
 21 
 212.359204101563 
 31 
 0 
 0 
LINE
 10 
 125.408801269531 
 20 
 212.359204101563 
 30 
 0 
 11 
 128.5 
 21 
 212.1 
 31 
 0 
 0 
LINE
 10 
 128.5 
 20 
 212.1 
 30 
 0 
 11 
 131.671203613281 
 21 
 211.7751953125 
 31 
 0 
 0 
LINE
 10 
 131.671203613281 
 20 
 211.7751953125 
 30 
 0 
 11 
 133.637609863281 
 21 
 211.517602539063 
 31 
 0 
 0 
LINE
 10 
 133.637609863281 
 20 
 211.517602539063 
 30 
 0 
 11 
 134.418408203125 
 21 
 211.322387695313 
 31 
 0 
 0 
LINE
 10 
 134.418408203125 
 20 
 211.322387695313 
 30 
 0 
 11 
 134.032800292969 
 21 
 211.184814453125 
 31 
 0 
 0 
LINE
 10 
 134.032800292969 
 20 
 211.184814453125 
 30 
 0 
 11 
 132.5 
 21 
 211.1 
 31 
 0 
 0 
LINE
 10 
 132.5 
 20 
 211.1 
 30 
 0 
 11 
 130.384790039063 
 21 
 211.135986328125 
 31 
 0 
 0 
LINE
 10 
 130.384790039063 
 20 
 211.135986328125 
 30 
 0 
 11 
 127.458410644531 
 21 
 211.243994140625 
 31 
 0 
 0 
LINE
 10 
 127.458410644531 
 20 
 211.243994140625 
 30 
 0 
 11 
 123.989599609375 
 21 
 211.423999023438 
 31 
 0 
 0 
LINE
 10 
 123.989599609375 
 20 
 211.423999023438 
 30 
 0 
 11 
 120.247204589844 
 21 
 211.676000976563 
 31 
 0 
 0 
LINE
 10 
 120.247204589844 
 20 
 211.676000976563 
 30 
 0 
 11 
 116.5 
 21 
 212 
 31 
 0 
 0 
LINE
 10 
 116.5 
 20 
 212 
 30 
 0 
 11 
 105.539208984375 
 21 
 212.823999023438 
 31 
 0 
 0 
LINE
 10 
 105.539208984375 
 20 
 212.823999023438 
 30 
 0 
 11 
 96.0616027832031 
 21 
 213.360009765625 
 31 
 0 
 0 
LINE
 10 
 96.0616027832031 
 20 
 213.360009765625 
 30 
 0 
 11 
 88.6143981933594 
 21 
 213.584008789063 
 31 
 0 
 0 
LINE
 10 
 88.6143981933594 
 20 
 213.584008789063 
 30 
 0 
 11 
 83.7447998046875 
 21 
 213.471997070313 
 31 
 0 
 0 
LINE
 10 
 83.7447998046875 
 20 
 213.471997070313 
 30 
 0 
 11 
 82 
 21 
 213 
 31 
 0 
 0 
LINE
 10 
 82 
 20 
 213 
 30 
 0 
 11 
 81.9199951171875 
 21 
 212.665576171875 
 31 
 0 
 0 
LINE
 10 
 81.9199951171875 
 20 
 212.665576171875 
 30 
 0 
 11 
 81.6960021972656 
 21 
 212.388818359375 
 31 
 0 
 0 
LINE
 10 
 81.6960021972656 
 20 
 212.388818359375 
 30 
 0 
 11 
 81.352001953125 
 21 
 212.17919921875 
 31 
 0 
 0 
LINE
 10 
 81.352001953125 
 20 
 212.17919921875 
 30 
 0 
 11 
 80.9119995117188 
 21 
 212.046411132813 
 31 
 0 
 0 
LINE
 10 
 80.9119995117188 
 20 
 212.046411132813 
 30 
 0 
 11 
 80.4 
 21 
 212 
 31 
 0 
 0 
LINE
 10 
 80.4 
 20 
 212 
 30 
 0 
 11 
 79.9599975585938 
 21 
 212.035180664063 
 31 
 0 
 0 
LINE
 10 
 79.9599975585938 
 20 
 212.035180664063 
 30 
 0 
 11 
 79.6159973144531 
 21 
 212.13759765625 
 31 
 0 
 0 
LINE
 10 
 79.6159973144531 
 20 
 212.13759765625 
 30 
 0 
 11 
 79.3920043945313 
 21 
 212.302392578125 
 31 
 0 
 0 
LINE
 10 
 79.3920043945313 
 20 
 212.302392578125 
 30 
 0 
 11 
 79.3119995117188 
 21 
 212.5248046875 
 31 
 0 
 0 
LINE
 10 
 79.3119995117188 
 20 
 212.5248046875 
 30 
 0 
 11 
 79.4 
 21 
 212.8 
 31 
 0 
 0 
LINE
 10 
 79.4 
 20 
 212.8 
 30 
 0 
 11 
 79.1776062011719 
 21 
 213.037573242188 
 31 
 0 
 0 
LINE
 10 
 79.1776062011719 
 20 
 213.037573242188 
 30 
 0 
 11 
 78.3408020019531 
 21 
 213.260815429688 
 31 
 0 
 0 
LINE
 10 
 78.3408020019531 
 20 
 213.260815429688 
 30 
 0 
 11 
 76.9952026367188 
 21 
 213.455200195313 
 31 
 0 
 0 
LINE
 10 
 76.9952026367188 
 20 
 213.455200195313 
 30 
 0 
 11 
 75.2463989257813 
 21 
 213.606420898438 
 31 
 0 
 0 
LINE
 10 
 75.2463989257813 
 20 
 213.606420898438 
 30 
 0 
 11 
 73.2 
 21 
 213.7 
 31 
 0 
 0 
LINE
 10 
 73.2 
 20 
 213.7 
 30 
 0 
 11 
 70.7719970703125 
 21 
 213.77119140625 
 31 
 0 
 0 
LINE
 10 
 70.7719970703125 
 20 
 213.77119140625 
 30 
 0 
 11 
 69.1120056152344 
 21 
 213.7416015625 
 31 
 0 
 0 
LINE
 10 
 69.1120056152344 
 20 
 213.7416015625 
 30 
 0 
 11 
 68.1960021972656 
 21 
 213.606396484375 
 31 
 0 
 0 
LINE
 10 
 68.1960021972656 
 20 
 213.606396484375 
 30 
 0 
 11 
 68 
 21 
 213.360791015625 
 31 
 0 
 0 
LINE
 10 
 68 
 20 
 213.360791015625 
 30 
 0 
 11 
 68.5 
 21 
 213 
 31 
 0 
 0 
LINE
 10 
 68.5 
 20 
 213 
 30 
 0 
 11 
 69.3488037109375 
 21 
 212.599194335938 
 31 
 0 
 0 
LINE
 10 
 69.3488037109375 
 20 
 212.599194335938 
 30 
 0 
 11 
 69.7224060058594 
 21 
 212.33759765625 
 31 
 0 
 0 
LINE
 10 
 69.7224060058594 
 20 
 212.33759765625 
 30 
 0 
 11 
 69.6015991210938 
 21 
 212.186401367188 
 31 
 0 
 0 
LINE
 10 
 69.6015991210938 
 20 
 212.186401367188 
 30 
 0 
 11 
 68.9671997070313 
 21 
 212.116796875 
 31 
 0 
 0 
LINE
 10 
 68.9671997070313 
 20 
 212.116796875 
 30 
 0 
 11 
 67.8 
 21 
 212.1 
 31 
 0 
 0 
LINE
 10 
 67.8 
 20 
 212.1 
 30 
 0 
 11 
 66.8944030761719 
 21 
 212.005590820313 
 31 
 0 
 0 
LINE
 10 
 66.8944030761719 
 20 
 212.005590820313 
 30 
 0 
 11 
 66.1231994628906 
 21 
 211.848803710938 
 31 
 0 
 0 
LINE
 10 
 66.1231994628906 
 20 
 211.848803710938 
 30 
 0 
 11 
 65.5248046875 
 21 
 211.639208984375 
 31 
 0 
 0 
LINE
 10 
 65.5248046875 
 20 
 211.639208984375 
 30 
 0 
 11 
 65.13759765625 
 21 
 211.386401367188 
 31 
 0 
 0 
LINE
 10 
 65.13759765625 
 20 
 211.386401367188 
 30 
 0 
 11 
 65 
 21 
 211.1 
 31 
 0 
 0 
LINE
 10 
 65 
 20 
 211.1 
 30 
 0 
 11 
 65.5511962890625 
 21 
 210.637573242188 
 31 
 0 
 0 
LINE
 10 
 65.5511962890625 
 20 
 210.637573242188 
 30 
 0 
 11 
 67.393603515625 
 21 
 210.184814453125 
 31 
 0 
 0 
LINE
 10 
 67.393603515625 
 20 
 210.184814453125 
 30 
 0 
 11 
 70.8104064941406 
 21 
 209.703198242188 
 31 
 0 
 0 
LINE
 10 
 70.8104064941406 
 20 
 209.703198242188 
 30 
 0 
 11 
 76.0848022460938 
 21 
 209.154418945313 
 31 
 0 
 0 
LINE
 10 
 76.0848022460938 
 20 
 209.154418945313 
 30 
 0 
 11 
 83.5 
 21 
 208.5 
 31 
 0 
 0 
LINE
 10 
 83.5 
 20 
 208.5 
 30 
 0 
 11 
 84.7607971191406 
 21 
 208.380786132813 
 31 
 0 
 0 
LINE
 10 
 84.7607971191406 
 20 
 208.380786132813 
 30 
 0 
 11 
 85.8583984375 
 21 
 208.26640625 
 31 
 0 
 0 
LINE
 10 
 85.8583984375 
 20 
 208.26640625 
 30 
 0 
 11 
 86.7255981445313 
 21 
 208.161596679688 
 31 
 0 
 0 
LINE
 10 
 86.7255981445313 
 20 
 208.161596679688 
 30 
 0 
 11 
 87.2952026367188 
 21 
 208.071215820313 
 31 
 0 
 0 
LINE
 10 
 87.2952026367188 
 20 
 208.071215820313 
 30 
 0 
 11 
 87.5 
 21 
 208 
 31 
 0 
 0 
LINE
 10 
 87.5 
 20 
 208 
 30 
 0 
 11 
 87.9296020507813 
 21 
 207.893579101563 
 31 
 0 
 0 
LINE
 10 
 87.9296020507813 
 20 
 207.893579101563 
 30 
 0 
 11 
 89.2088073730469 
 21 
 207.700805664063 
 31 
 0 
 0 
LINE
 10 
 89.2088073730469 
 20 
 207.700805664063 
 30 
 0 
 11 
 91.3231994628906 
 21 
 207.431201171875 
 31 
 0 
 0 
LINE
 10 
 91.3231994628906 
 20 
 207.431201171875 
 30 
 0 
 11 
 94.2584045410156 
 21 
 207.094409179688 
 31 
 0 
 0 
LINE
 10 
 94.2584045410156 
 20 
 207.094409179688 
 30 
 0 
 11 
 98 
 21 
 206.7 
 31 
 0 
 0 
LINE
 10 
 98 
 20 
 206.7 
 30 
 0 
 11 
 99.2752014160156 
 21 
 206.534399414063 
 31 
 0 
 0 
LINE
 10 
 99.2752014160156 
 20 
 206.534399414063 
 30 
 0 
 11 
 100.737603759766 
 21 
 206.28720703125 
 31 
 0 
 0 
LINE
 10 
 100.737603759766 
 20 
 206.28720703125 
 30 
 0 
 11 
 102.26240234375 
 21 
 205.972802734375 
 31 
 0 
 0 
LINE
 10 
 102.26240234375 
 20 
 205.972802734375 
 30 
 0 
 11 
 103.7248046875 
 21 
 205.605615234375 
 31 
 0 
 0 
LINE
 10 
 103.7248046875 
 20 
 205.605615234375 
 30 
 0 
 11 
 105 
 21 
 205.2 
 31 
 0 
 0 
LINE
 10 
 105 
 20 
 205.2 
 30 
 0 
 11 
 107.975207519531 
 21 
 204.581591796875 
 31 
 0 
 0 
LINE
 10 
 107.975207519531 
 20 
 204.581591796875 
 30 
 0 
 11 
 112.913598632813 
 21 
 204.02080078125 
 31 
 0 
 0 
LINE
 10 
 112.913598632813 
 20 
 204.02080078125 
 30 
 0 
 11 
 120.314404296875 
 21 
 203.47919921875 
 31 
 0 
 0 
LINE
 10 
 120.314404296875 
 20 
 203.47919921875 
 30 
 0 
 11 
 130.676806640625 
 21 
 202.918408203125 
 31 
 0 
 0 
LINE
 10 
 130.676806640625 
 20 
 202.918408203125 
 30 
 0 
 11 
 144.5 
 21 
 202.3 
 31 
 0 
 0 
LINE
 10 
 144.5 
 20 
 202.3 
 30 
 0 
 11 
 153.688793945313 
 21 
 201.80078125 
 31 
 0 
 0 
LINE
 10 
 153.688793945313 
 20 
 201.80078125 
 30 
 0 
 11 
 157.314404296875 
 21 
 201.210412597656 
 31 
 0 
 0 
LINE
 10 
 157.314404296875 
 20 
 201.210412597656 
 30 
 0 
 11 
 155.645593261719 
 21 
 200.629602050781 
 31 
 0 
 0 
LINE
 10 
 155.645593261719 
 20 
 200.629602050781 
 30 
 0 
 11 
 148.951208496094 
 21 
 200.159204101563 
 31 
 0 
 0 
LINE
 10 
 148.951208496094 
 20 
 200.159204101563 
 30 
 0 
 11 
 137.5 
 21 
 199.9 
 31 
 0 
 0 
LINE
 10 
 137.5 
 20 
 199.9 
 30 
 0 
 11 
 131.873596191406 
 21 
 199.805590820313 
 31 
 0 
 0 
LINE
 10 
 131.873596191406 
 20 
 199.805590820313 
 30 
 0 
 11 
 127.144799804688 
 21 
 199.648815917969 
 31 
 0 
 0 
LINE
 10 
 127.144799804688 
 20 
 199.648815917969 
 30 
 0 
 11 
 123.539196777344 
 21 
 199.439196777344 
 31 
 0 
 0 
LINE
 10 
 123.539196777344 
 20 
 199.439196777344 
 30 
 0 
 11 
 121.282397460938 
 21 
 199.186401367188 
 31 
 0 
 0 
LINE
 10 
 121.282397460938 
 20 
 199.186401367188 
 30 
 0 
 11 
 120.6 
 21 
 198.9 
 31 
 0 
 0 
LINE
 10 
 120.6 
 20 
 198.9 
 30 
 0 
 11 
 120.710400390625 
 21 
 198.614379882813 
 31 
 0 
 0 
LINE
 10 
 120.710400390625 
 20 
 198.614379882813 
 30 
 0 
 11 
 120.6912109375 
 21 
 198.367199707031 
 31 
 0 
 0 
LINE
 10 
 120.6912109375 
 20 
 198.367199707031 
 30 
 0 
 11 
 120.556799316406 
 21 
 198.172802734375 
 31 
 0 
 0 
LINE
 10 
 120.556799316406 
 20 
 198.172802734375 
 30 
 0 
 11 
 120.321606445313 
 21 
 198.04560546875 
 31 
 0 
 0 
LINE
 10 
 120.321606445313 
 20 
 198.04560546875 
 30 
 0 
 11 
 120 
 21 
 198 
 31 
 0 
 0 
LINE
 10 
 120 
 20 
 198 
 30 
 0 
 11 
 119.688806152344 
 21 
 197.953601074219 
 31 
 0 
 0 
LINE
 10 
 119.688806152344 
 20 
 197.953601074219 
 30 
 0 
 11 
 119.478405761719 
 21 
 197.82080078125 
 31 
 0 
 0 
LINE
 10 
 119.478405761719 
 20 
 197.82080078125 
 30 
 0 
 11 
 119.373596191406 
 21 
 197.611206054688 
 31 
 0 
 0 
LINE
 10 
 119.373596191406 
 20 
 197.611206054688 
 30 
 0 
 11 
 119.37919921875 
 21 
 197.334399414063 
 31 
 0 
 0 
LINE
 10 
 119.37919921875 
 20 
 197.334399414063 
 30 
 0 
 11 
 119.5 
 21 
 197 
 31 
 0 
 0 
LINE
 10 
 119.5 
 20 
 197 
 30 
 0 
 11 
 119.893591308594 
 21 
 196.693591308594 
 31 
 0 
 0 
LINE
 10 
 119.893591308594 
 20 
 196.693591308594 
 30 
 0 
 11 
 120.656799316406 
 21 
 196.396801757813 
 31 
 0 
 0 
LINE
 10 
 120.656799316406 
 20 
 196.396801757813 
 30 
 0 
 11 
 121.703198242188 
 21 
 196.143200683594 
 31 
 0 
 0 
LINE
 10 
 121.703198242188 
 20 
 196.143200683594 
 30 
 0 
 11 
 122.946398925781 
 21 
 195.96640625 
 31 
 0 
 0 
LINE
 10 
 122.946398925781 
 20 
 195.96640625 
 30 
 0 
 11 
 124.3 
 21 
 195.9 
 31 
 0 
 0 
LINE
 10 
 124.3 
 20 
 195.9 
 30 
 0 
 11 
 125.778393554688 
 21 
 195.806384277344 
 31 
 0 
 0 
LINE
 10 
 125.778393554688 
 20 
 195.806384277344 
 30 
 0 
 11 
 127.367199707031 
 21 
 195.655212402344 
 31 
 0 
 0 
LINE
 10 
 127.367199707031 
 20 
 195.655212402344 
 30 
 0 
 11 
 128.936804199219 
 21 
 195.460803222656 
 31 
 0 
 0 
LINE
 10 
 128.936804199219 
 20 
 195.460803222656 
 30 
 0 
 11 
 130.357604980469 
 21 
 195.237609863281 
 31 
 0 
 0 
LINE
 10 
 130.357604980469 
 20 
 195.237609863281 
 30 
 0 
 11 
 131.5 
 21 
 195 
 31 
 0 
 0 
LINE
 10 
 131.5 
 20 
 195 
 30 
 0 
 11 
 132.497607421875 
 21 
 194.685583496094 
 31 
 0 
 0 
LINE
 10 
 132.497607421875 
 20 
 194.685583496094 
 30 
 0 
 11 
 132.688793945313 
 21 
 194.452807617188 
 31 
 0 
 0 
LINE
 10 
 132.688793945313 
 20 
 194.452807617188 
 30 
 0 
 11 
 132.011193847656 
 21 
 194.287194824219 
 31 
 0 
 0 
LINE
 10 
 132.011193847656 
 20 
 194.287194824219 
 30 
 0 
 11 
 130.402404785156 
 21 
 194.174401855469 
 31 
 0 
 0 
LINE
 10 
 130.402404785156 
 20 
 194.174401855469 
 30 
 0 
 11 
 127.8 
 21 
 194.1 
 31 
 0 
 0 
LINE
 10 
 127.8 
 20 
 194.1 
 30 
 0 
 11 
 124.37119140625 
 21 
 193.923193359375 
 31 
 0 
 0 
LINE
 10 
 124.37119140625 
 20 
 193.923193359375 
 30 
 0 
 11 
 122.137609863281 
 21 
 193.525610351563 
 31 
 0 
 0 
LINE
 10 
 122.137609863281 
 20 
 193.525610351563 
 30 
 0 
 11 
 121.118395996094 
 21 
 192.926403808594 
 31 
 0 
 0 
LINE
 10 
 121.118395996094 
 20 
 192.926403808594 
 30 
 0 
 11 
 121.332800292969 
 21 
 192.144799804688 
 31 
 0 
 0 
LINE
 10 
 121.332800292969 
 20 
 192.144799804688 
 30 
 0 
 11 
 122.8 
 21 
 191.2 
 31 
 0 
 0 
LINE
 10 
 122.8 
 20 
 191.2 
 30 
 0 
 11 
 123.788012695313 
 21 
 190.869592285156 
 31 
 0 
 0 
LINE
 10 
 123.788012695313 
 20 
 190.869592285156 
 30 
 0 
 11 
 125.544006347656 
 21 
 190.500805664063 
 31 
 0 
 0 
LINE
 10 
 125.544006347656 
 20 
 190.500805664063 
 30 
 0 
 11 
 127.876000976563 
 21 
 190.127209472656 
 31 
 0 
 0 
LINE
 10 
 127.876000976563 
 20 
 190.127209472656 
 30 
 0 
 11 
 130.592004394531 
 21 
 189.782397460938 
 31 
 0 
 0 
LINE
 10 
 130.592004394531 
 20 
 189.782397460938 
 30 
 0 
 11 
 133.5 
 21 
 189.5 
 31 
 0 
 0 
LINE
 10 
 133.5 
 20 
 189.5 
 30 
 0 
 11 
 136.4583984375 
 21 
 189.250390625 
 31 
 0 
 0 
LINE
 10 
 136.4583984375 
 20 
 189.250390625 
 30 
 0 
 11 
 139.215197753906 
 21 
 188.9912109375 
 31 
 0 
 0 
LINE
 10 
 139.215197753906 
 20 
 188.9912109375 
 30 
 0 
 11 
 141.592797851563 
 21 
 188.736804199219 
 31 
 0 
 0 
LINE
 10 
 141.592797851563 
 20 
 188.736804199219 
 30 
 0 
 11 
 143.413598632813 
 21 
 188.501599121094 
 31 
 0 
 0 
LINE
 10 
 143.413598632813 
 20 
 188.501599121094 
 30 
 0 
 11 
 144.5 
 21 
 188.3 
 31 
 0 
 0 
LINE
 10 
 144.5 
 20 
 188.3 
 30 
 0 
 11 
 145.823999023438 
 21 
 188.088000488281 
 31 
 0 
 0 
LINE
 10 
 145.823999023438 
 20 
 188.088000488281 
 30 
 0 
 11 
 148.3 
 21 
 187.828015136719 
 31 
 0 
 0 
LINE
 10 
 148.3 
 20 
 187.828015136719 
 30 
 0 
 11 
 151.663989257813 
 21 
 187.544006347656 
 31 
 0 
 0 
LINE
 10 
 151.663989257813 
 20 
 187.544006347656 
 30 
 0 
 11 
 155.652001953125 
 21 
 187.259997558594 
 31 
 0 
 0 
LINE
 10 
 155.652001953125 
 20 
 187.259997558594 
 30 
 0 
 11 
 160 
 21 
 187 
 31 
 0 
 0 
LINE
 10 
 160 
 20 
 187 
 30 
 0 
 11 
 173.5 
 21 
 186.3 
 31 
 0 
 0 
LINE
 10 
 173.5 
 20 
 186.3 
 30 
 0 
 11 
 163 
 21 
 186.2 
 31 
 0 
 0 
LINE
 10 
 163 
 20 
 186.2 
 30 
 0 
 11 
 156.155187988281 
 21 
 185.959997558594 
 31 
 0 
 0 
LINE
 10 
 156.155187988281 
 20 
 185.959997558594 
 30 
 0 
 11 
 151.009606933594 
 21 
 185.6 
 31 
 0 
 0 
LINE
 10 
 151.009606933594 
 20 
 185.6 
 30 
 0 
 11 
 147.606396484375 
 21 
 185.120007324219 
 31 
 0 
 0 
LINE
 10 
 147.606396484375 
 20 
 185.120007324219 
 30 
 0 
 11 
 145.988806152344 
 21 
 184.520007324219 
 31 
 0 
 0 
LINE
 10 
 145.988806152344 
 20 
 184.520007324219 
 30 
 0 
 11 
 146.2 
 21 
 183.8 
 31 
 0 
 0 
LINE
 10 
 146.2 
 20 
 183.8 
 30 
 0 
 11 
 146.572790527344 
 21 
 183.451196289063 
 31 
 0 
 0 
LINE
 10 
 146.572790527344 
 20 
 183.451196289063 
 30 
 0 
 11 
 146.614404296875 
 21 
 183.2416015625 
 31 
 0 
 0 
LINE
 10 
 146.614404296875 
 20 
 183.2416015625 
 30 
 0 
 11 
 146.329602050781 
 21 
 183.16640625 
 31 
 0 
 0 
LINE
 10 
 146.329602050781 
 20 
 183.16640625 
 30 
 0 
 11 
 145.723205566406 
 21 
 183.22080078125 
 31 
 0 
 0 
LINE
 10 
 145.723205566406 
 20 
 183.22080078125 
 30 
 0 
 11 
 144.8 
 21 
 183.4 
 31 
 0 
 0 
LINE
 10 
 144.8 
 20 
 183.4 
 30 
 0 
 11 
 143.909594726563 
 21 
 183.531188964844 
 31 
 0 
 0 
LINE
 10 
 143.909594726563 
 20 
 183.531188964844 
 30 
 0 
 11 
 143.076806640625 
 21 
 183.561608886719 
 31 
 0 
 0 
LINE
 10 
 143.076806640625 
 20 
 183.561608886719 
 30 
 0 
 11 
 142.359204101563 
 21 
 183.486401367188 
 31 
 0 
 0 
LINE
 10 
 142.359204101563 
 20 
 183.486401367188 
 30 
 0 
 11 
 141.814404296875 
 21 
 183.300805664063 
 31 
 0 
 0 
LINE
 10 
 141.814404296875 
 20 
 183.300805664063 
 30 
 0 
 11 
 141.5 
 21 
 183 
 31 
 0 
 0 
LINE
 10 
 141.5 
 20 
 183 
 30 
 0 
 11 
 141.615197753906 
 21 
 182.664794921875 
 31 
 0 
 0 
LINE
 10 
 141.615197753906 
 20 
 182.664794921875 
 30 
 0 
 11 
 142.421606445313 
 21 
 182.382409667969 
 31 
 0 
 0 
LINE
 10 
 142.421606445313 
 20 
 182.382409667969 
 30 
 0 
 11 
 143.890405273438 
 21 
 182.157604980469 
 31 
 0 
 0 
LINE
 10 
 143.890405273438 
 20 
 182.157604980469 
 30 
 0 
 11 
 145.992797851563 
 21 
 181.995202636719 
 31 
 0 
 0 
LINE
 10 
 145.992797851563 
 20 
 181.995202636719 
 30 
 0 
 11 
 148.7 
 21 
 181.9 
 31 
 0 
 0 
LINE
 10 
 148.7 
 20 
 181.9 
 30 
 0 
 11 
 156.940002441406 
 21 
 181.695190429688 
 31 
 0 
 0 
LINE
 10 
 156.940002441406 
 20 
 181.695190429688 
 30 
 0 
 11 
 164.411999511719 
 21 
 181.24560546875 
 31 
 0 
 0 
LINE
 10 
 164.411999511719 
 20 
 181.24560546875 
 30 
 0 
 11 
 170.444006347656 
 21 
 180.618408203125 
 31 
 0 
 0 
LINE
 10 
 170.444006347656 
 20 
 180.618408203125 
 30 
 0 
 11 
 174.364001464844 
 21 
 179.880798339844 
 31 
 0 
 0 
LINE
 10 
 174.364001464844 
 20 
 179.880798339844 
 30 
 0 
 11 
 175.5 
 21 
 179.1 
 31 
 0 
 0 
LINE
 10 
 175.5 
 20 
 179.1 
 30 
 0 
 11 
 175.131994628906 
 21 
 178.814392089844 
 31 
 0 
 0 
LINE
 10 
 175.131994628906 
 20 
 178.814392089844 
 30 
 0 
 11 
 174.332006835938 
 21 
 178.567199707031 
 31 
 0 
 0 
LINE
 10 
 174.332006835938 
 20 
 178.567199707031 
 30 
 0 
 11 
 173.19599609375 
 21 
 178.372790527344 
 31 
 0 
 0 
LINE
 10 
 173.19599609375 
 20 
 178.372790527344 
 30 
 0 
 11 
 171.820007324219 
 21 
 178.24560546875 
 31 
 0 
 0 
LINE
 10 
 171.820007324219 
 20 
 178.24560546875 
 30 
 0 
 11 
 170.3 
 21 
 178.2 
 31 
 0 
 0 
LINE
 10 
 170.3 
 20 
 178.2 
 30 
 0 
 11 
 168.103991699219 
 21 
 178.143188476563 
 31 
 0 
 0 
LINE
 10 
 168.103991699219 
 20 
 178.143188476563 
 30 
 0 
 11 
 164.948010253906 
 21 
 177.985595703125 
 31 
 0 
 0 
LINE
 10 
 164.948010253906 
 20 
 177.985595703125 
 30 
 0 
 11 
 161.120007324219 
 21 
 177.746398925781 
 31 
 0 
 0 
LINE
 10 
 161.120007324219 
 20 
 177.746398925781 
 30 
 0 
 11 
 156.9080078125 
 21 
 177.444799804688 
 31 
 0 
 0 
LINE
 10 
 156.9080078125 
 20 
 177.444799804688 
 30 
 0 
 11 
 152.6 
 21 
 177.1 
 31 
 0 
 0 
LINE
 10 
 152.6 
 20 
 177.1 
 30 
 0 
 11 
 148.043200683594 
 21 
 176.755187988281 
 31 
 0 
 0 
LINE
 10 
 148.043200683594 
 20 
 176.755187988281 
 30 
 0 
 11 
 143.14560546875 
 21 
 176.453601074219 
 31 
 0 
 0 
LINE
 10 
 143.14560546875 
 20 
 176.453601074219 
 30 
 0 
 11 
 138.286401367188 
 21 
 176.214404296875 
 31 
 0 
 0 
LINE
 10 
 138.286401367188 
 20 
 176.214404296875 
 30 
 0 
 11 
 133.844799804688 
 21 
 176.056799316406 
 31 
 0 
 0 
LINE
 10 
 133.844799804688 
 20 
 176.056799316406 
 30 
 0 
 11 
 130.2 
 21 
 176 
 31 
 0 
 0 
LINE
 10 
 130.2 
 20 
 176 
 30 
 0 
 11 
 127.23759765625 
 21 
 175.977587890625 
 31 
 0 
 0 
LINE
 10 
 127.23759765625 
 20 
 175.977587890625 
 30 
 0 
 11 
 124.692810058594 
 21 
 175.916809082031 
 31 
 0 
 0 
LINE
 10 
 124.692810058594 
 20 
 175.916809082031 
 30 
 0 
 11 
 122.719201660156 
 21 
 175.827197265625 
 31 
 0 
 0 
LINE
 10 
 122.719201660156 
 20 
 175.827197265625 
 30 
 0 
 11 
 121.470397949219 
 21 
 175.718408203125 
 31 
 0 
 0 
LINE
 10 
 121.470397949219 
 20 
 175.718408203125 
 30 
 0 
 11 
 121.1 
 21 
 175.6 
 31 
 0 
 0 
LINE
 10 
 121.1 
 20 
 175.6 
 30 
 0 
 11 
 126.981604003906 
 21 
 174.467199707031 
 31 
 0 
 0 
LINE
 10 
 126.981604003906 
 20 
 174.467199707031 
 30 
 0 
 11 
 140.216809082031 
 21 
 173.353601074219 
 31 
 0 
 0 
LINE
 10 
 140.216809082031 
 20 
 173.353601074219 
 30 
 0 
 11 
 157.431213378906 
 21 
 172.446398925781 
 31 
 0 
 0 
LINE
 10 
 157.431213378906 
 20 
 172.446398925781 
 30 
 0 
 11 
 175.250402832031 
 21 
 171.932800292969 
 31 
 0 
 0 
LINE
 10 
 175.250402832031 
 20 
 171.932800292969 
 30 
 0 
 11 
 190.3 
 21 
 172 
 31 
 0 
 0 
LINE
 10 
 190.3 
 20 
 172 
 30 
 0 
 11 
 192.083203125 
 21 
 171.988000488281 
 31 
 0 
 0 
LINE
 10 
 192.083203125 
 20 
 171.988000488281 
 30 
 0 
 11 
 193.64560546875 
 21 
 171.952014160156 
 31 
 0 
 0 
LINE
 10 
 193.64560546875 
 20 
 171.952014160156 
 30 
 0 
 11 
 194.886389160156 
 21 
 171.892004394531 
 31 
 0 
 0 
LINE
 10 
 194.886389160156 
 20 
 171.892004394531 
 30 
 0 
 11 
 195.704809570313 
 21 
 171.8080078125 
 31 
 0 
 0 
LINE
 10 
 195.704809570313 
 20 
 171.8080078125 
 30 
 0 
 11 
 196 
 21 
 171.7 
 31 
 0 
 0 
LINE
 10 
 196 
 20 
 171.7 
 30 
 0 
 11 
 195.396789550781 
 21 
 171.491198730469 
 31 
 0 
 0 
LINE
 10 
 195.396789550781 
 20 
 171.491198730469 
 30 
 0 
 11 
 193.718408203125 
 21 
 171.13359375 
 31 
 0 
 0 
LINE
 10 
 193.718408203125 
 20 
 171.13359375 
 30 
 0 
 11 
 191.161608886719 
 21 
 170.67041015625 
 31 
 0 
 0 
LINE
 10 
 191.161608886719 
 20 
 170.67041015625 
 30 
 0 
 11 
 187.923205566406 
 21 
 170.144799804688 
 31 
 0 
 0 
LINE
 10 
 187.923205566406 
 20 
 170.144799804688 
 30 
 0 
 11 
 184.2 
 21 
 169.6 
 31 
 0 
 0 
LINE
 10 
 184.2 
 20 
 169.6 
 30 
 0 
 11 
 180.423193359375 
 21 
 168.983190917969 
 31 
 0 
 0 
LINE
 10 
 180.423193359375 
 20 
 168.983190917969 
 30 
 0 
 11 
 176.929602050781 
 21 
 168.361608886719 
 31 
 0 
 0 
LINE
 10 
 176.929602050781 
 20 
 168.361608886719 
 30 
 0 
 11 
 173.954406738281 
 21 
 167.778393554688 
 31 
 0 
 0 
LINE
 10 
 173.954406738281 
 20 
 167.778393554688 
 30 
 0 
 11 
 171.732800292969 
 21 
 167.276806640625 
 31 
 0 
 0 
LINE
 10 
 171.732800292969 
 20 
 167.276806640625 
 30 
 0 
 11 
 170.5 
 21 
 166.9 
 31 
 0 
 0 
LINE
 10 
 170.5 
 20 
 166.9 
 30 
 0 
 11 
 169.585595703125 
 21 
 166.576794433594 
 31 
 0 
 0 
LINE
 10 
 169.585595703125 
 20 
 166.576794433594 
 30 
 0 
 11 
 168.248803710938 
 21 
 166.330407714844 
 31 
 0 
 0 
LINE
 10 
 168.248803710938 
 20 
 166.330407714844 
 30 
 0 
 11 
 166.619201660156 
 21 
 166.165600585938 
 31 
 0 
 0 
LINE
 10 
 166.619201660156 
 20 
 166.165600585938 
 30 
 0 
 11 
 164.826403808594 
 21 
 166.08720703125 
 31 
 0 
 0 
LINE
 10 
 164.826403808594 
 20 
 166.08720703125 
 30 
 0 
 11 
 163 
 21 
 166.1 
 31 
 0 
 0 
LINE
 10 
 163 
 20 
 166.1 
 30 
 0 
 11 
 154.663195800781 
 21 
 166.273583984375 
 31 
 0 
 0 
LINE
 10 
 154.663195800781 
 20 
 166.273583984375 
 30 
 0 
 11 
 146.34560546875 
 21 
 166.216809082031 
 31 
 0 
 0 
LINE
 10 
 146.34560546875 
 20 
 166.216809082031 
 30 
 0 
 11 
 139.146411132813 
 21 
 165.963195800781 
 31 
 0 
 0 
LINE
 10 
 139.146411132813 
 20 
 165.963195800781 
 30 
 0 
 11 
 134.164807128906 
 21 
 165.546398925781 
 31 
 0 
 0 
LINE
 10 
 134.164807128906 
 20 
 165.546398925781 
 30 
 0 
 11 
 132.5 
 21 
 165 
 31 
 0 
 0 
LINE
 10 
 132.5 
 20 
 165 
 30 
 0 
 11 
 132.621594238281 
 21 
 164.703991699219 
 31 
 0 
 0 
LINE
 10 
 132.621594238281 
 20 
 164.703991699219 
 30 
 0 
 11 
 132.632800292969 
 21 
 164.432006835938 
 31 
 0 
 0 
LINE
 10 
 132.632800292969 
 20 
 164.432006835938 
 30 
 0 
 11 
 132.543200683594 
 21 
 164.207995605469 
 31 
 0 
 0 
LINE
 10 
 132.543200683594 
 20 
 164.207995605469 
 30 
 0 
 11 
 132.36240234375 
 21 
 164.056005859375 
 31 
 0 
 0 
LINE
 10 
 132.36240234375 
 20 
 164.056005859375 
 30 
 0 
 11 
 132.1 
 21 
 164 
 31 
 0 
 0 
LINE
 10 
 132.1 
 20 
 164 
 30 
 0 
 11 
 131.755187988281 
 21 
 164.045593261719 
 31 
 0 
 0 
LINE
 10 
 131.755187988281 
 20 
 164.045593261719 
 30 
 0 
 11 
 131.453601074219 
 21 
 164.172802734375 
 31 
 0 
 0 
LINE
 10 
 131.453601074219 
 20 
 164.172802734375 
 30 
 0 
 11 
 131.214404296875 
 21 
 164.367211914063 
 31 
 0 
 0 
LINE
 10 
 131.214404296875 
 20 
 164.367211914063 
 30 
 0 
 11 
 131.056799316406 
 21 
 164.614404296875 
 31 
 0 
 0 
LINE
 10 
 131.056799316406 
 20 
 164.614404296875 
 30 
 0 
 11 
 131 
 21 
 164.9 
 31 
 0 
 0 
LINE
 10 
 131 
 20 
 164.9 
 30 
 0 
 11 
 130.88720703125 
 21 
 165.162390136719 
 31 
 0 
 0 
LINE
 10 
 130.88720703125 
 20 
 165.162390136719 
 30 
 0 
 11 
 130.577600097656 
 21 
 165.343200683594 
 31 
 0 
 0 
LINE
 10 
 130.577600097656 
 20 
 165.343200683594 
 30 
 0 
 11 
 130.114404296875 
 21 
 165.432788085938 
 31 
 0 
 0 
LINE
 10 
 130.114404296875 
 20 
 165.432788085938 
 30 
 0 
 11 
 129.540808105469 
 21 
 165.421606445313 
 31 
 0 
 0 
LINE
 10 
 129.540808105469 
 20 
 165.421606445313 
 30 
 0 
 11 
 128.9 
 21 
 165.3 
 31 
 0 
 0 
LINE
 10 
 128.9 
 20 
 165.3 
 30 
 0 
 11 
 127.9751953125 
 21 
 165.028796386719 
 31 
 0 
 0 
LINE
 10 
 127.9751953125 
 20 
 165.028796386719 
 30 
 0 
 11 
 127.477600097656 
 21 
 164.786401367188 
 31 
 0 
 0 
LINE
 10 
 127.477600097656 
 20 
 164.786401367188 
 30 
 0 
 11 
 127.402404785156 
 21 
 164.52958984375 
 31 
 0 
 0 
LINE
 10 
 127.402404785156 
 20 
 164.52958984375 
 30 
 0 
 11 
 127.744799804688 
 21 
 164.215197753906 
 31 
 0 
 0 
LINE
 10 
 127.744799804688 
 20 
 164.215197753906 
 30 
 0 
 11 
 128.5 
 21 
 163.8 
 31 
 0 
 0 
LINE
 10 
 128.5 
 20 
 163.8 
 30 
 0 
 11 
 129.112805175781 
 21 
 163.488793945313 
 31 
 0 
 0 
LINE
 10 
 129.112805175781 
 20 
 163.488793945313 
 30 
 0 
 11 
 129.826403808594 
 21 
 163.278405761719 
 31 
 0 
 0 
LINE
 10 
 129.826403808594 
 20 
 163.278405761719 
 30 
 0 
 11 
 130.573596191406 
 21 
 163.173596191406 
 31 
 0 
 0 
LINE
 10 
 130.573596191406 
 20 
 163.173596191406 
 30 
 0 
 11 
 131.28720703125 
 21 
 163.17919921875 
 31 
 0 
 0 
LINE
 10 
 131.28720703125 
 20 
 163.17919921875 
 30 
 0 
 11 
 131.9 
 21 
 163.3 
 31 
 0 
 0 
LINE
 10 
 131.9 
 20 
 163.3 
 30 
 0 
 11 
 132.561596679688 
 21 
 163.372790527344 
 31 
 0 
 0 
LINE
 10 
 132.561596679688 
 20 
 163.372790527344 
 30 
 0 
 11 
 133.304797363281 
 21 
 163.354406738281 
 31 
 0 
 0 
LINE
 10 
 133.304797363281 
 20 
 163.354406738281 
 30 
 0 
 11 
 134.067199707031 
 21 
 163.249609375 
 31 
 0 
 0 
LINE
 10 
 134.067199707031 
 20 
 163.249609375 
 30 
 0 
 11 
 134.786401367188 
 21 
 163.063208007813 
 31 
 0 
 0 
LINE
 10 
 134.786401367188 
 20 
 163.063208007813 
 30 
 0 
 11 
 135.4 
 21 
 162.8 
 31 
 0 
 0 
LINE
 10 
 135.4 
 20 
 162.8 
 30 
 0 
 11 
 135.988793945313 
 21 
 162.523986816406 
 31 
 0 
 0 
LINE
 10 
 135.988793945313 
 20 
 162.523986816406 
 30 
 0 
 11 
 136.438403320313 
 21 
 162.416015625 
 31 
 0 
 0 
LINE
 10 
 136.438403320313 
 20 
 162.416015625 
 30 
 0 
 11 
 136.753601074219 
 21 
 162.476000976563 
 31 
 0 
 0 
LINE
 10 
 136.753601074219 
 20 
 162.476000976563 
 30 
 0 
 11 
 136.939208984375 
 21 
 162.70400390625 
 31 
 0 
 0 
LINE
 10 
 136.939208984375 
 20 
 162.70400390625 
 30 
 0 
 11 
 137 
 21 
 163.1 
 31 
 0 
 0 
LINE
 10 
 137 
 20 
 163.1 
 30 
 0 
 11 
 137.061584472656 
 21 
 163.472802734375 
 31 
 0 
 0 
LINE
 10 
 137.061584472656 
 20 
 163.472802734375 
 30 
 0 
 11 
 137.252795410156 
 21 
 163.634399414063 
 31 
 0 
 0 
LINE
 10 
 137.252795410156 
 20 
 163.634399414063 
 30 
 0 
 11 
 137.583203125 
 21 
 163.589599609375 
 31 
 0 
 0 
LINE
 10 
 137.583203125 
 20 
 163.589599609375 
 30 
 0 
 11 
 138.06240234375 
 21 
 163.343200683594 
 31 
 0 
 0 
LINE
 10 
 138.06240234375 
 20 
 163.343200683594 
 30 
 0 
 11 
 138.7 
 21 
 162.9 
 31 
 0 
 0 
LINE
 10 
 138.7 
 20 
 162.9 
 30 
 0 
 11 
 140.079187011719 
 21 
 162.332788085938 
 31 
 0 
 0 
LINE
 10 
 140.079187011719 
 20 
 162.332788085938 
 30 
 0 
 11 
 142.989599609375 
 21 
 161.938391113281 
 31 
 0 
 0 
LINE
 10 
 142.989599609375 
 20 
 161.938391113281 
 30 
 0 
 11 
 147.930395507813 
 21 
 161.697607421875 
 31 
 0 
 0 
LINE
 10 
 147.930395507813 
 20 
 161.697607421875 
 30 
 0 
 11 
 155.400805664063 
 21 
 161.5912109375 
 31 
 0 
 0 
LINE
 10 
 155.400805664063 
 20 
 161.5912109375 
 30 
 0 
 11 
 165.9 
 21 
 161.6 
 31 
 0 
 0 
LINE
 10 
 165.9 
 20 
 161.6 
 30 
 0 
 11 
 178.080798339844 
 21 
 161.692785644531 
 31 
 0 
 0 
LINE
 10 
 178.080798339844 
 20 
 161.692785644531 
 30 
 0 
 11 
 186.57041015625 
 21 
 161.934399414063 
 31 
 0 
 0 
LINE
 10 
 186.57041015625 
 20 
 161.934399414063 
 30 
 0 
 11 
 193.029602050781 
 21 
 162.449597167969 
 31 
 0 
 0 
LINE
 10 
 193.029602050781 
 20 
 162.449597167969 
 30 
 0 
 11 
 199.119201660156 
 21 
 163.363208007813 
 31 
 0 
 0 
LINE
 10 
 199.119201660156 
 20 
 163.363208007813 
 30 
 0 
 11 
 206.5 
 21 
 164.8 
 31 
 0 
 0 
LINE
 10 
 206.5 
 20 
 164.8 
 30 
 0 
 11 
 217.206396484375 
 21 
 167.244799804688 
 31 
 0 
 0 
LINE
 10 
 217.206396484375 
 20 
 167.244799804688 
 30 
 0 
 11 
 228.383203125 
 21 
 170.294396972656 
 31 
 0 
 0 
LINE
 10 
 228.383203125 
 20 
 170.294396972656 
 30 
 0 
 11 
 239.03681640625 
 21 
 173.6416015625 
 31 
 0 
 0 
LINE
 10 
 239.03681640625 
 20 
 173.6416015625 
 30 
 0 
 11 
 248.173608398438 
 21 
 176.979211425781 
 31 
 0 
 0 
LINE
 10 
 248.173608398438 
 20 
 176.979211425781 
 30 
 0 
 11 
 254.8 
 21 
 180 
 31 
 0 
 0 
LINE
 10 
 254.8 
 20 
 180 
 30 
 0 
 11 
 256.81279296875 
 21 
 181.003198242188 
 31 
 0 
 0 
LINE
 10 
 256.81279296875 
 20 
 181.003198242188 
 30 
 0 
 11 
 258.830395507813 
 21 
 181.833605957031 
 31 
 0 
 0 
LINE
 10 
 258.830395507813 
 20 
 181.833605957031 
 30 
 0 
 11 
 260.761596679688 
 21 
 182.46240234375 
 31 
 0 
 0 
LINE
 10 
 260.761596679688 
 20 
 182.46240234375 
 30 
 0 
 11 
 262.515209960938 
 21 
 182.860803222656 
 31 
 0 
 0 
LINE
 10 
 262.515209960938 
 20 
 182.860803222656 
 30 
 0 
 11 
 264 
 21 
 183 
 31 
 0 
 0 
LINE
 10 
 264 
 20 
 183 
 30 
 0 
 11 
 265.356005859375 
 21 
 183.092797851563 
 31 
 0 
 0 
LINE
 10 
 265.356005859375 
 20 
 183.092797851563 
 30 
 0 
 11 
 266.736010742188 
 21 
 183.3583984375 
 31 
 0 
 0 
LINE
 10 
 266.736010742188 
 20 
 183.3583984375 
 30 
 0 
 11 
 268.068017578125 
 21 
 183.777612304688 
 31 
 0 
 0 
LINE
 10 
 268.068017578125 
 20 
 183.777612304688 
 30 
 0 
 11 
 269.280004882813 
 21 
 184.331201171875 
 31 
 0 
 0 
LINE
 10 
 269.280004882813 
 20 
 184.331201171875 
 30 
 0 
 11 
 270.3 
 21 
 185 
 31 
 0 
 0 
LINE
 10 
 270.3 
 20 
 185 
 30 
 0 
 11 
 271.255981445313 
 21 
 185.630395507813 
 31 
 0 
 0 
LINE
 10 
 271.255981445313 
 20 
 185.630395507813 
 30 
 0 
 11 
 272.380004882813 
 21 
 186.179211425781 
 31 
 0 
 0 
LINE
 10 
 272.380004882813 
 20 
 186.179211425781 
 30 
 0 
 11 
 273.576000976563 
 21 
 186.612805175781 
 31 
 0 
 0 
LINE
 10 
 273.576000976563 
 20 
 186.612805175781 
 30 
 0 
 11 
 274.747998046875 
 21 
 186.897607421875 
 31 
 0 
 0 
LINE
 10 
 274.747998046875 
 20 
 186.897607421875 
 30 
 0 
 11 
 275.8 
 21 
 187 
 31 
 0 
 0 
LINE
 10 
 275.8 
 20 
 187 
 30 
 0 
 11 
 276.952001953125 
 21 
 187.115991210938 
 31 
 0 
 0 
LINE
 10 
 276.952001953125 
 20 
 187.115991210938 
 30 
 0 
 11 
 278.2 
 21 
 187.448010253906 
 31 
 0 
 0 
LINE
 10 
 278.2 
 20 
 187.448010253906 
 30 
 0 
 11 
 279.471997070313 
 21 
 187.971997070313 
 31 
 0 
 0 
LINE
 10 
 279.471997070313 
 20 
 187.971997070313 
 30 
 0 
 11 
 280.69599609375 
 21 
 188.664001464844 
 31 
 0 
 0 
LINE
 10 
 280.69599609375 
 20 
 188.664001464844 
 30 
 0 
 11 
 281.8 
 21 
 189.5 
 31 
 0 
 0 
LINE
 10 
 281.8 
 20 
 189.5 
 30 
 0 
 11 
 283.580786132813 
 21 
 190.919189453125 
 31 
 0 
 0 
LINE
 10 
 283.580786132813 
 20 
 190.919189453125 
 30 
 0 
 11 
 284.790405273438 
 21 
 191.709606933594 
 31 
 0 
 0 
LINE
 10 
 284.790405273438 
 20 
 191.709606933594 
 30 
 0 
 11 
 285.52958984375 
 21 
 191.890393066406 
 31 
 0 
 0 
LINE
 10 
 285.52958984375 
 20 
 191.890393066406 
 30 
 0 
 11 
 285.89921875 
 21 
 191.480798339844 
 31 
 0 
 0 
LINE
 10 
 285.89921875 
 20 
 191.480798339844 
 30 
 0 
 11 
 286 
 21 
 190.5 
 31 
 0 
 0 
LINE
 10 
 286 
 20 
 190.5 
 30 
 0 
 11 
 286.056005859375 
 21 
 190.036791992188 
 31 
 0 
 0 
LINE
 10 
 286.056005859375 
 20 
 190.036791992188 
 30 
 0 
 11 
 286.2080078125 
 21 
 189.626403808594 
 31 
 0 
 0 
LINE
 10 
 286.2080078125 
 20 
 189.626403808594 
 30 
 0 
 11 
 286.432006835938 
 21 
 189.297595214844 
 31 
 0 
 0 
LINE
 10 
 286.432006835938 
 20 
 189.297595214844 
 30 
 0 
 11 
 286.70400390625 
 21 
 189.07919921875 
 31 
 0 
 0 
LINE
 10 
 286.70400390625 
 20 
 189.07919921875 
 30 
 0 
 11 
 287 
 21 
 189 
 31 
 0 
 0 
LINE
 10 
 287 
 20 
 189 
 30 
 0 
 11 
 287.629614257813 
 21 
 188.692797851563 
 31 
 0 
 0 
LINE
 10 
 287.629614257813 
 20 
 188.692797851563 
 30 
 0 
 11 
 288.7248046875 
 21 
 187.838403320313 
 31 
 0 
 0 
LINE
 10 
 288.7248046875 
 20 
 187.838403320313 
 30 
 0 
 11 
 290.175219726563 
 21 
 186.53759765625 
 31 
 0 
 0 
LINE
 10 
 290.175219726563 
 20 
 186.53759765625 
 30 
 0 
 11 
 291.87041015625 
 21 
 184.891198730469 
 31 
 0 
 0 
LINE
 10 
 291.87041015625 
 20 
 184.891198730469 
 30 
 0 
 11 
 293.7 
 21 
 183 
 31 
 0 
 0 
LINE
 10 
 293.7 
 20 
 183 
 30 
 0 
 11 
 295.495971679688 
 21 
 181.131201171875 
 31 
 0 
 0 
LINE
 10 
 295.495971679688 
 20 
 181.131201171875 
 30 
 0 
 11 
 297.1 
 21 
 179.54560546875 
 31 
 0 
 0 
LINE
 10 
 297.1 
 20 
 179.54560546875 
 30 
 0 
 11 
 298.416015625 
 21 
 178.334399414063 
 31 
 0 
 0 
LINE
 10 
 298.416015625 
 20 
 178.334399414063 
 30 
 0 
 11 
 299.347998046875 
 21 
 177.588806152344 
 31 
 0 
 0 
LINE
 10 
 299.347998046875 
 20 
 177.588806152344 
 30 
 0 
 11 
 299.8 
 21 
 177.4 
 31 
 0 
 0 
LINE
 10 
 299.8 
 20 
 177.4 
 30 
 0 
 11 
 299.703198242188 
 21 
 177.86240234375 
 31 
 0 
 0 
LINE
 10 
 299.703198242188 
 20 
 177.86240234375 
 30 
 0 
 11 
 299.217602539063 
 21 
 178.819213867188 
 31 
 0 
 0 
LINE
 10 
 299.217602539063 
 20 
 178.819213867188 
 30 
 0 
 11 
 298.410424804688 
 21 
 180.164807128906 
 31 
 0 
 0 
LINE
 10 
 298.410424804688 
 20 
 180.164807128906 
 30 
 0 
 11 
 297.348803710938 
 21 
 181.793603515625 
 31 
 0 
 0 
LINE
 10 
 297.348803710938 
 20 
 181.793603515625 
 30 
 0 
 11 
 296.1 
 21 
 183.6 
 31 
 0 
 0 
LINE
 10 
 296.1 
 20 
 183.6 
 30 
 0 
 11 
 293.84716796875 
 21 
 186.898388671875 
 31 
 0 
 0 
LINE
 10 
 293.84716796875 
 20 
 186.898388671875 
 30 
 0 
 11 
 293.005615234375 
 21 
 188.98720703125 
 31 
 0 
 0 
LINE
 10 
 293.005615234375 
 20 
 188.98720703125 
 30 
 0 
 11 
 293.810400390625 
 21 
 190.216796875 
 31 
 0 
 0 
LINE
 10 
 293.810400390625 
 20 
 190.216796875 
 30 
 0 
 11 
 296.496801757813 
 21 
 190.937609863281 
 31 
 0 
 0 
LINE
 10 
 296.496801757813 
 20 
 190.937609863281 
 30 
 0 
 11 
 301.3 
 21 
 191.5 
 31 
 0 
 0 
LINE
 10 
 301.3 
 20 
 191.5 
 30 
 0 
 11 
 316.26318359375 
 21 
 193.165588378906 
 31 
 0 
 0 
LINE
 10 
 316.26318359375 
 20 
 193.165588378906 
 30 
 0 
 11 
 327.813598632813 
 21 
 194.52880859375 
 31 
 0 
 0 
LINE
 10 
 327.813598632813 
 20 
 194.52880859375 
 30 
 0 
 11 
 336.882421875 
 21 
 195.719189453125 
 31 
 0 
 0 
LINE
 10 
 336.882421875 
 20 
 195.719189453125 
 30 
 0 
 11 
 344.400805664063 
 21 
 196.86640625 
 31 
 0 
 0 
LINE
 10 
 344.400805664063 
 20 
 196.86640625 
 30 
 0 
 11 
 351.3 
 21 
 198.1 
 31 
 0 
 0 
LINE
 10 
 351.3 
 20 
 198.1 
 30 
 0 
 11 
 355.890380859375 
 21 
 198.869580078125 
 31 
 0 
 0 
LINE
 10 
 355.890380859375 
 20 
 198.869580078125 
 30 
 0 
 11 
 361.983227539063 
 21 
 199.696813964844 
 31 
 0 
 0 
LINE
 10 
 361.983227539063 
 20 
 199.696813964844 
 30 
 0 
 11 
 369.0408203125 
 21 
 200.519201660156 
 31 
 0 
 0 
LINE
 10 
 369.0408203125 
 20 
 200.519201660156 
 30 
 0 
 11 
 376.525610351563 
 21 
 201.274401855469 
 31 
 0 
 0 
LINE
 10 
 376.525610351563 
 20 
 201.274401855469 
 30 
 0 
 11 
 383.9 
 21 
 201.9 
 31 
 0 
 0 
LINE
 10 
 383.9 
 20 
 201.9 
 30 
 0 
 11 
 393.3 
 21 
 202.7 
 31 
 0 
 0 
LINE
 10 
 393.3 
 20 
 202.7 
 30 
 0 
 11 
 399.9 
 21 
 195.7 
 31 
 0 
 0 
LINE
 10 
 399.9 
 20 
 195.7 
 30 
 0 
 11 
 404.17998046875 
 21 
 191.547998046875 
 31 
 0 
 0 
LINE
 10 
 404.17998046875 
 20 
 191.547998046875 
 30 
 0 
 11 
 408.580004882813 
 21 
 188.164001464844 
 31 
 0 
 0 
LINE
 10 
 408.580004882813 
 20 
 188.164001464844 
 30 
 0 
 11 
 413.22001953125 
 21 
 185.476000976563 
 31 
 0 
 0 
LINE
 10 
 413.22001953125 
 20 
 185.476000976563 
 30 
 0 
 11 
 418.22001953125 
 21 
 183.411999511719 
 31 
 0 
 0 
LINE
 10 
 418.22001953125 
 20 
 183.411999511719 
 30 
 0 
 11 
 423.7 
 21 
 181.9 
 31 
 0 
 0 
LINE
 10 
 423.7 
 20 
 181.9 
 30 
 0 
 11 
 425.36474609375 
 21 
 181.471997070313 
 31 
 0 
 0 
LINE
 10 
 425.36474609375 
 20 
 181.471997070313 
 30 
 0 
 11 
 426.818408203125 
 21 
 181.043994140625 
 31 
 0 
 0 
LINE
 10 
 426.818408203125 
 20 
 181.043994140625 
 30 
 0 
 11 
 427.969580078125 
 21 
 180.640002441406 
 31 
 0 
 0 
LINE
 10 
 427.969580078125 
 20 
 180.640002441406 
 30 
 0 
 11 
 428.727197265625 
 21 
 180.284008789063 
 31 
 0 
 0 
LINE
 10 
 428.727197265625 
 20 
 180.284008789063 
 30 
 0 
 11 
 429 
 21 
 180 
 31 
 0 
 0 
LINE
 10 
 429 
 20 
 180 
 30 
 0 
 11 
 428.92080078125 
 21 
 179.719995117188 
 31 
 0 
 0 
LINE
 10 
 428.92080078125 
 20 
 179.719995117188 
 30 
 0 
 11 
 428.702392578125 
 21 
 179.272009277344 
 31 
 0 
 0 
LINE
 10 
 428.702392578125 
 20 
 179.272009277344 
 30 
 0 
 11 
 428.373583984375 
 21 
 178.70400390625 
 31 
 0 
 0 
LINE
 10 
 428.373583984375 
 20 
 178.70400390625 
 30 
 0 
 11 
 427.963232421875 
 21 
 178.064001464844 
 31 
 0 
 0 
LINE
 10 
 427.963232421875 
 20 
 178.064001464844 
 30 
 0 
 11 
 427.5 
 21 
 177.4 
 31 
 0 
 0 
LINE
 10 
 427.5 
 20 
 177.4 
 30 
 0 
 11 
 426.552783203125 
 21 
 175.786401367188 
 31 
 0 
 0 
LINE
 10 
 426.552783203125 
 20 
 175.786401367188 
 30 
 0 
 11 
 426.114404296875 
 21 
 174.091198730469 
 31 
 0 
 0 
LINE
 10 
 426.114404296875 
 20 
 174.091198730469 
 30 
 0 
 11 
 426.189599609375 
 21 
 172.352795410156 
 31 
 0 
 0 
LINE
 10 
 426.189599609375 
 20 
 172.352795410156 
 30 
 0 
 11 
 426.783203125 
 21 
 170.609606933594 
 31 
 0 
 0 
LINE
 10 
 426.783203125 
 20 
 170.609606933594 
 30 
 0 
 11 
 427.9 
 21 
 168.9 
 31 
 0 
 0 
LINE
 10 
 427.9 
 20 
 168.9 
 30 
 0 
 11 
 429.9 
 21 
 166.5 
 31 
 0 
 0 
LINE
 10 
 429.9 
 20 
 166.5 
 30 
 0 
 11 
 432.9 
 21 
 170 
 31 
 0 
 0 
LINE
 10 
 432.9 
 20 
 170 
 30 
 0 
 11 
 434.970361328125 
 21 
 172.100805664063 
 31 
 0 
 0 
LINE
 10 
 434.970361328125 
 20 
 172.100805664063 
 30 
 0 
 11 
 435.8072265625 
 21 
 172.262390136719 
 31 
 0 
 0 
LINE
 10 
 435.8072265625 
 20 
 172.262390136719 
 30 
 0 
 11 
 435.448779296875 
 21 
 170.633605957031 
 31 
 0 
 0 
LINE
 10 
 435.448779296875 
 20 
 170.633605957031 
 30 
 0 
 11 
 433.933642578125 
 21 
 167.363208007813 
 31 
 0 
 0 
LINE
 10 
 433.933642578125 
 20 
 167.363208007813 
 30 
 0 
 11 
 431.3 
 21 
 162.6 
 31 
 0 
 0 
LINE
 10 
 431.3 
 20 
 162.6 
 30 
 0 
 11 
 426.5 
 21 
 154.5 
 31 
 0 
 0 
LINE
 10 
 426.5 
 20 
 154.5 
 30 
 0 
 11 
 426.1 
 21 
 142.9 
 31 
 0 
 0 
LINE
 10 
 426.1 
 20 
 142.9 
 30 
 0 
 11 
 425.999169921875 
 21 
 137.709594726563 
 31 
 0 
 0 
LINE
 10 
 425.999169921875 
 20 
 137.709594726563 
 30 
 0 
 11 
 426.085595703125 
 21 
 133.944799804688 
 31 
 0 
 0 
LINE
 10 
 426.085595703125 
 20 
 133.944799804688 
 30 
 0 
 11 
 426.402392578125 
 21 
 131.135192871094 
 31 
 0 
 0 
LINE
 10 
 426.402392578125 
 20 
 131.135192871094 
 30 
 0 
 11 
 426.992822265625 
 21 
 128.810400390625 
 31 
 0 
 0 
LINE
 10 
 426.992822265625 
 20 
 128.810400390625 
 30 
 0 
 11 
 427.9 
 21 
 126.5 
 31 
 0 
 0 
LINE
 10 
 427.9 
 20 
 126.5 
 30 
 0 
 11 
 429.5416015625 
 21 
 123.476794433594 
 31 
 0 
 0 
LINE
 10 
 429.5416015625 
 20 
 123.476794433594 
 30 
 0 
 11 
 431.120849609375 
 21 
 122.2583984375 
 31 
 0 
 0 
LINE
 10 
 431.120849609375 
 20 
 122.2583984375 
 30 
 0 
 11 
 432.839208984375 
 21 
 122.921606445313 
 31 
 0 
 0 
LINE
 10 
 432.839208984375 
 20 
 122.921606445313 
 30 
 0 
 11 
 434.898388671875 
 21 
 125.543200683594 
 31 
 0 
 0 
LINE
 10 
 434.898388671875 
 20 
 125.543200683594 
 30 
 0 
 11 
 437.5 
 21 
 130.2 
 31 
 0 
 0 
LINE
 10 
 437.5 
 20 
 130.2 
 30 
 0 
 11 
 438.875146484375 
 21 
 132.739196777344 
 31 
 0 
 0 
LINE
 10 
 438.875146484375 
 20 
 132.739196777344 
 30 
 0 
 11 
 440.293603515625 
 21 
 135.201599121094 
 31 
 0 
 0 
LINE
 10 
 440.293603515625 
 20 
 135.201599121094 
 30 
 0 
 11 
 441.65439453125 
 21 
 137.414404296875 
 31 
 0 
 0 
LINE
 10 
 441.65439453125 
 20 
 137.414404296875 
 30 
 0 
 11 
 442.8568359375 
 21 
 139.204809570313 
 31 
 0 
 0 
LINE
 10 
 442.8568359375 
 20 
 139.204809570313 
 30 
 0 
 11 
 443.8 
 21 
 140.4 
 31 
 0 
 0 
LINE
 10 
 443.8 
 20 
 140.4 
 30 
 0 
 11 
 444.489599609375 
 21 
 141.360803222656 
 31 
 0 
 0 
LINE
 10 
 444.489599609375 
 20 
 141.360803222656 
 30 
 0 
 11 
 445.092822265625 
 21 
 142.398400878906 
 31 
 0 
 0 
LINE
 10 
 445.092822265625 
 20 
 142.398400878906 
 30 
 0 
 11 
 445.57119140625 
 21 
 143.445593261719 
 31 
 0 
 0 
LINE
 10 
 445.57119140625 
 20 
 143.445593261719 
 30 
 0 
 11 
 445.88642578125 
 21 
 144.435205078125 
 31 
 0 
 0 
LINE
 10 
 445.88642578125 
 20 
 144.435205078125 
 30 
 0 
 11 
 446 
 21 
 145.3 
 31 
 0 
 0 
LINE
 10 
 446 
 20 
 145.3 
 30 
 0 
 11 
 446.05595703125 
 21 
 146.068798828125 
 31 
 0 
 0 
LINE
 10 
 446.05595703125 
 20 
 146.068798828125 
 30 
 0 
 11 
 446.2080078125 
 21 
 146.890405273438 
 31 
 0 
 0 
LINE
 10 
 446.2080078125 
 20 
 146.890405273438 
 30 
 0 
 11 
 446.43203125 
 21 
 147.697607421875 
 31 
 0 
 0 
LINE
 10 
 446.43203125 
 20 
 147.697607421875 
 30 
 0 
 11 
 446.70400390625 
 21 
 148.423205566406 
 31 
 0 
 0 
LINE
 10 
 446.70400390625 
 20 
 148.423205566406 
 30 
 0 
 11 
 447 
 21 
 149 
 31 
 0 
 0 
LINE
 10 
 447 
 20 
 149 
 30 
 0 
 11 
 447.631982421875 
 21 
 149.691186523438 
 31 
 0 
 0 
LINE
 10 
 447.631982421875 
 20 
 149.691186523438 
 30 
 0 
 11 
 448.28798828125 
 21 
 149.777612304688 
 31 
 0 
 0 
LINE
 10 
 448.28798828125 
 20 
 149.777612304688 
 30 
 0 
 11 
 449.088037109375 
 21 
 149.158410644531 
 31 
 0 
 0 
LINE
 10 
 449.088037109375 
 20 
 149.158410644531 
 30 
 0 
 11 
 450.152001953125 
 21 
 147.732800292969 
 31 
 0 
 0 
LINE
 10 
 450.152001953125 
 20 
 147.732800292969 
 30 
 0 
 11 
 451.6 
 21 
 145.4 
 31 
 0 
 0 
LINE
 10 
 451.6 
 20 
 145.4 
 30 
 0 
 11 
 452.094384765625 
 21 
 144.636791992188 
 31 
 0 
 0 
LINE
 10 
 452.094384765625 
 20 
 144.636791992188 
 30 
 0 
 11 
 452.60322265625 
 21 
 144.286413574219 
 31 
 0 
 0 
LINE
 10 
 452.60322265625 
 20 
 144.286413574219 
 30 
 0 
 11 
 453.284814453125 
 21 
 144.377600097656 
 31 
 0 
 0 
LINE
 10 
 453.284814453125 
 20 
 144.377600097656 
 30 
 0 
 11 
 454.297607421875 
 21 
 144.939208984375 
 31 
 0 
 0 
LINE
 10 
 454.297607421875 
 20 
 144.939208984375 
 30 
 0 
 11 
 455.8 
 21 
 146 
 31 
 0 
 0 
LINE
 10 
 455.8 
 20 
 146 
 30 
 0 
 11 
 456.797607421875 
 21 
 146.725598144531 
 31 
 0 
 0 
LINE
 10 
 456.797607421875 
 20 
 146.725598144531 
 30 
 0 
 11 
 457.708837890625 
 21 
 147.316796875 
 31 
 0 
 0 
LINE
 10 
 457.708837890625 
 20 
 147.316796875 
 30 
 0 
 11 
 458.47119140625 
 21 
 147.735192871094 
 31 
 0 
 0 
LINE
 10 
 458.47119140625 
 20 
 147.735192871094 
 30 
 0 
 11 
 459.022412109375 
 21 
 147.942395019531 
 31 
 0 
 0 
LINE
 10 
 459.022412109375 
 20 
 147.942395019531 
 30 
 0 
 11 
 459.3 
 21 
 147.9 
 31 
 0 
 0 
LINE
 10 
 459.3 
 20 
 147.9 
 30 
 0 
 11 
 459.56240234375 
 21 
 147.485595703125 
 31 
 0 
 0 
LINE
 10 
 459.56240234375 
 20 
 147.485595703125 
 30 
 0 
 11 
 460.175244140625 
 21 
 146.552807617188 
 31 
 0 
 0 
LINE
 10 
 460.175244140625 
 20 
 146.552807617188 
 30 
 0 
 11 
 461.0568359375 
 21 
 145.207202148438 
 31 
 0 
 0 
LINE
 10 
 461.0568359375 
 20 
 145.207202148438 
 30 
 0 
 11 
 462.1255859375 
 21 
 143.554406738281 
 31 
 0 
 0 
LINE
 10 
 462.1255859375 
 20 
 143.554406738281 
 30 
 0 
 11 
 463.3 
 21 
 141.7 
 31 
 0 
 0 
LINE
 10 
 463.3 
 20 
 141.7 
 30 
 0 
 11 
 464.57041015625 
 21 
 139.844799804688 
 31 
 0 
 0 
LINE
 10 
 464.57041015625 
 20 
 139.844799804688 
 30 
 0 
 11 
 465.8072265625 
 21 
 138.186401367188 
 31 
 0 
 0 
LINE
 10 
 465.8072265625 
 20 
 138.186401367188 
 30 
 0 
 11 
 466.92880859375 
 21 
 136.825598144531 
 31 
 0 
 0 
LINE
 10 
 466.92880859375 
 20 
 136.825598144531 
 30 
 0 
 11 
 467.85361328125 
 21 
 135.863195800781 
 31 
 0 
 0 
LINE
 10 
 467.85361328125 
 20 
 135.863195800781 
 30 
 0 
 11 
 468.5 
 21 
 135.4 
 31 
 0 
 0 
LINE
 10 
 468.5 
 20 
 135.4 
 30 
 0 
 11 
 469.22236328125 
 21 
 135.415197753906 
 31 
 0 
 0 
LINE
 10 
 469.22236328125 
 20 
 135.415197753906 
 30 
 0 
 11 
 470.271240234375 
 21 
 135.905603027344 
 31 
 0 
 0 
LINE
 10 
 470.271240234375 
 20 
 135.905603027344 
 30 
 0 
 11 
 471.588818359375 
 21 
 136.818408203125 
 31 
 0 
 0 
LINE
 10 
 471.588818359375 
 20 
 136.818408203125 
 30 
 0 
 11 
 473.117626953125 
 21 
 138.100805664063 
 31 
 0 
 0 
LINE
 10 
 473.117626953125 
 20 
 138.100805664063 
 30 
 0 
 11 
 474.8 
 21 
 139.7 
 31 
 0 
 0 
LINE
 10 
 474.8 
 20 
 139.7 
 30 
 0 
 11 
 476.972802734375 
 21 
 141.886401367188 
 31 
 0 
 0 
LINE
 10 
 476.972802734375 
 20 
 141.886401367188 
 30 
 0 
 11 
 478.76640625 
 21 
 143.391198730469 
 31 
 0 
 0 
LINE
 10 
 478.76640625 
 20 
 143.391198730469 
 30 
 0 
 11 
 480.473583984375 
 21 
 144.372802734375 
 31 
 0 
 0 
LINE
 10 
 480.473583984375 
 20 
 144.372802734375 
 30 
 0 
 11 
 482.38720703125 
 21 
 144.989599609375 
 31 
 0 
 0 
LINE
 10 
 482.38720703125 
 20 
 144.989599609375 
 30 
 0 
 11 
 484.8 
 21 
 145.4 
 31 
 0 
 0 
LINE
 10 
 484.8 
 20 
 145.4 
 30 
 0 
 11 
 490.1 
 21 
 146.1 
 31 
 0 
 0 
LINE
 10 
 490.1 
 20 
 146.1 
 30 
 0 
 11 
 497.8 
 21 
 139.7 
 31 
 0 
 0 
LINE
 10 
 497.8 
 20 
 139.7 
 30 
 0 
 11 
 514.9015625 
 21 
 127.023193359375 
 31 
 0 
 0 
LINE
 10 
 514.9015625 
 20 
 127.023193359375 
 30 
 0 
 11 
 533.42880859375 
 21 
 116.045593261719 
 31 
 0 
 0 
LINE
 10 
 533.42880859375 
 20 
 116.045593261719 
 30 
 0 
 11 
 552.815185546875 
 21 
 107.026403808594 
 31 
 0 
 0 
LINE
 10 
 552.815185546875 
 20 
 107.026403808594 
 30 
 0 
 11 
 572.49443359375 
 21 
 100.224798583984 
 31 
 0 
 0 
LINE
 10 
 572.49443359375 
 20 
 100.224798583984 
 30 
 0 
 11 
 591.9 
 21 
 95.9 
 31 
 0 
 0 
LINE
 10 
 591.9 
 20 
 95.9 
 30 
 0 
 11 
 594.510400390625 
 21 
 95.5632019042969 
 31 
 0 
 0 
LINE
 10 
 594.510400390625 
 20 
 95.5632019042969 
 30 
 0 
 11 
 596.67919921875 
 21 
 95.3896057128906 
 31 
 0 
 0 
LINE
 10 
 596.67919921875 
 20 
 95.3896057128906 
 30 
 0 
 11 
 598.372802734375 
 21 
 95.3744018554688 
 31 
 0 
 0 
LINE
 10 
 598.372802734375 
 20 
 95.3744018554688 
 30 
 0 
 11 
 599.5576171875 
 21 
 95.5127990722656 
 31 
 0 
 0 
LINE
 10 
 599.5576171875 
 20 
 95.5127990722656 
 30 
 0 
 11 
 600.2 
 21 
 95.8 
 31 
 0 
 0 
LINE
 10 
 600.2 
 20 
 95.8 
 30 
 0 
 11 
 600.285595703125 
 21 
 96.1583984375 
 31 
 0 
 0 
LINE
 10 
 600.285595703125 
 20 
 96.1583984375 
 30 
 0 
 11 
 599.82880859375 
 21 
 96.5072021484375 
 31 
 0 
 0 
LINE
 10 
 599.82880859375 
 20 
 96.5072021484375 
 30 
 0 
 11 
 598.839208984375 
 21 
 96.8368041992188 
 31 
 0 
 0 
LINE
 10 
 598.839208984375 
 20 
 96.8368041992188 
 30 
 0 
 11 
 597.326416015625 
 21 
 97.1376037597656 
 31 
 0 
 0 
LINE
 10 
 597.326416015625 
 20 
 97.1376037597656 
 30 
 0 
 11 
 595.3 
 21 
 97.4 
 31 
 0 
 0 
LINE
 10 
 595.3 
 20 
 97.4 
 30 
 0 
 11 
 580.3576171875 
 21 
 100.228790283203 
 31 
 0 
 0 
LINE
 10 
 580.3576171875 
 20 
 100.228790283203 
 30 
 0 
 11 
 563.93681640625 
 21 
 105.05439453125 
 31 
 0 
 0 
LINE
 10 
 563.93681640625 
 20 
 105.05439453125 
 30 
 0 
 11 
 547.247216796875 
 21 
 111.425598144531 
 31 
 0 
 0 
LINE
 10 
 547.247216796875 
 20 
 111.425598144531 
 30 
 0 
 11 
 531.498388671875 
 21 
 118.891198730469 
 31 
 0 
 0 
LINE
 10 
 531.498388671875 
 20 
 118.891198730469 
 30 
 0 
 11 
 517.9 
 21 
 127 
 31 
 0 
 0 
LINE
 10 
 517.9 
 20 
 127 
 30 
 0 
 11 
 511.83037109375 
 21 
 131.318383789063 
 31 
 0 
 0 
LINE
 10 
 511.83037109375 
 20 
 131.318383789063 
 30 
 0 
 11 
 505.727197265625 
 21 
 135.987194824219 
 31 
 0 
 0 
LINE
 10 
 505.727197265625 
 20 
 135.987194824219 
 30 
 0 
 11 
 500.468798828125 
 21 
 140.276806640625 
 31 
 0 
 0 
LINE
 10 
 500.468798828125 
 20 
 140.276806640625 
 30 
 0 
 11 
 496.93359375 
 21 
 143.457604980469 
 31 
 0 
 0 
LINE
 10 
 496.93359375 
 20 
 143.457604980469 
 30 
 0 
 11 
 496 
 21 
 144.8 
 31 
 0 
 0 
LINE
 10 
 496 
 20 
 144.8 
 30 
 0 
 11 
 496.86552734375 
 21 
 144.735998535156 
 31 
 0 
 0 
LINE
 10 
 496.86552734375 
 20 
 144.735998535156 
 30 
 0 
 11 
 498.7248046875 
 21 
 144.335998535156 
 31 
 0 
 0 
LINE
 10 
 498.7248046875 
 20 
 144.335998535156 
 30 
 0 
 11 
 501.37119140625 
 21 
 143.648010253906 
 31 
 0 
 0 
LINE
 10 
 501.37119140625 
 20 
 143.648010253906 
 30 
 0 
 11 
 504.598388671875 
 21 
 142.720007324219 
 31 
 0 
 0 
LINE
 10 
 504.598388671875 
 20 
 142.720007324219 
 30 
 0 
 11 
 508.2 
 21 
 141.6 
 31 
 0 
 0 
LINE
 10 
 508.2 
 20 
 141.6 
 30 
 0 
 11 
 512.382373046875 
 21 
 140.369592285156 
 31 
 0 
 0 
LINE
 10 
 512.382373046875 
 20 
 140.369592285156 
 30 
 0 
 11 
 517.227197265625 
 21 
 139.028796386719 
 31 
 0 
 0 
LINE
 10 
 517.227197265625 
 20 
 139.028796386719 
 30 
 0 
 11 
 522.3408203125 
 21 
 137.683190917969 
 31 
 0 
 0 
LINE
 10 
 522.3408203125 
 20 
 137.683190917969 
 30 
 0 
 11 
 527.32958984375 
 21 
 136.438403320313 
 31 
 0 
 0 
LINE
 10 
 527.32958984375 
 20 
 136.438403320313 
 30 
 0 
 11 
 531.8 
 21 
 135.4 
 31 
 0 
 0 
LINE
 10 
 531.8 
 20 
 135.4 
 30 
 0 
 11 
 539.418359375 
 21 
 133.973583984375 
 31 
 0 
 0 
LINE
 10 
 539.418359375 
 20 
 133.973583984375 
 30 
 0 
 11 
 545.683203125 
 21 
 133.300793457031 
 31 
 0 
 0 
LINE
 10 
 545.683203125 
 20 
 133.300793457031 
 30 
 0 
 11 
 551.088818359375 
 21 
 133.391198730469 
 31 
 0 
 0 
LINE
 10 
 551.088818359375 
 20 
 133.391198730469 
 30 
 0 
 11 
 556.12958984375 
 21 
 134.254406738281 
 31 
 0 
 0 
LINE
 10 
 556.12958984375 
 20 
 134.254406738281 
 30 
 0 
 11 
 561.3 
 21 
 135.9 
 31 
 0 
 0 
LINE
 10 
 561.3 
 20 
 135.9 
 30 
 0 
 11 
 566.2935546875 
 21 
 138.143994140625 
 31 
 0 
 0 
LINE
 10 
 566.2935546875 
 20 
 138.143994140625 
 30 
 0 
 11 
 570.384814453125 
 21 
 140.7 
 31 
 0 
 0 
LINE
 10 
 570.384814453125 
 20 
 140.7 
 30 
 0 
 11 
 573.79921875 
 21 
 143.784008789063 
 31 
 0 
 0 
LINE
 10 
 573.79921875 
 20 
 143.784008789063 
 30 
 0 
 11 
 576.76240234375 
 21 
 147.611999511719 
 31 
 0 
 0 
LINE
 10 
 576.76240234375 
 20 
 147.611999511719 
 30 
 0 
 11 
 579.5 
 21 
 152.4 
 31 
 0 
 0 
LINE
 10 
 579.5 
 20 
 152.4 
 30 
 0 
 11 
 581.2240234375 
 21 
 155.990393066406 
 31 
 0 
 0 
LINE
 10 
 581.2240234375 
 20 
 155.990393066406 
 30 
 0 
 11 
 582.39599609375 
 21 
 158.899206542969 
 31 
 0 
 0 
LINE
 10 
 582.39599609375 
 20 
 158.899206542969 
 30 
 0 
 11 
 583.13603515625 
 21 
 161.572802734375 
 31 
 0 
 0 
LINE
 10 
 583.13603515625 
 20 
 161.572802734375 
 30 
 0 
 11 
 583.564013671875 
 21 
 164.457604980469 
 31 
 0 
 0 
LINE
 10 
 583.564013671875 
 20 
 164.457604980469 
 30 
 0 
 11 
 583.8 
 21 
 168 
 31 
 0 
 0 
LINE
 10 
 583.8 
 20 
 168 
 30 
 0 
 11 
 583.931982421875 
 21 
 171.547985839844 
 31 
 0 
 0 
LINE
 10 
 583.931982421875 
 20 
 171.547985839844 
 30 
 0 
 11 
 583.8 
 21 
 174.352001953125 
 31 
 0 
 0 
LINE
 10 
 583.8 
 20 
 174.352001953125 
 30 
 0 
 11 
 583.33203125 
 21 
 176.892004394531 
 31 
 0 
 0 
LINE
 10 
 583.33203125 
 20 
 176.892004394531 
 30 
 0 
 11 
 582.456005859375 
 21 
 179.647998046875 
 31 
 0 
 0 
LINE
 10 
 582.456005859375 
 20 
 179.647998046875 
 30 
 0 
 11 
 581.1 
 21 
 183.1 
 31 
 0 
 0 
LINE
 10 
 581.1 
 20 
 183.1 
 30 
 0 
 11 
 579.943212890625 
 21 
 185.694384765625 
 31 
 0 
 0 
LINE
 10 
 579.943212890625 
 20 
 185.694384765625 
 30 
 0 
 11 
 578.5896484375 
 21 
 188.423205566406 
 31 
 0 
 0 
LINE
 10 
 578.5896484375 
 20 
 188.423205566406 
 30 
 0 
 11 
 577.15439453125 
 21 
 191.084802246094 
 31 
 0 
 0 
LINE
 10 
 577.15439453125 
 20 
 191.084802246094 
 30 
 0 
 11 
 575.752783203125 
 21 
 193.477600097656 
 31 
 0 
 0 
LINE
 10 
 575.752783203125 
 20 
 193.477600097656 
 30 
 0 
 11 
 574.5 
 21 
 195.4 
 31 
 0 
 0 
LINE
 10 
 574.5 
 20 
 195.4 
 30 
 0 
 11 
 573.427978515625 
 21 
 196.968798828125 
 31 
 0 
 0 
LINE
 10 
 573.427978515625 
 20 
 196.968798828125 
 30 
 0 
 11 
 572.523974609375 
 21 
 198.374401855469 
 31 
 0 
 0 
LINE
 10 
 572.523974609375 
 20 
 198.374401855469 
 30 
 0 
 11 
 571.83603515625 
 21 
 199.525598144531 
 31 
 0 
 0 
LINE
 10 
 571.83603515625 
 20 
 199.525598144531 
 30 
 0 
 11 
 571.41201171875 
 21 
 200.331201171875 
 31 
 0 
 0 
LINE
 10 
 571.41201171875 
 20 
 200.331201171875 
 30 
 0 
 11 
 571.3 
 21 
 200.7 
 31 
 0 
 0 
LINE
 10 
 571.3 
 20 
 200.7 
 30 
 0 
 11 
 571.96396484375 
 21 
 200.611193847656 
 31 
 0 
 0 
LINE
 10 
 571.96396484375 
 20 
 200.611193847656 
 30 
 0 
 11 
 573.58798828125 
 21 
 200.253601074219 
 31 
 0 
 0 
LINE
 10 
 573.58798828125 
 20 
 200.253601074219 
 30 
 0 
 11 
 575.97998046875 
 21 
 199.670397949219 
 31 
 0 
 0 
LINE
 10 
 575.97998046875 
 20 
 199.670397949219 
 30 
 0 
 11 
 578.947998046875 
 21 
 198.904809570313 
 31 
 0 
 0 
LINE
 10 
 578.947998046875 
 20 
 198.904809570313 
 30 
 0 
 11 
 582.3 
 21 
 198 
 31 
 0 
 0 
LINE
 10 
 582.3 
 20 
 198 
 30 
 0 
 11 
 589.316748046875 
 21 
 196.130407714844 
 31 
 0 
 0 
LINE
 10 
 589.316748046875 
 20 
 196.130407714844 
 30 
 0 
 11 
 594.106396484375 
 21 
 195.211206054688 
 31 
 0 
 0 
LINE
 10 
 594.106396484375 
 20 
 195.211206054688 
 30 
 0 
 11 
 597.29755859375 
 21 
 195.256799316406 
 31 
 0 
 0 
LINE
 10 
 597.29755859375 
 20 
 195.256799316406 
 30 
 0 
 11 
 599.519189453125 
 21 
 196.281604003906 
 31 
 0 
 0 
LINE
 10 
 599.519189453125 
 20 
 196.281604003906 
 30 
 0 
 11 
 601.4 
 21 
 198.3 
 31 
 0 
 0 
LINE
 10 
 601.4 
 20 
 198.3 
 30 
 0 
 11 
 603.453564453125 
 21 
 201.813586425781 
 31 
 0 
 0 
LINE
 10 
 603.453564453125 
 20 
 201.813586425781 
 30 
 0 
 11 
 605.516796875 
 21 
 206.752783203125 
 31 
 0 
 0 
LINE
 10 
 605.516796875 
 20 
 206.752783203125 
 30 
 0 
 11 
 607.383203125 
 21 
 212.455200195313 
 31 
 0 
 0 
LINE
 10 
 607.383203125 
 20 
 212.455200195313 
 30 
 0 
 11 
 608.846435546875 
 21 
 218.2583984375 
 31 
 0 
 0 
LINE
 10 
 608.846435546875 
 20 
 218.2583984375 
 30 
 0 
 11 
 609.7 
 21 
 223.5 
 31 
 0 
 0 
LINE
 10 
 609.7 
 20 
 223.5 
 30 
 0 
 11 
 610.183203125 
 21 
 227.90400390625 
 31 
 0 
 0 
LINE
 10 
 610.183203125 
 20 
 227.90400390625 
 30 
 0 
 11 
 610.829638671875 
 21 
 230.460009765625 
 31 
 0 
 0 
LINE
 10 
 610.829638671875 
 20 
 230.460009765625 
 30 
 0 
 11 
 611.8744140625 
 21 
 231.384008789063 
 31 
 0 
 0 
LINE
 10 
 611.8744140625 
 20 
 231.384008789063 
 30 
 0 
 11 
 613.55283203125 
 21 
 230.892016601563 
 31 
 0 
 0 
LINE
 10 
 613.55283203125 
 20 
 230.892016601563 
 30 
 0 
 11 
 616.1 
 21 
 229.2 
 31 
 0 
 0 
LINE
 10 
 616.1 
 20 
 229.2 
 30 
 0 
 11 
 618.68798828125 
 21 
 227.486376953125 
 31 
 0 
 0 
LINE
 10 
 618.68798828125 
 20 
 227.486376953125 
 30 
 0 
 11 
 620.86796875 
 21 
 226.435205078125 
 31 
 0 
 0 
LINE
 10 
 620.86796875 
 20 
 226.435205078125 
 30 
 0 
 11 
 622.54404296875 
 21 
 226.060791015625 
 31 
 0 
 0 
LINE
 10 
 622.54404296875 
 20 
 226.060791015625 
 30 
 0 
 11 
 623.62001953125 
 21 
 226.377612304688 
 31 
 0 
 0 
LINE
 10 
 623.62001953125 
 20 
 226.377612304688 
 30 
 0 
 11 
 624 
 21 
 227.4 
 31 
 0 
 0 
LINE
 10 
 624 
 20 
 227.4 
 30 
 0 
 11 
 624.409619140625 
 21 
 228.095190429688 
 31 
 0 
 0 
LINE
 10 
 624.409619140625 
 20 
 228.095190429688 
 30 
 0 
 11 
 625.548828125 
 21 
 228.497607421875 
 31 
 0 
 0 
LINE
 10 
 625.548828125 
 20 
 228.497607421875 
 30 
 0 
 11 
 627.283203125 
 21 
 228.602416992188 
 31 
 0 
 0 
LINE
 10 
 627.283203125 
 20 
 228.602416992188 
 30 
 0 
 11 
 629.47841796875 
 21 
 228.404809570313 
 31 
 0 
 0 
LINE
 10 
 629.47841796875 
 20 
 228.404809570313 
 30 
 0 
 11 
 632 
 21 
 227.9 
 31 
 0 
 0 
LINE
 10 
 632 
 20 
 227.9 
 30 
 0 
 11 
 632.590380859375 
 21 
 227.865600585938 
 31 
 0 
 0 
LINE
 10 
 632.590380859375 
 20 
 227.865600585938 
 30 
 0 
 11 
 633.051220703125 
 21 
 228.128784179688 
 31 
 0 
 0 
LINE
 10 
 633.051220703125 
 20 
 228.128784179688 
 30 
 0 
 11 
 633.396826171875 
 21 
 228.699194335938 
 31 
 0 
 0 
LINE
 10 
 633.396826171875 
 20 
 228.699194335938 
 30 
 0 
 11 
 633.6416015625 
 21 
 229.586401367188 
 31 
 0 
 0 
LINE
 10 
 633.6416015625 
 20 
 229.586401367188 
 30 
 0 
 11 
 633.8 
 21 
 230.8 
 31 
 0 
 0 
LINE
 10 
 633.8 
 20 
 230.8 
 30 
 0 
 11 
 634.0591796875 
 21 
 232.560815429688 
 31 
 0 
 0 
LINE
 10 
 634.0591796875 
 20 
 232.560815429688 
 30 
 0 
 11 
 634.43359375 
 21 
 233.5583984375 
 31 
 0 
 0 
LINE
 10 
 634.43359375 
 20 
 233.5583984375 
 30 
 0 
 11 
 635.038427734375 
 21 
 233.84560546875 
 31 
 0 
 0 
LINE
 10 
 635.038427734375 
 20 
 233.84560546875 
 30 
 0 
 11 
 635.988818359375 
 21 
 233.4751953125 
 31 
 0 
 0 
LINE
 10 
 635.988818359375 
 20 
 233.4751953125 
 30 
 0 
 11 
 637.4 
 21 
 232.5 
 31 
 0 
 0 
LINE
 10 
 637.4 
 20 
 232.5 
 30 
 0 
 11 
 638.1671875 
 21 
 232.036791992188 
 31 
 0 
 0 
LINE
 10 
 638.1671875 
 20 
 232.036791992188 
 30 
 0 
 11 
 639.097607421875 
 21 
 231.626416015625 
 31 
 0 
 0 
LINE
 10 
 639.097607421875 
 20 
 231.626416015625 
 30 
 0 
 11 
 640.114404296875 
 21 
 231.297607421875 
 31 
 0 
 0 
LINE
 10 
 640.114404296875 
 20 
 231.297607421875 
 30 
 0 
 11 
 641.1408203125 
 21 
 231.07919921875 
 31 
 0 
 0 
LINE
 10 
 641.1408203125 
 20 
 231.07919921875 
 30 
 0 
 11 
 642.1 
 21 
 231 
 31 
 0 
 0 
LINE
 10 
 642.1 
 20 
 231 
 30 
 0 
 11 
 643.276806640625 
 21 
 231.07041015625 
 31 
 0 
 0 
LINE
 10 
 643.276806640625 
 20 
 231.07041015625 
 30 
 0 
 11 
 644.0984375 
 21 
 231.323217773438 
 31 
 0 
 0 
LINE
 10 
 644.0984375 
 20 
 231.323217773438 
 30 
 0 
 11 
 644.641650390625 
 21 
 231.82080078125 
 31 
 0 
 0 
LINE
 10 
 644.641650390625 
 20 
 231.82080078125 
 30 
 0 
 11 
 644.983203125 
 21 
 232.625610351563 
 31 
 0 
 0 
LINE
 10 
 644.983203125 
 20 
 232.625610351563 
 30 
 0 
 11 
 645.2 
 21 
 233.8 
 31 
 0 
 0 
LINE
 10 
 645.2 
 20 
 233.8 
 30 
 0 
 11 
 645.4416015625 
 21 
 235.088818359375 
 31 
 0 
 0 
LINE
 10 
 645.4416015625 
 20 
 235.088818359375 
 30 
 0 
 11 
 646.100830078125 
 21 
 235.950390625 
 31 
 0 
 0 
LINE
 10 
 646.100830078125 
 20 
 235.950390625 
 30 
 0 
 11 
 647.61923828125 
 21 
 236.557592773438 
 31 
 0 
 0 
LINE
 10 
 647.61923828125 
 20 
 236.557592773438 
 30 
 0 
 11 
 650.438427734375 
 21 
 237.083203125 
 31 
 0 
 0 
LINE
 10 
 650.438427734375 
 20 
 237.083203125 
 30 
 0 
 11 
 655 
 21 
 237.7 
 31 
 0 
 0 
LINE
 10 
 655 
 20 
 237.7 
 30 
 0 
 11 
 658.268798828125 
 21 
 238.115991210938 
 31 
 0 
 0 
LINE
 10 
 658.268798828125 
 20 
 238.115991210938 
 30 
 0 
 11 
 661.662353515625 
 21 
 238.508032226563 
 31 
 0 
 0 
LINE
 10 
 661.662353515625 
 20 
 238.508032226563 
 30 
 0 
 11 
 664.921630859375 
 21 
 238.852001953125 
 31 
 0 
 0 
LINE
 10 
 664.921630859375 
 20 
 238.852001953125 
 30 
 0 
 11 
 667.78720703125 
 21 
 239.123999023438 
 31 
 0 
 0 
LINE
 10 
 667.78720703125 
 20 
 239.123999023438 
 30 
 0 
 11 
 670 
 21 
 239.3 
 31 
 0 
 0 
LINE
 10 
 670 
 20 
 239.3 
 30 
 0 
 11 
 680.94482421875 
 21 
 240.284790039063 
 31 
 0 
 0 
LINE
 10 
 680.94482421875 
 20 
 240.284790039063 
 30 
 0 
 11 
 691.27041015625 
 21 
 241.466430664063 
 31 
 0 
 0 
LINE
 10 
 691.27041015625 
 20 
 241.466430664063 
 30 
 0 
 11 
 699.9736328125 
 21 
 242.705590820313 
 31 
 0 
 0 
LINE
 10 
 699.9736328125 
 20 
 242.705590820313 
 30 
 0 
 11 
 706.051220703125 
 21 
 243.863208007813 
 31 
 0 
 0 
LINE
 10 
 706.051220703125 
 20 
 243.863208007813 
 30 
 0 
 11 
 708.5 
 21 
 244.8 
 31 
 0 
 0 
LINE
 10 
 708.5 
 20 
 244.8 
 30 
 0 
 11 
 708.613623046875 
 21 
 246.43837890625 
 31 
 0 
 0 
LINE
 10 
 708.613623046875 
 20 
 246.43837890625 
 30 
 0 
 11 
 707.872802734375 
 21 
 248.115209960938 
 31 
 0 
 0 
LINE
 10 
 707.872802734375 
 20 
 248.115209960938 
 30 
 0 
 11 
 706.455224609375 
 21 
 249.652807617188 
 31 
 0 
 0 
LINE
 10 
 706.455224609375 
 20 
 249.652807617188 
 30 
 0 
 11 
 704.538427734375 
 21 
 250.873608398438 
 31 
 0 
 0 
LINE
 10 
 704.538427734375 
 20 
 250.873608398438 
 30 
 0 
 11 
 702.3 
 21 
 251.6 
 31 
 0 
 0 
LINE
 10 
 702.3 
 20 
 251.6 
 30 
 0 
 11 
 694.817578125 
 21 
 252.078393554688 
 31 
 0 
 0 
LINE
 10 
 694.817578125 
 20 
 252.078393554688 
 30 
 0 
 11 
 682.880859375 
 21 
 251.923217773438 
 31 
 0 
 0 
LINE
 10 
 682.880859375 
 20 
 251.923217773438 
 30 
 0 
 11 
 669.115234375 
 21 
 251.268798828125 
 31 
 0 
 0 
LINE
 10 
 669.115234375 
 20 
 251.268798828125 
 30 
 0 
 11 
 656.146435546875 
 21 
 250.249609375 
 31 
 0 
 0 
LINE
 10 
 656.146435546875 
 20 
 250.249609375 
 30 
 0 
 11 
 646.6 
 21 
 249 
 31 
 0 
 0 
LINE
 10 
 646.6 
 20 
 249 
 30 
 0 
 11 
 643.17841796875 
 21 
 248.343994140625 
 31 
 0 
 0 
LINE
 10 
 643.17841796875 
 20 
 248.343994140625 
 30 
 0 
 11 
 640.131201171875 
 21 
 247.831982421875 
 31 
 0 
 0 
LINE
 10 
 640.131201171875 
 20 
 247.831982421875 
 30 
 0 
 11 
 637.664794921875 
 21 
 247.488012695313 
 31 
 0 
 0 
LINE
 10 
 637.664794921875 
 20 
 247.488012695313 
 30 
 0 
 11 
 635.985595703125 
 21 
 247.336010742188 
 31 
 0 
 0 
LINE
 10 
 635.985595703125 
 20 
 247.336010742188 
 30 
 0 
 11 
 635.3 
 21 
 247.4 
 31 
 0 
 0 
LINE
 10 
 635.3 
 20 
 247.4 
 30 
 0 
 11 
 635.21279296875 
 21 
 247.702392578125 
 31 
 0 
 0 
LINE
 10 
 635.21279296875 
 20 
 247.702392578125 
 30 
 0 
 11 
 635.298388671875 
 21 
 248.211206054688 
 31 
 0 
 0 
LINE
 10 
 635.298388671875 
 20 
 248.211206054688 
 30 
 0 
 11 
 635.53759765625 
 21 
 248.868798828125 
 31 
 0 
 0 
LINE
 10 
 635.53759765625 
 20 
 248.868798828125 
 30 
 0 
 11 
 635.911181640625 
 21 
 249.617602539063 
 31 
 0 
 0 
LINE
 10 
 635.911181640625 
 20 
 249.617602539063 
 30 
 0 
 11 
 636.4 
 21 
 250.4 
 31 
 0 
 0 
LINE
 10 
 636.4 
 20 
 250.4 
 30 
 0 
 11 
 637.167919921875 
 21 
 252.03515625 
 31 
 0 
 0 
LINE
 10 
 637.167919921875 
 20 
 252.03515625 
 30 
 0 
 11 
 637.743994140625 
 21 
 254.025610351563 
 31 
 0 
 0 
LINE
 10 
 637.743994140625 
 20 
 254.025610351563 
 30 
 0 
 11 
 638.056005859375 
 21 
 255.9583984375 
 31 
 0 
 0 
LINE
 10 
 638.056005859375 
 20 
 255.9583984375 
 30 
 0 
 11 
 638.031982421875 
 21 
 257.42080078125 
 31 
 0 
 0 
LINE
 10 
 638.031982421875 
 20 
 257.42080078125 
 30 
 0 
 11 
 637.6 
 21 
 258 
 31 
 0 
 0 
LINE
 10 
 637.6 
 20 
 258 
 30 
 0 
 11 
 637.264794921875 
 21 
 257.898388671875 
 31 
 0 
 0 
LINE
 10 
 637.264794921875 
 20 
 257.898388671875 
 30 
 0 
 11 
 636.550439453125 
 21 
 257.619213867188 
 31 
 0 
 0 
LINE
 10 
 636.550439453125 
 20 
 257.619213867188 
 30 
 0 
 11 
 635.53359375 
 21 
 257.200805664063 
 31 
 0 
 0 
LINE
 10 
 635.53359375 
 20 
 257.200805664063 
 30 
 0 
 11 
 634.2912109375 
 21 
 256.681616210938 
 31 
 0 
 0 
LINE
 10 
 634.2912109375 
 20 
 256.681616210938 
 30 
 0 
 11 
 632.9 
 21 
 256.1 
 31 
 0 
 0 
LINE
 10 
 632.9 
 20 
 256.1 
 30 
 0 
 11 
 630.380810546875 
 21 
 255.122387695313 
 31 
 0 
 0 
LINE
 10 
 630.380810546875 
 20 
 255.122387695313 
 30 
 0 
 11 
 627.842431640625 
 21 
 254.447216796875 
 31 
 0 
 0 
LINE
 10 
 627.842431640625 
 20 
 254.447216796875 
 30 
 0 
 11 
 625.073583984375 
 21 
 254.040795898438 
 31 
 0 
 0 
LINE
 10 
 625.073583984375 
 20 
 254.040795898438 
 30 
 0 
 11 
 621.86318359375 
 21 
 253.869604492188 
 31 
 0 
 0 
LINE
 10 
 621.86318359375 
 20 
 253.869604492188 
 30 
 0 
 11 
 618 
 21 
 253.9 
 31 
 0 
 0 
LINE
 10 
 618 
 20 
 253.9 
 30 
 0 
 11 
 614.6 
 21 
 254 
 31 
 0 
 0 
LINE
 10 
 614.6 
 20 
 254 
 30 
 0 
 11 
 617 
 21 
 255.7 
 31 
 0 
 0 
LINE
 10 
 617 
 20 
 255.7 
 30 
 0 
 11 
 619.811962890625 
 21 
 257.751977539063 
 31 
 0 
 0 
LINE
 10 
 619.811962890625 
 20 
 257.751977539063 
 30 
 0 
 11 
 622.288037109375 
 21 
 259.971997070313 
 31 
 0 
 0 
LINE
 10 
 622.288037109375 
 20 
 259.971997070313 
 30 
 0 
 11 
 624.3080078125 
 21 
 262.215991210938 
 31 
 0 
 0 
LINE
 10 
 624.3080078125 
 20 
 262.215991210938 
 30 
 0 
 11 
 625.752001953125 
 21 
 264.339990234375 
 31 
 0 
 0 
LINE
 10 
 625.752001953125 
 20 
 264.339990234375 
 30 
 0 
 11 
 626.5 
 21 
 266.2 
 31 
 0 
 0 
LINE
 10 
 626.5 
 20 
 266.2 
 30 
 0 
 11 
 626.458349609375 
 21 
 268.969580078125 
 31 
 0 
 0 
LINE
 10 
 626.458349609375 
 20 
 268.969580078125 
 30 
 0 
 11 
 625.4232421875 
 21 
 272.492822265625 
 31 
 0 
 0 
LINE
 10 
 625.4232421875 
 20 
 272.492822265625 
 30 
 0 
 11 
 623.648828125 
 21 
 276.251220703125 
 31 
 0 
 0 
LINE
 10 
 623.648828125 
 20 
 276.251220703125 
 30 
 0 
 11 
 621.389599609375 
 21 
 279.726416015625 
 31 
 0 
 0 
LINE
 10 
 621.389599609375 
 20 
 279.726416015625 
 30 
 0 
 11 
 618.9 
 21 
 282.4 
 31 
 0 
 0 
LINE
 10 
 618.9 
 20 
 282.4 
 30 
 0 
 11 
 617.983935546875 
 21 
 283.243188476563 
 31 
 0 
 0 
LINE
 10 
 617.983935546875 
 20 
 283.243188476563 
 30 
 0 
 11 
 617.188037109375 
 21 
 284.0576171875 
 31 
 0 
 0 
LINE
 10 
 617.188037109375 
 20 
 284.0576171875 
 30 
 0 
 11 
 616.560009765625 
 21 
 284.790405273438 
 31 
 0 
 0 
LINE
 10 
 616.560009765625 
 20 
 284.790405273438 
 30 
 0 
 11 
 616.147998046875 
 21 
 285.388818359375 
 31 
 0 
 0 
LINE
 10 
 616.147998046875 
 20 
 285.388818359375 
 30 
 0 
 11 
 616 
 21 
 285.8 
 31 
 0 
 0 
LINE
 10 
 616 
 20 
 285.8 
 30 
 0 
 11 
 615.648779296875 
 21 
 286.620776367188 
 31 
 0 
 0 
LINE
 10 
 615.648779296875 
 20 
 286.620776367188 
 30 
 0 
 11 
 614.774365234375 
 21 
 287.710424804688 
 31 
 0 
 0 
LINE
 10 
 614.774365234375 
 20 
 287.710424804688 
 30 
 0 
 11 
 613.64560546875 
 21 
 288.809619140625 
 31 
 0 
 0 
LINE
 10 
 613.64560546875 
 20 
 288.809619140625 
 30 
 0 
 11 
 612.531201171875 
 21 
 289.659204101563 
 31 
 0 
 0 
LINE
 10 
 612.531201171875 
 20 
 289.659204101563 
 30 
 0 
 11 
 611.7 
 21 
 290 
 31 
 0 
 0 
LINE
 10 
 611.7 
 20 
 290 
 30 
 0 
 11 
 611.473583984375 
 21 
 289.8751953125 
 31 
 0 
 0 
LINE
 10 
 611.473583984375 
 20 
 289.8751953125 
 30 
 0 
 11 
 611.280810546875 
 21 
 289.52958984375 
 31 
 0 
 0 
LINE
 10 
 611.280810546875 
 20 
 289.52958984375 
 30 
 0 
 11 
 611.131201171875 
 21 
 289.006396484375 
 31 
 0 
 0 
LINE
 10 
 611.131201171875 
 20 
 289.006396484375 
 30 
 0 
 11 
 611.034423828125 
 21 
 288.348803710938 
 31 
 0 
 0 
LINE
 10 
 611.034423828125 
 20 
 288.348803710938 
 30 
 0 
 11 
 611 
 21 
 287.6 
 31 
 0 
 0 
LINE
 10 
 611 
 20 
 287.6 
 30 
 0 
 11 
 610.115234375 
 21 
 284.752783203125 
 31 
 0 
 0 
LINE
 10 
 610.115234375 
 20 
 284.752783203125 
 30 
 0 
 11 
 607.809619140625 
 21 
 281.07041015625 
 31 
 0 
 0 
LINE
 10 
 607.809619140625 
 20 
 281.07041015625 
 30 
 0 
 11 
 604.60634765625 
 21 
 277.181591796875 
 31 
 0 
 0 
LINE
 10 
 604.60634765625 
 20 
 277.181591796875 
 30 
 0 
 11 
 601.02880859375 
 21 
 273.715209960938 
 31 
 0 
 0 
LINE
 10 
 601.02880859375 
 20 
 273.715209960938 
 30 
 0 
 11 
 597.6 
 21 
 271.3 
 31 
 0 
 0 
LINE
 10 
 597.6 
 20 
 271.3 
 30 
 0 
 11 
 594.399951171875 
 21 
 270.22958984375 
 31 
 0 
 0 
LINE
 10 
 594.399951171875 
 20 
 270.22958984375 
 30 
 0 
 11 
 590.28798828125 
 21 
 269.768823242188 
 31 
 0 
 0 
LINE
 10 
 590.28798828125 
 20 
 269.768823242188 
 30 
 0 
 11 
 585.5759765625 
 21 
 269.903198242188 
 31 
 0 
 0 
LINE
 10 
 585.5759765625 
 20 
 269.903198242188 
 30 
 0 
 11 
 580.576025390625 
 21 
 270.618408203125 
 31 
 0 
 0 
LINE
 10 
 580.576025390625 
 20 
 270.618408203125 
 30 
 0 
 11 
 575.6 
 21 
 271.9 
 31 
 0 
 0 
LINE
 10 
 575.6 
 20 
 271.9 
 30 
 0 
 11 
 569.72958984375 
 21 
 274.206396484375 
 31 
 0 
 0 
LINE
 10 
 569.72958984375 
 20 
 274.206396484375 
 30 
 0 
 11 
 561.80478515625 
 21 
 277.751220703125 
 31 
 0 
 0 
LINE
 10 
 561.80478515625 
 20 
 277.751220703125 
 30 
 0 
 11 
 553.755224609375 
 21 
 281.612817382813 
 31 
 0 
 0 
LINE
 10 
 553.755224609375 
 20 
 281.612817382813 
 30 
 0 
 11 
 547.510400390625 
 21 
 284.869604492188 
 31 
 0 
 0 
LINE
 10 
 547.510400390625 
 20 
 284.869604492188 
 30 
 0 
 11 
 545 
 21 
 286.6 
 31 
 0 
 0 
LINE
 10 
 545 
 20 
 286.6 
 30 
 0 
 11 
 546.285546875 
 21 
 287.1080078125 
 31 
 0 
 0 
LINE
 10 
 546.285546875 
 20 
 287.1080078125 
 30 
 0 
 11 
 549.956787109375 
 21 
 286.415991210938 
 31 
 0 
 0 
LINE
 10 
 549.956787109375 
 20 
 286.415991210938 
 30 
 0 
 11 
 555.735205078125 
 21 
 284.619995117188 
 31 
 0 
 0 
LINE
 10 
 555.735205078125 
 20 
 284.619995117188 
 30 
 0 
 11 
 563.3423828125 
 21 
 281.815991210938 
 31 
 0 
 0 
LINE
 10 
 563.3423828125 
 20 
 281.815991210938 
 30 
 0 
 11 
 572.5 
 21 
 278.1 
 31 
 0 
 0 
LINE
 10 
 572.5 
 20 
 278.1 
 30 
 0 
 11 
 576.41279296875 
 21 
 276.67998046875 
 31 
 0 
 0 
LINE
 10 
 576.41279296875 
 20 
 276.67998046875 
 30 
 0 
 11 
 581.21845703125 
 21 
 275.3080078125 
 31 
 0 
 0 
LINE
 10 
 581.21845703125 
 20 
 275.3080078125 
 30 
 0 
 11 
 586.057568359375 
 21 
 274.1759765625 
 31 
 0 
 0 
LINE
 10 
 586.057568359375 
 20 
 274.1759765625 
 30 
 0 
 11 
 590.071240234375 
 21 
 273.476000976563 
 31 
 0 
 0 
LINE
 10 
 590.071240234375 
 20 
 273.476000976563 
 30 
 0 
 11 
 592.4 
 21 
 273.4 
 31 
 0 
 0 
LINE
 10 
 592.4 
 20 
 273.4 
 30 
 0 
 11 
 593.9408203125 
 21 
 274.0431640625 
 31 
 0 
 0 
LINE
 10 
 593.9408203125 
 20 
 274.0431640625 
 30 
 0 
 11 
 595.0064453125 
 21 
 274.969604492188 
 31 
 0 
 0 
LINE
 10 
 595.0064453125 
 20 
 274.969604492188 
 30 
 0 
 11 
 595.481591796875 
 21 
 275.934399414063 
 31 
 0 
 0 
LINE
 10 
 595.481591796875 
 20 
 275.934399414063 
 30 
 0 
 11 
 595.251220703125 
 21 
 276.692797851563 
 31 
 0 
 0 
LINE
 10 
 595.251220703125 
 20 
 276.692797851563 
 30 
 0 
 11 
 594.2 
 21 
 277 
 31 
 0 
 0 
LINE
 10 
 594.2 
 20 
 277 
 30 
 0 
 11 
 591.5103515625 
 21 
 277.584790039063 
 31 
 0 
 0 
LINE
 10 
 591.5103515625 
 20 
 277.584790039063 
 30 
 0 
 11 
 588.0912109375 
 21 
 279.134423828125 
 31 
 0 
 0 
LINE
 10 
 588.0912109375 
 20 
 279.134423828125 
 30 
 0 
 11 
 584.43681640625 
 21 
 281.3416015625 
 31 
 0 
 0 
LINE
 10 
 584.43681640625 
 20 
 281.3416015625 
 30 
 0 
 11 
 581.0416015625 
 21 
 283.899194335938 
 31 
 0 
 0 
LINE
 10 
 581.0416015625 
 20 
 283.899194335938 
 30 
 0 
 11 
 578.4 
 21 
 286.5 
 31 
 0 
 0 
LINE
 10 
 578.4 
 20 
 286.5 
 30 
 0 
 11 
 575.952783203125 
 21 
 290.189575195313 
 31 
 0 
 0 
LINE
 10 
 575.952783203125 
 20 
 290.189575195313 
 30 
 0 
 11 
 573.678466796875 
 21 
 294.776806640625 
 31 
 0 
 0 
LINE
 10 
 573.678466796875 
 20 
 294.776806640625 
 30 
 0 
 11 
 571.797607421875 
 21 
 299.719213867188 
 31 
 0 
 0 
LINE
 10 
 571.797607421875 
 20 
 299.719213867188 
 30 
 0 
 11 
 570.531201171875 
 21 
 304.4744140625 
 31 
 0 
 0 
LINE
 10 
 570.531201171875 
 20 
 304.4744140625 
 30 
 0 
 11 
 570.1 
 21 
 308.5 
 31 
 0 
 0 
LINE
 10 
 570.1 
 20 
 308.5 
 30 
 0 
 11 
 570.1 
 21 
 312.5 
 31 
 0 
 0 
LINE
 10 
 570.1 
 20 
 312.5 
 30 
 0 
 11 
 572 
 21 
 310.1 
 31 
 0 
 0 
LINE
 10 
 572 
 20 
 310.1 
 30 
 0 
 11 
 572.668798828125 
 21 
 309.148803710938 
 31 
 0 
 0 
LINE
 10 
 572.668798828125 
 20 
 309.148803710938 
 30 
 0 
 11 
 573.22236328125 
 21 
 308.010424804688 
 31 
 0 
 0 
LINE
 10 
 573.22236328125 
 20 
 308.010424804688 
 30 
 0 
 11 
 573.641650390625 
 21 
 306.73759765625 
 31 
 0 
 0 
LINE
 10 
 573.641650390625 
 20 
 306.73759765625 
 30 
 0 
 11 
 573.9072265625 
 21 
 305.383203125 
 31 
 0 
 0 
LINE
 10 
 573.9072265625 
 20 
 305.383203125 
 30 
 0 
 11 
 574 
 21 
 304 
 31 
 0 
 0 
LINE
 10 
 574 
 20 
 304 
 30 
 0 
 11 
 574.235986328125 
 21 
 300.682397460938 
 31 
 0 
 0 
LINE
 10 
 574.235986328125 
 20 
 300.682397460938 
 30 
 0 
 11 
 574.976025390625 
 21 
 297.619213867188 
 31 
 0 
 0 
LINE
 10 
 574.976025390625 
 20 
 297.619213867188 
 30 
 0 
 11 
 576.268017578125 
 21 
 294.704809570313 
 31 
 0 
 0 
LINE
 10 
 576.268017578125 
 20 
 294.704809570313 
 30 
 0 
 11 
 578.160009765625 
 21 
 291.83359375 
 31 
 0 
 0 
LINE
 10 
 578.160009765625 
 20 
 291.83359375 
 30 
 0 
 11 
 580.7 
 21 
 288.9 
 31 
 0 
 0 
LINE
 10 
 580.7 
 20 
 288.9 
 30 
 0 
 11 
 583.96875 
 21 
 285.935180664063 
 31 
 0 
 0 
LINE
 10 
 583.96875 
 20 
 285.935180664063 
 30 
 0 
 11 
 587.722412109375 
 21 
 283.25361328125 
 31 
 0 
 0 
LINE
 10 
 587.722412109375 
 20 
 283.25361328125 
 30 
 0 
 11 
 591.701611328125 
 21 
 280.994409179688 
 31 
 0 
 0 
LINE
 10 
 591.701611328125 
 20 
 280.994409179688 
 30 
 0 
 11 
 595.647216796875 
 21 
 279.296801757813 
 31 
 0 
 0 
LINE
 10 
 595.647216796875 
 20 
 279.296801757813 
 30 
 0 
 11 
 599.3 
 21 
 278.3 
 31 
 0 
 0 
LINE
 10 
 599.3 
 20 
 278.3 
 30 
 0 
 11 
 600.84638671875 
 21 
 278.152807617188 
 31 
 0 
 0 
LINE
 10 
 600.84638671875 
 20 
 278.152807617188 
 30 
 0 
 11 
 602.09521484375 
 21 
 278.226416015625 
 31 
 0 
 0 
LINE
 10 
 602.09521484375 
 20 
 278.226416015625 
 30 
 0 
 11 
 603.180810546875 
 21 
 278.573583984375 
 31 
 0 
 0 
LINE
 10 
 603.180810546875 
 20 
 278.573583984375 
 30 
 0 
 11 
 604.23759765625 
 21 
 279.247192382813 
 31 
 0 
 0 
LINE
 10 
 604.23759765625 
 20 
 279.247192382813 
 30 
 0 
 11 
 605.4 
 21 
 280.3 
 31 
 0 
 0 
LINE
 10 
 605.4 
 20 
 280.3 
 30 
 0 
 11 
 606.461572265625 
 21 
 281.460766601563 
 31 
 0 
 0 
LINE
 10 
 606.461572265625 
 20 
 281.460766601563 
 30 
 0 
 11 
 607.148779296875 
 21 
 282.506396484375 
 31 
 0 
 0 
LINE
 10 
 607.148779296875 
 20 
 282.506396484375 
 30 
 0 
 11 
 607.49521484375 
 21 
 283.56162109375 
 31 
 0 
 0 
LINE
 10 
 607.49521484375 
 20 
 283.56162109375 
 30 
 0 
 11 
 607.534423828125 
 21 
 284.751196289063 
 31 
 0 
 0 
LINE
 10 
 607.534423828125 
 20 
 284.751196289063 
 30 
 0 
 11 
 607.3 
 21 
 286.2 
 31 
 0 
 0 
LINE
 10 
 607.3 
 20 
 286.2 
 30 
 0 
 11 
 606.883984375 
 21 
 288.25439453125 
 31 
 0 
 0 
LINE
 10 
 606.883984375 
 20 
 288.25439453125 
 30 
 0 
 11 
 606.515966796875 
 21 
 289.435205078125 
 31 
 0 
 0 
LINE
 10 
 606.515966796875 
 20 
 289.435205078125 
 30 
 0 
 11 
 606.076025390625 
 21 
 289.82880859375 
 31 
 0 
 0 
LINE
 10 
 606.076025390625 
 20 
 289.82880859375 
 30 
 0 
 11 
 605.443994140625 
 21 
 289.521606445313 
 31 
 0 
 0 
LINE
 10 
 605.443994140625 
 20 
 289.521606445313 
 30 
 0 
 11 
 604.5 
 21 
 288.6 
 31 
 0 
 0 
LINE
 10 
 604.5 
 20 
 288.6 
 30 
 0 
 11 
 600.10234375 
 21 
 286.99599609375 
 31 
 0 
 0 
LINE
 10 
 600.10234375 
 20 
 286.99599609375 
 30 
 0 
 11 
 594.6392578125 
 21 
 288.752001953125 
 31 
 0 
 0 
LINE
 10 
 594.6392578125 
 20 
 288.752001953125 
 30 
 0 
 11 
 589.084814453125 
 21 
 293.1 
 31 
 0 
 0 
LINE
 10 
 589.084814453125 
 20 
 293.1 
 30 
 0 
 11 
 584.413623046875 
 21 
 299.271997070313 
 31 
 0 
 0 
LINE
 10 
 584.413623046875 
 20 
 299.271997070313 
 30 
 0 
 11 
 581.6 
 21 
 306.5 
 31 
 0 
 0 
LINE
 10 
 581.6 
 20 
 306.5 
 30 
 0 
 11 
 581.3599609375 
 21 
 307.818408203125 
 31 
 0 
 0 
LINE
 10 
 581.3599609375 
 20 
 307.818408203125 
 30 
 0 
 11 
 581.456005859375 
 21 
 308.359228515625 
 31 
 0 
 0 
LINE
 10 
 581.456005859375 
 20 
 308.359228515625 
 30 
 0 
 11 
 582.03203125 
 21 
 308.040795898438 
 31 
 0 
 0 
LINE
 10 
 582.03203125 
 20 
 308.040795898438 
 30 
 0 
 11 
 583.23203125 
 21 
 306.781616210938 
 31 
 0 
 0 
LINE
 10 
 583.23203125 
 20 
 306.781616210938 
 30 
 0 
 11 
 585.2 
 21 
 304.5 
 31 
 0 
 0 
LINE
 10 
 585.2 
 20 
 304.5 
 30 
 0 
 11 
 586.783984375 
 21 
 302.715991210938 
 31 
 0 
 0 
LINE
 10 
 586.783984375 
 20 
 302.715991210938 
 30 
 0 
 11 
 588.560009765625 
 21 
 300.716015625 
 31 
 0 
 0 
LINE
 10 
 588.560009765625 
 20 
 300.716015625 
 30 
 0 
 11 
 590.384033203125 
 21 
 298.667993164063 
 31 
 0 
 0 
LINE
 10 
 590.384033203125 
 20 
 298.667993164063 
 30 
 0 
 11 
 592.11201171875 
 21 
 296.740014648438 
 31 
 0 
 0 
LINE
 10 
 592.11201171875 
 20 
 296.740014648438 
 30 
 0 
 11 
 593.6 
 21 
 295.1 
 31 
 0 
 0 
LINE
 10 
 593.6 
 20 
 295.1 
 30 
 0 
 11 
 597.8 
 21 
 290.6 
 31 
 0 
 0 
LINE
 10 
 597.8 
 20 
 290.6 
 30 
 0 
 11 
 603.3 
 21 
 292 
 31 
 0 
 0 
LINE
 10 
 603.3 
 20 
 292 
 30 
 0 
 11 
 607.356787109375 
 21 
 292.665600585938 
 31 
 0 
 0 
LINE
 10 
 607.356787109375 
 20 
 292.665600585938 
 30 
 0 
 11 
 610.79443359375 
 21 
 292.3328125 
 31 
 0 
 0 
LINE
 10 
 610.79443359375 
 20 
 292.3328125 
 30 
 0 
 11 
 614.19365234375 
 21 
 290.747216796875 
 31 
 0 
 0 
LINE
 10 
 614.19365234375 
 20 
 290.747216796875 
 30 
 0 
 11 
 618.135205078125 
 21 
 287.654418945313 
 31 
 0 
 0 
LINE
 10 
 618.135205078125 
 20 
 287.654418945313 
 30 
 0 
 11 
 623.2 
 21 
 282.8 
 31 
 0 
 0 
LINE
 10 
 623.2 
 20 
 282.8 
 30 
 0 
 11 
 625.73115234375 
 21 
 280.33759765625 
 31 
 0 
 0 
LINE
 10 
 625.73115234375 
 20 
 280.33759765625 
 30 
 0 
 11 
 628.065625 
 21 
 278.196801757813 
 31 
 0 
 0 
LINE
 10 
 628.065625 
 20 
 278.196801757813 
 30 
 0 
 11 
 630.05439453125 
 21 
 276.507202148438 
 31 
 0 
 0 
LINE
 10 
 630.05439453125 
 20 
 276.507202148438 
 30 
 0 
 11 
 631.548779296875 
 21 
 275.398413085938 
 31 
 0 
 0 
LINE
 10 
 631.548779296875 
 20 
 275.398413085938 
 30 
 0 
 11 
 632.4 
 21 
 275 
 31 
 0 
 0 
LINE
 10 
 632.4 
 20 
 275 
 30 
 0 
 11 
 633.000732421875 
 21 
 275.124780273438 
 31 
 0 
 0 
LINE
 10 
 633.000732421875 
 20 
 275.124780273438 
 30 
 0 
 11 
 633.79833984375 
 21 
 275.470385742188 
 31 
 0 
 0 
LINE
 10 
 633.79833984375 
 20 
 275.470385742188 
 30 
 0 
 11 
 634.7255859375 
 21 
 275.993603515625 
 31 
 0 
 0 
LINE
 10 
 634.7255859375 
 20 
 275.993603515625 
 30 
 0 
 11 
 635.715234375 
 21 
 276.651196289063 
 31 
 0 
 0 
LINE
 10 
 635.715234375 
 20 
 276.651196289063 
 30 
 0 
 11 
 636.7 
 21 
 277.4 
 31 
 0 
 0 
LINE
 10 
 636.7 
 20 
 277.4 
 30 
 0 
 11 
 637.915185546875 
 21 
 278.587182617188 
 31 
 0 
 0 
LINE
 10 
 637.915185546875 
 20 
 278.587182617188 
 30 
 0 
 11 
 638.741650390625 
 21 
 279.817602539063 
 31 
 0 
 0 
LINE
 10 
 638.741650390625 
 20 
 279.817602539063 
 30 
 0 
 11 
 639.27041015625 
 21 
 281.3744140625 
 31 
 0 
 0 
LINE
 10 
 639.27041015625 
 20 
 281.3744140625 
 30 
 0 
 11 
 639.592822265625 
 21 
 283.540795898438 
 31 
 0 
 0 
LINE
 10 
 639.592822265625 
 20 
 283.540795898438 
 30 
 0 
 11 
 639.8 
 21 
 286.6 
 31 
 0 
 0 
LINE
 10 
 639.8 
 20 
 286.6 
 30 
 0 
 11 
 639.89755859375 
 21 
 289.188793945313 
 31 
 0 
 0 
LINE
 10 
 639.89755859375 
 20 
 289.188793945313 
 30 
 0 
 11 
 639.83681640625 
 21 
 291.542407226563 
 31 
 0 
 0 
LINE
 10 
 639.83681640625 
 20 
 291.542407226563 
 30 
 0 
 11 
 639.627197265625 
 21 
 293.6416015625 
 31 
 0 
 0 
LINE
 10 
 639.627197265625 
 20 
 293.6416015625 
 30 
 0 
 11 
 639.27841796875 
 21 
 295.467211914063 
 31 
 0 
 0 
LINE
 10 
 639.27841796875 
 20 
 295.467211914063 
 30 
 0 
 11 
 638.8 
 21 
 297 
 31 
 0 
 0 
LINE
 10 
 638.8 
 20 
 297 
 30 
 0 
 11 
 638.17998046875 
 21 
 298.614379882813 
 31 
 0 
 0 
LINE
 10 
 638.17998046875 
 20 
 298.614379882813 
 30 
 0 
 11 
 637.89599609375 
 21 
 299.739208984375 
 31 
 0 
 0 
LINE
 10 
 637.89599609375 
 20 
 299.739208984375 
 30 
 0 
 11 
 637.972021484375 
 21 
 300.556787109375 
 31 
 0 
 0 
LINE
 10 
 637.972021484375 
 20 
 300.556787109375 
 30 
 0 
 11 
 638.43203125 
 21 
 301.249609375 
 31 
 0 
 0 
LINE
 10 
 638.43203125 
 20 
 301.249609375 
 30 
 0 
 11 
 639.3 
 21 
 302 
 31 
 0 
 0 
LINE
 10 
 639.3 
 20 
 302 
 30 
 0 
 11 
 640.7263671875 
 21 
 303.918408203125 
 31 
 0 
 0 
LINE
 10 
 640.7263671875 
 20 
 303.918408203125 
 30 
 0 
 11 
 640.6072265625 
 21 
 305.899194335938 
 31 
 0 
 0 
LINE
 10 
 640.6072265625 
 20 
 305.899194335938 
 30 
 0 
 11 
 639.004833984375 
 21 
 307.860791015625 
 31 
 0 
 0 
LINE
 10 
 639.004833984375 
 20 
 307.860791015625 
 30 
 0 
 11 
 635.981591796875 
 21 
 309.721606445313 
 31 
 0 
 0 
LINE
 10 
 635.981591796875 
 20 
 309.721606445313 
 30 
 0 
 11 
 631.6 
 21 
 311.4 
 31 
 0 
 0 
LINE
 10 
 631.6 
 20 
 311.4 
 30 
 0 
 11 
 630.88876953125 
 21 
 311.744775390625 
 31 
 0 
 0 
LINE
 10 
 630.88876953125 
 20 
 311.744775390625 
 30 
 0 
 11 
 630.422412109375 
 21 
 312.214404296875 
 31 
 0 
 0 
LINE
 10 
 630.422412109375 
 20 
 312.214404296875 
 30 
 0 
 11 
 630.181640625 
 21 
 312.861596679688 
 31 
 0 
 0 
LINE
 10 
 630.181640625 
 20 
 312.861596679688 
 30 
 0 
 11 
 630.147216796875 
 21 
 313.739208984375 
 31 
 0 
 0 
LINE
 10 
 630.147216796875 
 20 
 313.739208984375 
 30 
 0 
 11 
 630.3 
 21 
 314.9 
 31 
 0 
 0 
LINE
 10 
 630.3 
 20 
 314.9 
 30 
 0 
 11 
 630.49833984375 
 21 
 316.13759765625 
 31 
 0 
 0 
LINE
 10 
 630.49833984375 
 20 
 316.13759765625 
 30 
 0 
 11 
 630.471240234375 
 21 
 317.0248046875 
 31 
 0 
 0 
LINE
 10 
 630.471240234375 
 20 
 317.0248046875 
 30 
 0 
 11 
 630.184814453125 
 21 
 317.643212890625 
 31 
 0 
 0 
LINE
 10 
 630.184814453125 
 20 
 317.643212890625 
 30 
 0 
 11 
 629.605615234375 
 21 
 318.0744140625 
 31 
 0 
 0 
LINE
 10 
 629.605615234375 
 20 
 318.0744140625 
 30 
 0 
 11 
 628.7 
 21 
 318.4 
 31 
 0 
 0 
LINE
 10 
 628.7 
 20 
 318.4 
 30 
 0 
 11 
 626.524755859375 
 21 
 318.865576171875 
 31 
 0 
 0 
LINE
 10 
 626.524755859375 
 20 
 318.865576171875 
 30 
 0 
 11 
 624.8583984375 
 21 
 318.932788085938 
 31 
 0 
 0 
LINE
 10 
 624.8583984375 
 20 
 318.932788085938 
 30 
 0 
 11 
 623.6095703125 
 21 
 318.587182617188 
 31 
 0 
 0 
LINE
 10 
 623.6095703125 
 20 
 318.587182617188 
 30 
 0 
 11 
 622.68720703125 
 21 
 317.814404296875 
 31 
 0 
 0 
LINE
 10 
 622.68720703125 
 20 
 317.814404296875 
 30 
 0 
 11 
 622 
 21 
 316.6 
 31 
 0 
 0 
LINE
 10 
 622 
 20 
 316.6 
 30 
 0 
 11 
 621.517578125 
 21 
 315.611206054688 
 31 
 0 
 0 
LINE
 10 
 621.517578125 
 20 
 315.611206054688 
 30 
 0 
 11 
 620.780810546875 
 21 
 314.785620117188 
 31 
 0 
 0 
LINE
 10 
 620.780810546875 
 20 
 314.785620117188 
 30 
 0 
 11 
 619.7751953125 
 21 
 314.094409179688 
 31 
 0 
 0 
LINE
 10 
 619.7751953125 
 20 
 314.094409179688 
 30 
 0 
 11 
 618.48642578125 
 21 
 313.508813476563 
 31 
 0 
 0 
LINE
 10 
 618.48642578125 
 20 
 313.508813476563 
 30 
 0 
 11 
 616.9 
 21 
 313 
 31 
 0 
 0 
LINE
 10 
 616.9 
 20 
 313 
 30 
 0 
 11 
 615.59521484375 
 21 
 312.678393554688 
 31 
 0 
 0 
LINE
 10 
 615.59521484375 
 20 
 312.678393554688 
 30 
 0 
 11 
 614.381640625 
 21 
 312.443212890625 
 31 
 0 
 0 
LINE
 10 
 614.381640625 
 20 
 312.443212890625 
 30 
 0 
 11 
 613.350390625 
 21 
 312.308813476563 
 31 
 0 
 0 
LINE
 10 
 613.350390625 
 20 
 312.308813476563 
 30 
 0 
 11 
 612.592822265625 
 21 
 312.289599609375 
 31 
 0 
 0 
LINE
 10 
 612.592822265625 
 20 
 312.289599609375 
 30 
 0 
 11 
 612.2 
 21 
 312.4 
 31 
 0 
 0 
LINE
 10 
 612.2 
 20 
 312.4 
 30 
 0 
 11 
 612.315185546875 
 21 
 313.331982421875 
 31 
 0 
 0 
LINE
 10 
 612.315185546875 
 20 
 313.331982421875 
 30 
 0 
 11 
 613.409619140625 
 21 
 314.839990234375 
 31 
 0 
 0 
LINE
 10 
 613.409619140625 
 20 
 314.839990234375 
 30 
 0 
 11 
 615.16640625 
 21 
 316.611987304688 
 31 
 0 
 0 
LINE
 10 
 615.16640625 
 20 
 316.611987304688 
 30 
 0 
 11 
 617.268798828125 
 21 
 318.336010742188 
 31 
 0 
 0 
LINE
 10 
 617.268798828125 
 20 
 318.336010742188 
 30 
 0 
 11 
 619.4 
 21 
 319.7 
 31 
 0 
 0 
LINE
 10 
 619.4 
 20 
 319.7 
 30 
 0 
 11 
 623.456787109375 
 21 
 320.60400390625 
 31 
 0 
 0 
LINE
 10 
 623.456787109375 
 20 
 320.60400390625 
 30 
 0 
 11 
 628.09443359375 
 21 
 319.756005859375 
 31 
 0 
 0 
LINE
 10 
 628.09443359375 
 20 
 319.756005859375 
 30 
 0 
 11 
 632.81357421875 
 21 
 317.39599609375 
 31 
 0 
 0 
LINE
 10 
 632.81357421875 
 20 
 317.39599609375 
 30 
 0 
 11 
 637.115234375 
 21 
 313.764013671875 
 31 
 0 
 0 
LINE
 10 
 637.115234375 
 20 
 313.764013671875 
 30 
 0 
 11 
 640.5 
 21 
 309.1 
 31 
 0 
 0 
LINE
 10 
 640.5 
 20 
 309.1 
 30 
 0 
 11 
 641.46318359375 
 21 
 307.494409179688 
 31 
 0 
 0 
LINE
 10 
 641.46318359375 
 20 
 307.494409179688 
 30 
 0 
 11 
 642.397607421875 
 21 
 306.09521484375 
 31 
 0 
 0 
LINE
 10 
 642.397607421875 
 20 
 306.09521484375 
 30 
 0 
 11 
 643.250390625 
 21 
 304.988818359375 
 31 
 0 
 0 
LINE
 10 
 643.250390625 
 20 
 304.988818359375 
 30 
 0 
 11 
 643.968798828125 
 21 
 304.261596679688 
 31 
 0 
 0 
LINE
 10 
 643.968798828125 
 20 
 304.261596679688 
 30 
 0 
 11 
 644.5 
 21 
 304 
 31 
 0 
 0 
LINE
 10 
 644.5 
 20 
 304 
 30 
 0 
 11 
 644.923193359375 
 21 
 304.205590820313 
 31 
 0 
 0 
LINE
 10 
 644.923193359375 
 20 
 304.205590820313 
 30 
 0 
 11 
 645.437646484375 
 21 
 304.780810546875 
 31 
 0 
 0 
LINE
 10 
 645.437646484375 
 20 
 304.780810546875 
 30 
 0 
 11 
 645.990380859375 
 21 
 305.663208007813 
 31 
 0 
 0 
LINE
 10 
 645.990380859375 
 20 
 305.663208007813 
 30 
 0 
 11 
 646.52880859375 
 21 
 306.790405273438 
 31 
 0 
 0 
LINE
 10 
 646.52880859375 
 20 
 306.790405273438 
 30 
 0 
 11 
 647 
 21 
 308.1 
 31 
 0 
 0 
LINE
 10 
 647 
 20 
 308.1 
 30 
 0 
 11 
 647.486376953125 
 21 
 309.383203125 
 31 
 0 
 0 
LINE
 10 
 647.486376953125 
 20 
 309.383203125 
 30 
 0 
 11 
 647.963232421875 
 21 
 310.5416015625 
 31 
 0 
 0 
LINE
 10 
 647.963232421875 
 20 
 310.5416015625 
 30 
 0 
 11 
 648.396826171875 
 21 
 311.498388671875 
 31 
 0 
 0 
LINE
 10 
 648.396826171875 
 20 
 311.498388671875 
 30 
 0 
 11 
 648.75361328125 
 21 
 312.176806640625 
 31 
 0 
 0 
LINE
 10 
 648.75361328125 
 20 
 312.176806640625 
 30 
 0 
 11 
 649 
 21 
 312.5 
 31 
 0 
 0 
LINE
 10 
 649 
 20 
 312.5 
 30 
 0 
 11 
 651.269580078125 
 21 
 311.09521484375 
 31 
 0 
 0 
LINE
 10 
 651.269580078125 
 20 
 311.09521484375 
 30 
 0 
 11 
 655.7568359375 
 21 
 307.045629882813 
 31 
 0 
 0 
LINE
 10 
 655.7568359375 
 20 
 307.045629882813 
 30 
 0 
 11 
 660.959228515625 
 21 
 301.858422851563 
 31 
 0 
 0 
LINE
 10 
 660.959228515625 
 20 
 301.858422851563 
 30 
 0 
 11 
 665.3744140625 
 21 
 297.040795898438 
 31 
 0 
 0 
LINE
 10 
 665.3744140625 
 20 
 297.040795898438 
 30 
 0 
 11 
 667.5 
 21 
 294.1 
 31 
 0 
 0 
LINE
 10 
 667.5 
 20 
 294.1 
 30 
 0 
 11 
 667.75673828125 
 21 
 293.459204101563 
 31 
 0 
 0 
LINE
 10 
 667.75673828125 
 20 
 293.459204101563 
 30 
 0 
 11 
 668.13837890625 
 21 
 292.885620117188 
 31 
 0 
 0 
LINE
 10 
 668.13837890625 
 20 
 292.885620117188 
 30 
 0 
 11 
 668.601611328125 
 21 
 292.422387695313 
 31 
 0 
 0 
LINE
 10 
 668.601611328125 
 20 
 292.422387695313 
 30 
 0 
 11 
 669.10322265625 
 21 
 292.112817382813 
 31 
 0 
 0 
LINE
 10 
 669.10322265625 
 20 
 292.112817382813 
 30 
 0 
 11 
 669.6 
 21 
 292 
 31 
 0 
 0 
LINE
 10 
 669.6 
 20 
 292 
 30 
 0 
 11 
 670.834375 
 21 
 292.53916015625 
 31 
 0 
 0 
LINE
 10 
 670.834375 
 20 
 292.53916015625 
 30 
 0 
 11 
 671.77119140625 
 21 
 294.15361328125 
 31 
 0 
 0 
LINE
 10 
 671.77119140625 
 20 
 294.15361328125 
 30 
 0 
 11 
 672.40078125 
 21 
 296.838403320313 
 31 
 0 
 0 
LINE
 10 
 672.40078125 
 20 
 296.838403320313 
 30 
 0 
 11 
 672.713623046875 
 21 
 300.588818359375 
 31 
 0 
 0 
LINE
 10 
 672.713623046875 
 20 
 300.588818359375 
 30 
 0 
 11 
 672.7 
 21 
 305.4 
 31 
 0 
 0 
LINE
 10 
 672.7 
 20 
 305.4 
 30 
 0 
 11 
 672.456005859375 
 21 
 309.7072265625 
 31 
 0 
 0 
LINE
 10 
 672.456005859375 
 20 
 309.7072265625 
 30 
 0 
 11 
 671.947998046875 
 21 
 312.95361328125 
 31 
 0 
 0 
LINE
 10 
 671.947998046875 
 20 
 312.95361328125 
 30 
 0 
 11 
 671.152001953125 
 21 
 315.206396484375 
 31 
 0 
 0 
LINE
 10 
 671.152001953125 
 20 
 315.206396484375 
 30 
 0 
 11 
 670.043994140625 
 21 
 316.5328125 
 31 
 0 
 0 
LINE
 10 
 670.043994140625 
 20 
 316.5328125 
 30 
 0 
 11 
 668.6 
 21 
 317 
 31 
 0 
 0 
LINE
 10 
 668.6 
 20 
 317 
 30 
 0 
 11 
 667.799169921875 
 21 
 317.481591796875 
 31 
 0 
 0 
LINE
 10 
 667.799169921875 
 20 
 317.481591796875 
 30 
 0 
 11 
 666.2255859375 
 21 
 318.716821289063 
 31 
 0 
 0 
LINE
 10 
 666.2255859375 
 20 
 318.716821289063 
 30 
 0 
 11 
 664.042431640625 
 21 
 320.571215820313 
 31 
 0 
 0 
LINE
 10 
 664.042431640625 
 20 
 320.571215820313 
 30 
 0 
 11 
 661.41279296875 
 21 
 322.910400390625 
 31 
 0 
 0 
LINE
 10 
 661.41279296875 
 20 
 322.910400390625 
 30 
 0 
 11 
 658.5 
 21 
 325.6 
 31 
 0 
 0 
LINE
 10 
 658.5 
 20 
 325.6 
 30 
 0 
 11 
 649.5 
 21 
 334.1 
 31 
 0 
 0 
LINE
 10 
 649.5 
 20 
 334.1 
 30 
 0 
 11 
 654.5 
 21 
 333.5 
 31 
 0 
 0 
LINE
 10 
 654.5 
 20 
 333.5 
 30 
 0 
 11 
 671.569580078125 
 21 
 331.7671875 
 31 
 0 
 0 
LINE
 10 
 671.569580078125 
 20 
 331.7671875 
 30 
 0 
 11 
 684.54482421875 
 21 
 331.1576171875 
 31 
 0 
 0 
LINE
 10 
 684.54482421875 
 20 
 331.1576171875 
 30 
 0 
 11 
 694.03525390625 
 21 
 331.714404296875 
 31 
 0 
 0 
LINE
 10 
 694.03525390625 
 20 
 331.714404296875 
 30 
 0 
 11 
 700.650439453125 
 21 
 333.480810546875 
 31 
 0 
 0 
LINE
 10 
 700.650439453125 
 20 
 333.480810546875 
 30 
 0 
 11 
 705 
 21 
 336.5 
 31 
 0 
 0 
LINE
 10 
 705 
 20 
 336.5 
 30 
 0 
 11 
 705.725634765625 
 21 
 337.297607421875 
 31 
 0 
 0 
LINE
 10 
 705.725634765625 
 20 
 337.297607421875 
 30 
 0 
 11 
 706.316845703125 
 21 
 337.984814453125 
 31 
 0 
 0 
LINE
 10 
 706.316845703125 
 20 
 337.984814453125 
 30 
 0 
 11 
 706.735205078125 
 21 
 338.523193359375 
 31 
 0 
 0 
LINE
 10 
 706.735205078125 
 20 
 338.523193359375 
 30 
 0 
 11 
 706.942431640625 
 21 
 338.8744140625 
 31 
 0 
 0 
LINE
 10 
 706.942431640625 
 20 
 338.8744140625 
 30 
 0 
 11 
 706.9 
 21 
 339 
 31 
 0 
 0 
LINE
 10 
 706.9 
 20 
 339 
 30 
 0 
 11 
 698.291162109375 
 21 
 339.176782226563 
 31 
 0 
 0 
LINE
 10 
 698.291162109375 
 20 
 339.176782226563 
 30 
 0 
 11 
 691.189599609375 
 21 
 339.67041015625 
 31 
 0 
 0 
LINE
 10 
 691.189599609375 
 20 
 339.67041015625 
 30 
 0 
 11 
 684.70244140625 
 21 
 340.605590820313 
 31 
 0 
 0 
LINE
 10 
 684.70244140625 
 20 
 340.605590820313 
 30 
 0 
 11 
 677.93681640625 
 21 
 342.107202148438 
 31 
 0 
 0 
LINE
 10 
 677.93681640625 
 20 
 342.107202148438 
 30 
 0 
 11 
 670 
 21 
 344.3 
 31 
 0 
 0 
LINE
 10 
 670 
 20 
 344.3 
 30 
 0 
 11 
 657.274365234375 
 21 
 348.236767578125 
 31 
 0 
 0 
LINE
 10 
 657.274365234375 
 20 
 348.236767578125 
 30 
 0 
 11 
 637.98720703125 
 21 
 354.506420898438 
 31 
 0 
 0 
LINE
 10 
 637.98720703125 
 20 
 354.506420898438 
 30 
 0 
 11 
 615.992822265625 
 21 
 361.817602539063 
 31 
 0 
 0 
LINE
 10 
 615.992822265625 
 20 
 361.817602539063 
 30 
 0 
 11 
 595.14560546875 
 21 
 368.87919921875 
 31 
 0 
 0 
LINE
 10 
 595.14560546875 
 20 
 368.87919921875 
 30 
 0 
 11 
 579.3 
 21 
 374.4 
 31 
 0 
 0 
LINE
 10 
 579.3 
 20 
 374.4 
 30 
 0 
 11 
 569.97998046875 
 21 
 377.333569335938 
 31 
 0 
 0 
LINE
 10 
 569.97998046875 
 20 
 377.333569335938 
 30 
 0 
 11 
 561.260009765625 
 21 
 379.076831054688 
 31 
 0 
 0 
LINE
 10 
 561.260009765625 
 20 
 379.076831054688 
 30 
 0 
 11 
 552.660009765625 
 21 
 379.663208007813 
 31 
 0 
 0 
LINE
 10 
 552.660009765625 
 20 
 379.663208007813 
 30 
 0 
 11 
 543.7 
 21 
 379.126416015625 
 31 
 0 
 0 
LINE
 10 
 543.7 
 20 
 379.126416015625 
 30 
 0 
 11 
 533.9 
 21 
 377.5 
 31 
 0 
 0 
LINE
 10 
 533.9 
 20 
 377.5 
 30 
 0 
 11 
 527.639990234375 
 21 
 375.674389648438 
 31 
 0 
 0 
LINE
 10 
 527.639990234375 
 20 
 375.674389648438 
 30 
 0 
 11 
 521.476025390625 
 21 
 372.999194335938 
 31 
 0 
 0 
LINE
 10 
 521.476025390625 
 20 
 372.999194335938 
 30 
 0 
 11 
 516.152001953125 
 21 
 369.896801757813 
 31 
 0 
 0 
LINE
 10 
 516.152001953125 
 20 
 369.896801757813 
 30 
 0 
 11 
 512.41201171875 
 21 
 366.789599609375 
 31 
 0 
 0 
LINE
 10 
 512.41201171875 
 20 
 366.789599609375 
 30 
 0 
 11 
 511 
 21 
 364.1 
 31 
 0 
 0 
LINE
 10 
 511 
 20 
 364.1 
 30 
 0 
 11 
 512.5087890625 
 21 
 361.849609375 
 31 
 0 
 0 
LINE
 10 
 512.5087890625 
 20 
 361.849609375 
 30 
 0 
 11 
 516.1583984375 
 21 
 357.784790039063 
 31 
 0 
 0 
LINE
 10 
 516.1583984375 
 20 
 357.784790039063 
 30 
 0 
 11 
 520.63359375 
 21 
 353.235205078125 
 31 
 0 
 0 
LINE
 10 
 520.63359375 
 20 
 353.235205078125 
 30 
 0 
 11 
 524.61923828125 
 21 
 349.530395507813 
 31 
 0 
 0 
LINE
 10 
 524.61923828125 
 20 
 349.530395507813 
 30 
 0 
 11 
 526.8 
 21 
 348 
 31 
 0 
 0 
LINE
 10 
 526.8 
 20 
 348 
 30 
 0 
 11 
 527.41279296875 
 21 
 348.1591796875 
 31 
 0 
 0 
LINE
 10 
 527.41279296875 
 20 
 348.1591796875 
 30 
 0 
 11 
 528.67841796875 
 21 
 348.601611328125 
 31 
 0 
 0 
LINE
 10 
 528.67841796875 
 20 
 348.601611328125 
 30 
 0 
 11 
 530.4576171875 
 21 
 349.274389648438 
 31 
 0 
 0 
LINE
 10 
 530.4576171875 
 20 
 349.274389648438 
 30 
 0 
 11 
 532.61123046875 
 21 
 350.1248046875 
 31 
 0 
 0 
LINE
 10 
 532.61123046875 
 20 
 350.1248046875 
 30 
 0 
 11 
 535 
 21 
 351.1 
 31 
 0 
 0 
LINE
 10 
 535 
 20 
 351.1 
 30 
 0 
 11 
 538.265576171875 
 21 
 352.368798828125 
 31 
 0 
 0 
LINE
 10 
 538.265576171875 
 20 
 352.368798828125 
 30 
 0 
 11 
 541.372802734375 
 21 
 353.330419921875 
 31 
 0 
 0 
LINE
 10 
 541.372802734375 
 20 
 353.330419921875 
 30 
 0 
 11 
 544.547216796875 
 21 
 354.03759765625 
 31 
 0 
 0 
LINE
 10 
 544.547216796875 
 20 
 354.03759765625 
 30 
 0 
 11 
 548.014404296875 
 21 
 354.543212890625 
 31 
 0 
 0 
LINE
 10 
 548.014404296875 
 20 
 354.543212890625 
 30 
 0 
 11 
 552 
 21 
 354.9 
 31 
 0 
 0 
LINE
 10 
 552 
 20 
 354.9 
 30 
 0 
 11 
 557.590380859375 
 21 
 355.207177734375 
 31 
 0 
 0 
LINE
 10 
 557.590380859375 
 20 
 355.207177734375 
 30 
 0 
 11 
 562.6431640625 
 21 
 355.101611328125 
 31 
 0 
 0 
LINE
 10 
 562.6431640625 
 20 
 355.101611328125 
 30 
 0 
 11 
 567.940771484375 
 21 
 354.482397460938 
 31 
 0 
 0 
LINE
 10 
 567.940771484375 
 20 
 354.482397460938 
 30 
 0 
 11 
 574.265625 
 21 
 353.248803710938 
 31 
 0 
 0 
LINE
 10 
 574.265625 
 20 
 353.248803710938 
 30 
 0 
 11 
 582.4 
 21 
 351.3 
 31 
 0 
 0 
LINE
 10 
 582.4 
 20 
 351.3 
 30 
 0 
 11 
 589.0927734375 
 21 
 349.59599609375 
 31 
 0 
 0 
LINE
 10 
 589.0927734375 
 20 
 349.59599609375 
 30 
 0 
 11 
 593.22236328125 
 21 
 348.39599609375 
 31 
 0 
 0 
LINE
 10 
 593.22236328125 
 20 
 348.39599609375 
 30 
 0 
 11 
 594.98564453125 
 21 
 347.628002929688 
 31 
 0 
 0 
LINE
 10 
 594.98564453125 
 20 
 347.628002929688 
 30 
 0 
 11 
 594.57919921875 
 21 
 347.219995117188 
 31 
 0 
 0 
LINE
 10 
 594.57919921875 
 20 
 347.219995117188 
 30 
 0 
 11 
 592.2 
 21 
 347.1 
 31 
 0 
 0 
LINE
 10 
 592.2 
 20 
 347.1 
 30 
 0 
 11 
 590.435986328125 
 21 
 347.209594726563 
 31 
 0 
 0 
LINE
 10 
 590.435986328125 
 20 
 347.209594726563 
 30 
 0 
 11 
 588.047998046875 
 21 
 347.616796875 
 31 
 0 
 0 
LINE
 10 
 588.047998046875 
 20 
 347.616796875 
 30 
 0 
 11 
 585.252001953125 
 21 
 348.259204101563 
 31 
 0 
 0 
LINE
 10 
 585.252001953125 
 20 
 348.259204101563 
 30 
 0 
 11 
 582.264013671875 
 21 
 349.0744140625 
 31 
 0 
 0 
LINE
 10 
 582.264013671875 
 20 
 349.0744140625 
 30 
 0 
 11 
 579.3 
 21 
 350 
 31 
 0 
 0 
LINE
 10 
 579.3 
 20 
 350 
 30 
 0 
 11 
 576.42958984375 
 21 
 350.964770507813 
 31 
 0 
 0 
LINE
 10 
 576.42958984375 
 20 
 350.964770507813 
 30 
 0 
 11 
 573.5927734375 
 21 
 351.790405273438 
 31 
 0 
 0 
LINE
 10 
 573.5927734375 
 20 
 351.790405273438 
 30 
 0 
 11 
 570.9912109375 
 21 
 352.43359375 
 31 
 0 
 0 
LINE
 10 
 570.9912109375 
 20 
 352.43359375 
 30 
 0 
 11 
 568.826416015625 
 21 
 352.851196289063 
 31 
 0 
 0 
LINE
 10 
 568.826416015625 
 20 
 352.851196289063 
 30 
 0 
 11 
 567.3 
 21 
 353 
 31 
 0 
 0 
LINE
 10 
 567.3 
 20 
 353 
 30 
 0 
 11 
 565.80478515625 
 21 
 352.947998046875 
 31 
 0 
 0 
LINE
 10 
 565.80478515625 
 20 
 352.947998046875 
 30 
 0 
 11 
 564.842431640625 
 21 
 352.728002929688 
 31 
 0 
 0 
LINE
 10 
 564.842431640625 
 20 
 352.728002929688 
 30 
 0 
 11 
 564.297607421875 
 21 
 352.243994140625 
 31 
 0 
 0 
LINE
 10 
 564.297607421875 
 20 
 352.243994140625 
 30 
 0 
 11 
 564.055224609375 
 21 
 351.400024414063 
 31 
 0 
 0 
LINE
 10 
 564.055224609375 
 20 
 351.400024414063 
 30 
 0 
 11 
 564 
 21 
 350.1 
 31 
 0 
 0 
LINE
 10 
 564 
 20 
 350.1 
 30 
 0 
 11 
 563.92080078125 
 21 
 349.126391601563 
 31 
 0 
 0 
LINE
 10 
 563.92080078125 
 20 
 349.126391601563 
 30 
 0 
 11 
 563.702392578125 
 21 
 348.167211914063 
 31 
 0 
 0 
LINE
 10 
 563.702392578125 
 20 
 348.167211914063 
 30 
 0 
 11 
 563.373583984375 
 21 
 347.284814453125 
 31 
 0 
 0 
LINE
 10 
 563.373583984375 
 20 
 347.284814453125 
 30 
 0 
 11 
 562.96318359375 
 21 
 346.5416015625 
 31 
 0 
 0 
LINE
 10 
 562.96318359375 
 20 
 346.5416015625 
 30 
 0 
 11 
 562.5 
 21 
 346 
 31 
 0 
 0 
LINE
 10 
 562.5 
 20 
 346 
 30 
 0 
 11 
 561.99599609375 
 21 
 345.510400390625 
 31 
 0 
 0 
LINE
 10 
 561.99599609375 
 20 
 345.510400390625 
 30 
 0 
 11 
 561.684033203125 
 21 
 345.011206054688 
 31 
 0 
 0 
LINE
 10 
 561.684033203125 
 20 
 345.011206054688 
 30 
 0 
 11 
 561.564013671875 
 21 
 344.516796875 
 31 
 0 
 0 
LINE
 10 
 561.564013671875 
 20 
 344.516796875 
 30 
 0 
 11 
 561.635986328125 
 21 
 344.0416015625 
 31 
 0 
 0 
LINE
 10 
 561.635986328125 
 20 
 344.0416015625 
 30 
 0 
 11 
 561.9 
 21 
 343.6 
 31 
 0 
 0 
LINE
 10 
 561.9 
 20 
 343.6 
 30 
 0 
 11 
 562.184814453125 
 21 
 343.208813476563 
 31 
 0 
 0 
LINE
 10 
 562.184814453125 
 20 
 343.208813476563 
 30 
 0 
 11 
 562.426416015625 
 21 
 342.7744140625 
 31 
 0 
 0 
LINE
 10 
 562.426416015625 
 20 
 342.7744140625 
 30 
 0 
 11 
 562.605615234375 
 21 
 342.325610351563 
 31 
 0 
 0 
LINE
 10 
 562.605615234375 
 20 
 342.325610351563 
 30 
 0 
 11 
 562.70322265625 
 21 
 341.8912109375 
 31 
 0 
 0 
LINE
 10 
 562.70322265625 
 20 
 341.8912109375 
 30 
 0 
 11 
 562.7 
 21 
 341.5 
 31 
 0 
 0 
LINE
 10 
 562.7 
 20 
 341.5 
 30 
 0 
 11 
 562.86875 
 21 
 341.090380859375 
 31 
 0 
 0 
LINE
 10 
 562.86875 
 20 
 341.090380859375 
 30 
 0 
 11 
 563.450390625 
 21 
 340.503198242188 
 31 
 0 
 0 
LINE
 10 
 563.450390625 
 20 
 340.503198242188 
 30 
 0 
 11 
 564.37763671875 
 21 
 339.800805664063 
 31 
 0 
 0 
LINE
 10 
 564.37763671875 
 20 
 339.800805664063 
 30 
 0 
 11 
 565.583203125 
 21 
 339.04560546875 
 31 
 0 
 0 
LINE
 10 
 565.583203125 
 20 
 339.04560546875 
 30 
 0 
 11 
 567 
 21 
 338.3 
 31 
 0 
 0 
LINE
 10 
 567 
 20 
 338.3 
 30 
 0 
 11 
 568.415966796875 
 21 
 337.552783203125 
 31 
 0 
 0 
LINE
 10 
 568.415966796875 
 20 
 337.552783203125 
 30 
 0 
 11 
 569.616015625 
 21 
 336.786401367188 
 31 
 0 
 0 
LINE
 10 
 569.616015625 
 20 
 336.786401367188 
 30 
 0 
 11 
 570.527978515625 
 21 
 336.053588867188 
 31 
 0 
 0 
LINE
 10 
 570.527978515625 
 20 
 336.053588867188 
 30 
 0 
 11 
 571.07998046875 
 21 
 335.407202148438 
 31 
 0 
 0 
LINE
 10 
 571.07998046875 
 20 
 335.407202148438 
 30 
 0 
 11 
 571.2 
 21 
 334.9 
 31 
 0 
 0 
LINE
 10 
 571.2 
 20 
 334.9 
 30 
 0 
 11 
 571.249560546875 
 21 
 333.87998046875 
 31 
 0 
 0 
LINE
 10 
 571.249560546875 
 20 
 333.87998046875 
 30 
 0 
 11 
 571.788818359375 
 21 
 332.836010742188 
 31 
 0 
 0 
LINE
 10 
 571.788818359375 
 20 
 332.836010742188 
 30 
 0 
 11 
 572.683203125 
 21 
 331.911987304688 
 31 
 0 
 0 
LINE
 10 
 572.683203125 
 20 
 331.911987304688 
 30 
 0 
 11 
 573.798388671875 
 21 
 331.252001953125 
 31 
 0 
 0 
LINE
 10 
 573.798388671875 
 20 
 331.252001953125 
 30 
 0 
 11 
 575 
 21 
 331 
 31 
 0 
 0 
LINE
 10 
 575 
 20 
 331 
 30 
 0 
 11 
 575.62958984375 
 21 
 330.919970703125 
 31 
 0 
 0 
LINE
 10 
 575.62958984375 
 20 
 330.919970703125 
 30 
 0 
 11 
 576.292822265625 
 21 
 330.69599609375 
 31 
 0 
 0 
LINE
 10 
 576.292822265625 
 20 
 330.69599609375 
 30 
 0 
 11 
 576.951220703125 
 21 
 330.352001953125 
 31 
 0 
 0 
LINE
 10 
 576.951220703125 
 20 
 330.352001953125 
 30 
 0 
 11 
 577.56640625 
 21 
 329.91201171875 
 31 
 0 
 0 
LINE
 10 
 577.56640625 
 20 
 329.91201171875 
 30 
 0 
 11 
 578.1 
 21 
 329.4 
 31 
 0 
 0 
LINE
 10 
 578.1 
 20 
 329.4 
 30 
 0 
 11 
 578.61279296875 
 21 
 328.7087890625 
 31 
 0 
 0 
LINE
 10 
 578.61279296875 
 20 
 328.7087890625 
 30 
 0 
 11 
 578.818408203125 
 21 
 328.28642578125 
 31 
 0 
 0 
LINE
 10 
 578.818408203125 
 20 
 328.28642578125 
 30 
 0 
 11 
 578.697607421875 
 21 
 328.089599609375 
 31 
 0 
 0 
LINE
 10 
 578.697607421875 
 20 
 328.089599609375 
 30 
 0 
 11 
 578.231201171875 
 21 
 328.0751953125 
 31 
 0 
 0 
LINE
 10 
 578.231201171875 
 20 
 328.0751953125 
 30 
 0 
 11 
 577.4 
 21 
 328.2 
 31 
 0 
 0 
LINE
 10 
 577.4 
 20 
 328.2 
 30 
 0 
 11 
 575.78876953125 
 21 
 328.168798828125 
 31 
 0 
 0 
LINE
 10 
 575.78876953125 
 20 
 328.168798828125 
 30 
 0 
 11 
 575.4064453125 
 21 
 327.518408203125 
 31 
 0 
 0 
LINE
 10 
 575.4064453125 
 20 
 327.518408203125 
 30 
 0 
 11 
 576.0896484375 
 21 
 326.493603515625 
 31 
 0 
 0 
LINE
 10 
 576.0896484375 
 20 
 326.493603515625 
 30 
 0 
 11 
 577.675244140625 
 21 
 325.339208984375 
 31 
 0 
 0 
LINE
 10 
 577.675244140625 
 20 
 325.339208984375 
 30 
 0 
 11 
 580 
 21 
 324.3 
 31 
 0 
 0 
LINE
 10 
 580 
 20 
 324.3 
 30 
 0 
 11 
 581.507177734375 
 21 
 323.767993164063 
 31 
 0 
 0 
LINE
 10 
 581.507177734375 
 20 
 323.767993164063 
 30 
 0 
 11 
 582.96162109375 
 21 
 323.164013671875 
 31 
 0 
 0 
LINE
 10 
 582.96162109375 
 20 
 323.164013671875 
 30 
 0 
 11 
 584.26240234375 
 21 
 322.536010742188 
 31 
 0 
 0 
LINE
 10 
 584.26240234375 
 20 
 322.536010742188 
 30 
 0 
 11 
 585.308837890625 
 21 
 321.932006835938 
 31 
 0 
 0 
LINE
 10 
 585.308837890625 
 20 
 321.932006835938 
 30 
 0 
 11 
 586 
 21 
 321.4 
 31 
 0 
 0 
LINE
 10 
 586 
 20 
 321.4 
 30 
 0 
 11 
 586.560009765625 
 21 
 320.793603515625 
 31 
 0 
 0 
LINE
 10 
 586.560009765625 
 20 
 320.793603515625 
 30 
 0 
 11 
 586.783984375 
 21 
 320.388818359375 
 31 
 0 
 0 
LINE
 10 
 586.783984375 
 20 
 320.388818359375 
 30 
 0 
 11 
 586.647998046875 
 21 
 320.147192382813 
 31 
 0 
 0 
LINE
 10 
 586.647998046875 
 20 
 320.147192382813 
 30 
 0 
 11 
 586.12802734375 
 21 
 320.030395507813 
 31 
 0 
 0 
LINE
 10 
 586.12802734375 
 20 
 320.030395507813 
 30 
 0 
 11 
 585.2 
 21 
 320 
 31 
 0 
 0 
LINE
 10 
 585.2 
 20 
 320 
 30 
 0 
 11 
 583.561572265625 
 21 
 319.8 
 31 
 0 
 0 
LINE
 10 
 583.561572265625 
 20 
 319.8 
 30 
 0 
 11 
 583.012841796875 
 21 
 319.312036132813 
 31 
 0 
 0 
LINE
 10 
 583.012841796875 
 20 
 319.312036132813 
 30 
 0 
 11 
 583.443212890625 
 21 
 318.70400390625 
 31 
 0 
 0 
LINE
 10 
 583.443212890625 
 20 
 318.70400390625 
 30 
 0 
 11 
 584.742431640625 
 21 
 318.143994140625 
 31 
 0 
 0 
LINE
 10 
 584.742431640625 
 20 
 318.143994140625 
 30 
 0 
 11 
 586.8 
 21 
 317.8 
 31 
 0 
 0 
LINE
 10 
 586.8 
 20 
 317.8 
 30 
 0 
 11 
 587.952783203125 
 21 
 317.64638671875 
 31 
 0 
 0 
LINE
 10 
 587.952783203125 
 20 
 317.64638671875 
 30 
 0 
 11 
 588.96640625 
 21 
 317.435205078125 
 31 
 0 
 0 
LINE
 10 
 588.96640625 
 20 
 317.435205078125 
 30 
 0 
 11 
 589.773583984375 
 21 
 317.180786132813 
 31 
 0 
 0 
LINE
 10 
 589.773583984375 
 20 
 317.180786132813 
 30 
 0 
 11 
 590.3072265625 
 21 
 316.897607421875 
 31 
 0 
 0 
LINE
 10 
 590.3072265625 
 20 
 316.897607421875 
 30 
 0 
 11 
 590.5 
 21 
 316.6 
 31 
 0 
 0 
LINE
 10 
 590.5 
 20 
 316.6 
 30 
 0 
 11 
 589.48876953125 
 21 
 315.8263671875 
 31 
 0 
 0 
LINE
 10 
 589.48876953125 
 20 
 315.8263671875 
 30 
 0 
 11 
 587.06640625 
 21 
 314.611206054688 
 31 
 0 
 0 
LINE
 10 
 587.06640625 
 20 
 314.611206054688 
 30 
 0 
 11 
 584.149560546875 
 21 
 313.352807617188 
 31 
 0 
 0 
LINE
 10 
 584.149560546875 
 20 
 313.352807617188 
 30 
 0 
 11 
 581.65517578125 
 21 
 312.449609375 
 31 
 0 
 0 
LINE
 10 
 581.65517578125 
 20 
 312.449609375 
 30 
 0 
 11 
 580.5 
 21 
 312.3 
 31 
 0 
 0 
LINE
 10 
 580.5 
 20 
 312.3 
 30 
 0 
 11 
 580.281591796875 
 21 
 312.711181640625 
 31 
 0 
 0 
LINE
 10 
 580.281591796875 
 20 
 312.711181640625 
 30 
 0 
 11 
 579.784814453125 
 21 
 313.7416015625 
 31 
 0 
 0 
LINE
 10 
 579.784814453125 
 20 
 313.7416015625 
 30 
 0 
 11 
 579.0671875 
 21 
 315.26640625 
 31 
 0 
 0 
LINE
 10 
 579.0671875 
 20 
 315.26640625 
 30 
 0 
 11 
 578.18642578125 
 21 
 317.160815429688 
 31 
 0 
 0 
LINE
 10 
 578.18642578125 
 20 
 317.160815429688 
 30 
 0 
 11 
 577.2 
 21 
 319.3 
 31 
 0 
 0 
LINE
 10 
 577.2 
 20 
 319.3 
 30 
 0 
 11 
 574.08154296875 
 21 
 324.780810546875 
 31 
 0 
 0 
LINE
 10 
 574.08154296875 
 20 
 324.780810546875 
 30 
 0 
 11 
 569.940771484375 
 21 
 330.242407226563 
 31 
 0 
 0 
LINE
 10 
 569.940771484375 
 20 
 330.242407226563 
 30 
 0 
 11 
 565.21923828125 
 21 
 335.23359375 
 31 
 0 
 0 
LINE
 10 
 565.21923828125 
 20 
 335.23359375 
 30 
 0 
 11 
 560.3583984375 
 21 
 339.303198242188 
 31 
 0 
 0 
LINE
 10 
 560.3583984375 
 20 
 339.303198242188 
 30 
 0 
 11 
 555.8 
 21 
 342 
 31 
 0 
 0 
LINE
 10 
 555.8 
 20 
 342 
 30 
 0 
 11 
 553.2599609375 
 21 
 342.957592773438 
 31 
 0 
 0 
LINE
 10 
 553.2599609375 
 20 
 342.957592773438 
 30 
 0 
 11 
 550.672021484375 
 21 
 343.588818359375 
 31 
 0 
 0 
LINE
 10 
 550.672021484375 
 20 
 343.588818359375 
 30 
 0 
 11 
 547.484033203125 
 21 
 343.951196289063 
 31 
 0 
 0 
LINE
 10 
 547.484033203125 
 20 
 343.951196289063 
 30 
 0 
 11 
 543.143994140625 
 21 
 344.102392578125 
 31 
 0 
 0 
LINE
 10 
 543.143994140625 
 20 
 344.102392578125 
 30 
 0 
 11 
 537.1 
 21 
 344.1 
 31 
 0 
 0 
LINE
 10 
 537.1 
 20 
 344.1 
 30 
 0 
 11 
 531.72958984375 
 21 
 344.139990234375 
 31 
 0 
 0 
LINE
 10 
 531.72958984375 
 20 
 344.139990234375 
 30 
 0 
 11 
 527.616796875 
 21 
 344.276025390625 
 31 
 0 
 0 
LINE
 10 
 527.616796875 
 20 
 344.276025390625 
 30 
 0 
 11 
 524.57919921875 
 21 
 344.532006835938 
 31 
 0 
 0 
LINE
 10 
 524.57919921875 
 20 
 344.532006835938 
 30 
 0 
 11 
 522.434423828125 
 21 
 344.932006835938 
 31 
 0 
 0 
LINE
 10 
 522.434423828125 
 20 
 344.932006835938 
 30 
 0 
 11 
 521 
 21 
 345.5 
 31 
 0 
 0 
LINE
 10 
 521 
 20 
 345.5 
 30 
 0 
 11 
 520.271142578125 
 21 
 345.953588867188 
 31 
 0 
 0 
LINE
 10 
 520.271142578125 
 20 
 345.953588867188 
 30 
 0 
 11 
 519.777587890625 
 21 
 346.344799804688 
 31 
 0 
 0 
LINE
 10 
 519.777587890625 
 20 
 346.344799804688 
 30 
 0 
 11 
 519.53837890625 
 21 
 346.659204101563 
 31 
 0 
 0 
LINE
 10 
 519.53837890625 
 20 
 346.659204101563 
 30 
 0 
 11 
 519.572802734375 
 21 
 346.882397460938 
 31 
 0 
 0 
LINE
 10 
 519.572802734375 
 20 
 346.882397460938 
 30 
 0 
 11 
 519.9 
 21 
 347 
 31 
 0 
 0 
LINE
 10 
 519.9 
 20 
 347 
 30 
 0 
 11 
 520.309521484375 
 21 
 347.141577148438 
 31 
 0 
 0 
LINE
 10 
 520.309521484375 
 20 
 347.141577148438 
 30 
 0 
 11 
 520.344775390625 
 21 
 347.556811523438 
 31 
 0 
 0 
LINE
 10 
 520.344775390625 
 20 
 347.556811523438 
 30 
 0 
 11 
 520.015234375 
 21 
 348.231225585938 
 31 
 0 
 0 
LINE
 10 
 520.015234375 
 20 
 348.231225585938 
 30 
 0 
 11 
 519.330419921875 
 21 
 349.150415039063 
 31 
 0 
 0 
LINE
 10 
 519.330419921875 
 20 
 349.150415039063 
 30 
 0 
 11 
 518.3 
 21 
 350.3 
 31 
 0 
 0 
LINE
 10 
 518.3 
 20 
 350.3 
 30 
 0 
 11 
 517.161572265625 
 21 
 351.445581054688 
 31 
 0 
 0 
LINE
 10 
 517.161572265625 
 20 
 351.445581054688 
 30 
 0 
 11 
 515.960791015625 
 21 
 352.768823242188 
 31 
 0 
 0 
LINE
 10 
 515.960791015625 
 20 
 352.768823242188 
 30 
 0 
 11 
 514.77919921875 
 21 
 354.159204101563 
 31 
 0 
 0 
LINE
 10 
 514.77919921875 
 20 
 354.159204101563 
 30 
 0 
 11 
 513.698388671875 
 21 
 355.506420898438 
 31 
 0 
 0 
LINE
 10 
 513.698388671875 
 20 
 355.506420898438 
 30 
 0 
 11 
 512.8 
 21 
 356.7 
 31 
 0 
 0 
LINE
 10 
 512.8 
 20 
 356.7 
 30 
 0 
 11 
 511.29677734375 
 21 
 358.78798828125 
 31 
 0 
 0 
LINE
 10 
 511.29677734375 
 20 
 358.78798828125 
 30 
 0 
 11 
 509.078369140625 
 21 
 361.740014648438 
 31 
 0 
 0 
LINE
 10 
 509.078369140625 
 20 
 361.740014648438 
 30 
 0 
 11 
 505.26162109375 
 21 
 366.7080078125 
 31 
 0 
 0 
LINE
 10 
 505.26162109375 
 20 
 366.7080078125 
 30 
 0 
 11 
 498.963232421875 
 21 
 374.844018554688 
 31 
 0 
 0 
LINE
 10 
 498.963232421875 
 20 
 374.844018554688 
 30 
 0 
 11 
 489.3 
 21 
 387.3 
 31 
 0 
 0 
LINE
 10 
 489.3 
 20 
 387.3 
 30 
 0 
 11 
 485.4095703125 
 21 
 392.318359375 
 31 
 0 
 0 
LINE
 10 
 485.4095703125 
 20 
 392.318359375 
 30 
 0 
 11 
 482.0328125 
 21 
 396.751220703125 
 31 
 0 
 0 
LINE
 10 
 482.0328125 
 20 
 396.751220703125 
 30 
 0 
 11 
 479.37119140625 
 21 
 400.3248046875 
 31 
 0 
 0 
LINE
 10 
 479.37119140625 
 20 
 400.3248046875 
 30 
 0 
 11 
 477.626416015625 
 21 
 402.765600585938 
 31 
 0 
 0 
LINE
 10 
 477.626416015625 
 20 
 402.765600585938 
 30 
 0 
 11 
 477 
 21 
 403.8 
 31 
 0 
 0 
LINE
 10 
 477 
 20 
 403.8 
 30 
 0 
 11 
 477.44716796875 
 21 
 404.458374023438 
 31 
 0 
 0 
LINE
 10 
 477.44716796875 
 20 
 404.458374023438 
 30 
 0 
 11 
 478.585595703125 
 21 
 405.851220703125 
 31 
 0 
 0 
LINE
 10 
 478.585595703125 
 20 
 405.851220703125 
 30 
 0 
 11 
 480.2904296875 
 21 
 407.8248046875 
 31 
 0 
 0 
LINE
 10 
 480.2904296875 
 20 
 407.8248046875 
 30 
 0 
 11 
 482.43681640625 
 21 
 410.225634765625 
 31 
 0 
 0 
LINE
 10 
 482.43681640625 
 20 
 410.225634765625 
 30 
 0 
 11 
 484.9 
 21 
 412.9 
 31 
 0 
 0 
LINE
 10 
 484.9 
 20 
 412.9 
 30 
 0 
 11 
 492.6 
 21 
 421.3 
 31 
 0 
 0 
LINE
 10 
 492.6 
 20 
 421.3 
 30 
 0 
 11 
 502.1 
 21 
 419.5 
 31 
 0 
 0 
LINE
 10 
 502.1 
 20 
 419.5 
 30 
 0 
 11 
 510.869580078125 
 21 
 417.778369140625 
 31 
 0 
 0 
LINE
 10 
 510.869580078125 
 20 
 417.778369140625 
 30 
 0 
 11 
 518.2328125 
 21 
 415.975244140625 
 31 
 0 
 0 
LINE
 10 
 518.2328125 
 20 
 415.975244140625 
 30 
 0 
 11 
 524.751220703125 
 21 
 413.91279296875 
 31 
 0 
 0 
LINE
 10 
 524.751220703125 
 20 
 413.91279296875 
 30 
 0 
 11 
 530.98642578125 
 21 
 411.413623046875 
 31 
 0 
 0 
LINE
 10 
 530.98642578125 
 20 
 411.413623046875 
 30 
 0 
 11 
 537.5 
 21 
 408.3 
 31 
 0 
 0 
LINE
 10 
 537.5 
 20 
 408.3 
 30 
 0 
 11 
 546.479150390625 
 21 
 403.556787109375 
 31 
 0 
 0 
LINE
 10 
 546.479150390625 
 20 
 403.556787109375 
 30 
 0 
 11 
 553.437646484375 
 21 
 399.082397460938 
 31 
 0 
 0 
LINE
 10 
 553.437646484375 
 20 
 399.082397460938 
 30 
 0 
 11 
 559.18642578125 
 21 
 394.209619140625 
 31 
 0 
 0 
LINE
 10 
 559.18642578125 
 20 
 394.209619140625 
 30 
 0 
 11 
 564.53681640625 
 21 
 388.27119140625 
 31 
 0 
 0 
LINE
 10 
 564.53681640625 
 20 
 388.27119140625 
 30 
 0 
 11 
 570.3 
 21 
 380.6 
 31 
 0 
 0 
LINE
 10 
 570.3 
 20 
 380.6 
 30 
 0 
 11 
 571.067236328125 
 21 
 379.707177734375 
 31 
 0 
 0 
LINE
 10 
 571.067236328125 
 20 
 379.707177734375 
 30 
 0 
 11 
 572.117626953125 
 21 
 378.8576171875 
 31 
 0 
 0 
LINE
 10 
 572.117626953125 
 20 
 378.8576171875 
 30 
 0 
 11 
 573.3744140625 
 21 
 378.094409179688 
 31 
 0 
 0 
LINE
 10 
 573.3744140625 
 20 
 378.094409179688 
 30 
 0 
 11 
 574.760791015625 
 21 
 377.460815429688 
 31 
 0 
 0 
LINE
 10 
 574.760791015625 
 20 
 377.460815429688 
 30 
 0 
 11 
 576.2 
 21 
 377 
 31 
 0 
 0 
LINE
 10 
 576.2 
 20 
 377 
 30 
 0 
 11 
 578.184814453125 
 21 
 376.543969726563 
 31 
 0 
 0 
LINE
 10 
 578.184814453125 
 20 
 376.543969726563 
 30 
 0 
 11 
 579.9583984375 
 21 
 376.423999023438 
 31 
 0 
 0 
LINE
 10 
 579.9583984375 
 20 
 376.423999023438 
 30 
 0 
 11 
 581.909619140625 
 21 
 376.711987304688 
 31 
 0 
 0 
LINE
 10 
 581.909619140625 
 20 
 376.711987304688 
 30 
 0 
 11 
 584.427197265625 
 21 
 377.480004882813 
 31 
 0 
 0 
LINE
 10 
 584.427197265625 
 20 
 377.480004882813 
 30 
 0 
 11 
 587.9 
 21 
 378.8 
 31 
 0 
 0 
LINE
 10 
 587.9 
 20 
 378.8 
 30 
 0 
 11 
 593.7583984375 
 21 
 380.908764648438 
 31 
 0 
 0 
LINE
 10 
 593.7583984375 
 20 
 380.908764648438 
 30 
 0 
 11 
 599.29521484375 
 21 
 382.470434570313 
 31 
 0 
 0 
LINE
 10 
 599.29521484375 
 20 
 382.470434570313 
 30 
 0 
 11 
 604.812841796875 
 21 
 383.537622070313 
 31 
 0 
 0 
LINE
 10 
 604.812841796875 
 20 
 383.537622070313 
 30 
 0 
 11 
 610.613623046875 
 21 
 384.163208007813 
 31 
 0 
 0 
LINE
 10 
 610.613623046875 
 20 
 384.163208007813 
 30 
 0 
 11 
 617 
 21 
 384.4 
 31 
 0 
 0 
LINE
 10 
 617 
 20 
 384.4 
 30 
 0 
 11 
 621.282373046875 
 21 
 384.400805664063 
 31 
 0 
 0 
LINE
 10 
 621.282373046875 
 20 
 384.400805664063 
 30 
 0 
 11 
 624.331201171875 
 21 
 384.238403320313 
 31 
 0 
 0 
LINE
 10 
 624.331201171875 
 20 
 384.238403320313 
 30 
 0 
 11 
 626.568798828125 
 21 
 383.84560546875 
 31 
 0 
 0 
LINE
 10 
 626.568798828125 
 20 
 383.84560546875 
 30 
 0 
 11 
 628.417626953125 
 21 
 383.155200195313 
 31 
 0 
 0 
LINE
 10 
 628.417626953125 
 20 
 383.155200195313 
 30 
 0 
 11 
 630.3 
 21 
 382.1 
 31 
 0 
 0 
LINE
 10 
 630.3 
 20 
 382.1 
 30 
 0 
 11 
 631.5248046875 
 21 
 381.383984375 
 31 
 0 
 0 
LINE
 10 
 631.5248046875 
 20 
 381.383984375 
 30 
 0 
 11 
 632.634423828125 
 21 
 380.812036132813 
 31 
 0 
 0 
LINE
 10 
 632.634423828125 
 20 
 380.812036132813 
 30 
 0 
 11 
 633.56162109375 
 21 
 380.4080078125 
 31 
 0 
 0 
LINE
 10 
 633.56162109375 
 20 
 380.4080078125 
 30 
 0 
 11 
 634.239208984375 
 21 
 380.19599609375 
 31 
 0 
 0 
LINE
 10 
 634.239208984375 
 20 
 380.19599609375 
 30 
 0 
 11 
 634.6 
 21 
 380.2 
 31 
 0 
 0 
LINE
 10 
 634.6 
 20 
 380.2 
 30 
 0 
 11 
 633.887939453125 
 21 
 382.550390625 
 31 
 0 
 0 
LINE
 10 
 633.887939453125 
 20 
 382.550390625 
 30 
 0 
 11 
 631.49599609375 
 21 
 387.915209960938 
 31 
 0 
 0 
LINE
 10 
 631.49599609375 
 20 
 387.915209960938 
 30 
 0 
 11 
 628.119970703125 
 21 
 394.844799804688 
 31 
 0 
 0 
LINE
 10 
 628.119970703125 
 20 
 394.844799804688 
 30 
 0 
 11 
 624.456005859375 
 21 
 401.889599609375 
 31 
 0 
 0 
LINE
 10 
 624.456005859375 
 20 
 401.889599609375 
 30 
 0 
 11 
 621.2 
 21 
 407.6 
 31 
 0 
 0 
LINE
 10 
 621.2 
 20 
 407.6 
 30 
 0 
 11 
 617.256005859375 
 21 
 413.523974609375 
 31 
 0 
 0 
LINE
 10 
 617.256005859375 
 20 
 413.523974609375 
 30 
 0 
 11 
 612.664013671875 
 21 
 419.447998046875 
 31 
 0 
 0 
LINE
 10 
 612.664013671875 
 20 
 419.447998046875 
 30 
 0 
 11 
 608.023974609375 
 21 
 424.7 
 31 
 0 
 0 
LINE
 10 
 608.023974609375 
 20 
 424.7 
 30 
 0 
 11 
 603.93603515625 
 21 
 428.6080078125 
 31 
 0 
 0 
LINE
 10 
 603.93603515625 
 20 
 428.6080078125 
 30 
 0 
 11 
 601 
 21 
 430.5 
 31 
 0 
 0 
LINE
 10 
 601 
 20 
 430.5 
 30 
 0 
 11 
 600.369580078125 
 21 
 430.76162109375 
 31 
 0 
 0 
LINE
 10 
 600.369580078125 
 20 
 430.76162109375 
 30 
 0 
 11 
 599.82080078125 
 21 
 431.056787109375 
 31 
 0 
 0 
LINE
 10 
 599.82080078125 
 20 
 431.056787109375 
 30 
 0 
 11 
 599.38720703125 
 21 
 431.37119140625 
 31 
 0 
 0 
LINE
 10 
 599.38720703125 
 20 
 431.37119140625 
 30 
 0 
 11 
 599.10244140625 
 21 
 431.6904296875 
 31 
 0 
 0 
LINE
 10 
 599.10244140625 
 20 
 431.6904296875 
 30 
 0 
 11 
 599 
 21 
 432 
 31 
 0 
 0 
LINE
 10 
 599 
 20 
 432 
 30 
 0 
 11 
 598.5751953125 
 21 
 432.517578125 
 31 
 0 
 0 
LINE
 10 
 598.5751953125 
 20 
 432.517578125 
 30 
 0 
 11 
 597.18564453125 
 21 
 433.40478515625 
 31 
 0 
 0 
LINE
 10 
 597.18564453125 
 20 
 433.40478515625 
 30 
 0 
 11 
 594.6583984375 
 21 
 434.743212890625 
 31 
 0 
 0 
LINE
 10 
 594.6583984375 
 20 
 434.743212890625 
 30 
 0 
 11 
 590.82080078125 
 21 
 436.614404296875 
 31 
 0 
 0 
LINE
 10 
 590.82080078125 
 20 
 436.614404296875 
 30 
 0 
 11 
 585.5 
 21 
 439.1 
 31 
 0 
 0 
LINE
 10 
 585.5 
 20 
 439.1 
 30 
 0 
 11 
 580.610400390625 
 21 
 440.76318359375 
 31 
 0 
 0 
LINE
 10 
 580.610400390625 
 20 
 440.76318359375 
 30 
 0 
 11 
 573.095166015625 
 21 
 442.565576171875 
 31 
 0 
 0 
LINE
 10 
 573.095166015625 
 20 
 442.565576171875 
 30 
 0 
 11 
 563.4248046875 
 21 
 444.406396484375 
 31 
 0 
 0 
LINE
 10 
 563.4248046875 
 20 
 444.406396484375 
 30 
 0 
 11 
 552.06962890625 
 21 
 446.184814453125 
 31 
 0 
 0 
LINE
 10 
 552.06962890625 
 20 
 446.184814453125 
 30 
 0 
 11 
 539.5 
 21 
 447.8 
 31 
 0 
 0 
LINE
 10 
 539.5 
 20 
 447.8 
 30 
 0 
 11 
 532.5 
 21 
 448.7 
 31 
 0 
 0 
LINE
 10 
 532.5 
 20 
 448.7 
 30 
 0 
 11 
 541.5 
 21 
 452.9 
 31 
 0 
 0 
LINE
 10 
 541.5 
 20 
 452.9 
 30 
 0 
 11 
 572.4 
 21 
 464.0759765625 
 31 
 0 
 0 
LINE
 10 
 572.4 
 20 
 464.0759765625 
 30 
 0 
 11 
 605.027978515625 
 21 
 469.300048828125 
 31 
 0 
 0 
LINE
 10 
 605.027978515625 
 20 
 469.300048828125 
 30 
 0 
 11 
 638.376025390625 
 21 
 468.59599609375 
 31 
 0 
 0 
LINE
 10 
 638.376025390625 
 20 
 468.59599609375 
 30 
 0 
 11 
 671.43603515625 
 21 
 461.98798828125 
 31 
 0 
 0 
LINE
 10 
 671.43603515625 
 20 
 461.98798828125 
 30 
 0 
 11 
 703.2 
 21 
 449.5 
 31 
 0 
 0 
LINE
 10 
 703.2 
 20 
 449.5 
 30 
 0 
 11 
 706.303955078125 
 21 
 447.977587890625 
 31 
 0 
 0 
LINE
 10 
 706.303955078125 
 20 
 447.977587890625 
 30 
 0 
 11 
 708.760009765625 
 21 
 446.89677734375 
 31 
 0 
 0 
LINE
 10 
 708.760009765625 
 20 
 446.89677734375 
 30 
 0 
 11 
 710.543994140625 
 21 
 446.2671875 
 31 
 0 
 0 
LINE
 10 
 710.543994140625 
 20 
 446.2671875 
 30 
 0 
 11 
 711.631982421875 
 21 
 446.098388671875 
 31 
 0 
 0 
LINE
 10 
 711.631982421875 
 20 
 446.098388671875 
 30 
 0 
 11 
 712 
 21 
 446.4 
 31 
 0 
 0 
LINE
 10 
 712 
 20 
 446.4 
 30 
 0 
 11 
 709.98076171875 
 21 
 447.990380859375 
 31 
 0 
 0 
LINE
 10 
 709.98076171875 
 20 
 447.990380859375 
 30 
 0 
 11 
 704.822412109375 
 21 
 450.867236328125 
 31 
 0 
 0 
LINE
 10 
 704.822412109375 
 20 
 450.867236328125 
 30 
 0 
 11 
 697.873583984375 
 21 
 454.348779296875 
 31 
 0 
 0 
LINE
 10 
 697.873583984375 
 20 
 454.348779296875 
 30 
 0 
 11 
 690.483203125 
 21 
 457.75361328125 
 31 
 0 
 0 
LINE
 10 
 690.483203125 
 20 
 457.75361328125 
 30 
 0 
 11 
 684 
 21 
 460.4 
 31 
 0 
 0 
LINE
 10 
 684 
 20 
 460.4 
 30 
 0 
 11 
 679.5 
 21 
 462.1 
 31 
 0 
 0 
LINE
 10 
 679.5 
 20 
 462.1 
 30 
 0 
 11 
 679.8 
 21 
 468 
 31 
 0 
 0 
LINE
 10 
 679.8 
 20 
 468 
 30 
 0 
 11 
 680.2 
 21 
 474 
 31 
 0 
 0 
LINE
 10 
 680.2 
 20 
 474 
 30 
 0 
 11 
 764 
 21 
 474 
 31 
 0 
 0 
LINE
 10 
 764 
 20 
 474 
 30 
 0 
 11 
 801.611962890625 
 21 
 474.031982421875 
 31 
 0 
 0 
LINE
 10 
 801.611962890625 
 20 
 474.031982421875 
 30 
 0 
 11 
 826.09599609375 
 21 
 474.160009765625 
 31 
 0 
 0 
LINE
 10 
 826.09599609375 
 20 
 474.160009765625 
 30 
 0 
 11 
 840.283984375 
 21 
 474.431982421875 
 31 
 0 
 0 
LINE
 10 
 840.283984375 
 20 
 474.431982421875 
 30 
 0 
 11 
 847.0080078125 
 21 
 474.89599609375 
 31 
 0 
 0 
LINE
 10 
 847.0080078125 
 20 
 474.89599609375 
 30 
 0 
 11 
 849.1 
 21 
 475.6 
 31 
 0 
 0 
LINE
 10 
 849.1 
 20 
 475.6 
 30 
 0 
 11 
 849.9591796875 
 21 
 477.225537109375 
 31 
 0 
 0 
LINE
 10 
 849.9591796875 
 20 
 477.225537109375 
 30 
 0 
 11 
 849.68564453125 
 21 
 478.59677734375 
 31 
 0 
 0 
LINE
 10 
 849.68564453125 
 20 
 478.59677734375 
 30 
 0 
 11 
 848.32236328125 
 21 
 479.6751953125 
 31 
 0 
 0 
LINE
 10 
 848.32236328125 
 20 
 479.6751953125 
 30 
 0 
 11 
 845.91279296875 
 21 
 480.422412109375 
 31 
 0 
 0 
LINE
 10 
 845.91279296875 
 20 
 480.422412109375 
 30 
 0 
 11 
 842.5 
 21 
 480.8 
 31 
 0 
 0 
LINE
 10 
 842.5 
 20 
 480.8 
 30 
 0 
 11 
 839.7703125 
 21 
 480.97119140625 
 31 
 0 
 0 
LINE
 10 
 839.7703125 
 20 
 480.97119140625 
 30 
 0 
 11 
 838.183203125 
 21 
 481.18564453125 
 31 
 0 
 0 
LINE
 10 
 838.183203125 
 20 
 481.18564453125 
 30 
 0 
 11 
 837.56083984375 
 21 
 481.534423828125 
 31 
 0 
 0 
LINE
 10 
 837.56083984375 
 20 
 481.534423828125 
 30 
 0 
 11 
 837.7255859375 
 21 
 482.1087890625 
 31 
 0 
 0 
LINE
 10 
 837.7255859375 
 20 
 482.1087890625 
 30 
 0 
 11 
 838.5 
 21 
 483 
 31 
 0 
 0 
LINE
 10 
 838.5 
 20 
 483 
 30 
 0 
 11 
 839.2671875 
 21 
 484.300732421875 
 31 
 0 
 0 
LINE
 10 
 839.2671875 
 20 
 484.300732421875 
 30 
 0 
 11 
 839.81357421875 
 21 
 486.56640625 
 31 
 0 
 0 
LINE
 10 
 839.81357421875 
 20 
 486.56640625 
 30 
 0 
 11 
 840.2064453125 
 21 
 490.401611328125 
 31 
 0 
 0 
LINE
 10 
 840.2064453125 
 20 
 490.401611328125 
 30 
 0 
 11 
 840.51279296875 
 21 
 496.41123046875 
 31 
 0 
 0 
LINE
 10 
 840.51279296875 
 20 
 496.41123046875 
 30 
 0 
 11 
 840.8 
 21 
 505.2 
 31 
 0 
 0 
LINE
 10 
 840.8 
 20 
 505.2 
 30 
 0 
 11 
 841.07197265625 
 21 
 514.831201171875 
 31 
 0 
 0 
LINE
 10 
 841.07197265625 
 20 
 514.831201171875 
 30 
 0 
 11 
 841.36796875 
 21 
 520.977587890625 
 31 
 0 
 0 
LINE
 10 
 841.36796875 
 20 
 520.977587890625 
 30 
 0 
 11 
 841.8080078125 
 21 
 524.618408203125 
 31 
 0 
 0 
LINE
 10 
 841.8080078125 
 20 
 524.618408203125 
 30 
 0 
 11 
 842.51201171875 
 21 
 526.7328125 
 31 
 0 
 0 
LINE
 10 
 842.51201171875 
 20 
 526.7328125 
 30 
 0 
 11 
 843.6 
 21 
 528.3 
 31 
 0 
 0 
LINE
 10 
 843.6 
 20 
 528.3 
 30 
 0 
 11 
 845.0064453125 
 21 
 530.128759765625 
 31 
 0 
 0 
LINE
 10 
 845.0064453125 
 20 
 530.128759765625 
 30 
 0 
 11 
 845.75517578125 
 21 
 531.650390625 
 31 
 0 
 0 
LINE
 10 
 845.75517578125 
 20 
 531.650390625 
 30 
 0 
 11 
 845.86083984375 
 21 
 533.03759765625 
 31 
 0 
 0 
LINE
 10 
 845.86083984375 
 20 
 533.03759765625 
 30 
 0 
 11 
 845.33759765625 
 21 
 534.463232421875 
 31 
 0 
 0 
LINE
 10 
 845.33759765625 
 20 
 534.463232421875 
 30 
 0 
 11 
 844.2 
 21 
 536.1 
 31 
 0 
 0 
LINE
 10 
 844.2 
 20 
 536.1 
 30 
 0 
 11 
 843.19365234375 
 21 
 537.10712890625 
 31 
 0 
 0 
LINE
 10 
 843.19365234375 
 20 
 537.10712890625 
 30 
 0 
 11 
 841.98076171875 
 21 
 537.7736328125 
 31 
 0 
 0 
LINE
 10 
 841.98076171875 
 20 
 537.7736328125 
 30 
 0 
 11 
 840.2111328125 
 21 
 538.16640625 
 31 
 0 
 0 
LINE
 10 
 840.2111328125 
 20 
 538.16640625 
 30 
 0 
 11 
 837.534375 
 21 
 538.352783203125 
 31 
 0 
 0 
LINE
 10 
 837.534375 
 20 
 538.352783203125 
 30 
 0 
 11 
 833.6 
 21 
 538.4 
 31 
 0 
 0 
LINE
 10 
 833.6 
 20 
 538.4 
 30 
 0 
 11 
 829.549609375 
 21 
 538.410400390625 
 31 
 0 
 0 
LINE
 10 
 829.549609375 
 20 
 538.410400390625 
 30 
 0 
 11 
 826.85283203125 
 21 
 538.2671875 
 31 
 0 
 0 
LINE
 10 
 826.85283203125 
 20 
 538.2671875 
 30 
 0 
 11 
 825.11123046875 
 21 
 537.888818359375 
 31 
 0 
 0 
LINE
 10 
 825.11123046875 
 20 
 537.888818359375 
 30 
 0 
 11 
 823.9263671875 
 21 
 537.193603515625 
 31 
 0 
 0 
LINE
 10 
 823.9263671875 
 20 
 537.193603515625 
 30 
 0 
 11 
 822.9 
 21 
 536.1 
 31 
 0 
 0 
LINE
 10 
 822.9 
 20 
 536.1 
 30 
 0 
 11 
 821.67998046875 
 21 
 534.363232421875 
 31 
 0 
 0 
LINE
 10 
 821.67998046875 
 20 
 534.363232421875 
 30 
 0 
 11 
 821.1560546875 
 21 
 532.86162109375 
 31 
 0 
 0 
LINE
 10 
 821.1560546875 
 20 
 532.86162109375 
 30 
 0 
 11 
 821.35205078125 
 21 
 531.3984375 
 31 
 0 
 0 
LINE
 10 
 821.35205078125 
 20 
 531.3984375 
 30 
 0 
 11 
 822.2919921875 
 21 
 529.776806640625 
 31 
 0 
 0 
LINE
 10 
 822.2919921875 
 20 
 529.776806640625 
 30 
 0 
 11 
 824 
 21 
 527.8 
 31 
 0 
 0 
LINE
 10 
 824 
 20 
 527.8 
 30 
 0 
 11 
 825.19521484375 
 21 
 526.477587890625 
 31 
 0 
 0 
LINE
 10 
 825.19521484375 
 20 
 526.477587890625 
 30 
 0 
 11 
 826.049609375 
 21 
 525.21279296875 
 31 
 0 
 0 
LINE
 10 
 826.049609375 
 20 
 525.21279296875 
 30 
 0 
 11 
 826.60634765625 
 21 
 523.919189453125 
 31 
 0 
 0 
LINE
 10 
 826.60634765625 
 20 
 523.919189453125 
 30 
 0 
 11 
 826.9087890625 
 21 
 522.510400390625 
 31 
 0 
 0 
LINE
 10 
 826.9087890625 
 20 
 522.510400390625 
 30 
 0 
 11 
 827 
 21 
 520.9 
 31 
 0 
 0 
LINE
 10 
 827 
 20 
 520.9 
 30 
 0 
 11 
 826.96640625 
 21 
 519.649560546875 
 31 
 0 
 0 
LINE
 10 
 826.96640625 
 20 
 519.649560546875 
 30 
 0 
 11 
 826.8751953125 
 21 
 518.576806640625 
 31 
 0 
 0 
LINE
 10 
 826.8751953125 
 20 
 518.576806640625 
 30 
 0 
 11 
 826.7408203125 
 21 
 517.739208984375 
 31 
 0 
 0 
LINE
 10 
 826.7408203125 
 20 
 517.739208984375 
 30 
 0 
 11 
 826.57763671875 
 21 
 517.19443359375 
 31 
 0 
 0 
LINE
 10 
 826.57763671875 
 20 
 517.19443359375 
 30 
 0 
 11 
 826.4 
 21 
 517 
 31 
 0 
 0 
LINE
 10 
 826.4 
 20 
 517 
 30 
 0 
 11 
 825.79755859375 
 21 
 517.3423828125 
 31 
 0 
 0 
LINE
 10 
 825.79755859375 
 20 
 517.3423828125 
 30 
 0 
 11 
 824.5568359375 
 21 
 518.299169921875 
 31 
 0 
 0 
LINE
 10 
 824.5568359375 
 20 
 518.299169921875 
 30 
 0 
 11 
 822.8072265625 
 21 
 519.764794921875 
 31 
 0 
 0 
LINE
 10 
 822.8072265625 
 20 
 519.764794921875 
 30 
 0 
 11 
 820.67841796875 
 21 
 521.63359375 
 31 
 0 
 0 
LINE
 10 
 820.67841796875 
 20 
 521.63359375 
 30 
 0 
 11 
 818.3 
 21 
 523.8 
 31 
 0 
 0 
LINE
 10 
 818.3 
 20 
 523.8 
 30 
 0 
 11 
 815.716796875 
 21 
 526.111962890625 
 31 
 0 
 0 
LINE
 10 
 815.716796875 
 20 
 526.111962890625 
 30 
 0 
 11 
 813.01845703125 
 21 
 528.496044921875 
 31 
 0 
 0 
LINE
 10 
 813.01845703125 
 20 
 528.496044921875 
 30 
 0 
 11 
 810.401611328125 
 21 
 530.784033203125 
 31 
 0 
 0 
LINE
 10 
 810.401611328125 
 20 
 530.784033203125 
 30 
 0 
 11 
 808.063232421875 
 21 
 532.8080078125 
 31 
 0 
 0 
LINE
 10 
 808.063232421875 
 20 
 532.8080078125 
 30 
 0 
 11 
 806.2 
 21 
 534.4 
 31 
 0 
 0 
LINE
 10 
 806.2 
 20 
 534.4 
 30 
 0 
 11 
 801.5 
 21 
 538.2 
 31 
 0 
 0 
LINE
 10 
 801.5 
 20 
 538.2 
 30 
 0 
 11 
 793.8 
 21 
 537.8 
 31 
 0 
 0 
LINE
 10 
 793.8 
 20 
 537.8 
 30 
 0 
 11 
 790.735986328125 
 21 
 537.57041015625 
 31 
 0 
 0 
LINE
 10 
 790.735986328125 
 20 
 537.57041015625 
 30 
 0 
 11 
 788.320068359375 
 21 
 537.235205078125 
 31 
 0 
 0 
LINE
 10 
 788.320068359375 
 20 
 537.235205078125 
 30 
 0 
 11 
 786.45595703125 
 21 
 536.784814453125 
 31 
 0 
 0 
LINE
 10 
 786.45595703125 
 20 
 536.784814453125 
 30 
 0 
 11 
 785.047998046875 
 21 
 536.209619140625 
 31 
 0 
 0 
LINE
 10 
 785.047998046875 
 20 
 536.209619140625 
 30 
 0 
 11 
 784 
 21 
 535.5 
 31 
 0 
 0 
LINE
 10 
 784 
 20 
 535.5 
 30 
 0 
 11 
 782.727197265625 
 21 
 533.89677734375 
 31 
 0 
 0 
LINE
 10 
 782.727197265625 
 20 
 533.89677734375 
 30 
 0 
 11 
 782.145654296875 
 21 
 532.154443359375 
 31 
 0 
 0 
LINE
 10 
 782.145654296875 
 20 
 532.154443359375 
 30 
 0 
 11 
 782.250390625 
 21 
 530.373583984375 
 31 
 0 
 0 
LINE
 10 
 782.250390625 
 20 
 530.373583984375 
 30 
 0 
 11 
 783.03681640625 
 21 
 528.655224609375 
 31 
 0 
 0 
LINE
 10 
 783.03681640625 
 20 
 528.655224609375 
 30 
 0 
 11 
 784.5 
 21 
 527.1 
 31 
 0 
 0 
LINE
 10 
 784.5 
 20 
 527.1 
 30 
 0 
 11 
 786.19677734375 
 21 
 525.09755859375 
 31 
 0 
 0 
LINE
 10 
 786.19677734375 
 20 
 525.09755859375 
 30 
 0 
 11 
 787.46640625 
 21 
 521.880810546875 
 31 
 0 
 0 
LINE
 10 
 787.46640625 
 20 
 521.880810546875 
 30 
 0 
 11 
 788.33759765625 
 21 
 517.315185546875 
 31 
 0 
 0 
LINE
 10 
 788.33759765625 
 20 
 517.315185546875 
 30 
 0 
 11 
 788.839208984375 
 21 
 511.26640625 
 31 
 0 
 0 
LINE
 10 
 788.839208984375 
 20 
 511.26640625 
 30 
 0 
 11 
 789 
 21 
 503.6 
 31 
 0 
 0 
LINE
 10 
 789 
 20 
 503.6 
 30 
 0 
 11 
 788.960791015625 
 21 
 499.07197265625 
 31 
 0 
 0 
LINE
 10 
 788.960791015625 
 20 
 499.07197265625 
 30 
 0 
 11 
 788.782373046875 
 21 
 495.983984375 
 31 
 0 
 0 
LINE
 10 
 788.782373046875 
 20 
 495.983984375 
 30 
 0 
 11 
 788.3736328125 
 21 
 493.880029296875 
 31 
 0 
 0 
LINE
 10 
 788.3736328125 
 20 
 493.880029296875 
 30 
 0 
 11 
 787.643212890625 
 21 
 492.30400390625 
 31 
 0 
 0 
LINE
 10 
 787.643212890625 
 20 
 492.30400390625 
 30 
 0 
 11 
 786.5 
 21 
 490.8 
 31 
 0 
 0 
LINE
 10 
 786.5 
 20 
 490.8 
 30 
 0 
 11 
 785.046337890625 
 21 
 488.85595703125 
 31 
 0 
 0 
LINE
 10 
 785.046337890625 
 20 
 488.85595703125 
 30 
 0 
 11 
 784.27919921875 
 21 
 487.248046875 
 31 
 0 
 0 
LINE
 10 
 784.27919921875 
 20 
 487.248046875 
 30 
 0 
 11 
 784.188818359375 
 21 
 485.83203125 
 31 
 0 
 0 
LINE
 10 
 784.188818359375 
 20 
 485.83203125 
 30 
 0 
 11 
 784.765625 
 21 
 484.464013671875 
 31 
 0 
 0 
LINE
 10 
 784.765625 
 20 
 484.464013671875 
 30 
 0 
 11 
 786 
 21 
 483 
 31 
 0 
 0 
LINE
 10 
 786 
 20 
 483 
 30 
 0 
 11 
 786.923974609375 
 21 
 482.02392578125 
 31 
 0 
 0 
LINE
 10 
 786.923974609375 
 20 
 482.02392578125 
 30 
 0 
 11 
 787.152001953125 
 21 
 481.431982421875 
 31 
 0 
 0 
LINE
 10 
 787.152001953125 
 20 
 481.431982421875 
 30 
 0 
 11 
 786.46796875 
 21 
 481.12802734375 
 31 
 0 
 0 
LINE
 10 
 786.46796875 
 20 
 481.12802734375 
 30 
 0 
 11 
 784.656005859375 
 21 
 481.016015625 
 31 
 0 
 0 
LINE
 10 
 784.656005859375 
 20 
 481.016015625 
 30 
 0 
 11 
 781.5 
 21 
 481 
 31 
 0 
 0 
LINE
 10 
 781.5 
 20 
 481 
 30 
 0 
 11 
 774.9 
 21 
 481 
 31 
 0 
 0 
LINE
 10 
 774.9 
 20 
 481 
 30 
 0 
 11 
 776.4 
 21 
 483.9 
 31 
 0 
 0 
LINE
 10 
 776.4 
 20 
 483.9 
 30 
 0 
 11 
 777.70556640625 
 21 
 486.917578125 
 31 
 0 
 0 
LINE
 10 
 777.70556640625 
 20 
 486.917578125 
 30 
 0 
 11 
 778.492822265625 
 21 
 489.968798828125 
 31 
 0 
 0 
LINE
 10 
 778.492822265625 
 20 
 489.968798828125 
 30 
 0 
 11 
 778.747216796875 
 21 
 492.871240234375 
 31 
 0 
 0 
LINE
 10 
 778.747216796875 
 20 
 492.871240234375 
 30 
 0 
 11 
 778.45439453125 
 21 
 495.4423828125 
 31 
 0 
 0 
LINE
 10 
 778.45439453125 
 20 
 495.4423828125 
 30 
 0 
 11 
 777.6 
 21 
 497.5 
 31 
 0 
 0 
LINE
 10 
 777.6 
 20 
 497.5 
 30 
 0 
 11 
 776.03115234375 
 21 
 499.250390625 
 31 
 0 
 0 
LINE
 10 
 776.03115234375 
 20 
 499.250390625 
 30 
 0 
 11 
 774.289599609375 
 21 
 499.935205078125 
 31 
 0 
 0 
LINE
 10 
 774.289599609375 
 20 
 499.935205078125 
 30 
 0 
 11 
 772.322412109375 
 21 
 499.54482421875 
 31 
 0 
 0 
LINE
 10 
 772.322412109375 
 20 
 499.54482421875 
 30 
 0 
 11 
 770.076806640625 
 21 
 498.06962890625 
 31 
 0 
 0 
LINE
 10 
 770.076806640625 
 20 
 498.06962890625 
 30 
 0 
 11 
 767.5 
 21 
 495.5 
 31 
 0 
 0 
LINE
 10 
 767.5 
 20 
 495.5 
 30 
 0 
 11 
 765.583203125 
 21 
 493.407177734375 
 31 
 0 
 0 
LINE
 10 
 765.583203125 
 20 
 493.407177734375 
 30 
 0 
 11 
 764.04560546875 
 21 
 492.05361328125 
 31 
 0 
 0 
LINE
 10 
 764.04560546875 
 20 
 492.05361328125 
 30 
 0 
 11 
 762.546435546875 
 21 
 491.26640625 
 31 
 0 
 0 
LINE
 10 
 762.546435546875 
 20 
 491.26640625 
 30 
 0 
 11 
 760.74482421875 
 21 
 490.872802734375 
 31 
 0 
 0 
LINE
 10 
 760.74482421875 
 20 
 490.872802734375 
 30 
 0 
 11 
 758.3 
 21 
 490.7 
 31 
 0 
 0 
LINE
 10 
 758.3 
 20 
 490.7 
 30 
 0 
 11 
 756.649560546875 
 21 
 490.675146484375 
 31 
 0 
 0 
LINE
 10 
 756.649560546875 
 20 
 490.675146484375 
 30 
 0 
 11 
 755.12880859375 
 21 
 490.717626953125 
 31 
 0 
 0 
LINE
 10 
 755.12880859375 
 20 
 490.717626953125 
 30 
 0 
 11 
 753.843212890625 
 21 
 490.822412109375 
 31 
 0 
 0 
LINE
 10 
 753.843212890625 
 20 
 490.822412109375 
 30 
 0 
 11 
 752.8984375 
 21 
 490.984814453125 
 31 
 0 
 0 
LINE
 10 
 752.8984375 
 20 
 490.984814453125 
 30 
 0 
 11 
 752.4 
 21 
 491.2 
 31 
 0 
 0 
LINE
 10 
 752.4 
 20 
 491.2 
 30 
 0 
 11 
 752.150390625 
 21 
 491.68798828125 
 31 
 0 
 0 
LINE
 10 
 752.150390625 
 20 
 491.68798828125 
 30 
 0 
 11 
 751.891259765625 
 21 
 492.6080078125 
 31 
 0 
 0 
LINE
 10 
 751.891259765625 
 20 
 492.6080078125 
 30 
 0 
 11 
 751.63681640625 
 21 
 493.864013671875 
 31 
 0 
 0 
LINE
 10 
 751.63681640625 
 20 
 493.864013671875 
 30 
 0 
 11 
 751.401611328125 
 21 
 495.360009765625 
 31 
 0 
 0 
LINE
 10 
 751.401611328125 
 20 
 495.360009765625 
 30 
 0 
 11 
 751.2 
 21 
 497 
 31 
 0 
 0 
LINE
 10 
 751.2 
 20 
 497 
 30 
 0 
 11 
 751.03916015625 
 21 
 499.209619140625 
 31 
 0 
 0 
LINE
 10 
 751.03916015625 
 20 
 499.209619140625 
 30 
 0 
 11 
 751.065625 
 21 
 500.660791015625 
 31 
 0 
 0 
LINE
 10 
 751.065625 
 20 
 500.660791015625 
 30 
 0 
 11 
 751.322412109375 
 21 
 501.5072265625 
 31 
 0 
 0 
LINE
 10 
 751.322412109375 
 20 
 501.5072265625 
 30 
 0 
 11 
 751.852783203125 
 21 
 501.902392578125 
 31 
 0 
 0 
LINE
 10 
 751.852783203125 
 20 
 501.902392578125 
 30 
 0 
 11 
 752.7 
 21 
 502 
 31 
 0 
 0 
LINE
 10 
 752.7 
 20 
 502 
 30 
 0 
 11 
 753.432763671875 
 21 
 501.878369140625 
 31 
 0 
 0 
LINE
 10 
 753.432763671875 
 20 
 501.878369140625 
 30 
 0 
 11 
 754.0744140625 
 21 
 501.507177734375 
 31 
 0 
 0 
LINE
 10 
 754.0744140625 
 20 
 501.507177734375 
 30 
 0 
 11 
 754.629638671875 
 21 
 500.876806640625 
 31 
 0 
 0 
LINE
 10 
 754.629638671875 
 20 
 500.876806640625 
 30 
 0 
 11 
 755.10322265625 
 21 
 499.977587890625 
 31 
 0 
 0 
LINE
 10 
 755.10322265625 
 20 
 499.977587890625 
 30 
 0 
 11 
 755.5 
 21 
 498.8 
 31 
 0 
 0 
LINE
 10 
 755.5 
 20 
 498.8 
 30 
 0 
 11 
 755.983154296875 
 21 
 497.381591796875 
 31 
 0 
 0 
LINE
 10 
 755.983154296875 
 20 
 497.381591796875 
 30 
 0 
 11 
 756.533642578125 
 21 
 496.42880859375 
 31 
 0 
 0 
LINE
 10 
 756.533642578125 
 20 
 496.42880859375 
 30 
 0 
 11 
 757.2423828125 
 21 
 495.855224609375 
 31 
 0 
 0 
LINE
 10 
 757.2423828125 
 20 
 495.855224609375 
 30 
 0 
 11 
 758.200830078125 
 21 
 495.5744140625 
 31 
 0 
 0 
LINE
 10 
 758.200830078125 
 20 
 495.5744140625 
 30 
 0 
 11 
 759.5 
 21 
 495.5 
 31 
 0 
 0 
LINE
 10 
 759.5 
 20 
 495.5 
 30 
 0 
 11 
 760.7759765625 
 21 
 495.595166015625 
 31 
 0 
 0 
LINE
 10 
 760.7759765625 
 20 
 495.595166015625 
 30 
 0 
 11 
 761.788037109375 
 21 
 495.9255859375 
 31 
 0 
 0 
LINE
 10 
 761.788037109375 
 20 
 495.9255859375 
 30 
 0 
 11 
 762.63203125 
 21 
 496.5583984375 
 31 
 0 
 0 
LINE
 10 
 762.63203125 
 20 
 496.5583984375 
 30 
 0 
 11 
 763.40400390625 
 21 
 497.560791015625 
 31 
 0 
 0 
LINE
 10 
 763.40400390625 
 20 
 497.560791015625 
 30 
 0 
 11 
 764.2 
 21 
 499 
 31 
 0 
 0 
LINE
 10 
 764.2 
 20 
 499 
 30 
 0 
 11 
 765.278369140625 
 21 
 502.11435546875 
 31 
 0 
 0 
LINE
 10 
 765.278369140625 
 20 
 502.11435546875 
 30 
 0 
 11 
 765.867236328125 
 21 
 505.98720703125 
 31 
 0 
 0 
LINE
 10 
 765.867236328125 
 20 
 505.98720703125 
 30 
 0 
 11 
 765.956787109375 
 21 
 510.15283203125 
 31 
 0 
 0 
LINE
 10 
 765.956787109375 
 20 
 510.15283203125 
 30 
 0 
 11 
 765.53759765625 
 21 
 514.14560546875 
 31 
 0 
 0 
LINE
 10 
 765.53759765625 
 20 
 514.14560546875 
 30 
 0 
 11 
 764.6 
 21 
 517.5 
 31 
 0 
 0 
LINE
 10 
 764.6 
 20 
 517.5 
 30 
 0 
 11 
 763.911962890625 
 21 
 518.97763671875 
 31 
 0 
 0 
LINE
 10 
 763.911962890625 
 20 
 518.97763671875 
 30 
 0 
 11 
 763.223974609375 
 21 
 519.984814453125 
 31 
 0 
 0 
LINE
 10 
 763.223974609375 
 20 
 519.984814453125 
 30 
 0 
 11 
 762.439990234375 
 21 
 520.603173828125 
 31 
 0 
 0 
LINE
 10 
 762.439990234375 
 20 
 520.603173828125 
 30 
 0 
 11 
 761.464013671875 
 21 
 520.914404296875 
 31 
 0 
 0 
LINE
 10 
 761.464013671875 
 20 
 520.914404296875 
 30 
 0 
 11 
 760.2 
 21 
 521 
 31 
 0 
 0 
LINE
 10 
 760.2 
 20 
 521 
 30 
 0 
 11 
 758.467138671875 
 21 
 520.83916015625 
 31 
 0 
 0 
LINE
 10 
 758.467138671875 
 20 
 520.83916015625 
 30 
 0 
 11 
 757.0896484375 
 21 
 520.337646484375 
 31 
 0 
 0 
LINE
 10 
 757.0896484375 
 20 
 520.337646484375 
 30 
 0 
 11 
 756.03837890625 
 21 
 519.46640625 
 31 
 0 
 0 
LINE
 10 
 756.03837890625 
 20 
 519.46640625 
 30 
 0 
 11 
 755.284814453125 
 21 
 518.196826171875 
 31 
 0 
 0 
LINE
 10 
 755.284814453125 
 20 
 518.196826171875 
 30 
 0 
 11 
 754.8 
 21 
 516.5 
 31 
 0 
 0 
LINE
 10 
 754.8 
 20 
 516.5 
 30 
 0 
 11 
 754.60078125 
 21 
 515.8576171875 
 31 
 0 
 0 
LINE
 10 
 754.60078125 
 20 
 515.8576171875 
 30 
 0 
 11 
 754.262451171875 
 21 
 515.272802734375 
 31 
 0 
 0 
LINE
 10 
 754.262451171875 
 20 
 515.272802734375 
 30 
 0 
 11 
 753.81357421875 
 21 
 514.77919921875 
 31 
 0 
 0 
LINE
 10 
 753.81357421875 
 20 
 514.77919921875 
 30 
 0 
 11 
 753.283203125 
 21 
 514.410400390625 
 31 
 0 
 0 
LINE
 10 
 753.283203125 
 20 
 514.410400390625 
 30 
 0 
 11 
 752.7 
 21 
 514.2 
 31 
 0 
 0 
LINE
 10 
 752.7 
 20 
 514.2 
 30 
 0 
 11 
 751.985595703125 
 21 
 514.16083984375 
 31 
 0 
 0 
LINE
 10 
 751.985595703125 
 20 
 514.16083984375 
 30 
 0 
 11 
 751.496826171875 
 21 
 514.48642578125 
 31 
 0 
 0 
LINE
 10 
 751.496826171875 
 20 
 514.48642578125 
 30 
 0 
 11 
 751.19521484375 
 21 
 515.301611328125 
 31 
 0 
 0 
LINE
 10 
 751.19521484375 
 20 
 515.301611328125 
 30 
 0 
 11 
 751.042431640625 
 21 
 516.731201171875 
 31 
 0 
 0 
LINE
 10 
 751.042431640625 
 20 
 516.731201171875 
 30 
 0 
 11 
 751 
 21 
 518.9 
 31 
 0 
 0 
LINE
 10 
 751 
 20 
 518.9 
 30 
 0 
 11 
 751 
 21 
 524 
 31 
 0 
 0 
LINE
 10 
 751 
 20 
 524 
 30 
 0 
 11 
 756.4 
 21 
 524 
 31 
 0 
 0 
LINE
 10 
 756.4 
 20 
 524 
 30 
 0 
 11 
 758.8240234375 
 21 
 523.93359375 
 31 
 0 
 0 
LINE
 10 
 758.8240234375 
 20 
 523.93359375 
 30 
 0 
 11 
 760.647998046875 
 21 
 523.66083984375 
 31 
 0 
 0 
LINE
 10 
 760.647998046875 
 20 
 523.66083984375 
 30 
 0 
 11 
 762.160009765625 
 21 
 523.071240234375 
 31 
 0 
 0 
LINE
 10 
 762.160009765625 
 20 
 523.071240234375 
 30 
 0 
 11 
 763.648046875 
 21 
 522.05439453125 
 31 
 0 
 0 
LINE
 10 
 763.648046875 
 20 
 522.05439453125 
 30 
 0 
 11 
 765.4 
 21 
 520.5 
 31 
 0 
 0 
LINE
 10 
 765.4 
 20 
 520.5 
 30 
 0 
 11 
 767.6767578125 
 21 
 518.539208984375 
 31 
 0 
 0 
LINE
 10 
 767.6767578125 
 20 
 518.539208984375 
 30 
 0 
 11 
 769.47841796875 
 21 
 517.437646484375 
 31 
 0 
 0 
LINE
 10 
 769.47841796875 
 20 
 517.437646484375 
 30 
 0 
 11 
 771.001611328125 
 21 
 517.16640625 
 31 
 0 
 0 
LINE
 10 
 771.001611328125 
 20 
 517.16640625 
 30 
 0 
 11 
 772.443212890625 
 21 
 517.696826171875 
 31 
 0 
 0 
LINE
 10 
 772.443212890625 
 20 
 517.696826171875 
 30 
 0 
 11 
 774 
 21 
 519 
 31 
 0 
 0 
LINE
 10 
 774 
 20 
 519 
 30 
 0 
 11 
 775.580712890625 
 21 
 521.94716796875 
 31 
 0 
 0 
LINE
 10 
 775.580712890625 
 20 
 521.94716796875 
 30 
 0 
 11 
 775.96640625 
 21 
 525.849609375 
 31 
 0 
 0 
LINE
 10 
 775.96640625 
 20 
 525.849609375 
 30 
 0 
 11 
 775.281591796875 
 21 
 529.9583984375 
 31 
 0 
 0 
LINE
 10 
 775.281591796875 
 20 
 529.9583984375 
 30 
 0 
 11 
 773.651220703125 
 21 
 533.5248046875 
 31 
 0 
 0 
LINE
 10 
 773.651220703125 
 20 
 533.5248046875 
 30 
 0 
 11 
 771.2 
 21 
 535.8 
 31 
 0 
 0 
LINE
 10 
 771.2 
 20 
 535.8 
 30 
 0 
 11 
 769.585546875 
 21 
 536.01357421875 
 31 
 0 
 0 
LINE
 10 
 769.585546875 
 20 
 536.01357421875 
 30 
 0 
 11 
 766.084814453125 
 21 
 536.16484375 
 31 
 0 
 0 
LINE
 10 
 766.084814453125 
 20 
 536.16484375 
 30 
 0 
 11 
 761.0912109375 
 21 
 536.239208984375 
 31 
 0 
 0 
LINE
 10 
 761.0912109375 
 20 
 536.239208984375 
 30 
 0 
 11 
 754.9984375 
 21 
 536.222412109375 
 31 
 0 
 0 
LINE
 10 
 754.9984375 
 20 
 536.222412109375 
 30 
 0 
 11 
 748.2 
 21 
 536.1 
 31 
 0 
 0 
LINE
 10 
 748.2 
 20 
 536.1 
 30 
 0 
 11 
 739.286376953125 
 21 
 535.80478515625 
 31 
 0 
 0 
LINE
 10 
 739.286376953125 
 20 
 535.80478515625 
 30 
 0 
 11 
 733.09921875 
 21 
 535.4904296875 
 31 
 0 
 0 
LINE
 10 
 733.09921875 
 20 
 535.4904296875 
 30 
 0 
 11 
 729.148779296875 
 21 
 535.11357421875 
 31 
 0 
 0 
LINE
 10 
 729.148779296875 
 20 
 535.11357421875 
 30 
 0 
 11 
 726.94560546875 
 21 
 534.631201171875 
 31 
 0 
 0 
LINE
 10 
 726.94560546875 
 20 
 534.631201171875 
 30 
 0 
 11 
 726 
 21 
 534 
 31 
 0 
 0 
LINE
 10 
 726 
 20 
 534 
 30 
 0 
 11 
 725.25595703125 
 21 
 532.426416015625 
 31 
 0 
 0 
LINE
 10 
 725.25595703125 
 20 
 532.426416015625 
 30 
 0 
 11 
 725.064013671875 
 21 
 530.81923828125 
 31 
 0 
 0 
LINE
 10 
 725.064013671875 
 20 
 530.81923828125 
 30 
 0 
 11 
 725.4240234375 
 21 
 529.168798828125 
 31 
 0 
 0 
LINE
 10 
 725.4240234375 
 20 
 529.168798828125 
 30 
 0 
 11 
 726.335986328125 
 21 
 527.465625 
 31 
 0 
 0 
LINE
 10 
 726.335986328125 
 20 
 527.465625 
 30 
 0 
 11 
 727.8 
 21 
 525.7 
 31 
 0 
 0 
LINE
 10 
 727.8 
 20 
 525.7 
 30 
 0 
 11 
 730.5 
 21 
 522.9 
 31 
 0 
 0 
LINE
 10 
 730.5 
 20 
 522.9 
 30 
 0 
 11 
 730.5 
 21 
 507 
 31 
 0 
 0 
LINE
 10 
 730.5 
 20 
 507 
 30 
 0 
 11 
 730.5 
 21 
 491.1 
 31 
 0 
 0 
LINE
 10 
 730.5 
 20 
 491.1 
 30 
 0 
 11 
 727.6 
 21 
 488.1 
 31 
 0 
 0 
LINE
 10 
 727.6 
 20 
 488.1 
 30 
 0 
 11 
 726.5927734375 
 21 
 486.94638671875 
 31 
 0 
 0 
LINE
 10 
 726.5927734375 
 20 
 486.94638671875 
 30 
 0 
 11 
 725.85439453125 
 21 
 485.87919921875 
 31 
 0 
 0 
LINE
 10 
 725.85439453125 
 20 
 485.87919921875 
 30 
 0 
 11 
 725.389599609375 
 21 
 484.888818359375 
 31 
 0 
 0 
LINE
 10 
 725.389599609375 
 20 
 484.888818359375 
 30 
 0 
 11 
 725.20322265625 
 21 
 483.965625 
 31 
 0 
 0 
LINE
 10 
 725.20322265625 
 20 
 483.965625 
 30 
 0 
 11 
 725.3 
 21 
 483.1 
 31 
 0 
 0 
LINE
 10 
 725.3 
 20 
 483.1 
 30 
 0 
 11 
 725.470361328125 
 21 
 482.151953125 
 31 
 0 
 0 
LINE
 10 
 725.470361328125 
 20 
 482.151953125 
 30 
 0 
 11 
 725.29521484375 
 21 
 481.539990234375 
 31 
 0 
 0 
LINE
 10 
 725.29521484375 
 20 
 481.539990234375 
 30 
 0 
 11 
 724.64482421875 
 21 
 481.1919921875 
 31 
 0 
 0 
LINE
 10 
 724.64482421875 
 20 
 481.1919921875 
 30 
 0 
 11 
 723.389599609375 
 21 
 481.035986328125 
 31 
 0 
 0 
LINE
 10 
 723.389599609375 
 20 
 481.035986328125 
 30 
 0 
 11 
 721.4 
 21 
 481 
 31 
 0 
 0 
LINE
 10 
 721.4 
 20 
 481 
 30 
 0 
 11 
 719.053564453125 
 21 
 481.0607421875 
 31 
 0 
 0 
LINE
 10 
 719.053564453125 
 20 
 481.0607421875 
 30 
 0 
 11 
 717.70078125 
 21 
 481.342431640625 
 31 
 0 
 0 
LINE
 10 
 717.70078125 
 20 
 481.342431640625 
 30 
 0 
 11 
 717.231201171875 
 21 
 481.993603515625 
 31 
 0 
 0 
LINE
 10 
 717.231201171875 
 20 
 481.993603515625 
 30 
 0 
 11 
 717.534423828125 
 21 
 483.16318359375 
 31 
 0 
 0 
LINE
 10 
 717.534423828125 
 20 
 483.16318359375 
 30 
 0 
 11 
 718.5 
 21 
 485 
 31 
 0 
 0 
LINE
 10 
 718.5 
 20 
 485 
 30 
 0 
 11 
 719.337548828125 
 21 
 487.47197265625 
 31 
 0 
 0 
LINE
 10 
 719.337548828125 
 20 
 487.47197265625 
 30 
 0 
 11 
 719.800830078125 
 21 
 490.73603515625 
 31 
 0 
 0 
LINE
 10 
 719.800830078125 
 20 
 490.73603515625 
 30 
 0 
 11 
 719.8751953125 
 21 
 494.143994140625 
 31 
 0 
 0 
LINE
 10 
 719.8751953125 
 20 
 494.143994140625 
 30 
 0 
 11 
 719.546435546875 
 21 
 497.047998046875 
 31 
 0 
 0 
LINE
 10 
 719.546435546875 
 20 
 497.047998046875 
 30 
 0 
 11 
 718.8 
 21 
 498.8 
 31 
 0 
 0 
LINE
 10 
 718.8 
 20 
 498.8 
 30 
 0 
 11 
 717.2759765625 
 21 
 499.82001953125 
 31 
 0 
 0 
LINE
 10 
 717.2759765625 
 20 
 499.82001953125 
 30 
 0 
 11 
 715.584033203125 
 21 
 500.000048828125 
 31 
 0 
 0 
LINE
 10 
 715.584033203125 
 20 
 500.000048828125 
 30 
 0 
 11 
 713.7240234375 
 21 
 499.339990234375 
 31 
 0 
 0 
LINE
 10 
 713.7240234375 
 20 
 499.339990234375 
 30 
 0 
 11 
 711.696044921875 
 21 
 497.839990234375 
 31 
 0 
 0 
LINE
 10 
 711.696044921875 
 20 
 497.839990234375 
 30 
 0 
 11 
 709.5 
 21 
 495.5 
 31 
 0 
 0 
LINE
 10 
 709.5 
 20 
 495.5 
 30 
 0 
 11 
 705.8 
 21 
 490.9 
 31 
 0 
 0 
LINE
 10 
 705.8 
 20 
 490.9 
 30 
 0 
 11 
 699.6 
 21 
 491.2 
 31 
 0 
 0 
LINE
 10 
 699.6 
 20 
 491.2 
 30 
 0 
 11 
 693.5 
 21 
 491.5 
 31 
 0 
 0 
LINE
 10 
 693.5 
 20 
 491.5 
 30 
 0 
 11 
 693.2 
 21 
 496.8 
 31 
 0 
 0 
LINE
 10 
 693.2 
 20 
 496.8 
 30 
 0 
 11 
 693.08720703125 
 21 
 499.068798828125 
 31 
 0 
 0 
LINE
 10 
 693.08720703125 
 20 
 499.068798828125 
 30 
 0 
 11 
 693.13759765625 
 21 
 500.5744140625 
 31 
 0 
 0 
LINE
 10 
 693.13759765625 
 20 
 500.5744140625 
 30 
 0 
 11 
 693.39443359375 
 21 
 501.465625 
 31 
 0 
 0 
LINE
 10 
 693.39443359375 
 20 
 501.465625 
 30 
 0 
 11 
 693.900830078125 
 21 
 501.8912109375 
 31 
 0 
 0 
LINE
 10 
 693.900830078125 
 20 
 501.8912109375 
 30 
 0 
 11 
 694.7 
 21 
 502 
 31 
 0 
 0 
LINE
 10 
 694.7 
 20 
 502 
 30 
 0 
 11 
 695.432763671875 
 21 
 501.86875 
 31 
 0 
 0 
LINE
 10 
 695.432763671875 
 20 
 501.86875 
 30 
 0 
 11 
 696.0744140625 
 21 
 501.47841796875 
 31 
 0 
 0 
LINE
 10 
 696.0744140625 
 20 
 501.47841796875 
 30 
 0 
 11 
 696.62958984375 
 21 
 500.83359375 
 31 
 0 
 0 
LINE
 10 
 696.62958984375 
 20 
 500.83359375 
 30 
 0 
 11 
 697.10322265625 
 21 
 499.939208984375 
 31 
 0 
 0 
LINE
 10 
 697.10322265625 
 20 
 499.939208984375 
 30 
 0 
 11 
 697.5 
 21 
 498.8 
 31 
 0 
 0 
LINE
 10 
 697.5 
 20 
 498.8 
 30 
 0 
 11 
 697.983203125 
 21 
 497.381591796875 
 31 
 0 
 0 
LINE
 10 
 697.983203125 
 20 
 497.381591796875 
 30 
 0 
 11 
 698.53359375 
 21 
 496.42880859375 
 31 
 0 
 0 
LINE
 10 
 698.53359375 
 20 
 496.42880859375 
 30 
 0 
 11 
 699.242431640625 
 21 
 495.855224609375 
 31 
 0 
 0 
LINE
 10 
 699.242431640625 
 20 
 495.855224609375 
 30 
 0 
 11 
 700.20078125 
 21 
 495.5744140625 
 31 
 0 
 0 
LINE
 10 
 700.20078125 
 20 
 495.5744140625 
 30 
 0 
 11 
 701.5 
 21 
 495.5 
 31 
 0 
 0 
LINE
 10 
 701.5 
 20 
 495.5 
 30 
 0 
 11 
 703.788818359375 
 21 
 496.068798828125 
 31 
 0 
 0 
LINE
 10 
 703.788818359375 
 20 
 496.068798828125 
 30 
 0 
 11 
 705.60244140625 
 21 
 497.746435546875 
 31 
 0 
 0 
LINE
 10 
 705.60244140625 
 20 
 497.746435546875 
 30 
 0 
 11 
 706.921630859375 
 21 
 500.489599609375 
 31 
 0 
 0 
LINE
 10 
 706.921630859375 
 20 
 500.489599609375 
 30 
 0 
 11 
 707.727197265625 
 21 
 504.255224609375 
 31 
 0 
 0 
LINE
 10 
 707.727197265625 
 20 
 504.255224609375 
 30 
 0 
 11 
 708 
 21 
 509 
 31 
 0 
 0 
LINE
 10 
 708 
 20 
 509 
 30 
 0 
 11 
 707.8080078125 
 21 
 513.53681640625 
 31 
 0 
 0 
LINE
 10 
 707.8080078125 
 20 
 513.53681640625 
 30 
 0 
 11 
 707.183984375 
 21 
 516.8064453125 
 31 
 0 
 0 
LINE
 10 
 707.183984375 
 20 
 516.8064453125 
 30 
 0 
 11 
 706.0560546875 
 21 
 518.9576171875 
 31 
 0 
 0 
LINE
 10 
 706.0560546875 
 20 
 518.9576171875 
 30 
 0 
 11 
 704.352001953125 
 21 
 520.139208984375 
 31 
 0 
 0 
LINE
 10 
 704.352001953125 
 20 
 520.139208984375 
 30 
 0 
 11 
 702 
 21 
 520.5 
 31 
 0 
 0 
LINE
 10 
 702 
 20 
 520.5 
 30 
 0 
 11 
 700.476806640625 
 21 
 520.4359375 
 31 
 0 
 0 
LINE
 10 
 700.476806640625 
 20 
 520.4359375 
 30 
 0 
 11 
 699.414404296875 
 21 
 520.17998046875 
 31 
 0 
 0 
LINE
 10 
 699.414404296875 
 20 
 520.17998046875 
 30 
 0 
 11 
 698.673583984375 
 21 
 519.635986328125 
 31 
 0 
 0 
LINE
 10 
 698.673583984375 
 20 
 519.635986328125 
 30 
 0 
 11 
 698.115234375 
 21 
 518.7080078125 
 31 
 0 
 0 
LINE
 10 
 698.115234375 
 20 
 518.7080078125 
 30 
 0 
 11 
 697.6 
 21 
 517.3 
 31 
 0 
 0 
LINE
 10 
 697.6 
 20 
 517.3 
 30 
 0 
 11 
 697.203955078125 
 21 
 516.11201171875 
 31 
 0 
 0 
LINE
 10 
 697.203955078125 
 20 
 516.11201171875 
 30 
 0 
 11 
 696.735986328125 
 21 
 515.188037109375 
 31 
 0 
 0 
LINE
 10 
 696.735986328125 
 20 
 515.188037109375 
 30 
 0 
 11 
 696.19599609375 
 21 
 514.527978515625 
 31 
 0 
 0 
LINE
 10 
 696.19599609375 
 20 
 514.527978515625 
 30 
 0 
 11 
 695.583984375 
 21 
 514.131982421875 
 31 
 0 
 0 
LINE
 10 
 695.583984375 
 20 
 514.131982421875 
 30 
 0 
 11 
 694.9 
 21 
 514 
 31 
 0 
 0 
LINE
 10 
 694.9 
 20 
 514 
 30 
 0 
 11 
 693.527978515625 
 21 
 514.89599609375 
 31 
 0 
 0 
LINE
 10 
 693.527978515625 
 20 
 514.89599609375 
 30 
 0 
 11 
 692.8759765625 
 21 
 517.08798828125 
 31 
 0 
 0 
LINE
 10 
 692.8759765625 
 20 
 517.08798828125 
 30 
 0 
 11 
 692.92001953125 
 21 
 519.83203125 
 31 
 0 
 0 
LINE
 10 
 692.92001953125 
 20 
 519.83203125 
 30 
 0 
 11 
 693.63603515625 
 21 
 522.384033203125 
 31 
 0 
 0 
LINE
 10 
 693.63603515625 
 20 
 522.384033203125 
 30 
 0 
 11 
 695 
 21 
 524 
 31 
 0 
 0 
LINE
 10 
 695 
 20 
 524 
 30 
 0 
 11 
 697.246337890625 
 21 
 524.67119140625 
 31 
 0 
 0 
LINE
 10 
 697.246337890625 
 20 
 524.67119140625 
 30 
 0 
 11 
 699.8912109375 
 21 
 524.56962890625 
 31 
 0 
 0 
LINE
 10 
 699.8912109375 
 20 
 524.56962890625 
 30 
 0 
 11 
 702.732763671875 
 21 
 523.76240234375 
 31 
 0 
 0 
LINE
 10 
 702.732763671875 
 20 
 523.76240234375 
 30 
 0 
 11 
 705.56962890625 
 21 
 522.316796875 
 31 
 0 
 0 
LINE
 10 
 705.56962890625 
 20 
 522.316796875 
 30 
 0 
 11 
 708.2 
 21 
 520.3 
 31 
 0 
 0 
LINE
 10 
 708.2 
 20 
 520.3 
 30 
 0 
 11 
 710.909619140625 
 21 
 518.115185546875 
 31 
 0 
 0 
LINE
 10 
 710.909619140625 
 20 
 518.115185546875 
 30 
 0 
 11 
 713.268798828125 
 21 
 517.197607421875 
 31 
 0 
 0 
LINE
 10 
 713.268798828125 
 20 
 517.197607421875 
 30 
 0 
 11 
 715.26318359375 
 21 
 517.542431640625 
 31 
 0 
 0 
LINE
 10 
 715.26318359375 
 20 
 517.542431640625 
 30 
 0 
 11 
 716.87841796875 
 21 
 519.14482421875 
 31 
 0 
 0 
LINE
 10 
 716.87841796875 
 20 
 519.14482421875 
 30 
 0 
 11 
 718.1 
 21 
 522 
 31 
 0 
 0 
LINE
 10 
 718.1 
 20 
 522 
 30 
 0 
 11 
 718.56640625 
 21 
 523.786376953125 
 31 
 0 
 0 
LINE
 10 
 718.56640625 
 20 
 523.786376953125 
 30 
 0 
 11 
 718.759228515625 
 21 
 525.323193359375 
 31 
 0 
 0 
LINE
 10 
 718.759228515625 
 20 
 525.323193359375 
 30 
 0 
 11 
 718.668798828125 
 21 
 526.816796875 
 31 
 0 
 0 
LINE
 10 
 718.668798828125 
 20 
 526.816796875 
 30 
 0 
 11 
 718.285595703125 
 21 
 528.473583984375 
 31 
 0 
 0 
LINE
 10 
 718.285595703125 
 20 
 528.473583984375 
 30 
 0 
 11 
 717.6 
 21 
 530.5 
 31 
 0 
 0 
LINE
 10 
 717.6 
 20 
 530.5 
 30 
 0 
 11 
 716.993603515625 
 21 
 531.91279296875 
 31 
 0 
 0 
LINE
 10 
 716.993603515625 
 20 
 531.91279296875 
 30 
 0 
 11 
 716.396826171875 
 21 
 533.21044921875 
 31 
 0 
 0 
LINE
 10 
 716.396826171875 
 20 
 533.21044921875 
 30 
 0 
 11 
 715.843212890625 
 21 
 534.301611328125 
 31 
 0 
 0 
LINE
 10 
 715.843212890625 
 20 
 534.301611328125 
 30 
 0 
 11 
 715.36640625 
 21 
 535.09521484375 
 31 
 0 
 0 
LINE
 10 
 715.36640625 
 20 
 535.09521484375 
 30 
 0 
 11 
 715 
 21 
 535.5 
 31 
 0 
 0 
LINE
 10 
 715 
 20 
 535.5 
 30 
 0 
 11 
 713.6255859375 
 21 
 535.679150390625 
 31 
 0 
 0 
LINE
 10 
 713.6255859375 
 20 
 535.679150390625 
 30 
 0 
 11 
 710.24482421875 
 21 
 535.85361328125 
 31 
 0 
 0 
LINE
 10 
 710.24482421875 
 20 
 535.85361328125 
 30 
 0 
 11 
 705.251220703125 
 21 
 536.018408203125 
 31 
 0 
 0 
LINE
 10 
 705.251220703125 
 20 
 536.018408203125 
 30 
 0 
 11 
 699.038427734375 
 21 
 536.168798828125 
 31 
 0 
 0 
LINE
 10 
 699.038427734375 
 20 
 536.168798828125 
 30 
 0 
 11 
 692 
 21 
 536.3 
 31 
 0 
 0 
LINE
 10 
 692 
 20 
 536.3 
 30 
 0 
 11 
 681.65439453125 
 21 
 536.37275390625 
 31 
 0 
 0 
LINE
 10 
 681.65439453125 
 20 
 536.37275390625 
 30 
 0 
 11 
 675.0671875 
 21 
 536.3064453125 
 31 
 0 
 0 
LINE
 10 
 675.0671875 
 20 
 536.3064453125 
 30 
 0 
 11 
 671.292822265625 
 21 
 536.033642578125 
 31 
 0 
 0 
LINE
 10 
 671.292822265625 
 20 
 536.033642578125 
 30 
 0 
 11 
 669.385595703125 
 21 
 535.48720703125 
 31 
 0 
 0 
LINE
 10 
 669.385595703125 
 20 
 535.48720703125 
 30 
 0 
 11 
 668.4 
 21 
 534.6 
 31 
 0 
 0 
LINE
 10 
 668.4 
 20 
 534.6 
 30 
 0 
 11 
 667.470361328125 
 21 
 533.052734375 
 31 
 0 
 0 
LINE
 10 
 667.470361328125 
 20 
 533.052734375 
 30 
 0 
 11 
 667.107177734375 
 21 
 531.67841796875 
 31 
 0 
 0 
LINE
 10 
 667.107177734375 
 20 
 531.67841796875 
 30 
 0 
 11 
 667.348779296875 
 21 
 530.33759765625 
 31 
 0 
 0 
LINE
 10 
 667.348779296875 
 20 
 530.33759765625 
 30 
 0 
 11 
 668.23359375 
 21 
 528.8912109375 
 31 
 0 
 0 
LINE
 10 
 668.23359375 
 20 
 528.8912109375 
 30 
 0 
 11 
 669.8 
 21 
 527.2 
 31 
 0 
 0 
LINE
 10 
 669.8 
 20 
 527.2 
 30 
 0 
 11 
 672.5 
 21 
 524.5 
 31 
 0 
 0 
LINE
 10 
 672.5 
 20 
 524.5 
 30 
 0 
 11 
 672.5 
 21 
 508.2 
 31 
 0 
 0 
LINE
 10 
 672.5 
 20 
 508.2 
 30 
 0 
 11 
 672.5 
 21 
 491.8 
 31 
 0 
 0 
LINE
 10 
 672.5 
 20 
 491.8 
 30 
 0 
 11 
 669.6 
 21 
 489.4 
 31 
 0 
 0 
LINE
 10 
 669.6 
 20 
 489.4 
 30 
 0 
 11 
 668.476806640625 
 21 
 488.2912109375 
 31 
 0 
 0 
LINE
 10 
 668.476806640625 
 20 
 488.2912109375 
 30 
 0 
 11 
 667.718359375 
 21 
 487.29765625 
 31 
 0 
 0 
LINE
 10 
 667.718359375 
 20 
 487.29765625 
 30 
 0 
 11 
 667.281640625 
 21 
 486.318408203125 
 31 
 0 
 0 
LINE
 10 
 667.281640625 
 20 
 486.318408203125 
 30 
 0 
 11 
 667.123193359375 
 21 
 485.25283203125 
 31 
 0 
 0 
LINE
 10 
 667.123193359375 
 20 
 485.25283203125 
 30 
 0 
 11 
 667.2 
 21 
 484 
 31 
 0 
 0 
LINE
 10 
 667.2 
 20 
 484 
 30 
 0 
 11 
 667.7 
 21 
 481 
 31 
 0 
 0 
LINE
 10 
 667.7 
 20 
 481 
 30 
 0 
 11 
 652.3 
 21 
 481 
 31 
 0 
 0 
LINE
 10 
 652.3 
 20 
 481 
 30 
 0 
 11 
 647.483203125 
 21 
 481.023193359375 
 31 
 0 
 0 
LINE
 10 
 647.483203125 
 20 
 481.023193359375 
 30 
 0 
 11 
 643.28564453125 
 21 
 481.0896484375 
 31 
 0 
 0 
LINE
 10 
 643.28564453125 
 20 
 481.0896484375 
 30 
 0 
 11 
 639.966357421875 
 21 
 481.194384765625 
 31 
 0 
 0 
LINE
 10 
 639.966357421875 
 20 
 481.194384765625 
 30 
 0 
 11 
 637.784814453125 
 21 
 481.3328125 
 31 
 0 
 0 
LINE
 10 
 637.784814453125 
 20 
 481.3328125 
 30 
 0 
 11 
 637 
 21 
 481.5 
 31 
 0 
 0 
LINE
 10 
 637 
 20 
 481.5 
 30 
 0 
 11 
 637.123974609375 
 21 
 481.916748046875 
 31 
 0 
 0 
LINE
 10 
 637.123974609375 
 20 
 481.916748046875 
 30 
 0 
 11 
 637.46396484375 
 21 
 482.746435546875 
 31 
 0 
 0 
LINE
 10 
 637.46396484375 
 20 
 482.746435546875 
 30 
 0 
 11 
 637.972021484375 
 21 
 483.897607421875 
 31 
 0 
 0 
LINE
 10 
 637.972021484375 
 20 
 483.897607421875 
 30 
 0 
 11 
 638.6 
 21 
 485.27919921875 
 31 
 0 
 0 
LINE
 10 
 638.6 
 20 
 485.27919921875 
 30 
 0 
 11 
 639.3 
 21 
 486.8 
 31 
 0 
 0 
LINE
 10 
 639.3 
 20 
 486.8 
 30 
 0 
 11 
 640.36796875 
 21 
 489.106396484375 
 31 
 0 
 0 
LINE
 10 
 640.36796875 
 20 
 489.106396484375 
 30 
 0 
 11 
 641.916015625 
 21 
 492.6751953125 
 31 
 0 
 0 
LINE
 10 
 641.916015625 
 20 
 492.6751953125 
 30 
 0 
 11 
 643.8 
 21 
 497.160791015625 
 31 
 0 
 0 
LINE
 10 
 643.8 
 20 
 497.160791015625 
 30 
 0 
 11 
 645.876025390625 
 21 
 502.217578125 
 31 
 0 
 0 
LINE
 10 
 645.876025390625 
 20 
 502.217578125 
 30 
 0 
 11 
 648 
 21 
 507.5 
 31 
 0 
 0 
LINE
 10 
 648 
 20 
 507.5 
 30 
 0 
 11 
 650.385595703125 
 21 
 513.252001953125 
 31 
 0 
 0 
LINE
 10 
 650.385595703125 
 20 
 513.252001953125 
 30 
 0 
 11 
 652.492822265625 
 21 
 517.996044921875 
 31 
 0 
 0 
LINE
 10 
 652.492822265625 
 20 
 517.996044921875 
 30 
 0 
 11 
 654.3072265625 
 21 
 521.683984375 
 31 
 0 
 0 
LINE
 10 
 654.3072265625 
 20 
 521.683984375 
 30 
 0 
 11 
 655.814404296875 
 21 
 524.268017578125 
 31 
 0 
 0 
LINE
 10 
 655.814404296875 
 20 
 524.268017578125 
 30 
 0 
 11 
 657 
 21 
 525.7 
 31 
 0 
 0 
LINE
 10 
 657 
 20 
 525.7 
 30 
 0 
 11 
 657.911962890625 
 21 
 526.540771484375 
 31 
 0 
 0 
LINE
 10 
 657.911962890625 
 20 
 526.540771484375 
 30 
 0 
 11 
 658.920068359375 
 21 
 527.458447265625 
 31 
 0 
 0 
LINE
 10 
 658.920068359375 
 20 
 527.458447265625 
 30 
 0 
 11 
 659.952001953125 
 21 
 528.38564453125 
 31 
 0 
 0 
LINE
 10 
 659.952001953125 
 20 
 528.38564453125 
 30 
 0 
 11 
 660.93603515625 
 21 
 529.255224609375 
 31 
 0 
 0 
LINE
 10 
 660.93603515625 
 20 
 529.255224609375 
 30 
 0 
 11 
 661.8 
 21 
 530 
 31 
 0 
 0 
LINE
 10 
 661.8 
 20 
 530 
 30 
 0 
 11 
 663.09833984375 
 21 
 531.268017578125 
 31 
 0 
 0 
LINE
 10 
 663.09833984375 
 20 
 531.268017578125 
 30 
 0 
 11 
 663.763232421875 
 21 
 532.32001953125 
 31 
 0 
 0 
LINE
 10 
 663.763232421875 
 20 
 532.32001953125 
 30 
 0 
 11 
 663.8087890625 
 21 
 533.347998046875 
 31 
 0 
 0 
LINE
 10 
 663.8087890625 
 20 
 533.347998046875 
 30 
 0 
 11 
 663.249609375 
 21 
 534.543994140625 
 31 
 0 
 0 
LINE
 10 
 663.249609375 
 20 
 534.543994140625 
 30 
 0 
 11 
 662.1 
 21 
 536.1 
 31 
 0 
 0 
LINE
 10 
 662.1 
 20 
 536.1 
 30 
 0 
 11 
 661.082373046875 
 21 
 537.1583984375 
 31 
 0 
 0 
LINE
 10 
 661.082373046875 
 20 
 537.1583984375 
 30 
 0 
 11 
 659.839208984375 
 21 
 537.87119140625 
 31 
 0 
 0 
LINE
 10 
 659.839208984375 
 20 
 537.87119140625 
 30 
 0 
 11 
 658.0248046875 
 21 
 538.3248046875 
 31 
 0 
 0 
LINE
 10 
 658.0248046875 
 20 
 538.3248046875 
 30 
 0 
 11 
 655.293603515625 
 21 
 538.605615234375 
 31 
 0 
 0 
LINE
 10 
 655.293603515625 
 20 
 538.605615234375 
 30 
 0 
 11 
 651.3 
 21 
 538.8 
 31 
 0 
 0 
LINE
 10 
 651.3 
 20 
 538.8 
 30 
 0 
 11 
 647.33837890625 
 21 
 538.910400390625 
 31 
 0 
 0 
LINE
 10 
 647.33837890625 
 20 
 538.910400390625 
 30 
 0 
 11 
 644.567236328125 
 21 
 538.843212890625 
 31 
 0 
 0 
LINE
 10 
 644.567236328125 
 20 
 538.843212890625 
 30 
 0 
 11 
 642.616796875 
 21 
 538.540771484375 
 31 
 0 
 0 
LINE
 10 
 642.616796875 
 20 
 538.540771484375 
 30 
 0 
 11 
 641.117578125 
 21 
 537.94560546875 
 31 
 0 
 0 
LINE
 10 
 641.117578125 
 20 
 537.94560546875 
 30 
 0 
 11 
 639.7 
 21 
 537 
 31 
 0 
 0 
LINE
 10 
 639.7 
 20 
 537 
 30 
 0 
 11 
 638.12958984375 
 21 
 535.33037109375 
 31 
 0 
 0 
LINE
 10 
 638.12958984375 
 20 
 535.33037109375 
 30 
 0 
 11 
 637.26484375 
 21 
 533.53125 
 31 
 0 
 0 
LINE
 10 
 637.26484375 
 20 
 533.53125 
 30 
 0 
 11 
 637.115234375 
 21 
 531.73681640625 
 31 
 0 
 0 
LINE
 10 
 637.115234375 
 20 
 531.73681640625 
 30 
 0 
 11 
 637.690380859375 
 21 
 530.081640625 
 31 
 0 
 0 
LINE
 10 
 637.690380859375 
 20 
 530.081640625 
 30 
 0 
 11 
 639 
 21 
 528.7 
 31 
 0 
 0 
LINE
 10 
 639 
 20 
 528.7 
 30 
 0 
 11 
 641.1 
 21 
 527.3 
 31 
 0 
 0 
LINE
 10 
 641.1 
 20 
 527.3 
 30 
 0 
 11 
 639 
 21 
 521.6 
 31 
 0 
 0 
LINE
 10 
 639 
 20 
 521.6 
 30 
 0 
 11 
 638.2759765625 
 21 
 519.8271484375 
 31 
 0 
 0 
LINE
 10 
 638.2759765625 
 20 
 519.8271484375 
 30 
 0 
 11 
 637.576025390625 
 21 
 518.2896484375 
 31 
 0 
 0 
LINE
 10 
 637.576025390625 
 20 
 518.2896484375 
 30 
 0 
 11 
 636.947998046875 
 21 
 517.07841796875 
 31 
 0 
 0 
LINE
 10 
 636.947998046875 
 20 
 517.07841796875 
 30 
 0 
 11 
 636.439990234375 
 21 
 516.284814453125 
 31 
 0 
 0 
LINE
 10 
 636.439990234375 
 20 
 516.284814453125 
 30 
 0 
 11 
 636.1 
 21 
 516 
 31 
 0 
 0 
LINE
 10 
 636.1 
 20 
 516 
 30 
 0 
 11 
 635.70078125 
 21 
 516.262353515625 
 31 
 0 
 0 
LINE
 10 
 635.70078125 
 20 
 516.262353515625 
 30 
 0 
 11 
 635.138427734375 
 21 
 516.995166015625 
 31 
 0 
 0 
LINE
 10 
 635.138427734375 
 20 
 516.995166015625 
 30 
 0 
 11 
 634.465625 
 21 
 518.116796875 
 31 
 0 
 0 
LINE
 10 
 634.465625 
 20 
 518.116796875 
 30 
 0 
 11 
 633.735205078125 
 21 
 519.54560546875 
 31 
 0 
 0 
LINE
 10 
 633.735205078125 
 20 
 519.54560546875 
 30 
 0 
 11 
 633 
 21 
 521.2 
 31 
 0 
 0 
LINE
 10 
 633 
 20 
 521.2 
 30 
 0 
 11 
 631.987158203125 
 21 
 523.615185546875 
 31 
 0 
 0 
LINE
 10 
 631.987158203125 
 20 
 523.615185546875 
 30 
 0 
 11 
 631.449609375 
 21 
 525.305615234375 
 31 
 0 
 0 
LINE
 10 
 631.449609375 
 20 
 525.305615234375 
 30 
 0 
 11 
 631.3583984375 
 21 
 526.578369140625 
 31 
 0 
 0 
LINE
 10 
 631.3583984375 
 20 
 526.578369140625 
 30 
 0 
 11 
 631.684814453125 
 21 
 527.7408203125 
 31 
 0 
 0 
LINE
 10 
 631.684814453125 
 20 
 527.7408203125 
 30 
 0 
 11 
 632.4 
 21 
 529.1 
 31 
 0 
 0 
LINE
 10 
 632.4 
 20 
 529.1 
 30 
 0 
 11 
 633.394384765625 
 21 
 531.0416015625 
 31 
 0 
 0 
LINE
 10 
 633.394384765625 
 20 
 531.0416015625 
 30 
 0 
 11 
 633.851220703125 
 21 
 532.6328125 
 31 
 0 
 0 
LINE
 10 
 633.851220703125 
 20 
 532.6328125 
 30 
 0 
 11 
 633.76083984375 
 21 
 534.00322265625 
 31 
 0 
 0 
LINE
 10 
 633.76083984375 
 20 
 534.00322265625 
 30 
 0 
 11 
 633.113623046875 
 21 
 535.282421875 
 31 
 0 
 0 
LINE
 10 
 633.113623046875 
 20 
 535.282421875 
 30 
 0 
 11 
 631.9 
 21 
 536.6 
 31 
 0 
 0 
LINE
 10 
 631.9 
 20 
 536.6 
 30 
 0 
 11 
 630.821533203125 
 21 
 537.33681640625 
 31 
 0 
 0 
LINE
 10 
 630.821533203125 
 20 
 537.33681640625 
 30 
 0 
 11 
 629.368798828125 
 21 
 537.88642578125 
 31 
 0 
 0 
LINE
 10 
 629.368798828125 
 20 
 537.88642578125 
 30 
 0 
 11 
 627.335205078125 
 21 
 538.27763671875 
 31 
 0 
 0 
LINE
 10 
 627.335205078125 
 20 
 538.27763671875 
 30 
 0 
 11 
 624.514404296875 
 21 
 538.539208984375 
 31 
 0 
 0 
LINE
 10 
 624.514404296875 
 20 
 538.539208984375 
 30 
 0 
 11 
 620.7 
 21 
 538.7 
 31 
 0 
 0 
LINE
 10 
 620.7 
 20 
 538.7 
 30 
 0 
 11 
 617.637548828125 
 21 
 538.71357421875 
 31 
 0 
 0 
LINE
 10 
 617.637548828125 
 20 
 538.71357421875 
 30 
 0 
 11 
 614.70478515625 
 21 
 538.640771484375 
 31 
 0 
 0 
LINE
 10 
 614.70478515625 
 20 
 538.640771484375 
 30 
 0 
 11 
 612.103173828125 
 21 
 538.4912109375 
 31 
 0 
 0 
LINE
 10 
 612.103173828125 
 20 
 538.4912109375 
 30 
 0 
 11 
 610.034423828125 
 21 
 538.2744140625 
 31 
 0 
 0 
LINE
 10 
 610.034423828125 
 20 
 538.2744140625 
 30 
 0 
 11 
 608.7 
 21 
 538 
 31 
 0 
 0 
LINE
 10 
 543.4 
 20 
 518.9 
 30 
 0 
 11 
 545.1599609375 
 21 
 516.56640625 
 31 
 0 
 0 
LINE
 10 
 545.1599609375 
 20 
 516.56640625 
 30 
 0 
 11 
 546.63203125 
 21 
 514.055224609375 
 31 
 0 
 0 
LINE
 10 
 546.63203125 
 20 
 514.055224609375 
 30 
 0 
 11 
 547.86396484375 
 21 
 511.260791015625 
 31 
 0 
 0 
LINE
 10 
 547.86396484375 
 20 
 511.260791015625 
 30 
 0 
 11 
 548.90400390625 
 21 
 508.07763671875 
 31 
 0 
 0 
LINE
 10 
 548.90400390625 
 20 
 508.07763671875 
 30 
 0 
 11 
 549.8 
 21 
 504.4 
 31 
 0 
 0 
LINE
 10 
 549.8 
 20 
 504.4 
 30 
 0 
 11 
 550.340771484375 
 21 
 501.034375 
 31 
 0 
 0 
LINE
 10 
 550.340771484375 
 20 
 501.034375 
 30 
 0 
 11 
 550.406396484375 
 21 
 498.163232421875 
 31 
 0 
 0 
LINE
 10 
 550.406396484375 
 20 
 498.163232421875 
 30 
 0 
 11 
 550.001611328125 
 21 
 495.8248046875 
 31 
 0 
 0 
LINE
 10 
 550.001611328125 
 20 
 495.8248046875 
 30 
 0 
 11 
 549.131201171875 
 21 
 494.0576171875 
 31 
 0 
 0 
LINE
 10 
 549.131201171875 
 20 
 494.0576171875 
 30 
 0 
 11 
 547.8 
 21 
 492.9 
 31 
 0 
 0 
LINE
 10 
 547.8 
 20 
 492.9 
 30 
 0 
 11 
 545.33759765625 
 21 
 492.490380859375 
 31 
 0 
 0 
LINE
 10 
 545.33759765625 
 20 
 492.490380859375 
 30 
 0 
 11 
 542.836767578125 
 21 
 493.79921875 
 31 
 0 
 0 
LINE
 10 
 542.836767578125 
 20 
 493.79921875 
 30 
 0 
 11 
 540.427197265625 
 21 
 496.672802734375 
 31 
 0 
 0 
LINE
 10 
 540.427197265625 
 20 
 496.672802734375 
 30 
 0 
 11 
 538.23837890625 
 21 
 500.9576171875 
 31 
 0 
 0 
LINE
 10 
 538.23837890625 
 20 
 500.9576171875 
 30 
 0 
 11 
 536.4 
 21 
 506.5 
 31 
 0 
 0 
LINE
 10 
 536.4 
 20 
 506.5 
 30 
 0 
 11 
 535.51201171875 
 21 
 510.409619140625 
 31 
 0 
 0 
LINE
 10 
 535.51201171875 
 20 
 510.409619140625 
 30 
 0 
 11 
 535.12802734375 
 21 
 513.656787109375 
 31 
 0 
 0 
LINE
 10 
 535.12802734375 
 20 
 513.656787109375 
 30 
 0 
 11 
 535.247998046875 
 21 
 516.29921875 
 31 
 0 
 0 
LINE
 10 
 535.247998046875 
 20 
 516.29921875 
 30 
 0 
 11 
 535.872021484375 
 21 
 518.394384765625 
 31 
 0 
 0 
LINE
 10 
 535.872021484375 
 20 
 518.394384765625 
 30 
 0 
 11 
 537 
 21 
 520 
 31 
 0 
 0 
LINE
 10 
 537 
 20 
 520 
 30 
 0 
 11 
 538.414404296875 
 21 
 521.268017578125 
 31 
 0 
 0 
LINE
 10 
 538.414404296875 
 20 
 521.268017578125 
 30 
 0 
 11 
 539.555224609375 
 21 
 521.816015625 
 31 
 0 
 0 
LINE
 10 
 539.555224609375 
 20 
 521.816015625 
 30 
 0 
 11 
 540.62880859375 
 21 
 521.62001953125 
 31 
 0 
 0 
LINE
 10 
 540.62880859375 
 20 
 521.62001953125 
 30 
 0 
 11 
 541.8416015625 
 21 
 520.656005859375 
 31 
 0 
 0 
LINE
 10 
 541.8416015625 
 20 
 520.656005859375 
 30 
 0 
 11 
 543.4 
 21 
 518.9 
 31 
 0 
 0 
LINE
 10 
 814.9 
 20 
 496.2 
 30 
 0 
 11 
 818.1271484375 
 21 
 493.281591796875 
 31 
 0 
 0 
LINE
 10 
 818.1271484375 
 20 
 493.281591796875 
 30 
 0 
 11 
 821.30166015625 
 21 
 490.420849609375 
 31 
 0 
 0 
LINE
 10 
 821.30166015625 
 20 
 490.420849609375 
 30 
 0 
 11 
 824.20244140625 
 21 
 487.81923828125 
 31 
 0 
 0 
LINE
 10 
 824.20244140625 
 20 
 487.81923828125 
 30 
 0 
 11 
 826.6087890625 
 21 
 485.67841796875 
 31 
 0 
 0 
LINE
 10 
 826.6087890625 
 20 
 485.67841796875 
 30 
 0 
 11 
 828.3 
 21 
 484.2 
 31 
 0 
 0 
LINE
 10 
 828.3 
 20 
 484.2 
 30 
 0 
 11 
 832.1 
 21 
 481 
 31 
 0 
 0 
LINE
 10 
 832.1 
 20 
 481 
 30 
 0 
 11 
 818.5 
 21 
 481 
 31 
 0 
 0 
LINE
 10 
 818.5 
 20 
 481 
 30 
 0 
 11 
 811.927978515625 
 21 
 481.015966796875 
 31 
 0 
 0 
LINE
 10 
 811.927978515625 
 20 
 481.015966796875 
 30 
 0 
 11 
 808.043994140625 
 21 
 481.12802734375 
 31 
 0 
 0 
LINE
 10 
 808.043994140625 
 20 
 481.12802734375 
 30 
 0 
 11 
 806.29599609375 
 21 
 481.43203125 
 31 
 0 
 0 
LINE
 10 
 806.29599609375 
 20 
 481.43203125 
 30 
 0 
 11 
 806.13203125 
 21 
 482.0240234375 
 31 
 0 
 0 
LINE
 10 
 806.13203125 
 20 
 482.0240234375 
 30 
 0 
 11 
 807 
 21 
 483 
 31 
 0 
 0 
LINE
 10 
 807 
 20 
 483 
 30 
 0 
 11 
 808.272802734375 
 21 
 484.593603515625 
 31 
 0 
 0 
LINE
 10 
 808.272802734375 
 20 
 484.593603515625 
 30 
 0 
 11 
 808.854443359375 
 21 
 486.172802734375 
 31 
 0 
 0 
LINE
 10 
 808.854443359375 
 20 
 486.172802734375 
 30 
 0 
 11 
 808.749609375 
 21 
 487.79521484375 
 31 
 0 
 0 
LINE
 10 
 808.749609375 
 20 
 487.79521484375 
 30 
 0 
 11 
 807.963232421875 
 21 
 489.518408203125 
 31 
 0 
 0 
LINE
 10 
 807.963232421875 
 20 
 489.518408203125 
 30 
 0 
 11 
 806.5 
 21 
 491.4 
 31 
 0 
 0 
LINE
 10 
 806.5 
 20 
 491.4 
 30 
 0 
 11 
 805.471923828125 
 21 
 492.66552734375 
 31 
 0 
 0 
LINE
 10 
 805.471923828125 
 20 
 492.66552734375 
 30 
 0 
 11 
 804.756005859375 
 21 
 493.9408203125 
 31 
 0 
 0 
LINE
 10 
 804.756005859375 
 20 
 493.9408203125 
 30 
 0 
 11 
 804.30400390625 
 21 
 495.40322265625 
 31 
 0 
 0 
LINE
 10 
 804.30400390625 
 20 
 495.40322265625 
 30 
 0 
 11 
 804.068017578125 
 21 
 497.230419921875 
 31 
 0 
 0 
LINE
 10 
 804.068017578125 
 20 
 497.230419921875 
 30 
 0 
 11 
 804 
 21 
 499.6 
 31 
 0 
 0 
LINE
 10 
 804 
 20 
 499.6 
 30 
 0 
 11 
 804.033544921875 
 21 
 501.275146484375 
 31 
 0 
 0 
LINE
 10 
 804.033544921875 
 20 
 501.275146484375 
 30 
 0 
 11 
 804.1248046875 
 21 
 502.75361328125 
 31 
 0 
 0 
LINE
 10 
 804.1248046875 
 20 
 502.75361328125 
 30 
 0 
 11 
 804.2591796875 
 21 
 503.934423828125 
 31 
 0 
 0 
LINE
 10 
 804.2591796875 
 20 
 503.934423828125 
 30 
 0 
 11 
 804.422412109375 
 21 
 504.716845703125 
 31 
 0 
 0 
LINE
 10 
 804.422412109375 
 20 
 504.716845703125 
 30 
 0 
 11 
 804.6 
 21 
 505 
 31 
 0 
 0 
LINE
 10 
 804.6 
 20 
 505 
 30 
 0 
 11 
 805.315966796875 
 21 
 504.55517578125 
 31 
 0 
 0 
LINE
 10 
 805.315966796875 
 20 
 504.55517578125 
 30 
 0 
 11 
 806.872021484375 
 21 
 503.31357421875 
 31 
 0 
 0 
LINE
 10 
 806.872021484375 
 20 
 503.31357421875 
 30 
 0 
 11 
 809.1 
 21 
 501.414404296875 
 31 
 0 
 0 
LINE
 10 
 809.1 
 20 
 501.414404296875 
 30 
 0 
 11 
 811.83203125 
 21 
 498.996826171875 
 31 
 0 
 0 
LINE
 10 
 811.83203125 
 20 
 498.996826171875 
 30 
 0 
 11 
 814.9 
 21 
 496.2 
 31 
 0 
 0 
LINE
 10 
 620.5 
 20 
 492.5 
 30 
 0 
 11 
 621.69921875 
 21 
 489.615185546875 
 31 
 0 
 0 
LINE
 10 
 621.69921875 
 20 
 489.615185546875 
 30 
 0 
 11 
 622.84560546875 
 21 
 486.965576171875 
 31 
 0 
 0 
LINE
 10 
 622.84560546875 
 20 
 486.965576171875 
 30 
 0 
 11 
 623.86240234375 
 21 
 484.738427734375 
 31 
 0 
 0 
LINE
 10 
 623.86240234375 
 20 
 484.738427734375 
 30 
 0 
 11 
 624.672802734375 
 21 
 483.12080078125 
 31 
 0 
 0 
LINE
 10 
 624.672802734375 
 20 
 483.12080078125 
 30 
 0 
 11 
 625.2 
 21 
 482.3 
 31 
 0 
 0 
LINE
 10 
 625.2 
 20 
 482.3 
 30 
 0 
 11 
 625.32880859375 
 21 
 481.78076171875 
 31 
 0 
 0 
LINE
 10 
 625.32880859375 
 20 
 481.78076171875 
 30 
 0 
 11 
 624.646435546875 
 21 
 481.410400390625 
 31 
 0 
 0 
LINE
 10 
 624.646435546875 
 20 
 481.410400390625 
 30 
 0 
 11 
 622.9896484375 
 21 
 481.16962890625 
 31 
 0 
 0 
LINE
 10 
 622.9896484375 
 20 
 481.16962890625 
 30 
 0 
 11 
 620.19521484375 
 21 
 481.039208984375 
 31 
 0 
 0 
LINE
 10 
 620.19521484375 
 20 
 481.039208984375 
 30 
 0 
 11 
 616.1 
 21 
 481 
 31 
 0 
 0 
LINE
 10 
 616.1 
 20 
 481 
 30 
 0 
 11 
 606 
 21 
 481 
 31 
 0 
 0 
LINE
 10 
 606 
 20 
 481 
 30 
 0 
 11 
 607.4 
 21 
 483.3 
 31 
 0 
 0 
LINE
 10 
 607.4 
 20 
 483.3 
 30 
 0 
 11 
 607.974365234375 
 21 
 484.443994140625 
 31 
 0 
 0 
LINE
 10 
 607.974365234375 
 20 
 484.443994140625 
 30 
 0 
 11 
 608.80322265625 
 21 
 486.3080078125 
 31 
 0 
 0 
LINE
 10 
 608.80322265625 
 20 
 486.3080078125 
 30 
 0 
 11 
 609.80478515625 
 21 
 488.7 
 31 
 0 
 0 
LINE
 10 
 609.80478515625 
 20 
 488.7 
 30 
 0 
 11 
 610.897607421875 
 21 
 491.427978515625 
 31 
 0 
 0 
LINE
 10 
 610.897607421875 
 20 
 491.427978515625 
 30 
 0 
 11 
 612 
 21 
 494.3 
 31 
 0 
 0 
LINE
 10 
 612 
 20 
 494.3 
 30 
 0 
 11 
 613.069580078125 
 21 
 497.01357421875 
 31 
 0 
 0 
LINE
 10 
 613.069580078125 
 20 
 497.01357421875 
 30 
 0 
 11 
 614.076806640625 
 21 
 499.304833984375 
 31 
 0 
 0 
LINE
 10 
 614.076806640625 
 20 
 499.304833984375 
 30 
 0 
 11 
 614.959228515625 
 21 
 501.039208984375 
 31 
 0 
 0 
LINE
 10 
 614.959228515625 
 20 
 501.039208984375 
 30 
 0 
 11 
 615.654443359375 
 21 
 502.082373046875 
 31 
 0 
 0 
LINE
 10 
 615.654443359375 
 20 
 502.082373046875 
 30 
 0 
 11 
 616.1 
 21 
 502.3 
 31 
 0 
 0 
LINE
 10 
 616.1 
 20 
 502.3 
 30 
 0 
 11 
 616.519189453125 
 21 
 501.607177734375 
 31 
 0 
 0 
LINE
 10 
 616.519189453125 
 20 
 501.607177734375 
 30 
 0 
 11 
 617.245654296875 
 21 
 500.117626953125 
 31 
 0 
 0 
LINE
 10 
 617.245654296875 
 20 
 500.117626953125 
 30 
 0 
 11 
 618.202392578125 
 21 
 497.994384765625 
 31 
 0 
 0 
LINE
 10 
 618.202392578125 
 20 
 497.994384765625 
 30 
 0 
 11 
 619.31279296875 
 21 
 495.400830078125 
 31 
 0 
 0 
LINE
 10 
 619.31279296875 
 20 
 495.400830078125 
 30 
 0 
 11 
 620.5 
 21 
 492.5 
 31 
 0 
 0 
LINE
 10 
 318 
 20 
 494.1 
 30 
 0 
 11 
 317.922412109375 
 21 
 492.039990234375 
 31 
 0 
 0 
LINE
 10 
 317.922412109375 
 20 
 492.039990234375 
 30 
 0 
 11 
 317.6671875 
 21 
 490.339990234375 
 31 
 0 
 0 
LINE
 10 
 317.6671875 
 20 
 490.339990234375 
 30 
 0 
 11 
 317.20078125 
 21 
 488.87998046875 
 31 
 0 
 0 
LINE
 10 
 317.20078125 
 20 
 488.87998046875 
 30 
 0 
 11 
 316.489599609375 
 21 
 487.539990234375 
 31 
 0 
 0 
LINE
 10 
 316.489599609375 
 20 
 487.539990234375 
 30 
 0 
 11 
 315.5 
 21 
 486.2 
 31 
 0 
 0 
LINE
 10 
 315.5 
 20 
 486.2 
 30 
 0 
 11 
 314.702392578125 
 21 
 485.167138671875 
 31 
 0 
 0 
LINE
 10 
 314.702392578125 
 20 
 485.167138671875 
 30 
 0 
 11 
 314.015209960938 
 21 
 484.15361328125 
 31 
 0 
 0 
LINE
 10 
 314.015209960938 
 20 
 484.15361328125 
 30 
 0 
 11 
 313.476806640625 
 21 
 483.226416015625 
 31 
 0 
 0 
LINE
 10 
 313.476806640625 
 20 
 483.226416015625 
 30 
 0 
 11 
 313.125610351563 
 21 
 482.452783203125 
 31 
 0 
 0 
LINE
 10 
 313.125610351563 
 20 
 482.452783203125 
 30 
 0 
 11 
 313 
 21 
 481.9 
 31 
 0 
 0 
LINE
 10 
 313 
 20 
 481.9 
 30 
 0 
 11 
 312.883203125 
 21 
 481.606396484375 
 31 
 0 
 0 
LINE
 10 
 312.883203125 
 20 
 481.606396484375 
 30 
 0 
 11 
 312.665600585938 
 21 
 481.663232421875 
 31 
 0 
 0 
LINE
 10 
 312.665600585938 
 20 
 481.663232421875 
 30 
 0 
 11 
 312.36640625 
 21 
 482.03681640625 
 31 
 0 
 0 
LINE
 10 
 312.36640625 
 20 
 482.03681640625 
 30 
 0 
 11 
 312.004809570313 
 21 
 482.693603515625 
 31 
 0 
 0 
LINE
 10 
 312.004809570313 
 20 
 482.693603515625 
 30 
 0 
 11 
 311.6 
 21 
 483.6 
 31 
 0 
 0 
LINE
 10 
 311.6 
 20 
 483.6 
 30 
 0 
 11 
 311.090380859375 
 21 
 484.6576171875 
 31 
 0 
 0 
LINE
 10 
 311.090380859375 
 20 
 484.6576171875 
 30 
 0 
 11 
 310.547216796875 
 21 
 485.62880859375 
 31 
 0 
 0 
LINE
 10 
 310.547216796875 
 20 
 485.62880859375 
 30 
 0 
 11 
 310.0087890625 
 21 
 486.451220703125 
 31 
 0 
 0 
LINE
 10 
 310.0087890625 
 20 
 486.451220703125 
 30 
 0 
 11 
 309.513598632813 
 21 
 487.06240234375 
 31 
 0 
 0 
LINE
 10 
 309.513598632813 
 20 
 487.06240234375 
 30 
 0 
 11 
 309.1 
 21 
 487.4 
 31 
 0 
 0 
LINE
 10 
 309.1 
 20 
 487.4 
 30 
 0 
 11 
 308.75517578125 
 21 
 487.9103515625 
 31 
 0 
 0 
LINE
 10 
 308.75517578125 
 20 
 487.9103515625 
 30 
 0 
 11 
 308.45361328125 
 21 
 488.8912109375 
 31 
 0 
 0 
LINE
 10 
 308.45361328125 
 20 
 488.8912109375 
 30 
 0 
 11 
 308.214404296875 
 21 
 490.23681640625 
 31 
 0 
 0 
LINE
 10 
 308.214404296875 
 20 
 490.23681640625 
 30 
 0 
 11 
 308.056811523438 
 21 
 491.8416015625 
 31 
 0 
 0 
LINE
 10 
 308.056811523438 
 20 
 491.8416015625 
 30 
 0 
 11 
 308 
 21 
 493.6 
 31 
 0 
 0 
LINE
 10 
 308 
 20 
 493.6 
 30 
 0 
 11 
 308 
 21 
 499 
 31 
 0 
 0 
LINE
 10 
 308 
 20 
 499 
 30 
 0 
 11 
 313 
 21 
 499 
 31 
 0 
 0 
LINE
 10 
 313 
 20 
 499 
 30 
 0 
 11 
 318 
 21 
 499 
 31 
 0 
 0 
LINE
 10 
 318 
 20 
 499 
 30 
 0 
 11 
 318 
 21 
 494.1 
 31 
 0 
 0 
LINE
 10 
 381 
 20 
 487.3 
 30 
 0 
 11 
 380.411987304688 
 21 
 485.83837890625 
 31 
 0 
 0 
LINE
 10 
 380.411987304688 
 20 
 485.83837890625 
 30 
 0 
 11 
 379.0080078125 
 21 
 484.1751953125 
 31 
 0 
 0 
LINE
 10 
 379.0080078125 
 20 
 484.1751953125 
 30 
 0 
 11 
 377.147998046875 
 21 
 482.61279296875 
 31 
 0 
 0 
LINE
 10 
 377.147998046875 
 20 
 482.61279296875 
 30 
 0 
 11 
 375.192016601563 
 21 
 481.45361328125 
 31 
 0 
 0 
LINE
 10 
 375.192016601563 
 20 
 481.45361328125 
 30 
 0 
 11 
 373.5 
 21 
 481 
 31 
 0 
 0 
LINE
 10 
 373.5 
 20 
 481 
 30 
 0 
 11 
 371.807983398438 
 21 
 481.453564453125 
 31 
 0 
 0 
LINE
 10 
 371.807983398438 
 20 
 481.453564453125 
 30 
 0 
 11 
 369.852026367188 
 21 
 482.612841796875 
 31 
 0 
 0 
LINE
 10 
 369.852026367188 
 20 
 482.612841796875 
 30 
 0 
 11 
 367.9919921875 
 21 
 484.1751953125 
 31 
 0 
 0 
LINE
 10 
 367.9919921875 
 20 
 484.1751953125 
 30 
 0 
 11 
 366.588012695313 
 21 
 485.838427734375 
 31 
 0 
 0 
LINE
 10 
 366.588012695313 
 20 
 485.838427734375 
 30 
 0 
 11 
 366 
 21 
 487.3 
 31 
 0 
 0 
LINE
 10 
 366 
 20 
 487.3 
 30 
 0 
 11 
 366.386376953125 
 21 
 487.5263671875 
 31 
 0 
 0 
LINE
 10 
 366.386376953125 
 20 
 487.5263671875 
 30 
 0 
 11 
 367.459204101563 
 21 
 487.719189453125 
 31 
 0 
 0 
LINE
 10 
 367.459204101563 
 20 
 487.719189453125 
 30 
 0 
 11 
 369.088793945313 
 21 
 487.868798828125 
 31 
 0 
 0 
LINE
 10 
 369.088793945313 
 20 
 487.868798828125 
 30 
 0 
 11 
 371.14560546875 
 21 
 487.965625 
 31 
 0 
 0 
LINE
 10 
 371.14560546875 
 20 
 487.965625 
 30 
 0 
 11 
 373.5 
 21 
 488 
 31 
 0 
 0 
LINE
 10 
 373.5 
 20 
 488 
 30 
 0 
 11 
 375.85439453125 
 21 
 487.965576171875 
 31 
 0 
 0 
LINE
 10 
 375.85439453125 
 20 
 487.965576171875 
 30 
 0 
 11 
 377.911206054688 
 21 
 487.868798828125 
 31 
 0 
 0 
LINE
 10 
 377.911206054688 
 20 
 487.868798828125 
 30 
 0 
 11 
 379.540795898438 
 21 
 487.719189453125 
 31 
 0 
 0 
LINE
 10 
 379.540795898438 
 20 
 487.719189453125 
 30 
 0 
 11 
 380.613598632813 
 21 
 487.526416015625 
 31 
 0 
 0 
LINE
 10 
 380.613598632813 
 20 
 487.526416015625 
 30 
 0 
 11 
 381 
 21 
 487.3 
 31 
 0 
 0 
LINE
 10 
 674.8 
 20 
 469.3 
 30 
 0 
 11 
 674.58798828125 
 21 
 466.554443359375 
 31 
 0 
 0 
LINE
 10 
 674.58798828125 
 20 
 466.554443359375 
 30 
 0 
 11 
 673.680029296875 
 21 
 465.119189453125 
 31 
 0 
 0 
LINE
 10 
 673.680029296875 
 20 
 465.119189453125 
 30 
 0 
 11 
 670.948046875 
 21 
 464.93681640625 
 31 
 0 
 0 
LINE
 10 
 670.948046875 
 20 
 464.93681640625 
 30 
 0 
 11 
 665.264013671875 
 21 
 465.949609375 
 31 
 0 
 0 
LINE
 10 
 665.264013671875 
 20 
 465.949609375 
 30 
 0 
 11 
 655.5 
 21 
 468.1 
 31 
 0 
 0 
LINE
 10 
 655.5 
 20 
 468.1 
 30 
 0 
 11 
 648.18076171875 
 21 
 469.63359375 
 31 
 0 
 0 
LINE
 10 
 648.18076171875 
 20 
 469.63359375 
 30 
 0 
 11 
 642.37841796875 
 21 
 470.60078125 
 31 
 0 
 0 
LINE
 10 
 642.37841796875 
 20 
 470.60078125 
 30 
 0 
 11 
 636.585595703125 
 21 
 471.131201171875 
 31 
 0 
 0 
LINE
 10 
 636.585595703125 
 20 
 471.131201171875 
 30 
 0 
 11 
 629.29521484375 
 21 
 471.35439453125 
 31 
 0 
 0 
LINE
 10 
 629.29521484375 
 20 
 471.35439453125 
 30 
 0 
 11 
 619 
 21 
 471.4 
 31 
 0 
 0 
LINE
 10 
 619 
 20 
 471.4 
 30 
 0 
 11 
 609.464794921875 
 21 
 471.401611328125 
 31 
 0 
 0 
LINE
 10 
 609.464794921875 
 20 
 471.401611328125 
 30 
 0 
 11 
 602.214404296875 
 21 
 471.24482421875 
 31 
 0 
 0 
LINE
 10 
 602.214404296875 
 20 
 471.24482421875 
 30 
 0 
 11 
 596.341552734375 
 21 
 470.8671875 
 31 
 0 
 0 
LINE
 10 
 596.341552734375 
 20 
 470.8671875 
 30 
 0 
 11 
 590.939208984375 
 21 
 470.206396484375 
 31 
 0 
 0 
LINE
 10 
 590.939208984375 
 20 
 470.206396484375 
 30 
 0 
 11 
 585.1 
 21 
 469.2 
 31 
 0 
 0 
LINE
 10 
 585.1 
 20 
 469.2 
 30 
 0 
 11 
 575.800830078125 
 21 
 467.218408203125 
 31 
 0 
 0 
LINE
 10 
 575.800830078125 
 20 
 467.218408203125 
 30 
 0 
 11 
 566.506396484375 
 21 
 464.747216796875 
 31 
 0 
 0 
LINE
 10 
 566.506396484375 
 20 
 464.747216796875 
 30 
 0 
 11 
 557.221630859375 
 21 
 461.776806640625 
 31 
 0 
 0 
LINE
 10 
 557.221630859375 
 20 
 461.776806640625 
 30 
 0 
 11 
 547.951220703125 
 21 
 458.297607421875 
 31 
 0 
 0 
LINE
 10 
 547.951220703125 
 20 
 458.297607421875 
 30 
 0 
 11 
 538.7 
 21 
 454.3 
 31 
 0 
 0 
LINE
 10 
 538.7 
 20 
 454.3 
 30 
 0 
 11 
 533.219970703125 
 21 
 451.861572265625 
 31 
 0 
 0 
LINE
 10 
 533.219970703125 
 20 
 451.861572265625 
 30 
 0 
 11 
 529.372021484375 
 21 
 450.320849609375 
 31 
 0 
 0 
LINE
 10 
 529.372021484375 
 20 
 450.320849609375 
 30 
 0 
 11 
 526.60400390625 
 21 
 449.519189453125 
 31 
 0 
 0 
LINE
 10 
 526.60400390625 
 20 
 449.519189453125 
 30 
 0 
 11 
 524.364013671875 
 21 
 449.298388671875 
 31 
 0 
 0 
LINE
 10 
 524.364013671875 
 20 
 449.298388671875 
 30 
 0 
 11 
 522.1 
 21 
 449.5 
 31 
 0 
 0 
LINE
 10 
 522.1 
 20 
 449.5 
 30 
 0 
 11 
 517.749609375 
 21 
 450.24638671875 
 31 
 0 
 0 
LINE
 10 
 517.749609375 
 20 
 450.24638671875 
 30 
 0 
 11 
 513.144775390625 
 21 
 451.247216796875 
 31 
 0 
 0 
LINE
 10 
 513.144775390625 
 20 
 451.247216796875 
 30 
 0 
 11 
 508.535205078125 
 21 
 452.444775390625 
 31 
 0 
 0 
LINE
 10 
 508.535205078125 
 20 
 452.444775390625 
 30 
 0 
 11 
 504.17041015625 
 21 
 453.781591796875 
 31 
 0 
 0 
LINE
 10 
 504.17041015625 
 20 
 453.781591796875 
 30 
 0 
 11 
 500.3 
 21 
 455.2 
 31 
 0 
 0 
LINE
 10 
 500.3 
 20 
 455.2 
 30 
 0 
 11 
 495 
 21 
 457.2 
 31 
 0 
 0 
LINE
 10 
 495 
 20 
 457.2 
 30 
 0 
 11 
 495 
 21 
 465.1 
 31 
 0 
 0 
LINE
 10 
 495 
 20 
 465.1 
 30 
 0 
 11 
 495 
 21 
 473 
 31 
 0 
 0 
LINE
 10 
 495 
 20 
 473 
 30 
 0 
 11 
 529.3 
 21 
 473.3 
 31 
 0 
 0 
LINE
 10 
 529.3 
 20 
 473.3 
 30 
 0 
 11 
 542.931982421875 
 21 
 473.371142578125 
 31 
 0 
 0 
LINE
 10 
 542.931982421875 
 20 
 473.371142578125 
 30 
 0 
 11 
 560.260009765625 
 21 
 473.46162109375 
 31 
 0 
 0 
LINE
 10 
 560.260009765625 
 20 
 473.46162109375 
 30 
 0 
 11 
 579.77197265625 
 21 
 473.56640625 
 31 
 0 
 0 
LINE
 10 
 579.77197265625 
 20 
 473.56640625 
 30 
 0 
 11 
 599.956005859375 
 21 
 473.680810546875 
 31 
 0 
 0 
LINE
 10 
 599.956005859375 
 20 
 473.680810546875 
 30 
 0 
 11 
 619.3 
 21 
 473.8 
 31 
 0 
 0 
LINE
 10 
 619.3 
 20 
 473.8 
 30 
 0 
 11 
 675.1 
 21 
 474 
 31 
 0 
 0 
LINE
 10 
 675.1 
 20 
 474 
 30 
 0 
 11 
 674.8 
 21 
 469.3 
 31 
 0 
 0 
LINE
 10 
 446 
 20 
 467 
 30 
 0 
 11 
 445.966357421875 
 21 
 465.1087890625 
 31 
 0 
 0 
LINE
 10 
 445.966357421875 
 20 
 465.1087890625 
 30 
 0 
 11 
 445.875244140625 
 21 
 463.46240234375 
 31 
 0 
 0 
LINE
 10 
 445.875244140625 
 20 
 463.46240234375 
 30 
 0 
 11 
 445.7408203125 
 21 
 462.16162109375 
 31 
 0 
 0 
LINE
 10 
 445.7408203125 
 20 
 462.16162109375 
 30 
 0 
 11 
 445.577587890625 
 21 
 461.3072265625 
 31 
 0 
 0 
LINE
 10 
 445.577587890625 
 20 
 461.3072265625 
 30 
 0 
 11 
 445.4 
 21 
 461 
 31 
 0 
 0 
LINE
 10 
 445.4 
 20 
 461 
 30 
 0 
 11 
 444.619189453125 
 21 
 461.1583984375 
 31 
 0 
 0 
LINE
 10 
 444.619189453125 
 20 
 461.1583984375 
 30 
 0 
 11 
 442.77763671875 
 21 
 461.59521484375 
 31 
 0 
 0 
LINE
 10 
 442.77763671875 
 20 
 461.59521484375 
 30 
 0 
 11 
 440.08642578125 
 21 
 462.252783203125 
 31 
 0 
 0 
LINE
 10 
 440.08642578125 
 20 
 462.252783203125 
 30 
 0 
 11 
 436.756787109375 
 21 
 463.073583984375 
 31 
 0 
 0 
LINE
 10 
 436.756787109375 
 20 
 463.073583984375 
 30 
 0 
 11 
 433 
 21 
 464 
 31 
 0 
 0 
LINE
 10 
 433 
 20 
 464 
 30 
 0 
 11 
 425.83359375 
 21 
 465.780029296875 
 31 
 0 
 0 
LINE
 10 
 425.83359375 
 20 
 465.780029296875 
 30 
 0 
 11 
 421.41279296875 
 21 
 466.69599609375 
 31 
 0 
 0 
LINE
 10 
 421.41279296875 
 20 
 466.69599609375 
 30 
 0 
 11 
 419.0751953125 
 21 
 466.772021484375 
 31 
 0 
 0 
LINE
 10 
 419.0751953125 
 20 
 466.772021484375 
 30 
 0 
 11 
 418.1583984375 
 21 
 466.03203125 
 31 
 0 
 0 
LINE
 10 
 418.1583984375 
 20 
 466.03203125 
 30 
 0 
 11 
 418 
 21 
 464.5 
 31 
 0 
 0 
LINE
 10 
 418 
 20 
 464.5 
 30 
 0 
 11 
 418.29677734375 
 21 
 461.949560546875 
 31 
 0 
 0 
LINE
 10 
 418.29677734375 
 20 
 461.949560546875 
 30 
 0 
 11 
 419.1744140625 
 21 
 459.240771484375 
 31 
 0 
 0 
LINE
 10 
 419.1744140625 
 20 
 459.240771484375 
 30 
 0 
 11 
 420.613623046875 
 21 
 456.4072265625 
 31 
 0 
 0 
LINE
 10 
 420.613623046875 
 20 
 456.4072265625 
 30 
 0 
 11 
 422.59521484375 
 21 
 453.482421875 
 31 
 0 
 0 
LINE
 10 
 422.59521484375 
 20 
 453.482421875 
 30 
 0 
 11 
 425.1 
 21 
 450.5 
 31 
 0 
 0 
LINE
 10 
 425.1 
 20 
 450.5 
 30 
 0 
 11 
 428.87041015625 
 21 
 446.785546875 
 31 
 0 
 0 
LINE
 10 
 428.87041015625 
 20 
 446.785546875 
 30 
 0 
 11 
 432.583203125 
 21 
 444.232861328125 
 31 
 0 
 0 
LINE
 10 
 432.583203125 
 20 
 444.232861328125 
 30 
 0 
 11 
 436.90078125 
 21 
 442.58720703125 
 31 
 0 
 0 
LINE
 10 
 436.90078125 
 20 
 442.58720703125 
 30 
 0 
 11 
 442.485595703125 
 21 
 441.594384765625 
 31 
 0 
 0 
LINE
 10 
 442.485595703125 
 20 
 441.594384765625 
 30 
 0 
 11 
 450 
 21 
 441 
 31 
 0 
 0 
LINE
 10 
 450 
 20 
 441 
 30 
 0 
 11 
 459.1607421875 
 21 
 440.089599609375 
 31 
 0 
 0 
LINE
 10 
 459.1607421875 
 20 
 440.089599609375 
 30 
 0 
 11 
 466.83837890625 
 21 
 438.42080078125 
 31 
 0 
 0 
LINE
 10 
 466.83837890625 
 20 
 438.42080078125 
 30 
 0 
 11 
 473.565625 
 21 
 435.78720703125 
 31 
 0 
 0 
LINE
 10 
 473.565625 
 20 
 435.78720703125 
 30 
 0 
 11 
 479.8751953125 
 21 
 431.982421875 
 31 
 0 
 0 
LINE
 10 
 479.8751953125 
 20 
 431.982421875 
 30 
 0 
 11 
 486.3 
 21 
 426.8 
 31 
 0 
 0 
LINE
 10 
 486.3 
 20 
 426.8 
 30 
 0 
 11 
 491.1 
 21 
 422.5 
 31 
 0 
 0 
LINE
 10 
 491.1 
 20 
 422.5 
 30 
 0 
 11 
 482.6 
 21 
 414.1 
 31 
 0 
 0 
LINE
 10 
 482.6 
 20 
 414.1 
 30 
 0 
 11 
 474.1 
 21 
 405.6 
 31 
 0 
 0 
LINE
 10 
 474.1 
 20 
 405.6 
 30 
 0 
 11 
 466.3 
 21 
 413.6 
 31 
 0 
 0 
LINE
 10 
 466.3 
 20 
 413.6 
 30 
 0 
 11 
 455.229541015625 
 21 
 423.773583984375 
 31 
 0 
 0 
LINE
 10 
 455.229541015625 
 20 
 423.773583984375 
 30 
 0 
 11 
 443.688818359375 
 21 
 432.060791015625 
 31 
 0 
 0 
LINE
 10 
 443.688818359375 
 20 
 432.060791015625 
 30 
 0 
 11 
 431.423193359375 
 21 
 438.5912109375 
 31 
 0 
 0 
LINE
 10 
 431.423193359375 
 20 
 438.5912109375 
 30 
 0 
 11 
 418.17841796875 
 21 
 443.494384765625 
 31 
 0 
 0 
LINE
 10 
 418.17841796875 
 20 
 443.494384765625 
 30 
 0 
 11 
 403.7 
 21 
 446.9 
 31 
 0 
 0 
LINE
 10 
 403.7 
 20 
 446.9 
 30 
 0 
 11 
 401.447973632813 
 21 
 447.37041015625 
 31 
 0 
 0 
LINE
 10 
 401.447973632813 
 20 
 447.37041015625 
 30 
 0 
 11 
 398.692016601563 
 21 
 448.023193359375 
 31 
 0 
 0 
LINE
 10 
 398.692016601563 
 20 
 448.023193359375 
 30 
 0 
 11 
 395.671997070313 
 21 
 448.800830078125 
 31 
 0 
 0 
LINE
 10 
 395.671997070313 
 20 
 448.800830078125 
 30 
 0 
 11 
 392.628002929688 
 21 
 449.64560546875 
 31 
 0 
 0 
LINE
 10 
 392.628002929688 
 20 
 449.64560546875 
 30 
 0 
 11 
 389.8 
 21 
 450.5 
 31 
 0 
 0 
LINE
 10 
 389.8 
 20 
 450.5 
 30 
 0 
 11 
 386.84638671875 
 21 
 451.3767578125 
 31 
 0 
 0 
LINE
 10 
 386.84638671875 
 20 
 451.3767578125 
 30 
 0 
 11 
 384.459204101563 
 21 
 451.97041015625 
 31 
 0 
 0 
LINE
 10 
 384.459204101563 
 20 
 451.97041015625 
 30 
 0 
 11 
 382.62880859375 
 21 
 452.285595703125 
 31 
 0 
 0 
LINE
 10 
 382.62880859375 
 20 
 452.285595703125 
 30 
 0 
 11 
 381.34560546875 
 21 
 452.327197265625 
 31 
 0 
 0 
LINE
 10 
 381.34560546875 
 20 
 452.327197265625 
 30 
 0 
 11 
 380.6 
 21 
 452.1 
 31 
 0 
 0 
LINE
 10 
 380.6 
 20 
 452.1 
 30 
 0 
 11 
 379.872802734375 
 21 
 451.898388671875 
 31 
 0 
 0 
LINE
 10 
 379.872802734375 
 20 
 451.898388671875 
 30 
 0 
 11 
 378.7423828125 
 21 
 452.143212890625 
 31 
 0 
 0 
LINE
 10 
 378.7423828125 
 20 
 452.143212890625 
 30 
 0 
 11 
 377.165600585938 
 21 
 452.848828125 
 31 
 0 
 0 
LINE
 10 
 377.165600585938 
 20 
 452.848828125 
 30 
 0 
 11 
 375.09921875 
 21 
 454.029638671875 
 31 
 0 
 0 
LINE
 10 
 375.09921875 
 20 
 454.029638671875 
 30 
 0 
 11 
 372.5 
 21 
 455.7 
 31 
 0 
 0 
LINE
 10 
 372.5 
 20 
 455.7 
 30 
 0 
 11 
 370.155981445313 
 21 
 457.229541015625 
 31 
 0 
 0 
LINE
 10 
 370.155981445313 
 20 
 457.229541015625 
 30 
 0 
 11 
 367.692016601563 
 21 
 458.74482421875 
 31 
 0 
 0 
LINE
 10 
 367.692016601563 
 20 
 458.74482421875 
 30 
 0 
 11 
 365.3 
 21 
 460.135205078125 
 31 
 0 
 0 
LINE
 10 
 365.3 
 20 
 460.135205078125 
 30 
 0 
 11 
 363.171997070313 
 21 
 461.290380859375 
 31 
 0 
 0 
LINE
 10 
 363.171997070313 
 20 
 461.290380859375 
 30 
 0 
 11 
 361.5 
 21 
 462.1 
 31 
 0 
 0 
LINE
 10 
 361.5 
 20 
 462.1 
 30 
 0 
 11 
 356.1255859375 
 21 
 464.046435546875 
 31 
 0 
 0 
LINE
 10 
 356.1255859375 
 20 
 464.046435546875 
 30 
 0 
 11 
 349.272802734375 
 21 
 465.91123046875 
 31 
 0 
 0 
LINE
 10 
 349.272802734375 
 20 
 465.91123046875 
 30 
 0 
 11 
 341.88720703125 
 21 
 467.492822265625 
 31 
 0 
 0 
LINE
 10 
 341.88720703125 
 20 
 467.492822265625 
 30 
 0 
 11 
 334.914404296875 
 21 
 468.589599609375 
 31 
 0 
 0 
LINE
 10 
 334.914404296875 
 20 
 468.589599609375 
 30 
 0 
 11 
 329.3 
 21 
 469 
 31 
 0 
 0 
LINE
 10 
 329.3 
 20 
 469 
 30 
 0 
 11 
 326.006396484375 
 21 
 469.035205078125 
 31 
 0 
 0 
LINE
 10 
 326.006396484375 
 20 
 469.035205078125 
 30 
 0 
 11 
 323.879223632813 
 21 
 469.185595703125 
 31 
 0 
 0 
LINE
 10 
 323.879223632813 
 20 
 469.185595703125 
 30 
 0 
 11 
 322.668798828125 
 21 
 469.518408203125 
 31 
 0 
 0 
LINE
 10 
 322.668798828125 
 20 
 469.518408203125 
 30 
 0 
 11 
 322.125610351563 
 21 
 470.100830078125 
 31 
 0 
 0 
LINE
 10 
 322.125610351563 
 20 
 470.100830078125 
 30 
 0 
 11 
 322 
 21 
 471 
 31 
 0 
 0 
LINE
 10 
 322 
 20 
 471 
 30 
 0 
 11 
 322.56318359375 
 21 
 471.9759765625 
 31 
 0 
 0 
LINE
 10 
 322.56318359375 
 20 
 471.9759765625 
 30 
 0 
 11 
 326.169604492188 
 21 
 472.568017578125 
 31 
 0 
 0 
LINE
 10 
 326.169604492188 
 20 
 472.568017578125 
 30 
 0 
 11 
 335.694409179688 
 21 
 472.872021484375 
 31 
 0 
 0 
LINE
 10 
 335.694409179688 
 20 
 472.872021484375 
 30 
 0 
 11 
 354.012817382813 
 21 
 472.984033203125 
 31 
 0 
 0 
LINE
 10 
 354.012817382813 
 20 
 472.984033203125 
 30 
 0 
 11 
 384 
 21 
 473 
 31 
 0 
 0 
LINE
 10 
 384 
 20 
 473 
 30 
 0 
 11 
 446 
 21 
 473 
 31 
 0 
 0 
LINE
 10 
 446 
 20 
 473 
 30 
 0 
 11 
 446 
 21 
 467 
 31 
 0 
 0 
LINE
 10 
 490 
 20 
 466 
 30 
 0 
 11 
 490 
 21 
 458.9 
 31 
 0 
 0 
LINE
 10 
 490 
 20 
 458.9 
 30 
 0 
 11 
 484.8 
 21 
 459.7 
 31 
 0 
 0 
LINE
 10 
 484.8 
 20 
 459.7 
 30 
 0 
 11 
 482.407177734375 
 21 
 459.935986328125 
 31 
 0 
 0 
LINE
 10 
 482.407177734375 
 20 
 459.935986328125 
 30 
 0 
 11 
 478.929638671875 
 21 
 460.148046875 
 31 
 0 
 0 
LINE
 10 
 478.929638671875 
 20 
 460.148046875 
 30 
 0 
 11 
 474.698388671875 
 21 
 460.31201171875 
 31 
 0 
 0 
LINE
 10 
 474.698388671875 
 20 
 460.31201171875 
 30 
 0 
 11 
 470.04482421875 
 21 
 460.40400390625 
 31 
 0 
 0 
LINE
 10 
 470.04482421875 
 20 
 460.40400390625 
 30 
 0 
 11 
 465.3 
 21 
 460.4 
 31 
 0 
 0 
LINE
 10 
 465.3 
 20 
 460.4 
 30 
 0 
 11 
 451 
 21 
 460.4 
 31 
 0 
 0 
LINE
 10 
 451 
 20 
 460.4 
 30 
 0 
 11 
 451 
 21 
 466.7 
 31 
 0 
 0 
LINE
 10 
 451 
 20 
 466.7 
 30 
 0 
 11 
 451 
 21 
 473 
 31 
 0 
 0 
LINE
 10 
 451 
 20 
 473 
 30 
 0 
 11 
 470.5 
 21 
 473 
 31 
 0 
 0 
LINE
 10 
 470.5 
 20 
 473 
 30 
 0 
 11 
 490 
 21 
 473 
 31 
 0 
 0 
LINE
 10 
 490 
 20 
 473 
 30 
 0 
 11 
 490 
 21 
 466 
 31 
 0 
 0 
LINE
 10 
 400.3 
 20 
 436.3 
 30 
 0 
 11 
 402.42958984375 
 21 
 434.547998046875 
 31 
 0 
 0 
LINE
 10 
 402.42958984375 
 20 
 434.547998046875 
 30 
 0 
 11 
 404.73681640625 
 21 
 432.62802734375 
 31 
 0 
 0 
LINE
 10 
 404.73681640625 
 20 
 432.62802734375 
 30 
 0 
 11 
 407.039208984375 
 21 
 430.683984375 
 31 
 0 
 0 
LINE
 10 
 407.039208984375 
 20 
 430.683984375 
 30 
 0 
 11 
 409.15439453125 
 21 
 428.860009765625 
 31 
 0 
 0 
LINE
 10 
 409.15439453125 
 20 
 428.860009765625 
 30 
 0 
 11 
 410.9 
 21 
 427.3 
 31 
 0 
 0 
LINE
 10 
 410.9 
 20 
 427.3 
 30 
 0 
 11 
 415.7919921875 
 21 
 423.08798828125 
 31 
 0 
 0 
LINE
 10 
 415.7919921875 
 20 
 423.08798828125 
 30 
 0 
 11 
 422.652001953125 
 21 
 417.5080078125 
 31 
 0 
 0 
LINE
 10 
 422.652001953125 
 20 
 417.5080078125 
 30 
 0 
 11 
 430.376025390625 
 21 
 411.4240234375 
 31 
 0 
 0 
LINE
 10 
 430.376025390625 
 20 
 411.4240234375 
 30 
 0 
 11 
 437.860009765625 
 21 
 405.7 
 31 
 0 
 0 
LINE
 10 
 437.860009765625 
 20 
 405.7 
 30 
 0 
 11 
 444 
 21 
 401.2 
 31 
 0 
 0 
LINE
 10 
 444 
 20 
 401.2 
 30 
 0 
 11 
 450.06318359375 
 21 
 396.761572265625 
 31 
 0 
 0 
LINE
 10 
 450.06318359375 
 20 
 396.761572265625 
 30 
 0 
 11 
 456.889599609375 
 21 
 391.564794921875 
 31 
 0 
 0 
LINE
 10 
 456.889599609375 
 20 
 391.564794921875 
 30 
 0 
 11 
 463.634423828125 
 21 
 386.2671875 
 31 
 0 
 0 
LINE
 10 
 463.634423828125 
 20 
 386.2671875 
 30 
 0 
 11 
 469.45283203125 
 21 
 381.526391601563 
 31 
 0 
 0 
LINE
 10 
 469.45283203125 
 20 
 381.526391601563 
 30 
 0 
 11 
 473.5 
 21 
 378 
 31 
 0 
 0 
LINE
 10 
 473.5 
 20 
 378 
 30 
 0 
 11 
 475.352001953125 
 21 
 376.42158203125 
 31 
 0 
 0 
LINE
 10 
 475.352001953125 
 20 
 376.42158203125 
 30 
 0 
 11 
 478.0919921875 
 21 
 374.3248046875 
 31 
 0 
 0 
LINE
 10 
 478.0919921875 
 20 
 374.3248046875 
 30 
 0 
 11 
 481.456005859375 
 21 
 371.88720703125 
 31 
 0 
 0 
LINE
 10 
 481.456005859375 
 20 
 371.88720703125 
 30 
 0 
 11 
 485.17998046875 
 21 
 369.286401367188 
 31 
 0 
 0 
LINE
 10 
 485.17998046875 
 20 
 369.286401367188 
 30 
 0 
 11 
 489 
 21 
 366.7 
 31 
 0 
 0 
LINE
 10 
 489 
 20 
 366.7 
 30 
 0 
 11 
 496.8087890625 
 21 
 361.414404296875 
 31 
 0 
 0 
LINE
 10 
 496.8087890625 
 20 
 361.414404296875 
 30 
 0 
 11 
 501.814453125 
 21 
 357.631176757813 
 31 
 0 
 0 
LINE
 10 
 501.814453125 
 20 
 357.631176757813 
 30 
 0 
 11 
 503.565625 
 21 
 355.82080078125 
 31 
 0 
 0 
LINE
 10 
 503.565625 
 20 
 355.82080078125 
 30 
 0 
 11 
 501.61123046875 
 21 
 356.45361328125 
 31 
 0 
 0 
LINE
 10 
 501.61123046875 
 20 
 356.45361328125 
 30 
 0 
 11 
 495.5 
 21 
 360 
 31 
 0 
 0 
LINE
 10 
 495.5 
 20 
 360 
 30 
 0 
 11 
 492.096728515625 
 21 
 362.143188476563 
 31 
 0 
 0 
LINE
 10 
 492.096728515625 
 20 
 362.143188476563 
 30 
 0 
 11 
 488.650439453125 
 21 
 364.377612304688 
 31 
 0 
 0 
LINE
 10 
 488.650439453125 
 20 
 364.377612304688 
 30 
 0 
 11 
 485.40556640625 
 21 
 366.530419921875 
 31 
 0 
 0 
LINE
 10 
 485.40556640625 
 20 
 366.530419921875 
 30 
 0 
 11 
 482.607177734375 
 21 
 368.42880859375 
 31 
 0 
 0 
LINE
 10 
 482.607177734375 
 20 
 368.42880859375 
 30 
 0 
 11 
 480.5 
 21 
 369.9 
 31 
 0 
 0 
LINE
 10 
 480.5 
 20 
 369.9 
 30 
 0 
 11 
 473.827978515625 
 21 
 374.885571289063 
 31 
 0 
 0 
LINE
 10 
 473.827978515625 
 20 
 374.885571289063 
 30 
 0 
 11 
 468.02001953125 
 21 
 379.136791992188 
 31 
 0 
 0 
LINE
 10 
 468.02001953125 
 20 
 379.136791992188 
 30 
 0 
 11 
 463.147998046875 
 21 
 382.615185546875 
 31 
 0 
 0 
LINE
 10 
 463.147998046875 
 20 
 382.615185546875 
 30 
 0 
 11 
 459.284033203125 
 21 
 385.282397460938 
 31 
 0 
 0 
LINE
 10 
 459.284033203125 
 20 
 385.282397460938 
 30 
 0 
 11 
 456.5 
 21 
 387.1 
 31 
 0 
 0 
LINE
 10 
 456.5 
 20 
 387.1 
 30 
 0 
 11 
 446.67998046875 
 21 
 393.482397460938 
 31 
 0 
 0 
LINE
 10 
 446.67998046875 
 20 
 393.482397460938 
 30 
 0 
 11 
 435.9 
 21 
 401.415209960938 
 31 
 0 
 0 
LINE
 10 
 435.9 
 20 
 401.415209960938 
 30 
 0 
 11 
 424.27998046875 
 21 
 410.816796875 
 31 
 0 
 0 
LINE
 10 
 424.27998046875 
 20 
 410.816796875 
 30 
 0 
 11 
 411.939990234375 
 21 
 421.605615234375 
 31 
 0 
 0 
LINE
 10 
 411.939990234375 
 20 
 421.605615234375 
 30 
 0 
 11 
 399 
 21 
 433.7 
 31 
 0 
 0 
LINE
 10 
 399 
 20 
 433.7 
 30 
 0 
 11 
 394.997583007813 
 21 
 437.80078125 
 31 
 0 
 0 
LINE
 10 
 394.997583007813 
 20 
 437.80078125 
 30 
 0 
 11 
 393.164794921875 
 21 
 440.202392578125 
 31 
 0 
 0 
LINE
 10 
 393.164794921875 
 20 
 440.202392578125 
 30 
 0 
 11 
 393.463208007813 
 21 
 440.813623046875 
 31 
 0 
 0 
LINE
 10 
 393.463208007813 
 20 
 440.813623046875 
 30 
 0 
 11 
 395.85439453125 
 21 
 439.543212890625 
 31 
 0 
 0 
LINE
 10 
 395.85439453125 
 20 
 439.543212890625 
 30 
 0 
 11 
 400.3 
 21 
 436.3 
 31 
 0 
 0 
LINE
 10 
 339.1 
 20 
 422 
 30 
 0 
 11 
 341.749584960938 
 21 
 420.847216796875 
 31 
 0 
 0 
LINE
 10 
 341.749584960938 
 20 
 420.847216796875 
 30 
 0 
 11 
 344.504809570313 
 21 
 418.72958984375 
 31 
 0 
 0 
LINE
 10 
 344.504809570313 
 20 
 418.72958984375 
 30 
 0 
 11 
 347.49521484375 
 21 
 415.498388671875 
 31 
 0 
 0 
LINE
 10 
 347.49521484375 
 20 
 415.498388671875 
 30 
 0 
 11 
 350.850390625 
 21 
 411.004833984375 
 31 
 0 
 0 
LINE
 10 
 350.850390625 
 20 
 411.004833984375 
 30 
 0 
 11 
 354.7 
 21 
 405.1 
 31 
 0 
 0 
LINE
 10 
 354.7 
 20 
 405.1 
 30 
 0 
 11 
 356.459985351563 
 21 
 402.355200195313 
 31 
 0 
 0 
LINE
 10 
 356.459985351563 
 20 
 402.355200195313 
 30 
 0 
 11 
 358.076000976563 
 21 
 399.86962890625 
 31 
 0 
 0 
LINE
 10 
 358.076000976563 
 20 
 399.86962890625 
 30 
 0 
 11 
 359.452001953125 
 21 
 397.806396484375 
 31 
 0 
 0 
LINE
 10 
 359.452001953125 
 20 
 397.806396484375 
 30 
 0 
 11 
 360.492016601563 
 21 
 396.32880859375 
 31 
 0 
 0 
LINE
 10 
 360.492016601563 
 20 
 396.32880859375 
 30 
 0 
 11 
 361.1 
 21 
 395.6 
 31 
 0 
 0 
LINE
 10 
 361.1 
 20 
 395.6 
 30 
 0 
 11 
 361.385595703125 
 21 
 395.219970703125 
 31 
 0 
 0 
LINE
 10 
 361.385595703125 
 20 
 395.219970703125 
 30 
 0 
 11 
 361.632788085938 
 21 
 394.816015625 
 31 
 0 
 0 
LINE
 10 
 361.632788085938 
 20 
 394.816015625 
 30 
 0 
 11 
 361.827221679688 
 21 
 394.41201171875 
 31 
 0 
 0 
LINE
 10 
 361.827221679688 
 20 
 394.41201171875 
 30 
 0 
 11 
 361.954418945313 
 21 
 394.032006835938 
 31 
 0 
 0 
LINE
 10 
 361.954418945313 
 20 
 394.032006835938 
 30 
 0 
 11 
 362 
 21 
 393.7 
 31 
 0 
 0 
LINE
 10 
 362 
 20 
 393.7 
 30 
 0 
 11 
 361.750366210938 
 21 
 393.695190429688 
 31 
 0 
 0 
LINE
 10 
 361.750366210938 
 20 
 393.695190429688 
 30 
 0 
 11 
 361.059204101563 
 21 
 394.333618164063 
 31 
 0 
 0 
LINE
 10 
 361.059204101563 
 20 
 394.333618164063 
 30 
 0 
 11 
 360.01279296875 
 21 
 395.514404296875 
 31 
 0 
 0 
LINE
 10 
 360.01279296875 
 20 
 395.514404296875 
 30 
 0 
 11 
 358.697607421875 
 21 
 397.13681640625 
 31 
 0 
 0 
LINE
 10 
 358.697607421875 
 20 
 397.13681640625 
 30 
 0 
 11 
 357.2 
 21 
 399.1 
 31 
 0 
 0 
LINE
 10 
 357.2 
 20 
 399.1 
 30 
 0 
 11 
 352.942407226563 
 21 
 404.262353515625 
 31 
 0 
 0 
LINE
 10 
 352.942407226563 
 20 
 404.262353515625 
 30 
 0 
 11 
 348.2912109375 
 21 
 409.127221679688 
 31 
 0 
 0 
LINE
 10 
 348.2912109375 
 20 
 409.127221679688 
 30 
 0 
 11 
 343.548803710938 
 21 
 413.42080078125 
 31 
 0 
 0 
LINE
 10 
 343.548803710938 
 20 
 413.42080078125 
 30 
 0 
 11 
 339.017602539063 
 21 
 416.86962890625 
 31 
 0 
 0 
LINE
 10 
 339.017602539063 
 20 
 416.86962890625 
 30 
 0 
 11 
 335 
 21 
 419.2 
 31 
 0 
 0 
LINE
 10 
 335 
 20 
 419.2 
 30 
 0 
 11 
 333.40478515625 
 21 
 419.972802734375 
 31 
 0 
 0 
LINE
 10 
 333.40478515625 
 20 
 419.972802734375 
 30 
 0 
 11 
 332.030419921875 
 21 
 420.70244140625 
 31 
 0 
 0 
LINE
 10 
 332.030419921875 
 20 
 420.70244140625 
 30 
 0 
 11 
 330.953588867188 
 21 
 421.34560546875 
 31 
 0 
 0 
LINE
 10 
 330.953588867188 
 20 
 421.34560546875 
 30 
 0 
 11 
 330.251196289063 
 21 
 421.859228515625 
 31 
 0 
 0 
LINE
 10 
 330.251196289063 
 20 
 421.859228515625 
 30 
 0 
 11 
 330 
 21 
 422.2 
 31 
 0 
 0 
LINE
 10 
 330 
 20 
 422.2 
 30 
 0 
 11 
 330.533569335938 
 21 
 422.716748046875 
 31 
 0 
 0 
LINE
 10 
 330.533569335938 
 20 
 422.716748046875 
 30 
 0 
 11 
 331.964819335938 
 21 
 422.950390625 
 31 
 0 
 0 
LINE
 10 
 331.964819335938 
 20 
 422.950390625 
 30 
 0 
 11 
 334.039208984375 
 21 
 422.905615234375 
 31 
 0 
 0 
LINE
 10 
 334.039208984375 
 20 
 422.905615234375 
 30 
 0 
 11 
 336.502416992188 
 21 
 422.58720703125 
 31 
 0 
 0 
LINE
 10 
 336.502416992188 
 20 
 422.58720703125 
 30 
 0 
 11 
 339.1 
 21 
 422 
 31 
 0 
 0 
LINE
 10 
 374.7 
 20 
 407.3 
 30 
 0 
 11 
 376.166381835938 
 21 
 405.128002929688 
 31 
 0 
 0 
LINE
 10 
 376.166381835938 
 20 
 405.128002929688 
 30 
 0 
 11 
 377.983227539063 
 21 
 402.836010742188 
 31 
 0 
 0 
LINE
 10 
 377.983227539063 
 20 
 402.836010742188 
 30 
 0 
 11 
 380.596826171875 
 21 
 399.919995117188 
 31 
 0 
 0 
LINE
 10 
 380.596826171875 
 20 
 399.919995117188 
 30 
 0 
 11 
 384.45361328125 
 21 
 395.876000976563 
 31 
 0 
 0 
LINE
 10 
 384.45361328125 
 20 
 395.876000976563 
 30 
 0 
 11 
 390 
 21 
 390.2 
 31 
 0 
 0 
LINE
 10 
 390 
 20 
 390.2 
 30 
 0 
 11 
 397.975170898438 
 21 
 382.590405273438 
 31 
 0 
 0 
LINE
 10 
 397.975170898438 
 20 
 382.590405273438 
 30 
 0 
 11 
 406.497607421875 
 21 
 375.427197265625 
 31 
 0 
 0 
LINE
 10 
 406.497607421875 
 20 
 375.427197265625 
 30 
 0 
 11 
 415.682421875 
 21 
 368.62880859375 
 31 
 0 
 0 
LINE
 10 
 415.682421875 
 20 
 368.62880859375 
 30 
 0 
 11 
 425.64482421875 
 21 
 362.113598632813 
 31 
 0 
 0 
LINE
 10 
 425.64482421875 
 20 
 362.113598632813 
 30 
 0 
 11 
 436.5 
 21 
 355.8 
 31 
 0 
 0 
LINE
 10 
 436.5 
 20 
 355.8 
 30 
 0 
 11 
 438.07919921875 
 21 
 355.082397460938 
 31 
 0 
 0 
LINE
 10 
 438.07919921875 
 20 
 355.082397460938 
 30 
 0 
 11 
 440.613623046875 
 21 
 354.067211914063 
 31 
 0 
 0 
LINE
 10 
 440.613623046875 
 20 
 354.067211914063 
 30 
 0 
 11 
 443.8583984375 
 21 
 352.840795898438 
 31 
 0 
 0 
LINE
 10 
 443.8583984375 
 20 
 352.840795898438 
 30 
 0 
 11 
 447.568798828125 
 21 
 351.489624023438 
 31 
 0 
 0 
LINE
 10 
 447.568798828125 
 20 
 351.489624023438 
 30 
 0 
 11 
 451.5 
 21 
 350.1 
 31 
 0 
 0 
LINE
 10 
 451.5 
 20 
 350.1 
 30 
 0 
 11 
 457.052783203125 
 21 
 348.335180664063 
 31 
 0 
 0 
LINE
 10 
 457.052783203125 
 20 
 348.335180664063 
 30 
 0 
 11 
 461.986376953125 
 21 
 347.021606445313 
 31 
 0 
 0 
LINE
 10 
 461.986376953125 
 20 
 347.021606445313 
 30 
 0 
 11 
 467.0736328125 
 21 
 346.010400390625 
 31 
 0 
 0 
LINE
 10 
 467.0736328125 
 20 
 346.010400390625 
 30 
 0 
 11 
 473.08720703125 
 21 
 345.152807617188 
 31 
 0 
 0 
LINE
 10 
 473.08720703125 
 20 
 345.152807617188 
 30 
 0 
 11 
 480.8 
 21 
 344.3 
 31 
 0 
 0 
LINE
 10 
 480.8 
 20 
 344.3 
 30 
 0 
 11 
 486.198388671875 
 21 
 343.732788085938 
 31 
 0 
 0 
LINE
 10 
 486.198388671875 
 20 
 343.732788085938 
 30 
 0 
 11 
 490.915234375 
 21 
 343.146411132813 
 31 
 0 
 0 
LINE
 10 
 490.915234375 
 20 
 343.146411132813 
 30 
 0 
 11 
 494.652783203125 
 21 
 342.593603515625 
 31 
 0 
 0 
LINE
 10 
 494.652783203125 
 20 
 342.593603515625 
 30 
 0 
 11 
 497.113623046875 
 21 
 342.127197265625 
 31 
 0 
 0 
LINE
 10 
 497.113623046875 
 20 
 342.127197265625 
 30 
 0 
 11 
 498 
 21 
 341.8 
 31 
 0 
 0 
LINE
 10 
 498 
 20 
 341.8 
 30 
 0 
 11 
 497.77275390625 
 21 
 341.539990234375 
 31 
 0 
 0 
LINE
 10 
 497.77275390625 
 20 
 341.539990234375 
 30 
 0 
 11 
 497.1423828125 
 21 
 341.256005859375 
 31 
 0 
 0 
LINE
 10 
 497.1423828125 
 20 
 341.256005859375 
 30 
 0 
 11 
 496.185595703125 
 21 
 340.971997070313 
 31 
 0 
 0 
LINE
 10 
 496.185595703125 
 20 
 340.971997070313 
 30 
 0 
 11 
 494.97919921875 
 21 
 340.71201171875 
 31 
 0 
 0 
LINE
 10 
 494.97919921875 
 20 
 340.71201171875 
 30 
 0 
 11 
 493.6 
 21 
 340.5 
 31 
 0 
 0 
LINE
 10 
 493.6 
 20 
 340.5 
 30 
 0 
 11 
 484.84560546875 
 21 
 340.656005859375 
 31 
 0 
 0 
LINE
 10 
 484.84560546875 
 20 
 340.656005859375 
 30 
 0 
 11 
 471.780810546875 
 21 
 342.588012695313 
 31 
 0 
 0 
LINE
 10 
 471.780810546875 
 20 
 342.588012695313 
 30 
 0 
 11 
 456.743212890625 
 21 
 345.7919921875 
 31 
 0 
 0 
LINE
 10 
 456.743212890625 
 20 
 345.7919921875 
 30 
 0 
 11 
 442.07041015625 
 21 
 349.764013671875 
 31 
 0 
 0 
LINE
 10 
 442.07041015625 
 20 
 349.764013671875 
 30 
 0 
 11 
 430.1 
 21 
 354 
 31 
 0 
 0 
LINE
 10 
 430.1 
 20 
 354 
 30 
 0 
 11 
 424.506396484375 
 21 
 356.559985351563 
 31 
 0 
 0 
LINE
 10 
 424.506396484375 
 20 
 356.559985351563 
 30 
 0 
 11 
 419.623193359375 
 21 
 359.2400390625 
 31 
 0 
 0 
LINE
 10 
 419.623193359375 
 20 
 359.2400390625 
 30 
 0 
 11 
 414.576806640625 
 21 
 362.640014648438 
 31 
 0 
 0 
LINE
 10 
 414.576806640625 
 20 
 362.640014648438 
 30 
 0 
 11 
 408.493603515625 
 21 
 367.360009765625 
 31 
 0 
 0 
LINE
 10 
 408.493603515625 
 20 
 367.360009765625 
 30 
 0 
 11 
 400.5 
 21 
 374 
 31 
 0 
 0 
LINE
 10 
 400.5 
 20 
 374 
 30 
 0 
 11 
 393.38798828125 
 21 
 380.219970703125 
 31 
 0 
 0 
LINE
 10 
 393.38798828125 
 20 
 380.219970703125 
 30 
 0 
 11 
 387.716015625 
 21 
 385.815991210938 
 31 
 0 
 0 
LINE
 10 
 387.716015625 
 20 
 385.815991210938 
 30 
 0 
 11 
 382.859985351563 
 21 
 391.532006835938 
 31 
 0 
 0 
LINE
 10 
 382.859985351563 
 20 
 391.532006835938 
 30 
 0 
 11 
 378.19599609375 
 21 
 398.11201171875 
 31 
 0 
 0 
LINE
 10 
 378.19599609375 
 20 
 398.11201171875 
 30 
 0 
 11 
 373.1 
 21 
 406.3 
 31 
 0 
 0 
LINE
 10 
 373.1 
 20 
 406.3 
 30 
 0 
 11 
 372.008813476563 
 21 
 408.419995117188 
 31 
 0 
 0 
LINE
 10 
 372.008813476563 
 20 
 408.419995117188 
 30 
 0 
 11 
 371.762426757813 
 21 
 409.676025390625 
 31 
 0 
 0 
LINE
 10 
 371.762426757813 
 20 
 409.676025390625 
 30 
 0 
 11 
 372.221606445313 
 21 
 409.972021484375 
 31 
 0 
 0 
LINE
 10 
 372.221606445313 
 20 
 409.972021484375 
 30 
 0 
 11 
 373.247192382813 
 21 
 409.21201171875 
 31 
 0 
 0 
LINE
 10 
 373.247192382813 
 20 
 409.21201171875 
 30 
 0 
 11 
 374.7 
 21 
 407.3 
 31 
 0 
 0 
LINE
 10 
 336.6 
 20 
 381.4 
 30 
 0 
 11 
 337.4744140625 
 21 
 378.957568359375 
 31 
 0 
 0 
LINE
 10 
 337.4744140625 
 20 
 378.957568359375 
 30 
 0 
 11 
 338.483203125 
 21 
 375.444799804688 
 31 
 0 
 0 
LINE
 10 
 338.483203125 
 20 
 375.444799804688 
 30 
 0 
 11 
 339.544799804688 
 21 
 371.183203125 
 31 
 0 
 0 
LINE
 10 
 339.544799804688 
 20 
 371.183203125 
 30 
 0 
 11 
 340.577612304688 
 21 
 366.494409179688 
 31 
 0 
 0 
LINE
 10 
 340.577612304688 
 20 
 366.494409179688 
 30 
 0 
 11 
 341.5 
 21 
 361.7 
 31 
 0 
 0 
LINE
 10 
 341.5 
 20 
 361.7 
 30 
 0 
 11 
 344.244775390625 
 21 
 348.144799804688 
 31 
 0 
 0 
LINE
 10 
 344.244775390625 
 20 
 348.144799804688 
 30 
 0 
 11 
 347.498413085938 
 21 
 337.594409179688 
 31 
 0 
 0 
LINE
 10 
 347.498413085938 
 20 
 337.594409179688 
 30 
 0 
 11 
 351.889599609375 
 21 
 328.781591796875 
 31 
 0 
 0 
LINE
 10 
 351.889599609375 
 20 
 328.781591796875 
 30 
 0 
 11 
 358.047216796875 
 21 
 320.439208984375 
 31 
 0 
 0 
LINE
 10 
 358.047216796875 
 20 
 320.439208984375 
 30 
 0 
 11 
 366.6 
 21 
 311.3 
 31 
 0 
 0 
LINE
 10 
 366.6 
 20 
 311.3 
 30 
 0 
 11 
 369.503198242188 
 21 
 308.374365234375 
 31 
 0 
 0 
LINE
 10 
 369.503198242188 
 20 
 308.374365234375 
 30 
 0 
 11 
 371.993627929688 
 21 
 305.823217773438 
 31 
 0 
 0 
LINE
 10 
 371.993627929688 
 20 
 305.823217773438 
 30 
 0 
 11 
 373.922387695313 
 21 
 303.804809570313 
 31 
 0 
 0 
LINE
 10 
 373.922387695313 
 20 
 303.804809570313 
 30 
 0 
 11 
 375.1408203125 
 21 
 302.477612304688 
 31 
 0 
 0 
LINE
 10 
 375.1408203125 
 20 
 302.477612304688 
 30 
 0 
 11 
 375.5 
 21 
 302 
 31 
 0 
 0 
LINE
 10 
 375.5 
 20 
 302 
 30 
 0 
 11 
 373.537573242188 
 21 
 303.196801757813 
 31 
 0 
 0 
LINE
 10 
 373.537573242188 
 20 
 303.196801757813 
 30 
 0 
 11 
 369.712817382813 
 21 
 306.342407226563 
 31 
 0 
 0 
LINE
 10 
 369.712817382813 
 20 
 306.342407226563 
 30 
 0 
 11 
 364.77919921875 
 21 
 310.769604492188 
 31 
 0 
 0 
LINE
 10 
 364.77919921875 
 20 
 310.769604492188 
 30 
 0 
 11 
 359.490405273438 
 21 
 315.811206054688 
 31 
 0 
 0 
LINE
 10 
 359.490405273438 
 20 
 315.811206054688 
 30 
 0 
 11 
 354.6 
 21 
 320.8 
 31 
 0 
 0 
LINE
 10 
 354.6 
 20 
 320.8 
 30 
 0 
 11 
 346.801586914063 
 21 
 328.54716796875 
 31 
 0 
 0 
LINE
 10 
 346.801586914063 
 20 
 328.54716796875 
 30 
 0 
 11 
 339.63681640625 
 21 
 334.609619140625 
 31 
 0 
 0 
LINE
 10 
 339.63681640625 
 20 
 334.609619140625 
 30 
 0 
 11 
 332.611181640625 
 21 
 339.318408203125 
 31 
 0 
 0 
LINE
 10 
 332.611181640625 
 20 
 339.318408203125 
 30 
 0 
 11 
 325.230419921875 
 21 
 343.004809570313 
 31 
 0 
 0 
LINE
 10 
 325.230419921875 
 20 
 343.004809570313 
 30 
 0 
 11 
 317 
 21 
 346 
 31 
 0 
 0 
LINE
 10 
 317 
 20 
 346 
 30 
 0 
 11 
 314.803198242188 
 21 
 346.790380859375 
 31 
 0 
 0 
LINE
 10 
 314.803198242188 
 20 
 346.790380859375 
 30 
 0 
 11 
 313.201611328125 
 21 
 347.523193359375 
 31 
 0 
 0 
LINE
 10 
 313.201611328125 
 20 
 347.523193359375 
 30 
 0 
 11 
 312.118408203125 
 21 
 348.260791015625 
 31 
 0 
 0 
LINE
 10 
 312.118408203125 
 20 
 348.260791015625 
 30 
 0 
 11 
 311.476806640625 
 21 
 349.065600585938 
 31 
 0 
 0 
LINE
 10 
 311.476806640625 
 20 
 349.065600585938 
 30 
 0 
 11 
 311.2 
 21 
 350 
 31 
 0 
 0 
LINE
 10 
 311.2 
 20 
 350 
 30 
 0 
 11 
 311.10478515625 
 21 
 350.944799804688 
 31 
 0 
 0 
LINE
 10 
 311.10478515625 
 20 
 350.944799804688 
 30 
 0 
 11 
 311.230419921875 
 21 
 351.534399414063 
 31 
 0 
 0 
LINE
 10 
 311.230419921875 
 20 
 351.534399414063 
 30 
 0 
 11 
 311.65361328125 
 21 
 351.821606445313 
 31 
 0 
 0 
LINE
 10 
 311.65361328125 
 20 
 351.821606445313 
 30 
 0 
 11 
 312.451220703125 
 21 
 351.859204101563 
 31 
 0 
 0 
LINE
 10 
 312.451220703125 
 20 
 351.859204101563 
 30 
 0 
 11 
 313.7 
 21 
 351.7 
 31 
 0 
 0 
LINE
 10 
 313.7 
 20 
 351.7 
 30 
 0 
 11 
 318.901586914063 
 21 
 350.430395507813 
 31 
 0 
 0 
LINE
 10 
 318.901586914063 
 20 
 350.430395507813 
 30 
 0 
 11 
 324.208813476563 
 21 
 348.527221679688 
 31 
 0 
 0 
LINE
 10 
 324.208813476563 
 20 
 348.527221679688 
 30 
 0 
 11 
 329.295190429688 
 21 
 346.148803710938 
 31 
 0 
 0 
LINE
 10 
 329.295190429688 
 20 
 346.148803710938 
 30 
 0 
 11 
 333.834399414063 
 21 
 343.45361328125 
 31 
 0 
 0 
LINE
 10 
 333.834399414063 
 20 
 343.45361328125 
 30 
 0 
 11 
 337.5 
 21 
 340.6 
 31 
 0 
 0 
LINE
 10 
 337.5 
 20 
 340.6 
 30 
 0 
 11 
 338.945581054688 
 21 
 339.30078125 
 31 
 0 
 0 
LINE
 10 
 338.945581054688 
 20 
 339.30078125 
 30 
 0 
 11 
 340.184790039063 
 21 
 338.390405273438 
 31 
 0 
 0 
LINE
 10 
 340.184790039063 
 20 
 338.390405273438 
 30 
 0 
 11 
 341.251196289063 
 21 
 337.849584960938 
 31 
 0 
 0 
LINE
 10 
 341.251196289063 
 20 
 337.849584960938 
 30 
 0 
 11 
 342.17841796875 
 21 
 337.659204101563 
 31 
 0 
 0 
LINE
 10 
 342.17841796875 
 20 
 337.659204101563 
 30 
 0 
 11 
 343 
 21 
 337.8 
 31 
 0 
 0 
LINE
 10 
 343 
 20 
 337.8 
 30 
 0 
 11 
 343.86318359375 
 21 
 338.204809570313 
 31 
 0 
 0 
LINE
 10 
 343.86318359375 
 20 
 338.204809570313 
 30 
 0 
 11 
 344.289624023438 
 21 
 338.7583984375 
 31 
 0 
 0 
LINE
 10 
 344.289624023438 
 20 
 338.7583984375 
 30 
 0 
 11 
 344.2744140625 
 21 
 339.72958984375 
 31 
 0 
 0 
LINE
 10 
 344.2744140625 
 20 
 339.72958984375 
 30 
 0 
 11 
 343.812817382813 
 21 
 341.38720703125 
 31 
 0 
 0 
LINE
 10 
 343.812817382813 
 20 
 341.38720703125 
 30 
 0 
 11 
 342.9 
 21 
 344 
 31 
 0 
 0 
LINE
 10 
 342.9 
 20 
 344 
 30 
 0 
 11 
 341.60400390625 
 21 
 347.563989257813 
 31 
 0 
 0 
LINE
 10 
 341.60400390625 
 20 
 347.563989257813 
 30 
 0 
 11 
 340.692016601563 
 21 
 350.432006835938 
 31 
 0 
 0 
LINE
 10 
 340.692016601563 
 20 
 350.432006835938 
 30 
 0 
 11 
 339.947998046875 
 21 
 353.468017578125 
 31 
 0 
 0 
LINE
 10 
 339.947998046875 
 20 
 353.468017578125 
 30 
 0 
 11 
 339.156005859375 
 21 
 357.536010742188 
 31 
 0 
 0 
LINE
 10 
 339.156005859375 
 20 
 357.536010742188 
 30 
 0 
 11 
 338.1 
 21 
 363.5 
 31 
 0 
 0 
LINE
 10 
 338.1 
 20 
 363.5 
 30 
 0 
 11 
 337.449584960938 
 21 
 366.810400390625 
 31 
 0 
 0 
LINE
 10 
 337.449584960938 
 20 
 366.810400390625 
 30 
 0 
 11 
 336.73681640625 
 21 
 369.9912109375 
 31 
 0 
 0 
LINE
 10 
 336.73681640625 
 20 
 369.9912109375 
 30 
 0 
 11 
 336.019189453125 
 21 
 372.816796875 
 31 
 0 
 0 
LINE
 10 
 336.019189453125 
 20 
 372.816796875 
 30 
 0 
 11 
 335.354418945313 
 21 
 375.06162109375 
 31 
 0 
 0 
LINE
 10 
 335.354418945313 
 20 
 375.06162109375 
 30 
 0 
 11 
 334.8 
 21 
 376.5 
 31 
 0 
 0 
LINE
 10 
 334.8 
 20 
 376.5 
 30 
 0 
 11 
 334.302368164063 
 21 
 377.61279296875 
 31 
 0 
 0 
LINE
 10 
 334.302368164063 
 20 
 377.61279296875 
 30 
 0 
 11 
 333.79521484375 
 21 
 378.850415039063 
 31 
 0 
 0 
LINE
 10 
 333.79521484375 
 20 
 378.850415039063 
 30 
 0 
 11 
 333.316796875 
 21 
 380.121606445313 
 31 
 0 
 0 
LINE
 10 
 333.316796875 
 20 
 380.121606445313 
 30 
 0 
 11 
 332.905615234375 
 21 
 381.335205078125 
 31 
 0 
 0 
LINE
 10 
 332.905615234375 
 20 
 381.335205078125 
 30 
 0 
 11 
 332.6 
 21 
 382.4 
 31 
 0 
 0 
LINE
 10 
 332.6 
 20 
 382.4 
 30 
 0 
 11 
 332.27119140625 
 21 
 383.501586914063 
 31 
 0 
 0 
LINE
 10 
 332.27119140625 
 20 
 383.501586914063 
 30 
 0 
 11 
 331.793603515625 
 21 
 384.7087890625 
 31 
 0 
 0 
LINE
 10 
 331.793603515625 
 20 
 384.7087890625 
 30 
 0 
 11 
 331.210400390625 
 21 
 385.935205078125 
 31 
 0 
 0 
LINE
 10 
 331.210400390625 
 20 
 385.935205078125 
 30 
 0 
 11 
 330.564819335938 
 21 
 387.094409179688 
 31 
 0 
 0 
LINE
 10 
 330.564819335938 
 20 
 387.094409179688 
 30 
 0 
 11 
 329.9 
 21 
 388.1 
 31 
 0 
 0 
LINE
 10 
 329.9 
 20 
 388.1 
 30 
 0 
 11 
 329.313598632813 
 21 
 389.03759765625 
 31 
 0 
 0 
LINE
 10 
 329.313598632813 
 20 
 389.03759765625 
 30 
 0 
 11 
 328.880810546875 
 21 
 390.0087890625 
 31 
 0 
 0 
LINE
 10 
 328.880810546875 
 20 
 390.0087890625 
 30 
 0 
 11 
 328.611206054688 
 21 
 390.951196289063 
 31 
 0 
 0 
LINE
 10 
 328.611206054688 
 20 
 390.951196289063 
 30 
 0 
 11 
 328.514404296875 
 21 
 391.802392578125 
 31 
 0 
 0 
LINE
 10 
 328.514404296875 
 20 
 391.802392578125 
 30 
 0 
 11 
 328.6 
 21 
 392.5 
 31 
 0 
 0 
LINE
 10 
 328.6 
 20 
 392.5 
 30 
 0 
 11 
 328.931958007813 
 21 
 393.069580078125 
 31 
 0 
 0 
LINE
 10 
 328.931958007813 
 20 
 393.069580078125 
 30 
 0 
 11 
 329.360009765625 
 21 
 393.192822265625 
 31 
 0 
 0 
LINE
 10 
 329.360009765625 
 20 
 393.192822265625 
 30 
 0 
 11 
 329.932006835938 
 21 
 392.831201171875 
 31 
 0 
 0 
LINE
 10 
 329.932006835938 
 20 
 392.831201171875 
 30 
 0 
 11 
 330.696020507813 
 21 
 391.946411132813 
 31 
 0 
 0 
LINE
 10 
 330.696020507813 
 20 
 391.946411132813 
 30 
 0 
 11 
 331.7 
 21 
 390.5 
 31 
 0 
 0 
LINE
 10 
 331.7 
 20 
 390.5 
 30 
 0 
 11 
 332.622387695313 
 21 
 389.073583984375 
 31 
 0 
 0 
LINE
 10 
 332.622387695313 
 20 
 389.073583984375 
 30 
 0 
 11 
 333.655224609375 
 21 
 387.296801757813 
 31 
 0 
 0 
LINE
 10 
 333.655224609375 
 20 
 387.296801757813 
 30 
 0 
 11 
 334.716821289063 
 21 
 385.323193359375 
 31 
 0 
 0 
LINE
 10 
 334.716821289063 
 20 
 385.323193359375 
 30 
 0 
 11 
 335.725610351563 
 21 
 383.306420898438 
 31 
 0 
 0 
LINE
 10 
 335.725610351563 
 20 
 383.306420898438 
 30 
 0 
 11 
 336.6 
 21 
 381.4 
 31 
 0 
 0 
LINE
 10 
 380.5 
 20 
 366.4 
 30 
 0 
 11 
 387.8583984375 
 21 
 358.396801757813 
 31 
 0 
 0 
LINE
 10 
 387.8583984375 
 20 
 358.396801757813 
 30 
 0 
 11 
 394.319189453125 
 21 
 352.102392578125 
 31 
 0 
 0 
LINE
 10 
 394.319189453125 
 20 
 352.102392578125 
 30 
 0 
 11 
 400.400805664063 
 21 
 347.089599609375 
 31 
 0 
 0 
LINE
 10 
 400.400805664063 
 20 
 347.089599609375 
 30 
 0 
 11 
 406.621606445313 
 21 
 342.931201171875 
 31 
 0 
 0 
LINE
 10 
 406.621606445313 
 20 
 342.931201171875 
 30 
 0 
 11 
 413.5 
 21 
 339.2 
 31 
 0 
 0 
LINE
 10 
 413.5 
 20 
 339.2 
 30 
 0 
 11 
 420.26318359375 
 21 
 335.943188476563 
 31 
 0 
 0 
LINE
 10 
 420.26318359375 
 20 
 335.943188476563 
 30 
 0 
 11 
 426.46962890625 
 21 
 333.2576171875 
 31 
 0 
 0 
LINE
 10 
 426.46962890625 
 20 
 333.2576171875 
 30 
 0 
 11 
 432.594384765625 
 21 
 330.97041015625 
 31 
 0 
 0 
LINE
 10 
 432.594384765625 
 20 
 330.97041015625 
 30 
 0 
 11 
 439.112841796875 
 21 
 328.908813476563 
 31 
 0 
 0 
LINE
 10 
 439.112841796875 
 20 
 328.908813476563 
 30 
 0 
 11 
 446.5 
 21 
 326.9 
 31 
 0 
 0 
LINE
 10 
 446.5 
 20 
 326.9 
 30 
 0 
 11 
 450.361572265625 
 21 
 325.87919921875 
 31 
 0 
 0 
LINE
 10 
 450.361572265625 
 20 
 325.87919921875 
 30 
 0 
 11 
 453.872802734375 
 21 
 324.901611328125 
 31 
 0 
 0 
LINE
 10 
 453.872802734375 
 20 
 324.901611328125 
 30 
 0 
 11 
 456.803173828125 
 21 
 324.034399414063 
 31 
 0 
 0 
LINE
 10 
 456.803173828125 
 20 
 324.034399414063 
 30 
 0 
 11 
 458.922412109375 
 21 
 323.344799804688 
 31 
 0 
 0 
LINE
 10 
 458.922412109375 
 20 
 323.344799804688 
 30 
 0 
 11 
 460 
 21 
 322.9 
 31 
 0 
 0 
LINE
 10 
 460 
 20 
 322.9 
 30 
 0 
 11 
 459.9416015625 
 21 
 322.232763671875 
 31 
 0 
 0 
LINE
 10 
 459.9416015625 
 20 
 322.232763671875 
 30 
 0 
 11 
 457.276806640625 
 21 
 322.002416992188 
 31 
 0 
 0 
LINE
 10 
 457.276806640625 
 20 
 322.002416992188 
 30 
 0 
 11 
 452.951220703125 
 21 
 322.165600585938 
 31 
 0 
 0 
LINE
 10 
 452.951220703125 
 20 
 322.165600585938 
 30 
 0 
 11 
 447.910400390625 
 21 
 322.679223632813 
 31 
 0 
 0 
LINE
 10 
 447.910400390625 
 20 
 322.679223632813 
 30 
 0 
 11 
 443.1 
 21 
 323.5 
 31 
 0 
 0 
LINE
 10 
 443.1 
 20 
 323.5 
 30 
 0 
 11 
 435.935986328125 
 21 
 325.8576171875 
 31 
 0 
 0 
LINE
 10 
 435.935986328125 
 20 
 325.8576171875 
 30 
 0 
 11 
 426.564013671875 
 21 
 329.92880859375 
 31 
 0 
 0 
LINE
 10 
 426.564013671875 
 20 
 329.92880859375 
 30 
 0 
 11 
 416.064013671875 
 21 
 335.17119140625 
 31 
 0 
 0 
LINE
 10 
 416.064013671875 
 20 
 335.17119140625 
 30 
 0 
 11 
 405.516015625 
 21 
 341.042407226563 
 31 
 0 
 0 
LINE
 10 
 405.516015625 
 20 
 341.042407226563 
 30 
 0 
 11 
 396 
 21 
 347 
 31 
 0 
 0 
LINE
 10 
 396 
 20 
 347 
 30 
 0 
 11 
 387.301611328125 
 21 
 353.2328125 
 31 
 0 
 0 
LINE
 10 
 387.301611328125 
 20 
 353.2328125 
 30 
 0 
 11 
 380.940795898438 
 21 
 358.750415039063 
 31 
 0 
 0 
LINE
 10 
 380.940795898438 
 20 
 358.750415039063 
 30 
 0 
 11 
 376.27919921875 
 21 
 364.301611328125 
 31 
 0 
 0 
LINE
 10 
 376.27919921875 
 20 
 364.301611328125 
 30 
 0 
 11 
 372.67841796875 
 21 
 370.635205078125 
 31 
 0 
 0 
LINE
 10 
 372.67841796875 
 20 
 370.635205078125 
 30 
 0 
 11 
 369.5 
 21 
 378.5 
 31 
 0 
 0 
LINE
 10 
 369.5 
 20 
 378.5 
 30 
 0 
 11 
 369.339990234375 
 21 
 379.028784179688 
 31 
 0 
 0 
LINE
 10 
 369.339990234375 
 20 
 379.028784179688 
 30 
 0 
 11 
 369.443994140625 
 21 
 379.17841796875 
 31 
 0 
 0 
LINE
 10 
 369.443994140625 
 20 
 379.17841796875 
 30 
 0 
 11 
 369.788012695313 
 21 
 378.953588867188 
 31 
 0 
 0 
LINE
 10 
 369.788012695313 
 20 
 378.953588867188 
 30 
 0 
 11 
 370.347998046875 
 21 
 378.359204101563 
 31 
 0 
 0 
LINE
 10 
 370.347998046875 
 20 
 378.359204101563 
 30 
 0 
 11 
 371.1 
 21 
 377.4 
 31 
 0 
 0 
LINE
 10 
 371.1 
 20 
 377.4 
 30 
 0 
 11 
 372.211987304688 
 21 
 376.015991210938 
 31 
 0 
 0 
LINE
 10 
 372.211987304688 
 20 
 376.015991210938 
 30 
 0 
 11 
 373.876000976563 
 21 
 374.032006835938 
 31 
 0 
 0 
LINE
 10 
 373.876000976563 
 20 
 374.032006835938 
 30 
 0 
 11 
 375.923999023438 
 21 
 371.639990234375 
 31 
 0 
 0 
LINE
 10 
 375.923999023438 
 20 
 371.639990234375 
 30 
 0 
 11 
 378.188012695313 
 21 
 369.032006835938 
 31 
 0 
 0 
LINE
 10 
 378.188012695313 
 20 
 369.032006835938 
 30 
 0 
 11 
 380.5 
 21 
 366.4 
 31 
 0 
 0 
LINE
 10 
 346.5 
 20 
 281.3 
 30 
 0 
 11 
 350.961572265625 
 21 
 280.0080078125 
 31 
 0 
 0 
LINE
 10 
 350.961572265625 
 20 
 280.0080078125 
 30 
 0 
 11 
 355.0248046875 
 21 
 279.172021484375 
 31 
 0 
 0 
LINE
 10 
 355.0248046875 
 20 
 279.172021484375 
 30 
 0 
 11 
 359.827197265625 
 21 
 278.671997070313 
 31 
 0 
 0 
LINE
 10 
 359.827197265625 
 20 
 278.671997070313 
 30 
 0 
 11 
 366.506420898438 
 21 
 278.388012695313 
 31 
 0 
 0 
LINE
 10 
 366.506420898438 
 20 
 278.388012695313 
 30 
 0 
 11 
 376.2 
 21 
 278.2 
 31 
 0 
 0 
LINE
 10 
 376.2 
 20 
 278.2 
 30 
 0 
 11 
 385.849584960938 
 21 
 278.093603515625 
 31 
 0 
 0 
LINE
 10 
 385.849584960938 
 20 
 278.093603515625 
 30 
 0 
 11 
 392.82080078125 
 21 
 278.188818359375 
 31 
 0 
 0 
LINE
 10 
 392.82080078125 
 20 
 278.188818359375 
 30 
 0 
 11 
 398.347216796875 
 21 
 278.567211914063 
 31 
 0 
 0 
LINE
 10 
 398.347216796875 
 20 
 278.567211914063 
 30 
 0 
 11 
 403.66240234375 
 21 
 279.310400390625 
 31 
 0 
 0 
LINE
 10 
 403.66240234375 
 20 
 279.310400390625 
 30 
 0 
 11 
 410 
 21 
 280.5 
 31 
 0 
 0 
LINE
 10 
 410 
 20 
 280.5 
 30 
 0 
 11 
 414.233642578125 
 21 
 281.285595703125 
 31 
 0 
 0 
LINE
 10 
 414.233642578125 
 20 
 281.285595703125 
 30 
 0 
 11 
 418.02080078125 
 21 
 281.936791992188 
 31 
 0 
 0 
LINE
 10 
 418.02080078125 
 20 
 281.936791992188 
 30 
 0 
 11 
 421.131201171875 
 21 
 282.415209960938 
 31 
 0 
 0 
LINE
 10 
 421.131201171875 
 20 
 282.415209960938 
 30 
 0 
 11 
 423.334423828125 
 21 
 282.682397460938 
 31 
 0 
 0 
LINE
 10 
 423.334423828125 
 20 
 282.682397460938 
 30 
 0 
 11 
 424.4 
 21 
 282.7 
 31 
 0 
 0 
LINE
 10 
 424.4 
 20 
 282.7 
 30 
 0 
 11 
 423.0431640625 
 21 
 282.032788085938 
 31 
 0 
 0 
LINE
 10 
 423.0431640625 
 20 
 282.032788085938 
 30 
 0 
 11 
 418.393603515625 
 21 
 280.722412109375 
 31 
 0 
 0 
LINE
 10 
 418.393603515625 
 20 
 280.722412109375 
 30 
 0 
 11 
 411.7423828125 
 21 
 279.085595703125 
 31 
 0 
 0 
LINE
 10 
 411.7423828125 
 20 
 279.085595703125 
 30 
 0 
 11 
 404.380810546875 
 21 
 277.439208984375 
 31 
 0 
 0 
LINE
 10 
 404.380810546875 
 20 
 277.439208984375 
 30 
 0 
 11 
 397.6 
 21 
 276.1 
 31 
 0 
 0 
LINE
 10 
 397.6 
 20 
 276.1 
 30 
 0 
 11 
 390.366381835938 
 21 
 275.291186523438 
 31 
 0 
 0 
LINE
 10 
 390.366381835938 
 20 
 275.291186523438 
 30 
 0 
 11 
 381.39521484375 
 21 
 275.005615234375 
 31 
 0 
 0 
LINE
 10 
 381.39521484375 
 20 
 275.005615234375 
 30 
 0 
 11 
 371.780810546875 
 21 
 275.214404296875 
 31 
 0 
 0 
LINE
 10 
 371.780810546875 
 20 
 275.214404296875 
 30 
 0 
 11 
 362.617602539063 
 21 
 275.888793945313 
 31 
 0 
 0 
LINE
 10 
 362.617602539063 
 20 
 275.888793945313 
 30 
 0 
 11 
 355 
 21 
 277 
 31 
 0 
 0 
LINE
 10 
 355 
 20 
 277 
 30 
 0 
 11 
 347.046362304688 
 21 
 278.787182617188 
 31 
 0 
 0 
LINE
 10 
 347.046362304688 
 20 
 278.787182617188 
 30 
 0 
 11 
 339.707202148438 
 21 
 280.761596679688 
 31 
 0 
 0 
LINE
 10 
 339.707202148438 
 20 
 280.761596679688 
 30 
 0 
 11 
 333.644799804688 
 21 
 282.702392578125 
 31 
 0 
 0 
LINE
 10 
 333.644799804688 
 20 
 282.702392578125 
 30 
 0 
 11 
 329.521606445313 
 21 
 284.388793945313 
 31 
 0 
 0 
LINE
 10 
 329.521606445313 
 20 
 284.388793945313 
 30 
 0 
 11 
 328 
 21 
 285.6 
 31 
 0 
 0 
LINE
 10 
 328 
 20 
 285.6 
 30 
 0 
 11 
 328.253588867188 
 21 
 286.170361328125 
 31 
 0 
 0 
LINE
 10 
 328.253588867188 
 20 
 286.170361328125 
 30 
 0 
 11 
 329.500805664063 
 21 
 286.20322265625 
 31 
 0 
 0 
LINE
 10 
 329.500805664063 
 20 
 286.20322265625 
 30 
 0 
 11 
 332.471215820313 
 21 
 285.52080078125 
 31 
 0 
 0 
LINE
 10 
 332.471215820313 
 20 
 285.52080078125 
 30 
 0 
 11 
 337.894409179688 
 21 
 283.94560546875 
 31 
 0 
 0 
LINE
 10 
 337.894409179688 
 20 
 283.94560546875 
 30 
 0 
 11 
 346.5 
 21 
 281.3 
 31 
 0 
 0 
LINE
 10 
 616 
 20 
 273.8 
 30 
 0 
 11 
 612.407958984375 
 21 
 267.883984375 
 31 
 0 
 0 
LINE
 10 
 612.407958984375 
 20 
 267.883984375 
 30 
 0 
 11 
 607.783984375 
 21 
 262.928002929688 
 31 
 0 
 0 
LINE
 10 
 607.783984375 
 20 
 262.928002929688 
 30 
 0 
 11 
 602.535986328125 
 21 
 259.22001953125 
 31 
 0 
 0 
LINE
 10 
 602.535986328125 
 20 
 259.22001953125 
 30 
 0 
 11 
 597.072021484375 
 21 
 257.047998046875 
 31 
 0 
 0 
LINE
 10 
 597.072021484375 
 20 
 257.047998046875 
 30 
 0 
 11 
 591.8 
 21 
 256.7 
 31 
 0 
 0 
LINE
 10 
 591.8 
 20 
 256.7 
 30 
 0 
 11 
 589.464013671875 
 21 
 257.207983398438 
 31 
 0 
 0 
LINE
 10 
 589.464013671875 
 20 
 257.207983398438 
 30 
 0 
 11 
 588.616064453125 
 21 
 257.81201171875 
 31 
 0 
 0 
LINE
 10 
 588.616064453125 
 20 
 257.81201171875 
 30 
 0 
 11 
 589.135986328125 
 21 
 258.3919921875 
 31 
 0 
 0 
LINE
 10 
 589.135986328125 
 20 
 258.3919921875 
 30 
 0 
 11 
 590.90400390625 
 21 
 258.828002929688 
 31 
 0 
 0 
LINE
 10 
 590.90400390625 
 20 
 258.828002929688 
 30 
 0 
 11 
 593.8 
 21 
 259 
 31 
 0 
 0 
LINE
 10 
 593.8 
 20 
 259 
 30 
 0 
 11 
 600.36240234375 
 21 
 260.159985351563 
 31 
 0 
 0 
LINE
 10 
 600.36240234375 
 20 
 260.159985351563 
 30 
 0 
 11 
 606.38720703125 
 21 
 263.216015625 
 31 
 0 
 0 
LINE
 10 
 606.38720703125 
 20 
 263.216015625 
 30 
 0 
 11 
 611.36083984375 
 21 
 267.71201171875 
 31 
 0 
 0 
LINE
 10 
 611.36083984375 
 20 
 267.71201171875 
 30 
 0 
 11 
 614.76962890625 
 21 
 273.192016601563 
 31 
 0 
 0 
LINE
 10 
 614.76962890625 
 20 
 273.192016601563 
 30 
 0 
 11 
 616.1 
 21 
 279.2 
 31 
 0 
 0 
LINE
 10 
 616.1 
 20 
 279.2 
 30 
 0 
 11 
 616.117626953125 
 21 
 280.6591796875 
 31 
 0 
 0 
LINE
 10 
 616.117626953125 
 20 
 280.6591796875 
 30 
 0 
 11 
 616.192822265625 
 21 
 281.465625 
 31 
 0 
 0 
LINE
 10 
 616.192822265625 
 20 
 281.465625 
 30 
 0 
 11 
 616.3591796875 
 21 
 281.66240234375 
 31 
 0 
 0 
LINE
 10 
 616.3591796875 
 20 
 281.66240234375 
 30 
 0 
 11 
 616.650390625 
 21 
 281.292797851563 
 31 
 0 
 0 
LINE
 10 
 616.650390625 
 20 
 281.292797851563 
 30 
 0 
 11 
 617.1 
 21 
 280.4 
 31 
 0 
 0 
LINE
 10 
 617.1 
 20 
 280.4 
 30 
 0 
 11 
 617.45595703125 
 21 
 279.425610351563 
 31 
 0 
 0 
LINE
 10 
 617.45595703125 
 20 
 279.425610351563 
 30 
 0 
 11 
 617.548046875 
 21 
 278.364794921875 
 31 
 0 
 0 
LINE
 10 
 617.548046875 
 20 
 278.364794921875 
 30 
 0 
 11 
 617.352001953125 
 21 
 277.131201171875 
 31 
 0 
 0 
LINE
 10 
 617.352001953125 
 20 
 277.131201171875 
 30 
 0 
 11 
 616.843994140625 
 21 
 275.638403320313 
 31 
 0 
 0 
LINE
 10 
 616.843994140625 
 20 
 275.638403320313 
 30 
 0 
 11 
 616 
 21 
 273.8 
 31 
 0 
 0 
LINE
 10 
 541 
 20 
 276.7 
 30 
 0 
 11 
 546.919189453125 
 21 
 273.54638671875 
 31 
 0 
 0 
LINE
 10 
 546.919189453125 
 20 
 273.54638671875 
 30 
 0 
 11 
 553.4576171875 
 21 
 270.28720703125 
 31 
 0 
 0 
LINE
 10 
 553.4576171875 
 20 
 270.28720703125 
 30 
 0 
 11 
 559.98642578125 
 21 
 267.2248046875 
 31 
 0 
 0 
LINE
 10 
 559.98642578125 
 20 
 267.2248046875 
 30 
 0 
 11 
 565.876806640625 
 21 
 264.661596679688 
 31 
 0 
 0 
LINE
 10 
 565.876806640625 
 20 
 264.661596679688 
 30 
 0 
 11 
 570.5 
 21 
 262.9 
 31 
 0 
 0 
LINE
 10 
 570.5 
 20 
 262.9 
 30 
 0 
 11 
 572.535205078125 
 21 
 262.13916015625 
 31 
 0 
 0 
LINE
 10 
 572.535205078125 
 20 
 262.13916015625 
 30 
 0 
 11 
 574.25361328125 
 21 
 261.44560546875 
 31 
 0 
 0 
LINE
 10 
 574.25361328125 
 20 
 261.44560546875 
 30 
 0 
 11 
 575.55439453125 
 21 
 260.86240234375 
 31 
 0 
 0 
LINE
 10 
 575.55439453125 
 20 
 260.86240234375 
 30 
 0 
 11 
 576.33681640625 
 21 
 260.4328125 
 31 
 0 
 0 
LINE
 10 
 576.33681640625 
 20 
 260.4328125 
 30 
 0 
 11 
 576.5 
 21 
 260.2 
 31 
 0 
 0 
LINE
 10 
 576.5 
 20 
 260.2 
 30 
 0 
 11 
 572.0087890625 
 21 
 261.084765625 
 31 
 0 
 0 
LINE
 10 
 572.0087890625 
 20 
 261.084765625 
 30 
 0 
 11 
 562.33837890625 
 21 
 264.782421875 
 31 
 0 
 0 
LINE
 10 
 562.33837890625 
 20 
 264.782421875 
 30 
 0 
 11 
 550.493603515625 
 21 
 269.977612304688 
 31 
 0 
 0 
LINE
 10 
 550.493603515625 
 20 
 269.977612304688 
 30 
 0 
 11 
 539.47919921875 
 21 
 275.355200195313 
 31 
 0 
 0 
LINE
 10 
 539.47919921875 
 20 
 275.355200195313 
 30 
 0 
 11 
 532.3 
 21 
 279.6 
 31 
 0 
 0 
LINE
 10 
 532.3 
 20 
 279.6 
 30 
 0 
 11 
 531.560791015625 
 21 
 280.180004882813 
 31 
 0 
 0 
LINE
 10 
 531.560791015625 
 20 
 280.180004882813 
 30 
 0 
 11 
 531.282421875 
 21 
 280.49599609375 
 31 
 0 
 0 
LINE
 10 
 531.282421875 
 20 
 280.49599609375 
 30 
 0 
 11 
 531.49365234375 
 21 
 280.572021484375 
 31 
 0 
 0 
LINE
 10 
 531.49365234375 
 20 
 280.572021484375 
 30 
 0 
 11 
 532.223193359375 
 21 
 280.432006835938 
 31 
 0 
 0 
LINE
 10 
 532.223193359375 
 20 
 280.432006835938 
 30 
 0 
 11 
 533.5 
 21 
 280.1 
 31 
 0 
 0 
LINE
 10 
 533.5 
 20 
 280.1 
 30 
 0 
 11 
 534.6927734375 
 21 
 279.688793945313 
 31 
 0 
 0 
LINE
 10 
 534.6927734375 
 20 
 279.688793945313 
 30 
 0 
 11 
 536.154443359375 
 21 
 279.090405273438 
 31 
 0 
 0 
LINE
 10 
 536.154443359375 
 20 
 279.090405273438 
 30 
 0 
 11 
 537.769580078125 
 21 
 278.3576171875 
 31 
 0 
 0 
LINE
 10 
 537.769580078125 
 20 
 278.3576171875 
 30 
 0 
 11 
 539.423193359375 
 21 
 277.543212890625 
 31 
 0 
 0 
LINE
 10 
 539.423193359375 
 20 
 277.543212890625 
 30 
 0 
 11 
 541 
 21 
 276.7 
 31 
 0 
 0 
LINE
 10 
 512.6 
 20 
 197 
 30 
 0 
 11 
 518.483935546875 
 21 
 194.715991210938 
 31 
 0 
 0 
LINE
 10 
 518.483935546875 
 20 
 194.715991210938 
 30 
 0 
 11 
 525.32802734375 
 21 
 191.544006347656 
 31 
 0 
 0 
LINE
 10 
 525.32802734375 
 20 
 191.544006347656 
 30 
 0 
 11 
 532.22001953125 
 21 
 187.964001464844 
 31 
 0 
 0 
LINE
 10 
 532.22001953125 
 20 
 187.964001464844 
 30 
 0 
 11 
 538.247998046875 
 21 
 184.456005859375 
 31 
 0 
 0 
LINE
 10 
 538.247998046875 
 20 
 184.456005859375 
 30 
 0 
 11 
 542.5 
 21 
 181.5 
 31 
 0 
 0 
LINE
 10 
 542.5 
 20 
 181.5 
 30 
 0 
 11 
 543.698388671875 
 21 
 180.462390136719 
 31 
 0 
 0 
LINE
 10 
 543.698388671875 
 20 
 180.462390136719 
 30 
 0 
 11 
 543.951220703125 
 21 
 180.015197753906 
 31 
 0 
 0 
LINE
 10 
 543.951220703125 
 20 
 180.015197753906 
 30 
 0 
 11 
 543.10478515625 
 21 
 180.196801757813 
 31 
 0 
 0 
LINE
 10 
 543.10478515625 
 20 
 180.196801757813 
 30 
 0 
 11 
 541.005615234375 
 21 
 181.04560546875 
 31 
 0 
 0 
LINE
 10 
 541.005615234375 
 20 
 181.04560546875 
 30 
 0 
 11 
 537.5 
 21 
 182.6 
 31 
 0 
 0 
LINE
 10 
 537.5 
 20 
 182.6 
 30 
 0 
 11 
 530.032763671875 
 21 
 185.895983886719 
 31 
 0 
 0 
LINE
 10 
 530.032763671875 
 20 
 185.895983886719 
 30 
 0 
 11 
 525.73837890625 
 21 
 187.488012695313 
 31 
 0 
 0 
LINE
 10 
 525.73837890625 
 20 
 187.488012695313 
 30 
 0 
 11 
 524.237646484375 
 21 
 187.352001953125 
 31 
 0 
 0 
LINE
 10 
 524.237646484375 
 20 
 187.352001953125 
 30 
 0 
 11 
 525.151220703125 
 21 
 185.464001464844 
 31 
 0 
 0 
LINE
 10 
 525.151220703125 
 20 
 185.464001464844 
 30 
 0 
 11 
 528.1 
 21 
 181.8 
 31 
 0 
 0 
LINE
 10 
 528.1 
 20 
 181.8 
 30 
 0 
 11 
 532.5 
 21 
 176.5 
 31 
 0 
 0 
LINE
 10 
 532.5 
 20 
 176.5 
 30 
 0 
 11 
 529 
 21 
 178.9 
 31 
 0 
 0 
LINE
 10 
 529 
 20 
 178.9 
 30 
 0 
 11 
 527.59921875 
 21 
 179.935998535156 
 31 
 0 
 0 
LINE
 10 
 527.59921875 
 20 
 179.935998535156 
 30 
 0 
 11 
 525.785595703125 
 21 
 181.283996582031 
 31 
 0 
 0 
LINE
 10 
 525.785595703125 
 20 
 181.283996582031 
 30 
 0 
 11 
 523.722412109375 
 21 
 182.823999023438 
 31 
 0 
 0 
LINE
 10 
 523.722412109375 
 20 
 182.823999023438 
 30 
 0 
 11 
 521.572802734375 
 21 
 184.435998535156 
 31 
 0 
 0 
LINE
 10 
 521.572802734375 
 20 
 184.435998535156 
 30 
 0 
 11 
 519.5 
 21 
 186 
 31 
 0 
 0 
LINE
 10 
 519.5 
 20 
 186 
 30 
 0 
 11 
 516.092822265625 
 21 
 188.519995117188 
 31 
 0 
 0 
LINE
 10 
 516.092822265625 
 20 
 188.519995117188 
 30 
 0 
 11 
 512.714453125 
 21 
 190.776000976563 
 31 
 0 
 0 
LINE
 10 
 512.714453125 
 20 
 190.776000976563 
 30 
 0 
 11 
 509.72958984375 
 21 
 192.552001953125 
 31 
 0 
 0 
LINE
 10 
 509.72958984375 
 20 
 192.552001953125 
 30 
 0 
 11 
 507.50322265625 
 21 
 193.632006835938 
 31 
 0 
 0 
LINE
 10 
 507.50322265625 
 20 
 193.632006835938 
 30 
 0 
 11 
 506.4 
 21 
 193.8 
 31 
 0 
 0 
LINE
 10 
 506.4 
 20 
 193.8 
 30 
 0 
 11 
 506.70478515625 
 21 
 193.156799316406 
 31 
 0 
 0 
LINE
 10 
 506.70478515625 
 20 
 193.156799316406 
 30 
 0 
 11 
 507.662451171875 
 21 
 191.582397460938 
 31 
 0 
 0 
LINE
 10 
 507.662451171875 
 20 
 191.582397460938 
 30 
 0 
 11 
 509.1576171875 
 21 
 189.249597167969 
 31 
 0 
 0 
LINE
 10 
 509.1576171875 
 20 
 189.249597167969 
 30 
 0 
 11 
 511.0751953125 
 21 
 186.331201171875 
 31 
 0 
 0 
LINE
 10 
 511.0751953125 
 20 
 186.331201171875 
 30 
 0 
 11 
 513.3 
 21 
 183 
 31 
 0 
 0 
LINE
 10 
 513.3 
 20 
 183 
 30 
 0 
 11 
 520.177587890625 
 21 
 173.519201660156 
 31 
 0 
 0 
LINE
 10 
 520.177587890625 
 20 
 173.519201660156 
 30 
 0 
 11 
 526.872802734375 
 21 
 165.857604980469 
 31 
 0 
 0 
LINE
 10 
 526.872802734375 
 20 
 165.857604980469 
 30 
 0 
 11 
 533.539208984375 
 21 
 159.86640625 
 31 
 0 
 0 
LINE
 10 
 533.539208984375 
 20 
 159.86640625 
 30 
 0 
 11 
 540.330419921875 
 21 
 155.396801757813 
 31 
 0 
 0 
LINE
 10 
 540.330419921875 
 20 
 155.396801757813 
 30 
 0 
 11 
 547.4 
 21 
 152.3 
 31 
 0 
 0 
LINE
 10 
 547.4 
 20 
 152.3 
 30 
 0 
 11 
 551.5 
 21 
 151 
 31 
 0 
 0 
LINE
 10 
 551.5 
 20 
 151 
 30 
 0 
 11 
 546.7 
 21 
 151.5 
 31 
 0 
 0 
LINE
 10 
 546.7 
 20 
 151.5 
 30 
 0 
 11 
 541.87041015625 
 21 
 152.423999023438 
 31 
 0 
 0 
LINE
 10 
 541.87041015625 
 20 
 152.423999023438 
 30 
 0 
 11 
 537.055224609375 
 21 
 154.332006835938 
 31 
 0 
 0 
LINE
 10 
 537.055224609375 
 20 
 154.332006835938 
 30 
 0 
 11 
 532.004833984375 
 21 
 157.367993164063 
 31 
 0 
 0 
LINE
 10 
 532.004833984375 
 20 
 157.367993164063 
 30 
 0 
 11 
 526.46962890625 
 21 
 161.676000976563 
 31 
 0 
 0 
LINE
 10 
 526.46962890625 
 20 
 161.676000976563 
 30 
 0 
 11 
 520.2 
 21 
 167.4 
 31 
 0 
 0 
LINE
 10 
 520.2 
 20 
 167.4 
 30 
 0 
 11 
 514.745556640625 
 21 
 172.855993652344 
 31 
 0 
 0 
LINE
 10 
 514.745556640625 
 20 
 172.855993652344 
 30 
 0 
 11 
 510.42880859375 
 21 
 177.640002441406 
 31 
 0 
 0 
LINE
 10 
 510.42880859375 
 20 
 177.640002441406 
 30 
 0 
 11 
 506.77919921875 
 21 
 182.376000976563 
 31 
 0 
 0 
LINE
 10 
 506.77919921875 
 20 
 182.376000976563 
 30 
 0 
 11 
 503.326416015625 
 21 
 187.688000488281 
 31 
 0 
 0 
LINE
 10 
 503.326416015625 
 20 
 187.688000488281 
 30 
 0 
 11 
 499.6 
 21 
 194.2 
 31 
 0 
 0 
LINE
 10 
 499.6 
 20 
 194.2 
 30 
 0 
 11 
 495.9 
 21 
 200.8 
 31 
 0 
 0 
LINE
 10 
 495.9 
 20 
 200.8 
 30 
 0 
 11 
 500.2 
 21 
 200.3 
 31 
 0 
 0 
LINE
 10 
 500.2 
 20 
 200.3 
 30 
 0 
 11 
 501.98876953125 
 21 
 199.985595703125 
 31 
 0 
 0 
LINE
 10 
 501.98876953125 
 20 
 199.985595703125 
 30 
 0 
 11 
 504.334423828125 
 21 
 199.440795898438 
 31 
 0 
 0 
LINE
 10 
 504.334423828125 
 20 
 199.440795898438 
 30 
 0 
 11 
 507.0255859375 
 21 
 198.723205566406 
 31 
 0 
 0 
LINE
 10 
 507.0255859375 
 20 
 198.723205566406 
 30 
 0 
 11 
 509.851220703125 
 21 
 197.890405273438 
 31 
 0 
 0 
LINE
 10 
 509.851220703125 
 20 
 197.890405273438 
 30 
 0 
 11 
 512.6 
 21 
 197 
 31 
 0 
 0 
LINE
 10 
 454.5 
 20 
 162.5 
 30 
 0 
 11 
 454.183984375 
 21 
 159.481591796875 
 31 
 0 
 0 
LINE
 10 
 454.183984375 
 20 
 159.481591796875 
 30 
 0 
 11 
 454.1080078125 
 21 
 157.576806640625 
 31 
 0 
 0 
LINE
 10 
 454.1080078125 
 20 
 157.576806640625 
 30 
 0 
 11 
 454.32001953125 
 21 
 156.531201171875 
 31 
 0 
 0 
LINE
 10 
 454.32001953125 
 20 
 156.531201171875 
 30 
 0 
 11 
 454.868017578125 
 21 
 156.090405273438 
 31 
 0 
 0 
LINE
 10 
 454.868017578125 
 20 
 156.090405273438 
 30 
 0 
 11 
 455.8 
 21 
 156 
 31 
 0 
 0 
LINE
 10 
 455.8 
 20 
 156 
 30 
 0 
 11 
 456.50322265625 
 21 
 155.896801757813 
 31 
 0 
 0 
LINE
 10 
 456.50322265625 
 20 
 155.896801757813 
 30 
 0 
 11 
 457.15361328125 
 21 
 155.606396484375 
 31 
 0 
 0 
LINE
 10 
 457.15361328125 
 20 
 155.606396484375 
 30 
 0 
 11 
 457.722412109375 
 21 
 155.157604980469 
 31 
 0 
 0 
LINE
 10 
 457.722412109375 
 20 
 155.157604980469 
 30 
 0 
 11 
 458.180810546875 
 21 
 154.57919921875 
 31 
 0 
 0 
LINE
 10 
 458.180810546875 
 20 
 154.57919921875 
 30 
 0 
 11 
 458.5 
 21 
 153.9 
 31 
 0 
 0 
LINE
 10 
 458.5 
 20 
 153.9 
 30 
 0 
 11 
 458.830419921875 
 21 
 152.635998535156 
 31 
 0 
 0 
LINE
 10 
 458.830419921875 
 20 
 152.635998535156 
 30 
 0 
 11 
 458.7912109375 
 21 
 151.780004882813 
 31 
 0 
 0 
LINE
 10 
 458.7912109375 
 20 
 151.780004882813 
 30 
 0 
 11 
 458.276806640625 
 21 
 151.236010742188 
 31 
 0 
 0 
LINE
 10 
 458.276806640625 
 20 
 151.236010742188 
 30 
 0 
 11 
 457.181591796875 
 21 
 150.907995605469 
 31 
 0 
 0 
LINE
 10 
 457.181591796875 
 20 
 150.907995605469 
 30 
 0 
 11 
 455.4 
 21 
 150.7 
 31 
 0 
 0 
LINE
 10 
 455.4 
 20 
 150.7 
 30 
 0 
 11 
 454.248779296875 
 21 
 150.670385742188 
 31 
 0 
 0 
LINE
 10 
 454.248779296875 
 20 
 150.670385742188 
 30 
 0 
 11 
 453.390380859375 
 21 
 150.847204589844 
 31 
 0 
 0 
LINE
 10 
 453.390380859375 
 20 
 150.847204589844 
 30 
 0 
 11 
 452.7576171875 
 21 
 151.268798828125 
 31 
 0 
 0 
LINE
 10 
 452.7576171875 
 20 
 151.268798828125 
 30 
 0 
 11 
 452.283203125 
 21 
 151.973596191406 
 31 
 0 
 0 
LINE
 10 
 452.283203125 
 20 
 151.973596191406 
 30 
 0 
 11 
 451.9 
 21 
 153 
 31 
 0 
 0 
LINE
 10 
 451.9 
 20 
 153 
 30 
 0 
 11 
 451.383935546875 
 21 
 155.67119140625 
 31 
 0 
 0 
LINE
 10 
 451.383935546875 
 20 
 155.67119140625 
 30 
 0 
 11 
 451.1560546875 
 21 
 158.673608398438 
 31 
 0 
 0 
LINE
 10 
 451.1560546875 
 20 
 158.673608398438 
 30 
 0 
 11 
 451.216015625 
 21 
 161.690393066406 
 31 
 0 
 0 
LINE
 10 
 451.216015625 
 20 
 161.690393066406 
 30 
 0 
 11 
 451.564013671875 
 21 
 164.404797363281 
 31 
 0 
 0 
LINE
 10 
 451.564013671875 
 20 
 164.404797363281 
 30 
 0 
 11 
 452.2 
 21 
 166.5 
 31 
 0 
 0 
LINE
 10 
 452.2 
 20 
 166.5 
 30 
 0 
 11 
 453.274365234375 
 21 
 168.464782714844 
 31 
 0 
 0 
LINE
 10 
 453.274365234375 
 20 
 168.464782714844 
 30 
 0 
 11 
 454.0751953125 
 21 
 168.994396972656 
 31 
 0 
 0 
LINE
 10 
 454.0751953125 
 20 
 168.994396972656 
 30 
 0 
 11 
 454.568798828125 
 21 
 168.1416015625 
 31 
 0 
 0 
LINE
 10 
 454.568798828125 
 20 
 168.1416015625 
 30 
 0 
 11 
 454.721630859375 
 21 
 165.959204101563 
 31 
 0 
 0 
LINE
 10 
 454.721630859375 
 20 
 165.959204101563 
 30 
 0 
 11 
 454.5 
 21 
 162.5 
 31 
 0 
 0 
LINE
 10 
 611.5 
 20 
 379.8 
 30 
 0 
 11 
 611.6751953125 
 21 
 378.75439453125 
 31 
 0 
 0 
LINE
 10 
 611.6751953125 
 20 
 378.75439453125 
 30 
 0 
 11 
 611.9416015625 
 21 
 377.267211914063 
 31 
 0 
 0 
LINE
 10 
 611.9416015625 
 20 
 377.267211914063 
 30 
 0 
 11 
 612.27041015625 
 21 
 375.472802734375 
 31 
 0 
 0 
LINE
 10 
 612.27041015625 
 20 
 375.472802734375 
 30 
 0 
 11 
 612.6328125 
 21 
 373.505615234375 
 31 
 0 
 0 
LINE
 10 
 612.6328125 
 20 
 373.505615234375 
 30 
 0 
 11 
 613 
 21 
 371.5 
 31 
 0 
 0 
LINE
 10 
 613 
 20 
 371.5 
 30 
 0 
 11 
 613.62158203125 
 21 
 368.183984375 
 31 
 0 
 0 
LINE
 10 
 613.62158203125 
 20 
 368.183984375 
 30 
 0 
 11 
 614.276806640625 
 21 
 366.092016601563 
 31 
 0 
 0 
LINE
 10 
 614.276806640625 
 20 
 366.092016601563 
 30 
 0 
 11 
 615.311181640625 
 21 
 364.767993164063 
 31 
 0 
 0 
LINE
 10 
 615.311181640625 
 20 
 364.767993164063 
 30 
 0 
 11 
 617.07041015625 
 21 
 363.756005859375 
 31 
 0 
 0 
LINE
 10 
 617.07041015625 
 20 
 363.756005859375 
 30 
 0 
 11 
 619.9 
 21 
 362.6 
 31 
 0 
 0 
LINE
 10 
 619.9 
 20 
 362.6 
 30 
 0 
 11 
 624.3 
 21 
 360.9 
 31 
 0 
 0 
LINE
 10 
 624.3 
 20 
 360.9 
 30 
 0 
 11 
 623.8 
 21 
 366.5 
 31 
 0 
 0 
LINE
 10 
 623.8 
 20 
 366.5 
 30 
 0 
 11 
 623.6439453125 
 21 
 368.223999023438 
 31 
 0 
 0 
LINE
 10 
 623.6439453125 
 20 
 368.223999023438 
 30 
 0 
 11 
 623.53603515625 
 21 
 369.732006835938 
 31 
 0 
 0 
LINE
 10 
 623.53603515625 
 20 
 369.732006835938 
 30 
 0 
 11 
 623.476025390625 
 21 
 370.928002929688 
 31 
 0 
 0 
LINE
 10 
 623.476025390625 
 20 
 370.928002929688 
 30 
 0 
 11 
 623.464013671875 
 21 
 371.716015625 
 31 
 0 
 0 
LINE
 10 
 623.464013671875 
 20 
 371.716015625 
 30 
 0 
 11 
 623.5 
 21 
 372 
 31 
 0 
 0 
LINE
 10 
 623.5 
 20 
 372 
 30 
 0 
 11 
 624.950390625 
 21 
 371.631176757813 
 31 
 0 
 0 
LINE
 10 
 624.950390625 
 20 
 371.631176757813 
 30 
 0 
 11 
 627.5671875 
 21 
 370.729614257813 
 31 
 0 
 0 
LINE
 10 
 627.5671875 
 20 
 370.729614257813 
 30 
 0 
 11 
 630.548828125 
 21 
 369.602392578125 
 31 
 0 
 0 
LINE
 10 
 630.548828125 
 20 
 369.602392578125 
 30 
 0 
 11 
 633.093603515625 
 21 
 368.556811523438 
 31 
 0 
 0 
LINE
 10 
 633.093603515625 
 20 
 368.556811523438 
 30 
 0 
 11 
 634.4 
 21 
 367.9 
 31 
 0 
 0 
LINE
 10 
 634.4 
 20 
 367.9 
 30 
 0 
 11 
 634.719140625 
 21 
 367.407983398438 
 31 
 0 
 0 
LINE
 10 
 634.719140625 
 20 
 367.407983398438 
 30 
 0 
 11 
 635.057666015625 
 21 
 366.580004882813 
 31 
 0 
 0 
LINE
 10 
 635.057666015625 
 20 
 366.580004882813 
 30 
 0 
 11 
 635.386376953125 
 21 
 365.488012695313 
 31 
 0 
 0 
LINE
 10 
 635.386376953125 
 20 
 365.488012695313 
 30 
 0 
 11 
 635.676806640625 
 21 
 364.20400390625 
 31 
 0 
 0 
LINE
 10 
 635.676806640625 
 20 
 364.20400390625 
 30 
 0 
 11 
 635.9 
 21 
 362.8 
 31 
 0 
 0 
LINE
 10 
 635.9 
 20 
 362.8 
 30 
 0 
 11 
 636.227197265625 
 21 
 360.990380859375 
 31 
 0 
 0 
LINE
 10 
 636.227197265625 
 20 
 360.990380859375 
 30 
 0 
 11 
 636.66962890625 
 21 
 359.675219726563 
 31 
 0 
 0 
LINE
 10 
 636.66962890625 
 20 
 359.675219726563 
 30 
 0 
 11 
 637.318408203125 
 21 
 358.7248046875 
 31 
 0 
 0 
LINE
 10 
 637.318408203125 
 20 
 358.7248046875 
 30 
 0 
 11 
 638.264794921875 
 21 
 358.009619140625 
 31 
 0 
 0 
LINE
 10 
 638.264794921875 
 20 
 358.009619140625 
 30 
 0 
 11 
 639.6 
 21 
 357.4 
 31 
 0 
 0 
LINE
 10 
 639.6 
 20 
 357.4 
 30 
 0 
 11 
 642.7 
 21 
 356.1 
 31 
 0 
 0 
LINE
 10 
 642.7 
 20 
 356.1 
 30 
 0 
 11 
 642.8 
 21 
 360.8 
 31 
 0 
 0 
LINE
 10 
 642.8 
 20 
 360.8 
 30 
 0 
 11 
 642.028759765625 
 21 
 368.649584960938 
 31 
 0 
 0 
LINE
 10 
 642.028759765625 
 20 
 368.649584960938 
 30 
 0 
 11 
 639.29443359375 
 21 
 374.612817382813 
 31 
 0 
 0 
LINE
 10 
 639.29443359375 
 20 
 374.612817382813 
 30 
 0 
 11 
 634.505615234375 
 21 
 378.771215820313 
 31 
 0 
 0 
LINE
 10 
 634.505615234375 
 20 
 378.771215820313 
 30 
 0 
 11 
 627.57119140625 
 21 
 381.206420898438 
 31 
 0 
 0 
LINE
 10 
 627.57119140625 
 20 
 381.206420898438 
 30 
 0 
 11 
 618.4 
 21 
 382 
 31 
 0 
 0 
LINE
 10 
 618.4 
 20 
 382 
 30 
 0 
 11 
 614.869580078125 
 21 
 381.972802734375 
 31 
 0 
 0 
LINE
 10 
 614.869580078125 
 20 
 381.972802734375 
 30 
 0 
 11 
 612.716796875 
 21 
 381.830395507813 
 31 
 0 
 0 
LINE
 10 
 612.716796875 
 20 
 381.830395507813 
 30 
 0 
 11 
 611.6392578125 
 21 
 381.481616210938 
 31 
 0 
 0 
LINE
 10 
 611.6392578125 
 20 
 381.481616210938 
 30 
 0 
 11 
 611.334423828125 
 21 
 380.835205078125 
 31 
 0 
 0 
LINE
 10 
 611.334423828125 
 20 
 380.835205078125 
 30 
 0 
 11 
 611.5 
 21 
 379.8 
 31 
 0 
 0 
ENDSEC
 0 
EOF
