  0
SECTION
  2
ENTITIES
  0
LINE
  8
APS_GEOMETR�
 10
18808.253953
 11
18808.253953
 20
4843.201868
 21
6903.201868
  0
LINE
  8
APS_GEOMETR�
 10
18808.253953
 11
19518.253953
 20
6903.201868
 21
6903.201868
  0
LINE
  8
APS_GEOMETR�
 10
19518.253953
 11
19518.253953
 20
6903.201868
 21
4843.201868
  0
LINE
  8
APS_GEOMETR�
 10
19518.253953
 11
18808.253953
 20
4843.201868
 21
4843.201868
  0
ARC
  8
APS_GEOMETR�
 10
19356.839814
 20
5475.14001
 40
92.348816
 50
209.510505
 51
236.716631
  0
ARC
  8
APS_GEOMETR�
 10
19348.684661
 20
5463.007538
 40
77.731251
 50
236.834107
 51
267.388305
  0
ARC
  8
APS_GEOMETR�
 10
19348.090162
 20
5461.842246
 40
76.541991
 50
267.793114
 51
298.666505
  0
LINE
  8
APS_GEOMETR�
 10
19384.80817
 11
19384.80817
 20
5394.682256
 21
5327.005133
  0
ARC
  8
APS_GEOMETR�
 10
19356.680734
 20
5392.727172
 40
71.488034
 50
265.892867
 51
293.169748
  0
ARC
  8
APS_GEOMETR�
 10
19357.157161
 20
5394.455999
 40
73.247387
 50
238.783396
 51
265.618007
  0
ARC
  8
APS_GEOMETR�
 10
19363.361126
 20
5404.418139
 40
84.982629
 50
214.402932
 51
238.68726
  0
ARC
  8
APS_GEOMETR�
 10
19375.44476
 20
5412.886241
 40
99.737333
 50
192.684987
 51
214.49458
  0
ARC
  8
APS_GEOMETR�
 10
19382.959611
 20
5414.880846
 40
107.507165
 50
172.103539
 51
192.842596
  0
LINE
  8
APS_GEOMETR�
 10
18941.699736
 11
18941.699736
 20
5150.22262
 21
6755.354978
  0
LINE
  8
APS_GEOMETR�
 10
18941.699736
 11
19027.241905
 20
6755.354978
 21
6755.354978
  0
ARC
  8
APS_GEOMETR�
 10
18112.999895
 20
6346.542166
 40
1001.482086
 50
359.874312
 51
24.092302
  0
ARC
  8
APS_GEOMETR�
 10
18112.999895
 20
6342.148341
 40
1001.482086
 50
335.907698
 51
0.125688
  0
ARC
  8
APS_GEOMETR�
 10
19722.388313
 20
5755.504423
 40
717.532181
 50
165.650439
 51
190.459822
  0
ARC
  8
APS_GEOMETR�
 10
19673.39473
 20
5743.229386
 40
667.13183
 50
190.187014
 51
216.242297
  0
ARC
  8
APS_GEOMETR�
 10
19353.999099
 20
5521.955124
 40
278.906573
 50
218.371877
 51
235.944741
  0
ARC
  8
APS_GEOMETR�
 10
19347.875746
 20
5500.736717
 40
257.988006
 50
234.432384
 51
278.230488
  0
LINE
  8
APS_GEOMETR�
 10
19384.80817
 11
19384.80817
 20
5245.405937
 21
5150.22262
  0
LINE
  8
APS_GEOMETR�
 10
19384.80817
 11
18941.699736
 20
5150.22262
 21
5150.22262
  0
ARC
  8
APS_GEOMETR�
 10
19923.235109
 20
5645.432117
 40
751.485772
 50
157.084714
 51
196.209284
  0
ARC
  8
APS_GEOMETR�
 10
18573.136578
 20
6248.994134
 40
727.702537
 50
334.702889
 51
346.997048
  0
LINE
  8
APS_GEOMETR�
 10
19282.17971
 11
19282.17971
 20
6085.260144
 21
5840.46786
  0
ARC
  8
APS_GEOMETR�
 10
20013.938942
 20
5484.426326
 40
813.779544
 50
154.054504
 51
183.435737
  0
LINE
  8
APS_GEOMETR�
 10
17922.086888
 11
17121.086888
 20
4407.290706
 21
4407.290706
  0
LINE
  8
APS_GEOMETR�
 10
17121.086888
 11
17121.086888
 20
4407.290706
 21
6467.290706
  0
LINE
  8
APS_GEOMETR�
 10
17121.086888
 11
17922.086888
 20
6467.290706
 21
6467.290706
  0
LINE
  8
APS_GEOMETR�
 10
17922.086888
 11
17922.086888
 20
6467.290706
 21
4407.290706
  0
ARC
  8
APS_GEOMETR�
 10
17299.429782
 20
4978.961712
 40
95.577531
 50
345.526432
 51
8.894436
  0
ARC
  8
APS_GEOMETR�
 10
17300.551566
 20
4978.624579
 40
94.407099
 50
321.991714
 51
345.554387
  0
ARC
  8
APS_GEOMETR�
 10
17302.346013
 20
4977.201356
 40
92.116831
 50
298.047151
 51
322.001923
  0
ARC
  8
APS_GEOMETR�
 10
17303.261207
 20
4975.537922
 40
90.218431
 50
273.739396
 51
298.030911
  0
ARC
  8
APS_GEOMETR�
 10
17303.331017
 20
4975.250267
 40
89.92685
 50
249.362749
 51
273.706965
  0
LINE
  8
APS_GEOMETR�
 10
17271.636285
 11
17271.636285
 20
4891.093971
 21
4958.771094
  0
ARC
  8
APS_GEOMETR�
 10
17312.91622
 20
5044.829897
 40
95.447109
 50
244.374305
 51
272.083118
  0
ARC
  8
APS_GEOMETR�
 10
17312.829528
 20
5045.023453
 40
95.643721
 50
272.130802
 51
299.801419
  0
ARC
  8
APS_GEOMETR�
 10
17311.62778
 20
5047.048739
 40
97.998439
 50
299.82262
 51
327.044894
  0
LINE
  8
APS_GEOMETR�
 10
17771.53749
 11
17271.636285
 20
4714.311458
 21
4714.311458
  0
LINE
  8
APS_GEOMETR�
 10
17271.636285
 11
17271.636285
 20
4714.311458
 21
4809.494775
  0
ARC
  8
APS_GEOMETR�
 10
17313.584378
 20
5126.960296
 40
320.22492
 50
262.472865
 51
301.856653
  0
ARC
  8
APS_GEOMETR�
 10
17327.303693
 20
5115.733759
 40
303.502472
 50
300.775346
 51
318.065533
  0
ARC
  8
APS_GEOMETR�
 10
17069.278699
 20
5317.578989
 40
630.732502
 50
320.089723
 51
348.267875
  0
ARC
  8
APS_GEOMETR�
 10
17061.991332
 20
5319.656171
 40
638.290233
 50
348.218325
 51
357.363726
  0
ARC
  8
APS_GEOMETR�
 10
17129.166995
 20
5316.599937
 40
571.045094
 50
357.360037
 51
23.605413
  0
ARC
  8
APS_GEOMETR�
 10
18482.645876
 20
5908.0858
 40
906.033309
 50
179.977975
 51
203.606177
  0
ARC
  8
APS_GEOMETR�
 10
18482.472177
 20
5908.808759
 40
905.85962
 50
153.043763
 51
180.023698
  0
LINE
  8
APS_GEOMETR�
 10
17675.031466
 11
17771.53749
 20
6319.443816
 21
6319.443816
  0
LINE
  8
APS_GEOMETR�
 10
17771.53749
 11
17771.53749
 20
6319.443816
 21
4714.311458
  0
ARC
  8
APS_GEOMETR�
 10
16744.298487
 20
5047.564826
 40
735.558693
 50
356.272574
 51
29.034378
  0
LINE
  8
APS_GEOMETR�
 10
17387.418534
 11
17387.418534
 20
5404.556698
 21
5649.348982
  0
ARC
  8
APS_GEOMETR�
 10
18039.511592
 20
5819.908556
 40
674.029617
 50
194.657751
 51
208.129478
  0
ARC
  8
APS_GEOMETR�
 10
16843.940664
 20
5210.940328
 40
667.964452
 50
3.738061
 51
25.84455
  0
ARC
  8
APS_GEOMETR�
 10
16839.023856
 20
5209.913282
 40
672.938127
 50
341.801341
 51
3.798028
  0
ARC
  8
APS_GEOMETR�
 10
18118.717366
 20
5967.729897
 40
730.971491
 50
151.238838
 51
163.748038
  0
LINE
  8
APS_GEOMETR�
 10
17477.923608
 11
17585.802638
 20
6319.443816
 21
6319.443816
  0
ARC
  8
APS_GEOMETR�
 10
18403.885942
 20
5907.874454
 40
915.778157
 50
153.293498
 51
163.217155
  0
ARC
  8
APS_GEOMETR�
 10
18405.177086
 20
5907.497147
 40
917.123251
 50
163.217878
 51
180.959788
  0
ARC
  8
APS_GEOMETR�
 10
18407.626635
 20
5909.969754
 40
919.617088
 50
181.111263
 51
206.86156
  0
ARC
  8
APS_GEOMETR�
 10
17323.967368
 20
5361.091583
 40
295.119367
 50
10.951996
 51
26.865076
  0
ARC
  8
APS_GEOMETR�
 10
17109.663895
 20
5319.583452
 40
513.405653
 50
337.10094
 51
10.956166
  0
ARC
  8
APS_GEOMETR�
 10
16710.506791
 20
5196.680753
 40
875.483232
 50
354.962909
 51
27.608875
  0
ARC
  8
APS_GEOMETR�
 10
18120.89932
 20
5969.707239
 40
733.228476
 50
180.76155
 51
210.061752
  0
ARC
  8
APS_GEOMETR�
 10
18119.845588
 20
5967.397221
 40
732.147734
 50
163.747754
 51
180.581886
  0
ARC
  8
APS_GEOMETR�
 10
18118.809651
 20
5967.761168
 40
726.058731
 50
151.47013
 51
163.748385
  0
LINE
  8
APS_GEOMETR�
 10
17480.917514
 11
17577.798112
 20
6314.539054
 21
6314.539054
  0
ARC
  8
APS_GEOMETR�
 10
18403.585121
 20
5907.919383
 40
920.469305
 50
153.784245
 51
163.217717
  0
ARC
  8
APS_GEOMETR�
 10
18404.994609
 20
5907.496829
 40
921.940768
 50
163.217867
 51
180.960118
  0
ARC
  8
APS_GEOMETR�
 10
18407.455872
 20
5909.971754
 40
924.446358
 50
181.110933
 51
206.861613
  0
ARC
  8
APS_GEOMETR�
 10
17323.807509
 20
5361.097513
 40
290.278593
 50
10.951818
 51
26.865244
  0
ARC
  8
APS_GEOMETR�
 10
17109.730527
 20
5319.588776
 40
508.342633
 50
340.835986
 51
10.961023
  0
ARC
  8
APS_GEOMETR�
 10
16710.39435
 20
5196.595996
 40
880.601922
 50
357.143624
 51
27.611877
  0
ARC
  8
APS_GEOMETR�
 10
18121.067923
 20
5969.704938
 40
728.397054
 50
180.76206
 51
210.069896
  0
ARC
  8
APS_GEOMETR�
 10
18120.028277
 20
5967.397541
 40
727.330426
 50
163.74775
 51
180.581399
  0
ARC
  8
APS_GEOMETR�
 10
16744.093344
 20
5047.437554
 40
740.776641
 50
359.37663
 51
28.93175
  0
LINE
  8
APS_GEOMETR�
 10
17392.418534
 11
17392.418534
 20
5405.80117
 21
5614.133056
  0
ARC
  8
APS_GEOMETR�
 10
18039.975681
 20
5820.193328
 40
679.552128
 50
197.65168
 51
208.117224
  0
ARC
  8
APS_GEOMETR�
 10
16843.77267
 20
5210.943226
 40
663.1323
 50
3.737745
 51
25.836184
  0
ARC
  8
APS_GEOMETR�
 10
16839.151721
 20
5209.898823
 40
667.811915
 50
345.206128
 51
3.801315
  0
ARC
  8
APS_GEOMETR�
 10
17299.203804
 20
4978.967053
 40
90.803568
 50
345.528104
 51
0.821742
  0
ARC
  8
APS_GEOMETR�
 10
17300.41563
 20
4978.609581
 40
89.540869
 50
321.991184
 51
345.555803
  0
ARC
  8
APS_GEOMETR�
 10
17302.295502
 20
4977.118604
 40
87.141572
 50
298.048053
 51
322.002474
  0
ARC
  8
APS_GEOMETR�
 10
17303.257742
 20
4975.369673
 40
85.145594
 50
273.741291
 51
298.029979
  0
ARC
  8
APS_GEOMETR�
 10
17303.33347
 20
4975.100117
 40
84.871691
 50
251.665785
 51
273.702151
  0
LINE
  8
APS_GEOMETR�
 10
17276.636285
 11
17276.636285
 20
4894.536699
 21
4951.249798
  0
ARC
  8
APS_GEOMETR�
 10
17312.92568
 20
5045.10584
 40
100.627416
 50
248.861029
 51
272.07743
  0
ARC
  8
APS_GEOMETR�
 10
17312.832864
 20
5045.190866
 40
100.715791
 50
272.128444
 51
299.802446
  0
ARC
  8
APS_GEOMETR�
 10
17311.45036
 20
5047.427991
 40
103.3442
 50
299.851116
 51
319.469386
  0
ARC
  8
APS_GEOMETR�
 10
18178.189243
 20
6344.990946
 40
1014.815566
 50
359.043249
 51
15.033178
  0
ARC
  8
APS_GEOMETR�
 10
18180.44266
 20
6343.242196
 40
1012.534708
 50
334.293786
 51
359.140061
  0
ARC
  8
APS_GEOMETR�
 10
19648.324059
 20
5755.653532
 40
575.034699
 50
165.044876
 51
200.345642
  0
ARC
  8
APS_GEOMETR�
 10
20077.661575
 20
5633.253302
 40
971.595308
 50
155.360416
 51
184.576837
  0
ARC
  8
APS_GEOMETR�
 10
18475.940452
 20
6403.355984
 40
805.992941
 50
333.06996
 51
359.468044
  0
ARC
  8
APS_GEOMETR�
 10
18474.711039
 20
6404.999671
 40
807.239211
 50
359.352194
 51
14.580357
  0
LINE
  8
APS_GEOMETR�
 10
19255.99856
 11
19158.273549
 20
6608.212121
 21
6608.212121
  0
ARC
  8
APS_GEOMETR�
 10
18178.189243
 20
6344.990946
 40
1014.815566
 50
15.033178
 51
23.851843
  0
LINE
  8
APS_GEOMETR�
 10
19106.333625
 11
19201.956736
 20
6755.354978
 21
6755.354978
  0
ARC
  8
APS_GEOMETR�
 10
18474.711039
 20
6404.999671
 40
807.239211
 50
14.580357
 51
25.722742
  0
LINE
  8
APS_GEOMETR�
 10
18928.253953
 11
18928.253953
 20
4843.201868
 21
6903.201868
  0
LINE
  8
APS_GEOMETR�
 10
20228.253953
 11
19518.253953
 20
4843.201868
 21
4843.201868
  0
LINE
  8
APS_GEOMETR�
 10
19518.253953
 11
19518.253953
 20
4843.201868
 21
6903.201868
  0
LINE
  8
APS_GEOMETR�
 10
19518.253953
 11
20228.253953
 20
6903.201868
 21
6903.201868
  0
LINE
  8
APS_GEOMETR�
 10
20228.253953
 11
20228.253953
 20
6903.201868
 21
4843.201868
  0
ARC
  8
APS_GEOMETR�
 10
19653.548296
 20
5414.880846
 40
107.507165
 50
347.157404
 51
7.896461
  0
ARC
  8
APS_GEOMETR�
 10
19661.063146
 20
5412.886241
 40
99.737333
 50
325.50542
 51
347.315013
  0
ARC
  8
APS_GEOMETR�
 10
19673.146781
 20
5404.418139
 40
84.982629
 50
301.31274
 51
325.597068
  0
ARC
  8
APS_GEOMETR�
 10
19679.350746
 20
5394.455999
 40
73.247387
 50
274.381993
 51
301.216604
  0
ARC
  8
APS_GEOMETR�
 10
19679.827172
 20
5392.727172
 40
71.488034
 50
246.830252
 51
274.107133
  0
LINE
  8
APS_GEOMETR�
 10
19651.699736
 11
19651.699736
 20
5327.005133
 21
5394.682256
  0
ARC
  8
APS_GEOMETR�
 10
19688.417744
 20
5461.842246
 40
76.541991
 50
241.333495
 51
272.206886
  0
ARC
  8
APS_GEOMETR�
 10
19687.823245
 20
5463.007538
 40
77.731251
 50
272.611695
 51
303.165893
  0
ARC
  8
APS_GEOMETR�
 10
19679.668093
 20
5475.14001
 40
92.348816
 50
303.283369
 51
330.489495
  0
LINE
  8
APS_GEOMETR�
 10
20094.80817
 11
19651.699736
 20
5150.22262
 21
5150.22262
  0
LINE
  8
APS_GEOMETR�
 10
19651.699736
 11
19651.699736
 20
5150.22262
 21
5245.405937
  0
ARC
  8
APS_GEOMETR�
 10
19688.632161
 20
5500.736717
 40
257.988006
 50
261.769512
 51
305.567616
  0
ARC
  8
APS_GEOMETR�
 10
19682.508807
 20
5521.955124
 40
278.906573
 50
304.055259
 51
321.628123
  0
ARC
  8
APS_GEOMETR�
 10
19363.113176
 20
5743.229386
 40
667.13183
 50
323.757703
 51
349.812986
  0
ARC
  8
APS_GEOMETR�
 10
19314.119593
 20
5755.504423
 40
717.532181
 50
349.540178
 51
14.349561
  0
ARC
  8
APS_GEOMETR�
 10
20923.508012
 20
6342.148341
 40
1001.482086
 50
179.874312
 51
204.092302
  0
ARC
  8
APS_GEOMETR�
 10
20923.508012
 20
6346.542166
 40
1001.482086
 50
155.907698
 51
180.125688
  0
LINE
  8
APS_GEOMETR�
 10
20009.266001
 11
20094.80817
 20
6755.354978
 21
6755.354978
  0
LINE
  8
APS_GEOMETR�
 10
20094.80817
 11
20094.80817
 20
6755.354978
 21
5150.22262
  0
ARC
  8
APS_GEOMETR�
 10
19022.568965
 20
5484.426326
 40
813.779544
 50
356.564263
 51
25.945496
  0
LINE
  8
APS_GEOMETR�
 10
19754.328196
 11
19754.328196
 20
5840.46786
 21
6085.260144
  0
ARC
  8
APS_GEOMETR�
 10
20463.371328
 20
6248.994134
 40
727.702537
 50
193.002952
 51
205.297111
  0
ARC
  8
APS_GEOMETR�
 10
19113.272798
 20
5645.432117
 40
751.485772
 50
343.790716
 51
22.915286
  0
ARC
  8
APS_GEOMETR�
 10
20858.318663
 20
6344.990946
 40
1014.815566
 50
164.966822
 51
180.956751
  0
ARC
  8
APS_GEOMETR�
 10
20856.065246
 20
6343.242196
 40
1012.534708
 50
180.859939
 51
205.706214
  0
ARC
  8
APS_GEOMETR�
 10
19388.183848
 20
5755.653532
 40
575.034699
 50
339.654358
 51
14.955124
  0
ARC
  8
APS_GEOMETR�
 10
18958.846332
 20
5633.253302
 40
971.595308
 50
355.423163
 51
24.639584
  0
ARC
  8
APS_GEOMETR�
 10
20560.567455
 20
6403.355984
 40
805.992941
 50
180.531956
 51
206.93004
  0
ARC
  8
APS_GEOMETR�
 10
20561.796867
 20
6404.999671
 40
807.239211
 50
165.419643
 51
180.647806
  0
LINE
  8
APS_GEOMETR�
 10
19780.509347
 11
19878.234358
 20
6608.212121
 21
6608.212121
  0
ARC
  8
APS_GEOMETR�
 10
20858.318663
 20
6344.990946
 40
1014.815566
 50
156.148157
 51
164.966822
  0
LINE
  8
APS_GEOMETR�
 10
19930.174281
 11
19834.551171
 20
6755.354978
 21
6755.354978
  0
ARC
  8
APS_GEOMETR�
 10
20561.796867
 20
6404.999671
 40
807.239211
 50
154.277258
 51
165.419643
  0
LINE
  8
APS_GEOMETR�
 10
20108.253953
 11
20108.253953
 20
4843.201868
 21
6903.201868
  0
LINE
  8
APS_GEOMETR�
 10
-7959.064835
 11
-7959.064835
 20
1634.399618
 21
3694.399618
  0
LINE
  8
APS_GEOMETR�
 10
-7959.064835
 11
-7129.064835
 20
3694.399618
 21
3694.399618
  0
LINE
  8
APS_GEOMETR�
 10
-7129.064835
 11
-7129.064835
 20
3694.399618
 21
1634.399618
  0
LINE
  8
APS_GEOMETR�
 10
-7129.064835
 11
-7959.064835
 20
1634.399618
 21
1634.399618
  0
ARC
  8
APS_GEOMETR�
 10
-7752.138427
 20
2040.590232
 40
309.045261
 50
34.176761
 51
63.180939
  0
ARC
  8
APS_GEOMETR�
 10
-7590.185334
 20
2360.982927
 40
49.953744
 50
211.524083
 51
243.204188
  0
ARC
  8
APS_GEOMETR�
 10
-7591.936
 20
2359.868855
 40
47.878952
 50
178.885784
 51
211.483025
  0
LINE
  8
APS_GEOMETR�
 10
-7639.805899
 11
-7639.182904
 20
2360.799886
 21
2391.426507
  0
ARC
  8
APS_GEOMETR�
 10
-7832.942425
 20
2395.001121
 40
193.792492
 50
358.943086
 51
30.194729
  0
ARC
  8
APS_GEOMETR�
 10
-7498.839557
 20
2589.209807
 40
192.655138
 50
194.125396
 51
210.14263
  0
LINE
  8
APS_GEOMETR�
 10
-7685.669563
 11
-7688.828623
 20
2542.193307
 21
2554.766673
  0
ARC
  8
APS_GEOMETR�
 10
-7648.444377
 20
2563.722841
 40
41.365448
 50
178.67189
 51
192.504322
  0
ARC
  8
APS_GEOMETR�
 10
-7649.997962
 20
2564.022862
 40
39.806202
 50
164.858362
 51
179.051788
  0
ARC
  8
APS_GEOMETR�
 10
-7664.495733
 20
2568.22167
 40
24.716428
 50
145.930884
 51
165.475301
  0
ARC
  8
APS_GEOMETR�
 10
-7676.001285
 20
2576.260279
 40
10.684627
 50
112.678442
 51
147.076148
  0
ARC
  8
APS_GEOMETR�
 10
-7677.856801
 20
2580.022908
 40
6.502754
 50
86.290463
 51
110.375165
  0
ARC
  8
APS_GEOMETR�
 10
-7677.8489
 20
2580.055392
 40
6.46983
 50
62.174231
 51
86.341681
  0
ARC
  8
APS_GEOMETR�
 10
-7680.788389
 20
2575.089719
 40
12.236679
 50
29.470127
 51
60.855108
  0
ARC
  8
APS_GEOMETR�
 10
-7222.146857
 20
2851.171744
 40
523.09351
 50
211.082952
 51
222.821274
  0
ARC
  8
APS_GEOMETR�
 10
-7458.592586
 20
2632.101213
 40
200.760643
 50
222.830431
 51
237.21159
  0
ARC
  8
APS_GEOMETR�
 10
-7744.376371
 20
2186.474574
 40
328.631627
 50
17.960434
 51
57.398528
  0
ARC
  8
APS_GEOMETR�
 10
-7924.648789
 20
2139.368201
 40
514.757889
 50
353.357373
 51
16.760691
  0
ARC
  8
APS_GEOMETR�
 10
-7422.878099
 20
2080.939913
 40
9.596838
 50
330.12364
 51
353.316431
  0
ARC
  8
APS_GEOMETR�
 10
-7423.135348
 20
2081.091109
 40
9.895214
 50
307.384319
 51
330.106506
  0
ARC
  8
APS_GEOMETR�
 10
-7423.348793
 20
2081.36588
 40
10.243138
 50
285.198836
 51
307.399816
  0
ARC
  8
APS_GEOMETR�
 10
-7423.404647
 20
2081.546991
 40
10.43256
 50
263.305475
 51
285.234085
  0
ARC
  8
APS_GEOMETR�
 10
-7423.421651
 20
2081.461425
 40
10.345596
 50
241.291056
 51
263.343762
  0
ARC
  8
APS_GEOMETR�
 10
-7423.573859
 20
2081.192731
 40
10.036819
 50
218.809687
 51
241.31633
  0
ARC
  8
APS_GEOMETR�
 10
-7423.840493
 20
2080.97743
 40
9.694113
 50
195.768949
 51
218.80578
  0
ARC
  8
APS_GEOMETR�
 10
-7882.744384
 20
1951.559464
 40
467.109612
 50
15.748861
 51
34.212123
  0
ARC
  8
APS_GEOMETR�
 10
-6791.076224
 20
3146.328718
 40
910.139116
 50
138.612749
 51
186.581549
  0
ARC
  8
APS_GEOMETR�
 10
-6738.659588
 20
3172.691165
 40
965.442849
 50
187.779302
 51
206.539034
  0
ARC
  8
APS_GEOMETR�
 10
-7166.105321
 20
2959.354391
 40
487.716566
 50
206.554118
 51
222.649684
  0
ARC
  8
APS_GEOMETR�
 10
-8172.270835
 20
2025.964844
 40
884.725756
 50
11.594838
 51
42.96222
  0
ARC
  8
APS_GEOMETR�
 10
-8126.975437
 20
2043.524959
 40
836.864462
 50
330.733081
 51
11.04041
  0
ARC
  8
APS_GEOMETR�
 10
-7708.630391
 20
1844.080798
 40
207.45684
 50
42.931781
 51
69.929143
  0
ARC
  8
APS_GEOMETR�
 10
-7626.245998
 20
2069.89771
 40
32.91901
 50
220.273411
 51
250.129642
  0
ARC
  8
APS_GEOMETR�
 10
-7635.592643
 20
2061.961476
 40
20.657554
 50
179.315113
 51
220.237106
  0
LINE
  8
APS_GEOMETR�
 10
-7656.248722
 11
-7655.676366
 20
2062.208401
 21
2083.447292
  0
ARC
  8
APS_GEOMETR�
 10
-7684.196388
 20
2084.215493
 40
28.530366
 50
358.457082
 51
7.650925
  0
ARC
  8
APS_GEOMETR�
 10
-7810.253845
 20
2067.200032
 40
155.731023
 50
7.680736
 51
29.200265
  0
ARC
  8
APS_GEOMETR�
 10
-7660.916705
 20
2148.669424
 40
14.479206
 50
180.5444
 51
202.298524
  0
ARC
  8
APS_GEOMETR�
 10
-7660.848177
 20
2148.724019
 40
14.548349
 50
159.072249
 51
180.756837
  0
ARC
  8
APS_GEOMETR�
 10
-7662.588562
 20
2149.435069
 40
12.668866
 50
135.466654
 51
159.264434
  0
ARC
  8
APS_GEOMETR�
 10
-7664.238112
 20
2151.070265
 40
10.346198
 50
108.245426
 51
135.515206
  0
ARC
  8
APS_GEOMETR�
 10
-7664.633531
 20
2152.127449
 40
9.218472
 50
78.500859
 51
107.968548
  0
ARC
  8
APS_GEOMETR�
 10
-7702.140526
 20
1974.860626
 40
190.409543
 50
47.210488
 51
78.074942
  0
ARC
  8
APS_GEOMETR�
 10
-7733.978849
 20
1940.326516
 40
237.380559
 50
20.629479
 51
47.233315
  0
ARC
  8
APS_GEOMETR�
 10
-7703.630618
 20
1946.221254
 40
206.966176
 50
351.315742
 51
22.062431
  0
ARC
  8
APS_GEOMETR�
 10
-7503.228223
 20
1915.66195
 40
4.247478
 50
322.083721
 51
350.646015
  0
ARC
  8
APS_GEOMETR�
 10
-7504.598908
 20
1916.733499
 40
5.987301
 50
299.375118
 51
322.054468
  0
ARC
  8
APS_GEOMETR�
 10
-7505.727437
 20
1918.665907
 40
8.224903
 50
281.293548
 51
299.622663
  0
ARC
  8
APS_GEOMETR�
 10
-7506.020583
 20
1919.931021
 40
9.523011
 50
264.918592
 51
281.5325
  0
ARC
  8
APS_GEOMETR�
 10
-7506.109562
 20
1919.334103
 40
8.920629
 50
247.790299
 51
265.148273
  0
ARC
  8
APS_GEOMETR�
 10
-7506.911794
 20
1917.450178
 40
6.873305
 50
227.371509
 51
248.045318
  0
ARC
  8
APS_GEOMETR�
 10
-7508.328566
 20
1915.928545
 40
4.794266
 50
201.184329
 51
227.513613
  0
ARC
  8
APS_GEOMETR�
 10
-7721.817446
 20
1834.341622
 40
223.753219
 50
20.909085
 51
42.4577
  0
ARC
  8
APS_GEOMETR�
 10
-7752.047366
 20
2040.466235
 40
314.051788
 50
34.177608
 51
63.180931
  0
ARC
  8
APS_GEOMETR�
 10
-7590.087398
 20
2360.867951
 40
44.958369
 50
211.524083
 51
243.204188
  0
ARC
  8
APS_GEOMETR�
 10
-7591.662997
 20
2359.865286
 40
43.091057
 50
178.885784
 51
211.483025
  0
LINE
  8
APS_GEOMETR�
 10
-7634.745907
 11
-7634.122858
 20
2360.703214
 21
2391.332435
  0
ARC
  8
APS_GEOMETR�
 10
-7832.66674
 20
2394.997965
 40
198.577715
 50
358.942322
 51
30.194732
  0
ARC
  8
APS_GEOMETR�
 10
-7498.593005
 20
2589.194776
 40
187.83876
 50
194.125396
 51
210.14263
  0
LINE
  8
APS_GEOMETR�
 10
-7680.752261
 11
-7683.89451
 20
2543.353688
 21
2555.860141
  0
ARC
  8
APS_GEOMETR�
 10
-7648.142703
 20
2563.722627
 40
36.606152
 50
178.646489
 51
192.402967
  0
ARC
  8
APS_GEOMETR�
 10
-7649.69967
 20
2564.02349
 40
35.043507
 50
164.813627
 51
179.078134
  0
ARC
  8
APS_GEOMETR�
 10
-7664.259629
 20
2568.240725
 40
19.888899
 50
145.76165
 51
165.550677
  0
ARC
  8
APS_GEOMETR�
 10
-7675.924181
 20
2576.396789
 40
5.659718
 50
114.022232
 51
147.581594
  0
ARC
  8
APS_GEOMETR�
 10
-7677.855677
 20
2580.3197
 40
1.301076
 50
85.454538
 51
106.637784
  0
ARC
  8
APS_GEOMETR�
 10
-7677.850148
 20
2580.348874
 40
1.271561
 50
64.086742
 51
85.598715
  0
ARC
  8
APS_GEOMETR�
 10
-7680.893995
 20
2575.196623
 40
7.252296
 50
28.95627
 51
60.242516
  0
ARC
  8
APS_GEOMETR�
 10
-7222.311612
 20
2851.233673
 40
528.004171
 50
211.073917
 51
222.821302
  0
ARC
  8
APS_GEOMETR�
 10
-7458.678235
 20
2632.237193
 40
205.779659
 50
222.830431
 51
237.21159
  0
ARC
  8
APS_GEOMETR�
 10
-7744.530779
 20
2186.534304
 40
323.71392
 50
17.968292
 51
57.398445
  0
ARC
  8
APS_GEOMETR�
 10
-7924.949584
 20
2139.368136
 40
509.99774
 50
353.357366
 51
16.7558
  0
ARC
  8
APS_GEOMETR�
 10
-7423.141285
 20
2080.931957
 40
4.798419
 50
330.12364
 51
353.316431
  0
ARC
  8
APS_GEOMETR�
 10
-7423.26991
 20
2081.007555
 40
4.947607
 50
307.384319
 51
330.106506
  0
ARC
  8
APS_GEOMETR�
 10
-7423.376633
 20
2081.14494
 40
5.121569
 50
285.198836
 51
307.399816
  0
ARC
  8
APS_GEOMETR�
 10
-7423.40456
 20
2081.235496
 40
5.21628
 50
263.305475
 51
285.234085
  0
ARC
  8
APS_GEOMETR�
 10
-7423.413062
 20
2081.192712
 40
5.172798
 50
241.291056
 51
263.343762
  0
ARC
  8
APS_GEOMETR�
 10
-7423.489166
 20
2081.058366
 40
5.01841
 50
218.809687
 51
241.31633
  0
ARC
  8
APS_GEOMETR�
 10
-7423.622482
 20
2080.950715
 40
4.847056
 50
195.768949
 51
218.80578
  0
ARC
  8
APS_GEOMETR�
 10
-7882.512779
 20
1951.538366
 40
471.942059
 50
15.748859
 51
34.211574
  0
ARC
  8
APS_GEOMETR�
 10
-7708.576324
 20
1843.907954
 40
212.524056
 50
42.926571
 51
69.931423
  0
ARC
  8
APS_GEOMETR�
 10
-7626.18685
 20
2069.733739
 40
27.861869
 50
220.282099
 51
250.145089
  0
ARC
  8
APS_GEOMETR�
 10
-7635.340745
 20
2061.953985
 40
15.848631
 50
179.422183
 51
220.222522
  0
LINE
  8
APS_GEOMETR�
 10
-7651.188569
 11
-7650.617115
 20
2062.113813
 21
2083.319239
  0
ARC
  8
APS_GEOMETR�
 10
-7683.890475
 20
2084.215474
 40
33.285427
 50
358.457082
 51
7.650925
  0
ARC
  8
APS_GEOMETR�
 10
-7809.981911
 20
2067.194072
 40
160.520552
 50
7.680334
 51
29.085854
  0
ARC
  8
APS_GEOMETR�
 10
-7660.633561
 20
2148.667044
 40
9.70135
 50
180.480404
 51
200.773235
  0
ARC
  8
APS_GEOMETR�
 10
-7660.556205
 20
2148.725117
 40
9.779359
 50
159.014995
 51
180.816835
  0
ARC
  8
APS_GEOMETR�
 10
-7662.402069
 20
2149.479556
 40
7.785862
 50
135.443931
 51
159.334028
  0
ARC
  8
APS_GEOMETR�
 10
-7664.191713
 20
2151.254979
 40
5.264985
 50
108.41517
 51
135.547065
  0
ARC
  8
APS_GEOMETR�
 10
-7664.633789
 20
2152.437555
 40
4.003577
 50
78.77387
 51
107.758812
  0
ARC
  8
APS_GEOMETR�
 10
-7702.170124
 20
1975.072781
 40
185.296507
 50
47.209882
 51
78.066235
  0
ARC
  8
APS_GEOMETR�
 10
-7734.155244
 20
1940.376893
 40
232.485966
 50
20.61409
 51
47.233847
  0
ARC
  8
APS_GEOMETR�
 10
-7703.92952
 20
1946.220841
 40
202.204166
 50
351.376265
 51
22.079725
  0
ARC
  8
APS_GEOMETR�
 10
-7504.691748
 20
1916.60961
 40
0.982089
 50
298.986795
 51
313.848435
  0
ARC
  8
APS_GEOMETR�
 10
-7505.741089
 20
1918.410149
 40
3.065931
 50
281.118056
 51
299.834051
  0
ARC
  8
APS_GEOMETR�
 10
-7506.020547
 20
1919.61695
 40
4.304171
 50
264.787826
 51
281.670555
  0
ARC
  8
APS_GEOMETR�
 10
-7506.105663
 20
1919.045887
 40
3.727881
 50
247.616491
 51
265.293284
  0
ARC
  8
APS_GEOMETR�
 10
-7506.862073
 20
1917.26745
 40
1.795533
 50
227.8559
 51
248.324345
  0
ARC
  8
APS_GEOMETR�
 10
-7721.626866
 20
1834.299045
 40
228.63177
 50
20.920241
 51
42.462373
  0
ARC
  8
APS_GEOMETR�
 10
-6804.742671
 20
3146.474622
 40
933.456406
 50
139.800847
 51
186.614656
  0
ARC
  8
APS_GEOMETR�
 10
-6750.608975
 20
3172.895001
 40
990.47527
 50
187.772178
 51
206.538901
  0
ARC
  8
APS_GEOMETR�
 10
-7174.843647
 20
2961.176747
 40
516.344868
 50
206.554498
 51
222.644652
  0
ARC
  8
APS_GEOMETR�
 10
-8182.418357
 20
2026.804379
 40
857.799193
 50
11.591121
 51
42.959572
  0
ARC
  8
APS_GEOMETR�
 10
-8140.403107
 20
2043.558107
 40
813.313576
 50
329.796288
 51
11.02964
  0
ARC
  8
APS_GEOMETR�
 10
-13452.695623
 20
709.474651
 40
10.721479
 50
2.422213
 51
26.163404
  0
ARC
  8
APS_GEOMETR�
 10
-13452.803289
 20
709.443361
 40
10.830404
 50
338.983027
 51
2.563527
  0
ARC
  8
APS_GEOMETR�
 10
-13452.058264
 20
709.135491
 40
10.024547
 50
314.260314
 51
339.098422
  0
ARC
  8
APS_GEOMETR�
 10
-13451.30598
 20
708.362044
 40
8.945589
 50
287.45242
 51
314.266947
  0
ARC
  8
APS_GEOMETR�
 10
-13451.118644
 20
707.841241
 40
8.392606
 50
259.30811
 51
287.298701
  0
ARC
  8
APS_GEOMETR�
 10
-13451.026523
 20
708.181632
 40
8.744222
 50
231.900456
 51
259.128776
  0
ARC
  8
APS_GEOMETR�
 10
-13131.621729
 20
1112.565529
 40
524.055489
 50
198.879467
 51
231.699772
  0
ARC
  8
APS_GEOMETR�
 10
-13256.343195
 20
1109.707233
 40
406.864981
 50
181.776477
 51
204.189408
  0
ARC
  8
APS_GEOMETR�
 10
-12432.042189
 20
1170.043745
 40
1233.1301
 50
172.732371
 51
183.391483
  0
ARC
  8
APS_GEOMETR�
 10
-14585.941748
 20
1513.685921
 40
949.404805
 50
348.600664
 51
1.176595
  0
ARC
  8
APS_GEOMETR�
 10
-13625.933771
 20
1533.412907
 40
10.805838
 50
157.639844
 51
181.229679
  0
ARC
  8
APS_GEOMETR�
 10
-13626.705262
 20
1533.751209
 40
9.963674
 50
132.839407
 51
157.751221
  0
ARC
  8
APS_GEOMETR�
 10
-13627.431504
 20
1534.533958
 40
8.895908
 50
105.952785
 51
132.837479
  0
ARC
  8
APS_GEOMETR�
 10
-13627.59365
 20
1535.01602
 40
8.387879
 50
77.823396
 51
105.792888
  0
ARC
  8
APS_GEOMETR�
 10
-13627.70361
 20
1534.632851
 40
8.785661
 50
50.538349
 51
77.649492
  0
ARC
  8
APS_GEOMETR�
 10
-13628.36394
 20
1533.836833
 40
9.819909
 50
25.359277
 51
50.515657
  0
LINE
  8
APS_GEOMETR�
 10
-13619.490278
 11
-13499.24832
 20
1538.04263
 21
1286.970546
  0
ARC
  8
APS_GEOMETR�
 10
-13509.043492
 20
1282.328087
 40
10.839641
 50
346.775018
 51
25.358789
  0
ARC
  8
APS_GEOMETR�
 10
-12458.786443
 20
1036.25735
 40
1067.858964
 50
166.814088
 51
175.940632
  0
ARC
  8
APS_GEOMETR�
 10
-12955.465612
 20
1063.65538
 40
570.540079
 50
175.154222
 51
189.363946
  0
ARC
  8
APS_GEOMETR�
 10
-12740.905825
 20
1059.687529
 40
782.558913
 50
186.520173
 51
206.198457
  0
LINE
  8
APS_GEOMETR�
 10
-13979.800421
 11
-13979.800421
 20
-371.799934
 21
1728.200066
  0
LINE
  8
APS_GEOMETR�
 10
-13979.800421
 11
-13229.800421
 20
1728.200066
 21
1728.200066
  0
LINE
  8
APS_GEOMETR�
 10
-13229.800421
 11
-13229.800421
 20
1728.200066
 21
-371.799934
  0
LINE
  8
APS_GEOMETR�
 10
-13229.800421
 11
-13979.800421
 20
-371.799934
 21
-371.799934
  0
ARC
  8
APS_GEOMETR�
 10
-13814.041896
 20
69.967151
 40
293.120295
 50
30.617455
 51
59.8516
  0
ARC
  8
APS_GEOMETR�
 10
-13642.788412
 20
364.718428
 40
47.769845
 50
208.035154
 51
239.790069
  0
ARC
  8
APS_GEOMETR�
 10
-13637.673267
 20
367.624783
 40
53.651043
 50
178.846115
 51
208.207237
  0
LINE
  8
APS_GEOMETR�
 10
-13691.31343
 11
-13690.750482
 20
368.705193
 21
399.926506
  0
ARC
  8
APS_GEOMETR�
 10
-13908.302269
 20
404.042253
 40
217.590715
 50
358.916181
 51
27.03038
  0
ARC
  8
APS_GEOMETR�
 10
-13526.399718
 20
599.380921
 40
211.369602
 50
192.503151
 51
207.149772
  0
LINE
  8
APS_GEOMETR�
 10
-13732.756499
 11
-13735.611072
 20
553.620816
 21
566.438325
  0
ARC
  8
APS_GEOMETR�
 10
-13689.106312
 20
575.563271
 40
47.391533
 50
178.812077
 51
191.101275
  0
ARC
  8
APS_GEOMETR�
 10
-13691.036693
 20
575.89338
 40
45.455648
 50
166.540216
 51
179.17764
  0
ARC
  8
APS_GEOMETR�
 10
-13709.049344
 20
580.513544
 40
26.86402
 50
149.199198
 51
167.18133
  0
ARC
  8
APS_GEOMETR�
 10
-13723.359199
 20
589.35919
 40
10.046719
 50
115.868101
 51
150.742373
  0
ARC
  8
APS_GEOMETR�
 10
-13725.694424
 20
593.545346
 40
5.268324
 50
85.887536
 51
112.878004
  0
ARC
  8
APS_GEOMETR�
 10
-13725.716866
 20
593.462648
 40
5.352445
 50
59.006894
 51
85.711403
  0
ARC
  8
APS_GEOMETR�
 10
-13729.368268
 20
588.0694
 40
11.86118
 50
26.128865
 51
57.301866
  0
ARC
  8
APS_GEOMETR�
 10
-13248.359242
 20
843.974746
 40
532.99144
 50
208.05571
 51
219.334335
  0
ARC
  8
APS_GEOMETR�
 10
-13514.552968
 20
625.689884
 40
188.74248
 50
219.301158
 51
233.882088
  0
ARC
  8
APS_GEOMETR�
 10
-13824.289268
 20
205.957018
 40
332.905568
 50
15.388826
 51
53.400929
  0
ARC
  8
APS_GEOMETR�
 10
-14072.776603
 20
142.947572
 40
589.227486
 50
354.089544
 51
14.884127
  0
ARC
  8
APS_GEOMETR�
 10
-13497.297155
 20
83.353336
 40
10.670618
 50
333.173254
 51
354.186066
  0
ARC
  8
APS_GEOMETR�
 10
-13496.547173
 20
82.961052
 40
9.824324
 50
311.030384
 51
333.240919
  0
ARC
  8
APS_GEOMETR�
 10
-13495.929641
 20
82.253414
 40
8.885125
 50
287.261976
 51
311.021955
  0
ARC
  8
APS_GEOMETR�
 10
-13495.76945
 20
81.790638
 40
8.395673
 50
262.473931
 51
287.155165
  0
ARC
  8
APS_GEOMETR�
 10
-13495.720864
 20
82.008904
 40
8.618444
 50
238.092708
 51
262.343767
  0
ARC
  8
APS_GEOMETR�
 10
-13495.282058
 20
82.698575
 40
9.435842
 50
215.224183
 51
238.044243
  0
ARC
  8
APS_GEOMETR�
 10
-13494.506719
 20
83.255772
 40
10.390598
 50
193.877181
 51
215.268175
  0
ARC
  8
APS_GEOMETR�
 10
-13995.945002
 20
-41.094365
 40
506.236262
 50
13.928672
 51
30.949547
  0
ARC
  8
APS_GEOMETR�
 10
-12730.395386
 20
1171.164305
 40
1016.742991
 50
146.779478
 51
186.098712
  0
ARC
  8
APS_GEOMETR�
 10
-12670.937372
 20
1191.376566
 40
1078.09996
 50
186.831122
 51
203.78235
  0
ARC
  8
APS_GEOMETR�
 10
-13196.675703
 20
959.700687
 40
503.57885
 50
203.783279
 51
219.110938
  0
ARC
  8
APS_GEOMETR�
 10
-14322.212613
 20
44.197694
 40
947.27577
 50
9.997031
 51
39.131923
  0
ARC
  8
APS_GEOMETR�
 10
-14323.891915
 20
45.439399
 40
948.715227
 50
333.909257
 51
9.905573
  0
ARC
  8
APS_GEOMETR�
 10
-13761.800933
 20
-132.411525
 40
187.632796
 50
39.130319
 51
67.226728
  0
ARC
  8
APS_GEOMETR�
 10
-13677.621795
 20
68.283568
 40
30.001479
 50
216.444911
 51
247.359088
  0
ARC
  8
APS_GEOMETR�
 10
-13683.408072
 20
63.939708
 40
22.766437
 50
179.053417
 51
216.301491
  0
LINE
  8
APS_GEOMETR�
 10
-13706.171402
 11
-13705.654213
 20
64.315815
 21
85.967112
  0
ARC
  8
APS_GEOMETR�
 10
-13738.415342
 20
86.750637
 40
32.770496
 50
358.629957
 51
6.785295
  0
ARC
  8
APS_GEOMETR�
 10
-13877.791541
 20
70.382606
 40
173.104487
 50
6.714534
 51
26.216929
  0
ARC
  8
APS_GEOMETR�
 10
-13707.05981
 20
152.436854
 40
16.413128
 50
180.423811
 51
199.881527
  0
ARC
  8
APS_GEOMETR�
 10
-13706.936881
 20
152.523381
 40
16.536915
 50
161.360518
 51
180.720445
  0
ARC
  8
APS_GEOMETR�
 10
-13710.061001
 20
153.652633
 40
13.215931
 50
139.168392
 51
161.670557
  0
ARC
  8
APS_GEOMETR�
 10
-13713.032061
 20
156.257107
 40
9.265063
 50
110.771118
 51
139.341811
  0
ARC
  8
APS_GEOMETR�
 10
-13713.749733
 20
157.951924
 40
7.426218
 50
77.065227
 51
110.231157
  0
ARC
  8
APS_GEOMETR�
 10
-13751.839671
 20
3.688201
 40
166.321906
 50
43.282611
 51
76.172012
  0
ARC
  8
APS_GEOMETR�
 10
-13809.240266
 20
-51.34168
 40
245.837803
 50
18.171518
 51
43.447387
  0
ARC
  8
APS_GEOMETR�
 10
-13798.057112
 20
-53.946841
 40
236.100147
 50
352.251275
 51
19.618709
  0
ARC
  8
APS_GEOMETR�
 10
-13568.690812
 20
-85.129881
 40
4.623918
 50
325.678761
 51
351.917969
  0
ARC
  8
APS_GEOMETR�
 10
-13569.53974
 20
-84.542516
 40
5.656217
 50
302.693164
 51
325.613474
  0
ARC
  8
APS_GEOMETR�
 10
-13570.240489
 20
-83.480296
 40
6.928676
 50
282.823209
 51
302.825351
  0
ARC
  8
APS_GEOMETR�
 10
-13570.422811
 20
-82.783758
 40
7.648342
 50
264.278861
 51
282.996878
  0
ARC
  8
APS_GEOMETR�
 10
-13570.478191
 20
-83.112502
 40
7.315749
 50
245.168447
 51
264.453767
  0
ARC
  8
APS_GEOMETR�
 10
-13570.976685
 20
-84.148858
 40
6.165888
 50
223.697272
 51
245.328153
  0
ARC
  8
APS_GEOMETR�
 10
-13571.855158
 20
-84.98398
 40
4.953811
 50
198.679651
 51
223.733112
  0
ARC
  8
APS_GEOMETR�
 10
-13799.026046
 20
-161.141274
 40
234.642838
 50
18.530242
 51
38.835776
  0
ARC
  8
APS_GEOMETR�
 10
-13451.907589
 20
709.461595
 40
5.360739
 50
2.422213
 51
26.163404
  0
ARC
  8
APS_GEOMETR�
 10
-13451.961422
 20
709.44595
 40
5.415202
 50
338.983027
 51
2.563527
  0
ARC
  8
APS_GEOMETR�
 10
-13451.58891
 20
709.292015
 40
5.012273
 50
314.260314
 51
339.098422
  0
ARC
  8
APS_GEOMETR�
 10
-13451.212768
 20
708.905292
 40
4.472795
 50
287.45242
 51
314.266947
  0
ARC
  8
APS_GEOMETR�
 10
-13451.1191
 20
708.64489
 40
4.196303
 50
259.30811
 51
287.298701
  0
ARC
  8
APS_GEOMETR�
 10
-13451.07304
 20
708.815086
 40
4.372111
 50
231.900456
 51
259.128776
  0
ARC
  8
APS_GEOMETR�
 10
-13132.027138
 20
1112.760561
 40
519.116908
 50
198.854969
 51
231.699177
  0
ARC
  8
APS_GEOMETR�
 10
-13257.160857
 20
1109.715437
 40
401.474463
 50
181.765856
 51
204.222878
  0
ARC
  8
APS_GEOMETR�
 10
-12432.92833
 20
1170.043767
 40
1227.670779
 50
172.741529
 51
183.394909
  0
ARC
  8
APS_GEOMETR�
 10
-14586.825524
 20
1513.685756
 40
954.861758
 50
348.612504
 51
1.176569
  0
ARC
  8
APS_GEOMETR�
 10
-13626.763411
 20
1533.408418
 40
5.402919
 50
157.639844
 51
181.229679
  0
ARC
  8
APS_GEOMETR�
 10
-13627.149157
 20
1533.577569
 40
4.981837
 50
132.839407
 51
157.751221
  0
ARC
  8
APS_GEOMETR�
 10
-13627.512278
 20
1533.968943
 40
4.447954
 50
105.952785
 51
132.837479
  0
ARC
  8
APS_GEOMETR�
 10
-13627.59335
 20
1534.209974
 40
4.193939
 50
77.823396
 51
105.792888
  0
ARC
  8
APS_GEOMETR�
 10
-13627.648331
 20
1534.01839
 40
4.392831
 50
50.538349
 51
77.649492
  0
ARC
  8
APS_GEOMETR�
 10
-13627.978496
 20
1533.620381
 40
4.909954
 50
25.359277
 51
50.515657
  0
LINE
  8
APS_GEOMETR�
 10
-13623.541665
 11
-13503.299706
 20
1535.72328
 21
1284.651195
  0
ARC
  8
APS_GEOMETR�
 10
-13508.197293
 20
1282.329966
 40
5.419821
 50
346.775018
 51
25.358789
  0
ARC
  8
APS_GEOMETR�
 10
-12457.93165
 20
1036.26093
 40
1073.286763
 50
166.814083
 51
175.938669
  0
ARC
  8
APS_GEOMETR�
 10
-12954.576579
 20
1063.655443
 40
576.002285
 50
175.157915
 51
189.350785
  0
ARC
  8
APS_GEOMETR�
 10
-12740.150509
 20
1059.663238
 40
787.885334
 50
186.529615
 51
206.198536
  0
ARC
  8
APS_GEOMETR�
 10
-13814.302918
 20
70.289922
 40
297.868054
 50
30.618282
 51
59.851619
  0
ARC
  8
APS_GEOMETR�
 10
-13643.068632
 20
365.018555
 40
42.99286
 50
208.035154
 51
239.790069
  0
ARC
  8
APS_GEOMETR�
 10
-13638.465001
 20
367.634275
 40
48.285939
 50
178.846115
 51
208.207237
  0
LINE
  8
APS_GEOMETR�
 10
-13686.741148
 11
-13686.178152
 20
368.606644
 21
399.830607
  0
ARC
  8
APS_GEOMETR�
 10
-13909.10198
 20
404.050626
 40
222.963767
 50
358.915502
 51
27.030374
  0
ARC
  8
APS_GEOMETR�
 10
-13527.115292
 20
599.419831
 40
206.085362
 50
192.503151
 51
207.149772
  0
LINE
  8
APS_GEOMETR�
 10
-13728.313155
 11
-13731.152536
 20
554.803729
 21
567.553026
  0
ARC
  8
APS_GEOMETR�
 10
-13689.982535
 20
575.563827
 40
41.942126
 50
178.789821
 51
191.010947
  0
ARC
  8
APS_GEOMETR�
 10
-13691.903071
 20
575.891756
 40
40.016124
 50
166.50031
 51
179.201177
  0
ARC
  8
APS_GEOMETR�
 10
-13709.734272
 20
580.464134
 40
21.612061
 50
149.042191
 51
167.252002
  0
ARC
  8
APS_GEOMETR�
 10
-13723.578246
 20
589.002321
 40
5.351867
 50
117.293991
 51
151.188745
  0
ARC
  8
APS_GEOMETR�
 10
-13725.695671
 20
592.76461
 40
1.049223
 50
61.102438
 51
108.718029
  0
ARC
  8
APS_GEOMETR�
 10
-13729.065806
 20
587.79022
 40
7.054042
 50
25.655133
 51
56.657846
  0
ARC
  8
APS_GEOMETR�
 10
-13247.88135
 20
843.814856
 40
538.00899
 50
208.047127
 51
219.334264
  0
ARC
  8
APS_GEOMETR�
 10
-13514.305025
 20
625.338888
 40
193.461042
 50
219.301158
 51
233.882088
  0
ARC
  8
APS_GEOMETR�
 10
-13823.847445
 20
205.798695
 40
327.916896
 50
15.396117
 51
53.40113
  0
ARC
  8
APS_GEOMETR�
 10
-14071.902979
 20
142.947731
 40
583.780618
 50
354.089559
 51
14.879763
  0
ARC
  8
APS_GEOMETR�
 10
-13496.533563
 20
83.37408
 40
5.335309
 50
333.173254
 51
354.186066
  0
ARC
  8
APS_GEOMETR�
 10
-13496.158572
 20
83.177938
 40
4.912162
 50
311.030384
 51
333.240919
  0
ARC
  8
APS_GEOMETR�
 10
-13495.849806
 20
82.824119
 40
4.442562
 50
287.261976
 51
311.021955
  0
ARC
  8
APS_GEOMETR�
 10
-13495.769711
 20
82.592731
 40
4.197836
 50
262.473931
 51
287.155165
  0
ARC
  8
APS_GEOMETR�
 10
-13495.745418
 20
82.701864
 40
4.309222
 50
238.092708
 51
262.343767
  0
ARC
  8
APS_GEOMETR�
 10
-13495.526015
 20
83.0467
 40
4.717921
 50
215.224183
 51
238.044243
  0
ARC
  8
APS_GEOMETR�
 10
-13495.138346
 20
83.325298
 40
5.195299
 50
193.877181
 51
215.268175
  0
ARC
  8
APS_GEOMETR�
 10
-13996.616825
 20
-41.039667
 40
511.474143
 50
13.928677
 51
30.949034
  0
ARC
  8
APS_GEOMETR�
 10
-13761.955542
 20
-131.963249
 40
192.217623
 50
39.124983
 51
67.229013
  0
ARC
  8
APS_GEOMETR�
 10
-13677.790539
 20
68.709643
 40
25.390717
 50
216.453164
 51
247.375842
  0
ARC
  8
APS_GEOMETR�
 10
-13684.136616
 20
63.959989
 40
17.464286
 50
179.148941
 51
216.290013
  0
LINE
  8
APS_GEOMETR�
 10
-13701.598975
 11
-13701.082601
 20
64.21939
 21
85.836573
  0
ARC
  8
APS_GEOMETR�
 10
-13739.303918
 20
86.750686
 40
38.232246
 50
358.629957
 51
6.785295
  0
ARC
  8
APS_GEOMETR�
 10
-13878.58106
 20
70.398033
 40
178.466056
 50
6.715514
 51
26.111953
  0
ARC
  8
APS_GEOMETR�
 10
-13707.881761
 20
152.443077
 40
11.018058
 50
180.378219
 51
198.507243
  0
ARC
  8
APS_GEOMETR�
 10
-13707.784714
 20
152.520515
 40
11.115879
 50
161.309356
 51
180.774055
  0
ARC
  8
APS_GEOMETR�
 10
-13710.600588
 20
153.536891
 40
8.123025
 50
139.147828
 51
161.735426
  0
ARC
  8
APS_GEOMETR�
 10
-13713.164592
 20
155.778308
 40
4.717517
 50
110.954551
 51
139.369696
  0
ARC
  8
APS_GEOMETR�
 10
-13713.74898
 20
157.153405
 40
3.224821
 50
77.372045
 51
109.99566
  0
ARC
  8
APS_GEOMETR�
 10
-13751.755862
 20
3.138227
 40
161.859513
 50
43.282229
 51
76.16246
  0
ARC
  8
APS_GEOMETR�
 10
-13808.730531
 20
-51.472981
 40
240.778284
 50
18.15724
 51
43.447553
  0
ARC
  8
APS_GEOMETR�
 10
-13797.189045
 20
-53.945787
 40
230.658758
 50
352.304694
 51
19.634468
  0
ARC
  8
APS_GEOMETR�
 10
-13569.272439
 20
-84.221122
 40
0.903004
 50
302.123194
 51
317.416903
  0
ARC
  8
APS_GEOMETR�
 10
-13570.201219
 20
-82.820875
 40
2.583095
 50
282.632458
 51
303.055292
  0
ARC
  8
APS_GEOMETR�
 10
-13570.422918
 20
-81.975087
 40
3.457035
 50
264.131701
 51
283.152254
  0
ARC
  8
APS_GEOMETR�
 10
-13570.489401
 20
-82.369998
 40
3.057505
 50
244.975805
 51
264.614399
  0
ARC
  8
APS_GEOMETR�
 10
-13571.119778
 20
-83.676526
 40
1.607079
 50
224.188269
 51
245.636821
  0
ARC
  8
APS_GEOMETR�
 10
-13799.577945
 20
-161.030721
 40
239.748946
 50
18.54047
 51
38.84046
  0
LINE
  8
APS_GEOMETR�
 10
-13859.800421
 11
-13859.800421
 20
-371.799934
 21
1728.200066
  0
ARC
  8
APS_GEOMETR�
 10
-12735.82764
 20
1171.136568
 40
1044.706364
 50
147.776388
 51
186.105514
  0
ARC
  8
APS_GEOMETR�
 10
-12676.380172
 20
1191.458763
 40
1106.065238
 50
186.824749
 51
203.782168
  0
ARC
  8
APS_GEOMETR�
 10
-13200.656487
 20
960.435894
 40
533.145331
 50
203.783708
 51
219.106079
  0
ARC
  8
APS_GEOMETR�
 10
-14326.836639
 20
44.535596
 40
918.459013
 50
9.993726
 51
39.129319
  0
ARC
  8
APS_GEOMETR�
 10
-14329.565579
 20
45.441644
 40
920.990323
 50
333.061375
 51
9.908753
  0
ARC
  8
APS_GEOMETR�
 10
-7373.448129
 20
2695.04292
 40
9.579142
 50
2.87264
 51
29.197974
  0
ARC
  8
APS_GEOMETR�
 10
-7373.411405
 20
2695.054843
 40
9.541872
 50
336.418086
 51
2.812184
  0
ARC
  8
APS_GEOMETR�
 10
-7373.66626
 20
2695.173049
 40
9.822736
 50
310.494801
 51
336.380889
  0
ARC
  8
APS_GEOMETR�
 10
-7373.926134
 20
2695.472924
 40
10.219537
 50
285.305233
 51
310.511018
  0
ARC
  8
APS_GEOMETR�
 10
-7373.991657
 20
2695.677108
 40
10.433779
 50
260.501368
 51
285.356318
  0
ARC
  8
APS_GEOMETR�
 10
-7374.023979
 20
2695.543441
 40
10.296615
 50
235.477708
 51
260.556013
  0
ARC
  8
APS_GEOMETR�
 10
-7085.942886
 20
3115.866866
 40
519.867497
 50
201.640601
 51
235.572148
  0
ARC
  8
APS_GEOMETR�
 10
-7246.818755
 20
3088.688481
 40
361.914764
 50
182.117697
 51
207.041623
  0
ARC
  8
APS_GEOMETR�
 10
-6537.513161
 20
3146.886203
 40
1073.362011
 50
171.804264
 51
183.823295
  0
ARC
  8
APS_GEOMETR�
 10
-8408.061735
 20
3484.082993
 40
828.871694
 50
347.161145
 51
1.314335
  0
ARC
  8
APS_GEOMETR�
 10
-7569.860282
 20
3503.310472
 40
9.55026
 50
154.942793
 51
181.291536
  0
ARC
  8
APS_GEOMETR�
 10
-7571.3934
 20
3474.134257
 40
33.975039
 50
77.568811
 51
102.094005
  0
ARC
  8
APS_GEOMETR�
 10
-7570.778047
 20
3476.374461
 40
31.655114
 50
52.063381
 51
77.78363
  0
ARC
  8
APS_GEOMETR�
 10
-7567.850467
 20
3480.061625
 40
26.947267
 50
23.488152
 51
52.152954
  0
ARC
  8
APS_GEOMETR�
 10
-7516.022053
 20
3502.574584
 40
29.559528
 50
203.470491
 51
231.53567
  0
ARC
  8
APS_GEOMETR�
 10
-7381.354405
 20
3671.018946
 40
245.218576
 50
231.379782
 51
252.978932
  0
ARC
  8
APS_GEOMETR�
 10
-7374.86404
 20
3690.350962
 40
265.60424
 50
252.860904
 51
273.333384
  0
ARC
  8
APS_GEOMETR�
 10
-7357.252294
 20
3388.220654
 40
37.038946
 50
70.05571
 51
93.355611
  0
ARC
  8
APS_GEOMETR�
 10
-7355.932497
 20
3391.57599
 40
33.434795
 50
45.260858
 51
70.220418
  0
ARC
  8
APS_GEOMETR�
 10
-7352.510311
 20
3395.012741
 40
28.584799
 50
17.550242
 51
45.284474
  0
ARC
  8
APS_GEOMETR�
 10
-7350.262697
 20
3395.833108
 40
26.194638
 50
347.908776
 51
17.321819
  0
ARC
  8
APS_GEOMETR�
 10
-7351.901714
 20
3396.314612
 40
27.898446
 50
319.455373
 51
347.646927
  0
ARC
  8
APS_GEOMETR�
 10
-6924.220557
 20
3031.26461
 40
534.393912
 50
139.520609
 51
164.343158
  0
ARC
  8
APS_GEOMETR�
 10
-6959.103841
 20
3042.563512
 40
497.757825
 50
164.511852
 51
190.547186
  0
ARC
  8
APS_GEOMETR�
 10
-6750.656333
 20
3042.864411
 40
703.757673
 50
187.4634
 51
209.18261
  0
ARC
  8
APS_GEOMETR�
 10
-7373.421894
 20
2695.042394
 40
5.528686
 50
2.897575
 51
29.203418
  0
ARC
  8
APS_GEOMETR�
 10
-7373.383257
 20
2695.054948
 40
5.489475
 50
336.433468
 51
2.787096
  0
ARC
  8
APS_GEOMETR�
 10
-7373.651083
 20
2695.179187
 40
5.784639
 50
310.488647
 51
336.366152
  0
ARC
  8
APS_GEOMETR�
 10
-7373.923253
 20
2695.493288
 40
6.200244
 50
285.286926
 51
310.516829
  0
ARC
  8
APS_GEOMETR�
 10
-7373.991671
 20
2695.706537
 40
6.423994
 50
260.482372
 51
285.374095
  0
ARC
  8
APS_GEOMETR�
 10
-7374.025402
 20
2695.566994
 40
6.280802
 50
235.448203
 51
260.575356
  0
ARC
  8
APS_GEOMETR�
 10
-7085.955917
 20
3115.874469
 40
515.831964
 50
201.619467
 51
235.572586
  0
ARC
  8
APS_GEOMETR�
 10
-7246.846026
 20
3088.688816
 40
357.863265
 50
182.108069
 51
207.072111
  0
ARC
  8
APS_GEOMETR�
 10
-6537.542899
 20
3146.886204
 40
1069.308031
 50
171.813051
 51
183.826527
  0
ARC
  8
APS_GEOMETR�
 10
-8408.091387
 20
3484.082986
 40
832.925588
 50
347.172474
 51
1.314263
  0
ARC
  8
APS_GEOMETR�
 10
-7569.884985
 20
3503.310042
 40
5.501304
 50
174.829154
 51
181.280113
  0
ARC
  8
APS_GEOMETR�
 10
-7571.393354
 20
3474.104954
 40
29.965122
 50
77.553965
 51
97.614406
  0
ARC
  8
APS_GEOMETR�
 10
-7570.775936
 20
3476.352551
 40
27.637534
 50
52.056509
 51
77.799643
  0
ARC
  8
APS_GEOMETR�
 10
-7567.836105
 20
3480.054974
 40
22.910121
 50
23.489633
 51
52.16115
  0
ARC
  8
APS_GEOMETR�
 10
-7516.007478
 20
3502.56807
 40
33.596924
 50
203.471674
 51
231.525689
  0
ARC
  8
APS_GEOMETR�
 10
-7381.351508
 20
3670.998438
 40
249.237749
 50
231.381052
 51
252.977953
  0
ARC
  8
APS_GEOMETR�
 10
-7374.864017
 20
3690.321938
 40
269.614429
 50
252.861809
 51
273.333559
  0
ARC
  8
APS_GEOMETR�
 10
-7357.25225
 20
3388.191975
 40
33.028414
 50
70.045357
 51
93.35695
  0
ARC
  8
APS_GEOMETR�
 10
-7355.92815
 20
3391.558165
 40
29.412592
 50
45.25908
 51
70.231984
  0
ARC
  8
APS_GEOMETR�
 10
-7352.492069
 20
3395.00872
 40
24.543011
 50
17.569732
 51
45.286591
  0
ARC
  8
APS_GEOMETR�
 10
-7350.233291
 20
3395.833128
 40
22.140989
 50
347.933464
 51
17.300343
  0
ARC
  8
APS_GEOMETR�
 10
-7351.8806
 20
3396.317055
 40
23.853413
 50
319.449875
 51
347.623918
  0
ARC
  8
APS_GEOMETR�
 10
-6924.200302
 20
3031.26758
 40
538.43795
 50
139.520346
 51
164.343812
  0
ARC
  8
APS_GEOMETR�
 10
-6959.074323
 20
3042.563497
 40
501.811587
 50
164.511148
 51
190.534737
  0
ARC
  8
APS_GEOMETR�
 10
-6750.631264
 20
3042.863433
 40
707.80689
 50
187.47221
 51
209.18267
  0
LINE
  8
APS_GEOMETR�
 10
-6299.064835
 11
-7129.064835
 20
1634.399618
 21
1634.399618
  0
LINE
  8
APS_GEOMETR�
 10
-7129.064835
 11
-7129.064835
 20
1634.399618
 21
3694.399618
  0
LINE
  8
APS_GEOMETR�
 10
-7129.064835
 11
-6299.064835
 20
3694.399618
 21
3694.399618
  0
LINE
  8
APS_GEOMETR�
 10
-6299.064835
 11
-6299.064835
 20
3694.399618
 21
1634.399618
  0
ARC
  8
APS_GEOMETR�
 10
-6375.385287
 20
1951.559464
 40
467.109612
 50
145.787877
 51
164.251139
  0
ARC
  8
APS_GEOMETR�
 10
-6834.289178
 20
2080.97743
 40
9.694113
 50
321.19422
 51
344.231051
  0
ARC
  8
APS_GEOMETR�
 10
-6834.555811
 20
2081.192731
 40
10.036819
 50
298.68367
 51
321.190313
  0
ARC
  8
APS_GEOMETR�
 10
-6834.708019
 20
2081.461425
 40
10.345596
 50
276.656238
 51
298.708944
  0
ARC
  8
APS_GEOMETR�
 10
-6834.725023
 20
2081.546991
 40
10.43256
 50
254.765915
 51
276.694525
  0
ARC
  8
APS_GEOMETR�
 10
-6834.780877
 20
2081.36588
 40
10.243138
 50
232.600184
 51
254.801164
  0
ARC
  8
APS_GEOMETR�
 10
-6834.994323
 20
2081.091109
 40
9.895214
 50
209.893494
 51
232.615681
  0
ARC
  8
APS_GEOMETR�
 10
-6835.251572
 20
2080.939913
 40
9.596838
 50
186.683569
 51
209.87636
  0
ARC
  8
APS_GEOMETR�
 10
-6333.480882
 20
2139.368201
 40
514.757889
 50
163.239309
 51
186.642627
  0
ARC
  8
APS_GEOMETR�
 10
-6513.7533
 20
2186.474574
 40
328.631627
 50
122.601472
 51
162.039566
  0
ARC
  8
APS_GEOMETR�
 10
-6799.537085
 20
2632.101213
 40
200.760643
 50
302.78841
 51
317.169569
  0
ARC
  8
APS_GEOMETR�
 10
-7035.982814
 20
2851.171744
 40
523.09351
 50
317.178726
 51
328.917048
  0
ARC
  8
APS_GEOMETR�
 10
-6577.341282
 20
2575.089719
 40
12.236679
 50
119.144892
 51
150.529873
  0
ARC
  8
APS_GEOMETR�
 10
-6580.280771
 20
2580.055392
 40
6.46983
 50
93.658319
 51
117.825769
  0
ARC
  8
APS_GEOMETR�
 10
-6580.272869
 20
2580.022908
 40
6.502754
 50
69.624835
 51
93.709537
  0
ARC
  8
APS_GEOMETR�
 10
-6582.128386
 20
2576.260279
 40
10.684627
 50
32.923852
 51
67.321558
  0
ARC
  8
APS_GEOMETR�
 10
-6593.633938
 20
2568.22167
 40
24.716428
 50
14.524699
 51
34.069116
  0
ARC
  8
APS_GEOMETR�
 10
-6608.131709
 20
2564.022862
 40
39.806202
 50
0.948212
 51
15.141638
  0
ARC
  8
APS_GEOMETR�
 10
-6609.685294
 20
2563.722841
 40
41.365448
 50
347.495678
 51
1.32811
  0
LINE
  8
APS_GEOMETR�
 10
-6569.301047
 11
-6572.460108
 20
2554.766673
 21
2542.193307
  0
ARC
  8
APS_GEOMETR�
 10
-6759.290114
 20
2589.209807
 40
192.655138
 50
329.85737
 51
345.874604
  0
ARC
  8
APS_GEOMETR�
 10
-6425.187246
 20
2395.001121
 40
193.792492
 50
149.805271
 51
181.056914
  0
LINE
  8
APS_GEOMETR�
 10
-6618.946767
 11
-6618.323771
 20
2391.426507
 21
2360.799886
  0
ARC
  8
APS_GEOMETR�
 10
-6666.193671
 20
2359.868855
 40
47.878952
 50
328.516975
 51
1.114216
  0
ARC
  8
APS_GEOMETR�
 10
-6667.944337
 20
2360.982927
 40
49.953744
 50
296.795812
 51
328.475917
  0
ARC
  8
APS_GEOMETR�
 10
-6505.991244
 20
2040.590232
 40
309.045261
 50
116.819061
 51
145.823239
  0
ARC
  8
APS_GEOMETR�
 10
-7467.053447
 20
3146.328718
 40
910.139116
 50
353.418451
 51
41.387251
  0
ARC
  8
APS_GEOMETR�
 10
-7519.470083
 20
3172.691165
 40
965.442849
 50
333.460966
 51
352.220698
  0
ARC
  8
APS_GEOMETR�
 10
-7092.02435
 20
2959.354391
 40
487.716566
 50
317.350316
 51
333.445882
  0
ARC
  8
APS_GEOMETR�
 10
-6085.858835
 20
2025.964844
 40
884.725756
 50
137.03778
 51
168.405162
  0
ARC
  8
APS_GEOMETR�
 10
-6131.154234
 20
2043.524959
 40
836.864462
 50
168.95959
 51
209.266919
  0
ARC
  8
APS_GEOMETR�
 10
-6536.312224
 20
1834.341622
 40
223.753219
 50
137.5423
 51
159.090915
  0
ARC
  8
APS_GEOMETR�
 10
-6749.801105
 20
1915.928545
 40
4.794266
 50
312.486387
 51
338.815671
  0
ARC
  8
APS_GEOMETR�
 10
-6751.217876
 20
1917.450178
 40
6.873305
 50
291.954682
 51
312.628491
  0
ARC
  8
APS_GEOMETR�
 10
-6752.020108
 20
1919.334103
 40
8.920629
 50
274.851727
 51
292.209701
  0
ARC
  8
APS_GEOMETR�
 10
-6752.109088
 20
1919.931021
 40
9.523011
 50
258.4675
 51
275.081408
  0
ARC
  8
APS_GEOMETR�
 10
-6752.402234
 20
1918.665907
 40
8.224903
 50
240.377337
 51
258.706452
  0
ARC
  8
APS_GEOMETR�
 10
-6753.530763
 20
1916.733499
 40
5.987301
 50
217.945532
 51
240.624882
  0
ARC
  8
APS_GEOMETR�
 10
-6754.901448
 20
1915.66195
 40
4.247478
 50
189.353985
 51
217.916279
  0
ARC
  8
APS_GEOMETR�
 10
-6554.499053
 20
1946.221254
 40
206.966176
 50
157.937569
 51
188.684258
  0
ARC
  8
APS_GEOMETR�
 10
-6524.150822
 20
1940.326516
 40
237.380559
 50
132.766685
 51
159.370521
  0
ARC
  8
APS_GEOMETR�
 10
-6555.989144
 20
1974.860626
 40
190.409543
 50
101.925058
 51
132.789512
  0
ARC
  8
APS_GEOMETR�
 10
-6593.496139
 20
2152.127449
 40
9.218472
 50
72.031452
 51
101.499141
  0
ARC
  8
APS_GEOMETR�
 10
-6593.891559
 20
2151.070265
 40
10.346198
 50
44.484794
 51
71.754574
  0
ARC
  8
APS_GEOMETR�
 10
-6595.541109
 20
2149.435069
 40
12.668866
 50
20.735566
 51
44.533346
  0
ARC
  8
APS_GEOMETR�
 10
-6597.281493
 20
2148.724019
 40
14.548349
 50
359.243163
 51
20.927751
  0
ARC
  8
APS_GEOMETR�
 10
-6597.212966
 20
2148.669424
 40
14.479206
 50
337.701476
 51
359.4556
  0
ARC
  8
APS_GEOMETR�
 10
-6447.875826
 20
2067.200032
 40
155.731023
 50
150.799735
 51
172.319264
  0
ARC
  8
APS_GEOMETR�
 10
-6573.933282
 20
2084.215493
 40
28.530366
 50
172.349075
 51
181.542918
  0
LINE
  8
APS_GEOMETR�
 10
-6602.453305
 11
-6601.880949
 20
2083.447292
 21
2062.208401
  0
ARC
  8
APS_GEOMETR�
 10
-6622.537028
 20
2061.961476
 40
20.657554
 50
319.762894
 51
0.684887
  0
ARC
  8
APS_GEOMETR�
 10
-6631.883673
 20
2069.89771
 40
32.91901
 50
289.870358
 51
319.726589
  0
ARC
  8
APS_GEOMETR�
 10
-6549.499279
 20
1844.080798
 40
207.45684
 50
110.070857
 51
137.068219
  0
ARC
  8
APS_GEOMETR�
 10
-6375.616892
 20
1951.538366
 40
471.942059
 50
145.788426
 51
164.251141
  0
ARC
  8
APS_GEOMETR�
 10
-6834.507188
 20
2080.950715
 40
4.847056
 50
321.19422
 51
344.231051
  0
ARC
  8
APS_GEOMETR�
 10
-6834.640505
 20
2081.058366
 40
5.01841
 50
298.68367
 51
321.190313
  0
ARC
  8
APS_GEOMETR�
 10
-6834.716609
 20
2081.192712
 40
5.172798
 50
276.656238
 51
298.708944
  0
ARC
  8
APS_GEOMETR�
 10
-6834.725111
 20
2081.235496
 40
5.21628
 50
254.765915
 51
276.694525
  0
ARC
  8
APS_GEOMETR�
 10
-6834.753038
 20
2081.14494
 40
5.121569
 50
232.600184
 51
254.801164
  0
ARC
  8
APS_GEOMETR�
 10
-6834.859761
 20
2081.007555
 40
4.947607
 50
209.893494
 51
232.615681
  0
ARC
  8
APS_GEOMETR�
 10
-6834.988385
 20
2080.931957
 40
4.798419
 50
186.683569
 51
209.87636
  0
ARC
  8
APS_GEOMETR�
 10
-6333.180087
 20
2139.368136
 40
509.99774
 50
163.2442
 51
186.642634
  0
ARC
  8
APS_GEOMETR�
 10
-6513.598892
 20
2186.534304
 40
323.71392
 50
122.601555
 51
162.031708
  0
ARC
  8
APS_GEOMETR�
 10
-6799.451436
 20
2632.237193
 40
205.779659
 50
302.78841
 51
317.169569
  0
ARC
  8
APS_GEOMETR�
 10
-7035.818059
 20
2851.233673
 40
528.004171
 50
317.178698
 51
328.926083
  0
ARC
  8
APS_GEOMETR�
 10
-6577.235676
 20
2575.196623
 40
7.252296
 50
119.757484
 51
151.04373
  0
ARC
  8
APS_GEOMETR�
 10
-6580.279522
 20
2580.348874
 40
1.271561
 50
94.401285
 51
115.913258
  0
ARC
  8
APS_GEOMETR�
 10
-6580.273993
 20
2580.3197
 40
1.301076
 50
73.362216
 51
94.545462
  0
ARC
  8
APS_GEOMETR�
 10
-6582.20549
 20
2576.396789
 40
5.659718
 50
32.418406
 51
65.977768
  0
ARC
  8
APS_GEOMETR�
 10
-6593.870042
 20
2568.240725
 40
19.888899
 50
14.449323
 51
34.23835
  0
ARC
  8
APS_GEOMETR�
 10
-6608.430001
 20
2564.02349
 40
35.043507
 50
0.921866
 51
15.186373
  0
ARC
  8
APS_GEOMETR�
 10
-6609.986968
 20
2563.722627
 40
36.606152
 50
347.597033
 51
1.353511
  0
LINE
  8
APS_GEOMETR�
 10
-6574.235161
 11
-6577.37741
 20
2555.860141
 21
2543.353688
  0
ARC
  8
APS_GEOMETR�
 10
-6759.536665
 20
2589.194776
 40
187.83876
 50
329.85737
 51
345.874604
  0
ARC
  8
APS_GEOMETR�
 10
-6425.462931
 20
2394.997965
 40
198.577715
 50
149.805268
 51
181.057678
  0
LINE
  8
APS_GEOMETR�
 10
-6624.006812
 11
-6623.383764
 20
2391.332435
 21
2360.703214
  0
ARC
  8
APS_GEOMETR�
 10
-6666.466673
 20
2359.865286
 40
43.091057
 50
328.516975
 51
1.114216
  0
ARC
  8
APS_GEOMETR�
 10
-6668.042273
 20
2360.867951
 40
44.958369
 50
296.795812
 51
328.475917
  0
ARC
  8
APS_GEOMETR�
 10
-6506.082304
 20
2040.466235
 40
314.051788
 50
116.819069
 51
145.822392
  0
ARC
  8
APS_GEOMETR�
 10
-6536.502804
 20
1834.299045
 40
228.63177
 50
137.537627
 51
159.079759
  0
ARC
  8
APS_GEOMETR�
 10
-6751.267598
 20
1917.26745
 40
1.795533
 50
291.675655
 51
312.1441
  0
ARC
  8
APS_GEOMETR�
 10
-6752.024008
 20
1919.045887
 40
3.727881
 50
274.706716
 51
292.383509
  0
ARC
  8
APS_GEOMETR�
 10
-6752.109124
 20
1919.61695
 40
4.304171
 50
258.329445
 51
275.212174
  0
ARC
  8
APS_GEOMETR�
 10
-6752.388582
 20
1918.410149
 40
3.065931
 50
240.165949
 51
258.881944
  0
ARC
  8
APS_GEOMETR�
 10
-6753.437922
 20
1916.60961
 40
0.982089
 50
226.151565
 51
241.013205
  0
ARC
  8
APS_GEOMETR�
 10
-6554.200151
 20
1946.220841
 40
202.204166
 50
157.920275
 51
188.623735
  0
ARC
  8
APS_GEOMETR�
 10
-6523.974426
 20
1940.376893
 40
232.485966
 50
132.766153
 51
159.38591
  0
ARC
  8
APS_GEOMETR�
 10
-6555.959546
 20
1975.072781
 40
185.296507
 50
101.933765
 51
132.790118
  0
ARC
  8
APS_GEOMETR�
 10
-6593.495882
 20
2152.437555
 40
4.003577
 50
72.241188
 51
101.22613
  0
ARC
  8
APS_GEOMETR�
 10
-6593.937958
 20
2151.254979
 40
5.264985
 50
44.452935
 51
71.58483
  0
ARC
  8
APS_GEOMETR�
 10
-6595.727601
 20
2149.479556
 40
7.785862
 50
20.665972
 51
44.556069
  0
ARC
  8
APS_GEOMETR�
 10
-6597.573465
 20
2148.725117
 40
9.779359
 50
359.183165
 51
20.985005
  0
ARC
  8
APS_GEOMETR�
 10
-6597.496109
 20
2148.667044
 40
9.70135
 50
339.226765
 51
359.519596
  0
ARC
  8
APS_GEOMETR�
 10
-6448.14776
 20
2067.194072
 40
160.520552
 50
150.914146
 51
172.319666
  0
ARC
  8
APS_GEOMETR�
 10
-6574.239196
 20
2084.215474
 40
33.285427
 50
172.349075
 51
181.542918
  0
LINE
  8
APS_GEOMETR�
 10
-6607.512555
 11
-6606.941101
 20
2083.319239
 21
2062.113813
  0
ARC
  8
APS_GEOMETR�
 10
-6622.788926
 20
2061.953985
 40
15.848631
 50
319.777478
 51
0.577817
  0
ARC
  8
APS_GEOMETR�
 10
-6631.942821
 20
2069.733739
 40
27.861869
 50
289.854911
 51
319.717901
  0
ARC
  8
APS_GEOMETR�
 10
-6549.553347
 20
1843.907954
 40
212.524056
 50
110.068577
 51
137.073429
  0
ARC
  8
APS_GEOMETR�
 10
-7453.386999
 20
3146.474622
 40
933.456406
 50
353.385344
 51
40.199153
  0
ARC
  8
APS_GEOMETR�
 10
-7507.520696
 20
3172.895001
 40
990.47527
 50
333.461099
 51
352.227822
  0
ARC
  8
APS_GEOMETR�
 10
-7083.286024
 20
2961.176747
 40
516.344868
 50
317.355348
 51
333.445502
  0
ARC
  8
APS_GEOMETR�
 10
-6075.711314
 20
2026.804379
 40
857.799193
 50
137.040428
 51
168.408879
  0
ARC
  8
APS_GEOMETR�
 10
-6117.726564
 20
2043.558107
 40
813.313576
 50
168.97036
 51
210.203712
  0
ARC
  8
APS_GEOMETR�
 10
-7507.473338
 20
3042.864411
 40
703.757673
 50
330.81739
 51
352.5366
  0
ARC
  8
APS_GEOMETR�
 10
-7299.025829
 20
3042.563512
 40
497.757825
 50
349.452814
 51
15.488148
  0
ARC
  8
APS_GEOMETR�
 10
-7333.909113
 20
3031.26461
 40
534.393912
 50
15.656842
 51
40.479391
  0
ARC
  8
APS_GEOMETR�
 10
-6906.227957
 20
3396.314612
 40
27.898446
 50
192.353073
 51
220.544627
  0
ARC
  8
APS_GEOMETR�
 10
-6907.866974
 20
3395.833108
 40
26.194638
 50
162.678181
 51
192.091224
  0
ARC
  8
APS_GEOMETR�
 10
-6905.61936
 20
3395.012741
 40
28.584799
 50
134.715526
 51
162.449758
  0
ARC
  8
APS_GEOMETR�
 10
-6902.197173
 20
3391.57599
 40
33.434795
 50
109.779582
 51
134.739142
  0
ARC
  8
APS_GEOMETR�
 10
-6900.877377
 20
3388.220654
 40
37.038946
 50
86.644389
 51
109.94429
  0
ARC
  8
APS_GEOMETR�
 10
-6883.265631
 20
3690.350962
 40
265.60424
 50
266.666616
 51
287.139096
  0
ARC
  8
APS_GEOMETR�
 10
-6876.775266
 20
3671.018946
 40
245.218576
 50
287.021068
 51
308.620218
  0
ARC
  8
APS_GEOMETR�
 10
-6742.107618
 20
3502.574584
 40
29.559528
 50
308.46433
 51
336.529509
  0
ARC
  8
APS_GEOMETR�
 10
-6690.279203
 20
3480.061625
 40
26.947267
 50
127.847046
 51
156.511848
  0
ARC
  8
APS_GEOMETR�
 10
-6687.351623
 20
3476.374461
 40
31.655114
 50
102.21637
 51
127.936619
  0
ARC
  8
APS_GEOMETR�
 10
-6686.736271
 20
3474.134257
 40
33.975039
 50
77.905995
 51
102.431189
  0
ARC
  8
APS_GEOMETR�
 10
-6688.269389
 20
3503.310472
 40
9.55026
 50
358.708464
 51
25.057207
  0
ARC
  8
APS_GEOMETR�
 10
-5850.067935
 20
3484.082993
 40
828.871694
 50
178.685665
 51
192.838855
  0
ARC
  8
APS_GEOMETR�
 10
-7720.61651
 20
3146.886203
 40
1073.362011
 50
356.176705
 51
8.195736
  0
ARC
  8
APS_GEOMETR�
 10
-7011.310915
 20
3088.688481
 40
361.914764
 50
332.958377
 51
357.882303
  0
ARC
  8
APS_GEOMETR�
 10
-7172.186784
 20
3115.866866
 40
519.867497
 50
304.427852
 51
338.359399
  0
ARC
  8
APS_GEOMETR�
 10
-6884.105692
 20
2695.543441
 40
10.296615
 50
279.443987
 51
304.522292
  0
ARC
  8
APS_GEOMETR�
 10
-6884.138014
 20
2695.677108
 40
10.433779
 50
254.643682
 51
279.498632
  0
ARC
  8
APS_GEOMETR�
 10
-6884.203537
 20
2695.472924
 40
10.219537
 50
229.488982
 51
254.694767
  0
ARC
  8
APS_GEOMETR�
 10
-6884.46341
 20
2695.173049
 40
9.822736
 50
203.619111
 51
229.505199
  0
ARC
  8
APS_GEOMETR�
 10
-6884.718266
 20
2695.054843
 40
9.541872
 50
177.187816
 51
203.581914
  0
ARC
  8
APS_GEOMETR�
 10
-6884.681542
 20
2695.04292
 40
9.579142
 50
150.802026
 51
177.12736
  0
ARC
  8
APS_GEOMETR�
 10
-7507.498406
 20
3042.863433
 40
707.80689
 50
330.81733
 51
352.52779
  0
ARC
  8
APS_GEOMETR�
 10
-7299.055347
 20
3042.563497
 40
501.811587
 50
349.465263
 51
15.488852
  0
ARC
  8
APS_GEOMETR�
 10
-7333.929369
 20
3031.26758
 40
538.43795
 50
15.656188
 51
40.479654
  0
ARC
  8
APS_GEOMETR�
 10
-6906.249071
 20
3396.317055
 40
23.853413
 50
192.376082
 51
220.550125
  0
ARC
  8
APS_GEOMETR�
 10
-6907.896379
 20
3395.833128
 40
22.140989
 50
162.699657
 51
192.066536
  0
ARC
  8
APS_GEOMETR�
 10
-6905.637601
 20
3395.00872
 40
24.543011
 50
134.713409
 51
162.430268
  0
ARC
  8
APS_GEOMETR�
 10
-6902.20152
 20
3391.558165
 40
29.412592
 50
109.768016
 51
134.74092
  0
ARC
  8
APS_GEOMETR�
 10
-6900.877421
 20
3388.191975
 40
33.028414
 50
86.64305
 51
109.954643
  0
ARC
  8
APS_GEOMETR�
 10
-6883.265654
 20
3690.321938
 40
269.614429
 50
266.666441
 51
287.138191
  0
ARC
  8
APS_GEOMETR�
 10
-6876.778162
 20
3670.998438
 40
249.237749
 50
287.022047
 51
308.618948
  0
ARC
  8
APS_GEOMETR�
 10
-6742.122193
 20
3502.56807
 40
33.596924
 50
308.474311
 51
336.528326
  0
ARC
  8
APS_GEOMETR�
 10
-6690.293566
 20
3480.054974
 40
22.910121
 50
127.83885
 51
156.510367
  0
ARC
  8
APS_GEOMETR�
 10
-6687.353735
 20
3476.352551
 40
27.637534
 50
102.200357
 51
127.943491
  0
ARC
  8
APS_GEOMETR�
 10
-6686.736317
 20
3474.104954
 40
29.965122
 50
82.385594
 51
102.446035
  0
ARC
  8
APS_GEOMETR�
 10
-6688.244686
 20
3503.310042
 40
5.501304
 50
358.719887
 51
5.170846
  0
ARC
  8
APS_GEOMETR�
 10
-5850.038284
 20
3484.082986
 40
832.925588
 50
178.685737
 51
192.827526
  0
ARC
  8
APS_GEOMETR�
 10
-7720.586772
 20
3146.886204
 40
1069.308031
 50
356.173473
 51
8.186949
  0
ARC
  8
APS_GEOMETR�
 10
-7011.283645
 20
3088.688816
 40
357.863265
 50
332.927889
 51
357.891931
  0
ARC
  8
APS_GEOMETR�
 10
-7172.173754
 20
3115.874469
 40
515.831964
 50
304.427414
 51
338.380533
  0
ARC
  8
APS_GEOMETR�
 10
-6884.104269
 20
2695.566994
 40
6.280802
 50
279.424644
 51
304.551797
  0
ARC
  8
APS_GEOMETR�
 10
-6884.138
 20
2695.706537
 40
6.423994
 50
254.625905
 51
279.517628
  0
ARC
  8
APS_GEOMETR�
 10
-6884.206418
 20
2695.493288
 40
6.200244
 50
229.483171
 51
254.713074
  0
ARC
  8
APS_GEOMETR�
 10
-6884.478588
 20
2695.179187
 40
5.784639
 50
203.633848
 51
229.511353
  0
ARC
  8
APS_GEOMETR�
 10
-6884.746413
 20
2695.054948
 40
5.489475
 50
177.212904
 51
203.566532
  0
ARC
  8
APS_GEOMETR�
 10
-6884.707777
 20
2695.042394
 40
5.528686
 50
150.796582
 51
177.102425
  0
LINE
  8
APS_GEOMETR�
 10
-6419.792108
 11
-6419.792108
 20
1634.399618
 21
3694.399618
  0
LINE
  8
APS_GEOMETR�
 10
-7839.064835
 11
-7839.064835
 20
1634.399618
 21
3694.399618
  0
LINE
  8
APS_GEOMETR�
 10
21886.546043
 11
21886.546043
 20
1023.762339
 21
3073.762339
  0
LINE
  8
APS_GEOMETR�
 10
21886.546043
 11
22606.546043
 20
3073.762339
 21
3073.762339
  0
LINE
  8
APS_GEOMETR�
 10
22606.546043
 11
22606.546043
 20
3073.762339
 21
1023.762339
  0
LINE
  8
APS_GEOMETR�
 10
22606.546043
 11
21886.546043
 20
1023.762339
 21
1023.762339
  0
ARC
  8
APS_GEOMETR�
 10
22468.944478
 20
1687.501507
 40
115.373304
 50
202.511122
 51
228.379343
  0
ARC
  8
APS_GEOMETR�
 10
22436.53432
 20
1650.751657
 40
66.374191
 50
228.223443
 51
265.772747
  0
ARC
  8
APS_GEOMETR�
 10
22434.184943
 20
1647.230365
 40
62.72391
 50
267.67622
 51
306.686938
  0
LINE
  8
APS_GEOMETR�
 10
22471.658863
 11
22471.658863
 20
1596.931317
 21
1507.133192
  0
ARC
  8
APS_GEOMETR�
 10
22443.169492
 20
1556.494609
 40
56.992927
 50
264.913544
 51
299.991767
  0
ARC
  8
APS_GEOMETR�
 10
22445.057464
 20
1561.723322
 40
62.38453
 50
230.604453
 51
263.612049
  0
ARC
  8
APS_GEOMETR�
 10
22469.7339
 20
1591.908092
 40
101.372246
 50
206.83968
 51
230.654108
  0
ARC
  8
APS_GEOMETR�
 10
22517.931074
 20
1617.646077
 40
156.002537
 50
189.452652
 51
207.282069
  0
ARC
  8
APS_GEOMETR�
 10
22548.072456
 20
1623.748278
 40
186.73989
 50
173.981041
 51
189.780691
  0
LINE
  8
APS_GEOMETR�
 10
22019.879376
 11
22019.879376
 20
1329.292699
 21
2926.633153
  0
LINE
  8
APS_GEOMETR�
 10
22019.879376
 11
22107.395463
 20
2926.633153
 21
2926.633153
  0
ARC
  8
APS_GEOMETR�
 10
21223.730737
 20
2519.564506
 40
972.917381
 50
359.885405
 51
24.733615
  0
ARC
  8
APS_GEOMETR�
 10
21219.732487
 20
2516.226986
 40
976.914677
 50
338.375618
 51
0.081619
  0
ARC
  8
APS_GEOMETR�
 10
22701.366888
 20
1929.048427
 40
616.829091
 50
158.390424
 51
182.468369
  0
ARC
  8
APS_GEOMETR�
 10
22778.554266
 20
1931.50566
 40
694.051224
 50
182.396602
 51
190.753774
  0
ARC
  8
APS_GEOMETR�
 10
22739.176513
 20
1921.021172
 40
653.415403
 50
190.494842
 51
217.094452
  0
ARC
  8
APS_GEOMETR�
 10
22436.742289
 20
1705.180554
 40
282.186941
 50
219.174824
 51
236.72136
  0
ARC
  8
APS_GEOMETR�
 10
22435.314724
 20
1690.801032
 40
269.465393
 50
235.297301
 51
278.084962
  0
LINE
  8
APS_GEOMETR�
 10
22473.212709
 11
22473.212709
 20
1424.013962
 21
1329.292699
  0
LINE
  8
APS_GEOMETR�
 10
22473.212709
 11
22019.879376
 20
1329.292699
 21
1329.292699
  0
ARC
  8
APS_GEOMETR�
 10
22761.548959
 20
1822.880616
 40
506.209404
 50
175.017297
 51
204.452393
  0
ARC
  8
APS_GEOMETR�
 10
22787.02
 20
1815.94893
 40
532.206934
 50
146.035267
 51
174.512035
  0
ARC
  8
APS_GEOMETR�
 10
21878.173498
 20
2455.954565
 40
579.592207
 50
323.755827
 51
340.217493
  0
LINE
  8
APS_GEOMETR�
 10
22423.560575
 11
22423.560575
 20
2259.791207
 21
2016.187234
  0
ARC
  8
APS_GEOMETR�
 10
22811.56279
 20
1692.695435
 40
505.165976
 50
140.180782
 51
163.6846
  0
ARC
  8
APS_GEOMETR�
 10
22939.720406
 20
1650.430572
 40
640.05215
 50
163.276378
 51
183.321949
  0
ARC
  8
APS_GEOMETR�
 10
21799.10981
 20
2575.83224
 40
629.664587
 50
359.368846
 51
18.939728
  0
ARC
  8
APS_GEOMETR�
 10
21779.346083
 20
2582.081254
 40
649.52395
 50
325.381327
 51
358.836839
  0
ARC
  8
APS_GEOMETR�
 10
22894.003411
 20
1836.996287
 40
691.368107
 50
147.045781
 51
167.271125
  0
ARC
  8
APS_GEOMETR�
 10
23019.174791
 20
1804.37615
 40
820.661623
 50
166.975208
 51
185.001767
  0
ARC
  8
APS_GEOMETR�
 10
22583.326724
 20
1927.299722
 40
428.37635
 50
186.819217
 51
206.999305
  0
ARC
  8
APS_GEOMETR�
 10
22603.739768
 20
1931.069611
 40
449.094551
 50
167.44012
 51
186.987552
  0
ARC
  8
APS_GEOMETR�
 10
22424.417776
 20
1969.473114
 40
265.716942
 50
149.170889
 51
167.114339
  0
ARC
  8
APS_GEOMETR�
 10
21502.928121
 20
2522.584561
 40
809.028552
 50
328.978803
 51
358.499412
  0
ARC
  8
APS_GEOMETR�
 10
21522.772583
 20
2516.115158
 40
789.043894
 50
358.93129
 51
19.554021
  0
ARC
  8
APS_GEOMETR�
 10
21475.915816
 20
2500.218874
 40
838.51897
 50
19.505967
 51
30.56614
  0
LINE
  8
APS_GEOMETR�
 10
22197.916457
 11
22323.634552
 20
2926.633153
 21
2926.633153
  0
ARC
  8
APS_GEOMETR�
 10
21758.483647
 20
2561.958598
 40
672.594288
 50
18.934307
 51
32.832913
  0
ARC
  8
APS_GEOMETR�
 10
21800.763472
 20
2575.825692
 40
624.700415
 50
359.373589
 51
18.939898
  0
ARC
  8
APS_GEOMETR�
 10
21780.74146
 20
2582.130948
 40
644.818885
 50
325.373698
 51
358.832807
  0
ARC
  8
APS_GEOMETR�
 10
22895.196989
 20
1837.138863
 40
695.853836
 50
147.038974
 51
167.271027
  0
ARC
  8
APS_GEOMETR�
 10
23020.195398
 20
1804.45704
 40
824.992683
 50
166.969854
 51
183.766319
  0
ARC
  8
APS_GEOMETR�
 10
22585.711522
 20
1928.244548
 40
427.533926
 50
186.876944
 51
204.600724
  0
ARC
  8
APS_GEOMETR�
 10
22602.002396
 20
1931.070274
 40
444.046764
 50
167.442709
 51
186.987236
  0
ARC
  8
APS_GEOMETR�
 10
22423.162342
 20
1969.352574
 40
261.165952
 50
149.175466
 51
167.1101
  0
ARC
  8
APS_GEOMETR�
 10
21501.484806
 20
2522.543221
 40
813.781411
 50
328.980447
 51
358.50215
  0
ARC
  8
APS_GEOMETR�
 10
21521.123195
 20
2516.121793
 40
794.003844
 50
358.928327
 51
19.553527
  0
ARC
  8
APS_GEOMETR�
 10
21472.740701
 20
2499.528569
 40
845.149808
 50
19.515784
 51
30.033642
  0
LINE
  8
APS_GEOMETR�
 10
22204.413661
 11
22322.045754
 20
2922.533153
 21
2922.533153
  0
ARC
  8
APS_GEOMETR�
 10
21759.085138
 20
2561.54705
 40
668.756773
 50
18.937996
 51
32.669129
  0
ARC
  8
APS_GEOMETR�
 10
22762.684935
 20
1823.083819
 40
504.00651
 50
175.07271
 51
202.387179
  0
ARC
  8
APS_GEOMETR�
 10
22785.712257
 20
1815.865173
 40
527.59452
 50
146.042727
 51
174.506457
  0
ARC
  8
APS_GEOMETR�
 10
21881.439893
 20
2453.138962
 40
578.89963
 50
323.717593
 51
338.551896
  0
LINE
  8
APS_GEOMETR�
 10
22420.25023
 11
22420.25023
 20
2241.459481
 21
2017.941804
  0
ARC
  8
APS_GEOMETR�
 10
22813.040564
 20
1692.713927
 40
509.958251
 50
140.375461
 51
163.676163
  0
ARC
  8
APS_GEOMETR�
 10
22940.071725
 20
1650.666012
 40
643.703615
 50
163.262376
 51
181.739502
  0
ARC
  8
APS_GEOMETR�
 10
22466.870273
 20
1684.682154
 40
115.660854
 50
208.016841
 51
228.621838
  0
ARC
  8
APS_GEOMETR�
 10
22436.581807
 20
1649.566914
 40
69.291909
 50
228.221017
 51
265.788449
  0
ARC
  8
APS_GEOMETR�
 10
22434.319981
 20
1645.026165
 40
64.625909
 50
267.49292
 51
301.772402
  0
LINE
  8
APS_GEOMETR�
 10
22468.348518
 11
22468.348518
 20
1590.08468
 21
1509.815188
  0
ARC
  8
APS_GEOMETR�
 10
22443.20089
 20
1557.560553
 40
53.963164
 50
264.87239
 51
297.775912
  0
ARC
  8
APS_GEOMETR�
 10
22445.007706
 20
1562.915106
 40
59.472445
 50
230.607016
 51
263.599608
  0
ARC
  8
APS_GEOMETR�
 10
22469.120021
 20
1592.39901
 40
97.56051
 50
206.836298
 51
230.652398
  0
ARC
  8
APS_GEOMETR�
 10
22516.546521
 20
1617.720308
 40
151.314928
 50
189.449745
 51
207.284565
  0
ARC
  8
APS_GEOMETR�
 10
22546.024568
 20
1623.724376
 40
181.381952
 50
177.905761
 51
189.791792
  0
LINE
  8
APS_GEOMETR�
 10
3050.048096
 11
3050.048096
 20
0.72215
 21
1990.72215
  0
LINE
  8
APS_GEOMETR�
 10
3050.048096
 11
3780.048096
 20
1990.72215
 21
1990.72215
  0
LINE
  8
APS_GEOMETR�
 10
3780.048096
 11
3780.048096
 20
1990.72215
 21
0.72215
  0
LINE
  8
APS_GEOMETR�
 10
3780.048096
 11
3050.048096
 20
0.72215
 21
0.72215
  0
ARC
  8
APS_GEOMETR�
 10
3623.792555
 20
651.646962
 40
113.610977
 50
205.824888
 51
232.668063
  0
ARC
  8
APS_GEOMETR�
 10
3603.271637
 20
624.766471
 40
79.792809
 50
232.679358
 51
266.720778
  0
ARC
  8
APS_GEOMETR�
 10
3601.835537
 20
622.23047
 40
77.18957
 50
267.677379
 51
302.480658
  0
LINE
  8
APS_GEOMETR�
 10
3643.287483
 11
3643.287483
 20
557.11545
 21
469.945563
  0
ARC
  8
APS_GEOMETR�
 10
3611.627336
 20
533.788442
 40
71.262038
 50
265.406688
 51
296.377147
  0
ARC
  8
APS_GEOMETR�
 10
3612.795609
 20
537.565704
 40
75.125673
 50
234.850166
 51
264.749235
  0
ARC
  8
APS_GEOMETR�
 10
3628.431735
 20
559.637827
 40
102.174936
 50
210.480751
 51
234.806663
  0
ARC
  8
APS_GEOMETR�
 10
3659.285633
 20
578.623134
 40
138.396914
 50
190.942078
 51
210.775073
  0
ARC
  8
APS_GEOMETR�
 10
3678.656516
 20
583.14059
 40
158.274932
 50
173.099903
 51
191.216625
  0
ARC
  8
APS_GEOMETR�
 10
3980.708277
 20
769.690482
 40
547.260112
 50
174.663073
 51
201.058816
  0
ARC
  8
APS_GEOMETR�
 10
3986.037427
 20
768.444293
 40
552.682573
 50
148.361914
 51
174.585828
  0
ARC
  8
APS_GEOMETR�
 10
3075.160799
 20
1396.097014
 40
554.945239
 50
322.511355
 51
339.37026
  0
LINE
  8
APS_GEOMETR�
 10
3594.521164
 11
3594.521164
 20
1200.574562
 21
964.100462
  0
ARC
  8
APS_GEOMETR�
 10
3958.74956
 20
645.786052
 40
483.721396
 50
138.848433
 51
162.922666
  0
ARC
  8
APS_GEOMETR�
 10
4065.265673
 20
609.012453
 40
596.352723
 50
162.550609
 51
183.457682
  0
LINE
  8
APS_GEOMETR�
 10
3185.233281
 11
3185.233281
 20
297.310157
 21
1847.899183
  0
LINE
  8
APS_GEOMETR�
 10
3185.233281
 11
3308.365811
 20
1847.899183
 21
1847.899183
  0
ARC
  8
APS_GEOMETR�
 10
2488.312928
 20
1452.1671
 40
910.54413
 50
359.917487
 51
25.760515
  0
ARC
  8
APS_GEOMETR�
 10
2485.996761
 20
1449.902383
 40
912.859851
 50
337.463516
 51
0.059842
  0
ARC
  8
APS_GEOMETR�
 10
3861.122857
 20
879.373162
 40
575.923338
 50
157.472043
 51
182.552544
  0
ARC
  8
APS_GEOMETR�
 10
3931.436959
 20
881.979456
 40
646.283963
 50
182.505755
 51
191.223804
  0
ARC
  8
APS_GEOMETR�
 10
3906.969564
 20
875.035717
 40
620.936358
 50
191.034777
 51
218.42157
  0
ARC
  8
APS_GEOMETR�
 10
3635.15924
 20
672.21503
 40
282.12025
 50
220.455486
 51
237.913492
  0
ARC
  8
APS_GEOMETR�
 10
3641.42908
 20
671.214392
 40
284.662981
 50
236.737226
 51
270.691164
  0
LINE
  8
APS_GEOMETR�
 10
3644.862911
 11
3644.862911
 20
386.572122
 21
297.310157
  0
LINE
  8
APS_GEOMETR�
 10
3644.862911
 11
3185.233281
 20
297.310157
 21
297.310157
  0
ARC
  8
APS_GEOMETR�
 10
2999.610001
 20
1505.861962
 40
600.522884
 50
11.159151
 51
34.719944
  0
ARC
  8
APS_GEOMETR�
 10
3010.246467
 20
1508.512198
 40
589.574853
 50
347.256206
 51
11.106517
  0
ARC
  8
APS_GEOMETR�
 10
2993.032414
 20
1513.6653
 40
607.502834
 50
327.375396
 51
347.140306
  0
ARC
  8
APS_GEOMETR�
 10
4203.207778
 20
738.492337
 40
829.653269
 50
147.34625
 51
165.043442
  0
ARC
  8
APS_GEOMETR�
 10
4315.196757
 20
707.35104
 40
945.886153
 50
164.971757
 51
180.612198
  0
ARC
  8
APS_GEOMETR�
 10
3955.404021
 20
872.401811
 40
611.655351
 50
190.952953
 51
196.640514
  0
ARC
  8
APS_GEOMETR�
 10
3988.814247
 20
881.979456
 40
646.283963
 50
182.505755
 51
191.223804
  0
ARC
  8
APS_GEOMETR�
 10
3918.500145
 20
879.373162
 40
575.923338
 50
157.472043
 51
182.552544
  0
ARC
  8
APS_GEOMETR�
 10
2543.374049
 20
1449.902383
 40
912.859851
 50
337.463516
 51
0.059842
  0
ARC
  8
APS_GEOMETR�
 10
2545.690216
 20
1452.1671
 40
910.54413
 50
359.917487
 51
25.760515
  0
LINE
  8
APS_GEOMETR�
 10
3365.7431
 11
3493.207279
 20
1847.899183
 21
1847.899183
  0
ARC
  8
APS_GEOMETR�
 10
2999.996522
 20
1505.729003
 40
595.702454
 50
11.163116
 51
34.489139
  0
ARC
  8
APS_GEOMETR�
 10
3011.076491
 20
1508.512044
 40
584.293606
 50
347.25704
 51
11.105725
  0
ARC
  8
APS_GEOMETR�
 10
2993.659608
 20
1513.717723
 40
602.431025
 50
327.375417
 51
347.139517
  0
ARC
  8
APS_GEOMETR�
 10
4203.818338
 20
738.552985
 40
834.706635
 50
147.346271
 51
165.043386
  0
ARC
  8
APS_GEOMETR�
 10
4314.986333
 20
707.531681
 40
950.115502
 50
164.96624
 51
178.640062
  0
ARC
  8
APS_GEOMETR�
 10
3956.653409
 20
872.854129
 40
608.501545
 50
190.956461
 51
193.56986
  0
ARC
  8
APS_GEOMETR�
 10
3987.995209
 20
881.980938
 40
641.013748
 50
182.505835
 51
191.224926
  0
ARC
  8
APS_GEOMETR�
 10
3917.714867
 20
879.370034
 40
570.686648
 50
157.472012
 51
182.552453
  0
ARC
  8
APS_GEOMETR�
 10
2542.598057
 20
1449.896911
 40
918.087066
 50
337.463497
 51
0.05986
  0
ARC
  8
APS_GEOMETR�
 10
2544.383881
 20
1452.096111
 40
916.30158
 50
359.922462
 51
25.255794
  0
LINE
  8
APS_GEOMETR�
 10
3373.09803
 11
3490.994462
 20
1843.045524
 21
1843.045524
  0
ARC
  8
APS_GEOMETR�
 10
3981.183311
 20
769.747603
 40
543.272941
 50
174.682774
 51
198.005048
  0
ARC
  8
APS_GEOMETR�
 10
3985.373281
 20
768.411911
 40
547.569469
 50
148.388084
 51
174.584242
  0
ARC
  8
APS_GEOMETR�
 10
3076.791053
 20
1394.631862
 40
557.364724
 50
322.51268
 51
337.058465
  0
LINE
  8
APS_GEOMETR�
 10
3590.069944
 11
3590.069944
 20
1177.375758
 21
966.04721
  0
ARC
  8
APS_GEOMETR�
 10
3959.47273
 20
645.792979
 40
488.897935
 50
139.076304
 51
162.917661
  0
ARC
  8
APS_GEOMETR�
 10
4065.231403
 20
609.17055
 40
600.761522
 50
162.541833
 51
180.70091
  0
ARC
  8
APS_GEOMETR�
 10
3622.816969
 20
650.11315
 40
116.509633
 50
212.79916
 51
232.791907
  0
ARC
  8
APS_GEOMETR�
 10
3603.293739
 20
624.12408
 40
84.005023
 50
232.678193
 51
266.735482
  0
ARC
  8
APS_GEOMETR�
 10
3601.896389
 20
621.051121
 40
80.866682
 50
267.599975
 51
297.180789
  0
LINE
  8
APS_GEOMETR�
 10
3638.836264
 11
3638.836264
 20
549.114581
 21
473.146443
  0
ARC
  8
APS_GEOMETR�
 10
3611.641816
 20
534.367334
 40
66.98907
 50
265.398606
 51
293.950893
  0
ARC
  8
APS_GEOMETR�
 10
3612.772495
 20
538.211947
 40
70.916724
 50
234.851768
 51
264.737213
  0
ARC
  8
APS_GEOMETR�
 10
3628.143796
 20
559.90706
 40
97.505261
 50
210.476083
 51
234.805441
  0
ARC
  8
APS_GEOMETR�
 10
3658.629629
 20
578.664279
 40
133.29432
 50
190.93816
 51
210.778685
  0
ARC
  8
APS_GEOMETR�
 10
3677.663335
 20
583.124816
 40
152.830545
 50
178.546912
 51
191.226033
  0
LINE
  8
APS_GEOMETR�
 10
3660.048096
 11
3660.048096
 20
0.72215
 21
1990.72215
  0
LINE
  8
APS_GEOMETR�
 10
6786.619826
 11
6786.619826
 20
-539.167202
 21
1490.832798
  0
LINE
  8
APS_GEOMETR�
 10
6786.619826
 11
7506.619826
 20
1490.832798
 21
1490.832798
  0
LINE
  8
APS_GEOMETR�
 10
7506.619826
 11
7506.619826
 20
1490.832798
 21
-539.167202
  0
LINE
  8
APS_GEOMETR�
 10
7506.619826
 11
6786.619826
 20
-539.167202
 21
-539.167202
  0
ARC
  8
APS_GEOMETR�
 10
7356.01642
 20
122.967495
 40
115.140639
 50
204.973479
 51
231.634409
  0
ARC
  8
APS_GEOMETR�
 10
7332.445916
 20
93.136578
 40
77.121558
 50
231.608759
 51
266.518923
  0
ARC
  8
APS_GEOMETR�
 10
7330.789559
 20
90.317405
 40
74.221814
 50
267.663129
 51
303.47901
  0
LINE
  8
APS_GEOMETR�
 10
7371.732647
 11
7371.732647
 20
28.409883
 21
-60.512162
  0
ARC
  8
APS_GEOMETR�
 10
7340.490773
 20
0.208338
 40
68.286411
 50
265.284882
 51
297.226698
  0
ARC
  8
APS_GEOMETR�
 10
7341.836319
 20
4.40613
 40
72.587435
 50
233.83333
 51
264.498737
  0
ARC
  8
APS_GEOMETR�
 10
7359.794362
 20
28.901434
 40
102.960284
 50
209.556469
 51
233.809941
  0
ARC
  8
APS_GEOMETR�
 10
7395.196078
 20
49.953928
 40
144.142476
 50
190.554269
 51
209.894314
  0
ARC
  8
APS_GEOMETR�
 10
7417.40846
 20
54.960044
 40
166.898199
 50
173.326585
 51
190.847052
  0
ARC
  8
APS_GEOMETR�
 10
7740.598138
 20
245.228052
 40
575.838991
 50
174.823475
 51
200.383695
  0
ARC
  8
APS_GEOMETR�
 10
7741.630358
 20
245.039197
 40
576.884048
 50
149.28136
 51
174.814044
  0
ARC
  8
APS_GEOMETR�
 10
6786.143056
 20
880.093232
 40
571.869946
 50
323.474154
 51
340.032053
  0
LINE
  8
APS_GEOMETR�
 10
7323.634359
 11
7323.634359
 20
684.802848
 21
443.575499
  0
ARC
  8
APS_GEOMETR�
 10
7704.627376
 20
122.451058
 40
498.273606
 50
139.873742
 51
163.523939
  0
ARC
  8
APS_GEOMETR�
 10
7827.676998
 20
81.382752
 40
627.934184
 50
163.114858
 51
183.352651
  0
LINE
  8
APS_GEOMETR�
 10
6919.95316
 11
6919.95316
 20
-236.617626
 21
1345.139018
  0
LINE
  8
APS_GEOMETR�
 10
6919.95316
 11
7041.398943
 20
1345.139018
 21
1345.139018
  0
ARC
  8
APS_GEOMETR�
 10
6175.396299
 20
941.961885
 40
955.255139
 50
359.889217
 51
24.964855
  0
ARC
  8
APS_GEOMETR�
 10
6171.710863
 20
938.799512
 40
958.939691
 50
338.171438
 51
0.078592
  0
ARC
  8
APS_GEOMETR�
 10
7623.917586
 20
357.270184
 40
605.375096
 50
158.184777
 51
182.488971
  0
ARC
  8
APS_GEOMETR�
 10
7699.356671
 20
359.737675
 40
680.850651
 50
182.420728
 51
190.858057
  0
ARC
  8
APS_GEOMETR�
 10
7663.097209
 20
349.878808
 40
643.389488
 50
190.604083
 51
217.401322
  0
ARC
  8
APS_GEOMETR�
 10
7369.03007
 20
137.742833
 40
281.113493
 50
219.459037
 51
236.995613
  0
ARC
  8
APS_GEOMETR�
 10
7370.199219
 20
128.420479
 40
273.999324
 50
235.728643
 51
270.645591
  0
LINE
  8
APS_GEOMETR�
 10
7373.286493
 11
7373.286493
 20
-145.561451
 21
-236.617626
  0
LINE
  8
APS_GEOMETR�
 10
7373.286493
 11
6919.95316
 20
-236.617626
 21
-236.617626
  0
ARC
  8
APS_GEOMETR�
 10
6705.121264
 20
998.465948
 40
623.790645
 50
10.74692
 51
33.762545
  0
ARC
  8
APS_GEOMETR�
 10
6707.276286
 20
998.93611
 40
621.585753
 50
347.675581
 51
10.741383
  0
ARC
  8
APS_GEOMETR�
 10
6697.973582
 20
1001.941933
 40
631.316372
 50
328.286757
 51
347.589279
  0
ARC
  8
APS_GEOMETR�
 10
7967.281713
 20
216.96042
 40
861.110953
 50
148.250787
 51
165.548549
  0
ARC
  8
APS_GEOMETR�
 10
8097.634597
 20
181.753925
 40
996.126742
 50
165.45872
 51
180.598104
  0
ARC
  8
APS_GEOMETR�
 10
7718.065008
 20
349.487526
 40
641.721717
 50
190.596419
 51
196.11608
  0
ARC
  8
APS_GEOMETR�
 10
7755.947969
 20
359.737675
 40
680.850651
 50
182.420728
 51
190.858057
  0
ARC
  8
APS_GEOMETR�
 10
7680.508884
 20
357.270184
 40
605.375096
 50
158.184777
 51
182.488971
  0
ARC
  8
APS_GEOMETR�
 10
6228.302161
 20
938.799512
 40
958.939691
 50
338.171438
 51
0.078592
  0
ARC
  8
APS_GEOMETR�
 10
6231.987597
 20
941.961885
 40
955.255139
 50
359.889217
 51
24.964855
  0
LINE
  8
APS_GEOMETR�
 10
7097.990241
 11
7223.708336
 20
1345.139018
 21
1345.139018
  0
ARC
  8
APS_GEOMETR�
 10
5204.726323
 20
2128.209155
 40
50.138701
 50
130.377347
 51
137.569452
  0
ARC
  8
APS_GEOMETR�
 10
5211.661733
 20
2121.868855
 40
59.535473
 50
137.569014
 51
144.172629
  0
LINE
  8
APS_GEOMETR�
 10
5163.391308
 11
5154.341273
 20
2156.71765
 21
2144.168457
  0
LINE
  8
APS_GEOMETR�
 10
5154.341273
 11
5151.003176
 20
2144.168457
 21
2139.712035
  0
LINE
  8
APS_GEOMETR�
 10
5151.003176
 11
5148.754941
 20
2139.712035
 21
2139.790695
  0
ARC
  8
APS_GEOMETR�
 10
5156.706411
 20
2142.173264
 40
8.300754
 50
174.162334
 51
196.680257
  0
ARC
  8
APS_GEOMETR�
 10
5172.912095
 20
2140.514689
 40
24.59109
 50
161.133119
 51
174.158399
  0
ARC
  8
APS_GEOMETR�
 10
5189.79398
 20
2134.747657
 40
42.43084
 50
153.407779
 51
161.135711
  0
ARC
  8
APS_GEOMETR�
 10
5244.245617
 20
2107.4926
 40
103.322703
 50
148.461555
 51
153.40929
  0
ARC
  8
APS_GEOMETR�
 10
5285.652687
 20
2081.897761
 40
152.001496
 50
145.480088
 51
148.402982
  0
ARC
  8
APS_GEOMETR�
 10
5237.408752
 20
2115.079274
 40
93.448186
 50
141.752939
 51
145.479927
  0
ARC
  8
APS_GEOMETR�
 10
5220.164305
 20
2128.671856
 40
71.490744
 50
136.886152
 51
141.752681
  0
ARC
  8
APS_GEOMETR�
 10
5197.143658
 20
2150.224279
 40
39.95573
 50
130.377913
 51
136.88578
  0
ARC
  8
APS_GEOMETR�
 10
5230.284428
 20
2111.246425
 40
91.118057
 50
116.872533
 51
130.374999
  0
ARC
  8
APS_GEOMETR�
 10
5221.431175
 20
2128.731739
 40
71.519174
 50
101.644444
 51
116.877547
  0
ARC
  8
APS_GEOMETR�
 10
5215.937773
 20
2155.429545
 40
44.262061
 50
73.855793
 51
101.655165
  0
ARC
  8
APS_GEOMETR�
 10
5219.397805
 20
2167.235249
 40
31.95986
 50
40.997426
 51
73.929188
  0
ARC
  8
APS_GEOMETR�
 10
5218.765021
 20
2166.677629
 40
32.80326
 50
23.370388
 51
41.007443
  0
ARC
  8
APS_GEOMETR�
 10
5215.125865
 20
2165.103579
 40
36.768242
 50
6.705664
 51
23.372504
  0
ARC
  8
APS_GEOMETR�
 10
5206.019072
 20
2164.035757
 40
45.937425
 50
353.17463
 51
6.702081
  0
ARC
  8
APS_GEOMETR�
 10
5170.56791
 20
2168.280381
 40
81.641791
 50
343.038744
 51
353.173649
  0
ARC
  8
APS_GEOMETR�
 10
5155.414865
 20
2173.160617
 40
97.559713
 50
327.946325
 51
342.893428
  0
ARC
  8
APS_GEOMETR�
 10
5178.403097
 20
2158.760624
 40
70.433737
 50
310.35894
 51
327.950041
  0
ARC
  8
APS_GEOMETR�
 10
5222.232662
 20
2107.185856
 40
2.750744
 50
275.713789
 51
310.363871
  0
ARC
  8
APS_GEOMETR�
 10
5220.334535
 20
2125.920898
 40
21.581692
 50
263.591905
 51
275.776046
  0
ARC
  8
APS_GEOMETR�
 10
5223.349928
 20
2152.769536
 40
48.599131
 50
258.009834
 51
263.591911
  0
ARC
  8
APS_GEOMETR�
 10
5214.892885
 20
2112.952681
 40
7.894051
 50
244.129413
 51
258.015878
  0
ARC
  8
APS_GEOMETR�
 10
5296.775105
 20
2158.342138
 40
100.180325
 50
204.974503
 51
211.599532
  0
ARC
  8
APS_GEOMETR�
 10
5324.517476
 20
2171.263183
 40
130.784125
 50
199.174317
 51
204.974341
  0
ARC
  8
APS_GEOMETR�
 10
5333.555782
 20
2174.49445
 40
140.382331
 50
197.190452
 51
199.208371
  0
ARC
  8
APS_GEOMETR�
 10
5409.860716
 20
2198.100681
 40
220.255337
 50
195.579285
 51
197.190413
  0
ARC
  8
APS_GEOMETR�
 10
5457.810831
 20
2211.469801
 40
270.034318
 50
194.265115
 51
195.579264
  0
ARC
  8
APS_GEOMETR�
 10
5575.6554
 20
2241.431515
 40
391.628095
 50
193.173819
 51
194.265102
  0
LINE
  8
APS_GEOMETR�
 10
5194.333725
 11
5191.561071
 20
2152.177129
 21
2164.293274
  0
LINE
  8
APS_GEOMETR�
 10
5191.561071
 11
5188.795183
 20
2164.293274
 21
2176.498121
  0
ARC
  8
APS_GEOMETR�
 10
5225.321917
 20
2095.629434
 40
88.735263
 50
114.307722
 51
117.545534
  0
ARC
  8
APS_GEOMETR�
 10
5224.198476
 20
2097.783041
 40
86.306241
 50
117.545435
 51
120.829339
  0
ARC
  8
APS_GEOMETR�
 10
5211.641957
 20
2118.821031
 40
61.805972
 50
120.828739
 51
125.405956
  0
ARC
  8
APS_GEOMETR�
 10
5206.188102
 20
2126.492917
 40
52.393089
 50
125.405484
 51
130.379276
  0
ARC
  8
APS_GEOMETR�
 10
5243.744728
 20
2149.050508
 40
33.601407
 50
212.114438
 51
220.992576
  0
ARC
  8
APS_GEOMETR�
 10
5265.676092
 20
2162.815029
 40
59.494393
 50
205.440643
 51
212.113867
  0
ARC
  8
APS_GEOMETR�
 10
5282.824726
 20
2170.971994
 40
78.484172
 50
200.368328
 51
205.44017
  0
ARC
  8
APS_GEOMETR�
 10
5331.932177
 20
2189.203311
 40
130.866638
 50
196.439777
 51
200.368047
  0
LINE
  8
APS_GEOMETR�
 10
5206.415664
 11
5204.698614
 20
2152.167087
 21
2159.208828
  0
LINE
  8
APS_GEOMETR�
 10
5204.698614
 11
5199.686183
 20
2159.208828
 21
2179.788451
  0
ARC
  8
APS_GEOMETR�
 10
5233.502317
 20
2038.858871
 40
144.929905
 50
100.843814
 51
103.493056
  0
ARC
  8
APS_GEOMETR�
 10
5222.404707
 20
2096.79353
 40
85.941926
 50
97.403607
 51
100.843774
  0
ARC
  8
APS_GEOMETR�
 10
5219.586522
 20
2118.481492
 40
64.07163
 50
92.796732
 51
97.403586
  0
ARC
  8
APS_GEOMETR�
 10
5218.089043
 20
2149.137132
 40
33.379436
 50
86.412932
 51
92.796867
  0
ARC
  8
APS_GEOMETR�
 10
5218.534025
 20
2154.444286
 40
28.055064
 50
64.747039
 51
86.641803
  0
ARC
  8
APS_GEOMETR�
 10
5220.303938
 20
2158.165649
 40
23.934271
 50
40.997629
 51
64.778582
  0
ARC
  8
APS_GEOMETR�
 10
5220.925707
 20
2158.681107
 40
23.126851
 50
11.343869
 51
41.044362
  0
ARC
  8
APS_GEOMETR�
 10
5209.930011
 20
2156.478292
 40
34.341026
 50
347.048146
 51
11.338802
  0
ARC
  8
APS_GEOMETR�
 10
5200.150867
 20
2158.514485
 40
44.328239
 50
329.444651
 51
347.316259
  0
ARC
  8
APS_GEOMETR�
 10
5204.931316
 20
2155.68694
 40
38.77417
 50
310.354569
 51
329.451551
  0
ARC
  8
APS_GEOMETR�
 10
5224.749091
 20
2132.314374
 40
8.130799
 50
287.888088
 51
310.57959
  0
ARC
  8
APS_GEOMETR�
 10
5224.636145
 20
2132.62921
 40
8.465115
 50
265.881614
 51
287.96106
  0
ARC
  8
APS_GEOMETR�
 10
5224.646478
 20
2132.493788
 40
8.330809
 50
243.440561
 51
265.74384
  0
ARC
  8
APS_GEOMETR�
 10
5224.603761
 20
2132.41678
 40
8.242828
 50
220.997335
 51
243.466812
  0
ARC
  8
APS_GEOMETR�
 10
5398.46736
 20
2310.150564
 40
14.87483
 50
40.992134
 51
52.083717
  0
ARC
  8
APS_GEOMETR�
 10
5392.188663
 20
2302.093532
 40
25.089418
 50
52.07869
 51
60.605307
  0
ARC
  8
APS_GEOMETR�
 10
5484.982476
 20
2468.718469
 40
165.632091
 50
239.389186
 51
240.929053
  0
ARC
  8
APS_GEOMETR�
 10
5433.22758
 20
2381.243799
 40
63.993579
 50
236.911476
 51
239.389367
  0
ARC
  8
APS_GEOMETR�
 10
5416.941858
 20
2356.2515
 40
34.163398
 50
232.292684
 51
236.912289
  0
ARC
  8
APS_GEOMETR�
 10
5399.549192
 20
2333.755103
 40
5.727632
 50
220.992253
 51
232.299691
  0
ARC
  8
APS_GEOMETR�
 10
5487.645388
 20
2410.3073
 40
122.437438
 50
215.922796
 51
220.989517
  0
ARC
  8
APS_GEOMETR�
 10
5440.383535
 20
2376.068792
 40
64.07685
 50
208.914537
 51
215.924268
  0
ARC
  8
APS_GEOMETR�
 10
5425.35241
 20
2367.742598
 40
46.893729
 50
200.850473
 51
208.889307
  0
ARC
  8
APS_GEOMETR�
 10
5401.990232
 20
2358.845483
 40
21.894729
 50
189.070214
 51
200.852678
  0
ARC
  8
APS_GEOMETR�
 10
5395.040926
 20
2357.735796
 40
14.857382
 50
172.137134
 51
189.069096
  0
ARC
  8
APS_GEOMETR�
 10
5389.56662
 20
2358.490865
 40
9.331248
 50
150.726723
 51
172.131428
  0
ARC
  8
APS_GEOMETR�
 10
5388.720136
 20
2345.033019
 40
19.440469
 50
107.309227
 51
112.033734
  0
ARC
  8
APS_GEOMETR�
 10
5390.124974
 20
2340.525578
 40
24.161761
 50
103.072958
 51
107.309522
  0
ARC
  8
APS_GEOMETR�
 10
5413.014064
 20
2241.959004
 40
125.351088
 50
102.255031
 51
103.073387
  0
ARC
  8
APS_GEOMETR�
 10
5395.120697
 20
2324.335887
 40
41.053263
 50
100.825055
 51
102.255007
  0
ARC
  8
APS_GEOMETR�
 10
5379.809805
 20
2350.659008
 40
15.929809
 50
53.750989
 51
61.501652
  0
ARC
  8
APS_GEOMETR�
 10
5374.145198
 20
2342.933233
 40
25.509755
 50
47.624236
 51
53.750919
  0
ARC
  8
APS_GEOMETR�
 10
5360.422793
 20
2327.893509
 40
45.868971
 50
44.207233
 51
47.623395
  0
ARC
  8
APS_GEOMETR�
 10
5356.241978
 20
2323.826775
 40
51.701427
 50
40.98862
 51
44.207266
  0
LINE
  8
APS_GEOMETR�
 10
5395.268277
 11
5397.42347
 20
2357.738212
 21
2355.257913
  0
ARC
  8
APS_GEOMETR�
 10
5190.449179
 20
2175.41177
 40
274.195172
 50
39.114559
 51
40.988351
  0
ARC
  8
APS_GEOMETR�
 10
5290.750819
 20
2256.966477
 40
144.92186
 50
36.536678
 51
39.114729
  0
ARC
  8
APS_GEOMETR�
 10
5366.469929
 20
2313.068011
 40
50.684045
 50
29.216219
 51
36.539137
  0
ARC
  8
APS_GEOMETR�
 10
5380.622148
 20
2320.981571
 40
34.469553
 50
20.329578
 51
29.217823
  0
LINE
  8
APS_GEOMETR�
 10
5412.944583
 11
5415.878369
 20
2332.956976
 21
2330.931482
  0
LINE
  8
APS_GEOMETR�
 10
5415.878369
 11
5417.997614
 20
2330.931482
 21
2329.457444
  0
ARC
  8
APS_GEOMETR�
 10
5388.021765
 20
2286.630521
 40
52.275203
 50
50.449332
 51
55.010671
  0
ARC
  8
APS_GEOMETR�
 10
5413.549646
 20
2317.54109
 40
12.186103
 50
40.991249
 51
50.453798
  0
ARC
  8
APS_GEOMETR�
 10
5420.371077
 20
2323.468466
 40
3.149195
 50
27.443853
 51
40.999117
  0
ARC
  8
APS_GEOMETR�
 10
5419.192203
 20
2322.856221
 40
4.477573
 50
16.074651
 51
27.444191
  0
ARC
  8
APS_GEOMETR�
 10
5366.714809
 20
2307.737731
 40
59.089345
 50
15.197827
 51
16.071685
  0
ARC
  8
APS_GEOMETR�
 10
5373.681929
 20
2309.63037
 40
51.869729
 50
14.265096
 51
15.197829
  0
LINE
  8
APS_GEOMETR�
 10
5423.952308
 11
5422.011958
 20
2322.41152
 21
2319.434156
  0
ARC
  8
APS_GEOMETR�
 10
5037.130784
 20
2131.490807
 40
428.317896
 50
25.076156
 51
26.026963
  0
ARC
  8
APS_GEOMETR�
 10
5232.211158
 20
2222.774014
 40
212.936894
 50
23.727567
 51
25.07619
  0
ARC
  8
APS_GEOMETR�
 10
5299.56408
 20
2252.37831
 40
139.364953
 50
21.668602
 51
23.727653
  0
ARC
  8
APS_GEOMETR�
 10
5384.681361
 20
2286.196333
 40
47.775597
 50
18.151134
 51
21.668867
  0
ARC
  8
APS_GEOMETR�
 10
5387.973065
 20
2287.948927
 40
44.106361
 50
8.41285
 51
17.319806
  0
ARC
  8
APS_GEOMETR�
 10
5412.892919
 20
2291.634579
 40
18.915428
 50
354.790205
 51
8.412558
  0
ARC
  8
APS_GEOMETR�
 10
5419.378719
 20
2291.044336
 40
12.402825
 50
334.704045
 51
354.78501
  0
ARC
  8
APS_GEOMETR�
 10
5422.958688
 20
2289.351499
 40
8.442791
 50
310.335648
 51
334.709581
  0
ARC
  8
APS_GEOMETR�
 10
5424.887046
 20
2287.076056
 40
5.460142
 50
279.440016
 51
310.365991
  0
ARC
  8
APS_GEOMETR�
 10
5423.484762
 20
2295.433748
 40
13.934654
 50
260.31066
 51
279.491441
  0
ARC
  8
APS_GEOMETR�
 10
5425.540791
 20
2307.479383
 40
26.154498
 50
249.576862
 51
260.312091
  0
ARC
  8
APS_GEOMETR�
 10
5441.829532
 20
2351.221061
 40
72.830588
 50
243.14568
 51
249.575943
  0
ARC
  8
APS_GEOMETR�
 10
5446.477875
 20
2360.939056
 40
83.600694
 50
240.117814
 51
243.312078
  0
ARC
  8
APS_GEOMETR�
 10
5524.352081
 20
2496.46209
 40
239.904515
 50
238.231748
 51
240.117594
  0
ARC
  8
APS_GEOMETR�
 10
5589.831423
 20
2602.199353
 40
364.27458
 50
236.989482
 51
238.231675
  0
ARC
  8
APS_GEOMETR�
 10
5787.531446
 20
2906.507687
 40
727.164179
 50
236.110182
 51
236.989452
  0
ARC
  8
APS_GEOMETR�
 10
5059.978459
 20
1823.143087
 40
577.830927
 50
56.123219
 51
57.060527
  0
ARC
  8
APS_GEOMETR�
 10
5266.956221
 20
2142.598788
 40
197.184452
 50
57.060593
 51
58.664982
  0
ARC
  8
APS_GEOMETR�
 10
5320.766844
 20
2230.979005
 40
93.711528
 50
58.665293
 51
62.032267
  0
ARC
  8
APS_GEOMETR�
 10
5360.802046
 20
2306.375756
 40
8.344747
 50
62.035222
 51
73.329928
  0
ARC
  8
APS_GEOMETR�
 10
5397.397741
 20
2312.673773
 40
34.243946
 50
177.161116
 51
182.807604
  0
ARC
  8
APS_GEOMETR�
 10
5498.831351
 20
2317.648231
 40
135.79946
 50
182.807618
 51
185.642137
  0
ARC
  8
APS_GEOMETR�
 10
5589.78664
 20
2326.63389
 40
227.197526
 50
185.642106
 51
187.338474
  0
ARC
  8
APS_GEOMETR�
 10
5874.678598
 20
2363.323709
 40
514.442319
 50
187.338458
 51
188.465735
  0
ARC
  8
APS_GEOMETR�
 10
5915.959739
 20
2367.844454
 40
555.941518
 50
188.300236
 51
190.497202
  0
ARC
  8
APS_GEOMETR�
 10
5742.384315
 20
2335.683245
 40
379.411716
 50
190.49725
 51
193.156504
  0
ARC
  8
APS_GEOMETR�
 10
5632.301665
 20
2310.034809
 40
266.380645
 50
193.173901
 51
195.418821
  0
ARC
  8
APS_GEOMETR�
 10
5475.295215
 20
2266.732899
 40
103.512353
 50
195.419017
 51
199.020152
  0
ARC
  8
APS_GEOMETR�
 10
5430.189512
 20
2251.184872
 40
55.802128
 50
199.020987
 51
205.652475
  0
ARC
  8
APS_GEOMETR�
 10
5389.31456
 20
2231.55565
 40
10.458241
 50
205.65654
 51
221.00247
  0
ARC
  8
APS_GEOMETR�
 10
5379.42241
 20
2222.951931
 40
2.652009
 50
5.699597
 51
41.065315
  0
ARC
  8
APS_GEOMETR�
 10
5368.546317
 20
2221.867528
 40
13.582029
 50
350.265957
 51
5.694988
  0
ARC
  8
APS_GEOMETR�
 10
5360.531903
 20
2223.242446
 40
21.713524
 50
340.314116
 51
350.26573
  0
ARC
  8
APS_GEOMETR�
 10
5376.69241
 20
2217.461061
 40
4.550005
 50
318.478524
 51
340.309098
  0
LINE
  8
APS_GEOMETR�
 10
5380.099032
 11
5375.563653
 20
2214.44486
 21
2212.910154
  0
ARC
  8
APS_GEOMETR�
 10
5379.740537
 20
2222.982303
 40
10.903878
 50
234.305314
 51
247.476392
  0
ARC
  8
APS_GEOMETR�
 10
5379.615463
 20
2222.810243
 40
10.691165
 50
220.993367
 51
234.311671
  0
ARC
  8
APS_GEOMETR�
 10
5375.754508
 20
2219.457889
 40
5.577924
 50
199.441913
 51
221.017698
  0
ARC
  8
APS_GEOMETR�
 10
5451.693286
 20
2246.251711
 40
86.10498
 50
193.971142
 51
199.435074
  0
ARC
  8
APS_GEOMETR�
 10
5557.352741
 20
2272.537145
 40
194.984935
 50
191.535982
 51
193.970598
  0
ARC
  8
APS_GEOMETR�
 10
5967.153886
 20
2356.179309
 40
613.234848
 50
190.163044
 51
191.535903
  0
ARC
  8
APS_GEOMETR�
 10
6100.695882
 20
2379.695875
 40
748.831131
 50
187.96098
 51
190.131223
  0
ARC
  8
APS_GEOMETR�
 10
5981.763979
 20
2363.063675
 40
628.741883
 50
185.592368
 51
187.96098
  0
ARC
  8
APS_GEOMETR�
 10
5745.236116
 20
2340.019963
 40
391.094199
 50
183.481115
 51
185.609317
  0
ARC
  8
APS_GEOMETR�
 10
5469.768287
 20
2323.2628
 40
115.117159
 50
179.557802
 51
183.481134
  0
ARC
  8
APS_GEOMETR�
 10
5401.020537
 20
2323.792939
 40
46.367365
 50
170.113347
 51
179.557241
  0
ARC
  8
APS_GEOMETR�
 10
5358.005176
 20
2331.290302
 40
2.703516
 50
130.252939
 51
170.119734
  0
ARC
  8
APS_GEOMETR�
 10
5357.535355
 20
2331.889744
 40
1.942653
 50
108.745095
 51
131.101489
  0
ARC
  8
APS_GEOMETR�
 10
5357.621989
 20
2331.654373
 40
2.19339
 50
88.304597
 51
108.912295
  0
ARC
  8
APS_GEOMETR�
 10
5357.090661
 20
2318.220919
 40
15.637254
 50
72.606721
 51
87.814879
  0
ARC
  8
APS_GEOMETR�
 10
5350.536023
 20
2297.301342
 40
37.559662
 50
65.905531
 51
72.604487
  0
ARC
  8
APS_GEOMETR�
 10
5314.75214
 20
2217.288662
 40
125.20962
 50
62.236025
 51
65.9048
  0
ARC
  8
APS_GEOMETR�
 10
5288.573331
 20
2166.868318
 40
182.020444
 50
60.751074
 51
62.337502
  0
ARC
  8
APS_GEOMETR�
 10
5155.157386
 20
1928.627411
 40
455.074549
 50
59.747617
 51
60.75102
  0
LINE
  8
APS_GEOMETR�
 10
5384.42845
 11
5391.918021
 20
2321.727429
 21
2317.293287
  0
LINE
  8
APS_GEOMETR�
 10
5391.918021
 11
5400.617351
 20
2317.293287
 21
2312.02171
  0
LINE
  8
APS_GEOMETR�
 10
5400.617351
 11
5414.369819
 20
2312.02171
 21
2303.769108
  0
LINE
  8
APS_GEOMETR�
 10
5414.369819
 11
5421.33698
 20
2303.769108
 21
2299.948242
  0
ARC
  8
APS_GEOMETR�
 10
5364.478826
 20
2280.029266
 40
60.246288
 50
19.306762
 51
30.259775
  0
ARC
  8
APS_GEOMETR�
 10
5362.457031
 20
2278.852091
 40
62.585816
 50
30.257907
 51
40.994795
  0
LINE
  8
APS_GEOMETR�
 10
5930.894824
 11
5100.894824
 20
347.480885
 21
347.480885
  0
LINE
  8
APS_GEOMETR�
 10
5100.894824
 11
5100.894824
 20
347.480885
 21
2387.480885
  0
LINE
  8
APS_GEOMETR�
 10
5100.894824
 11
5930.894824
 20
2387.480885
 21
2387.480885
  0
LINE
  8
APS_GEOMETR�
 10
5930.894824
 11
5930.894824
 20
2387.480885
 21
347.480885
  0
ARC
  8
APS_GEOMETR�
 10
5249.561929
 20
944.526179
 40
146.569645
 50
347.567747
 51
7.64523
  0
ARC
  8
APS_GEOMETR�
 10
5262.019442
 20
941.287959
 40
133.707968
 50
326.407325
 51
347.773594
  0
ARC
  8
APS_GEOMETR�
 10
5281.756958
 20
927.745087
 40
109.774299
 50
302.188553
 51
326.595553
  0
ARC
  8
APS_GEOMETR�
 10
5291.624426
 20
912.178361
 40
91.343732
 50
274.553078
 51
302.151967
  0
ARC
  8
APS_GEOMETR�
 10
5292.336409
 20
909.560135
 40
88.67867
 50
246.086413
 51
274.228799
  0
LINE
  8
APS_GEOMETR�
 10
5256.389767
 11
5256.389767
 20
828.493832
 21
917.853917
  0
ARC
  8
APS_GEOMETR�
 10
5303.327929
 20
1000.593362
 40
95.126268
 50
240.433719
 51
272.258572
  0
ARC
  8
APS_GEOMETR�
 10
5302.468791
 20
1002.343719
 40
96.91234
 50
272.725334
 51
304.16349
  0
ARC
  8
APS_GEOMETR�
 10
5289.531709
 20
1021.309674
 40
119.870413
 50
304.189392
 51
331.452767
  0
ARC
  8
APS_GEOMETR�
 10
4899.604817
 20
970.943108
 40
555.030677
 50
356.202617
 51
19.298193
  0
ARC
  8
APS_GEOMETR�
 10
4965.360022
 20
996.23077
 40
484.617689
 50
19.045692
 51
44.361073
  0
LINE
  8
APS_GEOMETR�
 10
5311.836404
 11
5311.836404
 20
1335.064683
 21
1577.480344
  0
ARC
  8
APS_GEOMETR�
 10
5824.04467
 20
1792.567138
 40
555.53545
 50
202.778538
 51
220.511975
  0
ARC
  8
APS_GEOMETR�
 10
4965.468555
 20
1130.855698
 40
529.893204
 50
6.185544
 51
34.591489
  0
ARC
  8
APS_GEOMETR�
 10
4984.387328
 20
1135.866643
 40
510.553135
 50
336.732341
 51
5.855236
  0
LINE
  8
APS_GEOMETR�
 10
5777.19112
 11
5254.598528
 20
651.520853
 21
651.520853
  0
LINE
  8
APS_GEOMETR�
 10
5254.598528
 11
5254.598528
 20
651.520853
 21
743.025581
  0
ARC
  8
APS_GEOMETR�
 10
5259.471562
 20
1092.797444
 40
349.805807
 50
269.201805
 51
300.312194
  0
ARC
  8
APS_GEOMETR�
 10
5282.16917
 20
1064.39762
 40
313.876926
 50
299.35182
 51
316.462576
  0
ARC
  8
APS_GEOMETR�
 10
5053.889299
 20
1253.599609
 40
610.021144
 50
318.349709
 51
347.534525
  0
ARC
  8
APS_GEOMETR�
 10
5063.110158
 20
1251.114305
 40
600.481358
 50
347.576162
 51
357.212811
  0
ARC
  8
APS_GEOMETR�
 10
5124.302035
 20
1247.781747
 40
539.199934
 50
357.250329
 51
24.85366
  0
ARC
  8
APS_GEOMETR�
 10
6390.828344
 20
1834.258473
 40
856.523484
 50
180.013941
 51
204.842697
  0
ARC
  8
APS_GEOMETR�
 10
6392.43777
 20
1833.64492
 40
858.132979
 50
151.654965
 51
179.972949
  0
LINE
  8
APS_GEOMETR�
 10
5637.19112
 11
5777.19112
 20
2241.069402
 21
2241.069402
  0
LINE
  8
APS_GEOMETR�
 10
5777.19112
 11
5777.19112
 20
2241.069402
 21
651.520853
  0
LINE
  8
APS_GEOMETR�
 10
5427.028903
 11
5571.95393
 20
2241.069402
 21
2241.069402
  0
ARC
  8
APS_GEOMETR�
 10
6327.200579
 20
1833.64492
 40
858.132979
 50
151.654965
 51
179.972949
  0
ARC
  8
APS_GEOMETR�
 10
6325.591153
 20
1834.258473
 40
856.523484
 50
180.013941
 51
204.842697
  0
ARC
  8
APS_GEOMETR�
 10
5059.064844
 20
1247.781747
 40
539.199934
 50
357.250329
 51
24.85366
  0
ARC
  8
APS_GEOMETR�
 10
4997.872968
 20
1251.114305
 40
600.481358
 50
347.576162
 51
357.212811
  0
ARC
  8
APS_GEOMETR�
 10
5020.609217
 20
1242.997901
 40
576.539338
 50
341.651316
 51
347.877761
  0
ARC
  8
APS_GEOMETR�
 10
4687.984123
 20
1071.553893
 40
879.90961
 50
359.345573
 51
16.624227
  0
ARC
  8
APS_GEOMETR�
 10
4753.983727
 20
1091.394637
 40
810.992379
 50
16.615087
 51
35.529823
  0
ARC
  8
APS_GEOMETR�
 10
5895.223844
 20
1906.30097
 40
591.327605
 50
194.341163
 51
215.527543
  0
ARC
  8
APS_GEOMETR�
 10
5852.128193
 20
1893.134066
 40
546.317489
 50
167.693099
 51
194.122808
  0
ARC
  8
APS_GEOMETR�
 10
5889.694251
 20
1882.639967
 40
585.261381
 50
142.234856
 51
167.473238
  0
LINE
  8
APS_GEOMETR�
 10
5429.486793
 11
5563.621457
 20
2236.069402
 21
2236.069402
  0
ARC
  8
APS_GEOMETR�
 10
6327.200579
 20
1833.64492
 40
863.132979
 50
152.209696
 51
179.973068
  0
ARC
  8
APS_GEOMETR�
 10
6325.591153
 20
1834.258473
 40
861.523484
 50
180.013822
 51
204.842729
  0
ARC
  8
APS_GEOMETR�
 10
5059.064844
 20
1247.781747
 40
534.199934
 50
357.250505
 51
24.853711
  0
ARC
  8
APS_GEOMETR�
 10
4997.872968
 20
1251.114305
 40
595.481358
 50
347.574896
 51
357.212654
  0
ARC
  8
APS_GEOMETR�
 10
5020.609217
 20
1242.997901
 40
571.539338
 50
344.967354
 51
347.87908
  0
ARC
  8
APS_GEOMETR�
 10
4687.984123
 20
1071.553893
 40
884.90961
 50
1.502589
 51
16.624201
  0
ARC
  8
APS_GEOMETR�
 10
4753.983727
 20
1091.394637
 40
815.992379
 50
16.615115
 51
35.529816
  0
ARC
  8
APS_GEOMETR�
 10
5895.223844
 20
1906.30097
 40
586.327605
 50
194.342094
 51
215.527533
  0
ARC
  8
APS_GEOMETR�
 10
5852.128193
 20
1893.134066
 40
541.317489
 50
167.694114
 51
194.1218
  0
ARC
  8
APS_GEOMETR�
 10
5889.694251
 20
1882.639967
 40
580.261381
 50
142.476512
 51
167.472291
  0
ARC
  8
APS_GEOMETR�
 10
4899.604817
 20
970.943108
 40
560.030677
 50
359.220031
 51
19.297067
  0
ARC
  8
APS_GEOMETR�
 10
4965.360022
 20
996.23077
 40
489.617689
 50
19.046981
 51
44.122017
  0
LINE
  8
APS_GEOMETR�
 10
5316.836404
 11
5316.836404
 20
1337.097069
 21
1553.946589
  0
ARC
  8
APS_GEOMETR�
 10
5824.04467
 20
1792.567138
 40
560.53545
 50
205.195048
 51
220.485424
  0
ARC
  8
APS_GEOMETR�
 10
4965.468555
 20
1130.855698
 40
524.893204
 50
6.187117
 51
34.563395
  0
ARC
  8
APS_GEOMETR�
 10
4984.387328
 20
1135.866643
 40
505.553135
 50
340.043695
 51
5.853602
  0
ARC
  8
APS_GEOMETR�
 10
5249.561929
 20
944.526179
 40
141.569645
 50
347.564109
 51
1.661557
  0
ARC
  8
APS_GEOMETR�
 10
5262.019442
 20
941.287959
 40
128.707968
 50
326.403661
 51
347.777588
  0
ARC
  8
APS_GEOMETR�
 10
5281.756958
 20
927.745087
 40
104.774299
 50
302.189428
 51
326.600035
  0
ARC
  8
APS_GEOMETR�
 10
5291.624426
 20
912.178361
 40
86.343732
 50
274.562471
 51
302.150911
  0
ARC
  8
APS_GEOMETR�
 10
5292.336409
 20
909.560135
 40
83.67867
 50
248.295044
 51
274.219115
  0
LINE
  8
APS_GEOMETR�
 10
5261.389767
 11
5261.389767
 20
831.814233
 21
909.673287
  0
ARC
  8
APS_GEOMETR�
 10
5303.327929
 20
1000.593362
 40
100.126268
 50
245.237822
 51
272.270229
  0
ARC
  8
APS_GEOMETR�
 10
5302.468791
 20
1002.343719
 40
101.91234
 50
272.713887
 51
304.164127
  0
ARC
  8
APS_GEOMETR�
 10
5289.531709
 20
1021.309674
 40
124.870413
 50
304.188875
 51
324.406396
  0
ARC
  8
APS_GEOMETR�
 10
5282.841673
 20
2259.092464
 40
3.772518
 50
62.745137
 51
83.045156
  0
ARC
  8
APS_GEOMETR�
 10
5280.259217
 20
2237.967858
 40
25.054389
 50
83.032493
 51
90.869243
  0
ARC
  8
APS_GEOMETR�
 10
5280.165619
 20
2244.113025
 40
18.908509
 50
90.868147
 51
101.1204
  0
ARC
  8
APS_GEOMETR�
 10
5276.973722
 20
2260.341549
 40
2.369067
 50
101.073267
 51
130.366815
  0
ARC
  8
APS_GEOMETR�
 10
5276.556664
 20
2260.822565
 40
1.732465
 50
130.161173
 51
152.992842
  0
ARC
  8
APS_GEOMETR�
 10
5276.587138
 20
2260.805868
 40
1.767198
 50
152.959175
 51
175.482119
  0
ARC
  8
APS_GEOMETR�
 10
5278.756199
 20
2260.645556
 40
3.942163
 50
175.64263
 51
205.421101
  0
ARC
  8
APS_GEOMETR�
 10
5289.857871
 20
2265.915226
 40
16.231042
 50
205.39941
 51
213.664634
  0
ARC
  8
APS_GEOMETR�
 10
5293.506069
 20
2268.344407
 40
20.613993
 50
213.663217
 51
220.991097
  0
ARC
  8
APS_GEOMETR�
 10
5326.219933
 20
2296.772399
 40
63.953902
 50
220.990548
 51
229.093848
  0
ARC
  8
APS_GEOMETR�
 10
5325.662256
 20
2296.126358
 40
63.100455
 50
229.092432
 51
237.244289
  0
ARC
  8
APS_GEOMETR�
 10
5329.482065
 20
2302.059514
 40
70.156891
 50
237.242477
 51
244.590911
  0
ARC
  8
APS_GEOMETR�
 10
5325.90079
 20
2294.518516
 40
61.808706
 50
244.590141
 51
252.415447
  0
ARC
  8
APS_GEOMETR�
 10
4946.68337
 20
2266.291654
 40
361.848352
 50
355.134059
 51
355.943963
  0
ARC
  8
APS_GEOMETR�
 10
5158.096436
 20
2251.300429
 40
149.904441
 50
355.943958
 51
357.202304
  0
ARC
  8
APS_GEOMETR�
 10
5222.967913
 20
2248.13031
 40
84.955552
 50
357.202297
 51
359.420767
  0
ARC
  8
APS_GEOMETR�
 10
5290.674478
 20
2247.445787
 40
17.245526
 50
359.420827
 51
4.345935
  0
ARC
  8
APS_GEOMETR�
 10
5279.128488
 20
2246.928411
 40
28.799763
 50
3.631613
 51
16.324586
  0
ARC
  8
APS_GEOMETR�
 10
5263.552184
 20
2242.366979
 40
45.030225
 50
16.323787
 51
26.46218
  0
ARC
  8
APS_GEOMETR�
 10
5310.168543
 20
2265.806235
 40
7.149885
 50
186.645945
 51
208.152639
  0
ARC
  8
APS_GEOMETR�
 10
5307.669775
 20
2265.514378
 40
4.634131
 50
159.830858
 51
186.637236
  0
ARC
  8
APS_GEOMETR�
 10
5304.511605
 20
2263.736015
 40
3.580354
 50
82.89294
 51
109.443027
  0
ARC
  8
APS_GEOMETR�
 10
5304.278448
 20
2261.850656
 40
5.480075
 50
61.508126
 51
82.91279
  0
ARC
  8
APS_GEOMETR�
 10
5301.596946
 20
2256.911385
 40
11.100293
 50
50.452359
 51
61.505389
  0
ARC
  8
APS_GEOMETR�
 10
5299.01215
 20
2253.780485
 40
15.160306
 50
40.991249
 51
50.453798
  0
ARC
  8
APS_GEOMETR�
 10
5293.452148
 20
2248.933604
 40
22.536335
 50
18.553568
 51
41.020294
  0
ARC
  8
APS_GEOMETR�
 10
5274.521759
 20
2242.581407
 40
42.504059
 50
2.230334
 51
18.551639
  0
LINE
  8
APS_GEOMETR�
 10
5316.993619
 11
5316.786389
 20
2244.235531
 21
2237.382073
  0
LINE
  8
APS_GEOMETR�
 10
5316.786389
 11
5316.665434
 20
2237.382073
 21
2232.841552
  0
ARC
  8
APS_GEOMETR�
 10
5344.93676
 20
2360.251442
 40
130.508804
 50
257.489185
 51
260.75311
  0
ARC
  8
APS_GEOMETR�
 10
5329.605893
 20
2266.085102
 40
35.102646
 50
260.753353
 51
267.048348
  0
ARC
  8
APS_GEOMETR�
 10
5328.931295
 20
2255.938702
 40
24.935429
 50
267.395847
 51
281.089675
  0
ARC
  8
APS_GEOMETR�
 10
5331.305563
 20
2243.840317
 40
12.606274
 50
281.076635
 51
300.398554
  0
ARC
  8
APS_GEOMETR�
 10
5342.088287
 20
2225.993249
 40
8.247888
 50
110.068177
 51
122.271403
  0
ARC
  8
APS_GEOMETR�
 10
5340.552166
 20
2230.198351
 40
3.770997
 50
91.996777
 51
110.069321
  0
ARC
  8
APS_GEOMETR�
 10
5340.493718
 20
2231.905885
 40
2.062464
 50
60.618988
 51
92.026864
  0
ARC
  8
APS_GEOMETR�
 10
5338.946105
 20
2229.155461
 40
5.218401
 50
40.996422
 51
60.628279
  0
ARC
  8
APS_GEOMETR�
 10
5339.720389
 20
2229.821265
 40
4.197238
 50
4.317189
 51
41.070462
  0
ARC
  8
APS_GEOMETR�
 10
5314.002801
 20
2227.88185
 40
29.98785
 50
350.765061
 51
4.313265
  0
ARC
  8
APS_GEOMETR�
 10
5292.293995
 20
2230.676743
 40
51.868883
 50
344.621416
 51
351.566196
  0
ARC
  8
APS_GEOMETR�
 10
5325.598674
 20
2221.517184
 40
17.327616
 50
332.594001
 51
344.619225
  0
ARC
  8
APS_GEOMETR�
 10
5335.576958
 20
2232.451104
 40
19.666884
 50
271.909062
 51
285.950535
  0
ARC
  8
APS_GEOMETR�
 10
5334.573495
 20
2262.481998
 40
49.714538
 50
263.095201
 51
271.911918
  0
ARC
  8
APS_GEOMETR�
 10
5338.621509
 20
2282.527717
 40
70.119981
 50
260.197821
 51
261.780552
  0
ARC
  8
APS_GEOMETR�
 10
5362.804952
 20
2422.502676
 40
212.168663
 50
259.287896
 51
260.197798
  0
ARC
  8
APS_GEOMETR�
 10
5384.126856
 20
2535.214909
 40
326.879914
 50
258.697264
 51
259.287888
  0
ARC
  8
APS_GEOMETR�
 10
5450.311435
 20
2866.353891
 40
664.568267
 50
258.28303
 51
258.697261
  0
ARC
  8
APS_GEOMETR�
 10
5213.026053
 20
2221.934406
 40
102.520456
 50
349.652909
 51
356.476342
  0
ARC
  8
APS_GEOMETR�
 10
5253.896869
 20
2214.47312
 40
60.974164
 50
340.802924
 51
349.65207
  0
ARC
  8
APS_GEOMETR�
 10
5266.422228
 20
2209.255098
 40
47.436422
 50
328.033888
 51
341.780474
  0
ARC
  8
APS_GEOMETR�
 10
5282.303384
 20
2199.343332
 40
28.716
 50
310.358702
 51
328.035875
  0
ARC
  8
APS_GEOMETR�
 10
5293.759937
 20
2185.858946
 40
11.021898
 50
287.334044
 51
310.369837
  0
ARC
  8
APS_GEOMETR�
 10
5293.834318
 20
2185.605293
 40
10.757605
 50
264.075877
 51
287.358385
  0
ARC
  8
APS_GEOMETR�
 10
5293.747149
 20
2184.809714
 40
9.957279
 50
238.848085
 51
264.102292
  0
ARC
  8
APS_GEOMETR�
 10
5298.841952
 20
2193.244375
 40
19.811238
 50
220.995682
 51
238.857339
  0
ARC
  8
APS_GEOMETR�
 10
5299.437647
 20
2193.764867
 40
20.602288
 50
206.181042
 51
221.001437
  0
ARC
  8
APS_GEOMETR�
 10
5313.135743
 20
2200.499092
 40
35.86622
 50
194.952304
 51
206.180405
  0
ARC
  8
APS_GEOMETR�
 10
5326.303912
 20
2204.014446
 40
49.495541
 50
186.736825
 51
194.95085
  0
ARC
  8
APS_GEOMETR�
 10
5367.994468
 20
2208.938032
 40
91.475824
 50
180.695483
 51
186.736143
  0
ARC
  8
APS_GEOMETR�
 10
5385.786098
 20
2209.83202
 40
109.279098
 50
175.071588
 51
181.050947
  0
ARC
  8
APS_GEOMETR�
 10
5489.827126
 20
2200.860476
 40
213.706221
 50
170.797031
 51
175.071559
  0
ARC
  8
APS_GEOMETR�
 10
5339.860052
 20
2288.036961
 40
80.798253
 50
214.883193
 51
220.990161
  0
ARC
  8
APS_GEOMETR�
 10
5312.394258
 20
2268.890334
 40
47.317464
 50
206.897056
 51
214.884982
  0
ARC
  8
APS_GEOMETR�
 10
5302.31357
 20
2263.778357
 40
36.014696
 50
196.498721
 51
206.899321
  0
ARC
  8
APS_GEOMETR�
 10
5289.755072
 20
2260.059029
 40
22.917014
 50
183.444375
 51
196.499595
  0
ARC
  8
APS_GEOMETR�
 10
5285.536712
 20
2259.802675
 40
18.690873
 50
153.391557
 51
183.436851
  0
ARC
  8
APS_GEOMETR�
 10
5296.842224
 20
2254.15049
 40
31.330561
 50
130.340844
 51
153.409996
  0
ARC
  8
APS_GEOMETR�
 10
5280.08823
 20
2273.881231
 40
5.446234
 50
98.708664
 51
130.365606
  0
ARC
  8
APS_GEOMETR�
 10
5280.581405
 20
2270.71717
 40
8.648492
 50
73.805226
 51
98.764432
  0
ARC
  8
APS_GEOMETR�
 10
5279.382505
 20
2266.582589
 40
12.953387
 50
56.268961
 51
73.813286
  0
ARC
  8
APS_GEOMETR�
 10
5277.08873
 20
2263.143002
 40
17.087654
 50
40.994423
 51
56.276872
  0
ARC
  8
APS_GEOMETR�
 10
5287.184332
 20
2271.915831
 40
3.712913
 50
21.932851
 51
41.010953
  0
ARC
  8
APS_GEOMETR�
 10
5269.408742
 20
2264.760496
 40
22.874603
 50
14.266401
 51
21.927629
  0
ARC
  8
APS_GEOMETR�
 10
5248.476641
 20
2259.438836
 40
44.472588
 50
10.281459
 51
14.265408
  0
ARC
  8
APS_GEOMETR�
 10
5173.604816
 20
2245.857754
 40
120.566188
 50
7.861697
 51
10.281269
  0
ARC
  8
APS_GEOMETR�
 10
5162.778206
 20
2244.362869
 40
131.495513
 50
5.643173
 51
7.861673
  0
ARC
  8
APS_GEOMETR�
 10
5246.319883
 20
2252.617724
 40
47.546992
 50
1.95325
 51
5.643217
  0
ARC
  8
APS_GEOMETR�
 10
5269.897038
 20
2253.421852
 40
23.956127
 50
354.70848
 51
1.953115
  0
ARC
  8
APS_GEOMETR�
 10
5290.279677
 20
2251.534335
 40
3.486279
 50
335.643265
 51
354.703894
  0
LINE
  8
APS_GEOMETR�
 10
5293.455661
 11
5290.339597
 20
2250.096535
 21
2249.437131
  0
LINE
  8
APS_GEOMETR�
 10
5290.339597
 11
5284.569295
 20
2249.437131
 21
2262.44615
  0
ARC
  8
APS_GEOMETR�
 10
5306.926085
 20
2208.254945
 40
19.557383
 50
199.311422
 51
221.018073
  0
ARC
  8
APS_GEOMETR�
 10
5324.732753
 20
2214.493353
 40
38.425217
 50
183.857991
 51
199.309475
  0
ARC
  8
APS_GEOMETR�
 10
5329.487545
 20
2215.521253
 40
43.244153
 50
176.597264
 51
184.792975
  0
ARC
  8
APS_GEOMETR�
 10
5398.182193
 20
2211.4364
 40
112.060144
 50
171.508737
 51
176.597087
  0
ARC
  8
APS_GEOMETR�
 10
5330.104391
 20
2289.778915
 40
75.14408
 50
235.322258
 51
239.603441
  0
ARC
  8
APS_GEOMETR�
 10
5323.505722
 20
2278.530033
 40
62.102616
 50
239.60336
 51
244.31116
  0
ARC
  8
APS_GEOMETR�
 10
5366.455704
 20
2370.19149
 40
163.325742
 50
244.672096
 51
245.888041
  0
ARC
  8
APS_GEOMETR�
 10
5553.237369
 20
2787.512334
 40
620.539124
 50
245.888
 51
246.511767
  0
ARC
  8
APS_GEOMETR�
 10
5196.303895
 20
2221.779383
 40
109.663342
 50
355.115862
 51
358.228803
  0
ARC
  8
APS_GEOMETR�
 10
5258.176949
 20
2216.492388
 40
47.564815
 50
350.388542
 51
355.115691
  0
ARC
  8
APS_GEOMETR�
 10
5241.729995
 20
2218.997416
 40
64.199746
 50
345.58993
 51
350.635056
  0
ARC
  8
APS_GEOMETR�
 10
5274.336369
 20
2210.619793
 40
30.534331
 50
338.273104
 51
345.589238
  0
ARC
  8
APS_GEOMETR�
 10
5284.170352
 20
2206.701618
 40
19.948523
 50
327.207393
 51
338.27153
  0
ARC
  8
APS_GEOMETR�
 10
5293.689743
 20
2200.56867
 40
8.624574
 50
310.360935
 51
327.206595
  0
ARC
  8
APS_GEOMETR�
 10
5296.816446
 20
2196.88896
 40
3.795853
 50
284.432979
 51
310.368432
  0
ARC
  8
APS_GEOMETR�
 10
5296.806734
 20
2196.91762
 40
3.82603
 50
258.679636
 51
284.466852
  0
ARC
  8
APS_GEOMETR�
 10
5297.40512
 20
2199.969722
 40
6.936224
 50
220.99626
 51
258.781795
  0
CIRCLE
  8
APS_GEOMETR�
 10
7146.619826
 20
-376.617626
 40
30.0
  0
LINE
  8
APS_GEOMETR�
 10
6906.619826
 11
6906.619826
 20
-539.167202
 21
1490.832798
  0
LINE
  8
APS_GEOMETR�
 10
-120.0
 11
-120.0
 20
0.0
 21
2050.0
  0
LINE
  8
APS_GEOMETR�
 10
-120.0
 11
670.0
 20
2050.0
 21
2050.0
  0
LINE
  8
APS_GEOMETR�
 10
670.0
 11
670.0
 20
2050.0
 21
0.0
  0
LINE
  8
APS_GEOMETR�
 10
670.0
 11
-120.0
 20
0.0
 21
0.0
  0
ARC
  8
APS_GEOMETR�
 10
495.637077
 20
673.493294
 40
118.399125
 50
207.094646
 51
234.17783
  0
ARC
  8
APS_GEOMETR�
 10
478.411902
 20
649.694803
 40
89.021022
 50
234.202441
 51
267.001039
  0
ARC
  8
APS_GEOMETR�
 10
477.23352
 20
647.471326
 40
86.745423
 50
267.701483
 51
301.067891
  0
LINE
  8
APS_GEOMETR�
 10
521.998789
 11
521.998789
 20
573.168977
 21
483.370853
  0
ARC
  8
APS_GEOMETR�
 10
487.761116
 20
556.200299
 40
80.475751
 50
265.581035
 51
295.178572
  0
ARC
  8
APS_GEOMETR�
 10
488.727411
 20
559.518398
 40
83.861425
 50
236.29785
 51
265.097469
  0
ARC
  8
APS_GEOMETR�
 10
501.857997
 20
579.055969
 40
107.401256
 50
211.852506
 51
236.253652
  0
ARC
  8
APS_GEOMETR�
 10
527.927957
 20
595.948284
 40
138.461241
 50
191.533997
 51
212.096848
  0
ARC
  8
APS_GEOMETR�
 10
544.331612
 20
599.975725
 40
155.340357
 50
172.754645
 51
191.779723
  0
ARC
  8
APS_GEOMETR�
 10
833.828656
 20
792.195279
 40
538.901948
 50
174.420609
 51
202.084833
  0
ARC
  8
APS_GEOMETR�
 10
845.694153
 20
789.24377
 40
551.00108
 50
146.977577
 51
174.23511
  0
ARC
  8
APS_GEOMETR�
 10
-55.393933
 20
1444.050423
 40
564.355593
 50
321.082431
 51
338.370689
  0
LINE
  8
APS_GEOMETR�
 10
469.224279
 11
469.224279
 20
1236.028868
 21
992.424895
  0
ARC
  8
APS_GEOMETR�
 10
831.015489
 20
658.890568
 40
492.075225
 50
137.327125
 51
162.01267
  0
ARC
  8
APS_GEOMETR�
 10
919.917474
 20
626.581007
 40
586.618671
 50
161.692609
 51
183.616387
  0
LINE
  8
APS_GEOMETR�
 10
26.296296
 11
26.296296
 20
305.53036
 21
1902.870813
  0
LINE
  8
APS_GEOMETR�
 10
26.296296
 11
159.549308
 20
1902.870813
 21
1902.870813
  0
ARC
  8
APS_GEOMETR�
 10
-643.266225
 20
1494.427171
 40
900.743576
 50
359.963686
 51
26.965354
  0
ARC
  8
APS_GEOMETR�
 10
-643.765377
 20
1493.404495
 40
901.24266
 50
336.390217
 51
0.028722
  0
ARC
  8
APS_GEOMETR�
 10
702.523217
 20
904.95325
 40
568.031939
 50
156.390359
 51
182.646955
  0
ARC
  8
APS_GEOMETR�
 10
769.677341
 20
907.933554
 40
635.25206
 50
182.635757
 51
191.780268
  0
ARC
  8
APS_GEOMETR�
 10
760.789019
 20
905.076427
 40
625.968409
 50
191.690355
 51
219.945988
  0
ARC
  8
APS_GEOMETR�
 10
505.285625
 20
704.629445
 40
301.565288
 50
221.917979
 51
239.233561
  0
ARC
  8
APS_GEOMETR�
 10
519.516554
 20
716.901339
 40
319.445142
 50
238.166216
 51
270.75103
  0
LINE
  8
APS_GEOMETR�
 10
523.703704
 11
523.703704
 20
397.48364
 21
305.53036
  0
LINE
  8
APS_GEOMETR�
 10
523.703704
 11
26.296296
 20
305.53036
 21
305.53036
  0
ARC
  8
APS_GEOMETR�
 10
-127.458798
 20
1547.022481
 40
603.189828
 50
11.787854
 51
36.153048
  0
ARC
  8
APS_GEOMETR�
 10
-103.848676
 20
1553.241536
 40
578.808526
 50
346.617354
 51
11.66267
  0
ARC
  8
APS_GEOMETR�
 10
-133.66538
 20
1562.096034
 40
609.867396
 50
326.011034
 51
346.456431
  0
ARC
  8
APS_GEOMETR�
 10
1063.794249
 20
754.433472
 40
834.510817
 50
145.99388
 51
164.275722
  0
ARC
  8
APS_GEOMETR�
 10
1155.747204
 20
727.794714
 40
930.242222
 50
164.231263
 51
180.632666
  0
ARC
  8
APS_GEOMETR�
 10
802.896491
 20
898.836604
 40
605.136398
 50
191.495231
 51
197.435034
  0
ARC
  8
APS_GEOMETR�
 10
831.770571
 20
907.933554
 40
635.25206
 50
182.635757
 51
191.780268
  0
ARC
  8
APS_GEOMETR�
 10
764.616447
 20
904.95325
 40
568.031939
 50
156.390359
 51
182.646955
  0
ARC
  8
APS_GEOMETR�
 10
-581.672147
 20
1493.404495
 40
901.24266
 50
336.390217
 51
0.028722
  0
ARC
  8
APS_GEOMETR�
 10
-581.172996
 20
1494.427171
 40
900.743576
 50
359.963686
 51
26.965354
  0
LINE
  8
APS_GEOMETR�
 10
221.642538
 11
359.583226
 20
1902.870813
 21
1902.870813
  0
LINE
  8
APS_GEOMETR�
 10
0.0
 11
0.0
 20
0.0
 21
2050.0
  0
ARC
  8
APS_GEOMETR�
 10
-127.458798
 20
1547.022481
 40
597.189828
 50
11.788483
 51
35.861247
  0
ARC
  8
APS_GEOMETR�
 10
-103.848676
 20
1553.241536
 40
572.808526
 50
346.618196
 51
11.662014
  0
ARC
  8
APS_GEOMETR�
 10
-133.66538
 20
1562.096034
 40
603.867396
 50
326.011119
 51
346.455631
  0
ARC
  8
APS_GEOMETR�
 10
1063.794249
 20
754.433472
 40
840.510817
 50
145.993942
 51
164.275564
  0
ARC
  8
APS_GEOMETR�
 10
1155.747204
 20
727.794714
 40
936.242222
 50
164.231405
 51
178.026671
  0
ARC
  8
APS_GEOMETR�
 10
802.896491
 20
898.836604
 40
599.136398
 50
191.493804
 51
193.395523
  0
ARC
  8
APS_GEOMETR�
 10
831.770571
 20
907.933554
 40
629.25206
 50
182.635703
 51
191.781627
  0
ARC
  8
APS_GEOMETR�
 10
764.616447
 20
904.95325
 40
562.031939
 50
156.39036
 51
182.647015
  0
ARC
  8
APS_GEOMETR�
 10
-581.672147
 20
1493.404495
 40
907.24266
 50
336.390218
 51
0.028507
  0
ARC
  8
APS_GEOMETR�
 10
-581.172996
 20
1494.427171
 40
906.743576
 50
359.963901
 51
26.348764
  0
LINE
  8
APS_GEOMETR�
 10
231.368097
 11
356.526568
 20
1896.870813
 21
1896.870813
  0
ARC
  8
APS_GEOMETR�
 10
833.828656
 20
792.195279
 40
532.901948
 50
174.421654
 51
198.100635
  0
ARC
  8
APS_GEOMETR�
 10
845.694153
 20
789.24377
 40
545.00108
 50
147.009881
 51
174.234089
  0
ARC
  8
APS_GEOMETR�
 10
-55.393933
 20
1444.050423
 40
570.355593
 50
321.113633
 51
335.407316
  0
LINE
  8
APS_GEOMETR�
 10
463.224279
 11
463.224279
 20
1206.688562
 21
994.760417
  0
ARC
  8
APS_GEOMETR�
 10
831.015489
 20
658.890568
 40
498.075225
 50
137.597424
 51
162.010741
  0
ARC
  8
APS_GEOMETR�
 10
919.917474
 20
626.581007
 40
592.618671
 50
161.694229
 51
179.995303
  0
ARC
  8
APS_GEOMETR�
 10
495.637077
 20
673.493294
 40
124.399125
 50
215.996653
 51
234.178421
  0
ARC
  8
APS_GEOMETR�
 10
478.411902
 20
649.694803
 40
95.021022
 50
234.20166
 51
267.023145
  0
ARC
  8
APS_GEOMETR�
 10
477.23352
 20
647.471326
 40
92.745423
 50
267.678816
 51
294.706807
  0
LINE
  8
APS_GEOMETR�
 10
515.998789
 11
515.998789
 20
563.215956
 21
487.285342
  0
ARC
  8
APS_GEOMETR�
 10
487.761116
 20
556.200299
 40
74.475751
 50
265.600498
 51
292.281201
  0
ARC
  8
APS_GEOMETR�
 10
488.727411
 20
559.518398
 40
77.861425
 50
236.299546
 51
265.078822
  0
ARC
  8
APS_GEOMETR�
 10
501.857997
 20
579.055969
 40
101.401256
 50
211.845301
 51
236.252339
  0
ARC
  8
APS_GEOMETR�
 10
527.927957
 20
595.948284
 40
132.461241
 50
191.528438
 51
212.1024
  0
ARC
  8
APS_GEOMETR�
 10
544.331612
 20
599.975725
 40
149.340357
 50
179.845203
 51
191.784665
  0
LINE
  8
APS_GEOMETR�
 10
1460.0
 11
1460.0
 20
0.0
 21
2050.0
  0
LINE
  8
APS_GEOMETR�
 10
1460.0
 11
670.0
 20
2050.0
 21
2050.0
  0
LINE
  8
APS_GEOMETR�
 10
670.0
 11
670.0
 20
2050.0
 21
0.0
  0
LINE
  8
APS_GEOMETR�
 10
670.0
 11
1460.0
 20
0.0
 21
0.0
  0
ARC
  8
APS_GEOMETR�
 10
844.362923
 20
673.493294
 40
118.399125
 50
305.82217
 51
332.905354
  0
ARC
  8
APS_GEOMETR�
 10
861.588098
 20
649.694803
 40
89.021022
 50
272.998961
 51
305.797559
  0
ARC
  8
APS_GEOMETR�
 10
862.76648
 20
647.471326
 40
86.745423
 50
238.932109
 51
272.298517
  0
LINE
  8
APS_GEOMETR�
 10
818.001211
 11
818.001211
 20
573.168977
 21
483.370853
  0
ARC
  8
APS_GEOMETR�
 10
852.238884
 20
556.200299
 40
80.475751
 50
244.821428
 51
274.418965
  0
ARC
  8
APS_GEOMETR�
 10
851.272589
 20
559.518398
 40
83.861425
 50
274.902531
 51
303.70215
  0
ARC
  8
APS_GEOMETR�
 10
838.142003
 20
579.055969
 40
107.401256
 50
303.746348
 51
328.147494
  0
ARC
  8
APS_GEOMETR�
 10
812.072043
 20
595.948284
 40
138.461241
 50
327.903152
 51
348.466003
  0
ARC
  8
APS_GEOMETR�
 10
795.668388
 20
599.975725
 40
155.340357
 50
348.220277
 51
7.245355
  0
ARC
  8
APS_GEOMETR�
 10
506.171344
 20
792.195279
 40
538.901948
 50
337.915167
 51
5.579391
  0
ARC
  8
APS_GEOMETR�
 10
494.305847
 20
789.24377
 40
551.00108
 50
5.76489
 51
33.022423
  0
ARC
  8
APS_GEOMETR�
 10
1395.393933
 20
1444.050423
 40
564.355593
 50
201.629311
 51
218.917569
  0
LINE
  8
APS_GEOMETR�
 10
870.775721
 11
870.775721
 20
1236.028868
 21
992.424895
  0
ARC
  8
APS_GEOMETR�
 10
508.984511
 20
658.890568
 40
492.075225
 50
17.98733
 51
42.672875
  0
ARC
  8
APS_GEOMETR�
 10
420.082526
 20
626.581007
 40
586.618671
 50
356.383613
 51
18.307391
  0
LINE
  8
APS_GEOMETR�
 10
1313.703704
 11
1313.703704
 20
305.53036
 21
1902.870813
  0
LINE
  8
APS_GEOMETR�
 10
1313.703704
 11
1180.450692
 20
1902.870813
 21
1902.870813
  0
ARC
  8
APS_GEOMETR�
 10
1983.266225
 20
1494.427171
 40
900.743576
 50
153.034646
 51
180.036314
  0
ARC
  8
APS_GEOMETR�
 10
1983.765377
 20
1493.404495
 40
901.24266
 50
179.971278
 51
203.609783
  0
ARC
  8
APS_GEOMETR�
 10
637.476783
 20
904.95325
 40
568.031939
 50
357.353045
 51
23.609641
  0
ARC
  8
APS_GEOMETR�
 10
570.322659
 20
907.933554
 40
635.25206
 50
348.219732
 51
357.364243
  0
ARC
  8
APS_GEOMETR�
 10
579.210981
 20
905.076427
 40
625.968409
 50
320.054012
 51
348.309645
  0
ARC
  8
APS_GEOMETR�
 10
834.714375
 20
704.629445
 40
301.565288
 50
300.766439
 51
318.082021
  0
ARC
  8
APS_GEOMETR�
 10
820.483446
 20
716.901339
 40
319.445142
 50
269.24897
 51
301.833784
  0
LINE
  8
APS_GEOMETR�
 10
816.296296
 11
816.296296
 20
397.48364
 21
305.53036
  0
LINE
  8
APS_GEOMETR�
 10
816.296296
 11
1313.703704
 20
305.53036
 21
305.53036
  0
ARC
  8
APS_GEOMETR�
 10
1467.458798
 20
1547.022481
 40
603.189828
 50
143.846952
 51
168.212146
  0
ARC
  8
APS_GEOMETR�
 10
1443.848676
 20
1553.241536
 40
578.808526
 50
168.33733
 51
193.382646
  0
ARC
  8
APS_GEOMETR�
 10
1473.66538
 20
1562.096034
 40
609.867396
 50
193.543569
 51
213.988966
  0
ARC
  8
APS_GEOMETR�
 10
276.205751
 20
754.433472
 40
834.510817
 50
15.724278
 51
34.00612
  0
ARC
  8
APS_GEOMETR�
 10
184.252796
 20
727.794714
 40
930.242222
 50
359.367334
 51
15.768737
  0
ARC
  8
APS_GEOMETR�
 10
537.103509
 20
898.836604
 40
605.136398
 50
342.564966
 51
348.504769
  0
ARC
  8
APS_GEOMETR�
 10
508.229429
 20
907.933554
 40
635.25206
 50
348.219732
 51
357.364243
  0
ARC
  8
APS_GEOMETR�
 10
575.383553
 20
904.95325
 40
568.031939
 50
357.353045
 51
23.609641
  0
ARC
  8
APS_GEOMETR�
 10
1921.672147
 20
1493.404495
 40
901.24266
 50
179.971278
 51
203.609783
  0
ARC
  8
APS_GEOMETR�
 10
1921.172996
 20
1494.427171
 40
900.743576
 50
153.034646
 51
180.036314
  0
LINE
  8
APS_GEOMETR�
 10
1118.357462
 11
980.416774
 20
1902.870813
 21
1902.870813
  0
LINE
  8
APS_GEOMETR�
 10
1340.0
 11
1340.0
 20
0.0
 21
2050.0
  0
ARC
  8
APS_GEOMETR�
 10
1467.458798
 20
1547.022481
 40
597.189828
 50
144.138753
 51
168.211517
  0
ARC
  8
APS_GEOMETR�
 10
1443.848676
 20
1553.241536
 40
572.808526
 50
168.337986
 51
193.381804
  0
ARC
  8
APS_GEOMETR�
 10
1473.66538
 20
1562.096034
 40
603.867396
 50
193.544369
 51
213.988881
  0
ARC
  8
APS_GEOMETR�
 10
276.205751
 20
754.433472
 40
840.510817
 50
15.724436
 51
34.006058
  0
ARC
  8
APS_GEOMETR�
 10
184.252796
 20
727.794714
 40
936.242222
 50
1.973329
 51
15.768595
  0
ARC
  8
APS_GEOMETR�
 10
537.103509
 20
898.836604
 40
599.136398
 50
346.604477
 51
348.506196
  0
ARC
  8
APS_GEOMETR�
 10
508.229429
 20
907.933554
 40
629.25206
 50
348.218373
 51
357.364297
  0
ARC
  8
APS_GEOMETR�
 10
575.383553
 20
904.95325
 40
562.031939
 50
357.352985
 51
23.60964
  0
ARC
  8
APS_GEOMETR�
 10
1921.672147
 20
1493.404495
 40
907.24266
 50
179.971493
 51
203.609782
  0
ARC
  8
APS_GEOMETR�
 10
1921.172996
 20
1494.427171
 40
906.743576
 50
153.651236
 51
180.036099
  0
LINE
  8
APS_GEOMETR�
 10
1108.631903
 11
983.473432
 20
1896.870813
 21
1896.870813
  0
ARC
  8
APS_GEOMETR�
 10
506.171344
 20
792.195279
 40
532.901948
 50
341.899365
 51
5.578346
  0
ARC
  8
APS_GEOMETR�
 10
494.305847
 20
789.24377
 40
545.00108
 50
5.765911
 51
32.990119
  0
ARC
  8
APS_GEOMETR�
 10
1395.393933
 20
1444.050423
 40
570.355593
 50
204.592684
 51
218.886367
  0
LINE
  8
APS_GEOMETR�
 10
876.775721
 11
876.775721
 20
1206.688562
 21
994.760417
  0
ARC
  8
APS_GEOMETR�
 10
508.984511
 20
658.890568
 40
498.075225
 50
17.989259
 51
42.402576
  0
ARC
  8
APS_GEOMETR�
 10
420.082526
 20
626.581007
 40
592.618671
 50
0.004697
 51
18.305771
  0
ARC
  8
APS_GEOMETR�
 10
844.362923
 20
673.493294
 40
124.399125
 50
305.821579
 51
324.003347
  0
ARC
  8
APS_GEOMETR�
 10
861.588098
 20
649.694803
 40
95.021022
 50
272.976855
 51
305.79834
  0
ARC
  8
APS_GEOMETR�
 10
862.76648
 20
647.471326
 40
92.745423
 50
245.293193
 51
272.321184
  0
LINE
  8
APS_GEOMETR�
 10
824.001211
 11
824.001211
 20
563.215956
 21
487.285342
  0
ARC
  8
APS_GEOMETR�
 10
852.238884
 20
556.200299
 40
74.475751
 50
247.718799
 51
274.399502
  0
ARC
  8
APS_GEOMETR�
 10
851.272589
 20
559.518398
 40
77.861425
 50
274.921178
 51
303.700454
  0
ARC
  8
APS_GEOMETR�
 10
838.142003
 20
579.055969
 40
101.401256
 50
303.747661
 51
328.154699
  0
ARC
  8
APS_GEOMETR�
 10
812.072043
 20
595.948284
 40
132.461241
 50
327.8976
 51
348.471562
  0
ARC
  8
APS_GEOMETR�
 10
795.668388
 20
599.975725
 40
149.340357
 50
348.215335
 51
0.154797
  0
ENDSEC
  0
EOF
