0
SECTION
2
HEADER
9
$EXTMIN
10
1.508268
20
1.370318
9
$EXTMAX
10
44.684082
20
32.200539
0
ENDSEC
0
SECTION
2
TABLES
0
TABLE
2
LTYPE
70
1
0
LTYPE
2
0
70
0
3
Solid Line
72
65
73
0
40
0.0
0
ENDTAB
0
TABLE
2
LAYER
70
1
0
LAYER
2
1
70
0
62
7
6
0
0
ENDTAB
0
ENDSEC
0
SECTION
2
BLOCKS
0
ENDSEC
0
SECTION
2
ENTITIES
0
POLYLINE
8
1
66
1
70
1
0
VERTEX
8
1
10
18.158325
20
11.151413
42
0.127052
0
VERTEX
8
1
10
18.208252
20
11.334854
0
VERTEX
8
1
10
18.176270
20
11.340585
42
-0.015638
0
VERTEX
8
1
10
17.699070
20
11.399714
42
-0.048393
0
VERTEX
8
1
10
17.244629
20
11.531761
0
VERTEX
8
1
10
17.165039
20
11.571045
0
VERTEX
8
1
10
17.105103
20
11.619812
0
VERTEX
8
1
10
17.059814
20
11.678436
0
VERTEX
8
1
10
17.028687
20
11.746254
42
-0.134882
0
VERTEX
8
1
10
17.025839
20
12.051011
42
-0.074613
0
VERTEX
8
1
10
17.179451
20
12.446494
42
-0.044168
0
VERTEX
8
1
10
17.473633
20
12.901886
0
VERTEX
8
1
10
17.660278
20
13.147575
0
VERTEX
8
1
10
17.851440
20
13.440826
0
VERTEX
8
1
10
18.021362
20
13.745605
0
VERTEX
8
1
10
18.171021
20
14.056656
42
0.067633
0
VERTEX
8
1
10
18.766479
20
16.141083
0
VERTEX
8
1
10
18.781494
20
16.272400
0
VERTEX
8
1
10
18.787109
20
16.357529
0
VERTEX
8
1
10
18.783936
20
16.392197
0
VERTEX
8
1
10
18.778894
20
16.407457
42
-0.440778
0
VERTEX
8
1
10
18.860622
20
16.547693
42
-0.090098
0
VERTEX
8
1
10
18.911133
20
16.553452
0
VERTEX
8
1
10
19.118652
20
16.457382
0
VERTEX
8
1
10
19.425293
20
16.272659
0
VERTEX
8
1
10
19.703979
20
16.062225
0
VERTEX
8
1
10
19.956177
20
15.829834
0
VERTEX
8
1
10
20.183472
20
15.579254
0
VERTEX
8
1
10
20.387085
20
15.314247
0
VERTEX
8
1
10
20.568604
20
15.038582
0
VERTEX
8
1
10
20.729248
20
14.756004
0
VERTEX
8
1
10
20.870728
20
14.470291
42
-0.056465
0
VERTEX
8
1
10
21.423691
20
12.748621
42
-0.067954
0
VERTEX
8
1
10
21.481009
20
11.599475
42
-0.056114
0
VERTEX
8
1
10
21.378714
20
11.096867
42
-0.067837
0
VERTEX
8
1
10
21.254416
20
10.844744
42
-0.151847
0
VERTEX
8
1
10
21.050386
20
10.688702
42
-0.116097
0
VERTEX
8
1
10
20.908178
20
10.677028
42
-0.084952
0
VERTEX
8
1
10
20.707031
20
10.731750
0
VERTEX
8
1
10
20.616699
20
10.768112
42
0.093772
0
VERTEX
8
1
10
19.839722
20
10.928589
0
VERTEX
8
1
10
19.781738
20
10.926262
0
VERTEX
8
1
10
19.750244
20
10.902130
42
-0.079445
0
VERTEX
8
1
10
19.746338
20
10.346825
42
0.198878
0
VERTEX
8
1
10
19.955536
20
10.130965
0
VERTEX
8
1
10
19.985790
20
10.112639
0
VERTEX
8
1
10
20.015381
20
10.093262
42
-0.297579
0
VERTEX
8
1
10
20.102566
20
9.897821
42
0.286517
0
VERTEX
8
1
10
20.142494
20
9.836013
42
0.044557
0
VERTEX
8
1
10
20.212769
20
9.797562
0
VERTEX
8
1
10
20.243408
20
9.794868
42
-0.338493
0
VERTEX
8
1
10
20.316637
20
9.701008
42
-0.040642
0
VERTEX
8
1
10
20.304386
20
9.546650
0
VERTEX
8
1
10
20.299791
20
9.491797
0
VERTEX
8
1
10
20.295898
20
9.436890
0
VERTEX
8
1
10
20.306274
20
9.404068
42
-0.356516
0
VERTEX
8
1
10
20.344604
20
9.218132
42
0.008883
0
VERTEX
8
1
10
20.270386
20
9.061410
0
VERTEX
8
1
10
20.282959
20
9.041992
42
-0.378826
0
VERTEX
8
1
10
20.282227
20
8.970467
42
-0.111048
0
VERTEX
8
1
10
20.130615
20
8.863495
0
VERTEX
8
1
10
20.130615
20
8.762245
42
-0.234937
0
VERTEX
8
1
10
20.063026
20
8.629874
42
-0.144776
0
VERTEX
8
1
10
19.801025
20
8.506226
42
-0.202208
0
VERTEX
8
1
10
19.586658
20
8.402730
42
-0.129724
0
VERTEX
8
1
10
19.265991
20
8.445190
0
VERTEX
8
1
10
19.237671
20
8.442764
42
-0.158151
0
VERTEX
8
1
10
18.895020
20
8.369118
42
-0.004056
0
VERTEX
8
1
10
18.400148
20
7.581741
42
-0.160939
0
VERTEX
8
1
10
18.500366
20
7.479660
42
-0.099487
0
VERTEX
8
1
10
18.767334
20
6.560982
42
-0.004439
0
VERTEX
8
1
10
19.180548
20
6.283763
42
-0.082381
0
VERTEX
8
1
10
19.309105
20
6.157575
42
-0.493090
0
VERTEX
8
1
10
19.216064
20
5.947487
42
-0.191991
0
VERTEX
8
1
10
19.060669
20
5.992683
42
0.009680
0
VERTEX
8
1
10
18.624878
20
6.294930
42
-0.072480
0
VERTEX
8
1
10
18.017296
20
6.293544
42
-0.065064
0
VERTEX
8
1
10
17.693233
20
6.373106
42
-0.081572
0
VERTEX
8
1
10
17.605713
20
6.434517
0
VERTEX
8
1
10
17.601807
20
6.434624
42
-0.017934
0
VERTEX
8
1
10
17.304321
20
6.115112
0
VERTEX
8
1
10
17.295288
20
6.102936
0
VERTEX
8
1
10
17.306396
20
6.096924
42
0.048581
0
VERTEX
8
1
10
17.630320
20
5.890988
42
0.034964
0
VERTEX
8
1
10
18.170776
20
5.647713
0
VERTEX
8
1
10
18.184710
20
5.663182
42
-0.131737
0
VERTEX
8
1
10
18.286346
20
5.741267
42
-0.295718
0
VERTEX
8
1
10
18.439177
20
5.694086
42
-0.308705
0
VERTEX
8
1
10
18.468994
20
5.535896
42
0.003077
0
VERTEX
8
1
10
18.661608
20
5.477241
42
-0.160405
0
VERTEX
8
1
10
18.782791
20
5.386682
42
-0.501935
0
VERTEX
8
1
10
18.687542
20
5.183809
42
-0.133891
0
VERTEX
8
1
10
18.564209
20
5.183319
42
-0.038772
0
VERTEX
8
1
10
18.244019
20
5.286789
0
VERTEX
8
1
10
18.213745
20
5.276619
42
-0.067983
0
VERTEX
8
1
10
17.652954
20
4.932526
0
VERTEX
8
1
10
17.646240
20
4.783974
42
-0.055264
0
VERTEX
8
1
10
17.603777
20
4.481932
42
-0.149443
0
VERTEX
8
1
10
17.524714
20
4.359375
42
-0.658429
0
VERTEX
8
1
10
17.308228
20
4.499741
42
0.022841
0
VERTEX
8
1
10
17.345215
20
4.810387
0
VERTEX
8
1
10
17.340820
20
4.815514
0
VERTEX
8
1
10
17.321264
20
4.811847
0
VERTEX
8
1
10
17.301479
20
4.809729
42
-0.811823
0
VERTEX
8
1
10
17.207863
20
5.075104
42
-0.098625
0
VERTEX
8
1
10
17.279785
20
5.107094
0
VERTEX
8
1
10
17.335571
20
5.126877
42
0.040754
0
VERTEX
8
1
10
17.245625
20
5.633073
42
0.045527
0
VERTEX
8
1
10
17.181519
20
5.784149
42
-0.029926
0
VERTEX
8
1
10
17.099281
20
5.908648
0
VERTEX
8
1
10
17.096191
20
5.915627
42
-0.018312
0
VERTEX
8
1
10
16.657104
20
5.542511
0
VERTEX
8
1
10
16.658203
20
5.536026
42
-0.657435
0
VERTEX
8
1
10
16.670532
20
5.272416
42
-0.028707
0
VERTEX
8
1
10
17.014057
20
4.567369
42
-0.044428
0
VERTEX
8
1
10
17.170055
20
4.046391
42
-0.095631
0
VERTEX
8
1
10
17.171217
20
3.874979
42
-0.420162
0
VERTEX
8
1
10
16.950037
20
3.755645
42
-0.119890
0
VERTEX
8
1
10
16.769970
20
3.846258
42
-0.052362
0
VERTEX
8
1
10
16.511719
20
4.079254
0
VERTEX
8
1
10
16.482788
20
4.099518
42
-0.033645
0
VERTEX
8
1
10
16.540773
20
3.740463
42
-0.078569
0
VERTEX
8
1
10
16.519115
20
3.542842
42
-0.345094
0
VERTEX
8
1
10
16.326921
20
3.421355
42
-0.116214
0
VERTEX
8
1
10
16.215088
20
3.452347
42
-0.098649
0
VERTEX
8
1
10
15.736016
20
3.835333
42
-0.038997
0
VERTEX
8
1
10
15.307861
20
4.406395
42
-0.563914
0
VERTEX
8
1
10
15.073349
20
4.486318
0
VERTEX
8
1
10
15.070199
20
4.503156
0
VERTEX
8
1
10
15.068970
20
4.520241
0
VERTEX
8
1
10
15.051270
20
4.513762
42
-0.010908
0
VERTEX
8
1
10
14.612428
20
4.297484
0
VERTEX
8
1
10
14.611694
20
4.293991
42
0.058946
0
VERTEX
8
1
10
14.834096
20
4.010327
42
0.033073
0
VERTEX
8
1
10
15.262695
20
3.600250
0
VERTEX
8
1
10
15.282720
20
3.611181
42
-0.147329
0
VERTEX
8
1
10
15.411763
20
3.650387
42
-0.298021
0
VERTEX
8
1
10
15.536217
20
3.548111
42
-0.294750
0
VERTEX
8
1
10
15.510132
20
3.399315
0
VERTEX
8
1
10
15.510742
20
3.395781
42
-0.000288
0
VERTEX
8
1
10
15.682652
20
3.268933
0
VERTEX
8
1
10
15.697501
20
3.254541
42
-0.247755
0
VERTEX
8
1
10
15.751832
20
3.099670
42
-0.438961
0
VERTEX
8
1
10
15.569458
20
2.996353
42
-0.107455
0
VERTEX
8
1
10
15.433806
20
3.064955
42
-0.034332
0
VERTEX
8
1
10
15.223022
20
3.229164
0
VERTEX
8
1
10
15.196777
20
3.242500
42
-0.068757
0
VERTEX
8
1
10
14.558350
20
3.099533
0
VERTEX
8
1
10
14.520020
20
3.053162
42
-0.054699
0
VERTEX
8
1
10
14.350228
20
2.697957
42
-0.142911
0
VERTEX
8
1
10
14.233944
20
2.600764
42
-0.665815
0
VERTEX
8
1
10
14.069336
20
2.801170
42
0.016898
0
VERTEX
8
1
10
14.207764
20
3.084137
0
VERTEX
8
1
10
14.204956
20
3.090164
42
-0.258495
0
VERTEX
8
1
10
14.067800
20
3.172088
42
-0.581194
0
VERTEX
8
1
10
14.209595
20
3.385620
0
VERTEX
8
1
10
14.227051
20
3.386070
0
VERTEX
8
1
10
14.304199
20
3.386467
42
0.041724
0
VERTEX
8
1
10
14.387039
20
3.901903
42
0.088884
0
VERTEX
8
1
10
14.343994
20
4.178802
42
-0.017438
0
VERTEX
8
1
10
14.139893
20
4.100372
42
0.166019
0
VERTEX
8
1
10
14.006348
20
3.920166
0
VERTEX
8
1
10
13.484375
20
3.919998
42
-0.048142
0
VERTEX
8
1
10
13.378174
20
3.706108
0
VERTEX
8
1
10
13.369385
20
3.658447
42
-0.246932
0
VERTEX
8
1
10
13.297173
20
3.581112
42
-0.087029
0
VERTEX
8
1
10
13.208252
20
3.554947
0
VERTEX
8
1
10
13.126099
20
3.540573
0
VERTEX
8
1
10
13.099121
20
3.534126
42
-0.364591
0
VERTEX
8
1
10
12.785156
20
3.392776
0
VERTEX
8
1
10
12.764648
20
3.385216
42
-0.417140
0
VERTEX
8
1
10
12.536417
20
3.298875
42
-0.125991
0
VERTEX
8
1
10
12.389893
20
3.394035
0
VERTEX
8
1
10
12.351440
20
3.368614
0
VERTEX
8
1
10
12.331055
20
3.362274
42
-0.155598
0
VERTEX
8
1
10
12.213135
20
3.399773
42
0.031452
0
VERTEX
8
1
10
12.049194
20
3.499168
0
VERTEX
8
1
10
12.020630
20
3.507645
0
VERTEX
8
1
10
11.987305
20
3.499069
0
VERTEX
8
1
10
11.947998
20
3.480659
42
0.052144
0
VERTEX
8
1
10
11.656105
20
3.256008
42
-0.009535
0
VERTEX
8
1
10
11.370972
20
3.022743
0
VERTEX
8
1
10
11.327393
20
2.993721
42
-0.292880
0
VERTEX
8
1
10
11.157898
20
2.989027
42
-0.103026
0
VERTEX
8
1
10
11.030155
20
3.084749
42
-0.046365
0
VERTEX
8
1
10
10.832031
20
3.320534
0
VERTEX
8
1
10
10.737549
20
3.453461
42
0.074575
0
VERTEX
8
1
10
10.644653
20
3.534714
42
-0.047546
0
VERTEX
8
1
10
10.568726
20
3.363426
42
-0.094936
0
VERTEX
8
1
10
10.492476
20
3.198103
42
-0.608561
0
VERTEX
8
1
10
10.250971
20
3.267435
42
-0.158449
0
VERTEX
8
1
10
10.259888
20
3.411926
0
VERTEX
8
1
10
10.265015
20
3.430290
0
VERTEX
8
1
10
10.266235
20
3.439873
42
0.328995
0
VERTEX
8
1
10
9.898067
20
3.544883
42
0.248684
0
VERTEX
8
1
10
9.719116
20
3.325829
42
0.200626
0
VERTEX
8
1
10
9.722900
20
3.191246
42
0.088224
0
VERTEX
8
1
10
9.887663
20
3.041055
42
-0.055301
0
VERTEX
8
1
10
10.093198
20
2.850453
42
-0.246533
0
VERTEX
8
1
10
10.143311
20
2.508934
42
-0.351065
0
VERTEX
8
1
10
9.802422
20
2.248339
42
-0.162669
0
VERTEX
8
1
10
9.434082
20
2.357780
0
VERTEX
8
1
10
9.429443
20
2.357277
0
VERTEX
8
1
10
9.411011
20
2.305046
42
-0.457747
0
VERTEX
8
1
10
9.219944
20
2.205315
42
-0.396594
0
VERTEX
8
1
10
9.124023
20
2.381393
42
-0.021146
0
VERTEX
8
1
10
9.266823
20
2.792836
42
-0.108099
0
VERTEX
8
1
10
9.365012
20
2.933309
42
-0.587977
0
VERTEX
8
1
10
9.584440
20
2.830456
0
VERTEX
8
1
10
9.585994
20
2.811813
42
-0.026236
0
VERTEX
8
1
10
9.564865
20
2.668992
42
0.339141
0
VERTEX
8
1
10
9.619783
20
2.584200
42
0.062685
0
VERTEX
8
1
10
9.763494
20
2.548531
0
VERTEX
8
1
10
9.781549
20
2.549647
42
0.451347
0
VERTEX
8
1
10
9.852488
20
2.635104
0
VERTEX
8
1
10
9.850221
20
2.647670
42
0.134060
0
VERTEX
8
1
10
9.745239
20
2.767845
0
VERTEX
8
1
10
9.607422
20
2.877792
0
VERTEX
8
1
10
9.584708
20
2.896570
42
-0.124222
0
VERTEX
8
1
10
9.421081
20
3.104572
0
VERTEX
8
1
10
9.411073
20
3.132687
0
VERTEX
8
1
10
9.403104
20
3.161447
0
VERTEX
8
1
10
9.397217
20
3.190704
42
-0.135037
0
VERTEX
8
1
10
9.461176
20
3.519775
42
-0.244982
0
VERTEX
8
1
10
9.886841
20
3.856873
42
-0.034632
0
VERTEX
8
1
10
9.590826
20
3.955402
42
-0.012894
0
VERTEX
8
1
10
9.057617
20
4.173470
42
-0.203093
0
VERTEX
8
1
10
9.107284
20
3.806460
42
-0.304697
0
VERTEX
8
1
10
8.609619
20
3.334160
0
VERTEX
8
1
10
8.608521
20
3.323547
42
-0.019995
0
VERTEX
8
1
10
8.687012
20
3.145592
0
VERTEX
8
1
10
8.768555
20
2.925255
42
0.150044
0
VERTEX
8
1
10
8.868652
20
2.860283
42
-0.097898
0
VERTEX
8
1
10
8.992882
20
2.899447
42
-0.525790
0
VERTEX
8
1
10
9.109759
20
2.719335
42
-0.280040
0
VERTEX
8
1
10
8.947113
20
2.578096
42
-0.205747
0
VERTEX
8
1
10
8.676392
20
2.622551
42
-0.192506
0
VERTEX
8
1
10
8.494751
20
2.800407
42
0.029025
0
VERTEX
8
1
10
8.316977
20
3.262357
42
0.105870
0
VERTEX
8
1
10
8.196167
20
3.417587
42
-0.109053
0
VERTEX
8
1
10
8.165283
20
3.467400
42
0.022480
0
VERTEX
8
1
10
8.025426
20
3.128827
42
-0.164520
0
VERTEX
8
1
10
7.939384
20
3.030256
42
-0.636633
0
VERTEX
8
1
10
7.736938
20
3.215576
42
-0.054842
0
VERTEX
8
1
10
7.787567
20
3.365191
42
-0.055923
0
VERTEX
8
1
10
8.272461
20
4.279869
0
VERTEX
8
1
10
8.246338
20
4.298210
42
-0.013491
0
VERTEX
8
1
10
8.036886
20
4.355415
0
VERTEX
8
1
10
8.012651
20
4.366452
0
VERTEX
8
1
10
7.989258
20
4.379173
42
-0.634617
0
VERTEX
8
1
10
7.995239
20
4.651482
0
VERTEX
8
1
10
7.989627
20
4.657912
42
-0.002997
0
VERTEX
8
1
10
7.672973
20
4.808426
0
VERTEX
8
1
10
7.674194
20
4.801941
42
-0.192490
0
VERTEX
8
1
10
7.754710
20
4.280283
42
-0.137446
0
VERTEX
8
1
10
7.465046
20
3.698336
42
-0.264598
0
VERTEX
8
1
10
6.795063
20
3.504227
42
-0.118377
0
VERTEX
8
1
10
6.406886
20
3.692539
42
-0.289371
0
VERTEX
8
1
10
6.188477
20
4.424599
42
-0.165344
0
VERTEX
8
1
10
6.606553
20
5.063582
42
-0.200384
0
VERTEX
8
1
10
7.092285
20
5.181206
0
VERTEX
8
1
10
7.098022
20
5.187553
42
-0.010774
0
VERTEX
8
1
10
6.705690
20
5.529075
0
VERTEX
8
1
10
6.699341
20
5.527977
42
-0.107068
0
VERTEX
8
1
10
6.654419
20
5.446259
42
0.018832
0
VERTEX
8
1
10
5.751099
20
4.493973
42
-0.124616
0
VERTEX
8
1
10
5.638037
20
4.422180
42
-0.458226
0
VERTEX
8
1
10
5.455322
20
4.569389
42
-0.170285
0
VERTEX
8
1
10
5.528076
20
4.710693
42
-0.006646
0
VERTEX
8
1
10
5.853516
20
5.065217
0
VERTEX
8
1
10
5.853395
20
5.078193
42
-0.009322
0
VERTEX
8
1
10
5.382690
20
5.520386
0
VERTEX
8
1
10
5.365846
20
5.527131
42
0.010374
0
VERTEX
8
1
10
4.987768
20
5.128566
42
-0.123001
0
VERTEX
8
1
10
4.882468
20
5.072614
42
-0.673675
0
VERTEX
8
1
10
4.743452
20
5.317691
42
-0.028498
0
VERTEX
8
1
10
4.866909
20
5.454768
42
-0.002087
0
VERTEX
8
1
10
5.177002
20
5.778580
42
-0.520648
0
VERTEX
8
1
10
5.328369
20
5.936920
0
VERTEX
8
1
10
5.340088
20
5.938995
42
-0.006942
0
VERTEX
8
1
10
5.719732
20
6.291749
42
-0.194853
0
VERTEX
8
1
10
5.858765
20
6.328941
42
0.002158
0
VERTEX
8
1
10
5.584717
20
6.600220
42
-0.094611
0
VERTEX
8
1
10
5.585652
20
6.390267
42
-0.873828
0
VERTEX
8
1
10
5.290771
20
6.426468
42
0.197401
0
VERTEX
8
1
10
5.123160
20
6.833883
42
0.308386
0
VERTEX
8
1
10
4.660481
20
6.900074
42
0.157673
0
VERTEX
8
1
10
4.257175
20
6.549226
42
0.264791
0
VERTEX
8
1
10
4.273714
20
6.215414
42
0.115033
0
VERTEX
8
1
10
4.498757
20
5.965564
42
0.112081
0
VERTEX
8
1
10
4.649414
20
5.914146
0
VERTEX
8
1
10
4.740234
20
5.916801
42
-0.704488
0
VERTEX
8
1
10
4.837399
20
5.658127
42
-0.215848
0
VERTEX
8
1
10
4.688270
20
5.608087
42
-0.150146
0
VERTEX
8
1
10
4.332774
20
5.719462
42
-0.169214
0
VERTEX
8
1
10
3.942715
20
6.213299
42
-0.246476
0
VERTEX
8
1
10
4.058604
20
6.809440
42
-0.146646
0
VERTEX
8
1
10
4.599634
20
7.208938
42
-0.167297
0
VERTEX
8
1
10
5.099487
20
7.197693
0
VERTEX
8
1
10
5.104614
20
7.198341
0
VERTEX
8
1
10
5.084473
20
7.222923
42
-0.029776
0
VERTEX
8
1
10
4.852905
20
7.528848
42
-0.054717
0
VERTEX
8
1
10
4.803711
20
7.498634
42
-0.003385
0
VERTEX
8
1
10
4.430174
20
7.343293
42
0.004842
0
VERTEX
8
1
10
3.921322
20
7.084102
42
0.033147
0
VERTEX
8
1
10
3.691560
20
6.934207
42
-0.073846
0
VERTEX
8
1
10
3.572730
20
6.871326
42
-0.465737
0
VERTEX
8
1
10
3.379782
20
7.008976
42
-0.140790
0
VERTEX
8
1
10
3.405029
20
7.216805
42
-0.053056
0
VERTEX
8
1
10
3.899048
20
8.177979
0
VERTEX
8
1
10
3.882690
20
8.183365
42
0.036891
0
VERTEX
8
1
10
3.336114
20
7.919048
42
-0.012427
0
VERTEX
8
1
10
3.052490
20
7.767624
42
-0.810442
0
VERTEX
8
1
10
2.884099
20
7.990815
42
-0.119268
0
VERTEX
8
1
10
3.008789
20
8.093246
42
-0.056766
0
VERTEX
8
1
10
4.085883
20
8.576866
42
-0.034170
0
VERTEX
8
1
10
4.220337
20
8.604736
42
-0.008012
0
VERTEX
8
1
10
3.856812
20
9.335098
0
VERTEX
8
1
10
3.841675
20
9.322517
42
0.058630
0
VERTEX
8
1
10
3.560179
20
9.092247
42
0.034323
0
VERTEX
8
1
10
3.156128
20
8.651756
0
VERTEX
8
1
10
3.188354
20
8.594223
42
-0.456928
0
VERTEX
8
1
10
3.118375
20
8.382820
42
-0.309530
0
VERTEX
8
1
10
2.959473
20
8.401733
0
VERTEX
8
1
10
2.955811
20
8.400543
42
0.006262
0
VERTEX
8
1
10
2.851730
20
8.251623
42
-0.124721
0
VERTEX
8
1
10
2.740603
20
8.157605
42
-0.615825
0
VERTEX
8
1
10
2.558717
20
8.334667
42
-0.107697
0
VERTEX
8
1
10
2.608521
20
8.450348
42
-0.023356
0
VERTEX
8
1
10
2.784668
20
8.686699
0
VERTEX
8
1
10
2.795654
20
8.713936
42
-0.069331
0
VERTEX
8
1
10
2.640015
20
9.351852
0
VERTEX
8
1
10
2.589233
20
9.387848
42
-0.058146
0
VERTEX
8
1
10
2.236692
20
9.548188
42
-0.127587
0
VERTEX
8
1
10
2.140967
20
9.647164
42
-0.712804
0
VERTEX
8
1
10
2.335571
20
9.829979
0
VERTEX
8
1
10
2.352295
20
9.823044
42
0.027030
0
VERTEX
8
1
10
2.619385
20
9.697800
0
VERTEX
8
1
10
2.625000
20
9.701721
0
VERTEX
8
1
10
2.628204
20
9.724313
0
VERTEX
8
1
10
2.633581
20
9.746487
42
-0.835499
0
VERTEX
8
1
10
2.915727
20
9.732047
42
-0.056125
0
VERTEX
8
1
10
2.923096
20
9.607658
42
0.040330
0
VERTEX
8
1
10
3.434886
20
9.535710
42
0.045838
0
VERTEX
8
1
10
3.596313
20
9.549866
0
VERTEX
8
1
10
3.737183
20
9.588722
0
VERTEX
8
1
10
3.740601
20
9.589027
42
-0.003618
0
VERTEX
8
1
10
3.491699
20
10.144745
0
VERTEX
8
1
10
3.487183
20
10.146202
42
-0.435601
0
VERTEX
8
1
10
3.424168
20
10.091027
42
0.097802
0
VERTEX
8
1
10
3.327562
20
10.059445
42
-0.280482
0
VERTEX
8
1
10
3.109009
20
10.098770
42
-0.216222
0
VERTEX
8
1
10
2.956609
20
10.430463
42
-0.213089
0
VERTEX
8
1
10
3.048340
20
10.608025
42
-0.022882
0
VERTEX
8
1
10
3.250732
20
10.751709
0
VERTEX
8
1
10
3.285522
20
10.778328
0
VERTEX
8
1
10
3.286499
20
10.806488
0
VERTEX
8
1
10
3.272583
20
10.847404
0
VERTEX
8
1
10
3.256958
20
10.901381
42
-0.017720
0
VERTEX
8
1
10
3.058838
20
11.826346
0
VERTEX
8
1
10
3.045044
20
11.884148
0
VERTEX
8
1
10
3.012816
20
11.877976
42
0.007174
0
VERTEX
8
1
10
2.348104
20
11.783360
42
0.034910
0
VERTEX
8
1
10
1.826904
20
11.652405
0
VERTEX
8
1
10
1.759277
20
11.640038
0
VERTEX
8
1
10
1.702026
20
11.641823
42
-0.279755
0
VERTEX
8
1
10
1.558069
20
11.767071
42
-0.094140
0
VERTEX
8
1
10
1.519750
20
11.937573
42
-0.035217
0
VERTEX
8
1
10
1.510010
20
12.264954
0
VERTEX
8
1
10
1.548340
20
12.702789
0
VERTEX
8
1
10
1.613525
20
13.143127
0
VERTEX
8
1
10
1.701172
20
13.557205
0
VERTEX
8
1
10
1.808838
20
13.945457
0
VERTEX
8
1
10
1.934204
20
14.308350
0
VERTEX
8
1
10
2.074585
20
14.646324
0
VERTEX
8
1
10
2.227783
20
14.959839
0
VERTEX
8
1
10
2.391113
20
15.249329
0
VERTEX
8
1
10
2.562500
20
15.515259
0
VERTEX
8
1
10
2.739014
20
15.758072
0
VERTEX
8
1
10
2.918701
20
15.978226
42
-0.040412
0
VERTEX
8
1
10
3.457798
20
16.512297
42
-0.058457
0
VERTEX
8
1
10
4.131226
20
16.947510
0
VERTEX
8
1
10
4.209473
20
16.979073
0
VERTEX
8
1
10
4.280396
20
16.999489
0
VERTEX
8
1
10
4.341309
20
17.006119
0
VERTEX
8
1
10
4.389648
20
16.996307
0
VERTEX
8
1
10
4.422119
20
16.967430
42
-0.120505
0
VERTEX
8
1
10
4.435303
20
16.836166
42
0.079804
0
VERTEX
8
1
10
4.428833
20
16.412636
42
0.070833
0
VERTEX
8
1
10
4.695150
20
15.251105
42
0.037263
0
VERTEX
8
1
10
5.044127
20
14.492463
42
-0.006483
0
VERTEX
8
1
10
5.425681
20
13.745704
42
0.033788
0
VERTEX
8
1
10
5.836426
20
13.065254
42
-0.148668
0
VERTEX
8
1
10
5.904175
20
12.875206
0
VERTEX
8
1
10
5.881348
20
12.738998
0
VERTEX
8
1
10
5.843872
20
12.619064
0
VERTEX
8
1
10
5.794434
20
12.518967
0
VERTEX
8
1
10
5.734497
20
12.436600
42
-0.124949
0
VERTEX
8
1
10
5.470593
20
12.258602
42
-0.050756
0
VERTEX
8
1
10
5.257080
20
12.195808
42
0.033912
0
VERTEX
8
1
10
4.953979
20
12.121193
0
VERTEX
8
1
10
4.919556
20
12.090210
42
0.096633
0
VERTEX
8
1
10
5.156372
20
11.614799
0
VERTEX
8
1
10
5.183105
20
11.586060
0
VERTEX
8
1
10
5.210693
20
11.560730
0
VERTEX
8
1
10
5.230347
20
11.570335
42
-0.300216
0
VERTEX
8
1
10
5.332031
20
11.595093
0
VERTEX
8
1
10
5.365845
20
11.586723
42
0.348535
0
VERTEX
8
1
10
5.479492
20
11.626579
42
-0.185537
0
VERTEX
8
1
10
5.577948
20
11.645075
42
0.034972
0
VERTEX
8
1
10
5.807251
20
11.610138
0
VERTEX
8
1
10
5.840210
20
11.615608
42
-0.292553
0
VERTEX
8
1
10
6.007423
20
11.581193
42
0.098416
0
VERTEX
8
1
10
6.123047
20
11.527763
42
-0.168707
0
VERTEX
8
1
10
6.258545
20
11.543694
42
-0.158157
0
VERTEX
8
1
10
6.383075
20
11.437140
42
0.252927
0
VERTEX
8
1
10
6.442261
20
11.413582
42
-0.248755
0
VERTEX
8
1
10
6.618286
20
11.253136
0
VERTEX
8
1
10
6.892944
20
11.280655
0
VERTEX
8
1
10
7.084595
20
11.444862
42
0.300766
0
VERTEX
8
1
10
7.252952
20
11.448635
42
-0.155826
0
VERTEX
8
1
10
7.382781
20
11.479434
0
VERTEX
8
1
10
7.414437
20
11.478117
0
VERTEX
8
1
10
7.445923
20
11.474586
42
0.235282
0
VERTEX
8
1
10
7.672488
20
11.543501
42
0.017555
0
VERTEX
8
1
10
7.793239
20
11.654162
42
-0.237176
0
VERTEX
8
1
10
7.875754
20
11.665139
42
0.259568
0
VERTEX
8
1
10
8.132568
20
11.772896
0
VERTEX
8
1
10
8.166870
20
11.815018
0
VERTEX
8
1
10
8.186035
20
11.832756
42
-0.231106
0
VERTEX
8
1
10
8.403564
20
11.857285
42
0.199736
0
VERTEX
8
1
10
8.614624
20
11.989601
42
-0.139167
0
VERTEX
8
1
10
8.815308
20
12.077065
0
VERTEX
8
1
10
9.173096
20
12.269470
42
0.130909
0
VERTEX
8
1
10
9.360005
20
12.369988
42
-0.141730
0
VERTEX
8
1
10
9.619507
20
12.461914
0
VERTEX
8
1
10
9.638428
20
12.465271
42
0.092485
0
VERTEX
8
1
10
9.859131
20
12.598625
42
0.000868
0
VERTEX
8
1
10
9.913696
20
16.807587
0
VERTEX
8
1
10
9.907349
20
16.884796
0
VERTEX
8
1
10
9.880737
20
16.893089
42
-0.204280
0
VERTEX
8
1
10
9.722046
20
17.075279
0
VERTEX
8
1
10
9.637329
20
17.159615
42
-0.196429
0
VERTEX
8
1
10
9.532849
20
17.372707
42
-0.210437
0
VERTEX
8
1
10
9.645020
20
17.746689
42
-0.013295
0
VERTEX
8
1
10
9.734253
20
17.826530
42
-0.100020
0
VERTEX
8
1
10
9.968872
20
17.899292
42
0.001416
0
VERTEX
8
1
10
10.084496
20
21.320936
0
VERTEX
8
1
10
10.078613
20
21.369370
42
-0.210425
0
VERTEX
8
1
10
9.961966
20
21.432875
42
-0.054505
0
VERTEX
8
1
10
9.849976
20
21.585907
42
-0.229915
0
VERTEX
8
1
10
9.723022
20
21.675911
42
-0.091947
0
VERTEX
8
1
10
9.626465
20
21.956192
0
VERTEX
8
1
10
9.609375
20
21.977821
0
VERTEX
8
1
10
9.595459
20
22.003845
42
-0.248365
0
VERTEX
8
1
10
9.646118
20
22.378395
0
VERTEX
8
1
10
9.669434
20
22.402115
0
VERTEX
8
1
10
9.679688
20
22.425377
0
VERTEX
8
1
10
9.676025
20
22.453064
0
VERTEX
8
1
10
9.676147
20
22.481834
42
-0.223777
0
VERTEX
8
1
10
9.880981
20
22.795341
42
-0.166268
0
VERTEX
8
1
10
10.085449
20
23.072311
0
VERTEX
8
1
10
10.103760
20
23.565796
42
0.047763
0
VERTEX
8
1
10
9.736694
20
23.601624
42
-0.185316
0
VERTEX
8
1
10
9.433890
20
23.437426
0
VERTEX
8
1
10
9.420836
20
23.432615
0
VERTEX
8
1
10
9.408678
20
23.425856
42
-0.356607
0
VERTEX
8
1
10
9.135376
20
23.418205
42
-0.225016
0
VERTEX
8
1
10
8.957423
20
23.484060
42
-0.117323
0
VERTEX
8
1
10
8.877319
20
23.601654
42
-0.017942
0
VERTEX
8
1
10
8.302368
20
23.620171
0
VERTEX
8
1
10
8.262207
20
23.606926
42
-0.283832
0
VERTEX
8
1
10
7.943115
20
23.639511
42
-0.029526
0
VERTEX
8
1
10
7.387451
20
23.637810
42
-0.267151
0
VERTEX
8
1
10
7.322418
20
23.686443
42
-0.103033
0
VERTEX
8
1
10
7.283937
20
24.005684
42
0.005410
0
VERTEX
8
1
10
7.392946
20
25.586044
42
-0.348879
0
VERTEX
8
1
10
7.558472
20
25.836731
42
0.008011
0
VERTEX
8
1
10
9.380007
20
25.756899
0
VERTEX
8
1
10
9.509399
20
25.756050
0
VERTEX
8
1
10
9.601807
20
25.758385
0
VERTEX
8
1
10
9.650146
20
25.764374
42
-0.169349
0
VERTEX
8
1
10
9.958008
20
25.708702
0
VERTEX
8
1
10
10.158813
20
25.726891
42
-0.019357
0
VERTEX
8
1
10
10.174805
20
26.159462
0
VERTEX
8
1
10
10.171997
20
26.186150
42
-0.215265
0
VERTEX
8
1
10
10.111090
20
26.240532
42
-0.088225
0
VERTEX
8
1
10
10.067993
20
26.363869
42
-0.149773
0
VERTEX
8
1
10
9.877973
20
26.444651
42
-0.143290
0
VERTEX
8
1
10
9.663638
20
26.734041
42
-0.184275
0
VERTEX
8
1
10
9.684326
20
26.936661
42
-0.200881
0
VERTEX
8
1
10
10.040649
20
27.256233
0
VERTEX
8
1
10
9.986450
20
27.295929
0
VERTEX
8
1
10
9.844360
20
27.369209
0
VERTEX
8
1
10
9.707764
20
27.463600
0
VERTEX
8
1
10
9.577026
20
27.577080
0
VERTEX
8
1
10
9.453125
20
27.707642
0
VERTEX
8
1
10
9.336670
20
27.853264
42
-0.141542
0
VERTEX
8
1
10
8.749023
20
29.509384
0
VERTEX
8
1
10
8.775513
20
29.867645
0
VERTEX
8
1
10
8.841431
20
30.204117
0
VERTEX
8
1
10
8.940552
20
30.511467
0
VERTEX
8
1
10
9.067261
20
30.790382
0
VERTEX
8
1
10
9.215820
20
31.041542
0
VERTEX
8
1
10
9.380371
20
31.265594
0
VERTEX
8
1
10
9.555420
20
31.463226
0
VERTEX
8
1
10
9.735229
20
31.635109
0
VERTEX
8
1
10
9.914185
20
31.781921
42
-0.047005
0
VERTEX
8
1
10
10.388794
20
32.078575
0
VERTEX
8
1
10
10.507080
20
32.131783
0
VERTEX
8
1
10
10.595947
20
32.163277
0
VERTEX
8
1
10
10.743408
20
32.179871
0
VERTEX
8
1
10
11.023315
20
32.194260
42
-0.039416
0
VERTEX
8
1
10
11.892212
20
32.167984
0
VERTEX
8
1
10
12.057007
20
32.143456
42
-0.103094
0
VERTEX
8
1
10
12.852783
20
31.837967
0
VERTEX
8
1
10
12.940186
20
31.782410
0
VERTEX
8
1
10
13.134644
20
31.630363
0
VERTEX
8
1
10
13.332642
20
31.440521
0
VERTEX
8
1
10
13.499390
20
31.243126
0
VERTEX
8
1
10
13.637451
20
31.040619
0
VERTEX
8
1
10
13.749390
20
30.835426
0
VERTEX
8
1
10
13.837769
20
30.630005
0
VERTEX
8
1
10
13.905029
20
30.426781
42
-0.120409
0
VERTEX
8
1
10
13.943377
20
28.958881
0
VERTEX
8
1
10
13.927794
20
28.897638
42
-0.085194
0
VERTEX
8
1
10
13.517284
20
28.052328
42
-0.062518
0
VERTEX
8
1
10
13.001953
20
27.485107
0
VERTEX
8
1
10
12.991943
20
27.463501
0
VERTEX
8
1
10
13.016479
20
27.455582
42
-0.130630
0
VERTEX
8
1
10
13.332064
20
27.184103
42
-0.258290
0
VERTEX
8
1
10
13.325541
20
27.040409
42
-0.154045
0
VERTEX
8
1
10
13.136475
20
26.833824
42
0.193485
0
VERTEX
8
1
10
13.076426
20
26.790680
42
-0.195763
0
VERTEX
8
1
10
12.829105
20
26.673483
42
-0.161522
0
VERTEX
8
1
10
12.653809
20
26.729958
0
VERTEX
8
1
10
12.628540
20
26.728920
42
-0.206202
0
VERTEX
8
1
10
12.429199
20
26.770660
0
VERTEX
8
1
10
12.392700
20
26.569679
0
VERTEX
8
1
10
12.393555
20
26.568863
0
VERTEX
8
1
10
12.594238
20
26.495850
0
VERTEX
8
1
10
12.940063
20
26.495842
42
-0.075096
0
VERTEX
8
1
10
13.158691
20
26.208817
42
-0.085821
0
VERTEX
8
1
10
13.253174
20
25.836792
42
-0.078157
0
VERTEX
8
1
10
13.546265
20
25.800278
42
0.042085
0
VERTEX
8
1
10
14.062744
20
25.832626
42
-0.166784
0
VERTEX
8
1
10
14.333618
20
25.818558
0
VERTEX
8
1
10
15.351685
20
25.818413
42
-0.187717
0
VERTEX
8
1
10
15.560705
20
25.743835
42
-0.121563
0
VERTEX
8
1
10
15.615112
20
25.654160
42
0.006196
0
VERTEX
8
1
10
15.613922
20
24.412376
42
0.011241
0
VERTEX
8
1
10
15.633789
20
23.986160
42
-0.116568
0
VERTEX
8
1
10
15.644485
20
23.831631
0
VERTEX
8
1
10
15.639758
20
23.826075
0
VERTEX
8
1
10
15.633545
20
23.822250
0
VERTEX
8
1
10
15.615070
20
23.621342
42
-0.000615
0
VERTEX
8
1
10
13.535440
20
23.603155
0
VERTEX
8
1
10
13.478027
20
23.588409
0
VERTEX
8
1
10
13.427002
20
23.540367
0
VERTEX
8
1
10
13.378296
20
23.507133
42
-0.323243
0
VERTEX
8
1
10
13.141906
20
23.525312
42
-0.085913
0
VERTEX
8
1
10
13.050415
20
23.621040
0
VERTEX
8
1
10
12.797729
20
23.584381
0
VERTEX
8
1
10
12.797852
20
23.508652
0
VERTEX
8
1
10
12.797607
20
23.504593
0
VERTEX
8
1
10
12.770386
20
20.426682
42
0.045914
0
VERTEX
8
1
10
12.895508
20
20.273560
0
VERTEX
8
1
10
12.915405
20
20.262398
0
VERTEX
8
1
10
12.944702
20
20.260109
42
-0.153287
0
VERTEX
8
1
10
13.066735
20
20.169024
42
-0.095378
0
VERTEX
8
1
10
13.265381
20
19.820938
42
-0.211091
0
VERTEX
8
1
10
13.346069
20
19.378304
42
-0.126315
0
VERTEX
8
1
10
13.218262
20
19.175285
42
-0.063548
0
VERTEX
8
1
10
12.799683
20
18.861488
0
VERTEX
8
1
10
12.797729
20
18.851814
0
VERTEX
8
1
10
12.797852
20
15.579575
0
VERTEX
8
1
10
12.835815
20
15.557770
42
-0.229422
0
VERTEX
8
1
10
13.024536
20
15.386597
42
-0.027173
0
VERTEX
8
1
10
13.115723
20
15.153702
0
VERTEX
8
1
10
13.137085
20
15.123718
42
-0.294526
0
VERTEX
8
1
10
13.234073
20
15.023598
42
-0.079632
0
VERTEX
8
1
10
13.260425
20
14.844202
42
0.027787
0
VERTEX
8
1
10
13.288940
20
14.644905
0
VERTEX
8
1
10
13.306763
20
14.618484
42
-0.197610
0
VERTEX
8
1
10
13.355859
20
14.482705
42
-0.088179
0
VERTEX
8
1
10
13.324437
20
14.244228
42
0.098990
0
VERTEX
8
1
10
13.311836
20
14.096453
42
-0.012925
0
VERTEX
8
1
10
13.319824
20
13.960800
0
VERTEX
8
1
10
13.315308
20
13.926392
42
-0.084504
0
VERTEX
8
1
10
13.181948
20
13.713124
42
-0.031719
0
VERTEX
8
1
10
12.825317
20
13.312889
42
0.021236
0
VERTEX
8
1
10
12.766969
20
11.328100
0
VERTEX
8
1
10
12.806763
20
11.032249
0
VERTEX
8
1
10
12.931274
20
10.627525
0
VERTEX
8
1
10
13.067871
20
10.270935
0
VERTEX
8
1
10
13.213623
20
9.959656
0
VERTEX
8
1
10
13.366211
20
9.690895
0
VERTEX
8
1
10
13.522827
20
9.461838
0
VERTEX
8
1
10
13.680664
20
9.269676
0
VERTEX
8
1
10
13.837402
20
9.111588
0
VERTEX
8
1
10
13.990234
20
8.984802
0
VERTEX
8
1
10
14.136475
20
8.886482
0
VERTEX
8
1
10
14.273438
20
8.813820
0
VERTEX
8
1
10
14.398560
20
8.764008
0
VERTEX
8
1
10
14.509155
20
8.734261
0
VERTEX
8
1
10
14.602417
20
8.721733
0
VERTEX
8
1
10
14.676147
20
8.723640
0
VERTEX
8
1
10
14.686890
20
8.742271
42
-0.222764
0
VERTEX
8
1
10
14.700684
20
8.801506
42
-0.054125
0
VERTEX
8
1
10
14.838400
20
8.917433
42
0.119425
0
VERTEX
8
1
10
14.882568
20
8.981758
42
-0.284611
0
VERTEX
8
1
10
14.930483
20
9.075291
42
-0.079694
0
VERTEX
8
1
10
15.051411
20
9.133319
42
0.098693
0
VERTEX
8
1
10
15.126465
20
9.185478
42
-0.263062
0
VERTEX
8
1
10
15.220947
20
9.272362
0
VERTEX
8
1
10
15.245850
20
9.280304
42
0.061794
0
VERTEX
8
1
10
15.436523
20
9.341484
0
VERTEX
8
1
10
15.460327
20
9.356750
42
-0.248141
0
VERTEX
8
1
10
15.649245
20
9.384486
42
0.163203
0
VERTEX
8
1
10
15.806474
20
9.403809
42
-0.085393
0
VERTEX
8
1
10
15.865356
20
9.409607
42
0.006077
0
VERTEX
8
1
10
16.086304
20
9.385475
42
-0.053960
0
VERTEX
8
1
10
16.265079
20
9.397459
42
0.043055
0
VERTEX
8
1
10
16.450562
20
9.412979
42
0.008844
0
VERTEX
8
1
10
16.815063
20
9.360397
0
VERTEX
8
1
10
16.857910
20
9.366524
42
0.090938
0
VERTEX
8
1
10
17.068983
20
9.547463
42
0.049372
0
VERTEX
8
1
10
17.482178
20
10.101402
0
VERTEX
8
1
10
17.493896
20
10.126389
42
-0.255051
0
VERTEX
8
1
10
17.367676
20
10.244888
0
VERTEX
8
1
10
17.356323
20
10.271988
42
0.045404
0
VERTEX
8
1
10
17.257309
20
10.515835
42
-0.208652
0
VERTEX
8
1
10
17.257813
20
10.705956
42
-0.072170
0
VERTEX
8
1
10
17.407715
20
10.945496
42
-0.237265
0
VERTEX
8
1
10
17.494263
20
11.057014
42
-0.063229
0
VERTEX
8
1
10
17.745361
20
11.144981
0
VERTEX
8
1
10
17.771240
20
11.154320
0
VERTEX
8
1
10
17.801514
20
11.160927
42
-0.073765
0
VERTEX
8
1
10
18.153564
20
11.143494
0
SEQEND
0
POLYLINE
8
1
66
1
70
1
0
VERTEX
8
1
10
3.278564
20
9.241531
0
VERTEX
8
1
10
3.284058
20
9.255592
42
-0.033053
0
VERTEX
8
1
10
2.955811
20
9.293297
0
VERTEX
8
1
10
2.949707
20
9.278603
42
0.039745
0
VERTEX
8
1
10
3.019165
20
8.968575
42
-0.019192
0
SEQEND
0
POLYLINE
8
1
66
1
70
1
0
VERTEX
8
1
10
4.406738
20
7.332726
0
VERTEX
8
1
10
4.351807
20
7.307526
0
VERTEX
8
1
10
4.352661
20
7.307625
0
SEQEND
0
POLYLINE
8
1
66
1
70
1
0
VERTEX
8
1
10
4.611084
20
7.748596
42
-0.022645
0
VERTEX
8
1
10
4.688599
20
7.773331
0
VERTEX
8
1
10
4.689209
20
7.780938
42
-0.011805
0
VERTEX
8
1
10
4.364868
20
8.332619
42
0.055879
0
VERTEX
8
1
10
3.801025
20
7.369019
0
VERTEX
8
1
10
3.834716
20
7.380615
42
-0.038143
0
SEQEND
0
POLYLINE
8
1
66
1
70
1
0
VERTEX
8
1
10
8.738770
20
3.735893
0
VERTEX
8
1
10
8.751887
20
3.756220
42
0.162886
0
VERTEX
8
1
10
8.805103
20
3.945697
42
0.171936
0
VERTEX
8
1
10
8.746608
20
4.073342
42
0.105162
0
VERTEX
8
1
10
8.609619
20
4.177734
0
VERTEX
8
1
10
8.572388
20
4.177994
42
0.040562
0
VERTEX
8
1
10
8.244385
20
3.639008
42
-0.191905
0
VERTEX
8
1
10
8.427352
20
3.624198
42
0.326116
0
SEQEND
0
POLYLINE
8
1
66
1
70
1
0
VERTEX
8
1
10
5.850830
20
10.579193
42
-0.085018
0
VERTEX
8
1
10
5.782471
20
10.584267
42
0.055557
0
VERTEX
8
1
10
6.773008
20
9.617043
42
0.042021
0
VERTEX
8
1
10
7.219607
20
9.337113
42
0.042228
0
VERTEX
8
1
10
7.395020
20
9.272675
0
VERTEX
8
1
10
7.425781
20
9.270630
42
-0.171520
0
VERTEX
8
1
10
7.355709
20
9.442064
42
0.193607
0
VERTEX
8
1
10
7.286255
20
9.557129
42
-0.149082
0
VERTEX
8
1
10
7.095392
20
9.674491
42
-0.062160
0
VERTEX
8
1
10
6.997314
20
9.805550
0
VERTEX
8
1
10
6.981812
20
9.818398
42
-0.184116
0
VERTEX
8
1
10
6.871893
20
9.918341
42
-0.076151
0
VERTEX
8
1
10
6.813477
20
10.054802
0
VERTEX
8
1
10
6.804810
20
10.072174
42
-0.148817
0
VERTEX
8
1
10
6.681739
20
10.153741
42
-0.107145
0
VERTEX
8
1
10
6.516357
20
10.432755
42
-0.057439
0
VERTEX
8
1
10
6.387935
20
10.513818
42
-0.159665
0
VERTEX
8
1
10
6.331787
20
10.620422
42
-0.151230
0
VERTEX
8
1
10
6.038818
20
10.657356
42
-0.145241
0
SEQEND
0
POLYLINE
8
1
66
1
70
1
0
VERTEX
8
1
10
6.414307
20
5.644745
42
-0.109060
0
VERTEX
8
1
10
6.509277
20
5.702980
0
VERTEX
8
1
10
6.494510
20
5.722350
42
-0.004555
0
VERTEX
8
1
10
5.987427
20
6.203575
42
-0.240510
0
VERTEX
8
1
10
5.937988
20
6.066643
42
0.005147
0
VERTEX
8
1
10
5.586672
20
5.741165
0
VERTEX
8
1
10
5.591553
20
5.728850
42
0.017454
0
VERTEX
8
1
10
6.060913
20
5.306343
0
VERTEX
8
1
10
6.099486
20
5.325836
42
-0.012313
0
SEQEND
0
POLYLINE
8
1
66
1
70
1
0
VERTEX
8
1
10
7.324829
20
4.021950
42
0.101025
0
VERTEX
8
1
10
7.460201
20
4.385033
0
VERTEX
8
1
10
7.462324
20
4.416420
0
VERTEX
8
1
10
7.462395
20
4.447880
42
0.287122
0
VERTEX
8
1
10
7.216733
20
4.823309
0
VERTEX
8
1
10
7.187988
20
4.836258
42
0.214430
0
VERTEX
8
1
10
6.870381
20
4.861631
42
0.168149
0
VERTEX
8
1
10
6.619263
20
4.632401
42
0.145961
0
VERTEX
8
1
10
6.480484
20
4.216300
42
0.319249
0
VERTEX
8
1
10
6.773315
20
3.820923
42
0.352316
0
VERTEX
8
1
10
7.281250
20
3.960907
42
0.029427
0
SEQEND
0
POLYLINE
8
1
66
1
70
1
0
VERTEX
8
1
10
8.179810
20
9.146904
42
-0.014531
0
VERTEX
8
1
10
8.199585
20
9.046089
0
VERTEX
8
1
10
8.475464
20
9.075600
0
VERTEX
8
1
10
8.718872
20
9.159279
0
VERTEX
8
1
10
8.931885
20
9.289856
0
VERTEX
8
1
10
9.116699
20
9.460045
0
VERTEX
8
1
10
9.275024
20
9.662567
0
VERTEX
8
1
10
9.409180
20
9.890167
0
VERTEX
8
1
10
9.520996
20
10.135544
0
VERTEX
8
1
10
9.612671
20
10.391434
0
VERTEX
8
1
10
9.685913
20
10.650551
42
0.053989
0
VERTEX
8
1
10
9.859132
20
11.967178
0
VERTEX
8
1
10
9.664307
20
11.902359
0
VERTEX
8
1
10
9.444458
20
11.792435
0
VERTEX
8
1
10
9.224609
20
11.719261
0
VERTEX
8
1
10
9.115234
20
11.609802
0
VERTEX
8
1
10
8.821655
20
11.462875
0
VERTEX
8
1
10
8.716553
20
11.392639
0
VERTEX
8
1
10
8.710938
20
11.389778
42
0.051007
0
VERTEX
8
1
10
8.518509
20
11.366975
42
0.082220
0
VERTEX
8
1
10
8.420898
20
11.318176
42
-0.017922
0
VERTEX
8
1
10
8.053223
20
11.169991
42
-0.274672
0
VERTEX
8
1
10
7.918800
20
11.037669
42
-0.098733
0
VERTEX
8
1
10
7.796753
20
11.023560
42
-0.050049
0
VERTEX
8
1
10
7.555786
20
10.987274
0
VERTEX
8
1
10
7.537354
20
10.982689
42
-0.099178
0
VERTEX
8
1
10
7.420830
20
10.889184
42
-0.047469
0
VERTEX
8
1
10
7.100342
20
10.730453
0
VERTEX
8
1
10
7.034546
20
10.697395
0
VERTEX
8
1
10
7.038940
20
10.690468
42
-0.155320
0
VERTEX
8
1
10
7.144397
20
10.588404
42
-0.018130
0
VERTEX
8
1
10
7.254028
20
10.335350
0
VERTEX
8
1
10
7.265869
20
10.314491
0
VERTEX
8
1
10
7.278198
20
10.297379
0
VERTEX
8
1
10
7.294922
20
10.290329
42
-0.180993
0
VERTEX
8
1
10
7.405839
20
10.212765
42
-0.090455
0
VERTEX
8
1
10
7.574707
20
9.931602
0
VERTEX
8
1
10
7.597900
20
9.920097
42
-0.263311
0
VERTEX
8
1
10
7.761357
20
9.761993
42
0.006159
0
VERTEX
8
1
10
7.795288
20
9.636452
0
VERTEX
8
1
10
7.811646
20
9.626541
42
-0.151670
0
VERTEX
8
1
10
7.934890
20
9.523615
42
-0.111787
0
VERTEX
8
1
10
8.015503
20
9.341805
0
VERTEX
8
1
10
8.033081
20
9.333130
42
-0.294455
0
VERTEX
8
1
10
8.172607
20
9.173859
0
SEQEND
0
POLYLINE
8
1
66
1
70
1
0
VERTEX
8
1
10
10.559692
20
29.676933
42
0.070365
0
VERTEX
8
1
10
10.609179
20
29.105526
42
0.100181
0
VERTEX
8
1
10
10.826660
20
28.668465
0
VERTEX
8
1
10
10.847656
20
28.675987
42
-0.181768
0
VERTEX
8
1
10
11.234375
20
28.986580
42
-0.350860
0
VERTEX
8
1
10
11.523281
20
28.875528
42
-0.067036
0
VERTEX
8
1
10
11.607165
20
28.693476
42
-0.242167
0
VERTEX
8
1
10
11.540405
20
28.448776
42
-0.039520
0
VERTEX
8
1
10
11.477051
20
28.382027
42
0.129622
0
VERTEX
8
1
10
11.577637
20
28.397888
42
0.170466
0
VERTEX
8
1
10
12.312921
20
29.020800
42
0.180436
0
VERTEX
8
1
10
12.413090
20
29.708982
42
0.062533
0
VERTEX
8
1
10
12.255891
20
30.227579
42
0.176460
0
VERTEX
8
1
10
11.876791
20
30.589954
42
0.072368
0
VERTEX
8
1
10
11.609497
20
30.671982
42
0.202775
0
VERTEX
8
1
10
10.801392
20
30.272194
42
0.133706
0
VERTEX
8
1
10
10.561523
20
29.718727
0
SEQEND
0
POLYLINE
8
1
66
1
70
1
0
VERTEX
8
1
10
14.629517
20
3.464569
0
VERTEX
8
1
10
14.624878
20
3.439041
0
VERTEX
8
1
10
14.619751
20
3.413567
0
VERTEX
8
1
10
14.634766
20
3.407066
42
0.037383
0
VERTEX
8
1
10
14.928955
20
3.465668
0
VERTEX
8
1
10
14.937744
20
3.476768
42
-0.019642
0
VERTEX
8
1
10
14.664551
20
3.748565
42
-0.028805
0
SEQEND
0
POLYLINE
8
1
66
1
70
1
0
VERTEX
8
1
10
16.227783
20
5.128319
42
-0.098048
0
VERTEX
8
1
10
16.180176
20
5.190491
42
-0.012173
0
VERTEX
8
1
10
15.635620
20
4.839233
42
-0.323669
0
VERTEX
8
1
10
15.686475
20
4.663135
42
-0.238480
0
VERTEX
8
1
10
15.562988
20
4.567787
42
0.074589
0
VERTEX
8
1
10
16.084106
20
3.912819
0
VERTEX
8
1
10
16.139526
20
3.865982
0
VERTEX
8
1
10
16.195557
20
3.822716
0
VERTEX
8
1
10
16.236084
20
3.803284
42
0.057704
0
VERTEX
8
1
10
16.006302
20
4.696639
42
-0.025894
0
VERTEX
8
1
10
15.971686
20
4.815617
42
-0.773581
0
VERTEX
8
1
10
16.225853
20
4.923133
42
-0.072522
0
VERTEX
8
1
10
16.346050
20
4.752193
42
0.069274
0
VERTEX
8
1
10
16.796997
20
4.210609
0
VERTEX
8
1
10
16.827148
20
4.196571
42
0.050354
0
VERTEX
8
1
10
16.406860
20
5.130829
42
-0.372696
0
SEQEND
0
POLYLINE
8
1
66
1
70
1
0
VERTEX
8
1
10
17.615723
20
5.317024
0
VERTEX
8
1
10
17.623657
20
5.265945
0
VERTEX
8
1
10
17.633545
20
5.252586
42
0.040947
0
VERTEX
8
1
10
17.911621
20
5.418404
42
-0.020673
0
VERTEX
8
1
10
17.565063
20
5.582550
0
VERTEX
8
1
10
17.560791
20
5.570457
42
-0.026943
0
SEQEND
0
POLYLINE
8
1
66
1
70
1
0
VERTEX
8
1
10
18.402222
20
6.916100
42
0.044468
0
VERTEX
8
1
10
18.233276
20
7.324265
42
-0.010190
0
VERTEX
8
1
10
17.785278
20
6.667587
42
0.124892
0
VERTEX
8
1
10
18.468384
20
6.582108
0
VERTEX
8
1
10
18.469116
20
6.623062
42
0.037788
0
SEQEND
0
POLYLINE
8
1
66
1
0
VERTEX
8
1
10
11.403931
20
28.674866
42
0.361646
0
VERTEX
8
1
10
11.169165
20
28.709044
42
0.113824
0
VERTEX
8
1
10
10.835682
20
28.280149
42
0.131500
0
VERTEX
8
1
10
10.803315
20
28.009123
42
0.141381
0
VERTEX
8
1
10
10.860882
20
27.850973
42
0.209353
0
VERTEX
8
1
10
10.909790
20
27.832886
0
VERTEX
8
1
10
11.275757
20
28.326904
0
SEQEND
0
POLYLINE
8
1
66
1
0
VERTEX
8
1
10
11.037720
20
27.686119
0
VERTEX
8
1
10
11.081299
20
27.658463
0
VERTEX
8
1
10
11.121582
20
27.639565
42
0.323048
0
VERTEX
8
1
10
11.333496
20
27.690651
42
0.039141
0
VERTEX
8
1
10
11.476196
20
27.881905
42
0.204066
0
VERTEX
8
1
10
11.587036
20
28.217010
0
SEQEND
0
POLYLINE
8
1
66
1
0
VERTEX
8
1
10
12.356079
20
26.935432
42
-0.024196
0
VERTEX
8
1
10
12.167259
20
27.388304
42
0.166020
0
VERTEX
8
1
10
11.979831
20
27.591785
42
0.099988
0
VERTEX
8
1
10
11.606689
20
27.722466
42
0.061379
0
VERTEX
8
1
10
11.954009
20
27.064028
42
0.070850
0
VERTEX
8
1
10
12.177124
20
26.838097
0
VERTEX
8
1
10
12.227905
20
26.807274
0
SEQEND
0
POLYLINE
8
1
66
1
0
VERTEX
8
1
10
12.941894
20
26.935432
42
0.065535
0
VERTEX
8
1
10
12.919312
20
26.975845
42
-0.019080
0
VERTEX
8
1
10
12.681303
20
27.275068
42
0.115788
0
VERTEX
8
1
10
12.356079
20
27.521446
0
SEQEND
0
POLYLINE
8
1
66
1
0
VERTEX
8
1
10
11.733521
20
26.605736
0
VERTEX
8
1
10
11.746948
20
26.645363
0
VERTEX
8
1
10
11.754395
20
26.687492
42
0.137915
0
VERTEX
8
1
10
11.672099
20
27.027349
42
0.058575
0
VERTEX
8
1
10
11.403931
20
27.448067
0
SEQEND
0
POLYLINE
8
1
66
1
0
VERTEX
8
1
10
11.239258
20
26.770760
42
0.239690
0
VERTEX
8
1
10
11.295409
20
27.039154
42
0.098936
0
VERTEX
8
1
10
11.110840
20
27.429802
0
SEQEND
0
POLYLINE
8
1
66
1
0
VERTEX
8
1
10
10.891235
20
27.008812
42
0.120056
0
VERTEX
8
1
10
10.782471
20
27.255463
0
VERTEX
8
1
10
10.710449
20
27.360573
42
-0.073173
0
VERTEX
8
1
10
10.597534
20
27.574867
42
-0.260622
0
VERTEX
8
1
10
10.634888
20
27.796020
0
SEQEND
0
POLYLINE
8
1
66
1
0
VERTEX
8
1
10
10.488403
20
27.246872
42
-0.078076
0
VERTEX
8
1
10
10.303269
20
27.796658
42
-0.231131
0
VERTEX
8
1
10
10.366580
20
27.939156
42
-0.110428
0
VERTEX
8
1
10
10.598267
20
28.088852
0
SEQEND
0
POLYLINE
8
1
66
1
0
VERTEX
8
1
10
9.938965
20
26.660858
0
VERTEX
8
1
10
9.921753
20
26.704781
42
-0.342467
0
VERTEX
8
1
10
9.991333
20
26.935888
42
-0.115269
0
VERTEX
8
1
10
10.140503
20
27.008812
0
SEQEND
0
POLYLINE
8
1
66
1
0
VERTEX
8
1
10
10.653198
20
26.166489
0
VERTEX
8
1
10
10.577393
20
26.203537
0
VERTEX
8
1
10
10.509888
20
26.241325
42
-0.136667
0
VERTEX
8
1
10
10.225687
20
26.519903
42
-0.220645
0
VERTEX
8
1
10
10.213623
20
26.843796
0
SEQEND
0
POLYLINE
8
1
66
1
0
VERTEX
8
1
10
10.579833
20
26.441063
42
-0.287513
0
VERTEX
8
1
10
10.530533
20
26.780876
42
-0.302811
0
VERTEX
8
1
10
10.620605
20
26.819061
42
-0.103252
0
VERTEX
8
1
10
10.836182
20
26.733894
0
SEQEND
0
POLYLINE
8
1
66
1
0
VERTEX
8
1
10
11.257446
20
25.983208
42
-0.134423
0
VERTEX
8
1
10
10.924161
20
26.311649
42
-0.140862
0
VERTEX
8
1
10
10.876807
20
26.555740
42
-0.388155
0
VERTEX
8
1
10
10.965659
20
26.621376
0
VERTEX
8
1
10
10.981529
20
26.620689
0
VERTEX
8
1
10
10.997228
20
26.618256
42
-0.192175
0
VERTEX
8
1
10
11.258545
20
26.392570
0
VERTEX
8
1
10
11.281738
20
26.360054
42
0.034957
0
VERTEX
8
1
10
11.715088
20
25.891571
0
SEQEND
0
POLYLINE
8
1
66
1
0
VERTEX
8
1
10
11.953247
20
25.818535
42
0.069811
0
VERTEX
8
1
10
12.343262
20
25.853539
42
0.173410
0
VERTEX
8
1
10
12.397672
20
25.888168
42
0.234909
0
VERTEX
8
1
10
12.397095
20
25.920586
42
0.092273
0
VERTEX
8
1
10
12.303711
20
25.998238
42
0.020437
0
VERTEX
8
1
10
11.513794
20
26.459320
0
SEQEND
0
POLYLINE
8
1
66
1
0
VERTEX
8
1
10
12.594116
20
25.891571
42
0.133810
0
VERTEX
8
1
10
12.850464
20
25.855049
0
VERTEX
8
1
10
12.888916
20
25.893768
0
VERTEX
8
1
10
12.909790
20
25.933289
0
VERTEX
8
1
10
12.914429
20
25.973373
42
0.197610
0
VERTEX
8
1
10
12.811804
20
26.124924
42
0.072861
0
VERTEX
8
1
10
12.532376
20
26.292458
42
0.039200
0
VERTEX
8
1
10
11.898193
20
26.532700
0
SEQEND
0
POLYLINE
8
1
66
1
0
VERTEX
8
1
10
10.360229
20
22.156395
0
VERTEX
8
1
10
10.323486
20
24.060844
0
VERTEX
8
1
10
7.723511
20
24.170403
0
VERTEX
8
1
10
7.760010
20
25.269043
0
VERTEX
8
1
10
10.396851
20
25.196007
0
VERTEX
8
1
10
10.433350
20
25.855049
0
SEQEND
0
POLYLINE
8
1
66
1
0
VERTEX
8
1
10
11.934814
20
21.241035
0
VERTEX
8
1
10
11.971436
20
24.023979
0
VERTEX
8
1
10
14.718018
20
24.097366
0
VERTEX
8
1
10
14.681519
20
25.122627
0
VERTEX
8
1
10
12.008179
20
25.196007
0
VERTEX
8
1
10
11.934814
20
25.598740
0
SEQEND
0
LINE
8
1
10
10.103760
20
22.302811
11
10.103760
21
22.834045
0
ARC
8
1
10
10.421608
20
21.875072
40
0.778645
50
128.305153
51
154.427741
0
POLYLINE
8
1
66
1
0
VERTEX
8
1
10
9.847412
20
21.808441
42
-0.130315
0
VERTEX
8
1
10
9.885202
20
21.998762
42
-0.074843
0
VERTEX
8
1
10
10.012451
20
22.211174
0
SEQEND
0
POLYLINE
8
1
66
1
0
VERTEX
8
1
10
10.525025
20
21.716805
42
0.221581
0
VERTEX
8
1
10
10.379181
20
21.868996
42
0.128504
0
VERTEX
8
1
10
10.122192
20
21.918343
42
0.112730
0
VERTEX
8
1
10
10.318237
20
21.280426
42
0.142947
0
VERTEX
8
1
10
10.616455
20
21.002976
0
SEQEND
0
POLYLINE
8
1
66
1
0
VERTEX
8
1
10
11.037720
20
20.728058
42
-0.189377
0
VERTEX
8
1
10
10.650146
20
21.530991
0
VERTEX
8
1
10
10.651001
20
21.553238
0
VERTEX
8
1
10
10.653198
20
21.570389
42
-0.375668
0
VERTEX
8
1
10
10.775024
20
21.575668
42
-0.113841
0
VERTEX
8
1
10
10.909546
20
21.423973
0
SEQEND
0
POLYLINE
8
1
66
1
0
VERTEX
8
1
10
11.403931
20
20.545128
42
-0.086396
0
VERTEX
8
1
10
11.270439
20
20.700266
42
-0.121565
0
VERTEX
8
1
10
11.074585
20
21.242111
0
VERTEX
8
1
10
11.074829
20
21.276535
0
VERTEX
8
1
10
11.079712
20
21.304871
42
-0.447775
0
VERTEX
8
1
10
11.159668
20
21.346069
0
VERTEX
8
1
10
11.182983
20
21.339096
42
-0.087227
0
VERTEX
8
1
10
11.403931
20
21.185913
0
SEQEND
0
POLYLINE
8
1
66
1
0
VERTEX
8
1
10
11.916504
20
20.178909
42
-0.123822
0
VERTEX
8
1
10
11.727695
20
20.392145
42
-0.086986
0
VERTEX
8
1
10
11.495483
20
21.002975
42
-0.542164
0
VERTEX
8
1
10
11.558594
20
21.067640
42
-0.099206
0
VERTEX
8
1
10
11.825073
20
20.966118
0
SEQEND
0
POLYLINE
8
1
66
1
0
VERTEX
8
1
10
12.374390
20
19.867477
42
-0.129059
0
VERTEX
8
1
10
12.006714
20
20.766502
0
VERTEX
8
1
10
12.005981
20
20.791954
0
VERTEX
8
1
10
12.007080
20
20.811905
0
VERTEX
8
1
10
12.014282
20
20.822014
42
-0.140226
0
VERTEX
8
1
10
12.090088
20
20.809929
42
-0.055791
0
VERTEX
8
1
10
12.392578
20
20.636764
0
SEQEND
0
POLYLINE
8
1
66
1
0
VERTEX
8
1
10
12.996948
20
19.904335
42
-0.178886
0
VERTEX
8
1
10
12.975787
20
19.763802
42
-0.089186
0
VERTEX
8
1
10
12.813254
20
19.518703
42
-0.204273
0
VERTEX
8
1
10
12.772537
20
19.507496
42
-0.258286
0
VERTEX
8
1
10
12.597534
20
19.605728
42
0.076572
0
VERTEX
8
1
10
12.607916
20
19.966608
42
0.034151
0
VERTEX
8
1
10
12.539063
20
20.435226
0
SEQEND
0
ARC
8
1
10
13.184410
20
19.171738
40
0.439405
50
157.965635
51
-157.965635
0
POLYLINE
8
1
66
1
0
VERTEX
8
1
10
9.664428
20
17.432137
42
-0.181632
0
VERTEX
8
1
10
9.735164
20
17.612434
42
-0.095839
0
VERTEX
8
1
10
9.865845
20
17.725319
0
SEQEND
0
POLYLINE
8
1
66
1
0
VERTEX
8
1
10
10.195313
20
16.699707
0
VERTEX
8
1
10
10.156494
20
16.734062
42
-0.119405
0
VERTEX
8
1
10
9.876709
20
17.213051
42
-0.184054
0
VERTEX
8
1
10
9.940275
20
17.523232
42
-0.314517
0
VERTEX
8
1
10
10.042365
20
17.548674
42
-0.138572
0
VERTEX
8
1
10
10.177124
20
17.469002
0
SEQEND
0
POLYLINE
8
1
66
1
0
VERTEX
8
1
10
10.616455
20
16.535034
42
-0.194848
0
VERTEX
8
1
10
10.260742
20
17.173698
42
-0.083588
0
VERTEX
8
1
10
10.268969
20
17.271852
42
-0.352355
0
VERTEX
8
1
10
10.369228
20
17.320059
42
-0.096246
0
VERTEX
8
1
10
10.506836
20
17.285721
0
SEQEND
0
POLYLINE
8
1
66
1
0
VERTEX
8
1
10
10.946045
20
16.370361
42
-0.080278
0
VERTEX
8
1
10
10.682026
20
16.916206
42
-0.085728
0
VERTEX
8
1
10
10.666927
20
17.081875
42
-0.399819
0
VERTEX
8
1
10
10.761353
20
17.139076
42
-0.130827
0
VERTEX
8
1
10
10.964478
20
17.029404
0
SEQEND
0
POLYLINE
8
1
66
1
0
VERTEX
8
1
10
11.312256
20
16.205338
42
-0.126144
0
VERTEX
8
1
10
11.063163
20
16.808977
42
-0.107475
0
VERTEX
8
1
10
11.078978
20
16.887711
0
VERTEX
8
1
10
11.092651
20
16.901245
0
VERTEX
8
1
10
11.123657
20
16.906036
42
-0.327543
0
VERTEX
8
1
10
11.330689
20
16.809608
0
SEQEND
0
POLYLINE
8
1
66
1
0
VERTEX
8
1
10
11.696655
20
15.985886
42
-0.118014
0
VERTEX
8
1
10
11.586578
20
16.121517
42
-0.125074
0
VERTEX
8
1
10
11.470028
20
16.592360
42
-0.116082
0
VERTEX
8
1
10
11.495483
20
16.663193
42
-0.348582
0
VERTEX
8
1
10
11.715088
20
16.590157
0
SEQEND
0
POLYLINE
8
1
66
1
0
VERTEX
8
1
10
12.026367
20
15.601417
42
-0.099156
0
VERTEX
8
1
10
11.942033
20
15.747874
42
-0.089009
0
VERTEX
8
1
10
11.822144
20
16.311188
42
-0.081059
0
VERTEX
8
1
10
11.837769
20
16.413795
0
VERTEX
8
1
10
11.852295
20
16.430489
42
-0.252387
0
VERTEX
8
1
10
11.983330
20
16.416216
42
-0.093338
0
VERTEX
8
1
10
12.136353
20
16.296982
0
SEQEND
0
POLYLINE
8
1
66
1
0
VERTEX
8
1
10
12.282715
20
15.381615
42
-0.109217
0
VERTEX
8
1
10
12.242004
20
15.647534
42
-0.045242
0
VERTEX
8
1
10
12.282715
20
16.077179
0
VERTEX
8
1
10
12.293335
20
16.103828
42
-0.416124
0
VERTEX
8
1
10
12.357202
20
16.125349
42
-0.137806
0
VERTEX
8
1
10
12.413818
20
16.092903
42
-0.068368
0
VERTEX
8
1
10
12.630737
20
15.839127
0
SEQEND
0
POLYLINE
8
1
66
1
0
VERTEX
8
1
10
12.941895
20
15.125305
0
VERTEX
8
1
10
12.935791
20
15.106934
0
VERTEX
8
1
10
12.924805
20
15.087173
42
-0.196993
0
VERTEX
8
1
10
12.572288
20
14.884586
42
-0.294270
0
VERTEX
8
1
10
12.481201
20
14.949989
42
-0.111361
0
VERTEX
8
1
10
12.447632
20
15.179710
42
0.263757
0
VERTEX
8
1
10
12.562988
20
15.254051
42
0.081716
0
VERTEX
8
1
10
12.685669
20
15.564552
0
SEQEND
0
POLYLINE
8
1
66
1
0
VERTEX
8
1
10
13.125000
20
14.575806
0
VERTEX
8
1
10
13.114136
20
14.564171
0
VERTEX
8
1
10
13.096924
20
14.551392
42
-0.106249
0
VERTEX
8
1
10
12.691772
20
14.427391
42
-0.402366
0
VERTEX
8
1
10
12.604370
20
14.503960
42
-0.093328
0
VERTEX
8
1
10
12.612427
20
14.685707
0
SEQEND
0
POLYLINE
8
1
66
1
0
VERTEX
8
1
10
13.106812
20
14.081436
42
-0.035707
0
VERTEX
8
1
10
12.795532
20
13.924023
42
-0.040515
0
VERTEX
8
1
10
12.682617
20
13.894577
0
VERTEX
8
1
10
12.658569
20
13.895729
0
VERTEX
8
1
10
12.640747
20
13.904480
42
-0.209640
0
VERTEX
8
1
10
12.612549
20
13.989693
42
-0.083571
0
VERTEX
8
1
10
12.667236
20
14.227852
0
SEQEND
0
POLYLINE
8
1
66
1
0
VERTEX
8
1
10
12.685669
20
13.458908
42
-0.260282
0
VERTEX
8
1
10
12.617703
20
13.590208
42
-0.097796
0
VERTEX
8
1
10
12.630737
20
13.678703
0
SEQEND
0
LINE
8
1
10
10.213623
20
17.908249
11
10.286987
21
20.911339
0
POLYLINE
8
1
66
1
0
VERTEX
8
1
10
8.675659
20
8.826286
42
0.071124
0
VERTEX
8
1
10
9.392458
20
9.392058
42
0.131603
0
VERTEX
8
1
10
9.987398
20
10.535824
42
0.045560
0
VERTEX
8
1
10
10.124614
20
11.412681
42
0.013452
0
VERTEX
8
1
10
10.165283
20
12.305466
42
0.006771
0
VERTEX
8
1
10
10.213618
20
16.406876
0
SEQEND
0
POLYLINE
8
1
66
1
0
VERTEX
8
1
10
5.489624
20
10.437561
42
0.120534
0
VERTEX
8
1
10
7.332520
20
8.854134
0
VERTEX
8
1
10
7.372314
20
8.835617
0
VERTEX
8
1
10
7.393799
20
8.826286
0
SEQEND
0
POLYLINE
8
1
66
1
0
VERTEX
8
1
10
4.537476
20
12.158730
42
0.028188
0
VERTEX
8
1
10
4.210914
20
12.132553
42
0.012131
0
VERTEX
8
1
10
3.292357
20
12.012315
0
SEQEND
0
LINE
8
1
10
4.976929
20
11.243370
11
4.610718
21
11.865898
0
LINE
8
1
10
11.911865
20
16.937424
11
11.966797
21
19.794098
0
ARC
8
1
10
16.129936
20
10.610258
40
1.894464
50
-45.205049
51
-28.540154
0
ARC
8
1
10
12.769265
20
-16.917099
40
28.814879
50
76.460291
51
78.474460
0
LINE
8
1
10
12.374390
20
20.947861
11
12.447510
21
23.584732
0
LINE
8
1
10
12.447510
20
16.370361
11
12.410889
21
19.300072
0
POLYLINE
8
1
66
1
0
VERTEX
8
1
10
16.402710
20
8.643356
42
-0.085458
0
VERTEX
8
1
10
16.006041
20
8.422949
42
-0.086053
0
VERTEX
8
1
10
15.084229
20
8.240280
42
-0.165797
0
VERTEX
8
1
10
14.067087
20
8.486157
42
-0.091280
0
VERTEX
8
1
10
13.338455
20
9.134737
42
-0.098242
0
VERTEX
8
1
10
12.511597
20
10.688095
42
-0.042388
0
VERTEX
8
1
10
12.452063
20
11.020583
42
-0.021738
0
VERTEX
8
1
10
12.381104
20
11.885942
42
-0.014041
0
VERTEX
8
1
10
12.337645
20
14.795615
0
SEQEND
0
POLYLINE
8
1
66
1
0
VERTEX
8
1
10
16.915283
20
8.569977
42
-0.172647
0
VERTEX
8
1
10
15.105216
20
7.805794
42
-0.079064
0
VERTEX
8
1
10
13.935913
20
7.905334
42
-0.112378
0
VERTEX
8
1
10
13.016604
20
8.522435
42
-0.079597
0
VERTEX
8
1
10
12.474113
20
9.301712
42
-0.069173
0
VERTEX
8
1
10
12.066347
20
10.511621
42
-0.062295
0
VERTEX
8
1
10
11.934814
20
12.232597
42
-0.000172
0
VERTEX
8
1
10
11.934850
20
15.271803
0
SEQEND
0
POLYLINE
8
1
66
1
0
VERTEX
8
1
10
2.559937
20
12.122215
42
-0.038561
0
VERTEX
8
1
10
3.220337
20
12.262878
42
-0.020849
0
VERTEX
8
1
10
5.162353
20
12.452081
42
0.097462
0
VERTEX
8
1
10
5.408300
20
12.524472
42
0.214567
0
VERTEX
8
1
10
5.551514
20
12.725006
42
0.197231
0
VERTEX
8
1
10
5.441365
20
13.068902
42
-0.024637
0
VERTEX
8
1
10
5.131670
20
13.563592
42
-0.040518
0
VERTEX
8
1
10
4.187879
20
15.537397
42
-0.035516
0
VERTEX
8
1
10
4.009399
20
16.162888
42
-0.033859
0
VERTEX
8
1
10
3.988647
20
16.344009
0
VERTEX
8
1
10
3.976685
20
16.371078
0
VERTEX
8
1
10
3.949829
20
16.368683
42
0.103929
0
VERTEX
8
1
10
3.688672
20
16.237879
42
0.070169
0
VERTEX
8
1
10
3.135755
20
15.716017
42
0.093244
0
VERTEX
8
1
10
2.275516
20
14.154246
42
0.074203
0
VERTEX
8
1
10
1.943237
20
12.336357
0
VERTEX
8
1
10
1.937500
20
12.122215
0
SEQEND
0
POLYLINE
8
1
66
1
0
VERTEX
8
1
10
21.163330
20
11.573067
42
0.066473
0
VERTEX
8
1
10
20.933714
20
13.352411
42
0.068372
0
VERTEX
8
1
10
20.315481
20
14.797526
42
0.063480
0
VERTEX
8
1
10
19.598225
20
15.690289
42
0.057622
0
VERTEX
8
1
10
19.246237
20
15.947490
42
0.114740
0
VERTEX
8
1
10
19.156494
20
15.969612
0
VERTEX
8
1
10
19.156372
20
15.900215
42
-0.095653
0
VERTEX
8
1
10
19.018259
20
14.570994
42
-0.068609
0
VERTEX
8
1
10
18.440825
20
13.265049
42
-0.034560
0
VERTEX
8
1
10
17.746460
20
12.268913
42
0.007850
0
VERTEX
8
1
10
17.628487
20
12.085674
42
0.096686
0
VERTEX
8
1
10
17.582075
20
11.967384
42
0.286778
0
VERTEX
8
1
10
17.640211
20
11.859579
42
0.109359
0
VERTEX
8
1
10
17.791992
20
11.800247
42
-0.022933
0
VERTEX
8
1
10
18.701517
20
11.617025
42
-0.015691
0
VERTEX
8
1
10
20.041140
20
11.252282
0
VERTEX
8
1
10
20.540771
20
11.096954
0
SEQEND
0
LINE
8
1
10
9.865845
20
12.158730
11
9.865845
21
12.433647
0
LINE
8
1
10
9.627808
20
12.213852
11
9.462891
21
12.250366
0
LINE
8
1
10
9.371460
20
11.975792
11
9.060181
21
12.103951
0
ARC
8
1
10
9.214036
20
12.894741
40
1.161192
50
-117.622329
51
-101.284321
0
POLYLINE
8
1
66
1
0
VERTEX
8
1
10
8.565796
20
11.536201
0
VERTEX
8
1
10
8.546143
20
11.542572
42
-0.036609
0
VERTEX
8
1
10
8.254395
20
11.701218
0
SEQEND
0
POLYLINE
8
1
66
1
0
VERTEX
8
1
10
8.126221
20
11.408043
42
-0.218239
0
VERTEX
8
1
10
8.065136
20
11.439600
42
-0.091989
0
VERTEX
8
1
10
7.979858
20
11.554459
0
SEQEND
0
ARC
8
1
10
8.730978
20
12.779561
40
1.727338
50
-126.430623
51
-118.505563
0
ARC
8
1
10
7.701893
20
11.509800
40
0.379221
50
-149.398085
51
-109.224587
0
POLYLINE
8
1
66
1
0
VERTEX
8
1
10
7.229126
20
11.005310
0
VERTEX
8
1
10
7.199951
20
11.015884
42
-0.122302
0
VERTEX
8
1
10
6.991089
20
11.206848
0
SEQEND
0
POLYLINE
8
1
66
1
0
VERTEX
8
1
10
6.954590
20
10.913673
0
VERTEX
8
1
10
6.934692
20
10.947937
42
0.229423
0
VERTEX
8
1
10
6.643066
20
11.096954
0
VERTEX
8
1
10
6.588379
20
10.639099
0
SEQEND
0
LINE
8
1
10
6.899414
20
10.254623
11
6.954590
21
10.565720
0
LINE
8
1
10
7.137451
20
9.870155
11
7.174194
21
10.199501
0
LINE
8
1
10
7.430420
20
9.668617
11
7.448853
21
9.888412
0
POLYLINE
8
1
66
1
0
VERTEX
8
1
10
7.924805
20
9.174240
42
-0.116760
0
VERTEX
8
1
10
7.796753
20
8.844551
42
-0.354407
0
VERTEX
8
1
10
7.744679
20
8.827989
42
-0.146018
0
VERTEX
8
1
10
7.699097
20
8.862160
42
-0.072527
0
VERTEX
8
1
10
7.577026
20
9.100861
0
VERTEX
8
1
10
7.705200
20
9.522202
0
SEQEND
0
POLYLINE
8
1
66
1
0
VERTEX
8
1
10
8.162964
20
8.881409
42
-0.023134
0
VERTEX
8
1
10
8.047729
20
8.464020
0
VERTEX
8
1
10
8.035889
20
8.444626
0
VERTEX
8
1
10
8.022949
20
8.436317
42
-0.244489
0
VERTEX
8
1
10
7.981201
20
8.463486
42
-0.064385
0
VERTEX
8
1
10
7.888184
20
8.679871
0
SEQEND
0
POLYLINE
8
1
66
1
0
VERTEX
8
1
10
8.346069
20
8.826286
0
VERTEX
8
1
10
8.360229
20
8.821243
42
-0.188691
0
VERTEX
8
1
10
8.455933
20
8.679871
42
-0.024203
0
VERTEX
8
1
10
8.382756
20
8.292830
42
-0.028161
0
VERTEX
8
1
10
8.327759
20
8.130722
0
VERTEX
8
1
10
8.312622
20
8.108185
0
VERTEX
8
1
10
8.296875
20
8.098198
42
-0.256557
0
VERTEX
8
1
10
8.247681
20
8.127213
42
-0.073942
0
VERTEX
8
1
10
8.144653
20
8.368782
0
SEQEND
0
POLYLINE
8
1
66
1
0
VERTEX
8
1
10
8.620605
20
8.533455
0
VERTEX
8
1
10
8.712036
20
8.405449
42
-0.054373
0
VERTEX
8
1
10
8.686094
20
7.813005
42
-0.080167
0
VERTEX
8
1
10
8.635498
20
7.688812
0
VERTEX
8
1
10
8.612915
20
7.666847
42
-0.458538
0
VERTEX
8
1
10
8.546620
20
7.675781
42
-0.149654
0
VERTEX
8
1
10
8.509644
20
7.741333
42
-0.056833
0
VERTEX
8
1
10
8.455933
20
8.020828
0
SEQEND
0
POLYLINE
8
1
66
1
0
VERTEX
8
1
10
8.913818
20
8.240280
42
-0.206257
0
VERTEX
8
1
10
8.978319
20
8.182904
42
-0.094676
0
VERTEX
8
1
10
9.023193
20
8.076279
42
-0.013691
0
VERTEX
8
1
10
8.997316
20
7.658440
42
-0.024964
0
VERTEX
8
1
10
8.948608
20
7.357796
42
-0.097995
0
VERTEX
8
1
10
8.909546
20
7.268784
0
VERTEX
8
1
10
8.895874
20
7.260910
42
-0.255494
0
VERTEX
8
1
10
8.855225
20
7.289070
42
-0.069007
0
VERTEX
8
1
10
8.767212
20
7.544716
0
SEQEND
0
POLYLINE
8
1
66
1
0
VERTEX
8
1
10
9.224854
20
7.855805
42
-0.192488
0
VERTEX
8
1
10
9.254395
20
7.840004
42
-0.114980
0
VERTEX
8
1
10
9.316406
20
7.692001
42
-0.033908
0
VERTEX
8
1
10
9.219727
20
7.067154
42
-0.066198
0
VERTEX
8
1
10
9.178955
20
6.960693
0
VERTEX
8
1
10
9.165039
20
6.944839
42
-0.400649
0
VERTEX
8
1
10
9.117946
20
6.953735
42
-0.089510
0
VERTEX
8
1
10
9.041870
20
7.141640
0
SEQEND
0
POLYLINE
8
1
66
1
0
VERTEX
8
1
10
9.517822
20
7.526451
0
VERTEX
8
1
10
9.535889
20
7.518135
0
VERTEX
8
1
10
9.550659
20
7.499611
42
-0.104254
0
VERTEX
8
1
10
9.580811
20
7.344467
42
-0.069493
0
VERTEX
8
1
10
9.497377
20
6.665940
42
-0.102358
0
VERTEX
8
1
10
9.458291
20
6.598073
42
-0.459891
0
VERTEX
8
1
10
9.410645
20
6.611450
42
-0.092948
0
VERTEX
8
1
10
9.334717
20
6.812286
0
SEQEND
0
POLYLINE
8
1
66
1
0
VERTEX
8
1
10
9.774292
20
7.215019
42
-0.213475
0
VERTEX
8
1
10
9.846429
20
7.106006
42
-0.084820
0
VERTEX
8
1
10
9.867023
20
6.881300
42
-0.072202
0
VERTEX
8
1
10
9.767212
20
6.307037
42
-0.202812
0
VERTEX
8
1
10
9.725220
20
6.245838
42
-0.363815
0
VERTEX
8
1
10
9.677002
20
6.262596
42
-0.092051
0
VERTEX
8
1
10
9.591064
20
6.446075
0
SEQEND
0
POLYLINE
8
1
66
1
0
VERTEX
8
1
10
10.103760
20
6.794029
0
VERTEX
8
1
10
10.126587
20
6.765717
0
VERTEX
8
1
10
10.144531
20
6.731956
42
-0.125804
0
VERTEX
8
1
10
10.167683
20
6.435238
42
-0.058776
0
VERTEX
8
1
10
10.044556
20
5.903168
42
-0.653625
0
VERTEX
8
1
10
9.972290
20
5.889168
42
-0.091237
0
VERTEX
8
1
10
9.847412
20
6.098122
0
SEQEND
0
POLYLINE
8
1
66
1
0
VERTEX
8
1
10
10.378418
20
6.372688
42
-0.121437
0
VERTEX
8
1
10
10.425999
20
6.236393
42
-0.087649
0
VERTEX
8
1
10
10.347290
20
5.454506
42
-0.128963
0
VERTEX
8
1
10
10.315156
20
5.391798
42
-0.456006
0
VERTEX
8
1
10
10.265869
20
5.401855
0
VERTEX
8
1
10
10.253906
20
5.416748
42
-0.077342
0
VERTEX
8
1
10
10.158813
20
5.658524
0
SEQEND
0
POLYLINE
8
1
66
1
0
VERTEX
8
1
10
10.634888
20
6.043343
42
-0.121335
0
VERTEX
8
1
10
10.700632
20
5.767046
42
-0.079978
0
VERTEX
8
1
10
10.627563
20
5.084801
42
-0.140876
0
VERTEX
8
1
10
10.587959
20
5.008714
42
-0.451967
0
VERTEX
8
1
10
10.537598
20
5.019600
42
-0.097632
0
VERTEX
8
1
10
10.451660
20
5.219276
0
SEQEND
0
POLYLINE
8
1
66
1
0
VERTEX
8
1
10
10.909546
20
5.731903
42
-0.180014
0
VERTEX
8
1
10
10.962864
20
5.652729
42
-0.104749
0
VERTEX
8
1
10
10.994306
20
5.392954
42
-0.072396
0
VERTEX
8
1
10
10.891235
20
4.779678
42
-0.151503
0
VERTEX
8
1
10
10.853409
20
4.721774
42
-0.428545
0
VERTEX
8
1
10
10.814453
20
4.739334
42
-0.089794
0
VERTEX
8
1
10
10.763061
20
4.889580
0
SEQEND
0
POLYLINE
8
1
66
1
0
VERTEX
8
1
10
11.184082
20
5.329170
0
VERTEX
8
1
10
11.206543
20
5.316917
0
VERTEX
8
1
10
11.225708
20
5.296799
42
-0.119430
0
VERTEX
8
1
10
11.272583
20
5.152634
42
-0.107973
0
VERTEX
8
1
10
11.189209
20
4.479179
42
-0.107569
0
VERTEX
8
1
10
11.130921
20
4.387150
42
-0.494764
0
VERTEX
8
1
10
11.072876
20
4.406624
42
-0.099147
0
VERTEX
8
1
10
11.019409
20
4.615005
0
SEQEND
0
POLYLINE
8
1
66
1
0
VERTEX
8
1
10
11.477051
20
4.944702
42
-0.262680
0
VERTEX
8
1
10
11.527658
20
4.892024
42
-0.101523
0
VERTEX
8
1
10
11.553833
20
4.769279
42
-0.083891
0
VERTEX
8
1
10
11.472412
20
4.164444
42
-0.554703
0
VERTEX
8
1
10
11.395508
20
4.146820
42
-0.095607
0
VERTEX
8
1
10
11.275757
20
4.303566
0
SEQEND
0
POLYLINE
8
1
66
1
0
VERTEX
8
1
10
11.770142
20
4.596748
0
VERTEX
8
1
10
11.788452
20
4.594284
0
VERTEX
8
1
10
11.804810
20
4.582047
42
-0.121171
0
VERTEX
8
1
10
11.852783
20
4.453979
42
-0.078158
0
VERTEX
8
1
10
11.851074
20
3.782951
0
VERTEX
8
1
10
11.843262
20
3.754417
0
VERTEX
8
1
10
11.834229
20
3.733673
42
-0.557340
0
VERTEX
8
1
10
11.771607
20
3.729119
0
VERTEX
8
1
10
11.756958
20
3.743141
42
-0.074436
0
VERTEX
8
1
10
11.623657
20
3.974220
0
SEQEND
0
POLYLINE
8
1
66
1
0
VERTEX
8
1
10
12.337646
20
3.626259
0
VERTEX
8
1
10
12.343628
20
3.652924
42
0.109890
0
VERTEX
8
1
10
12.316650
20
3.793480
42
0.060998
0
VERTEX
8
1
10
12.099731
20
4.175407
0
SEQEND
0
POLYLINE
8
1
66
1
0
VERTEX
8
1
10
12.703857
20
3.571144
42
0.176794
0
VERTEX
8
1
10
12.636209
20
3.789867
42
0.089716
0
VERTEX
8
1
10
12.447632
20
3.992477
0
SEQEND
0
POLYLINE
8
1
66
1
0
VERTEX
8
1
10
13.070068
20
3.717903
42
0.334719
0
VERTEX
8
1
10
12.860211
20
3.919778
42
0.090548
0
VERTEX
8
1
10
12.758789
20
3.919098
0
SEQEND
0
POLYLINE
8
1
66
1
0
VERTEX
8
1
10
6.331787
20
10.828232
0
VERTEX
8
1
10
6.330200
20
10.845674
42
-0.024589
0
VERTEX
8
1
10
6.368530
20
11.304343
0
SEQEND
0
POLYLINE
8
1
66
1
0
VERTEX
8
1
10
6.124268
20
10.840637
0
VERTEX
8
1
10
6.112183
20
10.874954
42
-0.061124
0
VERTEX
8
1
10
6.051270
20
11.414246
0
SEQEND
0
POLYLINE
8
1
66
1
0
VERTEX
8
1
10
5.904663
20
10.865097
42
-0.086011
0
VERTEX
8
1
10
5.841073
20
11.029247
42
-0.056777
0
VERTEX
8
1
10
5.782471
20
11.463165
0
SEQEND
0
POLYLINE
8
1
66
1
0
VERTEX
8
1
10
5.770508
20
10.779312
42
-0.125896
0
VERTEX
8
1
10
5.599608
20
11.003490
42
-0.087262
0
VERTEX
8
1
10
5.477295
20
11.426300
0
SEQEND
0
POLYLINE
8
1
66
1
0
VERTEX
8
1
10
5.587158
20
10.742798
42
-0.120335
0
VERTEX
8
1
10
5.461670
20
10.800713
42
-0.031433
0
VERTEX
8
1
10
5.135498
20
11.096954
42
-0.459565
0
VERTEX
8
1
10
5.125488
20
11.142464
42
-0.137162
0
VERTEX
8
1
10
5.257690
20
11.206848
0
SEQEND
0
POLYLINE
8
1
66
1
0
VERTEX
8
1
10
5.367554
20
10.632896
42
-0.132221
0
VERTEX
8
1
10
5.129404
20
10.731812
42
-0.067209
0
VERTEX
8
1
10
4.720581
20
11.084549
0
VERTEX
8
1
10
4.709839
20
11.101105
42
-0.656440
0
VERTEX
8
1
10
4.739624
20
11.139732
42
-0.077792
0
VERTEX
8
1
10
4.940186
20
11.109009
0
SEQEND
0
POLYLINE
8
1
66
1
0
VERTEX
8
1
10
4.940186
20
10.571922
42
-0.097283
0
VERTEX
8
1
10
4.788337
20
10.628599
42
-0.071324
0
VERTEX
8
1
10
4.331543
20
10.955048
0
VERTEX
8
1
10
4.312744
20
10.977196
0
VERTEX
8
1
10
4.300293
20
10.996117
42
-0.531931
0
VERTEX
8
1
10
4.330200
20
11.052878
42
-0.093459
0
VERTEX
8
1
10
4.549683
20
11.060089
0
SEQEND
0
POLYLINE
8
1
66
1
0
VERTEX
8
1
10
4.537476
20
10.547462
0
VERTEX
8
1
10
4.517456
20
10.540146
42
-0.117673
0
VERTEX
8
1
10
4.383911
20
10.564247
42
-0.083742
0
VERTEX
8
1
10
3.910889
20
10.843918
0
VERTEX
8
1
10
3.896240
20
10.860931
42
-0.457806
0
VERTEX
8
1
10
3.910522
20
10.927544
42
-0.110599
0
VERTEX
8
1
10
4.097900
20
10.987053
0
SEQEND
0
POLYLINE
8
1
66
1
0
VERTEX
8
1
10
4.134766
20
10.462021
42
-0.123104
0
VERTEX
8
1
10
3.994873
20
10.475258
42
-0.096971
0
VERTEX
8
1
10
3.563721
20
10.713455
0
VERTEX
8
1
10
3.544067
20
10.733612
0
VERTEX
8
1
10
3.530762
20
10.751457
42
-0.469047
0
VERTEX
8
1
10
3.551392
20
10.814774
42
-0.102538
0
VERTEX
8
1
10
3.719604
20
10.852692
0
SEQEND
0
POLYLINE
8
1
66
1
0
VERTEX
8
1
10
3.860962
20
10.308372
42
-0.222349
0
VERTEX
8
1
10
3.272057
20
10.538542
42
-0.370922
0
VERTEX
8
1
10
3.272022
20
10.648250
42
-0.117740
0
VERTEX
8
1
10
3.370605
20
10.735214
0
SEQEND
0
POLYLINE
8
1
66
1
0
VERTEX
8
1
10
12.337646
20
4.248787
0
VERTEX
8
1
10
12.484353
20
4.274230
0
VERTEX
8
1
10
12.630613
20
4.302126
42
0.186974
0
VERTEX
8
1
10
17.665325
20
7.463577
42
0.034088
0
VERTEX
8
1
10
18.160400
20
8.240280
0
SEQEND
0
POLYLINE
8
1
66
1
0
VERTEX
8
1
10
3.878296
20
10.034829
42
0.058098
0
VERTEX
8
1
10
5.312280
20
7.540737
42
0.066421
0
VERTEX
8
1
10
7.210820
20
5.595282
42
0.054349
0
VERTEX
8
1
10
8.921459
20
4.541384
42
0.042986
0
VERTEX
8
1
10
10.098090
20
4.111344
0
VERTEX
8
1
10
10.155535
20
4.093185
0
VERTEX
8
1
10
10.212405
20
4.073301
42
-0.076887
0
VERTEX
8
1
10
11.058407
20
3.575177
0
VERTEX
8
1
10
11.118896
20
3.524902
0
VERTEX
8
1
10
11.130981
20
3.520569
0
VERTEX
8
1
10
11.142090
20
3.544327
42
-0.179532
0
VERTEX
8
1
10
11.422119
20
3.772682
0
SEQEND
0
POLYLINE
8
1
66
1
0
VERTEX
8
1
10
3.512085
20
11.023567
0
VERTEX
8
1
10
3.500244
20
11.055122
42
-0.027905
0
VERTEX
8
1
10
3.328979
20
11.719482
0
SEQEND
0
POLYLINE
8
1
66
1
0
VERTEX
8
1
10
19.002686
20
9.961792
42
0.038704
0
VERTEX
8
1
10
19.100658
20
10.218706
42
0.017586
0
VERTEX
8
1
10
19.295532
20
10.877151
42
-0.050553
0
VERTEX
8
1
10
18.597168
20
11.050583
42
-0.091424
0
VERTEX
8
1
10
18.453369
20
11.133469
0
VERTEX
8
1
10
18.270264
20
10.693878
0
SEQEND
0
POLYLINE
8
1
66
1
0
VERTEX
8
1
10
14.992676
20
8.917931
42
-0.037804
0
VERTEX
8
1
10
15.322388
20
8.606491
0
VERTEX
8
1
10
15.332520
20
8.589912
0
VERTEX
8
1
10
15.331421
20
8.578499
42
-0.169422
0
VERTEX
8
1
10
15.274658
20
8.569824
42
-0.044663
0
VERTEX
8
1
10
14.901123
20
8.661613
0
SEQEND
0
POLYLINE
8
1
66
1
0
VERTEX
8
1
10
15.304077
20
9.174240
42
-0.038926
0
VERTEX
8
1
10
15.603952
20
8.862855
0
VERTEX
8
1
10
15.640015
20
8.815178
42
-0.405967
0
VERTEX
8
1
10
15.612427
20
8.730888
42
-0.099604
0
VERTEX
8
1
10
15.468750
20
8.679871
0
SEQEND
0
POLYLINE
8
1
66
1
0
VERTEX
8
1
10
15.816650
20
9.247627
42
-0.068990
0
VERTEX
8
1
10
15.993986
20
8.883720
42
-0.137804
0
VERTEX
8
1
10
15.991385
20
8.775278
42
-0.394280
0
VERTEX
8
1
10
15.916159
20
8.750268
42
-0.105174
0
VERTEX
8
1
10
15.834961
20
8.789772
0
SEQEND
0
POLYLINE
8
1
66
1
0
VERTEX
8
1
10
16.274536
20
9.247627
42
-0.020406
0
VERTEX
8
1
10
16.457520
20
8.789772
0
VERTEX
8
1
10
16.463867
20
8.762840
42
-0.565070
0
VERTEX
8
1
10
16.426758
20
8.721040
0
VERTEX
8
1
10
16.406372
20
8.723183
42
-0.072504
0
VERTEX
8
1
10
16.219482
20
8.808029
0
SEQEND
0
POLYLINE
8
1
66
1
0
VERTEX
8
1
10
16.732178
20
9.174240
42
-0.029404
0
VERTEX
8
1
10
16.878668
20
8.811704
0
VERTEX
8
1
10
16.889444
20
8.767702
0
VERTEX
8
1
10
16.897949
20
8.723206
42
-0.491188
0
VERTEX
8
1
10
16.852783
20
8.689674
42
-0.093822
0
VERTEX
8
1
10
16.640747
20
8.789772
0
SEQEND
0
POLYLINE
8
1
66
1
0
VERTEX
8
1
10
17.080078
20
9.265884
0
VERTEX
8
1
10
17.091919
20
9.265244
0
VERTEX
8
1
10
17.105957
20
9.258331
42
-0.071722
0
VERTEX
8
1
10
17.195435
20
9.157585
42
-0.001349
0
VERTEX
8
1
10
17.504395
20
8.687637
0
VERTEX
8
1
10
17.547363
20
8.630653
42
-0.282863
0
VERTEX
8
1
10
17.558228
20
8.581627
42
-0.210248
0
VERTEX
8
1
10
17.480347
20
8.573555
42
-0.050704
0
VERTEX
8
1
10
17.135132
20
8.679871
0
SEQEND
0
POLYLINE
8
1
66
1
0
VERTEX
8
1
10
17.519653
20
9.137726
42
-0.069372
0
VERTEX
8
1
10
17.573853
20
9.104469
42
-0.057177
0
VERTEX
8
1
10
18.089428
20
8.564937
0
VERTEX
8
1
10
18.123901
20
8.515198
0
VERTEX
8
1
10
18.136230
20
8.490120
42
-0.561492
0
VERTEX
8
1
10
18.097168
20
8.426406
0
VERTEX
8
1
10
18.074585
20
8.423500
42
-0.080423
0
VERTEX
8
1
10
17.775879
20
8.478334
0
SEQEND
0
POLYLINE
8
1
66
1
0
VERTEX
8
1
10
17.885864
20
9.137726
0
VERTEX
8
1
10
17.915161
20
9.136330
42
-0.097434
0
VERTEX
8
1
10
18.072632
20
9.060852
42
-0.079876
0
VERTEX
8
1
10
18.632324
20
8.500000
42
-0.130911
0
VERTEX
8
1
10
18.679760
20
8.392364
42
-0.410954
0
VERTEX
8
1
10
18.627808
20
8.341820
42
-0.107642
0
VERTEX
8
1
10
18.380249
20
8.387039
0
SEQEND
0
POLYLINE
8
1
66
1
0
VERTEX
8
1
10
18.306763
20
9.192505
42
-0.164762
0
VERTEX
8
1
10
18.449743
20
9.157291
42
-0.084557
0
VERTEX
8
1
10
18.661814
20
8.988555
42
-0.048327
0
VERTEX
8
1
10
18.984497
20
8.588234
0
SEQEND
0
ARC
8
1
10
18.654633
20
8.019355
40
1.022894
50
36.312327
51
75.477553
0
POLYLINE
8
1
66
1
0
VERTEX
8
1
10
19.753418
20
8.771515
42
0.095931
0
VERTEX
8
1
10
19.674847
20
8.851992
42
0.045631
0
VERTEX
8
1
10
19.423950
20
9.027824
0
SEQEND
0
POLYLINE
8
1
66
1
0
VERTEX
8
1
10
17.849121
20
10.382782
42
0.049966
0
VERTEX
8
1
10
17.878906
20
9.795296
0
VERTEX
8
1
10
17.874512
20
9.760689
0
VERTEX
8
1
10
17.831787
20
9.770721
0
VERTEX
8
1
10
17.793091
20
9.792732
42
-0.152734
0
VERTEX
8
1
10
17.656525
20
10.021748
42
-0.056102
0
VERTEX
8
1
10
17.574463
20
10.417580
42
-0.047807
0
VERTEX
8
1
10
17.651331
20
10.717463
42
-0.336590
0
VERTEX
8
1
10
17.717407
20
10.737984
42
-0.087143
0
VERTEX
8
1
10
17.922363
20
10.639099
0
SEQEND
0
ARC
8
1
10
17.715221
20
10.697680
40
0.273417
50
46.319694
51
112.360152
0
POLYLINE
8
1
66
1
0
VERTEX
8
1
10
18.087158
20
10.291145
42
-0.544263
0
VERTEX
8
1
10
18.126694
20
10.291249
42
-0.107151
0
VERTEX
8
1
10
18.157227
20
10.251984
42
-0.042922
0
VERTEX
8
1
10
18.255371
20
9.993347
42
-0.009284
0
VERTEX
8
1
10
18.425049
20
9.373627
42
-0.426553
0
VERTEX
8
1
10
18.408691
20
9.343742
42
-0.142279
0
VERTEX
8
1
10
18.337524
20
9.378250
42
-0.043727
0
VERTEX
8
1
10
18.068726
20
9.632095
0
SEQEND
0
POLYLINE
8
1
66
1
0
VERTEX
8
1
10
18.416748
20
10.162987
0
VERTEX
8
1
10
18.436279
20
10.158028
0
VERTEX
8
1
10
18.457153
20
10.143730
42
-0.079146
0
VERTEX
8
1
10
18.574829
20
9.962029
42
-0.042751
0
VERTEX
8
1
10
18.843340
20
9.227643
0
VERTEX
8
1
10
18.844984
20
9.209245
42
-0.576041
0
VERTEX
8
1
10
18.795532
20
9.158676
42
-0.105741
0
VERTEX
8
1
10
18.618286
20
9.247627
0
SEQEND
0
POLYLINE
8
1
66
1
0
VERTEX
8
1
10
18.874512
20
9.851891
42
-0.020165
0
VERTEX
8
1
10
19.250046
20
9.213188
42
-0.153253
0
VERTEX
8
1
10
19.266623
20
9.120668
42
-0.290268
0
VERTEX
8
1
10
19.236450
20
9.101021
42
-0.116402
0
VERTEX
8
1
10
19.112671
20
9.137726
0
SEQEND
0
POLYLINE
8
1
66
1
0
VERTEX
8
1
10
19.552002
20
9.192505
42
0.155024
0
VERTEX
8
1
10
19.529907
20
9.311234
42
0.059518
0
VERTEX
8
1
10
19.259033
20
9.723740
0
SEQEND
0
POLYLINE
8
1
66
1
0
VERTEX
8
1
10
19.735107
20
9.100861
42
0.195944
0
VERTEX
8
1
10
19.737127
20
9.320399
42
0.081587
0
VERTEX
8
1
10
19.607056
20
9.576973
0
SEQEND
0
LINE
8
1
10
19.973267
20
8.936188
11
19.863281
21
8.972710
0
LINE
8
1
10
20.119629
20
9.155983
11
19.954956
21
9.155983
0
LINE
8
1
10
20.101318
20
9.448814
11
19.899780
21
9.357521
0
LINE
8
1
10
19.826782
20
9.503937
11
19.991455
21
9.760254
0
ARC
8
1
10
14.202937
20
11.622131
40
5.664850
50
-19.779579
51
-15.500611
0
POLYLINE
8
1
66
1
70
1
0
VERTEX
8
1
10
41.340088
20
10.317238
42
0.134126
0
VERTEX
8
1
10
41.394775
20
10.508591
0
VERTEX
8
1
10
41.362915
20
10.514328
42
-0.015702
0
VERTEX
8
1
10
40.885677
20
10.573450
42
-0.048397
0
VERTEX
8
1
10
40.431152
20
10.705498
0
VERTEX
8
1
10
40.351685
20
10.744781
0
VERTEX
8
1
10
40.291748
20
10.793549
0
VERTEX
8
1
10
40.246460
20
10.852180
0
VERTEX
8
1
10
40.215332
20
10.919998
42
-0.134457
0
VERTEX
8
1
10
40.212387
20
11.224756
42
-0.074364
0
VERTEX
8
1
10
40.366158
20
11.620247
42
-0.044294
0
VERTEX
8
1
10
40.660278
20
12.075623
0
VERTEX
8
1
10
40.846924
20
12.321358
0
VERTEX
8
1
10
41.038086
20
12.614662
0
VERTEX
8
1
10
41.208008
20
12.919472
0
VERTEX
8
1
10
41.357666
20
13.230537
42
0.066213
0
VERTEX
8
1
10
41.947880
20
15.274137
42
0.015082
0
VERTEX
8
1
10
41.973633
20
15.531265
0
VERTEX
8
1
10
41.970581
20
15.565941
0
VERTEX
8
1
10
41.965496
20
15.581191
42
-0.442335
0
VERTEX
8
1
10
42.047321
20
15.721394
42
-0.089679
0
VERTEX
8
1
10
42.097900
20
15.727188
0
VERTEX
8
1
10
42.305420
20
15.631126
0
VERTEX
8
1
10
42.612061
20
15.446404
0
VERTEX
8
1
10
42.890747
20
15.235962
0
VERTEX
8
1
10
43.142944
20
15.003571
0
VERTEX
8
1
10
43.370239
20
14.752991
0
VERTEX
8
1
10
43.573730
20
14.487984
0
VERTEX
8
1
10
43.755249
20
14.212311
0
VERTEX
8
1
10
43.916016
20
13.929741
0
VERTEX
8
1
10
44.057373
20
13.644028
42
-0.056548
0
VERTEX
8
1
10
44.610180
20
11.922360
42
-0.068024
0
VERTEX
8
1
10
44.667648
20
10.773212
42
-0.055871
0
VERTEX
8
1
10
44.565468
20
10.270595
42
-0.067908
0
VERTEX
8
1
10
44.441185
20
10.018485
42
-0.152107
0
VERTEX
8
1
10
44.237068
20
9.862462
42
-0.116089
0
VERTEX
8
1
10
44.094822
20
9.850763
42
-0.084972
0
VERTEX
8
1
10
43.893677
20
9.905495
42
0.099826
0
VERTEX
8
1
10
43.026367
20
10.102333
0
VERTEX
8
1
10
42.968506
20
10.100006
0
VERTEX
8
1
10
42.936890
20
10.075874
42
-0.079503
0
VERTEX
8
1
10
42.932861
20
9.520561
42
0.182224
0
VERTEX
8
1
10
43.111271
20
9.322063
42
-0.086849
0
VERTEX
8
1
10
43.245556
20
9.228954
42
-0.213474
0
VERTEX
8
1
10
43.289642
20
9.072195
42
0.249371
0
VERTEX
8
1
10
43.322407
20
9.013494
42
0.073015
0
VERTEX
8
1
10
43.399536
20
8.971313
42
-0.390200
0
VERTEX
8
1
10
43.499199
20
8.900210
42
-0.069060
0
VERTEX
8
1
10
43.498047
20
8.797653
42
-0.003672
0
VERTEX
8
1
10
43.482666
20
8.610641
0
VERTEX
8
1
10
43.492798
20
8.577812
42
-0.357010
0
VERTEX
8
1
10
43.531250
20
8.391937
42
0.008240
0
VERTEX
8
1
10
43.457153
20
8.235481
0
VERTEX
8
1
10
43.469727
20
8.216026
42
-0.379498
0
VERTEX
8
1
10
43.468872
20
8.144318
42
-0.110158
0
VERTEX
8
1
10
43.317261
20
8.037178
42
-0.000536
0
VERTEX
8
1
10
43.317554
20
7.921351
42
-0.207731
0
VERTEX
8
1
10
43.249672
20
7.803699
42
-0.145027
0
VERTEX
8
1
10
42.987549
20
7.679970
42
-0.202110
0
VERTEX
8
1
10
42.773304
20
7.576472
42
-0.129711
0
VERTEX
8
1
10
42.452637
20
7.618941
0
VERTEX
8
1
10
42.424316
20
7.616508
42
-0.158306
0
VERTEX
8
1
10
42.081543
20
7.543190
42
-0.004365
0
VERTEX
8
1
10
41.586666
20
6.755486
42
-0.169865
0
VERTEX
8
1
10
41.684326
20
6.657112
42
-0.100536
0
VERTEX
8
1
10
41.953857
20
5.734726
42
-0.008038
0
VERTEX
8
1
10
42.367584
20
5.454974
0
VERTEX
8
1
10
42.411011
20
5.421631
42
-0.185847
0
VERTEX
8
1
10
42.511009
20
5.284379
42
-0.594157
0
VERTEX
8
1
10
42.317261
20
5.130234
0
VERTEX
8
1
10
42.293457
20
5.140411
0
VERTEX
8
1
10
42.270508
20
5.152251
42
0.003598
0
VERTEX
8
1
10
41.811279
20
5.468665
0
VERTEX
8
1
10
41.759888
20
5.460617
42
-0.087060
0
VERTEX
8
1
10
40.960491
20
5.515728
42
-0.118208
0
VERTEX
8
1
10
40.792236
20
5.608261
0
VERTEX
8
1
10
40.788452
20
5.608368
42
-0.017430
0
VERTEX
8
1
10
40.491089
20
5.288864
0
VERTEX
8
1
10
40.482056
20
5.276680
42
-0.033212
0
VERTEX
8
1
10
40.615112
20
5.180161
42
0.048424
0
VERTEX
8
1
10
41.357178
20
4.821457
42
-0.139014
0
VERTEX
8
1
10
41.473686
20
4.915190
42
-0.294564
0
VERTEX
8
1
10
41.625919
20
4.867820
42
-0.308132
0
VERTEX
8
1
10
41.655640
20
4.709641
42
-0.033320
0
VERTEX
8
1
10
41.899948
20
4.628114
42
-0.252679
0
VERTEX
8
1
10
41.984913
20
4.497258
42
-0.452629
0
VERTEX
8
1
10
41.808594
20
4.350327
42
-0.066076
0
VERTEX
8
1
10
41.692867
20
4.371978
42
-0.033872
0
VERTEX
8
1
10
41.430542
20
4.460526
0
VERTEX
8
1
10
41.400269
20
4.450363
42
-0.069181
0
VERTEX
8
1
10
40.839844
20
4.106262
0
VERTEX
8
1
10
40.836060
20
4.029243
42
-0.058475
0
VERTEX
8
1
10
40.790421
20
3.655790
42
-0.148729
0
VERTEX
8
1
10
40.711609
20
3.533326
42
-0.652381
0
VERTEX
8
1
10
40.494629
20
3.670441
42
0.019238
0
VERTEX
8
1
10
40.531738
20
3.984131
0
VERTEX
8
1
10
40.527344
20
3.989258
0
VERTEX
8
1
10
40.505634
20
3.985226
0
VERTEX
8
1
10
40.483646
20
3.983193
42
-0.923540
0
VERTEX
8
1
10
40.435303
20
4.269348
42
-0.018088
0
VERTEX
8
1
10
40.522339
20
4.300629
42
0.034795
0
VERTEX
8
1
10
40.443817
20
4.766392
42
0.041160
0
VERTEX
8
1
10
40.378540
20
4.939705
0
VERTEX
8
1
10
40.285278
20
5.083412
0
VERTEX
8
1
10
40.282837
20
5.089371
42
-0.018116
0
VERTEX
8
1
10
39.843872
20
4.716255
0
VERTEX
8
1
10
39.844971
20
4.709763
42
-0.651596
0
VERTEX
8
1
10
39.857178
20
4.446159
42
-0.033526
0
VERTEX
8
1
10
40.233627
20
3.656237
42
-0.050468
0
VERTEX
8
1
10
40.363384
20
3.164497
0
VERTEX
8
1
10
40.364979
20
3.132377
0
VERTEX
8
1
10
40.364502
20
3.100220
42
-0.501338
0
VERTEX
8
1
10
40.143822
20
2.927902
42
-0.127227
0
VERTEX
8
1
10
39.956707
20
3.019982
42
-0.052562
0
VERTEX
8
1
10
39.698364
20
3.252991
0
VERTEX
8
1
10
39.669434
20
3.273262
42
-0.022776
0
VERTEX
8
1
10
39.724842
20
2.956165
42
-0.066797
0
VERTEX
8
1
10
39.714310
20
2.741403
42
-0.241756
0
VERTEX
8
1
10
39.591644
20
2.604626
42
-0.197437
0
VERTEX
8
1
10
39.404663
20
2.624664
42
-0.098982
0
VERTEX
8
1
10
38.922688
20
3.009201
42
-0.038953
0
VERTEX
8
1
10
38.494629
20
3.580139
42
-0.563228
0
VERTEX
8
1
10
38.259781
20
3.660145
0
VERTEX
8
1
10
38.256603
20
3.677096
0
VERTEX
8
1
10
38.255371
20
3.694298
0
VERTEX
8
1
10
38.237793
20
3.687819
42
-0.011551
0
VERTEX
8
1
10
37.799072
20
3.471237
0
VERTEX
8
1
10
37.798218
20
3.467735
42
0.053330
0
VERTEX
8
1
10
37.998886
20
3.208657
42
0.035285
0
VERTEX
8
1
10
38.449463
20
2.773987
0
VERTEX
8
1
10
38.507568
20
2.804756
0
VERTEX
8
1
10
38.525864
20
2.812743
0
VERTEX
8
1
10
38.544956
20
2.818573
42
-0.430868
0
VERTEX
8
1
10
38.726570
20
2.705601
42
-0.248588
0
VERTEX
8
1
10
38.696777
20
2.573059
0
VERTEX
8
1
10
38.697388
20
2.569527
42
-0.033856
0
VERTEX
8
1
10
38.899700
20
2.411749
42
-0.387715
0
VERTEX
8
1
10
38.905067
20
2.208671
42
-0.263141
0
VERTEX
8
1
10
38.771198
20
2.168041
42
-0.112950
0
VERTEX
8
1
10
38.664551
20
2.208847
42
-0.036469
0
VERTEX
8
1
10
38.409424
20
2.402962
0
VERTEX
8
1
10
38.383301
20
2.416245
42
-0.068755
0
VERTEX
8
1
10
37.744873
20
2.273277
0
VERTEX
8
1
10
37.706543
20
2.226898
42
-0.066456
0
VERTEX
8
1
10
37.521103
20
1.849705
42
-0.226210
0
VERTEX
8
1
10
37.373055
20
1.768642
42
-0.563915
0
VERTEX
8
1
10
37.258179
20
1.979759
42
0.023948
0
VERTEX
8
1
10
37.394653
20
2.257889
0
VERTEX
8
1
10
37.391724
20
2.263908
42
-0.216255
0
VERTEX
8
1
10
37.264271
20
2.329529
42
-0.545094
0
VERTEX
8
1
10
37.354809
20
2.554166
42
-0.095897
0
VERTEX
8
1
10
37.433105
20
2.559891
0
VERTEX
8
1
10
37.490967
20
2.560211
42
0.041604
0
VERTEX
8
1
10
37.573273
20
3.071503
42
0.090874
0
VERTEX
8
1
10
37.530640
20
3.352547
42
-0.016942
0
VERTEX
8
1
10
37.326538
20
3.274117
42
0.165708
0
VERTEX
8
1
10
37.192749
20
3.093918
0
VERTEX
8
1
10
36.671021
20
3.093742
42
-0.042325
0
VERTEX
8
1
10
36.564941
20
2.879852
0
VERTEX
8
1
10
36.560303
20
2.856201
42
-0.299727
0
VERTEX
8
1
10
36.483837
20
2.754947
42
-0.087382
0
VERTEX
8
1
10
36.394897
20
2.728745
0
VERTEX
8
1
10
36.312866
20
2.714325
0
VERTEX
8
1
10
36.285889
20
2.707870
42
-0.364620
0
VERTEX
8
1
10
35.971802
20
2.566521
0
VERTEX
8
1
10
35.951294
20
2.558960
42
-0.382304
0
VERTEX
8
1
10
35.747231
20
2.465396
42
-0.144943
0
VERTEX
8
1
10
35.576660
20
2.567772
0
VERTEX
8
1
10
35.538086
20
2.542374
42
-0.217260
0
VERTEX
8
1
10
35.449829
20
2.547753
42
-0.027903
0
VERTEX
8
1
10
35.263916
20
2.658501
0
VERTEX
8
1
10
35.235718
20
2.672966
0
VERTEX
8
1
10
35.207275
20
2.681389
0
VERTEX
8
1
10
35.173828
20
2.672813
0
VERTEX
8
1
10
35.134644
20
2.654404
42
0.052029
0
VERTEX
8
1
10
34.842735
20
2.429804
42
-0.009256
0
VERTEX
8
1
10
34.557739
20
2.196480
0
VERTEX
8
1
10
34.514038
20
2.167465
42
-0.292531
0
VERTEX
8
1
10
34.344540
20
2.162914
42
-0.102803
0
VERTEX
8
1
10
34.216763
20
2.258648
42
-0.046561
0
VERTEX
8
1
10
34.018555
20
2.494484
0
VERTEX
8
1
10
33.924194
20
2.627541
42
0.071089
0
VERTEX
8
1
10
33.831299
20
2.708458
42
-0.044925
0
VERTEX
8
1
10
33.758057
20
2.544235
42
-0.085150
0
VERTEX
8
1
10
33.678955
20
2.370682
42
-0.651862
0
VERTEX
8
1
10
33.434071
20
2.466424
42
-0.108567
0
VERTEX
8
1
10
33.452759
20
2.613609
42
0.352173
0
VERTEX
8
1
10
33.060452
20
2.706479
42
0.274618
0
VERTEX
8
1
10
32.894848
20
2.418689
42
0.207930
0
VERTEX
8
1
10
32.946243
20
2.321038
42
0.051759
0
VERTEX
8
1
10
33.068153
20
2.219859
42
-0.041097
0
VERTEX
8
1
10
33.270458
20
2.037168
42
-0.254620
0
VERTEX
8
1
10
33.330566
20
1.684891
42
-0.356341
0
VERTEX
8
1
10
32.983177
20
1.421720
42
-0.160170
0
VERTEX
8
1
10
32.620483
20
1.531532
0
VERTEX
8
1
10
32.615967
20
1.531021
42
-0.026140
0
VERTEX
8
1
10
32.580688
20
1.437988
42
-0.372071
0
VERTEX
8
1
10
32.403290
20
1.380349
42
-0.411347
0
VERTEX
8
1
10
32.313721
20
1.570259
42
-0.018213
0
VERTEX
8
1
10
32.456985
20
1.972156
42
-0.081049
0
VERTEX
8
1
10
32.538300
20
2.096174
42
-0.678284
0
VERTEX
8
1
10
32.770329
20
1.983107
42
-0.041500
0
VERTEX
8
1
10
32.749664
20
1.832789
42
0.308837
0
VERTEX
8
1
10
32.796078
20
1.766576
42
0.149807
0
VERTEX
8
1
10
32.986286
20
1.725136
42
0.506230
0
VERTEX
8
1
10
33.028946
20
1.837685
42
0.117007
0
VERTEX
8
1
10
32.986328
20
1.893112
42
0.013702
0
VERTEX
8
1
10
32.742188
20
2.096558
42
-0.154807
0
VERTEX
8
1
10
32.589233
20
2.332779
42
-0.158395
0
VERTEX
8
1
10
32.647850
20
2.693503
42
-0.244483
0
VERTEX
8
1
10
33.073486
20
3.030640
42
-0.028611
0
VERTEX
8
1
10
32.827816
20
3.110178
42
-0.017203
0
VERTEX
8
1
10
32.244263
20
3.347557
42
-0.211226
0
VERTEX
8
1
10
32.289574
20
2.962033
42
-0.296378
0
VERTEX
8
1
10
31.796387
20
2.507896
0
VERTEX
8
1
10
31.795044
20
2.497292
42
-0.028958
0
VERTEX
8
1
10
31.956055
20
2.097557
42
0.171248
0
VERTEX
8
1
10
32.056763
20
2.034538
0
VERTEX
8
1
10
32.121338
20
2.061684
42
-0.686992
0
VERTEX
8
1
10
32.294243
20
1.881028
42
-0.215073
0
VERTEX
8
1
10
32.147953
20
1.755670
42
-0.203392
0
VERTEX
8
1
10
31.911743
20
1.773514
0
VERTEX
8
1
10
31.883911
20
1.786003
42
-0.199171
0
VERTEX
8
1
10
31.680542
20
1.976524
42
0.031753
0
VERTEX
8
1
10
31.497690
20
2.447464
42
0.102091
0
VERTEX
8
1
10
31.385742
20
2.588646
42
-0.114191
0
VERTEX
8
1
10
31.351929
20
2.641159
42
0.032101
0
VERTEX
8
1
10
31.216309
20
2.312607
42
-0.181932
0
VERTEX
8
1
10
31.128206
20
2.205305
42
-0.501792
0
VERTEX
8
1
10
30.921419
20
2.313233
42
-0.141835
0
VERTEX
8
1
10
30.927612
20
2.408195
42
-0.040991
0
VERTEX
8
1
10
31.054077
20
2.728539
42
-0.048936
0
VERTEX
8
1
10
31.459229
20
3.453613
0
VERTEX
8
1
10
31.432983
20
3.471954
42
-0.011667
0
VERTEX
8
1
10
31.227554
20
3.527559
0
VERTEX
8
1
10
31.201281
20
3.539325
0
VERTEX
8
1
10
31.175903
20
3.552917
42
-0.633684
0
VERTEX
8
1
10
31.181885
20
3.825232
0
VERTEX
8
1
10
31.176149
20
3.831657
42
-0.002692
0
VERTEX
8
1
10
30.859623
20
3.982169
0
VERTEX
8
1
10
30.860840
20
3.975693
42
-0.191911
0
VERTEX
8
1
10
30.941351
20
3.454121
42
-0.137413
0
VERTEX
8
1
10
30.651709
20
2.872101
42
-0.264600
0
VERTEX
8
1
10
29.981770
20
2.677958
42
-0.118483
0
VERTEX
8
1
10
29.593567
20
2.866294
42
-0.289076
0
VERTEX
8
1
10
29.375122
20
3.598343
42
-0.164914
0
VERTEX
8
1
10
29.793001
20
4.237277
42
-0.199477
0
VERTEX
8
1
10
30.278931
20
4.354965
0
VERTEX
8
1
10
30.284668
20
4.361298
42
-0.010357
0
VERTEX
8
1
10
29.891968
20
4.702805
0
VERTEX
8
1
10
29.885742
20
4.701721
42
-0.112613
0
VERTEX
8
1
10
29.839600
20
4.618286
42
0.016889
0
VERTEX
8
1
10
28.936182
20
3.666585
0
VERTEX
8
1
10
28.911917
20
3.644083
42
-0.635375
0
VERTEX
8
1
10
28.642700
20
3.726021
42
-0.200968
0
VERTEX
8
1
10
28.698364
20
3.864662
42
-0.012507
0
VERTEX
8
1
10
29.039917
20
4.238961
0
VERTEX
8
1
10
29.039919
20
4.251938
42
-0.009582
0
VERTEX
8
1
10
28.569336
20
4.694122
0
VERTEX
8
1
10
28.552490
20
4.700874
42
0.010441
0
VERTEX
8
1
10
28.181087
20
4.309562
42
-0.100947
0
VERTEX
8
1
10
28.076294
20
4.246803
42
-0.439661
0
VERTEX
8
1
10
27.898376
20
4.388562
42
-0.197295
0
VERTEX
8
1
10
27.956177
20
4.524216
42
-0.008503
0
VERTEX
8
1
10
28.363647
20
4.952324
42
-0.521095
0
VERTEX
8
1
10
28.515015
20
5.110681
0
VERTEX
8
1
10
28.526731
20
5.112738
42
-0.006290
0
VERTEX
8
1
10
28.904713
20
5.464350
42
-0.197477
0
VERTEX
8
1
10
29.045166
20
5.502686
42
0.001738
0
VERTEX
8
1
10
28.771362
20
5.773964
42
-0.089288
0
VERTEX
8
1
10
28.773434
20
5.567091
42
-0.819516
0
VERTEX
8
1
10
28.478853
20
5.579467
42
0.198496
0
VERTEX
8
1
10
28.313879
20
6.004130
42
0.291057
0
VERTEX
8
1
10
27.877808
20
6.086784
42
0.161288
0
VERTEX
8
1
10
27.448166
20
5.732201
42
0.255857
0
VERTEX
8
1
10
27.449793
20
5.409514
42
0.141726
0
VERTEX
8
1
10
27.708633
20
5.126154
42
0.093225
0
VERTEX
8
1
10
27.835938
20
5.087891
0
VERTEX
8
1
10
27.926880
20
5.090538
42
-0.733732
0
VERTEX
8
1
10
28.014286
20
4.823736
42
-0.194743
0
VERTEX
8
1
10
27.875881
20
4.781906
42
-0.150775
0
VERTEX
8
1
10
27.519274
20
4.893161
42
-0.169548
0
VERTEX
8
1
10
27.129436
20
5.387056
42
-0.246227
0
VERTEX
8
1
10
27.245251
20
5.983193
42
-0.146387
0
VERTEX
8
1
10
27.786371
20
6.382916
42
-0.168301
0
VERTEX
8
1
10
28.286377
20
6.371438
0
VERTEX
8
1
10
28.291382
20
6.372086
42
-0.038148
0
VERTEX
8
1
10
28.039551
20
6.702583
42
-0.045155
0
VERTEX
8
1
10
27.997559
20
6.675896
42
-0.005160
0
VERTEX
8
1
10
27.616701
20
6.517036
42
0.005038
0
VERTEX
8
1
10
27.112295
20
6.260122
42
0.029170
0
VERTEX
8
1
10
26.827990
20
6.075046
42
-0.134897
0
VERTEX
8
1
10
26.699463
20
6.041733
42
-0.364582
0
VERTEX
8
1
10
26.562323
20
6.208984
42
-0.115824
0
VERTEX
8
1
10
26.595825
20
6.402893
42
-0.050496
0
VERTEX
8
1
10
27.085938
20
7.351723
0
VERTEX
8
1
10
27.069336
20
7.357101
42
0.038820
0
VERTEX
8
1
10
26.339752
20
6.991376
0
VERTEX
8
1
10
26.294136
20
6.967505
0
VERTEX
8
1
10
26.247925
20
6.944809
42
-0.863779
0
VERTEX
8
1
10
26.078247
20
7.176994
42
-0.086195
0
VERTEX
8
1
10
26.213867
20
7.278244
42
-0.054903
0
VERTEX
8
1
10
27.272249
20
7.751106
42
-0.036939
0
VERTEX
8
1
10
27.406982
20
7.778481
42
-0.008202
0
VERTEX
8
1
10
27.043335
20
8.508842
0
VERTEX
8
1
10
27.034912
20
8.501442
42
0.053156
0
VERTEX
8
1
10
26.747454
20
8.266864
42
0.034254
0
VERTEX
8
1
10
26.342773
20
7.825539
42
-0.139311
0
VERTEX
8
1
10
26.395456
20
7.687872
42
-0.318650
0
VERTEX
8
1
10
26.292175
20
7.551499
42
-0.286574
0
VERTEX
8
1
10
26.145874
20
7.575478
0
VERTEX
8
1
10
26.142212
20
7.574287
42
-0.022679
0
VERTEX
8
1
10
25.997469
20
7.375747
42
-0.279936
0
VERTEX
8
1
10
25.830952
20
7.332599
42
-0.419885
0
VERTEX
8
1
10
25.751953
20
7.534515
42
-0.082508
0
VERTEX
8
1
10
25.808975
20
7.641956
42
-0.031774
0
VERTEX
8
1
10
25.971313
20
7.860443
0
VERTEX
8
1
10
25.982178
20
7.887688
42
-0.068878
0
VERTEX
8
1
10
25.826660
20
8.525597
0
VERTEX
8
1
10
25.775879
20
8.561638
42
-0.044996
0
VERTEX
8
1
10
25.448023
20
8.705447
42
-0.099433
0
VERTEX
8
1
10
25.335238
20
8.806934
42
-0.727860
0
VERTEX
8
1
10
25.512085
20
9.007455
0
VERTEX
8
1
10
25.529419
20
9.000938
42
0.025228
0
VERTEX
8
1
10
25.806152
20
8.871544
0
VERTEX
8
1
10
25.811646
20
8.875465
0
VERTEX
8
1
10
25.814886
20
8.898154
0
VERTEX
8
1
10
25.820232
20
8.920442
42
-0.890817
0
VERTEX
8
1
10
26.106323
20
8.884743
0
VERTEX
8
1
10
26.107422
20
8.867332
0
VERTEX
8
1
10
26.109619
20
8.781410
42
0.040377
0
VERTEX
8
1
10
26.621601
20
8.709455
42
0.045840
0
VERTEX
8
1
10
26.782959
20
8.723610
0
VERTEX
8
1
10
26.923706
20
8.762459
0
VERTEX
8
1
10
26.927122
20
8.762764
42
-0.003703
0
VERTEX
8
1
10
26.678467
20
9.318488
0
VERTEX
8
1
10
26.673828
20
9.319946
42
-0.419415
0
VERTEX
8
1
10
26.621105
20
9.266828
42
-0.014597
0
VERTEX
8
1
10
26.549438
20
9.251106
42
-0.333405
0
VERTEX
8
1
10
26.295410
20
9.272507
42
-0.216334
0
VERTEX
8
1
10
26.143320
20
9.604213
42
-0.212814
0
VERTEX
8
1
10
26.235107
20
9.781761
42
-0.023171
0
VERTEX
8
1
10
26.437378
20
9.925453
0
VERTEX
8
1
10
26.472046
20
9.952072
0
VERTEX
8
1
10
26.473145
20
9.980232
0
VERTEX
8
1
10
26.459229
20
10.021149
0
VERTEX
8
1
10
26.443604
20
10.075125
42
-0.016138
0
VERTEX
8
1
10
26.245239
20
11.000092
0
VERTEX
8
1
10
26.231567
20
11.057892
42
-0.017133
0
VERTEX
8
1
10
25.825130
20
11.002067
42
0.027392
0
VERTEX
8
1
10
25.178345
20
10.877876
0
VERTEX
8
1
10
25.091919
20
10.851891
0
VERTEX
8
1
10
25.013550
20
10.826149
0
VERTEX
8
1
10
24.945923
20
10.813782
0
VERTEX
8
1
10
24.888672
20
10.815567
42
-0.280317
0
VERTEX
8
1
10
24.744820
20
10.940856
42
-0.093505
0
VERTEX
8
1
10
24.706354
20
11.111308
42
-0.035226
0
VERTEX
8
1
10
24.696411
20
11.438698
0
VERTEX
8
1
10
24.734863
20
11.876526
0
VERTEX
8
1
10
24.800171
20
12.316872
0
VERTEX
8
1
10
24.887817
20
12.730942
0
VERTEX
8
1
10
24.995483
20
13.119202
0
VERTEX
8
1
10
25.120728
20
13.482094
0
VERTEX
8
1
10
25.261108
20
13.820061
0
VERTEX
8
1
10
25.414307
20
14.133575
0
VERTEX
8
1
10
25.577759
20
14.423073
0
VERTEX
8
1
10
25.749146
20
14.688995
0
VERTEX
8
1
10
25.925659
20
14.931816
0
VERTEX
8
1
10
26.105469
20
15.151970
42
-0.035378
0
VERTEX
8
1
10
26.589293
20
15.639582
42
-0.059675
0
VERTEX
8
1
10
27.281694
20
16.105282
42
-0.040138
0
VERTEX
8
1
10
27.467041
20
16.173233
0
VERTEX
8
1
10
27.527832
20
16.179871
0
VERTEX
8
1
10
27.576172
20
16.170059
0
VERTEX
8
1
10
27.608765
20
16.141174
42
-0.120509
0
VERTEX
8
1
10
27.621948
20
16.009903
42
0.078262
0
VERTEX
8
1
10
27.615356
20
15.586380
42
0.070822
0
VERTEX
8
1
10
27.881674
20
14.424802
42
0.036096
0
VERTEX
8
1
10
28.229807
20
13.665648
42
0.001994
0
VERTEX
8
1
10
28.512327
20
13.123453
42
0.044333
0
VERTEX
8
1
10
29.022949
20
12.239151
42
-0.149237
0
VERTEX
8
1
10
29.090820
20
12.048950
0
VERTEX
8
1
10
29.067993
20
11.912735
0
VERTEX
8
1
10
29.030518
20
11.792801
0
VERTEX
8
1
10
28.980957
20
11.692711
0
VERTEX
8
1
10
28.921143
20
11.610344
42
-0.124995
0
VERTEX
8
1
10
28.657196
20
11.432326
42
-0.050784
0
VERTEX
8
1
10
28.443604
20
11.369545
42
0.033666
0
VERTEX
8
1
10
28.140625
20
11.294937
0
VERTEX
8
1
10
28.106201
20
11.263954
42
0.095412
0
VERTEX
8
1
10
28.343018
20
10.788536
0
VERTEX
8
1
10
28.369751
20
10.759804
0
VERTEX
8
1
10
28.397339
20
10.734467
0
VERTEX
8
1
10
28.416992
20
10.744080
42
-0.300610
0
VERTEX
8
1
10
28.518677
20
10.768829
0
VERTEX
8
1
10
28.552490
20
10.760468
42
0.349717
0
VERTEX
8
1
10
28.666138
20
10.800400
42
-0.186302
0
VERTEX
8
1
10
28.764496
20
10.818965
42
0.037668
0
VERTEX
8
1
10
28.993896
20
10.783882
0
VERTEX
8
1
10
29.026855
20
10.789352
42
-0.253997
0
VERTEX
8
1
10
29.173706
20
10.770821
42
0.120684
0
VERTEX
8
1
10
29.309814
20
10.701500
42
-0.168886
0
VERTEX
8
1
10
29.445190
20
10.717430
42
-0.160648
0
VERTEX
8
1
10
29.572882
20
10.606451
42
0.220396
0
VERTEX
8
1
10
29.628906
20
10.587326
42
-0.251325
0
VERTEX
8
1
10
29.804932
20
10.426872
0
VERTEX
8
1
10
30.079712
20
10.454391
0
VERTEX
8
1
10
30.271240
20
10.618614
42
0.299978
0
VERTEX
8
1
10
30.437315
20
10.621535
42
-0.156271
0
VERTEX
8
1
10
30.560669
20
10.653160
0
VERTEX
8
1
10
30.612427
20
10.649910
42
0.250170
0
VERTEX
8
1
10
30.869095
20
10.724931
42
0.019814
0
VERTEX
8
1
10
30.970337
20
10.820038
42
-0.284466
0
VERTEX
8
1
10
31.061132
20
10.839140
42
0.278453
0
VERTEX
8
1
10
31.336304
20
10.967216
0
VERTEX
8
1
10
31.353516
20
10.988762
0
VERTEX
8
1
10
31.372803
20
11.006493
42
-0.231287
0
VERTEX
8
1
10
31.590210
20
11.031029
42
0.199228
0
VERTEX
8
1
10
31.801270
20
11.163338
42
-0.139802
0
VERTEX
8
1
10
32.002075
20
11.250809
0
VERTEX
8
1
10
32.139526
20
11.333237
0
VERTEX
8
1
10
32.358643
20
11.442848
42
0.130868
0
VERTEX
8
1
10
32.546715
20
11.543759
42
-0.141990
0
VERTEX
8
1
10
32.806030
20
11.635658
0
VERTEX
8
1
10
32.824951
20
11.639008
42
0.092016
0
VERTEX
8
1
10
33.045776
20
11.772354
42
0.000630
0
VERTEX
8
1
10
33.100323
20
15.981331
0
VERTEX
8
1
10
33.093872
20
16.058540
0
VERTEX
8
1
10
33.067383
20
16.066833
42
-0.203840
0
VERTEX
8
1
10
32.908569
20
16.249031
0
VERTEX
8
1
10
32.823975
20
16.333359
42
-0.196875
0
VERTEX
8
1
10
32.719631
20
16.546474
42
-0.210096
0
VERTEX
8
1
10
32.831543
20
16.920517
42
-0.014333
0
VERTEX
8
1
10
32.920776
20
17.000275
42
-0.099940
0
VERTEX
8
1
10
33.155640
20
17.073021
42
0.001406
0
VERTEX
8
1
10
33.271130
20
20.494682
0
VERTEX
8
1
10
33.265259
20
20.543114
42
-0.179245
0
VERTEX
8
1
10
33.154053
20
20.598831
42
-0.035836
0
VERTEX
8
1
10
33.036743
20
20.759666
42
-0.229574
0
VERTEX
8
1
10
32.909546
20
20.849663
42
-0.092385
0
VERTEX
8
1
10
32.812866
20
21.129936
0
VERTEX
8
1
10
32.795898
20
21.151566
0
VERTEX
8
1
10
32.781982
20
21.177589
42
-0.248386
0
VERTEX
8
1
10
32.832886
20
21.552139
0
VERTEX
8
1
10
32.856079
20
21.575859
0
VERTEX
8
1
10
32.866211
20
21.599121
0
VERTEX
8
1
10
32.862549
20
21.626808
0
VERTEX
8
1
10
32.862671
20
21.655579
42
-0.223461
0
VERTEX
8
1
10
33.067627
20
21.969070
42
-0.167016
0
VERTEX
8
1
10
33.270996
20
22.245056
42
0.001373
0
VERTEX
8
1
10
33.290283
20
22.739548
42
0.045052
0
VERTEX
8
1
10
32.923218
20
22.775368
42
-0.184347
0
VERTEX
8
1
10
32.620518
20
22.611498
0
VERTEX
8
1
10
32.607460
20
22.606670
0
VERTEX
8
1
10
32.595306
20
22.599880
42
-0.357071
0
VERTEX
8
1
10
32.321777
20
22.591942
42
-0.225450
0
VERTEX
8
1
10
32.144096
20
22.657839
42
-0.117330
0
VERTEX
8
1
10
32.064209
20
22.775391
42
-0.017923
0
VERTEX
8
1
10
31.489014
20
22.793900
0
VERTEX
8
1
10
31.448975
20
22.780670
42
-0.283507
0
VERTEX
8
1
10
31.129639
20
22.813255
42
-0.029531
0
VERTEX
8
1
10
30.574341
20
22.811554
42
-0.266691
0
VERTEX
8
1
10
30.509125
20
22.860205
42
-0.101135
0
VERTEX
8
1
10
30.470459
20
23.174011
42
0.005757
0
VERTEX
8
1
10
30.579712
20
24.759789
42
-0.348889
0
VERTEX
8
1
10
30.745239
20
25.010475
42
0.008033
0
VERTEX
8
1
10
32.566654
20
24.930647
0
VERTEX
8
1
10
32.695923
20
24.929794
42
0.058329
0
VERTEX
8
1
10
32.866943
20
24.943512
42
-0.140407
0
VERTEX
8
1
10
33.144653
20
24.882446
0
VERTEX
8
1
10
33.345581
20
24.900635
42
-0.021183
0
VERTEX
8
1
10
33.361450
20
25.333199
0
VERTEX
8
1
10
33.358643
20
25.359894
42
-0.212529
0
VERTEX
8
1
10
33.297314
20
25.414057
42
-0.097635
0
VERTEX
8
1
10
33.254761
20
25.537613
42
-0.149296
0
VERTEX
8
1
10
33.064617
20
25.618372
42
-0.142878
0
VERTEX
8
1
10
32.850220
20
25.907738
42
-0.184526
0
VERTEX
8
1
10
32.870850
20
26.110405
42
-0.201161
0
VERTEX
8
1
10
33.227417
20
26.429977
0
VERTEX
8
1
10
33.173096
20
26.469673
0
VERTEX
8
1
10
33.031128
20
26.542953
0
VERTEX
8
1
10
32.894409
20
26.637344
0
VERTEX
8
1
10
32.763794
20
26.750824
0
VERTEX
8
1
10
32.639771
20
26.881386
0
VERTEX
8
1
10
32.523315
20
27.027008
42
-0.141607
0
VERTEX
8
1
10
31.935791
20
28.683121
0
VERTEX
8
1
10
31.962158
20
29.041397
0
VERTEX
8
1
10
32.028076
20
29.377876
0
VERTEX
8
1
10
32.127197
20
29.685249
0
VERTEX
8
1
10
32.253906
20
29.964188
0
VERTEX
8
1
10
32.402344
20
30.215363
0
VERTEX
8
1
10
32.567017
20
30.439438
0
VERTEX
8
1
10
32.742065
20
30.637085
0
VERTEX
8
1
10
32.921875
20
30.808990
0
VERTEX
8
1
10
33.100708
20
30.955811
42
-0.047058
0
VERTEX
8
1
10
33.575317
20
31.252441
0
VERTEX
8
1
10
33.693604
20
31.305611
0
VERTEX
8
1
10
33.782593
20
31.337051
0
VERTEX
8
1
10
33.929932
20
31.353615
0
VERTEX
8
1
10
34.209961
20
31.367996
42
-0.039407
0
VERTEX
8
1
10
35.078857
20
31.341736
0
VERTEX
8
1
10
35.243652
20
31.317230
42
-0.103098
0
VERTEX
8
1
10
36.039307
20
31.011971
0
VERTEX
8
1
10
36.126709
20
30.956490
0
VERTEX
8
1
10
36.321167
20
30.804398
0
VERTEX
8
1
10
36.519165
20
30.614494
0
VERTEX
8
1
10
36.685913
20
30.417053
0
VERTEX
8
1
10
36.823975
20
30.214500
0
VERTEX
8
1
10
36.935913
20
30.009277
0
VERTEX
8
1
10
37.024414
20
29.803825
0
VERTEX
8
1
10
37.091553
20
29.600571
42
-0.120654
0
VERTEX
8
1
10
37.130020
20
28.132631
0
VERTEX
8
1
10
37.114429
20
28.071390
42
-0.085205
0
VERTEX
8
1
10
36.704006
20
27.226013
42
-0.062585
0
VERTEX
8
1
10
36.188599
20
26.658852
0
VERTEX
8
1
10
36.178589
20
26.637245
0
VERTEX
8
1
10
36.203125
20
26.629318
42
-0.130620
0
VERTEX
8
1
10
36.518589
20
26.357853
42
-0.258319
0
VERTEX
8
1
10
36.512062
20
26.214165
42
-0.153783
0
VERTEX
8
1
10
36.323120
20
26.007561
42
0.195260
0
VERTEX
8
1
10
36.263069
20
25.964418
42
-0.195830
0
VERTEX
8
1
10
36.015751
20
25.847235
42
-0.161466
0
VERTEX
8
1
10
35.840454
20
25.903692
0
VERTEX
8
1
10
35.815186
20
25.902664
42
-0.206515
0
VERTEX
8
1
10
35.615845
20
25.944405
0
VERTEX
8
1
10
35.579468
20
25.743423
0
VERTEX
8
1
10
35.580322
20
25.742607
0
VERTEX
8
1
10
35.780762
20
25.669586
0
VERTEX
8
1
10
36.127075
20
25.669586
42
-0.069823
0
VERTEX
8
1
10
36.345459
20
25.382568
42
-0.085474
0
VERTEX
8
1
10
36.439819
20
25.010536
42
-0.078232
0
VERTEX
8
1
10
36.732666
20
24.974014
42
0.043442
0
VERTEX
8
1
10
37.249512
20
25.006371
42
-0.166880
0
VERTEX
8
1
10
37.520142
20
24.992302
0
VERTEX
8
1
10
38.538330
20
24.992157
42
-0.187373
0
VERTEX
8
1
10
38.747433
20
24.917612
42
-0.121684
0
VERTEX
8
1
10
38.801880
20
24.827896
42
0.010558
0
VERTEX
8
1
10
38.808105
20
23.342970
0
VERTEX
8
1
10
38.813599
20
23.238785
0
VERTEX
8
1
10
38.820313
20
23.159904
42
-0.119599
0
VERTEX
8
1
10
38.831242
20
23.005558
0
VERTEX
8
1
10
38.826527
20
23.000137
0
VERTEX
8
1
10
38.820313
20
22.996534
0
VERTEX
8
1
10
38.801849
20
22.795065
42
-0.000599
0
VERTEX
8
1
10
36.722038
20
22.776878
0
VERTEX
8
1
10
36.664795
20
22.762154
0
VERTEX
8
1
10
36.613770
20
22.714111
0
VERTEX
8
1
10
36.565063
20
22.680878
42
-0.321162
0
VERTEX
8
1
10
36.328190
20
22.698681
42
-0.087022
0
VERTEX
8
1
10
36.236816
20
22.794777
0
VERTEX
8
1
10
35.984375
20
22.758125
0
VERTEX
8
1
10
35.956909
20
19.600418
42
0.035031
0
VERTEX
8
1
10
36.080421
20
19.447811
42
0.211548
0
VERTEX
8
1
10
36.131348
20
19.433846
42
-0.153726
0
VERTEX
8
1
10
36.253277
20
19.342768
42
-0.095317
0
VERTEX
8
1
10
36.452148
20
18.994682
42
-0.229797
0
VERTEX
8
1
10
36.522469
20
18.523489
42
-0.131497
0
VERTEX
8
1
10
36.357124
20
18.304121
42
-0.055722
0
VERTEX
8
1
10
35.986206
20
18.035233
42
0.000702
0
VERTEX
8
1
10
35.984444
20
14.753053
0
VERTEX
8
1
10
36.022461
20
14.731514
42
-0.229544
0
VERTEX
8
1
10
36.211304
20
14.560333
42
-0.012220
0
VERTEX
8
1
10
36.302246
20
14.327438
0
VERTEX
8
1
10
36.323608
20
14.297455
42
-0.259359
0
VERTEX
8
1
10
36.408699
20
14.224222
42
-0.109969
0
VERTEX
8
1
10
36.445904
20
14.031329
42
0.029936
0
VERTEX
8
1
10
36.475464
20
13.818657
0
VERTEX
8
1
10
36.493408
20
13.792229
42
-0.199901
0
VERTEX
8
1
10
36.542400
20
13.654892
42
-0.086230
0
VERTEX
8
1
10
36.509598
20
13.413102
42
0.100090
0
VERTEX
8
1
10
36.498798
20
13.257739
42
-0.055168
0
VERTEX
8
1
10
36.501831
20
13.100136
42
-0.085130
0
VERTEX
8
1
10
36.368324
20
12.887003
42
-0.030546
0
VERTEX
8
1
10
36.011963
20
12.486633
42
0.021539
0
VERTEX
8
1
10
35.953735
20
10.501853
0
VERTEX
8
1
10
35.993408
20
10.205994
0
VERTEX
8
1
10
36.117920
20
9.801270
0
VERTEX
8
1
10
36.254395
20
9.444679
0
VERTEX
8
1
10
36.400391
20
9.133400
0
VERTEX
8
1
10
36.552856
20
8.864639
0
VERTEX
8
1
10
36.709351
20
8.635582
0
VERTEX
8
1
10
36.867310
20
8.443413
0
VERTEX
8
1
10
37.023926
20
8.285339
0
VERTEX
8
1
10
37.176758
20
8.158546
0
VERTEX
8
1
10
37.323120
20
8.060219
0
VERTEX
8
1
10
37.459961
20
7.987556
0
VERTEX
8
1
10
37.585083
20
7.937759
0
VERTEX
8
1
10
37.695801
20
7.907997
0
VERTEX
8
1
10
37.789063
20
7.895477
0
VERTEX
8
1
10
37.862793
20
7.897392
0
VERTEX
8
1
10
37.873413
20
7.916008
42
-0.218752
0
VERTEX
8
1
10
37.887207
20
7.975243
42
-0.054094
0
VERTEX
8
1
10
38.024845
20
8.091127
42
0.120968
0
VERTEX
8
1
10
38.068970
20
8.155495
42
-0.283434
0
VERTEX
8
1
10
38.117058
20
8.249035
42
-0.079308
0
VERTEX
8
1
10
38.238152
20
8.307076
42
0.098492
0
VERTEX
8
1
10
38.313110
20
8.359230
42
-0.263035
0
VERTEX
8
1
10
38.407593
20
8.446098
0
VERTEX
8
1
10
38.432617
20
8.454048
42
0.062060
0
VERTEX
8
1
10
38.623169
20
8.515228
0
VERTEX
8
1
10
38.647095
20
8.530502
42
-0.249623
0
VERTEX
8
1
10
38.835785
20
8.558299
42
0.158927
0
VERTEX
8
1
10
38.995941
20
8.577505
42
-0.134491
0
VERTEX
8
1
10
39.127617
20
8.573342
42
0.027666
0
VERTEX
8
1
10
39.272705
20
8.559219
42
-0.053885
0
VERTEX
8
1
10
39.451725
20
8.571203
42
0.043065
0
VERTEX
8
1
10
39.637207
20
8.586723
42
0.008736
0
VERTEX
8
1
10
40.001587
20
8.534149
0
VERTEX
8
1
10
40.044556
20
8.540268
42
0.090629
0
VERTEX
8
1
10
40.255508
20
8.721207
42
0.049376
0
VERTEX
8
1
10
40.668701
20
9.275131
0
VERTEX
8
1
10
40.680664
20
9.300133
42
-0.254716
0
VERTEX
8
1
10
40.554199
20
9.418625
0
VERTEX
8
1
10
40.542969
20
9.445732
42
0.033172
0
VERTEX
8
1
10
40.436119
20
9.709888
42
-0.184925
0
VERTEX
8
1
10
40.444336
20
9.879700
42
-0.072168
0
VERTEX
8
1
10
40.594360
20
10.119247
42
-0.237287
0
VERTEX
8
1
10
40.680908
20
10.230759
42
-0.060861
0
VERTEX
8
1
10
40.931885
20
10.318726
0
VERTEX
8
1
10
40.957764
20
10.328064
0
VERTEX
8
1
10
40.988037
20
10.334671
42
-0.073781
0
SEQEND
0
POLYLINE
8
1
66
1
70
1
0
VERTEX
8
1
10
26.157227
20
8.331680
42
0.025161
0
VERTEX
8
1
10
26.205933
20
8.142311
42
-0.019596
0
VERTEX
8
1
10
26.464966
20
8.415259
0
VERTEX
8
1
10
26.470581
20
8.429337
42
-0.032980
0
VERTEX
8
1
10
26.142212
20
8.467041
0
VERTEX
8
1
10
26.136230
20
8.452347
42
0.016155
0
SEQEND
0
POLYLINE
8
1
66
1
70
1
0
VERTEX
8
1
10
37.851196
20
2.922302
42
-0.032033
0
VERTEX
8
1
10
37.806641
20
2.587311
0
VERTEX
8
1
10
37.821411
20
2.580803
42
0.037739
0
VERTEX
8
1
10
38.115356
20
2.639412
0
VERTEX
8
1
10
38.124268
20
2.650513
42
-0.019484
0
SEQEND
0
POLYLINE
8
1
66
1
70
1
0
VERTEX
8
1
10
41.071777
20
4.603622
42
-0.018649
0
VERTEX
8
1
10
40.751465
20
4.756287
0
VERTEX
8
1
10
40.747314
20
4.744202
42
-0.030291
0
VERTEX
8
1
10
40.810181
20
4.439690
0
VERTEX
8
1
10
40.820068
20
4.426331
42
0.040792
0
VERTEX
8
1
10
41.098389
20
4.592140
0
SEQEND
0
POLYLINE
8
1
66
1
70
1
0
VERTEX
8
1
10
41.287842
20
8.831528
42
0.896274
0
VERTEX
8
1
10
41.218384
20
8.787651
42
0.041164
0
VERTEX
8
1
10
41.474377
20
8.536731
42
0.075804
0
VERTEX
8
1
10
41.583702
20
8.476220
42
0.459725
0
VERTEX
8
1
10
41.650764
20
8.531304
42
0.145574
0
VERTEX
8
1
10
41.640503
20
8.605865
42
0.004679
0
VERTEX
8
1
10
41.464233
20
9.233642
42
0.038968
0
VERTEX
8
1
10
41.386978
20
9.433258
42
0.113485
0
VERTEX
8
1
10
41.320084
20
9.511337
42
0.427504
0
VERTEX
8
1
10
41.233269
20
9.475412
42
0.616022
0
VERTEX
8
1
10
41.291260
20
9.428788
0
VERTEX
8
1
10
41.302734
20
9.415970
0
VERTEX
8
1
10
41.319336
20
9.385757
42
-0.040138
0
VERTEX
8
1
10
41.458172
20
8.956084
42
0.001538
0
VERTEX
8
1
10
41.563114
20
8.576618
0
VERTEX
8
1
10
41.550049
20
8.583824
42
-0.041001
0
SEQEND
0
POLYLINE
8
1
66
1
70
1
0
VERTEX
8
1
10
42.698242
20
8.374779
42
0.931246
0
VERTEX
8
1
10
42.777222
20
8.352097
0
VERTEX
8
1
10
42.781738
20
8.374565
42
0.110064
0
VERTEX
8
1
10
42.740601
20
8.529976
42
0.055876
0
VERTEX
8
1
10
42.471092
20
8.929678
42
0.780216
0
VERTEX
8
1
10
42.407959
20
8.880989
42
-0.047443
0
VERTEX
8
1
10
42.675434
20
8.479759
42
-0.074026
0
VERTEX
8
1
10
42.700562
20
8.387260
0
SEQEND
0
POLYLINE
8
1
66
1
70
1
0
VERTEX
8
1
10
42.395996
20
8.373306
42
-0.097810
0
VERTEX
8
1
10
42.414795
20
8.316208
42
-0.097548
0
VERTEX
8
1
10
42.308464
20
8.351433
42
0.775263
0
VERTEX
8
1
10
42.271973
20
8.280358
42
0.137279
0
VERTEX
8
1
10
42.428520
20
8.232723
42
0.440940
0
VERTEX
8
1
10
42.495449
20
8.325561
42
0.107790
0
VERTEX
8
1
10
42.473511
20
8.402603
42
0.027395
0
VERTEX
8
1
10
42.088142
20
9.056815
42
0.783604
0
VERTEX
8
1
10
42.022827
20
9.010315
42
-0.022684
0
SEQEND
0
POLYLINE
8
1
66
1
70
1
0
VERTEX
8
1
10
41.984741
20
8.410339
42
-0.192720
0
VERTEX
8
1
10
41.989136
20
8.372795
0
VERTEX
8
1
10
41.980469
20
8.373886
42
-0.086405
0
VERTEX
8
1
10
41.820339
20
8.459419
42
0.739292
0
VERTEX
8
1
10
41.770386
20
8.398627
42
0.107542
0
VERTEX
8
1
10
41.961670
20
8.294296
42
0.627051
0
VERTEX
8
1
10
42.070801
20
8.401741
42
0.047113
0
VERTEX
8
1
10
41.778908
20
9.194565
42
0.052348
0
VERTEX
8
1
10
41.682095
20
9.339880
42
0.150617
0
VERTEX
8
1
10
41.606289
20
9.379706
42
0.968838
0
VERTEX
8
1
10
41.602783
20
9.295731
0
VERTEX
8
1
10
41.625488
20
9.280869
0
VERTEX
8
1
10
41.655762
20
9.242241
0
VERTEX
8
1
10
41.690430
20
9.183563
42
-0.046228
0
SEQEND
0
POLYLINE
8
1
66
1
70
1
0
VERTEX
8
1
10
42.684448
20
8.859001
42
0.586641
0
VERTEX
8
1
10
42.756229
20
8.858610
42
0.022965
0
VERTEX
8
1
10
42.889721
20
9.281266
42
0.756146
0
VERTEX
8
1
10
42.813599
20
9.303696
42
-0.010456
0
VERTEX
8
1
10
42.679260
20
8.883101
42
0.146305
0
SEQEND
0
POLYLINE
8
1
66
1
70
1
0
VERTEX
8
1
10
42.736206
20
10.247803
42
0.451300
0
VERTEX
8
1
10
42.720581
20
10.307410
42
0.012288
0
VERTEX
8
1
10
41.712425
20
10.531655
42
0.805310
0
VERTEX
8
1
10
41.696899
20
10.452642
42
-0.005447
0
VERTEX
8
1
10
42.700329
20
10.229532
42
0.261466
0
SEQEND
0
POLYLINE
8
1
66
1
70
1
0
VERTEX
8
1
10
41.697144
20
10.313934
0
VERTEX
8
1
10
41.662231
20
10.342018
42
0.399612
0
VERTEX
8
1
10
41.605835
20
10.330437
42
-0.004204
0
VERTEX
8
1
10
41.416443
20
9.876698
42
0.902554
0
VERTEX
8
1
10
41.494385
20
9.851143
0
VERTEX
8
1
10
41.657227
20
10.241226
42
0.061702
0
VERTEX
8
1
10
41.896477
20
10.142178
42
0.034727
0
VERTEX
8
1
10
42.393555
20
10.024269
0
VERTEX
8
1
10
42.430054
20
10.015396
42
-0.030654
0
VERTEX
8
1
10
42.170166
20
9.191673
0
VERTEX
8
1
10
42.152466
20
9.153519
42
0.859272
0
VERTEX
8
1
10
42.219238
20
9.106858
42
0.043193
0
VERTEX
8
1
10
42.270142
20
9.218330
42
0.024833
0
VERTEX
8
1
10
42.523384
20
10.047636
42
0.301439
0
VERTEX
8
1
10
42.500244
20
10.087989
42
-0.019599
0
VERTEX
8
1
10
41.991013
20
10.197966
42
-0.030843
0
VERTEX
8
1
10
41.741455
20
10.288406
0
SEQEND
0
POLYLINE
8
1
66
1
70
1
0
VERTEX
8
1
10
41.131592
20
10.074364
42
0.234734
0
VERTEX
8
1
10
41.109447
20
10.106749
42
0.308783
0
VERTEX
8
1
10
40.773182
20
10.157853
42
0.998206
0
VERTEX
8
1
10
40.823112
20
10.091199
42
-0.284352
0
VERTEX
8
1
10
41.071644
20
10.032719
42
0.606033
0
SEQEND
0
POLYLINE
8
1
66
1
70
1
0
VERTEX
8
1
10
40.622192
20
8.468567
42
0.871105
0
VERTEX
8
1
10
40.671021
20
8.403481
42
0.074935
0
VERTEX
8
1
10
41.017944
20
8.861092
42
0.240636
0
VERTEX
8
1
10
41.015503
20
8.902031
42
0.120457
0
VERTEX
8
1
10
41.086395
20
8.894880
42
0.338356
0
VERTEX
8
1
10
41.113281
20
8.940269
42
-0.051851
0
VERTEX
8
1
10
41.076038
20
9.565288
42
0.747414
0
VERTEX
8
1
10
40.996948
20
9.570648
42
0.047645
0
VERTEX
8
1
10
41.017090
20
9.010230
0
VERTEX
8
1
10
41.001465
20
9.002953
42
-0.137618
0
VERTEX
8
1
10
40.887913
20
9.194237
42
-0.065716
0
VERTEX
8
1
10
40.803833
20
9.597000
42
-0.035438
0
VERTEX
8
1
10
40.868896
20
9.861374
0
VERTEX
8
1
10
40.876465
20
9.872215
0
VERTEX
8
1
10
40.885742
20
9.872849
0
VERTEX
8
1
10
40.898560
20
9.871117
42
-0.081836
0
VERTEX
8
1
10
41.097309
20
9.773426
42
0.706442
0
VERTEX
8
1
10
41.142944
20
9.835991
42
0.108033
0
VERTEX
8
1
10
40.909546
20
9.952454
42
0.293395
0
VERTEX
8
1
10
40.809109
20
9.923339
0
VERTEX
8
1
10
40.801392
20
9.912041
42
0.050379
0
VERTEX
8
1
10
40.720337
20
9.599014
42
0.085887
0
VERTEX
8
1
10
40.838257
20
9.091171
42
0.131309
0
VERTEX
8
1
10
40.970703
20
8.922691
0
VERTEX
8
1
10
40.972046
20
8.919312
42
0.220570
0
VERTEX
8
1
10
40.943848
20
8.897621
42
-0.061512
0
VERTEX
8
1
10
40.668777
20
8.517903
0
SEQEND
0
POLYLINE
8
1
66
1
70
1
0
VERTEX
8
1
10
41.275024
20
7.667580
42
-0.069120
0
VERTEX
8
1
10
41.285645
20
7.644623
42
-0.135360
0
VERTEX
8
1
10
41.256470
20
7.637895
42
-0.070418
0
VERTEX
8
1
10
40.962723
20
7.693313
42
0.807450
0
VERTEX
8
1
10
40.945190
20
7.615036
42
0.098039
0
VERTEX
8
1
10
41.288895
20
7.558453
0
VERTEX
8
1
10
41.303558
20
7.562385
0
VERTEX
8
1
10
41.317619
20
7.568123
42
0.449844
0
VERTEX
8
1
10
41.356628
20
7.692274
42
0.031760
0
VERTEX
8
1
10
41.272652
20
7.809691
42
0.049930
0
VERTEX
8
1
10
40.793701
20
8.303360
42
0.107600
0
VERTEX
8
1
10
40.709496
20
8.352435
42
0.897192
0
VERTEX
8
1
10
40.695557
20
8.271507
0
VERTEX
8
1
10
40.711670
20
8.263161
0
VERTEX
8
1
10
40.744873
20
8.238937
42
-0.050166
0
VERTEX
8
1
10
41.241455
20
7.717987
0
SEQEND
0
POLYLINE
8
1
66
1
70
1
0
VERTEX
8
1
10
39.845459
20
8.000351
42
0.802180
0
VERTEX
8
1
10
39.795288
20
7.937249
42
0.077729
0
VERTEX
8
1
10
39.996826
20
7.831131
0
VERTEX
8
1
10
40.027710
20
7.824371
0
VERTEX
8
1
10
40.055908
20
7.822823
42
0.464769
0
VERTEX
8
1
10
40.125122
20
7.908379
0
VERTEX
8
1
10
40.119507
20
7.940506
0
VERTEX
8
1
10
40.106323
20
7.991135
42
0.033198
0
VERTEX
8
1
10
39.951954
20
8.372383
42
0.800957
0
VERTEX
8
1
10
39.878540
20
8.340218
42
-0.023569
0
VERTEX
8
1
10
40.027832
20
7.966324
0
VERTEX
8
1
10
40.039551
20
7.920357
0
VERTEX
8
1
10
40.035767
20
7.905586
42
-0.077298
0
SEQEND
0
POLYLINE
8
1
66
1
70
1
0
VERTEX
8
1
10
38.980957
20
8.455818
42
0.341011
0
VERTEX
8
1
10
38.964355
20
8.407806
42
-0.043362
0
VERTEX
8
1
10
39.129128
20
8.088865
42
-0.134877
0
VERTEX
8
1
10
39.141430
20
7.968600
0
VERTEX
8
1
10
39.136650
20
7.963812
0
VERTEX
8
1
10
39.130493
20
7.961013
42
-0.128633
0
VERTEX
8
1
10
39.036034
20
8.002163
42
0.975385
0
VERTEX
8
1
10
39.005634
20
7.924883
42
0.188396
0
VERTEX
8
1
10
39.147068
20
7.880101
42
0.400270
0
VERTEX
8
1
10
39.227039
20
7.999340
42
0.112013
0
VERTEX
8
1
10
39.177711
20
8.183481
42
0.042668
0
VERTEX
8
1
10
39.033554
20
8.450078
42
0.344960
0
SEQEND
0
POLYLINE
8
1
66
1
70
1
0
VERTEX
8
1
10
38.464111
20
8.316536
42
-0.041165
0
VERTEX
8
1
10
38.790504
20
7.972918
42
-0.302360
0
VERTEX
8
1
10
38.785156
20
7.946122
42
-0.128272
0
VERTEX
8
1
10
38.645020
20
7.893410
42
0.826669
0
VERTEX
8
1
10
38.650635
20
7.812776
42
0.157443
0
VERTEX
8
1
10
38.851032
20
7.895456
42
0.370262
0
VERTEX
8
1
10
38.849609
20
8.030289
42
0.044732
0
VERTEX
8
1
10
38.506626
20
8.386223
42
0.858620
0
SEQEND
0
POLYLINE
8
1
66
1
70
1
0
VERTEX
8
1
10
38.065308
20
7.869789
42
0.557667
0
VERTEX
8
1
10
38.067017
20
7.799715
42
0.037793
0
VERTEX
8
1
10
38.418240
20
7.706205
42
0.066255
0
VERTEX
8
1
10
38.520485
20
7.706495
42
0.582658
0
VERTEX
8
1
10
38.542236
20
7.804648
42
0.037188
0
VERTEX
8
1
10
38.196167
20
8.129112
42
0.751687
0
VERTEX
8
1
10
38.144897
20
8.069283
42
-0.019811
0
VERTEX
8
1
10
38.442749
20
7.792435
0
VERTEX
8
1
10
38.429932
20
7.788879
42
-0.025783
0
VERTEX
8
1
10
38.089497
20
7.876512
42
0.156060
0
SEQEND
0
POLYLINE
8
1
66
1
70
1
0
VERTEX
8
1
10
35.572266
20
12.220828
42
-0.005752
0
VERTEX
8
1
10
35.564529
20
13.978661
42
0.797283
0
VERTEX
8
1
10
35.484375
20
13.978752
0
VERTEX
8
1
10
35.481667
20
13.696498
42
0.013288
0
VERTEX
8
1
10
35.522911
20
11.174668
42
0.015482
0
VERTEX
8
1
10
35.580257
20
10.318254
42
0.018289
0
VERTEX
8
1
10
35.640381
20
9.923005
0
VERTEX
8
1
10
35.673706
20
9.795319
42
0.104827
0
VERTEX
8
1
10
36.589928
20
8.168595
42
0.048512
0
VERTEX
8
1
10
37.047241
20
7.748184
0
VERTEX
8
1
10
37.215454
20
7.635086
0
VERTEX
8
1
10
37.391357
20
7.538925
0
VERTEX
8
1
10
37.574585
20
7.461830
0
VERTEX
8
1
10
37.764771
20
7.405891
0
VERTEX
8
1
10
37.961792
20
7.373253
0
VERTEX
8
1
10
38.165283
20
7.366035
42
0.055966
0
VERTEX
8
1
10
38.938835
20
7.468270
0
VERTEX
8
1
10
39.009377
20
7.488326
42
0.072031
0
VERTEX
8
1
10
39.521366
20
7.715481
42
0.039574
0
VERTEX
8
1
10
39.622128
20
7.790924
42
0.469898
0
VERTEX
8
1
10
39.606812
20
7.854218
42
0.573153
0
VERTEX
8
1
10
39.689331
20
7.953255
42
0.027164
0
VERTEX
8
1
10
39.493813
20
8.447058
42
0.739929
0
VERTEX
8
1
10
39.420044
20
8.417336
42
-0.009249
0
VERTEX
8
1
10
39.600624
20
7.966177
0
VERTEX
8
1
10
39.608032
20
7.939774
42
-0.948590
0
VERTEX
8
1
10
39.602783
20
7.936759
42
-0.082270
0
VERTEX
8
1
10
39.418152
20
8.021310
42
0.720584
0
VERTEX
8
1
10
39.373291
20
7.957137
42
0.097534
0
VERTEX
8
1
10
39.581055
20
7.857269
0
VERTEX
8
1
10
39.576660
20
7.856125
0
VERTEX
8
1
10
39.572388
20
7.854485
42
-0.082340
0
VERTEX
8
1
10
39.157391
20
7.627865
42
-0.082892
0
VERTEX
8
1
10
38.267090
20
7.455101
0
VERTEX
8
1
10
38.056641
20
7.448761
42
-0.133631
0
VERTEX
8
1
10
37.239838
20
7.716913
42
-0.085511
0
VERTEX
8
1
10
36.560917
20
8.328891
42
-0.092619
0
VERTEX
8
1
10
35.756592
20
9.807335
0
VERTEX
8
1
10
35.738159
20
9.871704
42
-0.041868
0
VERTEX
8
1
10
35.644775
20
10.518089
42
-0.014947
0
SEQEND
0
POLYLINE
8
1
66
1
70
1
0
VERTEX
8
1
10
35.048706
20
15.482819
42
-0.110354
0
VERTEX
8
1
10
35.062988
20
15.569168
42
-0.222277
0
VERTEX
8
1
10
35.149990
20
15.553028
42
-0.087535
0
VERTEX
8
1
10
35.302380
20
15.435154
42
0.777636
0
VERTEX
8
1
10
35.357910
20
15.492684
42
0.124429
0
VERTEX
8
1
10
35.131332
20
15.650990
42
0.258491
0
VERTEX
8
1
10
34.996765
20
15.623589
0
VERTEX
8
1
10
34.994141
20
15.619812
0
VERTEX
8
1
10
34.978760
20
15.580162
0
VERTEX
8
1
10
34.968994
20
15.516808
0
VERTEX
8
1
10
34.968140
20
15.440079
42
0.096252
0
VERTEX
8
1
10
35.127319
20
14.827385
42
0.102919
0
VERTEX
8
1
10
35.192749
20
14.739113
42
0.771814
0
VERTEX
8
1
10
35.248291
20
14.796410
42
-0.105195
0
VERTEX
8
1
10
35.170750
20
14.929052
42
-0.087038
0
SEQEND
0
POLYLINE
8
1
66
1
70
1
0
VERTEX
8
1
10
34.700928
20
15.671913
42
-0.117048
0
VERTEX
8
1
10
34.707642
20
15.801430
0
VERTEX
8
1
10
34.729248
20
15.807304
42
-0.258166
0
VERTEX
8
1
10
34.871666
20
15.735537
42
1.013923
0
VERTEX
8
1
10
34.930443
20
15.791324
42
0.332762
0
VERTEX
8
1
10
34.671535
20
15.878488
0
VERTEX
8
1
10
34.661968
20
15.873236
42
0.211161
0
VERTEX
8
1
10
34.615967
20
15.751442
42
0.136234
0
VERTEX
8
1
10
34.764610
20
15.225629
42
0.098794
0
VERTEX
8
1
10
34.870743
20
15.120434
42
0.757554
0
VERTEX
8
1
10
34.914795
20
15.186105
42
-0.122531
0
VERTEX
8
1
10
34.804058
20
15.324321
42
-0.094502
0
SEQEND
0
POLYLINE
8
1
66
1
70
1
0
VERTEX
8
1
10
34.290649
20
16.001930
42
-0.140117
0
VERTEX
8
1
10
34.298218
20
16.034981
0
VERTEX
8
1
10
34.323853
20
16.038712
0
VERTEX
8
1
10
34.357422
20
16.038879
42
-0.291997
0
VERTEX
8
1
10
34.482437
20
15.959202
42
0.911246
0
VERTEX
8
1
10
34.553059
20
16.001532
42
0.208787
0
VERTEX
8
1
10
34.451088
20
16.098476
42
0.190402
0
VERTEX
8
1
10
34.257481
20
16.109503
42
0.256309
0
VERTEX
8
1
10
34.213623
20
16.038834
0
VERTEX
8
1
10
34.209961
20
16.004021
0
VERTEX
8
1
10
34.212646
20
15.948242
42
0.121405
0
VERTEX
8
1
10
34.469238
20
15.350723
42
0.813170
0
VERTEX
8
1
10
34.537598
20
15.393876
42
-0.118926
0
VERTEX
8
1
10
34.294189
20
15.951172
0
VERTEX
8
1
10
34.290527
20
15.991699
0
SEQEND
0
POLYLINE
8
1
66
1
70
1
0
VERTEX
8
1
10
30.852539
20
8.168747
42
-0.028319
0
VERTEX
8
1
10
30.807251
20
8.276917
0
VERTEX
8
1
10
30.931885
20
8.686516
42
0.983984
0
VERTEX
8
1
10
30.851807
20
8.706406
0
VERTEX
8
1
10
30.725342
20
8.290688
42
0.114434
0
VERTEX
8
1
10
30.722534
20
8.272354
42
0.073788
0
VERTEX
8
1
10
30.835571
20
8.033875
42
0.134979
0
VERTEX
8
1
10
30.912661
20
7.963097
42
0.328055
0
VERTEX
8
1
10
31.011475
20
7.988243
0
VERTEX
8
1
10
31.033081
20
8.016098
0
VERTEX
8
1
10
31.058594
20
8.057465
42
0.076235
0
VERTEX
8
1
10
31.152861
20
8.348772
42
0.860232
0
VERTEX
8
1
10
31.071655
20
8.358978
42
-0.080159
0
VERTEX
8
1
10
30.977173
20
8.080551
0
VERTEX
8
1
10
30.953369
20
8.046982
42
-0.546147
0
VERTEX
8
1
10
30.936523
20
8.042587
42
-0.099632
0
SEQEND
0
POLYLINE
8
1
66
1
70
1
0
VERTEX
8
1
10
31.299194
20
7.703667
42
0.016509
0
VERTEX
8
1
10
31.390614
20
8.052578
42
0.800502
0
VERTEX
8
1
10
31.313354
20
8.074738
42
-0.015902
0
VERTEX
8
1
10
31.199829
20
7.663330
42
-0.065921
0
VERTEX
8
1
10
31.108742
20
7.877036
42
0.745361
0
VERTEX
8
1
10
31.033571
20
7.852783
42
0.063105
0
VERTEX
8
1
10
31.116545
20
7.639637
42
0.132270
0
VERTEX
8
1
10
31.184000
20
7.572535
42
0.405351
0
VERTEX
8
1
10
31.266602
20
7.610741
42
0.066285
0
SEQEND
0
POLYLINE
8
1
66
1
70
1
0
VERTEX
8
1
10
31.326660
20
7.583214
42
0.368156
0
VERTEX
8
1
10
31.290039
20
7.544441
42
0.082602
0
VERTEX
8
1
10
31.393799
20
7.287216
0
VERTEX
8
1
10
31.414673
20
7.261551
0
VERTEX
8
1
10
31.437012
20
7.242729
42
0.454369
0
VERTEX
8
1
10
31.541992
20
7.269928
42
0.077018
0
VERTEX
8
1
10
31.611465
20
7.470284
42
0.027346
0
VERTEX
8
1
10
31.683594
20
7.853233
42
0.180270
0
VERTEX
8
1
10
31.577271
20
8.025307
0
VERTEX
8
1
10
31.550903
20
8.037643
42
1.179100
0
VERTEX
8
1
10
31.528809
20
7.957984
0
VERTEX
8
1
10
31.539307
20
7.951836
42
-0.126819
0
VERTEX
8
1
10
31.599854
20
7.851799
42
-0.048819
0
VERTEX
8
1
10
31.494019
20
7.361137
0
VERTEX
8
1
10
31.477539
20
7.322601
0
VERTEX
8
1
10
31.474487
20
7.317848
0
VERTEX
8
1
10
31.470581
20
7.321381
0
VERTEX
8
1
10
31.461304
20
7.333618
42
-0.058404
0
VERTEX
8
1
10
31.364902
20
7.565946
42
0.274876
0
SEQEND
0
POLYLINE
8
1
66
1
70
1
0
VERTEX
8
1
10
31.683472
20
7.198997
42
0.870739
0
VERTEX
8
1
10
31.601807
20
7.201172
42
0.072381
0
VERTEX
8
1
10
31.661133
20
6.891823
42
0.139643
0
VERTEX
8
1
10
31.720049
20
6.804446
42
0.345466
0
VERTEX
8
1
10
31.826904
20
6.809433
0
VERTEX
8
1
10
31.849487
20
6.830940
0
VERTEX
8
1
10
31.881836
20
6.885254
42
0.082741
0
VERTEX
8
1
10
31.932316
20
7.119183
42
0.045896
0
VERTEX
8
1
10
31.937504
20
7.592848
0
VERTEX
8
1
10
31.935755
20
7.597000
0
VERTEX
8
1
10
31.933594
20
7.600952
0
VERTEX
8
1
10
31.840942
20
7.730812
42
1.008567
0
VERTEX
8
1
10
31.773926
20
7.682961
0
VERTEX
8
1
10
31.858276
20
7.564919
42
-0.056856
0
VERTEX
8
1
10
31.829254
20
6.981882
42
-0.116879
0
VERTEX
8
1
10
31.779289
20
6.876475
42
-0.436973
0
VERTEX
8
1
10
31.762085
20
6.876246
42
-0.117807
0
VERTEX
8
1
10
31.747437
20
6.898239
42
-0.078259
0
SEQEND
0
POLYLINE
8
1
66
1
70
1
0
VERTEX
8
1
10
31.993042
20
6.730614
42
0.818976
0
VERTEX
8
1
10
31.912962
20
6.722847
42
0.092155
0
VERTEX
8
1
10
32.011967
20
6.433433
0
VERTEX
8
1
10
32.021099
20
6.422257
0
VERTEX
8
1
10
32.031731
20
6.412495
42
0.446969
0
VERTEX
8
1
10
32.135410
20
6.422900
0
VERTEX
8
1
10
32.142754
20
6.432739
42
0.069368
0
VERTEX
8
1
10
32.198120
20
6.631058
42
0.029098
0
VERTEX
8
1
10
32.251343
20
7.250893
42
0.135302
0
VERTEX
8
1
10
32.166016
20
7.421944
42
0.207995
0
VERTEX
8
1
10
32.093834
20
7.454945
42
0.879499
0
VERTEX
8
1
10
32.097778
20
7.371276
42
-0.165905
0
VERTEX
8
1
10
32.168457
20
7.238342
42
-0.039924
0
VERTEX
8
1
10
32.102661
20
6.570320
42
-0.083966
0
VERTEX
8
1
10
32.074829
20
6.487053
42
-0.066669
0
SEQEND
0
POLYLINE
8
1
66
1
70
1
0
VERTEX
8
1
10
32.541748
20
6.021736
42
0.569680
0
VERTEX
8
1
10
32.480225
20
5.986900
42
0.095372
0
VERTEX
8
1
10
32.559814
20
5.767387
0
VERTEX
8
1
10
32.576538
20
5.747856
42
0.527126
0
VERTEX
8
1
10
32.692749
20
5.764039
0
VERTEX
8
1
10
32.701294
20
5.777802
0
VERTEX
8
1
10
32.716553
20
5.812271
0
VERTEX
8
1
10
32.737305
20
5.879433
42
0.061896
0
VERTEX
8
1
10
32.808838
20
6.497765
0
VERTEX
8
1
10
32.802368
20
6.587273
0
VERTEX
8
1
10
32.787598
20
6.658768
0
VERTEX
8
1
10
32.772705
20
6.694130
42
0.266007
0
VERTEX
8
1
10
32.700558
20
6.742224
42
0.837902
0
VERTEX
8
1
10
32.695190
20
6.660406
0
VERTEX
8
1
10
32.698853
20
6.657402
42
-0.108157
0
VERTEX
8
1
10
32.724243
20
6.545143
42
-0.074395
0
VERTEX
8
1
10
32.646240
20
5.860397
42
-0.050447
0
VERTEX
8
1
10
32.627197
20
5.814606
42
-0.094997
0
VERTEX
8
1
10
32.562508
20
5.997121
42
0.160643
0
SEQEND
0
POLYLINE
8
1
66
1
70
1
0
VERTEX
8
1
10
32.779541
20
5.661018
42
0.411951
0
VERTEX
8
1
10
32.736572
20
5.621544
42
0.103881
0
VERTEX
8
1
10
32.827271
20
5.415970
0
VERTEX
8
1
10
32.845337
20
5.397537
42
0.521341
0
VERTEX
8
1
10
32.970703
20
5.421341
42
0.086839
0
VERTEX
8
1
10
33.008949
20
5.520529
42
0.079597
0
VERTEX
8
1
10
33.094482
20
6.157074
42
0.088025
0
VERTEX
8
1
10
33.055676
20
6.342592
42
0.149670
0
VERTEX
8
1
10
32.976395
20
6.428161
42
1.018281
0
VERTEX
8
1
10
32.948853
20
6.348160
0
VERTEX
8
1
10
32.961792
20
6.337135
42
-0.145706
0
VERTEX
8
1
10
33.010132
20
6.175964
42
-0.087756
0
VERTEX
8
1
10
32.919933
20
5.501400
0
VERTEX
8
1
10
32.910061
20
5.480560
0
VERTEX
8
1
10
32.898193
20
5.460785
0
VERTEX
8
1
10
32.895508
20
5.462502
42
-0.098543
0
VERTEX
8
1
10
32.815918
20
5.635620
42
0.282715
0
SEQEND
0
POLYLINE
8
1
66
1
70
1
0
VERTEX
8
1
10
33.064697
20
5.299316
42
0.778797
0
VERTEX
8
1
10
32.994141
20
5.262169
42
0.094819
0
VERTEX
8
1
10
33.129395
20
5.035164
0
VERTEX
8
1
10
33.150757
20
5.018341
42
0.473810
0
VERTEX
8
1
10
33.261475
20
5.045647
42
0.069408
0
VERTEX
8
1
10
33.401855
20
5.668091
42
0.099672
0
VERTEX
8
1
10
33.370239
20
5.918694
0
VERTEX
8
1
10
33.334839
20
5.979774
0
VERTEX
8
1
10
33.316650
20
5.999458
42
1.022605
0
VERTEX
8
1
10
33.266113
20
5.933594
0
VERTEX
8
1
10
33.276367
20
5.920631
42
-0.141540
0
VERTEX
8
1
10
33.320190
20
5.704948
42
-0.071569
0
VERTEX
8
1
10
33.192539
20
5.092483
0
VERTEX
8
1
10
33.189941
20
5.090529
0
VERTEX
8
1
10
33.181763
20
5.097923
42
-0.076861
0
SEQEND
0
POLYLINE
8
1
66
1
70
1
0
VERTEX
8
1
10
33.384644
20
4.844872
42
0.855466
0
VERTEX
8
1
10
33.304077
20
4.832321
42
0.089877
0
VERTEX
8
1
10
33.409302
20
4.564682
0
VERTEX
8
1
10
33.427368
20
4.543877
42
0.510639
0
VERTEX
8
1
10
33.544197
20
4.550263
42
0.091352
0
VERTEX
8
1
10
33.567139
20
4.598686
42
0.080727
0
VERTEX
8
1
10
33.659424
20
5.341377
0
VERTEX
8
1
10
33.650024
20
5.428825
0
VERTEX
8
1
10
33.632813
20
5.502609
0
VERTEX
8
1
10
33.606934
20
5.559006
0
VERTEX
8
1
10
33.593628
20
5.576187
42
0.998802
0
VERTEX
8
1
10
33.536713
20
5.517797
42
-0.128501
0
VERTEX
8
1
10
33.570881
20
5.398909
42
-0.055168
0
VERTEX
8
1
10
33.574951
20
5.118797
42
-0.063870
0
VERTEX
8
1
10
33.488159
20
4.622116
0
VERTEX
8
1
10
33.480835
20
4.606323
0
VERTEX
8
1
10
33.475830
20
4.611786
42
-0.081372
0
SEQEND
0
POLYLINE
8
1
66
1
70
1
0
VERTEX
8
1
10
33.710327
20
16.497017
42
0.131638
0
VERTEX
8
1
10
33.508064
20
16.534237
42
0.335731
0
VERTEX
8
1
10
33.410271
20
16.425133
42
0.114475
0
VERTEX
8
1
10
33.428574
20
16.220665
42
0.164910
0
VERTEX
8
1
10
33.787094
20
15.670894
42
0.764756
0
VERTEX
8
1
10
33.836426
20
15.733269
42
-0.180580
0
VERTEX
8
1
10
33.489311
20
16.325958
42
-0.096276
0
VERTEX
8
1
10
33.498402
20
16.436380
42
-0.251078
0
VERTEX
8
1
10
33.529785
20
16.453163
42
-0.132681
0
VERTEX
8
1
10
33.685047
20
16.419088
42
0.891688
0
SEQEND
0
POLYLINE
8
1
66
1
70
1
0
VERTEX
8
1
10
33.432495
20
20.089699
0
VERTEX
8
1
10
33.359131
20
17.080078
42
0.835044
0
VERTEX
8
1
10
33.439697
20
17.069717
42
0.001420
0
VERTEX
8
1
10
33.513863
20
20.092962
42
0.854630
0
SEQEND
0
POLYLINE
8
1
66
1
70
1
0
VERTEX
8
1
10
33.750244
20
25.930008
42
-0.306486
0
VERTEX
8
1
10
33.791260
20
25.952042
0
VERTEX
8
1
10
33.813477
20
25.950974
42
-0.091608
0
VERTEX
8
1
10
34.011890
20
25.868088
42
0.754474
0
VERTEX
8
1
10
34.053223
20
25.935661
42
0.105835
0
VERTEX
8
1
10
33.822510
20
26.032387
0
VERTEX
8
1
10
33.784058
20
26.033951
42
0.328679
0
VERTEX
8
1
10
33.671421
20
25.951704
42
0.285162
0
VERTEX
8
1
10
33.744358
20
25.579941
42
0.757410
0
VERTEX
8
1
10
33.803707
20
25.632719
42
-0.279374
0
SEQEND
0
POLYLINE
8
1
66
1
70
1
0
VERTEX
8
1
10
33.850098
20
26.940361
42
0.982742
0
VERTEX
8
1
10
33.793335
20
26.999947
42
0.225749
0
VERTEX
8
1
10
33.733643
20
26.789566
42
0.112949
0
VERTEX
8
1
10
33.798241
20
26.618229
42
0.031382
0
VERTEX
8
1
10
33.961750
20
26.367756
42
-0.115741
0
VERTEX
8
1
10
34.037067
20
26.170269
42
0.786244
0
VERTEX
8
1
10
34.118652
20
26.176842
42
0.124144
0
VERTEX
8
1
10
34.037598
20
26.399315
42
-0.021739
0
VERTEX
8
1
10
33.857544
20
26.678307
42
-0.161231
0
VERTEX
8
1
10
33.815014
20
26.858631
42
-0.128406
0
SEQEND
0
POLYLINE
8
1
66
1
70
1
0
VERTEX
8
1
10
34.648438
20
27.103699
42
-0.008821
0
VERTEX
8
1
10
34.494362
20
26.894907
42
-0.126019
0
VERTEX
8
1
10
34.403076
20
26.841949
42
-0.196342
0
VERTEX
8
1
10
34.246094
20
26.894577
42
1.087275
0
VERTEX
8
1
10
34.207993
20
26.822088
42
0.177635
0
VERTEX
8
1
10
34.392475
20
26.757908
42
0.213371
0
VERTEX
8
1
10
34.563843
20
26.850769
42
0.030019
0
VERTEX
8
1
10
34.689209
20
27.022362
42
0.219391
0
VERTEX
8
1
10
34.812298
20
27.404747
42
0.808639
0
VERTEX
8
1
10
34.732422
20
27.393822
42
-0.183089
0
SEQEND
0
POLYLINE
8
1
66
1
70
1
0
VERTEX
8
1
10
34.680664
20
25.596893
42
-0.018475
0
VERTEX
8
1
10
35.413795
20
25.171576
0
VERTEX
8
1
10
35.506958
20
25.110359
0
VERTEX
8
1
10
35.536255
20
25.086853
0
VERTEX
8
1
10
35.541992
20
25.076965
42
-0.086404
0
VERTEX
8
1
10
35.495728
20
25.059471
42
-0.046456
0
VERTEX
8
1
10
35.130375
20
25.032417
42
0.749765
0
VERTEX
8
1
10
35.126953
20
24.952999
42
0.041574
0
VERTEX
8
1
10
35.458599
20
24.967724
42
0.080624
0
VERTEX
8
1
10
35.590576
20
25.011215
42
0.453280
0
VERTEX
8
1
10
35.611328
20
25.127968
0
VERTEX
8
1
10
35.588135
20
25.150520
0
VERTEX
8
1
10
35.540039
20
25.187141
42
0.024339
0
VERTEX
8
1
10
34.709835
20
25.673134
42
0.869098
0
SEQEND
0
POLYLINE
8
1
66
1
70
1
0
VERTEX
8
1
10
34.101563
20
25.706055
42
-0.558502
0
VERTEX
8
1
10
34.164673
20
25.753403
42
-0.200987
0
VERTEX
8
1
10
34.411255
20
25.542686
0
VERTEX
8
1
10
34.445190
20
25.495735
42
0.037196
0
VERTEX
8
1
10
34.881863
20
25.029442
42
0.751773
0
VERTEX
8
1
10
34.937988
20
25.085327
42
-0.026715
0
VERTEX
8
1
10
34.520142
20
25.533379
0
VERTEX
8
1
10
34.486084
20
25.579308
0
VERTEX
8
1
10
34.459473
20
25.620216
42
0.183804
0
VERTEX
8
1
10
34.194702
20
25.830772
0
VERTEX
8
1
10
34.167236
20
25.835724
42
0.473250
0
VERTEX
8
1
10
34.021370
20
25.714735
42
0.162332
0
VERTEX
8
1
10
34.083309
20
25.455349
42
0.138813
0
VERTEX
8
1
10
34.428772
20
25.117556
42
0.909845
0
VERTEX
8
1
10
34.464844
20
25.192780
42
-0.145053
0
VERTEX
8
1
10
34.138870
20
25.521465
42
-0.121582
0
SEQEND
0
POLYLINE
8
1
66
1
70
1
0
VERTEX
8
1
10
34.262573
20
26.581955
42
-0.073555
0
VERTEX
8
1
10
34.430420
20
26.258118
42
-0.100680
0
VERTEX
8
1
10
34.445313
20
26.074203
0
VERTEX
8
1
10
34.427734
20
26.020279
0
VERTEX
8
1
10
34.395264
20
25.972404
42
0.995890
0
VERTEX
8
1
10
34.456177
20
25.916595
0
VERTEX
8
1
10
34.497925
20
25.975891
0
VERTEX
8
1
10
34.522339
20
26.040840
42
0.138135
0
VERTEX
8
1
10
34.501656
20
26.296852
42
0.083137
0
VERTEX
8
1
10
34.324318
20
26.634874
42
0.856591
0
SEQEND
0
POLYLINE
8
1
66
1
70
1
0
VERTEX
8
1
10
34.721069
20
26.517273
42
0.024757
0
VERTEX
8
1
10
34.615536
20
26.654730
42
0.894506
0
VERTEX
8
1
10
34.558838
20
26.595619
42
-0.088843
0
VERTEX
8
1
10
34.881527
20
26.031912
42
-0.094628
0
VERTEX
8
1
10
34.897217
20
25.846436
0
VERTEX
8
1
10
34.882324
20
25.796013
42
0.995903
0
VERTEX
8
1
10
34.957764
20
25.762947
0
VERTEX
8
1
10
34.978394
20
25.833313
42
0.130157
0
VERTEX
8
1
10
34.935242
20
26.123926
42
0.066374
0
SEQEND
0
POLYLINE
8
1
66
1
70
1
0
VERTEX
8
1
10
34.558960
20
27.821861
42
1.003111
0
VERTEX
8
1
10
34.621338
20
27.876183
42
0.356740
0
VERTEX
8
1
10
34.333130
20
27.917740
42
0.115004
0
VERTEX
8
1
10
33.988159
20
27.475273
42
0.191223
0
VERTEX
8
1
10
33.984863
20
27.045761
42
0.286774
0
VERTEX
8
1
10
34.094543
20
26.964087
42
0.198990
0
VERTEX
8
1
10
34.128540
20
26.980659
0
VERTEX
8
1
10
34.495483
20
27.476189
42
0.996602
0
VERTEX
8
1
10
34.429199
20
27.525276
0
VERTEX
8
1
10
34.082397
20
27.056953
0
VERTEX
8
1
10
34.076172
20
27.056793
42
-0.146288
0
VERTEX
8
1
10
34.049179
20
27.110983
42
-0.223559
0
VERTEX
8
1
10
34.109550
20
27.530581
42
-0.095879
0
VERTEX
8
1
10
34.382111
20
27.850965
42
-0.351560
0
SEQEND
0
POLYLINE
8
1
66
1
70
1
0
VERTEX
8
1
10
33.914673
20
20.810616
42
0.274773
0
VERTEX
8
1
10
33.803638
20
20.763643
0
VERTEX
8
1
10
33.799561
20
20.753578
42
0.094351
0
VERTEX
8
1
10
33.818481
20
20.536772
42
0.155830
0
VERTEX
8
1
10
34.206703
20
19.864742
42
0.832826
0
VERTEX
8
1
10
34.254150
20
19.930397
42
-0.170637
0
VERTEX
8
1
10
33.879433
20
20.653824
0
VERTEX
8
1
10
33.877647
20
20.687632
0
VERTEX
8
1
10
33.878174
20
20.721481
42
-0.338345
0
VERTEX
8
1
10
33.933594
20
20.718374
42
-0.110298
0
VERTEX
8
1
10
34.067368
20
20.568199
42
0.761653
0
VERTEX
8
1
10
34.135864
20
20.608711
42
0.124722
0
VERTEX
8
1
10
33.972534
20
20.790756
0
VERTEX
8
1
10
33.943970
20
20.803574
0
SEQEND
0
POLYLINE
8
1
66
1
70
1
0
VERTEX
8
1
10
34.178467
20
16.233810
42
0.112897
0
VERTEX
8
1
10
33.976929
20
16.349449
0
VERTEX
8
1
10
33.945679
20
16.354256
42
0.457614
0
VERTEX
8
1
10
33.811996
20
16.237627
42
0.111357
0
VERTEX
8
1
10
33.844105
20
16.034609
42
0.078562
0
VERTEX
8
1
10
34.107243
20
15.511713
42
0.769418
0
VERTEX
8
1
10
34.170654
20
15.559609
42
-0.086559
0
VERTEX
8
1
10
33.899853
20
16.135521
42
-0.067045
0
VERTEX
8
1
10
33.891968
20
16.242546
0
VERTEX
8
1
10
33.899414
20
16.260056
42
-0.259355
0
VERTEX
8
1
10
33.957764
20
16.269501
42
-0.103390
0
VERTEX
8
1
10
34.133034
20
16.166016
42
0.869675
0
SEQEND
0
POLYLINE
8
1
66
1
70
1
0
VERTEX
8
1
10
33.677734
20
4.405273
42
0.826356
0
VERTEX
8
1
10
33.597294
20
4.395706
42
0.100804
0
VERTEX
8
1
10
33.687500
20
4.173546
0
VERTEX
8
1
10
33.703735
20
4.156479
42
0.419674
0
VERTEX
8
1
10
33.803074
20
4.153656
42
0.165995
0
VERTEX
8
1
10
33.841431
20
4.212837
0
VERTEX
8
1
10
33.861084
20
4.271873
42
0.077146
0
VERTEX
8
1
10
33.927368
20
4.963943
42
0.089151
0
VERTEX
8
1
10
33.867798
20
5.218971
0
VERTEX
8
1
10
33.853882
20
5.242332
42
0.844086
0
VERTEX
8
1
10
33.782471
20
5.203674
42
-0.125243
0
VERTEX
8
1
10
33.841576
20
4.984364
42
-0.088781
0
VERTEX
8
1
10
33.775414
20
4.267286
0
VERTEX
8
1
10
33.765820
20
4.244085
0
VERTEX
8
1
10
33.754150
20
4.221855
0
VERTEX
8
1
10
33.750122
20
4.226212
42
-0.083383
0
SEQEND
0
POLYLINE
8
1
66
1
70
1
0
VERTEX
8
1
10
33.930908
20
4.100029
42
0.266996
0
VERTEX
8
1
10
33.908447
20
4.065369
42
0.133328
0
VERTEX
8
1
10
33.981152
20
3.872593
42
0.473178
0
VERTEX
8
1
10
34.082722
20
3.880531
42
0.106062
0
VERTEX
8
1
10
34.114868
20
3.934944
42
0.085791
0
VERTEX
8
1
10
34.221802
20
4.664558
0
VERTEX
8
1
10
34.210205
20
4.762711
0
VERTEX
8
1
10
34.187256
20
4.846222
0
VERTEX
8
1
10
34.151123
20
4.910400
0
VERTEX
8
1
10
34.117188
20
4.941154
42
0.876392
0
VERTEX
8
1
10
34.066772
20
4.876693
42
-0.176188
0
VERTEX
8
1
10
34.107018
20
4.824201
42
-0.097709
0
VERTEX
8
1
10
34.136963
20
4.686333
42
-0.079009
0
VERTEX
8
1
10
34.057068
20
4.016701
0
VERTEX
8
1
10
34.044209
20
3.981587
0
VERTEX
8
1
10
34.029541
20
3.947189
42
-0.068297
0
VERTEX
8
1
10
33.986908
20
4.080848
42
0.426426
0
SEQEND
0
POLYLINE
8
1
66
1
70
1
0
VERTEX
8
1
10
34.246704
20
3.794739
42
0.882218
0
VERTEX
8
1
10
34.164917
20
3.792984
42
0.106729
0
VERTEX
8
1
10
34.228569
20
3.551463
0
VERTEX
8
1
10
34.237545
20
3.540982
42
0.410616
0
VERTEX
8
1
10
34.340675
20
3.528833
42
0.155034
0
VERTEX
8
1
10
34.391846
20
3.591461
0
VERTEX
8
1
10
34.419189
20
3.650208
42
0.095737
0
VERTEX
8
1
10
34.505249
20
4.279060
42
0.083990
0
VERTEX
8
1
10
34.466331
20
4.463296
42
0.224360
0
VERTEX
8
1
10
34.371452
20
4.544161
42
0.872801
0
VERTEX
8
1
10
34.359158
20
4.463516
42
-0.159786
0
VERTEX
8
1
10
34.386181
20
4.432629
42
-0.110294
0
VERTEX
8
1
10
34.418335
20
4.322655
42
-0.108496
0
VERTEX
8
1
10
34.336914
20
3.666420
42
-0.093221
0
VERTEX
8
1
10
34.297241
20
3.599800
0
VERTEX
8
1
10
34.293457
20
3.603691
42
-0.078711
0
SEQEND
0
POLYLINE
8
1
66
1
70
1
0
VERTEX
8
1
10
34.225342
20
20.483727
42
0.089592
0
VERTEX
8
1
10
34.223145
20
20.371689
42
0.145754
0
VERTEX
8
1
10
34.518555
20
19.728249
0
VERTEX
8
1
10
34.560913
20
19.689507
42
0.935930
0
VERTEX
8
1
10
34.622925
20
19.744186
42
-0.084445
0
VERTEX
8
1
10
34.492828
20
19.894632
42
-0.103592
0
VERTEX
8
1
10
34.308472
20
20.354202
42
-0.076475
0
VERTEX
8
1
10
34.304150
20
20.464664
42
-0.431028
0
VERTEX
8
1
10
34.329590
20
20.481443
0
VERTEX
8
1
10
34.343872
20
20.478264
42
-0.094328
0
VERTEX
8
1
10
34.571236
20
20.323311
42
0.741930
0
VERTEX
8
1
10
34.626709
20
20.379463
42
0.089528
0
VERTEX
8
1
10
34.398438
20
20.545403
0
VERTEX
8
1
10
34.366089
20
20.556694
0
VERTEX
8
1
10
34.334961
20
20.562698
42
0.402372
0
SEQEND
0
POLYLINE
8
1
66
1
70
1
0
VERTEX
8
1
10
34.646729
20
20.226509
42
0.145378
0
VERTEX
8
1
10
34.648560
20
20.126556
42
0.080760
0
VERTEX
8
1
10
34.896973
20
19.514389
42
0.083219
0
VERTEX
8
1
10
35.054077
20
19.335823
0
VERTEX
8
1
10
35.084961
20
19.315849
42
0.833974
0
VERTEX
8
1
10
35.133423
20
19.380585
42
-0.096626
0
VERTEX
8
1
10
35.005859
20
19.501381
0
VERTEX
8
1
10
34.961792
20
19.565437
42
-0.086639
0
VERTEX
8
1
10
34.723022
20
20.181198
42
-0.634798
0
VERTEX
8
1
10
34.741138
20
20.201448
42
-0.097674
0
VERTEX
8
1
10
34.999035
20
20.100670
42
0.770368
0
VERTEX
8
1
10
35.042236
20
20.167534
42
0.090980
0
VERTEX
8
1
10
34.773438
20
20.279427
0
VERTEX
8
1
10
34.742432
20
20.281837
42
0.340545
0
SEQEND
0
POLYLINE
8
1
66
1
70
1
0
VERTEX
8
1
10
35.139526
20
16.107475
0
VERTEX
8
1
10
35.194702
20
18.968658
42
0.995618
0
VERTEX
8
1
10
35.112186
20
18.967598
0
VERTEX
8
1
10
35.057373
20
16.109192
42
0.929796
0
SEQEND
0
POLYLINE
8
1
66
1
70
1
0
VERTEX
8
1
10
35.156982
20
20.010040
0
VERTEX
8
1
10
35.156006
20
20.008057
0
VERTEX
8
1
10
35.155273
20
20.005989
42
0.093613
0
VERTEX
8
1
10
35.159668
20
19.867920
42
0.118937
0
VERTEX
8
1
10
35.534828
20
19.009466
42
0.785628
0
VERTEX
8
1
10
35.598755
20
19.057724
42
-0.126298
0
VERTEX
8
1
10
35.234985
20
19.937996
0
VERTEX
8
1
10
35.241211
20
19.952339
42
-0.065139
0
VERTEX
8
1
10
35.566750
20
19.771238
42
0.719915
0
VERTEX
8
1
10
35.612671
20
19.834450
42
0.050316
0
VERTEX
8
1
10
35.350842
20
19.997931
42
0.054441
0
VERTEX
8
1
10
35.226563
20
20.037064
0
VERTEX
8
1
10
35.200439
20
20.037071
42
0.297895
0
SEQEND
0
POLYLINE
8
1
66
1
70
1
0
VERTEX
8
1
10
35.593384
20
20.096321
42
0.156375
0
VERTEX
8
1
10
35.602051
20
20.120567
0
VERTEX
8
1
10
35.675415
20
22.758141
42
0.959674
0
VERTEX
8
1
10
35.593140
20
22.761818
0
VERTEX
8
1
10
35.519653
20
20.121918
42
0.715120
0
SEQEND
0
POLYLINE
8
1
66
1
70
1
0
VERTEX
8
1
10
35.666260
20
15.518227
42
0.172373
0
VERTEX
8
1
10
35.675293
20
15.541550
0
VERTEX
8
1
10
35.638916
20
18.474648
42
0.989896
0
VERTEX
8
1
10
35.556274
20
18.473274
42
0.000688
0
VERTEX
8
1
10
35.593140
20
15.541424
42
0.687513
0
SEQEND
0
POLYLINE
8
1
66
1
70
1
0
VERTEX
8
1
10
35.433716
20
14.534920
42
0.785849
0
VERTEX
8
1
10
35.510620
20
14.556740
42
-0.096671
0
VERTEX
8
1
10
35.470528
20
14.781940
42
-0.053865
0
VERTEX
8
1
10
35.510342
20
15.245954
0
VERTEX
8
1
10
35.514412
20
15.254708
0
VERTEX
8
1
10
35.520020
20
15.262566
42
-0.161796
0
VERTEX
8
1
10
35.557495
20
15.247894
42
-0.079442
0
VERTEX
8
1
10
35.785999
20
14.985753
42
0.808904
0
VERTEX
8
1
10
35.856567
20
15.025444
42
0.068594
0
VERTEX
8
1
10
35.645874
20
15.283018
42
0.091829
0
VERTEX
8
1
10
35.537106
20
15.343386
42
0.399361
0
VERTEX
8
1
10
35.432495
20
15.272163
42
0.051481
0
VERTEX
8
1
10
35.386292
20
14.750991
42
0.082417
0
SEQEND
0
POLYLINE
8
1
66
1
70
1
0
VERTEX
8
1
10
35.911621
20
12.620453
42
0.364554
0
VERTEX
8
1
10
35.888214
20
12.672494
42
-0.337671
0
VERTEX
8
1
10
35.859303
20
12.842921
42
0.987746
0
VERTEX
8
1
10
35.778442
20
12.860744
42
0.272480
0
VERTEX
8
1
10
35.815918
20
12.626350
0
VERTEX
8
1
10
35.849365
20
12.598541
42
0.501525
0
SEQEND
0
POLYLINE
8
1
66
1
70
1
0
VERTEX
8
1
10
35.849609
20
13.115494
42
-0.116801
0
VERTEX
8
1
10
35.840698
20
13.148155
42
-0.097717
0
VERTEX
8
1
10
35.894558
20
13.395362
42
0.734181
0
VERTEX
8
1
10
35.824097
20
13.430077
42
0.097447
0
VERTEX
8
1
10
35.757172
20
13.181671
42
0.087595
0
VERTEX
8
1
10
35.774658
20
13.080811
0
VERTEX
8
1
10
35.797241
20
13.049736
42
0.268229
0
VERTEX
8
1
10
35.876133
20
13.029865
42
0.095273
0
VERTEX
8
1
10
36.049732
20
13.081868
42
0.039201
0
VERTEX
8
1
10
36.321629
20
13.225487
42
0.863050
0
VERTEX
8
1
10
36.274780
20
13.292192
42
-0.057598
0
VERTEX
8
1
10
35.904785
20
13.115555
42
-0.151752
0
VERTEX
8
1
10
35.852173
20
13.112099
0
SEQEND
0
POLYLINE
8
1
66
1
70
1
0
VERTEX
8
1
10
35.859131
20
13.644096
42
-0.300631
0
VERTEX
8
1
10
35.834351
20
13.674072
42
-0.109392
0
VERTEX
8
1
10
35.840088
20
13.857247
42
0.761356
0
VERTEX
8
1
10
35.764771
20
13.882675
42
0.148769
0
VERTEX
8
1
10
35.762352
20
13.630456
42
0.298431
0
VERTEX
8
1
10
35.865845
20
13.560516
0
VERTEX
8
1
10
35.915649
20
13.562027
42
0.088570
0
VERTEX
8
1
10
36.284546
20
13.678040
42
0.146020
0
VERTEX
8
1
10
36.350353
20
13.735692
42
0.862808
0
VERTEX
8
1
10
36.278622
20
13.773550
42
-0.080564
0
VERTEX
8
1
10
36.219677
20
13.738087
42
-0.073569
0
VERTEX
8
1
10
35.915771
20
13.643814
0
VERTEX
8
1
10
35.873413
20
13.642387
0
SEQEND
0
POLYLINE
8
1
66
1
70
1
0
VERTEX
8
1
10
35.885986
20
14.631203
42
0.031364
0
VERTEX
8
1
10
35.913429
20
14.739381
42
0.798821
0
VERTEX
8
1
10
35.834717
20
14.755371
42
-0.072564
0
VERTEX
8
1
10
35.719563
20
14.454857
42
-0.104729
0
VERTEX
8
1
10
35.659058
20
14.397545
0
VERTEX
8
1
10
35.639282
20
14.394821
42
0.337627
0
VERTEX
8
1
10
35.595581
20
14.368446
42
0.125260
0
VERTEX
8
1
10
35.629364
20
14.106194
42
0.131381
0
VERTEX
8
1
10
35.698364
20
14.032310
42
0.191169
0
VERTEX
8
1
10
35.861179
20
14.036339
42
0.138936
0
VERTEX
8
1
10
36.135620
20
14.223808
42
0.137418
0
VERTEX
8
1
10
36.169876
20
14.299595
42
0.929666
0
VERTEX
8
1
10
36.087997
20
14.304391
42
-0.131816
0
VERTEX
8
1
10
36.038452
20
14.238190
42
-0.142766
0
VERTEX
8
1
10
35.782349
20
14.101433
0
VERTEX
8
1
10
35.749878
20
14.101639
42
-0.297123
0
VERTEX
8
1
10
35.700157
20
14.156096
42
-0.100289
0
VERTEX
8
1
10
35.674316
20
14.315926
42
0.196585
0
VERTEX
8
1
10
35.800983
20
14.433885
42
0.061432
0
SEQEND
0
POLYLINE
8
1
66
1
70
1
0
VERTEX
8
1
10
35.991943
20
18.466309
42
0.055817
0
VERTEX
8
1
10
36.004597
20
18.516478
42
0.680189
0
VERTEX
8
1
10
35.929688
20
18.533272
42
0.213561
0
VERTEX
8
1
10
35.931629
20
18.155159
42
0.794183
0
VERTEX
8
1
10
36.004150
20
18.189476
42
-0.179028
0
SEQEND
0
POLYLINE
8
1
66
1
70
1
0
VERTEX
8
1
10
36.071411
20
18.852165
42
-0.042664
0
VERTEX
8
1
10
35.971313
20
18.722549
42
-0.251947
0
VERTEX
8
1
10
35.828735
20
18.790031
0
VERTEX
8
1
10
35.827271
20
18.802856
42
0.071295
0
VERTEX
8
1
10
35.842251
20
19.020855
42
0.051074
0
VERTEX
8
1
10
35.762577
20
19.627428
42
0.797666
0
VERTEX
8
1
10
35.684566
20
19.608421
42
-0.042282
0
VERTEX
8
1
10
35.762329
20
18.989265
42
-0.067186
0
VERTEX
8
1
10
35.740723
20
18.795776
42
0.272951
0
VERTEX
8
1
10
35.753761
20
18.752638
42
0.220555
0
VERTEX
8
1
10
35.946289
20
18.637705
42
0.261271
0
VERTEX
8
1
10
36.054565
20
18.693281
42
0.071310
0
VERTEX
8
1
10
36.203003
20
18.924904
42
0.131108
0
VERTEX
8
1
10
36.226685
20
19.073250
0
VERTEX
8
1
10
36.221924
20
19.093086
42
1.016732
0
VERTEX
8
1
10
36.145386
20
19.060875
0
VERTEX
8
1
10
36.147095
20
19.031075
42
-0.106485
0
SEQEND
0
POLYLINE
8
1
66
1
70
1
0
VERTEX
8
1
10
37.907349
20
24.309090
42
0.317783
0
VERTEX
8
1
10
37.869263
20
24.337725
0
VERTEX
8
1
10
35.232300
20
24.409981
0
VERTEX
8
1
10
35.228027
20
24.416512
42
0.006330
0
VERTEX
8
1
10
35.158703
20
24.790380
42
0.810318
0
VERTEX
8
1
10
35.080322
20
24.771500
42
0.004312
0
VERTEX
8
1
10
35.157379
20
24.352085
42
0.290870
0
VERTEX
8
1
10
35.194580
20
24.328377
0
VERTEX
8
1
10
37.828247
20
24.256401
0
VERTEX
8
1
10
37.861938
20
23.313820
0
VERTEX
8
1
10
37.845459
20
23.310631
0
VERTEX
8
1
10
35.155396
20
23.238998
42
0.364787
0
VERTEX
8
1
10
35.117065
20
23.201752
0
VERTEX
8
1
10
35.080322
20
20.414780
42
0.974051
0
VERTEX
8
1
10
35.162724
20
20.412277
0
VERTEX
8
1
10
35.198486
20
23.141365
0
VERTEX
8
1
10
35.202271
20
23.157852
0
VERTEX
8
1
10
37.908691
20
23.229965
42
0.374781
0
VERTEX
8
1
10
37.945923
20
23.270004
0
VERTEX
8
1
10
37.909302
20
24.294670
42
0.084647
0
SEQEND
0
POLYLINE
8
1
66
1
70
1
0
VERTEX
8
1
10
36.140869
20
25.118889
42
0.087074
0
VERTEX
8
1
10
36.139404
20
25.169357
0
VERTEX
8
1
10
36.108887
20
25.239578
0
VERTEX
8
1
10
36.048950
20
25.308388
42
0.077862
0
VERTEX
8
1
10
35.659264
20
25.539923
42
0.034478
0
VERTEX
8
1
10
35.087082
20
25.747616
42
0.767306
0
VERTEX
8
1
10
35.062500
20
25.671799
42
-0.047215
0
VERTEX
8
1
10
35.814819
20
25.371758
42
-0.069346
0
VERTEX
8
1
10
36.016113
20
25.227234
0
VERTEX
8
1
10
36.049072
20
25.180984
42
-0.380122
0
VERTEX
8
1
10
36.023438
20
25.072365
0
VERTEX
8
1
10
36.003174
20
25.067802
42
-0.116575
0
VERTEX
8
1
10
35.786362
20
25.106733
42
0.791919
0
VERTEX
8
1
10
35.757935
20
25.031225
42
0.144968
0
VERTEX
8
1
10
36.048828
20
24.989449
42
0.220205
0
SEQEND
0
POLYLINE
8
1
66
1
70
1
0
VERTEX
8
1
10
35.535400
20
26.068756
42
0.530247
0
VERTEX
8
1
10
35.583004
20
26.117477
42
-0.016191
0
VERTEX
8
1
10
35.385254
20
26.591225
42
0.173754
0
VERTEX
8
1
10
35.133095
20
26.832703
42
0.076684
0
VERTEX
8
1
10
34.795357
20
26.939280
42
0.455869
0
VERTEX
8
1
10
34.751225
20
26.889969
42
0.063354
0
VERTEX
8
1
10
35.110020
20
26.210505
42
0.061656
0
VERTEX
8
1
10
35.319946
20
25.992561
0
VERTEX
8
1
10
35.395264
20
25.944504
42
0.888575
0
VERTEX
8
1
10
35.441772
20
26.011702
42
-0.098273
0
VERTEX
8
1
10
35.215332
20
26.210915
42
-0.066125
0
VERTEX
8
1
10
34.858276
20
26.842636
42
-0.101732
0
VERTEX
8
1
10
35.196568
20
26.697348
42
-0.128020
0
VERTEX
8
1
10
35.320923
20
26.534302
42
0.023107
0
VERTEX
8
1
10
35.509579
20
26.084021
42
0.170849
0
SEQEND
0
POLYLINE
8
1
66
1
70
1
0
VERTEX
8
1
10
35.558716
20
26.732948
42
0.947448
0
VERTEX
8
1
10
35.522217
20
26.659203
42
-0.140128
0
VERTEX
8
1
10
35.886307
20
26.355518
42
0.003119
0
VERTEX
8
1
10
36.074856
20
26.122255
0
VERTEX
8
1
10
36.087402
20
26.101120
42
1.166508
0
VERTEX
8
1
10
36.164215
20
26.130033
42
0.101575
0
VERTEX
8
1
10
36.143188
20
26.168045
42
-0.012229
0
VERTEX
8
1
10
35.891468
20
26.484409
42
0.113879
0
SEQEND
0
POLYLINE
8
1
66
1
70
1
0
VERTEX
8
1
10
33.748169
20
28.892471
42
0.074273
0
VERTEX
8
1
10
33.795738
20
28.279268
42
0.100092
0
VERTEX
8
1
10
34.013184
20
27.842201
0
VERTEX
8
1
10
34.034302
20
27.849739
42
-0.180805
0
VERTEX
8
1
10
34.421143
20
28.160324
42
-0.357477
0
VERTEX
8
1
10
34.713501
20
28.045029
42
-0.107237
0
VERTEX
8
1
10
34.798950
20
27.822777
42
-0.211663
0
VERTEX
8
1
10
34.708496
20
27.600777
0
VERTEX
8
1
10
34.687378
20
27.578499
0
VERTEX
8
1
10
34.663696
20
27.555771
42
0.129191
0
VERTEX
8
1
10
34.764282
20
27.571747
42
0.170308
0
VERTEX
8
1
10
35.499428
20
28.194611
42
0.180440
0
VERTEX
8
1
10
35.599735
20
28.882725
42
0.062323
0
VERTEX
8
1
10
35.442402
20
29.401283
42
0.190363
0
VERTEX
8
1
10
35.022503
20
29.781839
42
0.054003
0
VERTEX
8
1
10
34.807861
20
29.845085
0
VERTEX
8
1
10
34.764084
20
29.843122
42
0.189826
0
VERTEX
8
1
10
34.015327
20
29.476955
42
0.127703
0
VERTEX
8
1
10
33.767822
20
28.991119
0
SEQEND
0
POLYLINE
8
1
66
1
70
1
0
VERTEX
8
1
10
33.456299
20
26.919441
42
0.074218
0
VERTEX
8
1
10
33.644665
20
26.392471
42
0.801910
0
VERTEX
8
1
10
33.714237
20
26.433128
42
-0.077582
0
VERTEX
8
1
10
33.531780
20
26.972242
42
-0.217546
0
VERTEX
8
1
10
33.579956
20
27.083755
42
-0.098206
0
VERTEX
8
1
10
33.807789
20
27.228434
42
0.841515
0
VERTEX
8
1
10
33.775024
20
27.302811
42
0.098177
0
VERTEX
8
1
10
33.522827
20
27.142479
0
VERTEX
8
1
10
33.491211
20
27.104172
42
0.243916
0
SEQEND
0
POLYLINE
8
1
66
1
70
1
0
VERTEX
8
1
10
33.166504
20
25.830734
42
0.192563
0
VERTEX
8
1
10
33.155796
20
25.864225
42
-0.202476
0
VERTEX
8
1
10
33.151733
20
26.017189
0
VERTEX
8
1
10
33.170044
20
26.045876
42
-0.147261
0
VERTEX
8
1
10
33.344921
20
26.145313
42
0.802426
0
VERTEX
8
1
10
33.326416
20
26.223551
42
0.167610
0
VERTEX
8
1
10
33.103142
20
26.094797
0
VERTEX
8
1
10
33.090820
20
26.076725
42
0.296851
0
VERTEX
8
1
10
33.099079
20
25.802904
42
0.606612
0
SEQEND
0
POLYLINE
8
1
66
1
70
1
0
VERTEX
8
1
10
33.359375
20
26.027496
42
0.263351
0
VERTEX
8
1
10
33.417480
20
25.606766
0
VERTEX
8
1
10
33.447998
20
25.566963
42
0.115361
0
VERTEX
8
1
10
33.833225
20
25.299488
42
0.763659
0
VERTEX
8
1
10
33.865967
20
25.372078
42
-0.075430
0
VERTEX
8
1
10
33.562649
20
25.564455
42
-0.143712
0
VERTEX
8
1
10
33.417763
20
25.802877
42
-0.162975
0
VERTEX
8
1
10
33.440784
20
26.004709
42
1.005940
0
SEQEND
0
POLYLINE
8
1
66
1
70
1
0
VERTEX
8
1
10
30.885864
20
23.852848
42
0.004204
0
VERTEX
8
1
10
30.870434
20
23.332989
42
0.299209
0
VERTEX
8
1
10
30.905518
20
23.303383
0
VERTEX
8
1
10
33.459717
20
23.195381
0
VERTEX
8
1
10
33.469849
20
23.188614
0
VERTEX
8
1
10
33.505859
20
21.326790
42
0.953824
0
VERTEX
8
1
10
33.588131
20
21.329475
0
VERTEX
8
1
10
33.551392
20
23.235916
42
0.382514
0
VERTEX
8
1
10
33.512817
20
23.275490
0
VERTEX
8
1
10
30.972656
20
23.382896
0
VERTEX
8
1
10
30.952515
20
23.384888
0
VERTEX
8
1
10
30.986450
20
24.395500
0
VERTEX
8
1
10
30.996826
20
24.400452
0
VERTEX
8
1
10
33.582153
20
24.328407
42
0.411694
0
VERTEX
8
1
10
33.624512
20
24.368088
0
VERTEX
8
1
10
33.661011
20
25.026672
42
0.880329
0
VERTEX
8
1
10
33.580811
20
25.041542
42
0.002521
0
VERTEX
8
1
10
33.545044
20
24.421091
0
VERTEX
8
1
10
33.541504
20
24.412209
0
VERTEX
8
1
10
30.945923
20
24.484138
42
0.338345
0
VERTEX
8
1
10
30.906616
20
24.452629
42
0.002797
0
SEQEND
0
POLYLINE
8
1
66
1
70
1
0
VERTEX
8
1
10
33.081055
20
21.563843
42
-0.018506
0
VERTEX
8
1
10
33.159927
20
21.636702
42
0.761011
0
VERTEX
8
1
10
33.108276
20
21.697016
42
0.132794
0
VERTEX
8
1
10
32.864819
20
21.388264
42
0.709188
0
VERTEX
8
1
10
32.935913
20
21.356796
42
-0.084916
0
SEQEND
0
POLYLINE
8
1
66
1
70
1
0
VERTEX
8
1
10
33.230591
20
21.358734
42
0.865113
0
VERTEX
8
1
10
33.175903
20
21.419233
42
0.115487
0
VERTEX
8
1
10
33.001629
20
21.095900
42
0.089616
0
VERTEX
8
1
10
32.996010
20
20.966394
42
0.743187
0
VERTEX
8
1
10
33.074467
20
20.974365
42
-0.127343
0
VERTEX
8
1
10
33.117939
20
21.174974
42
-0.064251
0
SEQEND
0
POLYLINE
8
1
66
1
70
1
0
VERTEX
8
1
10
33.265747
20
22.040665
42
0.226500
0
VERTEX
8
1
10
33.249512
20
22.009911
0
VERTEX
8
1
10
33.249390
20
21.476555
42
1.065930
0
VERTEX
8
1
10
33.331665
20
21.482521
0
VERTEX
8
1
10
33.331665
20
22.007790
42
0.615443
0
SEQEND
0
POLYLINE
8
1
66
1
70
1
0
VERTEX
8
1
10
33.278076
20
21.119621
42
0.146407
0
VERTEX
8
1
10
33.267944
20
21.098045
42
0.107899
0
VERTEX
8
1
10
33.445057
20
20.471457
42
0.116210
0
VERTEX
8
1
10
33.716064
20
20.177917
0
VERTEX
8
1
10
33.786743
20
20.138885
42
0.950866
0
VERTEX
8
1
10
33.823364
20
20.212303
42
-0.171303
0
VERTEX
8
1
10
33.490002
20
20.568651
42
-0.082057
0
VERTEX
8
1
10
33.356323
20
21.032478
0
VERTEX
8
1
10
33.363770
20
21.049896
0
VERTEX
8
1
10
33.388493
20
21.047958
42
-0.137884
0
VERTEX
8
1
10
33.591743
20
20.981308
42
-0.157909
0
VERTEX
8
1
10
33.677113
20
20.867144
42
0.780856
0
VERTEX
8
1
10
33.752441
20
20.896095
42
0.234143
0
VERTEX
8
1
10
33.578903
20
21.083374
42
0.115901
0
VERTEX
8
1
10
33.301178
20
21.132946
42
0.147903
0
SEQEND
0
POLYLINE
8
1
66
1
70
1
0
VERTEX
8
1
10
33.069458
20
16.861282
42
0.928371
0
VERTEX
8
1
10
33.040771
20
16.938509
42
0.175054
0
VERTEX
8
1
10
32.828064
20
16.708128
42
0.101960
0
VERTEX
8
1
10
32.811356
20
16.594784
42
0.992402
0
VERTEX
8
1
10
32.892288
20
16.619080
42
-0.151880
0
VERTEX
8
1
10
32.942280
20
16.744593
42
-0.103592
0
SEQEND
0
POLYLINE
8
1
66
1
70
1
0
VERTEX
8
1
10
33.368774
20
15.834572
42
0.741029
0
VERTEX
8
1
10
33.414795
20
15.898621
0
VERTEX
8
1
10
33.387993
20
15.922245
0
VERTEX
8
1
10
33.362206
20
15.946971
42
-0.118532
0
VERTEX
8
1
10
33.105705
20
16.395327
0
VERTEX
8
1
10
33.101357
20
16.421871
42
-0.170848
0
VERTEX
8
1
10
33.158207
20
16.669878
42
-0.349095
0
VERTEX
8
1
10
33.236217
20
16.676800
42
-0.104387
0
VERTEX
8
1
10
33.340500
20
16.608669
42
0.760374
0
VERTEX
8
1
10
33.401123
20
16.659798
42
0.197538
0
VERTEX
8
1
10
33.197990
20
16.770077
42
0.280570
0
VERTEX
8
1
10
33.079819
20
16.699839
42
0.168143
0
VERTEX
8
1
10
33.020378
20
16.392344
0
VERTEX
8
1
10
33.026176
20
16.365257
42
0.115722
0
VERTEX
8
1
10
33.291595
20
15.903913
42
0.032259
0
VERTEX
8
1
10
33.362671
20
15.837212
0
SEQEND
0
POLYLINE
8
1
66
1
70
1
0
VERTEX
8
1
10
33.249512
20
10.348900
42
-0.040254
0
VERTEX
8
1
10
33.080753
20
9.516553
42
-0.138667
0
VERTEX
8
1
10
32.349957
20
8.403596
42
-0.049282
0
VERTEX
8
1
10
31.833517
20
8.029558
42
0.768294
0
VERTEX
8
1
10
31.872681
20
7.960266
42
0.083152
0
VERTEX
8
1
10
32.673206
20
8.609672
42
0.120797
0
VERTEX
8
1
10
33.211472
20
9.681819
42
0.047862
0
VERTEX
8
1
10
33.358940
20
10.690408
42
0.010504
0
VERTEX
8
1
10
33.399658
20
11.724258
42
0.005332
0
VERTEX
8
1
10
33.440289
20
15.591256
42
0.846640
0
VERTEX
8
1
10
33.359131
20
15.583473
42
-0.007473
0
VERTEX
8
1
10
33.302227
20
11.178389
42
-0.012804
0
SEQEND
0
POLYLINE
8
1
66
1
70
1
0
VERTEX
8
1
10
33.022461
20
11.635513
42
0.195336
0
VERTEX
8
1
10
33.011353
20
11.607391
0
VERTEX
8
1
10
33.011475
20
11.333755
42
1.015170
0
VERTEX
8
1
10
33.093624
20
11.332474
0
VERTEX
8
1
10
33.093628
20
11.606110
42
0.686535
0
SEQEND
0
POLYLINE
8
1
66
1
70
1
0
VERTEX
8
1
10
32.637695
20
11.384605
0
VERTEX
8
1
10
32.808472
20
11.346741
42
0.926755
0
VERTEX
8
1
10
32.826294
20
11.427104
0
VERTEX
8
1
10
32.655518
20
11.464958
42
0.929736
0
SEQEND
0
POLYLINE
8
1
66
1
70
1
0
VERTEX
8
1
10
32.206421
20
11.286354
42
0.360642
0
VERTEX
8
1
10
32.230957
20
11.239455
0
VERTEX
8
1
10
32.542480
20
11.111290
42
0.996713
0
VERTEX
8
1
10
32.573730
20
11.187775
0
VERTEX
8
1
10
32.262329
20
11.315948
42
0.469717
0
SEQEND
0
POLYLINE
8
1
66
1
70
1
0
VERTEX
8
1
10
31.843750
20
11.002777
42
0.077605
0
VERTEX
8
1
10
32.176800
20
10.888824
42
0.792736
0
VERTEX
8
1
10
32.188599
20
10.968307
42
-0.067892
0
VERTEX
8
1
10
31.871952
20
11.079685
42
0.891790
0
SEQEND
0
POLYLINE
8
1
66
1
70
1
0
VERTEX
8
1
10
31.418579
20
10.840492
42
0.048531
0
VERTEX
8
1
10
31.741791
20
10.669376
42
0.859726
0
VERTEX
8
1
10
31.773560
20
10.745332
42
-0.049975
0
VERTEX
8
1
10
31.461670
20
10.910759
42
0.970644
0
SEQEND
0
POLYLINE
8
1
66
1
70
1
0
VERTEX
8
1
10
31.605835
20
10.490494
42
-0.009917
0
VERTEX
8
1
10
31.238892
20
10.341568
42
-0.275240
0
VERTEX
8
1
10
31.104252
20
10.211105
42
-0.096887
0
VERTEX
8
1
10
30.983276
20
10.197296
42
-0.051012
0
VERTEX
8
1
10
30.740112
20
10.160973
0
VERTEX
8
1
10
30.722290
20
10.154251
42
-0.094223
0
VERTEX
8
1
10
30.604450
20
10.061058
42
-0.046312
0
VERTEX
8
1
10
30.286255
20
9.903816
0
VERTEX
8
1
10
30.219971
20
9.870773
0
VERTEX
8
1
10
30.228394
20
9.863518
42
-0.160474
0
VERTEX
8
1
10
30.328369
20
9.765419
42
-0.030312
0
VERTEX
8
1
10
30.430420
20
9.530327
42
0.065494
0
VERTEX
8
1
10
30.466309
20
9.469490
42
-0.189007
0
VERTEX
8
1
10
30.594597
20
9.384195
42
-0.088476
0
VERTEX
8
1
10
30.761963
20
9.103088
0
VERTEX
8
1
10
30.787720
20
9.092941
42
-0.285026
0
VERTEX
8
1
10
30.946232
20
8.932547
42
-0.023387
0
VERTEX
8
1
10
30.982666
20
8.808006
42
-0.166665
0
VERTEX
8
1
10
31.130251
20
8.684906
42
-0.101646
0
VERTEX
8
1
10
31.203003
20
8.512665
42
-0.165829
0
VERTEX
8
1
10
31.317749
20
8.441284
42
-0.097706
0
VERTEX
8
1
10
31.380493
20
8.253021
0
VERTEX
8
1
10
31.418579
20
8.220207
0
VERTEX
8
1
10
31.690674
20
8.256111
0
VERTEX
8
1
10
31.930664
20
8.345367
0
VERTEX
8
1
10
32.140503
20
8.480713
0
VERTEX
8
1
10
32.322266
20
8.654861
0
VERTEX
8
1
10
32.477783
20
8.860542
0
VERTEX
8
1
10
32.609253
20
9.090477
0
VERTEX
8
1
10
32.718750
20
9.337379
0
VERTEX
8
1
10
32.808105
20
9.593994
0
VERTEX
8
1
10
32.879639
20
9.853027
42
0.052825
0
VERTEX
8
1
10
33.045654
20
11.140892
0
VERTEX
8
1
10
32.850830
20
11.076027
0
VERTEX
8
1
10
32.630859
20
10.966454
0
VERTEX
8
1
10
32.411987
20
10.893364
0
VERTEX
8
1
10
32.411133
20
10.892868
0
VERTEX
8
1
10
32.301758
20
10.783440
0
VERTEX
8
1
10
32.008301
20
10.636581
0
VERTEX
8
1
10
31.901123
20
10.564964
42
0.050707
0
VERTEX
8
1
10
31.695280
20
10.537539
42
0.080368
0
SEQEND
0
POLYLINE
8
1
66
1
70
1
0
VERTEX
8
1
10
30.676270
20
9.067245
42
0.837605
0
VERTEX
8
1
10
30.595093
20
9.071266
42
0.009395
0
VERTEX
8
1
10
30.576958
20
8.832738
42
0.834745
0
VERTEX
8
1
10
30.658083
20
8.837471
0
VERTEX
8
1
10
30.676514
20
9.058708
0
SEQEND
0
POLYLINE
8
1
66
1
70
1
0
VERTEX
8
1
10
30.372559
20
9.412758
42
0.469654
0
VERTEX
8
1
10
30.319824
20
9.378067
0
VERTEX
8
1
10
30.283203
20
9.048370
42
1.001655
0
VERTEX
8
1
10
30.365112
20
9.039413
0
VERTEX
8
1
10
30.401611
20
9.368767
42
0.366877
0
SEQEND
0
POLYLINE
8
1
66
1
70
1
0
VERTEX
8
1
10
31.186646
20
10.764244
42
0.596269
0
VERTEX
8
1
10
31.125244
20
10.725731
42
0.145877
0
VERTEX
8
1
10
31.244120
20
10.564711
42
0.140421
0
VERTEX
8
1
10
31.322062
20
10.541778
42
0.898007
0
VERTEX
8
1
10
31.312866
20
10.623125
0
VERTEX
8
1
10
31.301392
20
10.626038
42
-0.128663
0
VERTEX
8
1
10
31.202696
20
10.749493
0
VERTEX
8
1
10
31.195347
20
10.757605
0
SEQEND
0
POLYLINE
8
1
66
1
70
1
0
VERTEX
8
1
10
30.867798
20
10.530106
42
0.037139
0
VERTEX
8
1
10
31.083109
20
10.395474
42
0.747884
0
VERTEX
8
1
10
31.123171
20
10.463777
42
-0.021677
0
VERTEX
8
1
10
30.907578
20
10.601732
42
0.890481
0
SEQEND
0
POLYLINE
8
1
66
1
70
1
0
VERTEX
8
1
10
30.802002
20
10.340485
42
0.129305
0
VERTEX
8
1
10
30.788696
20
10.358185
42
-0.186024
0
VERTEX
8
1
10
30.594824
20
10.517928
42
0.791026
0
VERTEX
8
1
10
30.522583
20
10.478752
42
0.197609
0
VERTEX
8
1
10
30.761335
20
10.284311
42
0.548012
0
SEQEND
0
POLYLINE
8
1
66
1
70
1
0
VERTEX
8
1
10
30.449829
20
10.202118
42
0.223738
0
VERTEX
8
1
10
30.416563
20
10.221310
0
VERTEX
8
1
10
30.395184
20
10.230909
42
-0.112082
0
VERTEX
8
1
10
30.206675
20
10.409518
42
0.828400
0
VERTEX
8
1
10
30.139893
20
10.364044
42
0.119522
0
VERTEX
8
1
10
30.358398
20
10.157288
0
VERTEX
8
1
10
30.404419
20
10.139412
42
0.699886
0
SEQEND
0
POLYLINE
8
1
66
1
70
1
0
VERTEX
8
1
10
29.735962
20
9.799538
42
0.708124
0
VERTEX
8
1
10
29.813599
20
9.798706
42
0.001209
0
VERTEX
8
1
10
29.865973
20
10.226250
42
-0.251466
0
VERTEX
8
1
10
30.110138
20
10.060198
42
0.819697
0
VERTEX
8
1
10
30.180054
20
10.100777
42
0.268957
0
VERTEX
8
1
10
29.849609
20
10.310783
42
0.450725
0
VERTEX
8
1
10
29.789185
20
10.277451
0
VERTEX
8
1
10
29.734009
20
9.817665
42
0.121212
0
SEQEND
0
POLYLINE
8
1
66
1
70
1
0
VERTEX
8
1
10
30.146851
20
9.780304
42
0.415686
0
VERTEX
8
1
10
30.100342
20
9.745399
0
VERTEX
8
1
10
30.045898
20
9.438477
42
1.016347
0
VERTEX
8
1
10
30.126465
20
9.419868
0
VERTEX
8
1
10
30.181519
20
9.732567
42
0.425371
0
SEQEND
0
POLYLINE
8
1
66
1
70
1
0
VERTEX
8
1
10
29.514160
20
10.483252
42
0.021654
0
VERTEX
8
1
10
29.475464
20
10.038430
0
VERTEX
8
1
10
29.476929
20
10.003761
42
0.873650
0
VERTEX
8
1
10
29.557861
20
9.990021
42
-0.034896
0
VERTEX
8
1
10
29.582642
20
10.356323
0
VERTEX
8
1
10
29.596436
20
10.477577
42
0.944704
0
SEQEND
0
POLYLINE
8
1
66
1
70
1
0
VERTEX
8
1
10
29.518555
20
9.794579
42
-0.150045
0
VERTEX
8
1
10
29.237183
20
9.826523
0
VERTEX
8
1
10
29.209839
20
9.819801
42
-0.216497
0
VERTEX
8
1
10
28.969849
20
9.757874
42
0.054856
0
VERTEX
8
1
10
29.953110
20
8.795337
42
0.050542
0
VERTEX
8
1
10
30.448099
20
8.491668
42
0.049137
0
VERTEX
8
1
10
30.611694
20
8.440475
42
-0.152701
0
VERTEX
8
1
10
30.537354
20
8.632698
42
0.308620
0
VERTEX
8
1
10
30.434204
20
8.743584
42
-0.167932
0
VERTEX
8
1
10
30.203857
20
8.949867
0
VERTEX
8
1
10
30.188843
20
8.972183
0
VERTEX
8
1
10
30.175415
20
8.989586
42
-0.196692
0
VERTEX
8
1
10
30.057762
20
9.093832
42
-0.077746
0
VERTEX
8
1
10
29.996094
20
9.240356
42
-0.151171
0
VERTEX
8
1
10
29.833080
20
9.367229
42
-0.086580
0
VERTEX
8
1
10
29.706055
20
9.599068
0
VERTEX
8
1
10
29.690063
20
9.616104
42
-0.141700
0
VERTEX
8
1
10
29.544044
20
9.724973
42
-0.103085
0
SEQEND
0
POLYLINE
8
1
66
1
70
1
0
VERTEX
8
1
10
30.621704
20
7.999458
42
0.233074
0
VERTEX
8
1
10
30.606201
20
8.032501
0
VERTEX
8
1
10
30.574081
20
8.047639
0
VERTEX
8
1
10
30.542051
20
8.062970
42
-0.120882
0
VERTEX
8
1
10
28.703550
20
9.642331
42
0.804662
0
VERTEX
8
1
10
28.638430
20
9.595314
42
0.108920
0
VERTEX
8
1
10
30.316816
20
8.086208
42
0.020155
0
VERTEX
8
1
10
30.571236
20
7.959394
42
0.459977
0
SEQEND
0
POLYLINE
8
1
66
1
70
1
0
VERTEX
8
1
10
29.278809
20
10.590950
42
0.860408
0
VERTEX
8
1
10
29.197632
20
10.597626
42
0.054997
0
VERTEX
8
1
10
29.248779
20
10.073799
0
VERTEX
8
1
10
29.266113
20
10.016258
0
VERTEX
8
1
10
29.274414
20
9.995232
42
0.806948
0
VERTEX
8
1
10
29.352051
20
10.016571
42
-0.060308
0
VERTEX
8
1
10
29.294962
20
10.303133
42
-0.025375
0
SEQEND
0
POLYLINE
8
1
66
1
70
1
0
VERTEX
8
1
10
28.962158
20
10.677353
42
0.291943
0
VERTEX
8
1
10
28.929321
20
10.647102
42
0.067761
0
VERTEX
8
1
10
29.005493
20
10.128296
42
0.072577
0
VERTEX
8
1
10
29.062147
20
10.009598
42
0.746990
0
VERTEX
8
1
10
29.131592
20
10.047203
42
-0.080700
0
VERTEX
8
1
10
29.065367
20
10.222236
42
-0.048309
0
VERTEX
8
1
10
29.008446
20
10.649146
42
0.376220
0
SEQEND
0
POLYLINE
8
1
66
1
70
1
0
VERTEX
8
1
10
28.719604
20
10.513092
42
-0.005923
0
VERTEX
8
1
10
28.702139
20
10.615685
42
0.748272
0
VERTEX
8
1
10
28.623411
20
10.607567
42
0.110148
0
VERTEX
8
1
10
28.794022
20
10.073625
42
0.087358
0
VERTEX
8
1
10
28.940138
20
9.915758
42
0.773240
0
VERTEX
8
1
10
28.989990
20
9.977859
42
-0.121988
0
VERTEX
8
1
10
28.825079
20
10.189550
42
-0.067913
0
SEQEND
0
POLYLINE
8
1
66
1
70
1
0
VERTEX
8
1
10
28.266357
20
10.313416
42
0.312181
0
VERTEX
8
1
10
28.301514
20
10.234184
0
VERTEX
8
1
10
28.313599
20
10.223076
42
0.040716
0
VERTEX
8
1
10
28.649500
20
9.922215
42
0.118510
0
VERTEX
8
1
10
28.780485
20
9.876028
42
0.977215
0
VERTEX
8
1
10
28.767944
20
9.959022
0
VERTEX
8
1
10
28.732666
20
9.971565
42
-0.076969
0
VERTEX
8
1
10
28.508018
20
10.149496
42
-0.000085
0
VERTEX
8
1
10
28.353575
20
10.298567
42
-0.078602
0
VERTEX
8
1
10
28.465216
20
10.345092
42
0.738792
0
VERTEX
8
1
10
28.446655
20
10.421755
42
0.133930
0
VERTEX
8
1
10
28.287842
20
10.350876
0
VERTEX
8
1
10
28.274292
20
10.333199
0
SEQEND
0
POLYLINE
8
1
66
1
70
1
0
VERTEX
8
1
10
26.756104
20
9.941345
0
VERTEX
8
1
10
26.752075
20
9.947472
0
VERTEX
8
1
10
26.756470
20
9.951546
42
-0.106313
0
VERTEX
8
1
10
26.912231
20
9.985817
42
0.882520
0
VERTEX
8
1
10
26.910156
20
10.067622
42
0.143163
0
VERTEX
8
1
10
26.697430
20
10.010152
42
0.411163
0
VERTEX
8
1
10
26.688110
20
9.894958
0
VERTEX
8
1
10
26.710815
20
9.868530
42
0.103689
0
VERTEX
8
1
10
27.174927
20
9.607941
42
0.122889
0
VERTEX
8
1
10
27.334595
20
9.596832
42
0.799348
0
VERTEX
8
1
10
27.325928
20
9.676695
42
-0.140657
0
VERTEX
8
1
10
27.157333
20
9.700340
42
-0.085946
0
VERTEX
8
1
10
26.783813
20
9.912048
0
SEQEND
0
POLYLINE
8
1
66
1
70
1
0
VERTEX
8
1
10
27.748291
20
9.688042
42
1.032554
0
VERTEX
8
1
10
27.694580
20
9.753297
0
VERTEX
8
1
10
27.661499
20
9.754059
0
VERTEX
8
1
10
27.613403
20
9.766632
42
-0.070660
0
VERTEX
8
1
10
27.162720
20
10.014320
0
VERTEX
8
1
10
27.125122
20
10.048134
42
-0.229700
0
VERTEX
8
1
10
27.115845
20
10.062798
0
VERTEX
8
1
10
27.121948
20
10.068787
42
-0.102396
0
VERTEX
8
1
10
27.294189
20
10.120583
42
0.860911
0
VERTEX
8
1
10
27.287354
20
10.201990
42
0.128873
0
VERTEX
8
1
10
27.063444
20
10.127632
42
0.440822
0
VERTEX
8
1
10
27.058228
20
9.999222
0
VERTEX
8
1
10
27.089355
20
9.969841
42
0.067061
0
VERTEX
8
1
10
27.521851
20
9.712738
0
VERTEX
8
1
10
27.598877
20
9.686348
0
VERTEX
8
1
10
27.666992
20
9.673203
0
VERTEX
8
1
10
27.722412
20
9.676521
0
SEQEND
0
POLYLINE
8
1
66
1
70
1
0
VERTEX
8
1
10
28.125122
20
9.704567
42
0.825827
0
VERTEX
8
1
10
28.143677
20
9.783264
42
-0.084276
0
VERTEX
8
1
10
27.962158
20
9.854309
42
-0.068244
0
VERTEX
8
1
10
27.541382
20
10.164482
0
VERTEX
8
1
10
27.525513
20
10.185196
0
VERTEX
8
1
10
27.530762
20
10.187607
42
-0.094537
0
VERTEX
8
1
10
27.738468
20
10.192883
42
0.799504
0
VERTEX
8
1
10
27.751953
20
10.272072
42
0.094161
0
VERTEX
8
1
10
27.515137
20
10.268776
0
VERTEX
8
1
10
27.490234
20
10.259552
42
0.521353
0
VERTEX
8
1
10
27.457764
20
10.138054
0
VERTEX
8
1
10
27.488403
20
10.100372
42
0.083923
0
VERTEX
8
1
10
28.026978
20
9.731537
0
VERTEX
8
1
10
28.086914
20
9.711212
0
SEQEND
0
POLYLINE
8
1
66
1
70
1
0
VERTEX
8
1
10
27.856689
20
10.262650
42
0.048032
0
VERTEX
8
1
10
27.869507
20
10.240089
42
0.076812
0
VERTEX
8
1
10
28.337780
20
9.841533
42
0.051068
0
VERTEX
8
1
10
28.497070
20
9.773071
0
VERTEX
8
1
10
28.554077
20
9.765640
42
1.002690
0
VERTEX
8
1
10
28.554077
20
9.847992
42
-0.128108
0
VERTEX
8
1
10
28.360283
20
9.927410
42
-0.068515
0
VERTEX
8
1
10
27.948364
20
10.273102
42
-0.058138
0
VERTEX
8
1
10
28.124973
20
10.241642
42
0.801058
0
VERTEX
8
1
10
28.146362
20
10.319098
42
0.102319
0
VERTEX
8
1
10
27.903959
20
10.352595
42
0.494144
0
SEQEND
0
POLYLINE
8
1
66
1
70
1
0
VERTEX
8
1
10
28.204590
20
10.420303
42
0.109600
0
VERTEX
8
1
10
28.198975
20
10.438126
0
VERTEX
8
1
10
27.833008
20
11.060318
42
0.969390
0
VERTEX
8
1
10
27.760498
20
11.021065
0
VERTEX
8
1
10
28.128906
20
10.394508
42
0.775927
0
SEQEND
0
POLYLINE
8
1
66
1
70
1
0
VERTEX
8
1
10
26.718384
20
11.437912
42
-0.014888
0
VERTEX
8
1
10
28.389067
20
11.588551
42
0.118060
0
VERTEX
8
1
10
28.661705
20
11.693778
42
0.290727
0
VERTEX
8
1
10
28.774721
20
12.017920
42
0.087130
0
VERTEX
8
1
10
28.712769
20
12.193993
42
-0.030070
0
VERTEX
8
1
10
28.298237
20
12.853194
42
-0.039782
0
VERTEX
8
1
10
27.403076
20
14.764740
42
-0.037356
0
VERTEX
8
1
10
27.238338
20
15.331882
42
-0.031751
0
VERTEX
8
1
10
27.214411
20
15.555084
42
0.366638
0
VERTEX
8
1
10
27.169619
20
15.585264
42
0.132751
0
VERTEX
8
1
10
27.055416
20
15.560291
42
0.083292
0
VERTEX
8
1
10
26.771397
20
15.387140
42
0.073380
0
VERTEX
8
1
10
26.113752
20
14.688676
42
0.092402
0
VERTEX
8
1
10
25.316694
20
12.997691
42
0.067108
0
VERTEX
8
1
10
25.084148
20
11.285409
42
0.772824
0
VERTEX
8
1
10
25.163940
20
11.286110
42
-0.060865
0
VERTEX
8
1
10
25.384159
20
12.945225
42
-0.083632
0
VERTEX
8
1
10
26.138006
20
14.585897
42
-0.065771
0
VERTEX
8
1
10
26.795532
20
15.302841
0
VERTEX
8
1
10
26.836426
20
15.334503
42
-0.093609
0
VERTEX
8
1
10
27.128418
20
15.498711
0
VERTEX
8
1
10
27.136963
20
15.474121
0
VERTEX
8
1
10
27.149170
20
15.370308
42
0.052257
0
VERTEX
8
1
10
27.391123
20
14.558054
42
0.043630
0
VERTEX
8
1
10
28.413179
20
12.497239
42
0.011933
0
VERTEX
8
1
10
28.642334
20
12.150505
42
-0.090487
0
VERTEX
8
1
10
28.701307
20
11.953970
42
-0.282481
0
VERTEX
8
1
10
28.576397
20
11.738441
42
-0.110388
0
VERTEX
8
1
10
28.380127
20
11.671135
0
VERTEX
8
1
10
28.252520
20
11.661985
0
VERTEX
8
1
10
28.124897
20
11.652822
42
0.025572
0
VERTEX
8
1
10
26.145279
20
11.436253
42
0.032739
0
VERTEX
8
1
10
25.723783
20
11.330552
42
0.786353
0
VERTEX
8
1
10
25.750488
20
11.255106
42
-0.035519
0
VERTEX
8
1
10
26.202587
20
11.360430
42
-0.016592
0
SEQEND
0
POLYLINE
8
1
66
1
70
1
0
VERTEX
8
1
10
27.235229
20
11.330006
42
0.007550
0
VERTEX
8
1
10
26.462788
20
11.224195
42
0.772666
0
VERTEX
8
1
10
26.474487
20
11.145188
42
-0.013301
0
VERTEX
8
1
10
27.618774
20
11.286720
42
-0.006080
0
VERTEX
8
1
10
27.734550
20
11.292817
42
0.778140
0
VERTEX
8
1
10
27.733887
20
11.372666
42
0.028185
0
SEQEND
0
POLYLINE
8
1
66
1
70
1
0
VERTEX
8
1
10
26.475220
20
10.884613
42
0.035028
0
VERTEX
8
1
10
26.664366
20
10.173359
42
0.856416
0
VERTEX
8
1
10
26.737793
20
10.210167
0
VERTEX
8
1
10
26.728027
20
10.236336
42
-0.025037
0
VERTEX
8
1
10
26.552160
20
10.912151
42
0.874887
0
SEQEND
0
POLYLINE
8
1
66
1
70
1
0
VERTEX
8
1
10
26.537476
20
9.945122
42
0.147586
0
VERTEX
8
1
10
26.405237
20
9.815634
42
0.253359
0
VERTEX
8
1
10
26.420166
20
9.698486
0
VERTEX
8
1
10
26.445068
20
9.667709
42
0.218939
0
VERTEX
8
1
10
27.060495
20
9.443024
42
0.778440
0
VERTEX
8
1
10
27.054565
20
9.522659
42
-0.205510
0
VERTEX
8
1
10
26.514038
20
9.712067
0
VERTEX
8
1
10
26.493286
20
9.735909
42
-0.417421
0
VERTEX
8
1
10
26.490021
20
9.794384
42
-0.145498
0
VERTEX
8
1
10
26.584768
20
9.878466
42
0.892604
0
SEQEND
0
POLYLINE
8
1
66
1
70
1
0
VERTEX
8
1
10
27.782959
20
6.916878
42
-0.025349
0
VERTEX
8
1
10
27.875244
20
6.947075
0
VERTEX
8
1
10
27.875854
20
6.954681
42
-0.012067
0
VERTEX
8
1
10
27.551636
20
7.506363
42
0.055579
0
VERTEX
8
1
10
26.987549
20
6.542770
0
VERTEX
8
1
10
27.021362
20
6.554359
42
-0.037925
0
SEQEND
0
POLYLINE
8
1
66
1
70
1
0
VERTEX
8
1
10
29.600830
20
4.818489
42
-0.107825
0
VERTEX
8
1
10
29.696777
20
4.876945
0
VERTEX
8
1
10
29.676146
20
4.900782
42
-0.005314
0
VERTEX
8
1
10
29.173828
20
5.378654
42
-0.260326
0
VERTEX
8
1
10
29.119875
20
5.235468
42
0.004641
0
VERTEX
8
1
10
28.779295
20
4.920585
0
VERTEX
8
1
10
28.775024
20
4.905792
42
0.016041
0
VERTEX
8
1
10
29.244751
20
4.482506
0
VERTEX
8
1
10
29.281738
20
4.495079
42
-0.013881
0
SEQEND
0
POLYLINE
8
1
66
1
70
1
0
VERTEX
8
1
10
30.511475
20
3.195686
42
0.105615
0
VERTEX
8
1
10
30.648418
20
3.571881
42
0.178543
0
VERTEX
8
1
10
30.570440
20
3.858521
42
0.202019
0
VERTEX
8
1
10
30.198235
20
4.059477
42
0.233134
0
VERTEX
8
1
10
29.900234
20
3.926322
42
0.138695
0
VERTEX
8
1
10
29.672485
20
3.480484
42
0.202329
0
VERTEX
8
1
10
29.759033
20
3.133553
42
0.227787
0
VERTEX
8
1
10
30.168335
20
2.961830
42
0.237598
0
SEQEND
0
POLYLINE
8
1
66
1
70
1
0
VERTEX
8
1
10
31.925415
20
2.909653
0
VERTEX
8
1
10
31.937744
20
2.928503
42
0.160768
0
VERTEX
8
1
10
31.992117
20
3.116741
42
0.174031
0
VERTEX
8
1
10
31.933249
20
3.247109
42
0.105448
0
VERTEX
8
1
10
31.796143
20
3.351471
0
VERTEX
8
1
10
31.759033
20
3.351730
42
0.040263
0
VERTEX
8
1
10
31.431030
20
2.812752
42
-0.192256
0
VERTEX
8
1
10
31.613766
20
2.797913
42
0.326590
0
SEQEND
0
POLYLINE
8
1
66
1
70
1
0
VERTEX
8
1
10
34.624268
20
2.908363
42
0.913034
0
VERTEX
8
1
10
34.600220
20
2.986910
42
0.160051
0
VERTEX
8
1
10
34.310547
20
2.768410
0
VERTEX
8
1
10
34.295654
20
2.759209
42
0.056256
0
VERTEX
8
1
10
33.629337
20
3.193933
42
0.050512
0
VERTEX
8
1
10
33.160767
20
3.361160
42
-0.079233
0
VERTEX
8
1
10
30.869228
20
4.476440
42
-0.089979
0
VERTEX
8
1
10
28.352459
20
6.985266
42
-0.051668
0
VERTEX
8
1
10
27.097540
20
9.233892
42
0.797306
0
VERTEX
8
1
10
27.024780
20
9.200439
42
0.059285
0
VERTEX
8
1
10
28.455187
20
6.702773
0
VERTEX
8
1
10
28.545824
20
6.583346
0
VERTEX
8
1
10
28.638023
20
6.465120
42
0.100295
0
VERTEX
8
1
10
31.591869
20
3.931280
42
0.052692
0
VERTEX
8
1
10
33.130249
20
3.284286
42
-0.070329
0
VERTEX
8
1
10
33.684502
20
3.070970
42
-0.054227
0
VERTEX
8
1
10
34.298424
20
2.652699
42
0.430311
0
VERTEX
8
1
10
34.354004
20
2.674858
0
VERTEX
8
1
10
34.363159
20
2.695068
42
-0.182755
0
SEQEND
0
POLYLINE
8
1
66
1
70
1
0
VERTEX
8
1
10
34.736694
20
4.112312
42
0.235344
0
VERTEX
8
1
10
34.659668
20
4.160148
42
0.804049
0
VERTEX
8
1
10
34.650131
20
4.080914
42
-0.241117
0
VERTEX
8
1
10
34.679840
20
4.042426
42
-0.100429
0
VERTEX
8
1
10
34.700806
20
3.928604
42
-0.074021
0
VERTEX
8
1
10
34.627506
20
3.367552
0
VERTEX
8
1
10
34.622978
20
3.357839
0
VERTEX
8
1
10
34.617432
20
3.348671
0
VERTEX
8
1
10
34.612549
20
3.350113
42
-0.111976
0
VERTEX
8
1
10
34.494556
20
3.503061
42
0.782698
0
VERTEX
8
1
10
34.421753
20
3.469872
42
0.100460
0
VERTEX
8
1
10
34.548096
20
3.295288
0
VERTEX
8
1
10
34.572998
20
3.278435
42
0.492567
0
VERTEX
8
1
10
34.698120
20
3.324341
42
0.083533
0
VERTEX
8
1
10
34.782104
20
3.936554
42
0.104932
0
VERTEX
8
1
10
34.742798
20
4.102722
0
SEQEND
0
POLYLINE
8
1
66
1
70
1
0
VERTEX
8
1
10
35.018555
20
3.787010
0
VERTEX
8
1
10
35.008591
20
3.795889
42
0.421799
0
VERTEX
8
1
10
34.921543
20
3.792119
42
0.591471
0
VERTEX
8
1
10
34.957520
20
3.729412
0
VERTEX
8
1
10
34.966431
20
3.722649
42
-0.086482
0
VERTEX
8
1
10
34.993774
20
3.647133
42
-0.080691
0
VERTEX
8
1
10
34.999390
20
2.972336
42
-0.045113
0
VERTEX
8
1
10
34.987549
20
2.933022
0
VERTEX
8
1
10
34.983643
20
2.935387
0
VERTEX
8
1
10
34.973999
20
2.944611
42
-0.071148
0
VERTEX
8
1
10
34.842476
20
3.173480
42
0.753422
0
VERTEX
8
1
10
34.769287
20
3.143570
42
0.079401
0
VERTEX
8
1
10
34.908936
20
2.894287
0
VERTEX
8
1
10
34.930542
20
2.873222
0
VERTEX
8
1
10
34.952637
20
2.857605
42
0.503441
0
VERTEX
8
1
10
35.063599
20
2.901070
0
VERTEX
8
1
10
35.069092
20
2.915070
0
VERTEX
8
1
10
35.081909
20
2.966995
42
0.070812
0
VERTEX
8
1
10
35.086155
20
3.592859
42
0.031565
0
VERTEX
8
1
10
35.052490
20
3.730949
0
VERTEX
8
1
10
35.027710
20
3.776596
0
SEQEND
0
POLYLINE
8
1
66
1
70
1
0
VERTEX
8
1
10
35.075073
20
11.293382
42
0.083762
0
VERTEX
8
1
10
35.375824
20
9.051329
42
0.086001
0
VERTEX
8
1
10
36.004818
20
7.855914
42
0.125964
0
VERTEX
8
1
10
37.084839
20
7.045877
42
0.111487
0
VERTEX
8
1
10
38.735302
20
6.998357
42
0.135569
0
VERTEX
8
1
10
40.136051
20
7.720644
42
0.767173
0
VERTEX
8
1
10
40.083862
20
7.780778
42
-0.175096
0
VERTEX
8
1
10
38.247746
20
7.018299
42
-0.073700
0
VERTEX
8
1
10
37.171631
20
7.110016
0
VERTEX
8
1
10
37.079468
20
7.137589
42
-0.157669
0
VERTEX
8
1
10
35.841797
20
8.232643
42
-0.086189
0
VERTEX
8
1
10
35.304153
20
9.643516
42
-0.063135
0
VERTEX
8
1
10
35.161499
20
11.385582
42
0.001381
0
VERTEX
8
1
10
35.160923
20
14.457328
42
0.833712
0
VERTEX
8
1
10
35.080326
20
14.447807
0
VERTEX
8
1
10
35.080322
20
11.406410
42
0.009720
0
SEQEND
0
POLYLINE
8
1
66
1
70
1
0
VERTEX
8
1
10
35.441040
20
3.187881
42
0.015932
0
VERTEX
8
1
10
35.317509
20
3.378544
42
0.783819
0
VERTEX
8
1
10
35.247311
20
3.336242
42
-0.050541
0
VERTEX
8
1
10
35.462891
20
2.957359
42
-0.080684
0
VERTEX
8
1
10
35.490234
20
2.840874
0
VERTEX
8
1
10
35.485718
20
2.814476
42
0.999694
0
VERTEX
8
1
10
35.562866
20
2.785538
42
0.168639
0
VERTEX
8
1
10
35.540081
20
2.984859
42
0.048593
0
SEQEND
0
POLYLINE
8
1
66
1
70
1
0
VERTEX
8
1
10
35.856445
20
2.721947
42
0.706947
0
VERTEX
8
1
10
35.931519
20
2.741440
42
0.176791
0
VERTEX
8
1
10
35.850826
20
2.996518
42
0.087653
0
VERTEX
8
1
10
35.651146
20
3.204366
42
0.768442
0
VERTEX
8
1
10
35.601440
20
3.141174
42
-0.082546
0
VERTEX
8
1
10
35.803520
20
2.921838
42
-0.145571
0
VERTEX
8
1
10
35.848644
20
2.743416
0
VERTEX
8
1
10
35.851437
20
2.732278
0
SEQEND
0
POLYLINE
8
1
66
1
70
1
0
VERTEX
8
1
10
39.840332
20
3.820633
42
0.021259
0
VERTEX
8
1
10
39.593628
20
4.304718
42
-0.524192
0
VERTEX
8
1
10
39.367065
20
4.363853
42
-0.012917
0
VERTEX
8
1
10
38.821411
20
4.013573
0
VERTEX
8
1
10
38.834827
20
4.001499
42
-0.609029
0
VERTEX
8
1
10
38.766602
20
3.747246
0
VERTEX
8
1
10
38.751343
20
3.742378
0
VERTEX
8
1
10
38.754395
20
3.732437
42
0.094296
0
VERTEX
8
1
10
39.369873
20
3.005547
0
VERTEX
8
1
10
39.423584
20
2.968445
42
0.060712
0
VERTEX
8
1
10
39.194027
20
3.866167
42
-0.064367
0
VERTEX
8
1
10
39.156746
20
4.003221
42
-0.722172
0
VERTEX
8
1
10
39.408985
20
4.100197
42
-0.079126
0
VERTEX
8
1
10
39.530167
20
3.929101
42
0.076105
0
VERTEX
8
1
10
40.018311
20
3.355011
42
0.034508
0
SEQEND
0
POLYLINE
8
1
66
1
70
1
0
VERTEX
8
1
10
41.019409
20
6.802139
42
0.036936
0
VERTEX
8
1
10
41.387424
20
7.405691
42
0.792243
0
VERTEX
8
1
10
41.314941
20
7.439896
0
VERTEX
8
1
10
41.273418
20
7.362707
0
VERTEX
8
1
10
41.230495
20
7.286289
0
VERTEX
8
1
10
41.186184
20
7.210666
42
-0.155610
0
VERTEX
8
1
10
37.453640
20
4.020229
42
-0.060572
0
VERTEX
8
1
10
35.507946
20
3.460331
42
0.777060
0
VERTEX
8
1
10
35.520752
20
3.381454
0
VERTEX
8
1
10
35.631252
20
3.399619
0
VERTEX
8
1
10
35.741478
20
3.419361
42
0.197213
0
SEQEND
0
POLYLINE
8
1
66
1
70
1
0
VERTEX
8
1
10
41.534302
20
6.246384
42
0.025144
0
VERTEX
8
1
10
41.420044
20
6.498238
42
-0.008558
0
VERTEX
8
1
10
40.972412
20
5.841156
42
0.125796
0
VERTEX
8
1
10
41.661255
20
5.756584
42
0.061356
0
SEQEND
0
POLYLINE
8
1
66
1
70
1
0
VERTEX
8
1
10
41.552612
20
7.521858
42
0.117596
0
VERTEX
8
1
10
41.828556
20
7.475986
42
0.490714
0
VERTEX
8
1
10
41.898804
20
7.610390
42
0.072151
0
VERTEX
8
1
10
41.747639
20
7.834495
42
0.068018
0
VERTEX
8
1
10
41.260254
20
8.281639
0
VERTEX
8
1
10
41.187500
20
8.322327
0
VERTEX
8
1
10
41.123047
20
8.346878
0
VERTEX
8
1
10
41.068359
20
8.352463
42
0.996841
0
VERTEX
8
1
10
41.076416
20
8.270463
0
VERTEX
8
1
10
41.118408
20
8.264496
0
VERTEX
8
1
10
41.171631
20
8.241158
0
VERTEX
8
1
10
41.233765
20
8.203056
42
-0.071732
0
VERTEX
8
1
10
41.765503
20
7.679985
42
-0.063502
0
VERTEX
8
1
10
41.824825
20
7.574601
42
-0.510675
0
VERTEX
8
1
10
41.810547
20
7.555717
42
-0.104169
0
VERTEX
8
1
10
41.571964
20
7.601519
42
0.891442
0
SEQEND
0
POLYLINE
8
1
66
1
70
1
0
VERTEX
8
1
10
42.206299
20
7.741150
42
0.234533
0
VERTEX
8
1
10
42.209717
20
7.776543
42
0.058734
0
VERTEX
8
1
10
41.813515
20
8.256207
42
0.071651
0
VERTEX
8
1
10
41.611450
20
8.388573
0
VERTEX
8
1
10
41.548096
20
8.406326
0
VERTEX
8
1
10
41.487671
20
8.407242
42
1.099414
0
VERTEX
8
1
10
41.508835
20
8.326627
42
-0.149326
0
VERTEX
8
1
10
41.614277
20
8.295831
42
-0.087489
0
VERTEX
8
1
10
41.822468
20
8.129287
42
-0.045454
0
VERTEX
8
1
10
42.145763
20
7.729584
42
0.455302
0
SEQEND
0
POLYLINE
8
1
66
1
70
1
0
VERTEX
8
1
10
42.632202
20
7.774315
42
0.876006
0
VERTEX
8
1
10
42.703857
20
7.813622
42
0.181453
0
VERTEX
8
1
10
42.099396
20
8.224513
42
0.857668
0
VERTEX
8
1
10
42.083862
20
8.144478
42
-0.172047
0
SEQEND
0
POLYLINE
8
1
66
1
70
1
0
VERTEX
8
1
10
42.826782
20
8.106750
42
0.030275
0
VERTEX
8
1
10
42.621426
20
8.241141
42
0.767221
0
VERTEX
8
1
10
42.581055
20
8.172539
42
-0.054838
0
VERTEX
8
1
10
42.886353
20
7.947693
0
VERTEX
8
1
10
42.902832
20
7.927010
42
0.972777
0
VERTEX
8
1
10
42.977905
20
7.961249
42
0.089399
0
SEQEND
0
POLYLINE
8
1
66
1
70
1
0
VERTEX
8
1
10
43.063721
20
8.185455
42
1.018816
0
VERTEX
8
1
10
43.037720
20
8.107256
0
VERTEX
8
1
10
43.145752
20
8.071266
42
1.023299
0
VERTEX
8
1
10
43.171997
20
8.149466
0
SEQEND
0
POLYLINE
8
1
66
1
70
1
0
VERTEX
8
1
10
43.142456
20
8.371071
42
1.022107
0
VERTEX
8
1
10
43.142456
20
8.288385
0
VERTEX
8
1
10
43.307861
20
8.288414
42
0.955866
0
VERTEX
8
1
10
43.307983
20
8.371040
0
SEQEND
0
POLYLINE
8
1
66
1
70
1
0
VERTEX
8
1
10
43.310181
20
8.657364
42
0.257685
0
VERTEX
8
1
10
43.270752
20
8.660110
0
VERTEX
8
1
10
43.068237
20
8.567863
42
0.937536
0
VERTEX
8
1
10
43.099854
20
8.492094
0
VERTEX
8
1
10
43.303833
20
8.584862
42
0.610452
0
SEQEND
0
POLYLINE
8
1
66
1
70
1
0
VERTEX
8
1
10
43.029053
20
8.639542
42
0.140629
0
VERTEX
8
1
10
43.046387
20
8.653160
0
VERTEX
8
1
10
43.212769
20
8.911606
42
0.968306
0
VERTEX
8
1
10
43.144775
20
8.958518
0
VERTEX
8
1
10
42.978638
20
8.699730
42
0.736626
0
SEQEND
0
POLYLINE
8
1
66
1
70
1
0
VERTEX
8
1
10
42.826538
20
8.775513
42
0.869698
0
VERTEX
8
1
10
42.755127
20
8.736565
42
-0.099551
0
VERTEX
8
1
10
42.900623
20
8.420156
42
-0.138421
0
VERTEX
8
1
10
42.881847
20
8.284543
42
0.892661
0
VERTEX
8
1
10
42.958740
20
8.256348
0
VERTEX
8
1
10
42.978760
20
8.314049
42
0.139327
0
VERTEX
8
1
10
42.951916
20
8.541142
42
0.069285
0
SEQEND
0
POLYLINE
8
1
66
1
70
1
0
VERTEX
8
1
10
44.321533
20
10.716957
42
0.563276
0
VERTEX
8
1
10
44.389282
20
10.734871
42
0.066861
0
VERTEX
8
1
10
44.168209
20
12.512775
42
0.077920
0
VERTEX
8
1
10
43.438568
20
14.147411
42
0.056037
0
VERTEX
8
1
10
42.801270
20
14.905321
42
0.060867
0
VERTEX
8
1
10
42.441570
20
15.162854
42
0.117362
0
VERTEX
8
1
10
42.330864
20
15.184189
42
0.355196
0
VERTEX
8
1
10
42.294678
20
15.137001
42
-0.108442
0
VERTEX
8
1
10
42.124523
20
13.615009
42
-0.063248
0
VERTEX
8
1
10
41.551983
20
12.390480
42
-0.031585
0
VERTEX
8
1
10
40.924927
20
11.500244
42
0.047910
0
VERTEX
8
1
10
40.742798
20
11.203629
42
0.406612
0
VERTEX
8
1
10
40.815842
20
10.990454
42
0.093745
0
VERTEX
8
1
10
40.971191
20
10.933586
42
-0.025130
0
VERTEX
8
1
10
41.990532
20
10.722978
42
-0.017694
0
VERTEX
8
1
10
43.725327
20
10.229421
42
0.799586
0
VERTEX
8
1
10
43.746826
20
10.307023
42
0.016779
0
VERTEX
8
1
10
42.008617
20
10.804958
42
0.016307
0
VERTEX
8
1
10
41.101318
20
10.995529
42
-0.074330
0
VERTEX
8
1
10
40.870632
20
11.051616
42
-0.121337
0
VERTEX
8
1
10
40.816650
20
11.100510
42
-0.222549
0
VERTEX
8
1
10
40.832397
20
11.203667
42
-0.045914
0
VERTEX
8
1
10
41.065609
20
11.545256
42
0.043399
0
VERTEX
8
1
10
41.860142
20
12.766982
42
0.068047
0
VERTEX
8
1
10
42.336708
20
14.107519
42
0.070897
0
VERTEX
8
1
10
42.382080
20
15.096260
42
-0.082151
0
VERTEX
8
1
10
42.610985
20
14.953824
42
-0.064233
0
VERTEX
8
1
10
43.164909
20
14.383116
42
-0.095789
0
VERTEX
8
1
10
44.048672
20
12.620846
42
-0.072978
0
VERTEX
8
1
10
44.309666
20
10.738437
42
0.153077
0
SEQEND
0
POLYLINE
8
1
66
1
70
1
0
VERTEX
8
1
10
35.958374
20
3.136795
42
-0.234876
0
VERTEX
8
1
10
36.226440
20
3.045212
0
VERTEX
8
1
10
36.268799
20
2.982887
0
VERTEX
8
1
10
36.297119
20
2.900253
42
-1.147644
0
VERTEX
8
1
10
36.214432
20
2.895375
42
0.410313
0
VERTEX
8
1
10
35.959965
20
3.051440
42
-1.026762
0
SEQEND
0
POLYLINE
8
1
66
1
70
1
0
VERTEX
8
1
10
40.269897
20
8.397606
42
-0.077023
0
VERTEX
8
1
10
40.313354
20
8.354713
42
-0.024042
0
VERTEX
8
1
10
40.576481
20
7.955436
42
0.021718
0
VERTEX
8
1
10
40.696533
20
7.785583
0
VERTEX
8
1
10
40.684937
20
7.786324
42
-0.052523
0
VERTEX
8
1
10
40.326077
20
7.894882
42
0.737358
0
VERTEX
8
1
10
40.295288
20
7.821984
42
0.051876
0
VERTEX
8
1
10
40.620918
20
7.712729
42
0.066233
0
VERTEX
8
1
10
40.742672
20
7.706747
42
0.503996
0
VERTEX
8
1
10
40.781250
20
7.804358
0
VERTEX
8
1
10
40.751507
20
7.848251
42
-0.014736
0
VERTEX
8
1
10
40.525272
20
8.191289
0
VERTEX
8
1
10
40.454918
20
8.295788
0
VERTEX
8
1
10
40.382813
20
8.399086
0
VERTEX
8
1
10
40.356689
20
8.429794
42
0.264849
0
VERTEX
8
1
10
40.255474
20
8.480698
42
0.910597
0
SEQEND
0
POLYLINE
8
1
66
1
70
1
0
VERTEX
8
1
10
32.453690
20
7.054935
42
1.135782
0
VERTEX
8
1
10
32.414127
20
6.981223
42
-0.166816
0
VERTEX
8
1
10
32.458740
20
6.834923
42
-0.029276
0
VERTEX
8
1
10
32.368042
20
6.257164
42
-0.072695
0
VERTEX
8
1
10
32.338203
20
6.168509
0
VERTEX
8
1
10
32.332397
20
6.159660
42
-0.076653
0
VERTEX
8
1
10
32.265068
20
6.334387
42
0.782471
0
VERTEX
8
1
10
32.187134
20
6.316002
42
0.094560
0
VERTEX
8
1
10
32.261230
20
6.117279
0
VERTEX
8
1
10
32.279297
20
6.095764
42
0.533715
0
VERTEX
8
1
10
32.399048
20
6.110612
0
VERTEX
8
1
10
32.408569
20
6.126167
0
VERTEX
8
1
10
32.427612
20
6.170464
42
0.042683
0
VERTEX
8
1
10
32.506195
20
6.550776
42
0.011048
0
VERTEX
8
1
10
32.544189
20
6.861626
42
0.116635
0
VERTEX
8
1
10
32.477940
20
7.033843
42
0.071739
0
SEQEND
0
ENDSEC
0
EOF
