  0
SECTION
  2
HEADER
  9
$ACADVER
  1
AC1009
  9
$EXTMIN
 10
39.72191781
 20
23.33700000
 30
0.0
  9
$EXTMAX
 10
94.72252664
 20
196.66300000
 30
0.0
  0
ENDSEC
  0
SECTION
  2
TABLES
  0
TABLE
  2
LAYER
 70
1
 0
LAYER
 2
�� ���������
 70
0
 62
1
 6
CONTINUOUS
 0
ENDTAB
 0
ENDSEC
  0
SECTION
  2
ENTITIES
  0
POLYLINE
  8
�� ���������
 66
   1
 39
0.000000
 70
    0
  0
VERTEX
  8
0
 10
94.72252664
 20
196.66300000
  0
VERTEX
  8
0
 10
66.97744444
 20
196.66300000
  0
VERTEX
  8
0
 10
39.72191781
 20
196.66300000
  0
SEQEND
  0
POLYLINE
  8
�� ���������
 66
   1
 39
0.000000
 70
    0
  0
VERTEX
  8
0
 10
39.72191781
 20
178.55900000
  0
VERTEX
  8
0
 10
49.37744444
 20
178.55900000
  0
VERTEX
  8
0
 10
66.97744444
 20
178.55900000
  0
VERTEX
  8
0
 10
84.57744444
 20
178.55900000
  0
VERTEX
  8
0
 10
94.72252664
 20
178.55900000
  0
SEQEND
  0
POLYLINE
  8
�� ���������
 66
   1
 39
0.000000
 70
    0
  0
VERTEX
  8
0
 10
64.72225009
 20
192.51350000
  0
VERTEX
  8
0
 10
64.72225009
 20
187.22750000
  0
VERTEX
  8
0
 10
64.72225009
 20
182.46450000
  0
SEQEND
  0
POLYLINE
  8
�� ���������
 66
   1
 39
0.000000
 70
    0
  0
VERTEX
  8
0
 10
69.72219436
 20
182.46450000
  0
VERTEX
  8
0
 10
69.72219436
 20
187.22750000
  0
VERTEX
  8
0
 10
69.72219436
 20
192.51350000
  0
SEQEND
  0
POLYLINE
  8
�� ���������
 66
   1
 39
0.000000
 70
    1
  0
VERTEX
  8
0
 10
54.72242914
 20
182.46450000
  0
VERTEX
  8
0
 10
54.72242914
 20
187.22750000
  0
VERTEX
  8
0
 10
54.72242914
 20
192.51350000
  0
VERTEX
  8
0
 10
64.72225009
 20
192.51350000
  0
VERTEX
  8
0
 10
64.72225009
 20
187.22750000
  0
VERTEX
  8
0
 10
64.72225009
 20
182.46450000
  0
VERTEX
  8
0
 10
54.72242914
 20
182.46450000
  0
SEQEND
  0
POLYLINE
  8
�� ���������
 66
   1
 39
0.000000
 70
    1
  0
VERTEX
  8
0
 10
69.72219436
 20
182.46450000
  0
VERTEX
  8
0
 10
69.72219436
 20
187.22750000
  0
VERTEX
  8
0
 10
69.72219436
 20
192.51350000
  0
VERTEX
  8
0
 10
79.72231160
 20
192.51350000
  0
VERTEX
  8
0
 10
79.72231160
 20
187.22750000
  0
VERTEX
  8
0
 10
79.72231160
 20
182.46450000
  0
VERTEX
  8
0
 10
69.72219436
 20
182.46450000
  0
SEQEND
  0
POLYLINE
  8
�� ���������
 66
   1
 39
0.000000
 70
    1
  0
VERTEX
  8
0
 10
39.72223266
 20
192.51350000
  0
VERTEX
  8
0
 10
42.22219657
 20
192.51350000
  0
VERTEX
  8
0
 10
49.72216845
 20
192.51350000
  0
VERTEX
  8
0
 10
49.72216845
 20
187.22750000
  0
VERTEX
  8
0
 10
49.72216845
 20
182.46450000
  0
VERTEX
  8
0
 10
44.72216047
 20
182.46450000
  0
VERTEX
  8
0
 10
42.22219657
 20
182.46450000
  0
VERTEX
  8
0
 10
39.72223266
 20
182.46450000
  0
VERTEX
  8
0
 10
39.72223266
 20
192.51350000
  0
SEQEND
  0
POLYLINE
  8
�� ���������
 66
   1
 39
0.000000
 70
    1
  0
VERTEX
  8
0
 10
94.72221376
 20
192.51350000
  0
VERTEX
  8
0
 10
94.72221376
 20
182.46450000
  0
VERTEX
  8
0
 10
92.22220927
 20
182.46450000
  0
VERTEX
  8
0
 10
89.72220479
 20
182.46450000
  0
VERTEX
  8
0
 10
84.72227599
 20
182.46450000
  0
VERTEX
  8
0
 10
84.72227599
 20
187.22750000
  0
VERTEX
  8
0
 10
84.72227599
 20
192.51350000
  0
VERTEX
  8
0
 10
92.22220927
 20
192.51350000
  0
VERTEX
  8
0
 10
94.72221376
 20
192.51350000
  0
SEQEND
  0
POLYLINE
  8
�� ���������
 66
   1
 39
0.000000
 70
    0
  0
VERTEX
  8
0
 10
39.72191781
 20
41.44100000
  0
VERTEX
  8
0
 10
49.37744444
 20
41.44100000
  0
VERTEX
  8
0
 10
66.97744444
 20
41.44100000
  0
VERTEX
  8
0
 10
84.57744444
 20
41.44100000
  0
VERTEX
  8
0
 10
94.72252664
 20
41.44100000
  0
SEQEND
  0
POLYLINE
  8
�� ���������
 66
   1
 39
0.000000
 70
    0
  0
VERTEX
  8
0
 10
64.72225009
 20
27.48650000
  0
VERTEX
  8
0
 10
64.72225009
 20
32.77250000
  0
VERTEX
  8
0
 10
64.72225009
 20
37.53550000
  0
SEQEND
  0
POLYLINE
  8
�� ���������
 66
   1
 39
0.000000
 70
    0
  0
VERTEX
  8
0
 10
69.72219436
 20
37.53550000
  0
VERTEX
  8
0
 10
69.72219436
 20
32.77250000
  0
VERTEX
  8
0
 10
69.72219436
 20
27.48650000
  0
SEQEND
  0
POLYLINE
  8
�� ���������
 66
   1
 39
0.000000
 70
    1
  0
VERTEX
  8
0
 10
54.72242914
 20
37.53550000
  0
VERTEX
  8
0
 10
54.72242914
 20
32.77250000
  0
VERTEX
  8
0
 10
54.72242914
 20
27.48650000
  0
VERTEX
  8
0
 10
64.72225009
 20
27.48650000
  0
VERTEX
  8
0
 10
64.72225009
 20
32.77250000
  0
VERTEX
  8
0
 10
64.72225009
 20
37.53550000
  0
VERTEX
  8
0
 10
54.72242914
 20
37.53550000
  0
SEQEND
  0
POLYLINE
  8
�� ���������
 66
   1
 39
0.000000
 70
    1
  0
VERTEX
  8
0
 10
69.72219436
 20
37.53550000
  0
VERTEX
  8
0
 10
69.72219436
 20
32.77250000
  0
VERTEX
  8
0
 10
69.72219436
 20
27.48650000
  0
VERTEX
  8
0
 10
79.72231160
 20
27.48650000
  0
VERTEX
  8
0
 10
79.72231160
 20
32.77250000
  0
VERTEX
  8
0
 10
79.72231160
 20
37.53550000
  0
VERTEX
  8
0
 10
69.72219436
 20
37.53550000
  0
SEQEND
  0
POLYLINE
  8
�� ���������
 66
   1
 39
0.000000
 70
    1
  0
VERTEX
  8
0
 10
39.72223266
 20
27.48650000
  0
VERTEX
  8
0
 10
42.22219657
 20
27.48650000
  0
VERTEX
  8
0
 10
49.72216845
 20
27.48650000
  0
VERTEX
  8
0
 10
49.72216845
 20
32.77250000
  0
VERTEX
  8
0
 10
49.72216845
 20
37.53550000
  0
VERTEX
  8
0
 10
44.72216047
 20
37.53550000
  0
VERTEX
  8
0
 10
42.22219657
 20
37.53550000
  0
VERTEX
  8
0
 10
39.72223266
 20
37.53550000
  0
VERTEX
  8
0
 10
39.72223266
 20
27.48650000
  0
SEQEND
  0
POLYLINE
  8
�� ���������
 66
   1
 39
0.000000
 70
    1
  0
VERTEX
  8
0
 10
94.72221376
 20
27.48650000
  0
VERTEX
  8
0
 10
94.72221376
 20
37.53550000
  0
VERTEX
  8
0
 10
92.22220927
 20
37.53550000
  0
VERTEX
  8
0
 10
89.72220479
 20
37.53550000
  0
VERTEX
  8
0
 10
84.72227599
 20
37.53550000
  0
VERTEX
  8
0
 10
84.72227599
 20
32.77250000
  0
VERTEX
  8
0
 10
84.72227599
 20
27.48650000
  0
VERTEX
  8
0
 10
92.22220927
 20
27.48650000
  0
VERTEX
  8
0
 10
94.72221376
 20
27.48650000
  0
SEQEND
  0
POLYLINE
  8
�� ���������
 66
   1
 39
0.000000
 70
    0
  0
VERTEX
  8
0
 10
94.72252664
 20
23.33700000
  0
VERTEX
  8
0
 10
66.97744444
 20
23.33700000
  0
VERTEX
  8
0
 10
39.72191781
 20
23.33700000
  0
SEQEND
  0
POLYLINE
  8
�� ���������
 66
   1
 39
0.000000
 70
    0
  0
VERTEX
  8
0
 10
49.72216845
 20
173.98333333
  0
VERTEX
  8
0
 10
49.72216845
 20
110.00000000
  0
VERTEX
  8
0
 10
49.72216845
 20
46.01666667
  0
SEQEND
  0
POLYLINE
  8
�� ���������
 66
   1
 39
0.000000
 70
    0
  0
VERTEX
  8
0
 10
44.72216047
 20
173.98333333
  0
VERTEX
  8
0
 10
44.72216047
 20
110.00000000
  0
VERTEX
  8
0
 10
44.72216047
 20
46.01666667
  0
SEQEND
  0
POLYLINE
  8
�� ���������
 66
   1
 39
0.000000
 70
    0
  0
VERTEX
  8
0
 10
39.72223266
 20
173.98333333
  0
VERTEX
  8
0
 10
39.72223266
 20
110.00000000
  0
VERTEX
  8
0
 10
39.72223266
 20
46.01666667
  0
SEQEND
  0
POLYLINE
  8
�� ���������
 66
   1
 39
0.000000
 70
    0
  0
VERTEX
  8
0
 10
84.72227599
 20
173.98333333
  0
VERTEX
  8
0
 10
84.72227599
 20
110.00000000
  0
VERTEX
  8
0
 10
84.72227599
 20
46.01666667
  0
SEQEND
  0
POLYLINE
  8
�� ���������
 66
   1
 39
0.000000
 70
    0
  0
VERTEX
  8
0
 10
89.72220479
 20
173.98333333
  0
VERTEX
  8
0
 10
89.72220479
 20
110.00000000
  0
VERTEX
  8
0
 10
89.72220479
 20
46.01666667
  0
SEQEND
  0
POLYLINE
  8
�� ���������
 66
   1
 39
0.000000
 70
    0
  0
VERTEX
  8
0
 10
94.72221376
 20
173.98333333
  0
VERTEX
  8
0
 10
94.72221376
 20
110.00000000
  0
VERTEX
  8
0
 10
94.72221376
 20
46.01666667
  0
SEQEND
  0
ENDSEC
  0
EOF
