  0
SECTION
  2
HEADER
  9
$ACADVER
  1
AC1006
  9
$DWGCODEPAGE
  3
ansi_1252
  9
$INSBASE
 10
0.0
 20
0.0
 30
0.0
  9
$EXTMIN
 10
-0.1371707149974508
 20
0.0680234110654596
  9
$EXTMAX
 10
14.70131295739007
 20
11.81405428751246
  9
$LIMMIN
 10
0.0
 20
0.0
  9
$LIMMAX
 10
12.0
 20
9.0
  9
$ORTHOMODE
 70
     0
  9
$REGENMODE
 70
     1
  9
$FILLMODE
 70
     1
  9
$QTEXTMODE
 70
     0
  9
$MIRRTEXT
 70
     1
  9
$DRAGMODE
 70
     2
  9
$LTSCALE
 40
1.0
  9
$OSMODE
 70
    37
  9
$ATTMODE
 70
     1
  9
$TEXTSIZE
 40
1.711474472017015
  9
$TRACEWID
 40
0.05
  9
$TEXTSTYLE
  7
STANDARD
  9
$CLAYER
  8
0
  9
$CELTYPE
  6
BYBLOCK
  9
$CECOLOR
 62
     3
  9
$DIMSCALE
 40
1.0
  9
$DIMASZ
 40
0.18
  9
$DIMEXO
 40
0.0625
  9
$DIMDLI
 40
0.38
  9
$DIMRND
 40
0.0
  9
$DIMDLE
 40
0.0
  9
$DIMEXE
 40
0.18
  9
$DIMTP
 40
0.0
  9
$DIMTM
 40
0.0
  9
$DIMTXT
 40
0.18
  9
$DIMCEN
 40
0.09
  9
$DIMTSZ
 40
0.0
  9
$DIMTOL
 70
     0
  9
$DIMLIM
 70
     0
  9
$DIMTIH
 70
     1
  9
$DIMTOH
 70
     1
  9
$DIMSE1
 70
     0
  9
$DIMSE2
 70
     0
  9
$DIMTAD
 70
     0
  9
$DIMZIN
 70
     0
  9
$DIMBLK
  1

  9
$DIMASO
 70
     1
  9
$DIMSHO
 70
     1
  9
$DIMPOST
  1

  9
$DIMAPOST
  1

  9
$DIMALT
 70
     0
  9
$DIMALTD
 70
     2
  9
$DIMALTF
 40
25.4
  9
$DIMLFAC
 40
1.0
  9
$DIMTOFL
 70
     0
  9
$DIMTVP
 40
0.0
  9
$DIMTIX
 70
     0
  9
$DIMSOXD
 70
     0
  9
$DIMSAH
 70
     0
  9
$DIMBLK1
  1

  9
$DIMBLK2
  1

  9
$LUNITS
 70
     2
  9
$LUPREC
 70
     4
  9
$SKETCHINC
 40
0.1
  9
$FILLETRAD
 40
0.5
  9
$AUNITS
 70
     0
  9
$AUPREC
 70
     0
  9
$MENU
  1
.
  9
$ELEVATION
 40
0.0
  9
$THICKNESS
 40
0.0
  9
$LIMCHECK
 70
     0
  9
$CHAMFERA
 40
0.5
  9
$CHAMFERB
 40
0.5
  9
$SKPOLY
 70
     0
  9
$TDCREATE
 40
2453353.508792488
  9
$TDUPDATE
 40
9762999.840291575
  9
$TDINDWG
 40
2440862.049751111
  9
$TDUSRTIMER
 40
2440862.049751111
  9
$USRTIMER
 70
     1
  9
$ANGBASE
 50
0.0
  9
$ANGDIR
 70
     0
  9
$PDMODE
 70
     0
  9
$PDSIZE
 40
0.0
  9
$PLINEWID
 40
0.0
  9
$COORDS
 70
     1
  9
$SPLFRAME
 70
     0
  9
$SPLINETYPE
 70
     6
  9
$SPLINESEGS
 70
     8
  9
$ATTDIA
 70
     0
  9
$ATTREQ
 70
     1
  9
$HANDLING
 70
     1
  9
$HANDSEED
  5
270
  9
$SURFTAB1
 70
     6
  9
$SURFTAB2
 70
     6
  9
$SURFTYPE
 70
     6
  9
$SURFU
 70
     6
  9
$SURFV
 70
     6
  9
$UCSNAME
  2

  9
$UCSORG
 10
0.0
 20
0.0
 30
0.0
  9
$UCSXDIR
 10
1.0
 20
0.0
 30
0.0
  9
$UCSYDIR
 10
0.0
 20
1.0
 30
0.0
  9
$USERI1
 70
     0
  9
$USERI2
 70
     0
  9
$USERI3
 70
     0
  9
$USERI4
 70
     0
  9
$USERI5
 70
     0
  9
$USERR1
 40
0.0
  9
$USERR2
 40
0.0
  9
$USERR3
 40
0.0
  9
$USERR4
 40
0.0
  9
$USERR5
 40
0.0
  9
$WORLDVIEW
 70
     1
  0
ENDSEC
  0
SECTION
  2
TABLES
  0
TABLE
  2
VPORT
 70
     1
  0
VPORT
  2
*ACTIVE
 70
     0
 10
0.0
 20
0.0
 11
1.0
 21
1.0
 12
4.321670672625826
 22
4.697923588073285
 13
0.0
 23
0.0
 14
0.5
 24
0.5
 15
0.5
 25
0.5
 16
0.0
 26
0.0
 36
1.0
 17
0.0
 27
0.0
 37
0.0
 40
19.50180122061494
 41
1.972972972850329
 42
50.0
 43
0.0
 44
0.0
 50
0.0
 51
0.0
 71
    16
 72
   100
 73
     1
 74
     3
 75
     0
 76
     0
 77
     0
 78
     0
  0
ENDTAB
  0
TABLE
  2
LTYPE
 70
     1
  0
LTYPE
  2
CONTINUOUS
 70
     0
  3
Solid line
 72
    65
 73
     0
 40
0.0
  0
ENDTAB
  0
TABLE
  2
LAYER
 70
     1
  0
LAYER
  2
0
 70
     0
 62
     7
  6
CONTINUOUS
  0
ENDTAB
  0
TABLE
  2
STYLE
 70
     1
  0
STYLE
  2
STANDARD
 70
     0
 40
0.0
 41
1.0
 50
0.0
 71
     0
 42
0.2
  3
txt
  4

  0
ENDTAB
  0
TABLE
  2
VIEW
 70
     0
  0
ENDTAB
  0
TABLE
  2
UCS
 70
     0
  0
ENDTAB
  0
ENDSEC
  0
SECTION
  2
BLOCKS
  0
ENDSEC
  0
SECTION
  2
ENTITIES
  0
ARC
  5
B8
  8
0
 62
     1
 10
0.3583699329572534
 20
6.204504475460607
 30
0.0
 40
0.1631540329441639
 50
18.26227077853708
 51
308.0501121180079
  0
LINE
  5
23
  8
0
 62
     2
 10
1.99120826608786
 20
5.816265555823859
 30
0.0
 11
0.971560501276203
 21
5.632252859699412
 31
0.0
  0
LINE
  5
24
  8
0
 62
     2
 10
0.971560501276203
 20
5.632252859699412
 30
0.0
 11
0.4589299947236748
 21
6.076025245841657
 31
0.0
  0
ARC
  5
25
  8
0
 62
     2
 10
6.866896830783285
 20
5.779326241878976
 30
0.0
 40
4.875828492965725
 50
179.565922583861
 51
220.791945014104
  0
ARC
  5
3D
  8
0
 62
     2
 10
1.829987713812965
 20
1.766313498568247
 30
0.0
 40
0.4123455742056258
 50
116.183744451179
 51
159.9061245198521
  0
ARC
  5
3E
  8
0
 62
     2
 10
1.926254716488579
 20
1.814329539633868
 30
0.0
 40
0.4924992067432553
 50
169.0384149532286
 51
197.4597449799625
  0
ARC
  5
3F
  8
0
 62
     2
 10
3.699529902041917
 20
2.511444422264995
 30
0.0
 40
2.396925448297913
 50
200.63943392252
 51
269.4415559879046
  0
ARC
  5
57
  8
0
 62
     2
 10
4.012501396873461
 20
2.113888969373023
 30
0.0
 40
1.797876861026125
 50
199.4965935702238
 51
257.1864963958446
  0
ARC
  5
6F
  8
0
 62
     2
 10
4.519768108917178
 20
7.966031685230923
 30
0.0
 40
6.745695906101228
 50
269.5989369512702
 51
307.9789526075996
  0
ARC
  5
70
  8
0
 62
     2
 10
11.83351034028664
 20
8.403172317493372
 30
0.0
 40
6.566181260373342
 50
241.2064904788756
 51
271.3197385821938
  0
ARC
  5
71
  8
0
 62
     2
 10
19.12434751070754
 20
9.063785380297968
 30
0.0
 40
10.15752754524102
 50
225.3408112242024
 51
239.1594083990583
  0
LINE
  5
72
  8
0
 62
     2
 10
14.35107819335167
 20
0.6294215557789666
 30
0.0
 11
14.600319731906
 21
0.2243934180920422
 31
0.0
  0
LINE
  5
C0
  8
0
 62
     2
 10
14.600319731906
 20
0.2243934180920422
 30
0.0
 11
14.34031609276426
 21
0.0680234110654596
 31
0.0
  0
LINE
  5
C1
  8
0
 62
     2
 10
14.34031609276426
 20
0.0680234110654596
 30
0.0
 11
13.91707808873523
 21
0.3425635049342879
 31
0.0
  0
ARC
  5
C2
  8
0
 62
     2
 10
14.62876135125945
 20
2.192347516259848
 30
0.0
 40
1.587402121118254
 50
213.8884553936643
 51
259.9254555796023
  0
LINE
  5
C3
  8
0
 62
     2
 10
12.36922465567982
 20
2.31519157994927
 30
0.0
 11
12.78918269669856
 21
2.125215385966122
 31
0.0
  0
LINE
  5
77
  8
0
 62
     2
 10
12.78918269669856
 20
2.125215385966122
 30
0.0
 11
13.31101972251107
 21
1.307247242847664
 31
0.0
  0
ARC
  5
78
  8
0
 62
     2
 10
13.54863012272473
 20
5.28331675304228
 30
0.0
 40
3.193863537918266
 50
213.4214164354667
 51
248.3292522974201
  0
LINE
  5
80
  8
0
 62
     2
 10
10.20626887653281
 20
4.8575784389321
 30
0.0
 11
10.88289733683161
 21
3.524159848994691
 31
0.0
  0
ARC
  5
90
  8
0
 62
     2
 10
6.881196417071414
 20
7.043116177407248
 30
0.0
 40
3.979030292290787
 50
326.6834711985983
 51
339.5077463831855
  0
ARC
  5
91
  8
0
 62
     2
 10
10.14860998805694
 20
5.792322213835432
 30
0.0
 40
0.4813039545562411
 50
342.8171398572432
 51
33.14552770757074
  0
ARC
  5
C4
  8
0
 62
     2
 10
10.14864007387601
 20
5.792310930867193
 30
0.0
 40
0.4812849340222777
 50
33.14861068141636
 51
83.47877911202039
  0
ARC
  5
C5
  8
0
 62
     2
 10
8.760794708243816
 20
6.275855139665882
 30
0.0
 40
1.442510767804596
 50
304.9239287735414
 51
359.7864637343225
  0
ARC
  5
94
  8
0
 62
     2
 10
11.61704267497134
 20
-16.50073147446149
 30
0.0
 40
21.68910196062904
 50
95.37161541144634
 51
103.9189481853626
  0
ARC
  5
95
  8
0
 62
     2
 10
6.13825808625993
 20
7.557016570341639
 30
0.0
 40
3.016857550254172
 50
207.4958105800334
 51
274.9724560282724
  0
LINE
  5
96
  8
0
 62
     2
 10
2.349432133285934
 20
8.79338410038263
 30
0.0
 11
2.678620052045757
 21
7.815242149434454
 31
0.0
  0
LINE
  5
C6
  8
0
 62
     2
 10
2.678620052045757
 20
7.815242149434454
 30
0.0
 11
2.981462851750013
 21
8.15687490717519
 31
0.0
  0
LINE
  5
C7
  8
0
 62
     2
 10
2.981462851750013
 20
8.15687490717519
 30
0.0
 11
3.075782146844471
 21
7.635500958040181
 31
0.0
  0
LINE
  5
99
  8
0
 62
     2
 10
3.075782146844471
 20
7.635500958040181
 30
0.0
 11
2.917892183212604
 21
7.351153135555964
 31
0.0
  0
LINE
  5
9A
  8
0
 62
     2
 10
2.917892183212604
 20
7.351153135555964
 30
0.0
 11
3.462170906997473
 21
6.164182449739802
 31
0.0
  0
ARC
  5
9B
  8
0
 62
     2
 10
3.208763837354773
 20
12.91746435627327
 30
0.0
 40
4.212658179183872
 50
251.1589471239544
 51
258.2297362248944
  0
LINE
  5
9C
  8
0
 62
     2
 10
1.234433179056357
 20
9.039715826844457
 30
0.0
 11
1.035770764982121
 21
9.495125388576533
 31
0.0
  0
LINE
  5
9D
  8
0
 62
     2
 10
1.035770764982121
 20
9.495125388576533
 30
0.0
 11
1.008254080015281
 21
9.581455000804203
 31
0.0
  0
LINE
  5
9E
  8
0
 62
     2
 10
1.008254080015281
 20
9.581455000804203
 30
0.0
 11
1.045865021979619
 21
9.6180544032279
 31
0.0
  0
LINE
  5
9F
  8
0
 62
     2
 10
1.045865021979619
 20
9.6180544032279
 30
0.0
 11
1.097573334802385
 21
9.615240195299661
 31
0.0
  0
LINE
  5
A0
  8
0
 62
     2
 10
1.097573334802385
 20
9.615240195299661
 30
0.0
 11
1.534630910430226
 21
9.120610429034578
 31
0.0
  0
LINE
  5
A1
  8
0
 62
     2
 10
1.534630910430226
 20
9.120610429034578
 30
0.0
 11
1.848311600542089
 21
8.930528359044823
 31
0.0
  0
LINE
  5
A2
  8
0
 62
     2
 10
0.8270861102285018
 20
9.153525695779107
 30
0.0
 11
1.234433179056357
 21
9.039715826844457
 31
0.0
  0
LINE
  5
A3
  8
0
 62
     2
 10
2.282997502784696
 20
7.926134513805298
 30
0.0
 11
2.09061116244531
 21
8.378552550716934
 31
0.0
  0
LINE
  5
A4
  8
0
 62
     2
 10
2.09061116244531
 20
8.378552550716934
 30
0.0
 11
0.9097926941896869
 21
8.535465501397884
 31
0.0
  0
LINE
  5
A5
  8
0
 62
     2
 10
0.9097926941896869
 20
8.535465501397884
 30
0.0
 11
0.2153485093582606
 21
8.830043491938467
 31
0.0
  0
LINE
  5
A6
  8
0
 62
     2
 10
0.2153485093582606
 20
8.830043491938467
 30
0.0
 11
0.0202045986157685
 21
8.927561288016028
 31
0.0
  0
LINE
  5
A7
  8
0
 62
     2
 10
0.0202045986157685
 20
8.927561288016028
 30
0.0
 11
0.061152734238457
 21
9.001814380228236
 31
0.0
  0
LINE
  5
A8
  8
0
 62
     2
 10
0.061152734238457
 20
9.001814380228236
 30
0.0
 11
0.2518710667776475
 21
8.991406728887128
 31
0.0
  0
LINE
  5
A9
  8
0
 62
     2
 10
0.2518710667776475
 20
8.991406728887128
 30
0.0
 11
0.6324934475373061
 21
8.946772608515126
 31
0.0
  0
LINE
  5
AA
  8
0
 62
     2
 10
0.6324934475373061
 20
8.946772608515126
 30
0.0
 11
0.3432498289730414
 21
9.560219848228574
 31
0.0
  0
LINE
  5
AB
  8
0
 62
     2
 10
0.3432498289730414
 20
9.560219848228574
 30
0.0
 11
0.3885290742860396
 21
9.62506942297534
 31
0.0
  0
LINE
  5
AC
  8
0
 62
     2
 10
0.3885290742860396
 20
9.62506942297534
 30
0.0
 11
0.4544794247012326
 21
9.633780384237463
 31
0.0
  0
LINE
  5
AD
  8
0
 62
     2
 10
0.4544794247012326
 20
9.633780384237463
 30
0.0
 11
0.8270861102285018
 21
9.153525695779107
 31
0.0
  0
ARC
  5
AE
  8
0
 62
     2
 10
2.095017281617789
 20
7.804939261308614
 30
0.0
 40
0.2236623633463957
 50
328.7286102992803
 51
32.81082387821335
  0
ARC
  5
AF
  8
0
 62
     2
 10
-2.412946028536113
 20
11.6885431837176
 30
0.0
 40
6.170857362627553
 50
298.3076091548764
 51
319.5969532333083
  0
ARC
  5
141
  8
0
  6
BYBLOCK
 62
     2
 10
4.169724982952907
 20
7.057141477151939
 30
0.0
 40
5.844490932128111
 50
251.5255484684381
 51
272.9700344260646
  0
ARC
  5
154
  8
0
  6
BYBLOCK
 62
     2
 10
3.699967404491856
 20
-1.935466406624167
 30
0.0
 40
4.559611905152701
 50
96.60541035095282
 51
116.7451240312514
  0
LINE
  5
193
  8
0
  6
BYBLOCK
 62
     2
 10
3.613771292535574
 20
0.3607844341818526
 30
0.0
 11
3.676168190545923
 21
0.1146328245097326
 31
0.0
  0
TEXT
  5
236
  8
0
  6
BYBLOCK
 62
     3
 10
-0.1371707149974508
 20
10.10257981549544
 30
0.0
 40
1.711474472017015
  1
HO, HO, HO
  0
ENDSEC
  0
EOF
