  0
SECTION
  2
HEADER
  9
$ACADVER
  1
AC1014
  9
$HANDSEED
  5
FFFF
  9
$MEASUREMENT
 70
     1
  0
ENDSEC
  0
SECTION
  2
TABLES
  0
TABLE
  2
VPORT
  5
8
330
0
100
AcDbSymbolTable
 70
     4
  0
VPORT
  5
2E
330
8
100
AcDbSymbolTableRecord
100
AcDbViewportTableRecord
  2
*ACTIVE
 70
     0
 10
0.0
 20
0.0
 11
1.0
 21
1.0
 12
210.0
 22
148.5
 13
0.0
 23
0.0
 14
10.0
 24
10.0
 15
10.0
 25
10.0
 16
0.0
 26
0.0
 36
1.0
 17
0.0
 27
0.0
 37
0.0
 40
341.0
 41
1.24
 42
50.0
 43
0.0
 44
0.0
 50
0.0
 51
0.0
 71
     0
 72
   100
 73
     1
 74
     3
 75
     0
 76
     0
 77
     0
 78
     0
  0
ENDTAB
  0
TABLE
  2
LTYPE
  5
5
330
0
100
AcDbSymbolTable
 70
     1
  0
LTYPE
  5
14
330
5
100
AcDbSymbolTableRecord
100
AcDbLinetypeTableRecord
  2
BYBLOCK
 70
     0
  3

 72
    65
 73
     0
 40
0.0
  0
LTYPE
  5
15
330
5
100
AcDbSymbolTableRecord
100
AcDbLinetypeTableRecord
  2
BYLAYER
 70
     0
  3

 72
    65
 73
     0
 40
0.0
  0
LTYPE
  5
16
330
5
100
AcDbSymbolTableRecord
100
AcDbLinetypeTableRecord
  2
CONTINUOUS
 70
     0
  3
Solid line
 72
    65
 73
     0
 40
0.0
  0
ENDTAB
  0
TABLE
  2
LAYER
  5
2
100
AcDbSymbolTable
 70
1
  0
LAYER
  5
50
100
AcDbSymbolTableRecord
100
AcDbLayerTableRecord
  2
0
 70
0
  6
CONTINUOUS
  0
ENDTAB
  0
TABLE
  2
STYLE
  5
3
330
0
100
AcDbSymbolTable
 70
     1
  0
STYLE
  5
11
330
3
100
AcDbSymbolTableRecord
100
AcDbTextStyleTableRecord
  2
STANDARD
 70
     0
 40
0.0
 41
1.0
 50
0.0
 71
     0
 42
2.5
  3
txt
  4

  0
ENDTAB
  0
TABLE
  2
VIEW
  5
6
330
0
100
AcDbSymbolTable
 70
     0
  0
ENDTAB
  0
TABLE
  2
UCS
  5
7
330
0
100
AcDbSymbolTable
 70
     0
  0
ENDTAB
  0
TABLE
  2
APPID
  5
9
330
0
100
AcDbSymbolTable
 70
     2
  0
APPID
  5
12
330
9
100
AcDbSymbolTableRecord
100
AcDbRegAppTableRecord
  2
ACAD
 70
     0
  0
ENDTAB
  0
TABLE
  2
DIMSTYLE
  5
A
330
0
100
AcDbSymbolTable
 70
     1
  0
DIMSTYLE
105
27
330
A
100
AcDbSymbolTableRecord
100
AcDbDimStyleTableRecord
  2
ISO-25
 70
     0
  3

  4

  5

  6

  7

 40
1.0
 41
2.5
 42
0.625
 43
3.75
 44
1.25
 45
0.0
 46
0.0
 47
0.0
 48
0.0
140
2.5
141
2.5
142
0.0
143
0.03937007874016
144
1.0
145
0.0
146
1.0
147
0.625
 71
     0
 72
     0
 73
     0
 74
     0
 75
     0
 76
     0
 77
     1
 78
     8
170
     0
171
     3
172
     1
173
     0
174
     0
175
     0
176
     0
177
     0
178
     0
270
     2
271
     2
272
     2
273
     2
274
     3
340
11
275
     0
280
     0
281
     0
282
     0
283
     0
284
     8
285
     0
286
     0
287
     3
288
     0
  0
ENDTAB
  0
TABLE
  2
BLOCK_RECORD
  5
1
330
0
100
AcDbSymbolTable
 70
     1
  0
BLOCK_RECORD
  5
1F
330
1
100
AcDbSymbolTableRecord
100
AcDbBlockTableRecord
  2
*MODEL_SPACE
  0
BLOCK_RECORD
  5
1B
330
1
100
AcDbSymbolTableRecord
100
AcDbBlockTableRecord
  2
*PAPER_SPACE
  0
ENDTAB
  0
ENDSEC
  0
SECTION
  2
BLOCKS
  0
BLOCK
  5
20
330
1F
100
AcDbEntity
  8
0
100
AcDbBlockBegin
  2
*MODEL_SPACE
 70
     0
 10
0.0
 20
0.0
 30
0.0
  3
*MODEL_SPACE
  1

  0
ENDBLK
  5
21
330
1F
100
AcDbEntity
  8
0
100
AcDbBlockEnd
  0
BLOCK
  5
1C
330
1B
100
AcDbEntity
 67
     1
  8
0
100
AcDbBlockBegin
  2
*PAPER_SPACE
  1

  0
ENDBLK
  5
1D
330
1B
100
AcDbEntity
 67
     1
  8
0
100
AcDbBlockEnd
  0
ENDSEC
  0
SECTION
  2
ENTITIES
  0
SPLINE
  5
100
100
AcDbEntity
  8
0
 62
7
100
AcDbSpline
 70
8
 71
3
 72
8
 73
4
 74
0
 40
0
 40
0
 40
0
 40
0
 40
1
 40
1
 40
1
 40
1
 10
39.033222
 20
4.278932
 30
0.0
 10
38.580880
 20
4.502097
 30
0.0
 10
37.818206
 20
5.089726
 30
0.0
 10
37.338389
 20
5.584769
 30
0.0
  0
SPLINE
  5
101
100
AcDbEntity
  8
0
 62
7
100
AcDbSpline
 70
8
 71
3
 72
8
 73
4
 74
0
 40
0
 40
0
 40
0
 40
0
 40
1
 40
1
 40
1
 40
1
 10
37.338389
 20
5.584769
 30
0.0
 10
36.487470
 20
6.462697
 30
0.0
 10
36.464941
 20
6.545352
 30
0.0
 10
36.423060
 20
8.943298
 30
0.0
  0
SPLINE
  5
102
100
AcDbEntity
  8
0
 62
7
100
AcDbSpline
 70
8
 71
3
 72
8
 73
4
 74
0
 40
0
 40
0
 40
0
 40
0
 40
1
 40
1
 40
1
 40
1
 10
36.423060
 20
8.943298
 30
0.0
 10
36.395022
 20
10.548673
 30
0.0
 10
36.211417
 20
11.884771
 30
0.0
 10
35.893936
 20
12.793763
 30
0.0
  0
SPLINE
  5
103
100
AcDbEntity
  8
0
 62
7
100
AcDbSpline
 70
8
 71
3
 72
8
 73
4
 74
0
 40
0
 40
0
 40
0
 40
0
 40
1
 40
1
 40
1
 40
1
 10
35.893936
 20
12.793763
 30
0.0
 10
35.626535
 20
13.559369
 30
0.0
 10
35.364103
 20
14.142127
 30
0.0
 10
35.310755
 20
14.088779
 30
0.0
  0
SPLINE
  5
104
100
AcDbEntity
  8
0
 62
7
100
AcDbSpline
 70
8
 71
3
 72
8
 73
4
 74
0
 40
0
 40
0
 40
0
 40
0
 40
1
 40
1
 40
1
 40
1
 10
35.310755
 20
14.088779
 30
0.0
 10
35.257404
 20
14.035431
 30
0.0
 10
35.393223
 20
13.230431
 30
0.0
 10
35.612570
 20
12.299889
 30
0.0
  0
SPLINE
  5
105
100
AcDbEntity
  8
0
 62
7
100
AcDbSpline
 70
8
 71
3
 72
8
 73
4
 74
0
 40
0
 40
0
 40
0
 40
0
 40
1
 40
1
 40
1
 40
1
 10
35.612570
 20
12.299889
 30
0.0
 10
36.096705
 20
10.246048
 30
0.0
 10
36.137146
 20
7.002965
 30
0.0
 10
35.693906
 20
5.777209
 30
0.0
  0
SPLINE
  5
106
100
AcDbEntity
  8
0
 62
7
100
AcDbSpline
 70
8
 71
3
 72
8
 73
4
 74
0
 40
0
 40
0
 40
0
 40
0
 40
1
 40
1
 40
1
 40
1
 10
35.693906
 20
5.777209
 30
0.0
 10
35.400395
 20
4.965520
 30
0.0
 10
35.291739
 20
4.892971
 30
0.0
 10
34.582145
 20
5.034889
 30
0.0
  0
SPLINE
  5
107
100
AcDbEntity
  8
0
 62
7
100
AcDbSpline
 70
8
 71
3
 72
8
 73
4
 74
0
 40
0
 40
0
 40
0
 40
0
 40
1
 40
1
 40
1
 40
1
 10
34.582145
 20
5.034889
 30
0.0
 10
34.149594
 20
5.121399
 30
0.0
 10
33.534898
 20
5.437180
 30
0.0
 10
33.216154
 20
5.736624
 30
0.0
  0
SPLINE
  5
108
100
AcDbEntity
  8
0
 62
7
100
AcDbSpline
 70
8
 71
3
 72
8
 73
4
 74
0
 40
0
 40
0
 40
0
 40
0
 40
1
 40
1
 40
1
 40
1
 10
33.216154
 20
5.736624
 30
0.0
 10
32.809288
 20
6.118857
 30
0.0
 10
32.603694
 20
6.182291
 30
0.0
 10
32.526110
 20
5.949537
 30
0.0
  0
SPLINE
  5
109
100
AcDbEntity
  8
0
 62
7
100
AcDbSpline
 70
8
 71
3
 72
8
 73
4
 74
0
 40
0
 40
0
 40
0
 40
0
 40
1
 40
1
 40
1
 40
1
 10
32.526110
 20
5.949537
 30
0.0
 10
32.354552
 20
5.434864
 30
0.0
 10
31.545477
 20
5.879732
 30
0.0
 10
31.252737
 20
6.649691
 30
0.0
  0
SPLINE
  5
10a
100
AcDbEntity
  8
0
 62
7
100
AcDbSpline
 70
8
 71
3
 72
8
 73
4
 74
0
 40
0
 40
0
 40
0
 40
0
 40
1
 40
1
 40
1
 40
1
 10
31.252737
 20
6.649691
 30
0.0
 10
31.109401
 20
7.026696
 30
0.0
 10
30.992125
 20
7.625059
 30
0.0
 10
30.992125
 20
7.979389
 30
0.0
  0
SPLINE
  5
10b
100
AcDbEntity
  8
0
 62
7
100
AcDbSpline
 70
8
 71
3
 72
8
 73
4
 74
0
 40
0
 40
0
 40
0
 40
0
 40
1
 40
1
 40
1
 40
1
 10
30.992125
 20
7.979389
 30
0.0
 10
30.992125
 20
8.657569
 30
0.0
 10
30.601145
 20
8.855504
 30
0.0
 10
30.372857
 20
8.292894
 30
0.0
  0
SPLINE
  5
10c
100
AcDbEntity
  8
0
 62
7
100
AcDbSpline
 70
8
 71
3
 72
8
 73
4
 74
0
 40
0
 40
0
 40
0
 40
0
 40
1
 40
1
 40
1
 40
1
 10
30.372857
 20
8.292894
 30
0.0
 10
30.174147
 20
7.803168
 30
0.0
 10
29.712650
 20
8.551106
 30
0.0
 10
29.515774
 20
9.681956
 30
0.0
  0
SPLINE
  5
10d
100
AcDbEntity
  8
0
 62
7
100
AcDbSpline
 70
8
 71
3
 72
8
 73
4
 74
0
 40
0
 40
0
 40
0
 40
0
 40
1
 40
1
 40
1
 40
1
 10
29.515774
 20
9.681956
 30
0.0
 10
29.117340
 20
11.970509
 30
0.0
 10
28.871775
 20
12.555971
 30
0.0
 10
28.274711
 20
12.640829
 30
0.0
  0
SPLINE
  5
10e
100
AcDbEntity
  8
0
 62
7
100
AcDbSpline
 70
8
 71
3
 72
8
 73
4
 74
0
 40
0
 40
0
 40
0
 40
0
 40
1
 40
1
 40
1
 40
1
 10
28.274711
 20
12.640829
 30
0.0
 10
27.748746
 20
12.715581
 30
0.0
 10
27.694300
 20
12.853667
 30
0.0
 10
27.772193
 20
13.915289
 30
0.0
  0
SPLINE
  5
10f
100
AcDbEntity
  8
0
 62
7
100
AcDbSpline
 70
8
 71
3
 72
8
 73
4
 74
0
 40
0
 40
0
 40
0
 40
0
 40
1
 40
1
 40
1
 40
1
 10
27.772193
 20
13.915289
 30
0.0
 10
27.842938
 20
14.879436
 30
0.0
 10
27.795133
 20
15.043004
 30
0.0
 10
27.520839
 20
14.775185
 30
0.0
  0
SPLINE
  5
110
100
AcDbEntity
  8
0
 62
7
100
AcDbSpline
 70
8
 71
3
 72
8
 73
4
 74
0
 40
0
 40
0
 40
0
 40
0
 40
1
 40
1
 40
1
 40
1
 10
27.520839
 20
14.775185
 30
0.0
 10
26.869255
 20
14.138963
 30
0.0
 10
26.298052
 20
14.393638
 30
0.0
 10
26.108325
 20
15.404960
 30
0.0
  0
SPLINE
  5
111
100
AcDbEntity
  8
0
 62
7
100
AcDbSpline
 70
8
 71
3
 72
8
 73
4
 74
0
 40
0
 40
0
 40
0
 40
0
 40
1
 40
1
 40
1
 40
1
 10
26.108325
 20
15.404960
 30
0.0
 10
25.856118
 20
16.749339
 30
0.0
 10
26.252425
 20
17.031110
 30
0.0
 10
27.333721
 20
16.276201
 30
0.0
  0
SPLINE
  5
112
100
AcDbEntity
  8
0
 62
7
100
AcDbSpline
 70
8
 71
3
 72
8
 73
4
 74
0
 40
0
 40
0
 40
0
 40
0
 40
1
 40
1
 40
1
 40
1
 10
27.333721
 20
16.276201
 30
0.0
 10
28.305427
 20
15.597804
 30
0.0
 10
28.592907
 20
15.225321
 30
0.0
 10
29.053766
 20
14.047581
 30
0.0
  0
SPLINE
  5
113
100
AcDbEntity
  8
0
 62
7
100
AcDbSpline
 70
8
 71
3
 72
8
 73
4
 74
0
 40
0
 40
0
 40
0
 40
0
 40
1
 40
1
 40
1
 40
1
 10
30.847916
 20
13.495102
 30
0.0
 10
31.793582
 20
12.470215
 30
0.0
 10
32.295309
 20
11.696607
 30
0.0
 10
32.303125
 20
11.251332
 30
0.0
  0
SPLINE
  5
114
100
AcDbEntity
  8
0
 62
7
100
AcDbSpline
 70
8
 71
3
 72
8
 73
4
 74
0
 40
0
 40
0
 40
0
 40
0
 40
1
 40
1
 40
1
 40
1
 10
32.303125
 20
11.251332
 30
0.0
 10
32.320587
 20
10.255755
 30
0.0
 10
33.017571
 20
8.096779
 30
0.0
 10
33.656873
 20
7.057887
 30
0.0
  0
SPLINE
  5
115
100
AcDbEntity
  8
0
 62
7
100
AcDbSpline
 70
8
 71
3
 72
8
 73
4
 74
0
 40
0
 40
0
 40
0
 40
0
 40
1
 40
1
 40
1
 40
1
 10
33.656873
 20
7.057887
 30
0.0
 10
34.388994
 20
5.868165
 30
0.0
 10
34.689447
 20
6.325955
 30
0.0
 10
34.684486
 20
8.623623
 30
0.0
  0
SPLINE
  5
116
100
AcDbEntity
  8
0
 62
7
100
AcDbSpline
 70
8
 71
3
 72
8
 73
4
 74
0
 40
0
 40
0
 40
0
 40
0
 40
1
 40
1
 40
1
 40
1
 10
34.684486
 20
8.623623
 30
0.0
 10
34.681628
 20
9.947926
 30
0.0
 10
34.414375
 20
11.134394
 30
0.0
 10
33.522338
 20
13.782998
 30
0.0
  0
LWPOLYLINE
  5
117
100
AcDbEntity
  8
0
 62
7
100
AcDbPolyline
 90
5
 70
0
 10
29.053766
 20
14.047581
 30
0.0
 10
29.364366
 20
13.253831
 30
0.0
 10
29.384501
 20
14.156560
 30
0.0
 10
29.404635
 20
15.059290
 30
0.0
 10
30.847916
 20
13.495102
 30
0.0
  0
SPLINE
  5
118
100
AcDbEntity
  8
0
 62
7
100
AcDbSpline
 70
8
 71
3
 72
8
 73
4
 74
0
 40
0
 40
0
 40
0
 40
0
 40
1
 40
1
 40
1
 40
1
 10
32.339478
 20
15.551105
 30
0.0
 10
32.316063
 20
13.947770
 30
0.0
 10
32.290787
 20
13.886638
 30
0.0
 10
31.719742
 20
14.051555
 30
0.0
  0
SPLINE
  5
119
100
AcDbEntity
  8
0
 62
7
100
AcDbSpline
 70
8
 71
3
 72
8
 73
4
 74
0
 40
0
 40
0
 40
0
 40
0
 40
1
 40
1
 40
1
 40
1
 10
31.719742
 20
14.051555
 30
0.0
 10
30.808681
 20
14.314670
 30
0.0
 10
29.865323
 20
15.060792
 30
0.0
 10
29.191334
 20
16.051329
 30
0.0
  0
SPLINE
  5
11a
100
AcDbEntity
  8
0
 62
7
100
AcDbSpline
 70
8
 71
3
 72
8
 73
4
 74
0
 40
0
 40
0
 40
0
 40
0
 40
1
 40
1
 40
1
 40
1
 10
29.191334
 20
16.051329
 30
0.0
 10
28.366707
 20
17.263250
 30
0.0
 10
28.974119
 20
17.456878
 30
0.0
 10
29.999726
 20
16.309023
 30
0.0
  0
SPLINE
  5
11b
100
AcDbEntity
  8
0
 62
7
100
AcDbSpline
 70
8
 71
3
 72
8
 73
4
 74
0
 40
0
 40
0
 40
0
 40
0
 40
1
 40
1
 40
1
 40
1
 10
29.999726
 20
16.309023
 30
0.0
 10
30.946614
 20
15.249271
 30
0.0
 10
31.187813
 20
15.431106
 30
0.0
 10
30.719093
 20
16.851342
 30
0.0
  0
SPLINE
  5
11c
100
AcDbEntity
  8
0
 62
7
100
AcDbSpline
 70
8
 71
3
 72
8
 73
4
 74
0
 40
0
 40
0
 40
0
 40
0
 40
1
 40
1
 40
1
 40
1
 10
30.719093
 20
16.851342
 30
0.0
 10
30.401273
 20
17.814348
 30
0.0
 10
30.409102
 20
17.965150
 30
0.0
 10
30.787927
 20
18.177150
 30
0.0
  0
SPLINE
  5
11d
100
AcDbEntity
  8
0
 62
7
100
AcDbSpline
 70
8
 71
3
 72
8
 73
4
 74
0
 40
0
 40
0
 40
0
 40
0
 40
1
 40
1
 40
1
 40
1
 10
30.787927
 20
18.177150
 30
0.0
 10
31.023020
 20
18.308714
 30
0.0
 10
31.293665
 20
18.772836
 30
0.0
 10
31.389360
 20
19.208533
 30
0.0
  0
SPLINE
  5
11e
100
AcDbEntity
  8
0
 62
7
100
AcDbSpline
 70
8
 71
3
 72
8
 73
4
 74
0
 40
0
 40
0
 40
0
 40
0
 40
1
 40
1
 40
1
 40
1
 10
31.389360
 20
19.208533
 30
0.0
 10
31.613417
 20
20.228663
 30
0.0
 10
31.819072
 20
20.206941
 30
0.0
 10
32.415096
 20
19.100189
 30
0.0
  0
SPLINE
  5
11f
100
AcDbEntity
  8
0
 62
7
100
AcDbSpline
 70
8
 71
3
 72
8
 73
4
 74
0
 40
0
 40
0
 40
0
 40
0
 40
1
 40
1
 40
1
 40
1
 10
32.415096
 20
19.100189
 30
0.0
 10
32.876858
 20
18.242754
 30
0.0
 10
34.549858
 20
16.296539
 30
0.0
 10
34.825165
 20
16.296539
 30
0.0
  0
SPLINE
  5
120
100
AcDbEntity
  8
0
 62
7
100
AcDbSpline
 70
8
 71
3
 72
8
 73
4
 74
0
 40
0
 40
0
 40
0
 40
0
 40
1
 40
1
 40
1
 40
1
 10
34.825165
 20
16.296539
 30
0.0
 10
34.896676
 20
16.296539
 30
0.0
 10
34.500037
 20
17.040680
 30
0.0
 10
33.943748
 20
17.950185
 30
0.0
  0
SPLINE
  5
121
100
AcDbEntity
  8
0
 62
7
100
AcDbSpline
 70
8
 71
3
 72
8
 73
4
 74
0
 40
0
 40
0
 40
0
 40
0
 40
1
 40
1
 40
1
 40
1
 10
33.943748
 20
17.950185
 30
0.0
 10
32.357322
 20
20.543914
 30
0.0
 10
32.233730
 20
20.809056
 30
0.0
 10
32.693314
 20
20.632698
 30
0.0
  0
SPLINE
  5
122
100
AcDbEntity
  8
0
 62
7
100
AcDbSpline
 70
8
 71
3
 72
8
 73
4
 74
0
 40
0
 40
0
 40
0
 40
0
 40
1
 40
1
 40
1
 40
1
 10
32.693314
 20
20.632698
 30
0.0
 10
32.908092
 20
20.550277
 30
0.0
 10
33.447987
 20
19.915336
 30
0.0
 10
33.893085
 20
19.221715
 30
0.0
  0
SPLINE
  5
123
100
AcDbEntity
  8
0
 62
7
100
AcDbSpline
 70
8
 71
3
 72
8
 73
4
 74
0
 40
0
 40
0
 40
0
 40
0
 40
1
 40
1
 40
1
 40
1
 10
33.893085
 20
19.221715
 30
0.0
 10
34.338181
 20
18.528091
 30
0.0
 10
34.939116
 20
17.746313
 30
0.0
 10
35.228496
 20
17.484429
 30
0.0
  0
SPLINE
  5
124
100
AcDbEntity
  8
0
 62
7
100
AcDbSpline
 70
8
 71
3
 72
8
 73
4
 74
0
 40
0
 40
0
 40
0
 40
0
 40
1
 40
1
 40
1
 40
1
 10
35.228496
 20
17.484429
 30
0.0
 10
36.141668
 20
16.658019
 30
0.0
 10
35.862625
 20
17.646142
 30
0.0
 10
34.735542
 20
19.230030
 30
0.0
  0
SPLINE
  5
125
100
AcDbEntity
  8
0
 62
7
100
AcDbSpline
 70
8
 71
3
 72
8
 73
4
 74
0
 40
0
 40
0
 40
0
 40
0
 40
1
 40
1
 40
1
 40
1
 10
34.735542
 20
19.230030
 30
0.0
 10
34.175041
 20
20.017703
 30
0.0
 10
33.573910
 20
20.959821
 30
0.0
 10
33.399701
 20
21.323623
 30
0.0
  0
SPLINE
  5
126
100
AcDbEntity
  8
0
 62
7
100
AcDbSpline
 70
8
 71
3
 72
8
 73
4
 74
0
 40
0
 40
0
 40
0
 40
0
 40
1
 40
1
 40
1
 40
1
 10
33.399701
 20
21.323623
 30
0.0
 10
32.752403
 20
22.675363
 30
0.0
 10
34.545643
 20
20.348916
 30
0.0
 10
35.879696
 20
18.106218
 30
0.0
  0
SPLINE
  5
127
100
AcDbEntity
  8
0
 62
7
100
AcDbSpline
 70
8
 71
3
 72
8
 73
4
 74
0
 40
0
 40
0
 40
0
 40
0
 40
1
 40
1
 40
1
 40
1
 10
35.879696
 20
18.106218
 30
0.0
 10
38.314524
 20
14.012987
 30
0.0
 10
40.781721
 20
7.284135
 30
0.0
 10
40.781721
 20
4.736790
 30
0.0
  0
SPLINE
  5
128
100
AcDbEntity
  8
0
 62
7
100
AcDbSpline
 70
8
 71
3
 72
8
 73
4
 74
0
 40
0
 40
0
 40
0
 40
0
 40
1
 40
1
 40
1
 40
1
 10
40.781721
 20
4.736790
 30
0.0
 10
40.781721
 20
3.729633
 30
0.0
 10
40.366834
 20
3.620990
 30
0.0
 10
39.033236
 20
4.278932
 30
0.0
  0
LWPOLYLINE
  5
129
100
AcDbEntity
  8
0
 62
7
100
AcDbPolyline
 90
3
 70
0
 10
33.522338
 20
13.782998
 30
0.0
 10
32.363899
 20
17.222581
 30
0.0
 10
32.339478
 20
15.551105
 30
0.0
  0
SPLINE
  5
12a
100
AcDbEntity
  8
0
 62
7
100
AcDbSpline
 70
8
 71
3
 72
8
 73
4
 74
0
 40
0
 40
0
 40
0
 40
0
 40
1
 40
1
 40
1
 40
1
 10
39.723375
 20
6.266333
 30
0.0
 10
39.723375
 20
7.345693
 30
0.0
 10
38.784260
 20
10.056646
 30
0.0
 10
37.829821
 20
11.732477
 30
0.0
  0
SPLINE
  5
12b
100
AcDbEntity
  8
0
 62
7
100
AcDbSpline
 70
8
 71
3
 72
8
 73
4
 74
0
 40
0
 40
0
 40
0
 40
0
 40
1
 40
1
 40
1
 40
1
 10
37.829821
 20
11.732477
 30
0.0
 10
37.394708
 20
12.496461
 30
0.0
 10
36.976741
 20
13.121539
 30
0.0
 10
36.901004
 20
13.121539
 30
0.0
  0
SPLINE
  5
12c
100
AcDbEntity
  8
0
 62
7
100
AcDbSpline
 70
8
 71
3
 72
8
 73
4
 74
0
 40
0
 40
0
 40
0
 40
0
 40
1
 40
1
 40
1
 40
1
 10
36.901004
 20
13.121539
 30
0.0
 10
36.386503
 20
13.121539
 30
0.0
 10
37.802428
 20
7.505819
 30
0.0
 10
38.671466
 20
6.099688
 30
0.0
  0
SPLINE
  5
12d
100
AcDbEntity
  8
0
 62
7
100
AcDbSpline
 70
8
 71
3
 72
8
 73
4
 74
0
 40
0
 40
0
 40
0
 40
0
 40
1
 40
1
 40
1
 40
1
 10
38.671466
 20
6.099688
 30
0.0
 10
39.318356
 20
5.052997
 30
0.0
 10
39.723375
 20
5.117163
 30
0.0
 10
39.723375
 20
6.266333
 30
0.0
  0
LWPOLYLINE
  5
12e
100
AcDbEntity
  8
0
 62
7
100
AcDbPolyline
 90
1
 70
1
 10
39.033236
 20
4.278932
 30
0.0
  0
SPLINE
  5
12f
100
AcDbEntity
  8
0
 62
7
100
AcDbSpline
 70
8
 71
3
 72
8
 73
4
 74
0
 40
0
 40
0
 40
0
 40
0
 40
1
 40
1
 40
1
 40
1
 10
31.818707
 20
8.165013
 30
0.0
 10
31.557399
 20
8.424373
 30
0.0
 10
31.527009
 20
8.393983
 30
0.0
 10
31.670593
 20
8.016899
 30
0.0
  0
SPLINE
  5
130
100
AcDbEntity
  8
0
 62
7
100
AcDbSpline
 70
8
 71
3
 72
8
 73
4
 74
0
 40
0
 40
0
 40
0
 40
0
 40
1
 40
1
 40
1
 40
1
 10
31.670593
 20
8.016899
 30
0.0
 10
31.769952
 20
7.755961
 30
0.0
 10
31.917897
 20
7.609118
 30
0.0
 10
31.999359
 20
7.690580
 30
0.0
  0
SPLINE
  5
131
100
AcDbEntity
  8
0
 62
7
100
AcDbSpline
 70
8
 71
3
 72
8
 73
4
 74
0
 40
0
 40
0
 40
0
 40
0
 40
1
 40
1
 40
1
 40
1
 10
31.999359
 20
7.690580
 30
0.0
 10
32.080822
 20
7.772043
 30
0.0
 10
31.999529
 20
7.985535
 30
0.0
 10
31.818707
 20
8.165013
 30
0.0
  0
LWPOLYLINE
  5
132
100
AcDbEntity
  8
0
 62
7
100
AcDbPolyline
 90
1
 70
1
 10
39.723375
 20
6.266333
 30
0.0
  0
SPLINE
  5
133
100
AcDbEntity
  8
0
 62
7
100
AcDbSpline
 70
8
 71
3
 72
8
 73
4
 74
0
 40
0
 40
0
 40
0
 40
0
 40
1
 40
1
 40
1
 40
1
 10
41.585499
 20
8.822060
 30
0.0
 10
41.130559
 20
9.239980
 30
0.0
 10
39.948885
 20
11.267009
 30
0.0
 10
38.809157
 20
13.584560
 30
0.0
  0
SPLINE
  5
134
100
AcDbEntity
  8
0
 62
7
100
AcDbSpline
 70
8
 71
3
 72
8
 73
4
 74
0
 40
0
 40
0
 40
0
 40
0
 40
1
 40
1
 40
1
 40
1
 10
38.809157
 20
13.584560
 30
0.0
 10
37.199742
 20
16.857194
 30
0.0
 10
36.911222
 20
17.623401
 30
0.0
 10
37.281937
 20
17.640345
 30
0.0
  0
SPLINE
  5
135
100
AcDbEntity
  8
0
 62
7
100
AcDbSpline
 70
8
 71
3
 72
8
 73
4
 74
0
 40
0
 40
0
 40
0
 40
0
 40
1
 40
1
 40
1
 40
1
 10
37.281937
 20
17.640345
 30
0.0
 10
37.545402
 20
17.652384
 30
0.0
 10
37.602131
 20
17.716685
 30
0.0
 10
37.415867
 20
17.792152
 30
0.0
  0
SPLINE
  5
136
100
AcDbEntity
  8
0
 62
7
100
AcDbSpline
 70
8
 71
3
 72
8
 73
4
 74
0
 40
0
 40
0
 40
0
 40
0
 40
1
 40
1
 40
1
 40
1
 10
37.415867
 20
17.792152
 30
0.0
 10
36.946623
 20
17.982271
 30
0.0
 10
33.562679
 20
22.130290
 30
0.0
 10
33.735687
 20
22.303295
 30
0.0
  0
SPLINE
  5
137
100
AcDbEntity
  8
0
 62
7
100
AcDbSpline
 70
8
 71
3
 72
8
 73
4
 74
0
 40
0
 40
0
 40
0
 40
0
 40
1
 40
1
 40
1
 40
1
 10
33.735687
 20
22.303295
 30
0.0
 10
33.815991
 20
22.383599
 30
0.0
 10
34.599983
 20
21.719775
 30
0.0
 10
35.477892
 20
20.828130
 30
0.0
  0
SPLINE
  5
138
100
AcDbEntity
  8
0
 62
7
100
AcDbSpline
 70
8
 71
3
 72
8
 73
4
 74
0
 40
0
 40
0
 40
0
 40
0
 40
1
 40
1
 40
1
 40
1
 10
35.477892
 20
20.828130
 30
0.0
 10
37.002664
 20
19.279497
 30
0.0
 10
37.606708
 20
18.894346
 30
0.0
 10
37.606708
 20
19.470743
 30
0.0
  0
SPLINE
  5
139
100
AcDbEntity
  8
0
 62
7
100
AcDbSpline
 70
8
 71
3
 72
8
 73
4
 74
0
 40
0
 40
0
 40
0
 40
0
 40
1
 40
1
 40
1
 40
1
 10
37.606708
 20
19.470743
 30
0.0
 10
37.606708
 20
19.615825
 30
0.0
 10
36.743505
 20
20.656807
 30
0.0
 10
35.688479
 20
21.784037
 30
0.0
  0
SPLINE
  5
13a
100
AcDbEntity
  8
0
 62
7
100
AcDbSpline
 70
8
 71
3
 72
8
 73
4
 74
0
 40
0
 40
0
 40
0
 40
0
 40
1
 40
1
 40
1
 40
1
 10
35.688479
 20
21.784037
 30
0.0
 10
33.840383
 20
23.758612
 30
0.0
 10
33.880854
 20
23.732040
 30
0.0
 10
36.795382
 20
21.057230
 30
0.0
  0
SPLINE
  5
13b
100
AcDbEntity
  8
0
 62
7
100
AcDbSpline
 70
8
 71
3
 72
8
 73
4
 74
0
 40
0
 40
0
 40
0
 40
0
 40
1
 40
1
 40
1
 40
1
 10
36.795382
 20
21.057230
 30
0.0
 10
43.444390
 20
14.955099
 30
0.0
 10
45.230523
 20
12.810932
 30
0.0
 10
45.475546
 20
10.637110
 30
0.0
  0
SPLINE
  5
13c
100
AcDbEntity
  8
0
 62
7
100
AcDbSpline
 70
8
 71
3
 72
8
 73
4
 74
0
 40
0
 40
0
 40
0
 40
0
 40
1
 40
1
 40
1
 40
1
 10
45.475546
 20
10.637110
 30
0.0
 10
45.589637
 20
9.624888
 30
0.0
 10
45.511828
 20
9.360940
 30
0.0
 10
44.926919
 20
8.776031
 30
0.0
  0
SPLINE
  5
13d
100
AcDbEntity
  8
0
 62
7
100
AcDbSpline
 70
8
 71
3
 72
8
 73
4
 74
0
 40
0
 40
0
 40
0
 40
0
 40
1
 40
1
 40
1
 40
1
 10
44.926919
 20
8.776031
 30
0.0
 10
43.983738
 20
7.832849
 30
0.0
 10
42.642221
 20
7.851330
 30
0.0
 10
41.585499
 20
8.822060
 30
0.0
  0
LWPOLYLINE
  5
13e
100
AcDbEntity
  8
0
 62
7
100
AcDbPolyline
 90
1
 70
1
 10
31.818707
 20
8.165013
 30
0.0
  0
SPLINE
  5
13f
100
AcDbEntity
  8
0
 62
7
100
AcDbSpline
 70
8
 71
3
 72
8
 73
4
 74
0
 40
0
 40
0
 40
0
 40
0
 40
1
 40
1
 40
1
 40
1
 10
43.850938
 20
10.090306
 30
0.0
 10
44.129232
 20
11.199117
 30
0.0
 10
43.212853
 20
13.089692
 30
0.0
 10
41.586470
 20
14.762115
 30
0.0
  0
SPLINE
  5
140
100
AcDbEntity
  8
0
 62
7
100
AcDbSpline
 70
8
 71
3
 72
8
 73
4
 74
0
 40
0
 40
0
 40
0
 40
0
 40
1
 40
1
 40
1
 40
1
 10
41.586470
 20
14.762115
 30
0.0
 10
39.073505
 20
17.346218
 30
0.0
 10
38.525701
 20
16.607517
 30
0.0
 10
40.260064
 20
12.973484
 30
0.0
  0
SPLINE
  5
141
100
AcDbEntity
  8
0
 62
7
100
AcDbSpline
 70
8
 71
3
 72
8
 73
4
 74
0
 40
0
 40
0
 40
0
 40
0
 40
1
 40
1
 40
1
 40
1
 10
40.260064
 20
12.973484
 30
0.0
 10
41.139353
 20
11.131098
 30
0.0
 10
42.582790
 20
9.417373
 30
0.0
 10
43.255306
 20
9.417373
 30
0.0
  0
SPLINE
  5
142
100
AcDbEntity
  8
0
 62
7
100
AcDbSpline
 70
8
 71
3
 72
8
 73
4
 74
0
 40
0
 40
0
 40
0
 40
0
 40
1
 40
1
 40
1
 40
1
 10
43.255306
 20
9.417373
 30
0.0
 10
43.491774
 20
9.417373
 30
0.0
 10
43.757347
 20
9.717413
 30
0.0
 10
43.850938
 20
10.090306
 30
0.0
  0
LWPOLYLINE
  5
143
100
AcDbEntity
  8
0
 62
7
100
AcDbPolyline
 90
1
 70
1
 10
41.585499
 20
8.822060
 30
0.0
  0
SPLINE
  5
144
100
AcDbEntity
  8
0
 62
7
100
AcDbSpline
 70
8
 71
3
 72
8
 73
4
 74
0
 40
0
 40
0
 40
0
 40
0
 40
1
 40
1
 40
1
 40
1
 10
45.571704
 20
13.687742
 30
0.0
 10
45.223025
 20
13.819243
 30
0.0
 10
42.523495
 20
16.357772
 30
0.0
 10
39.572750
 20
19.328918
 30
0.0
  0
SPLINE
  5
145
100
AcDbEntity
  8
0
 62
7
100
AcDbSpline
 70
8
 71
3
 72
8
 73
4
 74
0
 40
0
 40
0
 40
0
 40
0
 40
1
 40
1
 40
1
 40
1
 10
39.572750
 20
19.328918
 30
0.0
 10
34.497634
 20
24.439123
 30
0.0
 10
33.999495
 20
25.059759
 30
0.0
 10
35.886917
 20
23.921119
 30
0.0
  0
SPLINE
  5
146
100
AcDbEntity
  8
0
 62
7
100
AcDbSpline
 70
8
 71
3
 72
8
 73
4
 74
0
 40
0
 40
0
 40
0
 40
0
 40
1
 40
1
 40
1
 40
1
 10
35.886917
 20
23.921119
 30
0.0
 10
36.323479
 20
23.657750
 30
0.0
 10
37.022611
 20
23.441821
 30
0.0
 10
37.440542
 20
23.441279
 30
0.0
  0
SPLINE
  5
147
100
AcDbEntity
  8
0
 62
7
100
AcDbSpline
 70
8
 71
3
 72
8
 73
4
 74
0
 40
0
 40
0
 40
0
 40
0
 40
1
 40
1
 40
1
 40
1
 10
37.440542
 20
23.441279
 30
0.0
 10
38.166617
 20
23.440221
 30
0.0
 10
38.183045
 20
23.466467
 30
0.0
 10
37.809869
 20
24.028490
 30
0.0
  0
SPLINE
  5
148
100
AcDbEntity
  8
0
 62
7
100
AcDbSpline
 70
8
 71
3
 72
8
 73
4
 74
0
 40
0
 40
0
 40
0
 40
0
 40
1
 40
1
 40
1
 40
1
 10
37.809869
 20
24.028490
 30
0.0
 10
37.595064
 20
24.352001
 30
0.0
 10
36.853167
 20
25.006845
 30
0.0
 10
36.161205
 20
25.483698
 30
0.0
  0
SPLINE
  5
149
100
AcDbEntity
  8
0
 62
7
100
AcDbSpline
 70
8
 71
3
 72
8
 73
4
 74
0
 40
0
 40
0
 40
0
 40
0
 40
1
 40
1
 40
1
 40
1
 10
36.161205
 20
25.483698
 30
0.0
 10
34.604841
 20
26.556242
 30
0.0
 10
35.005849
 20
26.602743
 30
0.0
 10
37.024384
 20
25.583790
 30
0.0
  0
SPLINE
  5
14a
100
AcDbEntity
  8
0
 62
7
100
AcDbSpline
 70
8
 71
3
 72
8
 73
4
 74
0
 40
0
 40
0
 40
0
 40
0
 40
1
 40
1
 40
1
 40
1
 10
37.024384
 20
25.583790
 30
0.0
 10
38.970352
 20
24.601469
 30
0.0
 10
42.973286
 20
21.510315
 30
0.0
 10
44.496265
 20
19.813839
 30
0.0
  0
SPLINE
  5
14b
100
AcDbEntity
  8
0
 62
7
100
AcDbSpline
 70
8
 71
3
 72
8
 73
4
 74
0
 40
0
 40
0
 40
0
 40
0
 40
1
 40
1
 40
1
 40
1
 10
44.496265
 20
19.813839
 30
0.0
 10
46.617324
 20
17.451152
 30
0.0
 10
47.766370
 20
14.267582
 30
0.0
 10
46.700027
 20
13.708052
 30
0.0
  0
SPLINE
  5
14c
100
AcDbEntity
  8
0
 62
7
100
AcDbSpline
 70
8
 71
3
 72
8
 73
4
 74
0
 40
0
 40
0
 40
0
 40
0
 40
1
 40
1
 40
1
 40
1
 10
46.700027
 20
13.708052
 30
0.0
 10
46.395246
 20
13.548127
 30
0.0
 10
45.962551
 20
13.540340
 30
0.0
 10
45.571704
 20
13.687732
 30
0.0
  0
LWPOLYLINE
  5
14d
100
AcDbEntity
  8
0
 62
7
100
AcDbPolyline
 90
1
 70
1
 10
43.850938
 20
10.090306
 30
0.0
  0
SPLINE
  5
14e
100
AcDbEntity
  8
0
 62
7
100
AcDbSpline
 70
8
 71
3
 72
8
 73
4
 74
0
 40
0
 40
0
 40
0
 40
0
 40
1
 40
1
 40
1
 40
1
 10
46.196022
 20
15.304352
 30
0.0
 10
45.820311
 20
16.563755
 30
0.0
 10
44.698645
 20
18.152401
 30
0.0
 10
43.317054
 20
19.381899
 30
0.0
  0
SPLINE
  5
14f
100
AcDbEntity
  8
0
 62
7
100
AcDbSpline
 70
8
 71
3
 72
8
 73
4
 74
0
 40
0
 40
0
 40
0
 40
0
 40
1
 40
1
 40
1
 40
1
 10
43.317054
 20
19.381899
 30
0.0
 10
41.741960
 20
20.783600
 30
0.0
 10
40.252542
 20
21.754526
 30
0.0
 10
40.252542
 20
21.379601
 30
0.0
  0
SPLINE
  5
150
100
AcDbEntity
  8
0
 62
7
100
AcDbSpline
 70
8
 71
3
 72
8
 73
4
 74
0
 40
0
 40
0
 40
0
 40
0
 40
1
 40
1
 40
1
 40
1
 10
40.252542
 20
21.379601
 30
0.0
 10
40.252542
 20
20.980008
 30
0.0
 10
42.261965
 20
18.004462
 30
0.0
 10
43.339390
 20
16.808609
 30
0.0
  0
SPLINE
  5
151
100
AcDbEntity
  8
0
 62
7
100
AcDbSpline
 70
8
 71
3
 72
8
 73
4
 74
0
 40
0
 40
0
 40
0
 40
0
 40
1
 40
1
 40
1
 40
1
 10
43.339390
 20
16.808609
 30
0.0
 10
44.299484
 20
15.742983
 30
0.0
 10
45.683620
 20
14.712196
 30
0.0
 10
46.157351
 20
14.710029
 30
0.0
  0
SPLINE
  5
152
100
AcDbEntity
  8
0
 62
7
100
AcDbSpline
 70
8
 71
3
 72
8
 73
4
 74
0
 40
0
 40
0
 40
0
 40
0
 40
1
 40
1
 40
1
 40
1
 10
46.157351
 20
14.710029
 30
0.0
 10
46.276297
 20
14.709500
 30
0.0
 10
46.293699
 20
14.976930
 30
0.0
 10
46.196022
 20
15.304352
 30
0.0
  0
LWPOLYLINE
  5
153
100
AcDbEntity
  8
0
 62
7
100
AcDbPolyline
 90
1
 70
1
 10
45.571704
 20
13.687732
 30
0.0
  0
SPLINE
  5
154
100
AcDbEntity
  8
0
 62
7
100
AcDbSpline
 70
8
 71
3
 72
8
 73
4
 74
0
 40
0
 40
0
 40
0
 40
0
 40
1
 40
1
 40
1
 40
1
 10
28.144285
 20
17.624936
 30
0.0
 10
29.236834
 20
19.184813
 30
0.0
 10
30.488022
 20
21.607243
 30
0.0
 10
31.216253
 20
23.572581
 30
0.0
  0
SPLINE
  5
155
100
AcDbEntity
  8
0
 62
7
100
AcDbSpline
 70
8
 71
3
 72
8
 73
4
 74
0
 40
0
 40
0
 40
0
 40
0
 40
1
 40
1
 40
1
 40
1
 10
31.216253
 20
23.572581
 30
0.0
 10
32.466584
 20
26.946953
 30
0.0
 10
33.637958
 20
30.958052
 30
0.0
 10
33.637958
 20
31.865144
 30
0.0
  0
SPLINE
  5
156
100
AcDbEntity
  8
0
 62
7
100
AcDbSpline
 70
8
 71
3
 72
8
 73
4
 74
0
 40
0
 40
0
 40
0
 40
0
 40
1
 40
1
 40
1
 40
1
 10
33.637958
 20
31.865144
 30
0.0
 10
33.637958
 20
32.324701
 30
0.0
 10
33.773883
 20
32.700706
 30
0.0
 10
33.940009
 20
32.700706
 30
0.0
  0
SPLINE
  5
157
100
AcDbEntity
  8
0
 62
7
100
AcDbSpline
 70
8
 71
3
 72
8
 73
4
 74
0
 40
0
 40
0
 40
0
 40
0
 40
1
 40
1
 40
1
 40
1
 10
33.940009
 20
32.700706
 30
0.0
 10
34.453401
 20
32.700706
 30
0.0
 10
34.043781
 20
27.308921
 30
0.0
 10
33.367144
 20
25.160081
 30
0.0
  0
SPLINE
  5
158
100
AcDbEntity
  8
0
 62
7
100
AcDbSpline
 70
8
 71
3
 72
8
 73
4
 74
0
 40
0
 40
0
 40
0
 40
0
 40
1
 40
1
 40
1
 40
1
 10
33.367144
 20
25.160081
 30
0.0
 10
32.326530
 20
21.855353
 30
0.0
 10
30.479513
 20
18.944788
 30
0.0
 10
28.563234
 20
17.589982
 30
0.0
  0
LWPOLYLINE
  5
159
100
AcDbEntity
  8
0
 62
7
100
AcDbPolyline
 90
1
 70
1
 10
46.196022
 20
15.304352
 30
0.0
  0
SPLINE
  5
15a
100
AcDbEntity
  8
0
 62
7
100
AcDbSpline
 70
8
 71
3
 72
8
 73
4
 74
0
 40
0
 40
0
 40
0
 40
0
 40
1
 40
1
 40
1
 40
1
 10
26.275748
 20
17.967238
 30
0.0
 10
25.959338
 20
18.304039
 30
0.0
 10
25.700459
 20
18.657091
 30
0.0
 10
25.700459
 20
18.751799
 30
0.0
  0
SPLINE
  5
15b
100
AcDbEntity
  8
0
 62
7
100
AcDbSpline
 70
8
 71
3
 72
8
 73
4
 74
0
 40
0
 40
0
 40
0
 40
0
 40
1
 40
1
 40
1
 40
1
 10
25.700459
 20
18.751799
 30
0.0
 10
25.700459
 20
18.846506
 30
0.0
 10
25.347375
 20
19.480752
 30
0.0
 10
24.915826
 20
20.161231
 30
0.0
  0
SPLINE
  5
15c
100
AcDbEntity
  8
0
 62
7
100
AcDbSpline
 70
8
 71
3
 72
8
 73
4
 74
0
 40
0
 40
0
 40
0
 40
0
 40
1
 40
1
 40
1
 40
1
 10
24.915826
 20
20.161231
 30
0.0
 10
22.617647
 20
23.785087
 30
0.0
 10
21.989691
 20
29.937038
 30
0.0
 10
23.571963
 20
33.326798
 30
0.0
  0
LWPOLYLINE
  5
15d
100
AcDbEntity
  8
0
 62
7
100
AcDbPolyline
 90
3
 70
0
 10
28.563234
 20
17.589982
 30
0.0
 10
27.684833
 20
16.968957
 30
0.0
 10
28.144285
 20
17.624936
 30
0.0
  0
SPLINE
  5
15e
100
AcDbEntity
  8
0
 62
7
100
AcDbSpline
 70
8
 71
3
 72
8
 73
4
 74
0
 40
0
 40
0
 40
0
 40
0
 40
1
 40
1
 40
1
 40
1
 10
23.899281
 20
33.229873
 30
0.0
 10
23.798523
 20
32.575029
 30
0.0
 10
23.726103
 20
30.491435
 30
0.0
 10
23.738348
 20
28.599664
 30
0.0
  0
SPLINE
  5
15f
100
AcDbEntity
  8
0
 62
7
100
AcDbSpline
 70
8
 71
3
 72
8
 73
4
 74
0
 40
0
 40
0
 40
0
 40
0
 40
1
 40
1
 40
1
 40
1
 10
23.738348
 20
28.599664
 30
0.0
 10
23.763272
 20
24.747575
 30
0.0
 10
24.144997
 20
23.185694
 30
0.0
 10
25.985381
 20
19.405394
 30
0.0
  0
SPLINE
  5
160
100
AcDbEntity
  8
0
 62
7
100
AcDbSpline
 70
8
 71
3
 72
8
 73
4
 74
0
 40
0
 40
0
 40
0
 40
0
 40
1
 40
1
 40
1
 40
1
 10
25.985381
 20
19.405394
 30
0.0
 10
26.534427
 20
18.277607
 30
0.0
 10
26.953811
 20
17.354873
 30
0.0
 10
26.917340
 20
17.354873
 30
0.0
  0
SPLINE
  5
161
100
AcDbEntity
  8
0
 62
7
100
AcDbSpline
 70
8
 71
3
 72
8
 73
4
 74
0
 40
0
 40
0
 40
0
 40
0
 40
1
 40
1
 40
1
 40
1
 10
26.917340
 20
17.354873
 30
0.0
 10
26.880870
 20
17.354873
 30
0.0
 10
26.592154
 20
17.630436
 30
0.0
 10
26.275748
 20
17.967238
 30
0.0
  0
LWPOLYLINE
  5
162
100
AcDbEntity
  8
0
 62
7
100
AcDbPolyline
 90
3
 70
0
 10
23.571963
 20
33.326798
 30
0.0
 10
24.082481
 20
34.420498
 30
0.0
 10
23.899281
 20
33.229873
 30
0.0
  0
SPLINE
  5
163
100
AcDbEntity
  8
0
 62
7
100
AcDbSpline
 70
8
 71
3
 72
8
 73
4
 74
0
 40
0
 40
0
 40
0
 40
0
 40
1
 40
1
 40
1
 40
1
 10
26.903796
 20
19.349633
 30
0.0
 10
25.431999
 20
22.872142
 30
0.0
 10
24.248357
 20
31.005775
 30
0.0
 10
24.883883
 20
33.229873
 30
0.0
  0
SPLINE
  5
164
100
AcDbEntity
  8
0
 62
7
100
AcDbSpline
 70
8
 71
3
 72
8
 73
4
 74
0
 40
0
 40
0
 40
0
 40
0
 40
1
 40
1
 40
1
 40
1
 10
24.883883
 20
33.229873
 30
0.0
 10
25.020964
 20
33.709610
 30
0.0
 10
25.120474
 20
33.343990
 30
0.0
 10
25.246087
 20
31.899037
 30
0.0
  0
SPLINE
  5
165
100
AcDbEntity
  8
0
 62
7
100
AcDbSpline
 70
8
 71
3
 72
8
 73
4
 74
0
 40
0
 40
0
 40
0
 40
0
 40
1
 40
1
 40
1
 40
1
 10
25.246087
 20
31.899037
 30
0.0
 10
25.432875
 20
29.750398
 30
0.0
 10
26.469382
 20
25.831850
 30
0.0
 10
27.257052
 20
24.296523
 30
0.0
  0
LWPOLYLINE
  5
166
100
AcDbEntity
  8
0
 62
7
100
AcDbPolyline
 90
1
 70
1
 10
26.275748
 20
17.967238
 30
0.0
  0
SPLINE
  5
167
100
AcDbEntity
  8
0
 62
7
100
AcDbSpline
 70
8
 71
3
 72
8
 73
4
 74
0
 40
0
 40
0
 40
0
 40
0
 40
1
 40
1
 40
1
 40
1
 10
28.714785
 20
24.650377
 30
0.0
 10
29.734944
 20
26.020440
 30
0.0
 10
32.579625
 20
31.645011
 30
0.0
 10
32.579625
 20
32.292025
 30
0.0
  0
SPLINE
  5
168
100
AcDbEntity
  8
0
 62
7
100
AcDbSpline
 70
8
 71
3
 72
8
 73
4
 74
0
 40
0
 40
0
 40
0
 40
0
 40
1
 40
1
 40
1
 40
1
 10
32.579625
 20
32.292025
 30
0.0
 10
32.579625
 20
32.499623
 30
0.0
 10
32.711419
 20
32.750929
 30
0.0
 10
32.872500
 20
32.850484
 30
0.0
  0
SPLINE
  5
169
100
AcDbEntity
  8
0
 62
7
100
AcDbSpline
 70
8
 71
3
 72
8
 73
4
 74
0
 40
0
 40
0
 40
0
 40
0
 40
1
 40
1
 40
1
 40
1
 10
32.872500
 20
32.850484
 30
0.0
 10
33.970719
 20
33.529220
 30
0.0
 10
29.990547
 20
22.679790
 30
0.0
 10
27.877614
 20
19.235071
 30
0.0
  0
LWPOLYLINE
  5
16a
100
AcDbEntity
  8
0
 62
7
100
AcDbPolyline
 90
3
 70
0
 10
27.257052
 20
24.296523
 30
0.0
 10
27.744227
 20
23.346921
 30
0.0
 10
28.714785
 20
24.650377
 30
0.0
  0
SPLINE
  5
16b
100
AcDbEntity
  8
0
 62
7
100
AcDbSpline
 70
8
 71
3
 72
8
 73
4
 74
0
 40
0
 40
0
 40
0
 40
0
 40
1
 40
1
 40
1
 40
1
 10
48.188330
 20
19.207469
 30
0.0
 10
46.967812
 20
19.545816
 30
0.0
 10
45.708194
 20
20.314965
 30
0.0
 10
40.439538
 20
23.939050
 30
0.0
  0
SPLINE
  5
16c
100
AcDbEntity
  8
0
 62
7
100
AcDbSpline
 70
8
 71
3
 72
8
 73
4
 74
0
 40
0
 40
0
 40
0
 40
0
 40
1
 40
1
 40
1
 40
1
 10
40.439538
 20
23.939050
 30
0.0
 10
36.722116
 20
26.496108
 30
0.0
 10
35.358253
 20
27.565707
 30
0.0
 10
35.739096
 20
27.625344
 30
0.0
  0
SPLINE
  5
16d
100
AcDbEntity
  8
0
 62
7
100
AcDbSpline
 70
8
 71
3
 72
8
 73
4
 74
0
 40
0
 40
0
 40
0
 40
0
 40
1
 40
1
 40
1
 40
1
 10
35.739096
 20
27.625344
 30
0.0
 10
36.034184
 20
27.671551
 30
0.0
 10
36.542072
 20
27.522723
 30
0.0
 10
36.867743
 20
27.294615
 30
0.0
  0
SPLINE
  5
16e
100
AcDbEntity
  8
0
 62
7
100
AcDbSpline
 70
8
 71
3
 72
8
 73
4
 74
0
 40
0
 40
0
 40
0
 40
0
 40
1
 40
1
 40
1
 40
1
 10
36.867743
 20
27.294615
 30
0.0
 10
37.193411
 20
27.066507
 30
0.0
 10
37.686078
 20
26.879873
 30
0.0
 10
37.962560
 20
26.879873
 30
0.0
  0
SPLINE
  5
16f
100
AcDbEntity
  8
0
 62
7
100
AcDbSpline
 70
8
 71
3
 72
8
 73
4
 74
0
 40
0
 40
0
 40
0
 40
0
 40
1
 40
1
 40
1
 40
1
 10
37.962560
 20
26.879873
 30
0.0
 10
38.781495
 20
26.879873
 30
0.0
 10
37.976371
 20
27.633824
 30
0.0
 10
36.424582
 20
28.320100
 30
0.0
  0
LWPOLYLINE
  5
170
100
AcDbEntity
  8
0
 62
7
100
AcDbPolyline
 90
3
 70
0
 10
27.877614
 20
19.235071
 30
0.0
 10
27.326841
 20
18.337144
 30
0.0
 10
26.903796
 20
19.349633
 30
0.0
  0
SPLINE
  5
171
100
AcDbEntity
  8
0
 62
7
100
AcDbSpline
 70
8
 71
3
 72
8
 73
4
 74
0
 40
0
 40
0
 40
0
 40
0
 40
1
 40
1
 40
1
 40
1
 10
36.264191
 20
38.094587
 30
0.0
 10
37.586957
 20
40.124843
 30
0.0
 10
37.678640
 20
40.551767
 30
0.0
 10
36.904565
 20
41.076438
 30
0.0
  0
SPLINE
  5
172
100
AcDbEntity
  8
0
 62
7
100
AcDbSpline
 70
8
 71
3
 72
8
 73
4
 74
0
 40
0
 40
0
 40
0
 40
0
 40
1
 40
1
 40
1
 40
1
 10
36.904565
 20
41.076438
 30
0.0
 10
36.356949
 20
41.447617
 30
0.0
 10
36.336301
 20
41.428831
 30
0.0
 10
36.375398
 20
40.594971
 30
0.0
  0
SPLINE
  5
173
100
AcDbEntity
  8
0
 62
7
100
AcDbSpline
 70
8
 71
3
 72
8
 73
4
 74
0
 40
0
 40
0
 40
0
 40
0
 40
1
 40
1
 40
1
 40
1
 10
36.375398
 20
40.594971
 30
0.0
 10
36.411919
 20
39.816013
 30
0.0
 10
36.315661
 20
39.693699
 30
0.0
 10
35.434363
 20
39.399239
 30
0.0
  0
SPLINE
  5
174
100
AcDbEntity
  8
0
 62
7
100
AcDbSpline
 70
8
 71
3
 72
8
 73
4
 74
0
 40
0
 40
0
 40
0
 40
0
 40
1
 40
1
 40
1
 40
1
 10
35.434363
 20
39.399239
 30
0.0
 10
34.624425
 20
39.128621
 30
0.0
 10
34.324727
 20
39.137590
 30
0.0
 10
33.721604
 20
39.450494
 30
0.0
  0
SPLINE
  5
175
100
AcDbEntity
  8
0
 62
7
100
AcDbSpline
 70
8
 71
3
 72
8
 73
4
 74
0
 40
0
 40
0
 40
0
 40
0
 40
1
 40
1
 40
1
 40
1
 10
33.721604
 20
39.450494
 30
0.0
 10
33.319530
 20
39.659092
 30
0.0
 10
32.481872
 20
39.906046
 30
0.0
 10
31.860138
 20
39.999280
 30
0.0
  0
SPLINE
  5
176
100
AcDbEntity
  8
0
 62
7
100
AcDbSpline
 70
8
 71
3
 72
8
 73
4
 74
0
 40
0
 40
0
 40
0
 40
0
 40
1
 40
1
 40
1
 40
1
 10
31.860138
 20
39.999280
 30
0.0
 10
30.814388
 20
40.156098
 30
0.0
 10
30.623214
 20
40.320788
 30
0.0
 10
29.307861
 20
42.197935
 30
0.0
  0
SPLINE
  5
177
100
AcDbEntity
  8
0
 62
7
100
AcDbSpline
 70
8
 71
3
 72
8
 73
4
 74
0
 40
0
 40
0
 40
0
 40
0
 40
1
 40
1
 40
1
 40
1
 10
29.307861
 20
42.197935
 30
0.0
 10
28.525840
 20
43.313964
 30
0.0
 10
27.443607
 20
44.615505
 30
0.0
 10
26.902899
 20
45.090253
 30
0.0
  0
SPLINE
  5
178
100
AcDbEntity
  8
0
 62
7
100
AcDbSpline
 70
8
 71
3
 72
8
 73
4
 74
0
 40
0
 40
0
 40
0
 40
0
 40
1
 40
1
 40
1
 40
1
 10
26.902899
 20
45.090253
 30
0.0
 10
26.088362
 20
45.805428
 30
0.0
 10
25.975774
 20
46.020877
 30
0.0
 10
26.246262
 20
46.346796
 30
0.0
  0
SPLINE
  5
179
100
AcDbEntity
  8
0
 62
7
100
AcDbSpline
 70
8
 71
3
 72
8
 73
4
 74
0
 40
0
 40
0
 40
0
 40
0
 40
1
 40
1
 40
1
 40
1
 10
26.246262
 20
46.346796
 30
0.0
 10
26.511607
 20
46.666520
 30
0.0
 10
26.478693
 20
46.811338
 30
0.0
 10
26.070447
 20
47.120353
 30
0.0
  0
SPLINE
  5
17a
100
AcDbEntity
  8
0
 62
7
100
AcDbSpline
 70
8
 71
3
 72
8
 73
4
 74
0
 40
0
 40
0
 40
0
 40
0
 40
1
 40
1
 40
1
 40
1
 10
26.070447
 20
47.120353
 30
0.0
 10
25.794190
 20
47.329458
 30
0.0
 10
25.479211
 20
47.504330
 30
0.0
 10
25.370489
 20
47.508958
 30
0.0
  0
SPLINE
  5
17b
100
AcDbEntity
  8
0
 62
7
100
AcDbSpline
 70
8
 71
3
 72
8
 73
4
 74
0
 40
0
 40
0
 40
0
 40
0
 40
1
 40
1
 40
1
 40
1
 10
25.370489
 20
47.508958
 30
0.0
 10
25.261769
 20
47.513586
 30
0.0
 10
24.696222
 20
47.947946
 30
0.0
 10
24.113718
 20
48.474202
 30
0.0
  0
SPLINE
  5
17c
100
AcDbEntity
  8
0
 62
7
100
AcDbSpline
 70
8
 71
3
 72
8
 73
4
 74
0
 40
0
 40
0
 40
0
 40
0
 40
1
 40
1
 40
1
 40
1
 10
24.113718
 20
48.474202
 30
0.0
 10
23.112585
 20
49.378669
 30
0.0
 10
23.054625
 20
49.513977
 30
0.0
 10
23.054625
 20
50.946737
 30
0.0
  0
SPLINE
  5
17d
100
AcDbEntity
  8
0
 62
7
100
AcDbSpline
 70
8
 71
3
 72
8
 73
4
 74
0
 40
0
 40
0
 40
0
 40
0
 40
1
 40
1
 40
1
 40
1
 10
23.054625
 20
50.946737
 30
0.0
 10
23.054625
 20
52.126423
 30
0.0
 10
22.937314
 20
52.568608
 30
0.0
 10
22.525459
 20
52.941331
 30
0.0
  0
SPLINE
  5
17e
100
AcDbEntity
  8
0
 62
7
100
AcDbSpline
 70
8
 71
3
 72
8
 73
4
 74
0
 40
0
 40
0
 40
0
 40
0
 40
1
 40
1
 40
1
 40
1
 10
22.525459
 20
52.941331
 30
0.0
 10
21.937401
 20
53.473516
 30
0.0
 10
21.823437
 20
54.294824
 30
0.0
 10
22.314914
 20
54.458650
 30
0.0
  0
SPLINE
  5
17f
100
AcDbEntity
  8
0
 62
7
100
AcDbSpline
 70
8
 71
3
 72
8
 73
4
 74
0
 40
0
 40
0
 40
0
 40
0
 40
1
 40
1
 40
1
 40
1
 10
22.314914
 20
54.458650
 30
0.0
 10
22.679862
 20
54.580298
 30
0.0
 10
21.301478
 20
55.877799
 30
0.0
 10
18.270096
 20
58.266122
 30
0.0
  0
SPLINE
  5
180
100
AcDbEntity
  8
0
 62
7
100
AcDbSpline
 70
8
 71
3
 72
8
 73
4
 74
0
 40
0
 40
0
 40
0
 40
0
 40
1
 40
1
 40
1
 40
1
 10
18.270096
 20
58.266122
 30
0.0
 10
14.624482
 20
61.138378
 30
0.0
 10
11.304453
 20
62.907346
 30
0.0
 10
7.668171
 20
63.915012
 30
0.0
  0
SPLINE
  5
181
100
AcDbEntity
  8
0
 62
7
100
AcDbSpline
 70
8
 71
3
 72
8
 73
4
 74
0
 40
0
 40
0
 40
0
 40
0
 40
1
 40
1
 40
1
 40
1
 10
7.668171
 20
63.915012
 30
0.0
 10
6.604956
 20
64.209644
 30
0.0
 10
5.698705
 20
64.450706
 30
0.0
 10
5.654281
 20
64.450706
 30
0.0
  0
SPLINE
  5
182
100
AcDbEntity
  8
0
 62
7
100
AcDbSpline
 70
8
 71
3
 72
8
 73
4
 74
0
 40
0
 40
0
 40
0
 40
0
 40
1
 40
1
 40
1
 40
1
 10
5.654281
 20
64.450706
 30
0.0
 10
5.487054
 20
64.450706
 30
0.0
 10
6.224099
 20
63.231009
 30
0.0
 10
6.834992
 20
62.496806
 30
0.0
  0
SPLINE
  5
183
100
AcDbEntity
  8
0
 62
7
100
AcDbSpline
 70
8
 71
3
 72
8
 73
4
 74
0
 40
0
 40
0
 40
0
 40
0
 40
1
 40
1
 40
1
 40
1
 10
6.834992
 20
62.496806
 30
0.0
 10
8.388806
 20
60.629357
 30
0.0
 10
12.181073
 20
58.128360
 30
0.0
 10
17.558653
 20
55.424567
 30
0.0
  0
SPLINE
  5
184
100
AcDbEntity
  8
0
 62
7
100
AcDbSpline
 70
8
 71
3
 72
8
 73
4
 74
0
 40
0
 40
0
 40
0
 40
0
 40
1
 40
1
 40
1
 40
1
 10
17.558653
 20
55.424567
 30
0.0
 10
18.719782
 20
54.840761
 30
0.0
 10
19.616521
 20
54.309823
 30
0.0
 10
19.551402
 20
54.244704
 30
0.0
  0
SPLINE
  5
185
100
AcDbEntity
  8
0
 62
7
100
AcDbSpline
 70
8
 71
3
 72
8
 73
4
 74
0
 40
0
 40
0
 40
0
 40
0
 40
1
 40
1
 40
1
 40
1
 10
19.551402
 20
54.244704
 30
0.0
 10
19.201239
 20
53.894542
 30
0.0
 10
15.533236
 20
55.753105
 30
0.0
 10
11.016084
 20
58.569515
 30
0.0
  0
SPLINE
  5
186
100
AcDbEntity
  8
0
 62
7
100
AcDbSpline
 70
8
 71
3
 72
8
 73
4
 74
0
 40
0
 40
0
 40
0
 40
0
 40
1
 40
1
 40
1
 40
1
 10
11.016084
 20
58.569515
 30
0.0
 10
9.453169
 20
59.543981
 30
0.0
 10
7.708792
 20
59.961160
 30
0.0
 10
7.708792
 20
59.360474
 30
0.0
  0
SPLINE
  5
187
100
AcDbEntity
  8
0
 62
7
100
AcDbSpline
 70
8
 71
3
 72
8
 73
4
 74
0
 40
0
 40
0
 40
0
 40
0
 40
1
 40
1
 40
1
 40
1
 10
7.708792
 20
59.360474
 30
0.0
 10
7.708792
 20
58.705079
 30
0.0
 10
9.206627
 20
56.864557
 30
0.0
 10
10.405724
 20
56.046516
 30
0.0
  0
SPLINE
  5
188
100
AcDbEntity
  8
0
 62
7
100
AcDbSpline
 70
8
 71
3
 72
8
 73
4
 74
0
 40
0
 40
0
 40
0
 40
0
 40
1
 40
1
 40
1
 40
1
 10
10.405724
 20
56.046516
 30
0.0
 10
11.765394
 20
55.118930
 30
0.0
 10
14.204617
 20
54.132242
 30
0.0
 10
17.101500
 20
53.338012
 30
0.0
  0
SPLINE
  5
189
100
AcDbEntity
  8
0
 62
7
100
AcDbSpline
 70
8
 71
3
 72
8
 73
4
 74
0
 40
0
 40
0
 40
0
 40
0
 40
1
 40
1
 40
1
 40
1
 10
17.101500
 20
53.338012
 30
0.0
 10
19.706310
 20
52.623860
 30
0.0
 10
20.201565
 20
52.243700
 30
0.0
 10
18.271866
 20
52.439635
 30
0.0
  0
SPLINE
  5
18a
100
AcDbEntity
  8
0
 62
7
100
AcDbSpline
 70
8
 71
3
 72
8
 73
4
 74
0
 40
0
 40
0
 40
0
 40
0
 40
1
 40
1
 40
1
 40
1
 10
18.271866
 20
52.439635
 30
0.0
 10
16.236797
 20
52.646270
 30
0.0
 10
13.456794
 20
53.499573
 30
0.0
 10
11.331094
 20
54.570058
 30
0.0
  0
SPLINE
  5
18b
100
AcDbEntity
  8
0
 62
7
100
AcDbSpline
 70
8
 71
3
 72
8
 73
4
 74
0
 40
0
 40
0
 40
0
 40
0
 40
1
 40
1
 40
1
 40
1
 10
11.331094
 20
54.570058
 30
0.0
 10
10.327646
 20
55.075386
 30
0.0
 10
9.441892
 20
55.424083
 30
0.0
 10
9.362750
 20
55.344941
 30
0.0
  0
SPLINE
  5
18c
100
AcDbEntity
  8
0
 62
7
100
AcDbSpline
 70
8
 71
3
 72
8
 73
4
 74
0
 40
0
 40
0
 40
0
 40
0
 40
1
 40
1
 40
1
 40
1
 10
9.362750
 20
55.344941
 30
0.0
 10
9.283608
 20
55.265799
 30
0.0
 10
9.529117
 20
54.732208
 30
0.0
 10
9.908326
 20
54.159184
 30
0.0
  0
SPLINE
  5
18d
100
AcDbEntity
  8
0
 62
7
100
AcDbSpline
 70
8
 71
3
 72
8
 73
4
 74
0
 40
0
 40
0
 40
0
 40
0
 40
1
 40
1
 40
1
 40
1
 10
9.908326
 20
54.159184
 30
0.0
 10
10.390664
 20
53.430323
 30
0.0
 10
11.097811
 20
52.872420
 30
0.0
 10
12.262150
 20
52.302137
 30
0.0
  0
SPLINE
  5
18e
100
AcDbEntity
  8
0
 62
7
100
AcDbSpline
 70
8
 71
3
 72
8
 73
4
 74
0
 40
0
 40
0
 40
0
 40
0
 40
1
 40
1
 40
1
 40
1
 10
12.262150
 20
52.302137
 30
0.0
 10
13.742946
 20
51.576856
 30
0.0
 10
14.800377
 20
51.263165
 30
0.0
 10
19.350459
 20
50.199358
 30
0.0
  0
SPLINE
  5
18f
100
AcDbEntity
  8
0
 62
7
100
AcDbSpline
 70
8
 71
3
 72
8
 73
4
 74
0
 40
0
 40
0
 40
0
 40
0
 40
1
 40
1
 40
1
 40
1
 10
19.350459
 20
50.199358
 30
0.0
 10
20.418984
 20
49.949538
 30
0.0
 10
20.296884
 20
49.929916
 30
0.0
 10
18.159834
 20
50.008028
 30
0.0
  0
SPLINE
  5
190
100
AcDbEntity
  8
0
 62
7
100
AcDbSpline
 70
8
 71
3
 72
8
 73
4
 74
0
 40
0
 40
0
 40
0
 40
0
 40
1
 40
1
 40
1
 40
1
 10
18.159834
 20
50.008028
 30
0.0
 10
16.708801
 20
50.061065
 30
0.0
 10
15.019341
 20
50.322415
 30
0.0
 10
13.835010
 20
50.677054
 30
0.0
  0
SPLINE
  5
191
100
AcDbEntity
  8
0
 62
7
100
AcDbSpline
 70
8
 71
3
 72
8
 73
4
 74
0
 40
0
 40
0
 40
0
 40
0
 40
1
 40
1
 40
1
 40
1
 10
13.835010
 20
50.677054
 30
0.0
 10
12.766043
 20
50.997148
 30
0.0
 10
11.828807
 20
51.196416
 30
0.0
 10
11.752263
 20
51.119872
 30
0.0
  0
SPLINE
  5
192
100
AcDbEntity
  8
0
 62
7
100
AcDbSpline
 70
8
 71
3
 72
8
 73
4
 74
0
 40
0
 40
0
 40
0
 40
0
 40
1
 40
1
 40
1
 40
1
 10
11.752263
 20
51.119872
 30
0.0
 10
11.454009
 20
50.821616
 30
0.0
 10
13.237803
 20
49.397187
 30
0.0
 10
14.251329
 20
49.124273
 30
0.0
  0
SPLINE
  5
193
100
AcDbEntity
  8
0
 62
7
100
AcDbSpline
 70
8
 71
3
 72
8
 73
4
 74
0
 40
0
 40
0
 40
0
 40
0
 40
1
 40
1
 40
1
 40
1
 10
14.251329
 20
49.124273
 30
0.0
 10
14.839779
 20
48.965820
 30
0.0
 10
16.733827
 20
48.742501
 30
0.0
 10
18.460326
 20
48.628008
 30
0.0
  0
LWPOLYLINE
  5
194
100
AcDbEntity
  8
0
 62
7
100
AcDbPolyline
 90
5
 70
0
 10
36.424582
 20
28.320100
 30
0.0
 10
35.088986
 20
28.910764
 30
0.0
 10
35.108803
 20
32.631203
 30
0.0
 10
35.128621
 20
36.351641
 30
0.0
 10
36.264191
 20
38.094587
 30
0.0
  0
SPLINE
  5
195
100
AcDbEntity
  8
0
 62
7
100
AcDbSpline
 70
8
 71
3
 72
8
 73
4
 74
0
 40
0
 40
0
 40
0
 40
0
 40
1
 40
1
 40
1
 40
1
 10
20.057084
 20
48.077783
 30
0.0
 10
18.566858
 20
47.747285
 30
0.0
 10
15.302873
 20
47.951862
 30
0.0
 10
13.982552
 20
48.458517
 30
0.0
  0
SPLINE
  5
196
100
AcDbEntity
  8
0
 62
7
100
AcDbSpline
 70
8
 71
3
 72
8
 73
4
 74
0
 40
0
 40
0
 40
0
 40
0
 40
1
 40
1
 40
1
 40
1
 10
13.982552
 20
48.458517
 30
0.0
 10
13.263386
 20
48.734487
 30
0.0
 10
13.453791
 20
48.108346
 30
0.0
 10
14.246776
 20
47.589618
 30
0.0
  0
SPLINE
  5
197
100
AcDbEntity
  8
0
 62
7
100
AcDbSpline
 70
8
 71
3
 72
8
 73
4
 74
0
 40
0
 40
0
 40
0
 40
0
 40
1
 40
1
 40
1
 40
1
 10
14.246776
 20
47.589618
 30
0.0
 10
14.842014
 20
47.200245
 30
0.0
 10
15.559424
 20
47.120498
 30
0.0
 10
18.466981
 20
47.120498
 30
0.0
  0
SPLINE
  5
198
100
AcDbEntity
  8
0
 62
7
100
AcDbSpline
 70
8
 71
3
 72
8
 73
4
 74
0
 40
0
 40
0
 40
0
 40
0
 40
1
 40
1
 40
1
 40
1
 10
18.466981
 20
47.120498
 30
0.0
 10
20.546156
 20
47.120498
 30
0.0
 10
21.873086
 20
47.023588
 30
0.0
 10
21.731516
 20
46.882077
 30
0.0
  0
SPLINE
  5
199
100
AcDbEntity
  8
0
 62
7
100
AcDbSpline
 70
8
 71
3
 72
8
 73
4
 74
0
 40
0
 40
0
 40
0
 40
0
 40
1
 40
1
 40
1
 40
1
 10
21.731516
 20
46.882077
 30
0.0
 10
21.409552
 20
46.560251
 30
0.0
 10
19.293150
 20
46.229521
 30
0.0
 10
17.432230
 20
46.210228
 30
0.0
  0
SPLINE
  5
19a
100
AcDbEntity
  8
0
 62
7
100
AcDbSpline
 70
8
 71
3
 72
8
 73
4
 74
0
 40
0
 40
0
 40
0
 40
0
 40
1
 40
1
 40
1
 40
1
 10
17.432230
 20
46.210228
 30
0.0
 10
15.676105
 20
46.192022
 30
0.0
 10
15.467918
 20
45.823368
 30
0.0
 10
16.880460
 20
45.233170
 30
0.0
  0
SPLINE
  5
19b
100
AcDbEntity
  8
0
 62
7
100
AcDbSpline
 70
8
 71
3
 72
8
 73
4
 74
0
 40
0
 40
0
 40
0
 40
0
 40
1
 40
1
 40
1
 40
1
 10
16.880460
 20
45.233170
 30
0.0
 10
17.704719
 20
44.888772
 30
0.0
 10
18.111193
 20
44.876564
 30
0.0
 10
19.592439
 20
45.151716
 30
0.0
  0
SPLINE
  5
19c
100
AcDbEntity
  8
0
 62
7
100
AcDbSpline
 70
8
 71
3
 72
8
 73
4
 74
0
 40
0
 40
0
 40
0
 40
0
 40
1
 40
1
 40
1
 40
1
 10
19.592439
 20
45.151716
 30
0.0
 10
20.550757
 20
45.329731
 30
0.0
 10
21.619237
 20
45.580972
 30
0.0
 10
21.966841
 20
45.710029
 30
0.0
  0
SPLINE
  5
19d
100
AcDbEntity
  8
0
 62
7
100
AcDbSpline
 70
8
 71
3
 72
8
 73
4
 74
0
 40
0
 40
0
 40
0
 40
0
 40
1
 40
1
 40
1
 40
1
 10
21.966841
 20
45.710029
 30
0.0
 10
23.155413
 20
46.151317
 30
0.0
 10
22.874100
 20
45.672717
 30
0.0
 10
21.618430
 20
45.117274
 30
0.0
  0
SPLINE
  5
19e
100
AcDbEntity
  8
0
 62
7
100
AcDbSpline
 70
8
 71
3
 72
8
 73
4
 74
0
 40
0
 40
0
 40
0
 40
0
 40
1
 40
1
 40
1
 40
1
 10
21.618430
 20
45.117274
 30
0.0
 10
19.868994
 20
44.343415
 30
0.0
 10
16.686610
 20
44.119956
 30
0.0
 10
15.789201
 20
44.707961
 30
0.0
  0
SPLINE
  5
19f
100
AcDbEntity
  8
0
 62
7
100
AcDbSpline
 70
8
 71
3
 72
8
 73
4
 74
0
 40
0
 40
0
 40
0
 40
0
 40
1
 40
1
 40
1
 40
1
 10
15.789201
 20
44.707961
 30
0.0
 10
15.385191
 20
44.972679
 30
0.0
 10
15.117125
 20
45.396230
 30
0.0
 10
15.117125
 20
45.769865
 30
0.0
  0
SPLINE
  5
1a0
100
AcDbEntity
  8
0
 62
7
100
AcDbSpline
 70
8
 71
3
 72
8
 73
4
 74
0
 40
0
 40
0
 40
0
 40
0
 40
1
 40
1
 40
1
 40
1
 10
15.117125
 20
45.769865
 30
0.0
 10
15.117125
 20
46.291119
 30
0.0
 10
14.945173
 20
46.418904
 30
0.0
 10
14.051429
 20
46.561819
 30
0.0
  0
SPLINE
  5
1a1
100
AcDbEntity
  8
0
 62
7
100
AcDbSpline
 70
8
 71
3
 72
8
 73
4
 74
0
 40
0
 40
0
 40
0
 40
0
 40
1
 40
1
 40
1
 40
1
 10
14.051429
 20
46.561819
 30
0.0
 10
12.761397
 20
46.768104
 30
0.0
 10
5.016008
 20
46.470392
 30
0.0
 10
4.721017
 20
46.203184
 30
0.0
  0
SPLINE
  5
1a2
100
AcDbEntity
  8
0
 62
7
100
AcDbSpline
 70
8
 71
3
 72
8
 73
4
 74
0
 40
0
 40
0
 40
0
 40
0
 40
1
 40
1
 40
1
 40
1
 10
4.721017
 20
46.203184
 30
0.0
 10
4.473197
 20
45.978705
 30
0.0
 10
4.813401
 20
45.690959
 30
0.0
 10
6.277116
 20
44.887033
 30
0.0
  0
LWPOLYLINE
  5
1a3
100
AcDbEntity
  8
0
 62
7
100
AcDbPolyline
 90
3
 70
0
 10
18.460326
 20
48.628008
 30
0.0
 10
21.599417
 20
48.419838
 30
0.0
 10
20.057084
 20
48.077783
 30
0.0
  0
SPLINE
  5
1a4
100
AcDbEntity
  8
0
 62
7
100
AcDbSpline
 70
8
 71
3
 72
8
 73
4
 74
0
 40
0
 40
0
 40
0
 40
0
 40
1
 40
1
 40
1
 40
1
 10
10.032162
 20
44.846769
 30
0.0
 10
12.970910
 20
45.455738
 30
0.0
 10
13.633580
 20
45.518378
 30
0.0
 10
13.416204
 20
45.166653
 30
0.0
  0
SPLINE
  5
1a5
100
AcDbEntity
  8
0
 62
7
100
AcDbSpline
 70
8
 71
3
 72
8
 73
4
 74
0
 40
0
 40
0
 40
0
 40
0
 40
1
 40
1
 40
1
 40
1
 10
13.416204
 20
45.166653
 30
0.0
 10
13.336644
 20
45.037923
 30
0.0
 10
12.704538
 20
44.852547
 30
0.0
 10
12.011526
 20
44.754707
 30
0.0
  0
SPLINE
  5
1a6
100
AcDbEntity
  8
0
 62
7
100
AcDbSpline
 70
8
 71
3
 72
8
 73
4
 74
0
 40
0
 40
0
 40
0
 40
0
 40
1
 40
1
 40
1
 40
1
 10
12.011526
 20
44.754707
 30
0.0
 10
10.312710
 20
44.514865
 30
0.0
 10
9.792050
 20
44.345900
 30
0.0
 10
9.952390
 20
44.086465
 30
0.0
  0
SPLINE
  5
1a7
100
AcDbEntity
  8
0
 62
7
100
AcDbSpline
 70
8
 71
3
 72
8
 73
4
 74
0
 40
0
 40
0
 40
0
 40
0
 40
1
 40
1
 40
1
 40
1
 10
9.952390
 20
44.086465
 30
0.0
 10
10.116037
 20
43.821675
 30
0.0
 10
9.464377
 20
43.548623
 30
0.0
 10
8.668782
 20
43.548623
 30
0.0
  0
SPLINE
  5
1a8
100
AcDbEntity
  8
0
 62
7
100
AcDbSpline
 70
8
 71
3
 72
8
 73
4
 74
0
 40
0
 40
0
 40
0
 40
0
 40
1
 40
1
 40
1
 40
1
 10
8.668782
 20
43.548623
 30
0.0
 10
7.050371
 20
43.548623
 30
0.0
 10
2.454477
 20
45.298967
 30
0.0
 10
1.399784
 20
46.317020
 30
0.0
  0
SPLINE
  5
1a9
100
AcDbEntity
  8
0
 62
7
100
AcDbSpline
 70
8
 71
3
 72
8
 73
4
 74
0
 40
0
 40
0
 40
0
 40
0
 40
1
 40
1
 40
1
 40
1
 10
1.399784
 20
46.317020
 30
0.0
 10
0.832038
 20
46.865040
 30
0.0
 10
3.808813
 20
47.252789
 30
0.0
 10
8.583745
 20
47.252789
 30
0.0
  0
LWPOLYLINE
  5
1aa
100
AcDbEntity
  8
0
 62
7
100
AcDbPolyline
 90
3
 70
0
 10
6.277116
 20
44.887033
 30
0.0
 10
7.358981
 20
44.292832
 30
0.0
 10
10.032162
 20
44.846769
 30
0.0
  0
SPLINE
  5
1ab
100
AcDbEntity
  8
0
 62
7
100
AcDbSpline
 70
8
 71
3
 72
8
 73
4
 74
0
 40
0
 40
0
 40
0
 40
0
 40
1
 40
1
 40
1
 40
1
 10
12.553509
 20
48.098481
 30
0.0
 10
12.456565
 20
48.583194
 30
0.0
 10
11.951177
 20
49.356259
 30
0.0
 10
11.369498
 20
49.909597
 30
0.0
  0
SPLINE
  5
1ac
100
AcDbEntity
  8
0
 62
7
100
AcDbSpline
 70
8
 71
3
 72
8
 73
4
 74
0
 40
0
 40
0
 40
0
 40
0
 40
1
 40
1
 40
1
 40
1
 10
11.369498
 20
49.909597
 30
0.0
 10
10.369117
 20
50.861237
 30
0.0
 10
10.039507
 20
51.749078
 30
0.0
 10
10.685355
 20
51.752414
 30
0.0
  0
SPLINE
  5
1ad
100
AcDbEntity
  8
0
 62
7
100
AcDbSpline
 70
8
 71
3
 72
8
 73
4
 74
0
 40
0
 40
0
 40
0
 40
0
 40
1
 40
1
 40
1
 40
1
 10
10.685355
 20
51.752414
 30
0.0
 10
10.867256
 20
51.753367
 30
0.0
 10
10.449121
 20
52.240079
 30
0.0
 10
9.756164
 20
52.834025
 30
0.0
  0
SPLINE
  5
1ae
100
AcDbEntity
  8
0
 62
7
100
AcDbSpline
 70
8
 71
3
 72
8
 73
4
 74
0
 40
0
 40
0
 40
0
 40
0
 40
1
 40
1
 40
1
 40
1
 10
9.756164
 20
52.834025
 30
0.0
 10
8.175268
 20
54.189044
 30
0.0
 10
7.858157
 20
54.745208
 30
0.0
 10
8.249518
 20
55.476470
 30
0.0
  0
SPLINE
  5
1af
100
AcDbEntity
  8
0
 62
7
100
AcDbSpline
 70
8
 71
3
 72
8
 73
4
 74
0
 40
0
 40
0
 40
0
 40
0
 40
1
 40
1
 40
1
 40
1
 10
8.249518
 20
55.476470
 30
0.0
 10
8.494279
 20
55.933811
 30
0.0
 10
8.417320
 20
56.209021
 30
0.0
 10
7.795806
 20
57.098952
 30
0.0
  0
SPLINE
  5
1b0
100
AcDbEntity
  8
0
 62
7
100
AcDbSpline
 70
8
 71
3
 72
8
 73
4
 74
0
 40
0
 40
0
 40
0
 40
0
 40
1
 40
1
 40
1
 40
1
 10
7.795806
 20
57.098952
 30
0.0
 10
6.341021
 20
59.182025
 30
0.0
 10
6.124065
 20
59.560665
 30
0.0
 10
6.122686
 20
60.018935
 30
0.0
  0
SPLINE
  5
1b1
100
AcDbEntity
  8
0
 62
7
100
AcDbSpline
 70
8
 71
3
 72
8
 73
4
 74
0
 40
0
 40
0
 40
0
 40
0
 40
1
 40
1
 40
1
 40
1
 10
6.122686
 20
60.018935
 30
0.0
 10
6.121893
 20
60.274967
 30
0.0
 10
6.318116
 20
60.481956
 30
0.0
 10
6.561575
 20
60.481956
 30
0.0
  0
SPLINE
  5
1b2
100
AcDbEntity
  8
0
 62
7
100
AcDbSpline
 70
8
 71
3
 72
8
 73
4
 74
0
 40
0
 40
0
 40
0
 40
0
 40
1
 40
1
 40
1
 40
1
 10
6.561575
 20
60.481956
 30
0.0
 10
6.844464
 20
60.481956
 30
0.0
 10
6.371540
 20
61.134852
 30
0.0
 10
5.238658
 20
62.308314
 30
0.0
  0
SPLINE
  5
1b3
100
AcDbEntity
  8
0
 62
7
100
AcDbSpline
 70
8
 71
3
 72
8
 73
4
 74
0
 40
0
 40
0
 40
0
 40
0
 40
1
 40
1
 40
1
 40
1
 10
5.238658
 20
62.308314
 30
0.0
 10
4.138962
 20
63.447401
 30
0.0
 10
3.475459
 20
64.356341
 30
0.0
 10
3.475459
 20
64.723739
 30
0.0
  0
SPLINE
  5
1b4
100
AcDbEntity
  8
0
 62
7
100
AcDbSpline
 70
8
 71
3
 72
8
 73
4
 74
0
 40
0
 40
0
 40
0
 40
0
 40
1
 40
1
 40
1
 40
1
 10
3.475459
 20
64.723739
 30
0.0
 10
3.475459
 20
65.289318
 30
0.0
 10
3.541398
 20
65.305563
 30
0.0
 10
5.129105
 20
65.131139
 30
0.0
  0
SPLINE
  5
1b5
100
AcDbEntity
  8
0
 62
7
100
AcDbSpline
 70
8
 71
3
 72
8
 73
4
 74
0
 40
0
 40
0
 40
0
 40
0
 40
1
 40
1
 40
1
 40
1
 10
5.129105
 20
65.131139
 30
0.0
 10
9.219634
 20
64.681756
 30
0.0
 10
12.871189
 20
63.403619
 30
0.0
 10
16.847117
 20
61.029535
 30
0.0
  0
SPLINE
  5
1b6
100
AcDbEntity
  8
0
 62
7
100
AcDbSpline
 70
8
 71
3
 72
8
 73
4
 74
0
 40
0
 40
0
 40
0
 40
0
 40
1
 40
1
 40
1
 40
1
 10
16.847117
 20
61.029535
 30
0.0
 10
20.001897
 20
59.145770
 30
0.0
 10
24.659210
 20
55.578991
 30
0.0
 10
24.833268
 20
54.913381
 30
0.0
  0
SPLINE
  5
1b7
100
AcDbEntity
  8
0
 62
7
100
AcDbSpline
 70
8
 71
3
 72
8
 73
4
 74
0
 40
0
 40
0
 40
0
 40
0
 40
1
 40
1
 40
1
 40
1
 10
24.833268
 20
54.913381
 30
0.0
 10
24.905272
 20
54.638042
 30
0.0
 10
25.566924
 20
54.190037
 30
0.0
 10
26.402319
 20
53.850975
 30
0.0
  0
SPLINE
  5
1b8
100
AcDbEntity
  8
0
 62
7
100
AcDbSpline
 70
8
 71
3
 72
8
 73
4
 74
0
 40
0
 40
0
 40
0
 40
0
 40
1
 40
1
 40
1
 40
1
 10
26.402319
 20
53.850975
 30
0.0
 10
28.866846
 20
52.850697
 30
0.0
 10
33.079677
 20
49.854012
 30
0.0
 10
35.716554
 20
47.225542
 30
0.0
  0
SPLINE
  5
1b9
100
AcDbEntity
  8
0
 62
7
100
AcDbSpline
 70
8
 71
3
 72
8
 73
4
 74
0
 40
0
 40
0
 40
0
 40
0
 40
1
 40
1
 40
1
 40
1
 10
35.716554
 20
47.225542
 30
0.0
 10
37.078063
 20
45.868374
 30
0.0
 10
38.055404
 20
44.712424
 30
0.0
 10
37.888423
 20
44.656764
 30
0.0
  0
SPLINE
  5
1ba
100
AcDbEntity
  8
0
 62
7
100
AcDbSpline
 70
8
 71
3
 72
8
 73
4
 74
0
 40
0
 40
0
 40
0
 40
0
 40
1
 40
1
 40
1
 40
1
 10
37.888423
 20
44.656764
 30
0.0
 10
37.368395
 20
44.483421
 30
0.0
 10
34.720895
 20
45.932260
 30
0.0
 10
33.113903
 20
47.269613
 30
0.0
  0
LWPOLYLINE
  5
1bb
100
AcDbEntity
  8
0
 62
7
100
AcDbPolyline
 90
3
 70
0
 10
8.583745
 20
47.252789
 30
0.0
 10
12.722646
 20
47.252789
 30
0.0
 10
12.553509
 20
48.098481
 30
0.0
  0
SPLINE
  5
1bc
100
AcDbEntity
  8
0
 62
7
100
AcDbSpline
 70
8
 71
3
 72
8
 73
4
 74
0
 40
0
 40
0
 40
0
 40
0
 40
1
 40
1
 40
1
 40
1
 10
32.060028
 20
46.956597
 30
0.0
 10
32.545793
 20
45.352231
 30
0.0
 10
33.305774
 20
43.921995
 30
0.0
 10
33.545264
 20
44.161485
 30
0.0
  0
SPLINE
  5
1bd
100
AcDbEntity
  8
0
 62
7
100
AcDbSpline
 70
8
 71
3
 72
8
 73
4
 74
0
 40
0
 40
0
 40
0
 40
0
 40
1
 40
1
 40
1
 40
1
 10
33.545264
 20
44.161485
 30
0.0
 10
33.616551
 20
44.232769
 30
0.0
 10
33.420137
 20
44.790419
 30
0.0
 10
33.108792
 20
45.400706
 30
0.0
  0
SPLINE
  5
1be
100
AcDbEntity
  8
0
 62
7
100
AcDbSpline
 70
8
 71
3
 72
8
 73
4
 74
0
 40
0
 40
0
 40
0
 40
0
 40
1
 40
1
 40
1
 40
1
 10
33.108792
 20
45.400706
 30
0.0
 10
32.797446
 20
46.010993
 30
0.0
 10
32.591894
 20
46.559502
 30
0.0
 10
32.652007
 20
46.619615
 30
0.0
  0
SPLINE
  5
1bf
100
AcDbEntity
  8
0
 62
7
100
AcDbSpline
 70
8
 71
3
 72
8
 73
4
 74
0
 40
0
 40
0
 40
0
 40
0
 40
1
 40
1
 40
1
 40
1
 10
32.652007
 20
46.619615
 30
0.0
 10
32.778269
 20
46.745877
 30
0.0
 10
36.138292
 20
44.932630
 30
0.0
 10
37.163454
 20
44.185001
 30
0.0
  0
SPLINE
  5
1c0
100
AcDbEntity
  8
0
 62
7
100
AcDbSpline
 70
8
 71
3
 72
8
 73
4
 74
0
 40
0
 40
0
 40
0
 40
0
 40
1
 40
1
 40
1
 40
1
 10
37.163454
 20
44.185001
 30
0.0
 10
37.727051
 20
43.773979
 30
0.0
 10
37.856946
 20
43.461104
 30
0.0
 10
37.867029
 20
42.490289
 30
0.0
  0
SPLINE
  5
1c1
100
AcDbEntity
  8
0
 62
7
100
AcDbSpline
 70
8
 71
3
 72
8
 73
4
 74
0
 40
0
 40
0
 40
0
 40
0
 40
1
 40
1
 40
1
 40
1
 10
37.867029
 20
42.490289
 30
0.0
 10
37.875390
 20
41.686612
 30
0.0
 10
37.956112
 20
41.420849
 30
0.0
 10
38.115446
 20
41.672547
 30
0.0
  0
SPLINE
  5
1c2
100
AcDbEntity
  8
0
 62
7
100
AcDbSpline
 70
8
 71
3
 72
8
 73
4
 74
0
 40
0
 40
0
 40
0
 40
0
 40
1
 40
1
 40
1
 40
1
 10
38.115446
 20
41.672547
 30
0.0
 10
38.245275
 20
41.877631
 30
0.0
 10
38.290246
 20
42.205053
 30
0.0
 10
38.215380
 20
42.400151
 30
0.0
  0
SPLINE
  5
1c3
100
AcDbEntity
  8
0
 62
7
100
AcDbSpline
 70
8
 71
3
 72
8
 73
4
 74
0
 40
0
 40
0
 40
0
 40
0
 40
1
 40
1
 40
1
 40
1
 10
38.215380
 20
42.400151
 30
0.0
 10
37.927664
 20
43.149930
 30
0.0
 10
38.688521
 20
42.708047
 30
0.0
 10
39.314837
 20
41.761622
 30
0.0
  0
SPLINE
  5
1c4
100
AcDbEntity
  8
0
 62
7
100
AcDbSpline
 70
8
 71
3
 72
8
 73
4
 74
0
 40
0
 40
0
 40
0
 40
0
 40
1
 40
1
 40
1
 40
1
 10
39.314837
 20
41.761622
 30
0.0
 10
41.452625
 20
38.531205
 30
0.0
 10
42.081429
 20
34.275839
 30
0.0
 10
40.768479
 20
31.924239
 30
0.0
  0
SPLINE
  5
1c5
100
AcDbEntity
  8
0
 62
7
100
AcDbSpline
 70
8
 71
3
 72
8
 73
4
 74
0
 40
0
 40
0
 40
0
 40
0
 40
1
 40
1
 40
1
 40
1
 10
40.768479
 20
31.924239
 30
0.0
 10
39.963643
 20
30.482709
 30
0.0
 10
39.132949
 20
29.854827
 30
0.0
 10
37.469067
 20
29.430366
 30
0.0
  0
LWPOLYLINE
  5
1c6
100
AcDbEntity
  8
0
 62
7
100
AcDbPolyline
 90
3
 70
0
 10
33.113903
 20
47.269613
 30
0.0
 10
31.578333
 20
48.547526
 30
0.0
 10
32.060028
 20
46.956597
 30
0.0
  0
SPLINE
  5
1c7
100
AcDbEntity
  8
0
 62
7
100
AcDbSpline
 70
8
 71
3
 72
8
 73
4
 74
0
 40
0
 40
0
 40
0
 40
0
 40
1
 40
1
 40
1
 40
1
 10
38.411925
 20
28.210605
 30
0.0
 10
42.173157
 20
26.715360
 30
0.0
 10
45.094549
 20
25.142732
 30
0.0
 10
46.562185
 20
23.823202
 30
0.0
  0
SPLINE
  5
1c8
100
AcDbEntity
  8
0
 62
7
100
AcDbSpline
 70
8
 71
3
 72
8
 73
4
 74
0
 40
0
 40
0
 40
0
 40
0
 40
1
 40
1
 40
1
 40
1
 10
46.562185
 20
23.823202
 30
0.0
 10
47.853454
 20
22.662240
 30
0.0
 10
49.504629
 20
20.278011
 30
0.0
 10
49.510476
 20
19.565993
 30
0.0
  0
SPLINE
  5
1c9
100
AcDbEntity
  8
0
 62
7
100
AcDbSpline
 70
8
 71
3
 72
8
 73
4
 74
0
 40
0
 40
0
 40
0
 40
0
 40
1
 40
1
 40
1
 40
1
 10
49.510476
 20
19.565993
 30
0.0
 10
49.513969
 20
19.140281
 30
0.0
 10
48.966361
 20
18.991786
 30
0.0
 10
48.188330
 20
19.207469
 30
0.0
  0
LWPOLYLINE
  5
1ca
100
AcDbEntity
  8
0
 62
7
100
AcDbPolyline
 90
3
 70
0
 10
37.469067
 20
29.430366
 30
0.0
 10
36.174431
 20
29.100103
 30
0.0
 10
38.411925
 20
28.210605
 30
0.0
  0
SPLINE
  5
1cb
100
AcDbEntity
  8
0
 62
7
100
AcDbSpline
 70
8
 71
3
 72
8
 73
4
 74
0
 40
0
 40
0
 40
0
 40
0
 40
1
 40
1
 40
1
 40
1
 10
47.925458
 20
20.555175
 30
0.0
 10
47.925458
 20
21.162865
 30
0.0
 10
46.769660
 20
22.424768
 30
0.0
 10
45.162936
 20
23.571303
 30
0.0
  0
SPLINE
  5
1cc
100
AcDbEntity
  8
0
 62
7
100
AcDbSpline
 70
8
 71
3
 72
8
 73
4
 74
0
 40
0
 40
0
 40
0
 40
0
 40
1
 40
1
 40
1
 40
1
 10
45.162936
 20
23.571303
 30
0.0
 10
43.438686
 20
24.801703
 30
0.0
 10
41.627020
 20
25.696712
 30
0.0
 10
41.373626
 20
25.443318
 30
0.0
  0
SPLINE
  5
1cd
100
AcDbEntity
  8
0
 62
7
100
AcDbSpline
 70
8
 71
3
 72
8
 73
4
 74
0
 40
0
 40
0
 40
0
 40
0
 40
1
 40
1
 40
1
 40
1
 10
41.373626
 20
25.443318
 30
0.0
 10
41.105487
 20
25.175181
 30
0.0
 10
45.136533
 20
21.449334
 30
0.0
 10
46.337958
 20
20.854850
 30
0.0
  0
SPLINE
  5
1ce
100
AcDbEntity
  8
0
 62
7
100
AcDbSpline
 70
8
 71
3
 72
8
 73
4
 74
0
 40
0
 40
0
 40
0
 40
0
 40
1
 40
1
 40
1
 40
1
 10
46.337958
 20
20.854850
 30
0.0
 10
47.684198
 20
20.188706
 30
0.0
 10
47.925458
 20
20.143163
 30
0.0
 10
47.925458
 20
20.555175
 30
0.0
  0
LWPOLYLINE
  5
1cf
100
AcDbEntity
  8
0
 62
7
100
AcDbPolyline
 90
1
 70
1
 10
48.188330
 20
19.207469
 30
0.0
  0
SPLINE
  5
1d0
100
AcDbEntity
  8
0
 62
7
100
AcDbSpline
 70
8
 71
3
 72
8
 73
4
 74
0
 40
0
 40
0
 40
0
 40
0
 40
1
 40
1
 40
1
 40
1
 10
38.503468
 20
30.951628
 30
0.0
 10
39.496198
 20
31.366418
 30
0.0
 10
40.518122
 20
33.136980
 30
0.0
 10
40.515648
 20
34.437886
 30
0.0
  0
SPLINE
  5
1d1
100
AcDbEntity
  8
0
 62
7
100
AcDbSpline
 70
8
 71
3
 72
8
 73
4
 74
0
 40
0
 40
0
 40
0
 40
0
 40
1
 40
1
 40
1
 40
1
 10
40.515648
 20
34.437886
 30
0.0
 10
40.513003
 20
35.820271
 30
0.0
 10
39.139233
 20
39.844456
 30
0.0
 10
38.669936
 20
39.844456
 30
0.0
  0
SPLINE
  5
1d2
100
AcDbEntity
  8
0
 62
7
100
AcDbSpline
 70
8
 71
3
 72
8
 73
4
 74
0
 40
0
 40
0
 40
0
 40
0
 40
1
 40
1
 40
1
 40
1
 10
38.669936
 20
39.844456
 30
0.0
 10
38.562949
 20
39.844456
 30
0.0
 10
37.982300
 20
38.882696
 30
0.0
 10
37.379603
 20
37.707210
 30
0.0
  0
SPLINE
  5
1d3
100
AcDbEntity
  8
0
 62
7
100
AcDbSpline
 70
8
 71
3
 72
8
 73
4
 74
0
 40
0
 40
0
 40
0
 40
0
 40
1
 40
1
 40
1
 40
1
 10
37.379603
 20
37.707210
 30
0.0
 10
36.506015
 20
36.003389
 30
0.0
 10
36.284969
 20
35.292445
 30
0.0
 10
36.289602
 20
34.201481
 30
0.0
  0
SPLINE
  5
1d4
100
AcDbEntity
  8
0
 62
7
100
AcDbSpline
 70
8
 71
3
 72
8
 73
4
 74
0
 40
0
 40
0
 40
0
 40
0
 40
1
 40
1
 40
1
 40
1
 10
36.289602
 20
34.201481
 30
0.0
 10
36.294841
 20
32.968165
 30
0.0
 10
37.072782
 20
30.584039
 30
0.0
 10
37.469979
 20
30.584039
 30
0.0
  0
SPLINE
  5
1d5
100
AcDbEntity
  8
0
 62
7
100
AcDbSpline
 70
8
 71
3
 72
8
 73
4
 74
0
 40
0
 40
0
 40
0
 40
0
 40
1
 40
1
 40
1
 40
1
 10
37.469979
 20
30.584039
 30
0.0
 10
37.554527
 20
30.584039
 30
0.0
 10
38.019598
 20
30.749454
 30
0.0
 10
38.503468
 20
30.951628
 30
0.0
  0
LWPOLYLINE
  5
1d6
100
AcDbEntity
  8
0
 62
7
100
AcDbPolyline
 90
1
 70
1
 10
47.925458
 20
20.555175
 30
0.0
  0
SPLINE
  5
1d7
100
AcDbEntity
  8
0
 62
7
100
AcDbSpline
 70
8
 71
3
 72
8
 73
4
 74
0
 40
0
 40
0
 40
0
 40
0
 40
1
 40
1
 40
1
 40
1
 10
35.347262
 20
40.730112
 30
0.0
 10
35.698340
 20
40.986826
 30
0.0
 10
35.746275
 20
41.141303
 30
0.0
 10
35.518535
 20
41.282056
 30
0.0
  0
SPLINE
  5
1d8
100
AcDbEntity
  8
0
 62
7
100
AcDbSpline
 70
8
 71
3
 72
8
 73
4
 74
0
 40
0
 40
0
 40
0
 40
0
 40
1
 40
1
 40
1
 40
1
 10
35.518535
 20
41.282056
 30
0.0
 10
35.344592
 20
41.389557
 30
0.0
 10
35.036099
 20
41.339595
 30
0.0
 10
34.832994
 20
41.171032
 30
0.0
  0
SPLINE
  5
1d9
100
AcDbEntity
  8
0
 62
7
100
AcDbSpline
 70
8
 71
3
 72
8
 73
4
 74
0
 40
0
 40
0
 40
0
 40
0
 40
1
 40
1
 40
1
 40
1
 10
34.832994
 20
41.171032
 30
0.0
 10
34.254406
 20
40.690848
 30
0.0
 10
32.997058
 20
40.944903
 30
0.0
 10
32.886936
 20
41.564248
 30
0.0
  0
SPLINE
  5
1da
100
AcDbEntity
  8
0
 62
7
100
AcDbSpline
 70
8
 71
3
 72
8
 73
4
 74
0
 40
0
 40
0
 40
0
 40
0
 40
1
 40
1
 40
1
 40
1
 10
32.886936
 20
41.564248
 30
0.0
 10
32.835186
 20
41.855289
 30
0.0
 10
32.657558
 20
42.212477
 30
0.0
 10
32.492207
 20
42.357998
 30
0.0
  0
SPLINE
  5
1db
100
AcDbEntity
  8
0
 62
7
100
AcDbSpline
 70
8
 71
3
 72
8
 73
4
 74
0
 40
0
 40
0
 40
0
 40
0
 40
1
 40
1
 40
1
 40
1
 10
32.492207
 20
42.357998
 30
0.0
 10
32.326855
 20
42.503519
 30
0.0
 10
32.277849
 20
42.514472
 30
0.0
 10
32.383301
 20
42.382339
 30
0.0
  0
SPLINE
  5
1dc
100
AcDbEntity
  8
0
 62
7
100
AcDbSpline
 70
8
 71
3
 72
8
 73
4
 74
0
 40
0
 40
0
 40
0
 40
0
 40
1
 40
1
 40
1
 40
1
 10
32.383301
 20
42.382339
 30
0.0
 10
32.488754
 20
42.250207
 30
0.0
 10
32.455535
 20
41.998114
 30
0.0
 10
32.309483
 20
41.822132
 30
0.0
  0
SPLINE
  5
1dd
100
AcDbEntity
  8
0
 62
7
100
AcDbSpline
 70
8
 71
3
 72
8
 73
4
 74
0
 40
0
 40
0
 40
0
 40
0
 40
1
 40
1
 40
1
 40
1
 10
32.309483
 20
41.822132
 30
0.0
 10
31.985805
 20
41.432123
 30
0.0
 10
32.478181
 20
40.965787
 30
0.0
 10
33.554898
 20
40.642588
 30
0.0
  0
SPLINE
  5
1de
100
AcDbEntity
  8
0
 62
7
100
AcDbSpline
 70
8
 71
3
 72
8
 73
4
 74
0
 40
0
 40
0
 40
0
 40
0
 40
1
 40
1
 40
1
 40
1
 10
33.554898
 20
40.642588
 30
0.0
 10
34.620443
 20
40.322741
 30
0.0
 10
34.802297
 20
40.331620
 30
0.0
 10
35.347262
 20
40.730109
 30
0.0
  0
LWPOLYLINE
  5
1df
100
AcDbEntity
  8
0
 62
7
100
AcDbPolyline
 90
1
 70
1
 10
38.503468
 20
30.951628
 30
0.0
  0
SPLINE
  5
1e0
100
AcDbEntity
  8
0
 62
7
100
AcDbSpline
 70
8
 71
3
 72
8
 73
4
 74
0
 40
0
 40
0
 40
0
 40
0
 40
1
 40
1
 40
1
 40
1
 10
31.019533
 20
44.219289
 30
0.0
 10
30.458108
 20
44.858716
 30
0.0
 10
30.198375
 20
45.428978
 30
0.0
 10
30.198375
 20
46.022197
 30
0.0
  0
SPLINE
  5
1e1
100
AcDbEntity
  8
0
 62
7
100
AcDbSpline
 70
8
 71
3
 72
8
 73
4
 74
0
 40
0
 40
0
 40
0
 40
0
 40
1
 40
1
 40
1
 40
1
 10
30.198375
 20
46.022197
 30
0.0
 10
30.198375
 20
46.742948
 30
0.0
 10
29.995260
 20
47.042046
 30
0.0
 10
28.998757
 20
47.788693
 30
0.0
  0
SPLINE
  5
1e2
100
AcDbEntity
  8
0
 62
7
100
AcDbSpline
 70
8
 71
3
 72
8
 73
4
 74
0
 40
0
 40
0
 40
0
 40
0
 40
1
 40
1
 40
1
 40
1
 10
28.998757
 20
47.788693
 30
0.0
 10
27.815797
 20
48.675049
 30
0.0
 10
27.353363
 20
49.527108
 30
0.0
 10
27.644093
 20
50.284737
 30
0.0
  0
SPLINE
  5
1e3
100
AcDbEntity
  8
0
 62
7
100
AcDbSpline
 70
8
 71
3
 72
8
 73
4
 74
0
 40
0
 40
0
 40
0
 40
0
 40
1
 40
1
 40
1
 40
1
 10
27.644093
 20
50.284737
 30
0.0
 10
27.925599
 20
51.018328
 30
0.0
 10
24.235183
 20
53.548625
 30
0.0
 10
23.685479
 20
52.998921
 30
0.0
  0
SPLINE
  5
1e4
100
AcDbEntity
  8
0
 62
7
100
AcDbSpline
 70
8
 71
3
 72
8
 73
4
 74
0
 40
0
 40
0
 40
0
 40
0
 40
1
 40
1
 40
1
 40
1
 10
23.685479
 20
52.998921
 30
0.0
 10
23.498099
 20
52.811540
 30
0.0
 10
23.870722
 20
51.486123
 30
0.0
 10
24.110784
 20
51.486123
 30
0.0
  0
SPLINE
  5
1e5
100
AcDbEntity
  8
0
 62
7
100
AcDbSpline
 70
8
 71
3
 72
8
 73
4
 74
0
 40
0
 40
0
 40
0
 40
0
 40
1
 40
1
 40
1
 40
1
 10
24.110784
 20
51.486123
 30
0.0
 10
24.223557
 20
51.486123
 30
0.0
 10
24.378225
 20
51.724739
 30
0.0
 10
24.454491
 20
52.016381
 30
0.0
  0
SPLINE
  5
1e6
100
AcDbEntity
  8
0
 62
7
100
AcDbSpline
 70
8
 71
3
 72
8
 73
4
 74
0
 40
0
 40
0
 40
0
 40
0
 40
1
 40
1
 40
1
 40
1
 10
24.454491
 20
52.016381
 30
0.0
 10
24.554308
 20
52.398080
 30
0.0
 10
24.729740
 20
52.498003
 30
0.0
 10
25.080662
 20
52.373040
 30
0.0
  0
SPLINE
  5
1e7
100
AcDbEntity
  8
0
 62
7
100
AcDbSpline
 70
8
 71
3
 72
8
 73
4
 74
0
 40
0
 40
0
 40
0
 40
0
 40
1
 40
1
 40
1
 40
1
 10
25.080662
 20
52.373040
 30
0.0
 10
25.990077
 20
52.049198
 30
0.0
 10
26.494994
 20
51.406008
 30
0.0
 10
27.063248
 20
49.847514
 30
0.0
  0
SPLINE
  5
1e8
100
AcDbEntity
  8
0
 62
7
100
AcDbSpline
 70
8
 71
3
 72
8
 73
4
 74
0
 40
0
 40
0
 40
0
 40
0
 40
1
 40
1
 40
1
 40
1
 10
27.063248
 20
49.847514
 30
0.0
 10
27.579979
 20
48.430335
 30
0.0
 10
28.771120
 20
46.988206
 30
0.0
 10
29.424926
 20
46.988206
 30
0.0
  0
SPLINE
  5
1e9
100
AcDbEntity
  8
0
 62
7
100
AcDbSpline
 70
8
 71
3
 72
8
 73
4
 74
0
 40
0
 40
0
 40
0
 40
0
 40
1
 40
1
 40
1
 40
1
 10
29.424926
 20
46.988206
 30
0.0
 10
29.559282
 20
46.988206
 30
0.0
 10
29.669208
 20
46.631362
 30
0.0
 10
29.669208
 20
46.195218
 30
0.0
  0
SPLINE
  5
1ea
100
AcDbEntity
  8
0
 62
7
100
AcDbSpline
 70
8
 71
3
 72
8
 73
4
 74
0
 40
0
 40
0
 40
0
 40
0
 40
1
 40
1
 40
1
 40
1
 10
29.669208
 20
46.195218
 30
0.0
 10
29.669208
 20
45.655717
 30
0.0
 10
29.975069
 20
45.063680
 30
0.0
 10
30.626037
 20
44.343135
 30
0.0
  0
SPLINE
  5
1eb
100
AcDbEntity
  8
0
 62
7
100
AcDbSpline
 70
8
 71
3
 72
8
 73
4
 74
0
 40
0
 40
0
 40
0
 40
0
 40
1
 40
1
 40
1
 40
1
 10
30.626037
 20
44.343135
 30
0.0
 10
31.152293
 20
43.760633
 30
0.0
 10
31.640878
 20
43.284039
 30
0.0
 10
31.711778
 20
43.284039
 30
0.0
  0
SPLINE
  5
1ec
100
AcDbEntity
  8
0
 62
7
100
AcDbSpline
 70
8
 71
3
 72
8
 73
4
 74
0
 40
0
 40
0
 40
0
 40
0
 40
1
 40
1
 40
1
 40
1
 10
31.711778
 20
43.284039
 30
0.0
 10
31.782681
 20
43.284039
 30
0.0
 10
31.471172
 20
43.704902
 30
0.0
 10
31.019533
 20
44.219289
 30
0.0
  0
LWPOLYLINE
  5
1ed
100
AcDbEntity
  8
0
 62
7
100
AcDbPolyline
 90
1
 70
1
 10
35.347262
 20
40.730109
 30
0.0
  0
SPLINE
  5
1ee
100
AcDbEntity
  8
0
 62
7
100
AcDbSpline
 70
8
 71
3
 72
8
 73
4
 74
0
 40
0
 40
0
 40
0
 40
0
 40
1
 40
1
 40
1
 40
1
 10
27.189840
 20
26.400636
 30
0.0
 10
26.297549
 20
28.239029
 30
0.0
 10
25.919124
 20
30.110811
 30
0.0
 10
26.017559
 20
32.199006
 30
0.0
  0
LWPOLYLINE
  5
1ef
100
AcDbEntity
  8
0
 62
7
100
AcDbPolyline
 90
1
 70
1
 10
31.019533
 20
44.219289
 30
0.0
  0
SPLINE
  5
1f0
100
AcDbEntity
  8
0
 62
7
100
AcDbSpline
 70
8
 71
3
 72
8
 73
4
 74
0
 40
0
 40
0
 40
0
 40
0
 40
1
 40
1
 40
1
 40
1
 10
26.626500
 20
31.932298
 30
0.0
 10
27.027071
 20
30.449343
 30
0.0
 10
27.334803
 20
29.840301
 30
0.0
 10
27.892804
 20
29.426125
 30
0.0
  0
SPLINE
  5
1f1
100
AcDbEntity
  8
0
 62
7
100
AcDbSpline
 70
8
 71
3
 72
8
 73
4
 74
0
 40
0
 40
0
 40
0
 40
0
 40
1
 40
1
 40
1
 40
1
 10
27.892804
 20
29.426125
 30
0.0
 10
28.813802
 20
28.742513
 30
0.0
 10
29.216220
 20
28.953254
 30
0.0
 10
30.398545
 20
30.738347
 30
0.0
  0
SPLINE
  5
1f2
100
AcDbEntity
  8
0
 62
7
100
AcDbSpline
 70
8
 71
3
 72
8
 73
4
 74
0
 40
0
 40
0
 40
0
 40
0
 40
1
 40
1
 40
1
 40
1
 10
30.398545
 20
30.738347
 30
0.0
 10
31.360652
 20
32.190952
 30
0.0
 10
31.955251
 20
32.604350
 30
0.0
 10
31.648707
 20
31.607530
 30
0.0
  0
SPLINE
  5
1f3
100
AcDbEntity
  8
0
 62
7
100
AcDbSpline
 70
8
 71
3
 72
8
 73
4
 74
0
 40
0
 40
0
 40
0
 40
0
 40
1
 40
1
 40
1
 40
1
 10
31.648707
 20
31.607530
 30
0.0
 10
30.861796
 20
29.048636
 30
0.0
 10
29.478965
 20
26.449718
 30
0.0
 10
28.370662
 20
25.446720
 30
0.0
  0
SPLINE
  5
1f4
100
AcDbEntity
  8
0
 62
7
100
AcDbSpline
 70
8
 71
3
 72
8
 73
4
 74
0
 40
0
 40
0
 40
0
 40
0
 40
1
 40
1
 40
1
 40
1
 10
28.370662
 20
25.446720
 30
0.0
 10
27.891835
 20
25.013388
 30
0.0
 10
27.844665
 20
25.051493
 30
0.0
 10
27.189840
 20
26.400636
 30
0.0
  0
LWPOLYLINE
  5
1f5
100
AcDbEntity
  8
0
 62
7
100
AcDbPolyline
 90
3
 70
0
 10
26.017559
 20
32.199006
 30
0.0
 10
26.097334
 20
33.891331
 30
0.0
 10
26.626500
 20
31.932298
 30
0.0
  0
SPLINE
  5
1f6
100
AcDbEntity
  8
0
 62
7
100
AcDbSpline
 70
8
 71
3
 72
8
 73
4
 74
0
 40
0
 40
0
 40
0
 40
0
 40
1
 40
1
 40
1
 40
1
 10
28.189222
 20
30.168099
 30
0.0
 10
27.648133
 20
30.547090
 30
0.0
 10
26.810735
 20
32.576259
 30
0.0
 10
27.083044
 20
32.848569
 30
0.0
  0
SPLINE
  5
1f7
100
AcDbEntity
  8
0
 62
7
100
AcDbSpline
 70
8
 71
3
 72
8
 73
4
 74
0
 40
0
 40
0
 40
0
 40
0
 40
1
 40
1
 40
1
 40
1
 10
27.083044
 20
32.848569
 30
0.0
 10
27.162924
 20
32.928449
 30
0.0
 10
27.628660
 20
32.749710
 30
0.0
 10
28.118014
 20
32.451371
 30
0.0
  0
SPLINE
  5
1f8
100
AcDbEntity
  8
0
 62
7
100
AcDbSpline
 70
8
 71
3
 72
8
 73
4
 74
0
 40
0
 40
0
 40
0
 40
0
 40
1
 40
1
 40
1
 40
1
 10
28.118014
 20
32.451371
 30
0.0
 10
28.607369
 20
32.153029
 30
0.0
 10
29.275640
 20
31.908488
 30
0.0
 10
29.603062
 20
31.907946
 30
0.0
  0
SPLINE
  5
1f9
100
AcDbEntity
  8
0
 62
7
100
AcDbSpline
 70
8
 71
3
 72
8
 73
4
 74
0
 40
0
 40
0
 40
0
 40
0
 40
1
 40
1
 40
1
 40
1
 10
29.603062
 20
31.907946
 30
0.0
 10
30.342729
 20
31.906623
 30
0.0
 10
30.355527
 20
31.547887
 30
0.0
 10
29.651193
 20
30.558737
 30
0.0
  0
SPLINE
  5
1fa
100
AcDbEntity
  8
0
 62
7
100
AcDbSpline
 70
8
 71
3
 72
8
 73
4
 74
0
 40
0
 40
0
 40
0
 40
0
 40
1
 40
1
 40
1
 40
1
 10
29.651193
 20
30.558737
 30
0.0
 10
29.024466
 20
29.678582
 30
0.0
 10
28.925758
 20
29.652206
 30
0.0
 10
28.189222
 20
30.168099
 30
0.0
  0
LWPOLYLINE
  5
1fb
100
AcDbEntity
  8
0
 62
7
100
AcDbPolyline
 90
1
 70
1
 10
27.189840
 20
26.400636
 30
0.0
  0
SPLINE
  5
1fc
100
AcDbEntity
  8
0
 62
7
100
AcDbSpline
 70
8
 71
3
 72
8
 73
4
 74
0
 40
0
 40
0
 40
0
 40
0
 40
1
 40
1
 40
1
 40
1
 10
29.111874
 20
32.797480
 30
0.0
 10
28.766140
 20
32.969846
 30
0.0
 10
28.446984
 20
33.299289
 30
0.0
 10
28.402635
 20
33.529574
 30
0.0
  0
SPLINE
  5
1fd
100
AcDbEntity
  8
0
 62
7
100
AcDbSpline
 70
8
 71
3
 72
8
 73
4
 74
0
 40
0
 40
0
 40
0
 40
0
 40
1
 40
1
 40
1
 40
1
 10
28.402635
 20
33.529574
 30
0.0
 10
28.335706
 20
33.877115
 30
0.0
 10
28.537673
 20
33.928190
 30
0.0
 10
29.590918
 20
33.830080
 30
0.0
  0
SPLINE
  5
1fe
100
AcDbEntity
  8
0
 62
7
100
AcDbSpline
 70
8
 71
3
 72
8
 73
4
 74
0
 40
0
 40
0
 40
0
 40
0
 40
1
 40
1
 40
1
 40
1
 10
29.590918
 20
33.830080
 30
0.0
 10
31.089312
 20
33.690504
 30
0.0
 10
32.199599
 20
34.311601
 30
0.0
 10
33.494509
 20
36.013747
 30
0.0
  0
SPLINE
  5
1ff
100
AcDbEntity
  8
0
 62
7
100
AcDbSpline
 70
8
 71
3
 72
8
 73
4
 74
0
 40
0
 40
0
 40
0
 40
0
 40
1
 40
1
 40
1
 40
1
 10
33.494509
 20
36.013747
 30
0.0
 10
33.937207
 20
36.595672
 30
0.0
 10
34.568011
 20
37.427752
 30
0.0
 10
34.896295
 20
37.862812
 30
0.0
  0
LWPOLYLINE
  5
200
100
AcDbEntity
  8
0
 62
7
100
AcDbPolyline
 90
1
 70
1
 10
28.189222
 20
30.168099
 30
0.0
  0
SPLINE
  5
201
100
AcDbEntity
  8
0
 62
7
100
AcDbSpline
 70
8
 71
3
 72
8
 73
4
 74
0
 40
0
 40
0
 40
0
 40
0
 40
1
 40
1
 40
1
 40
1
 10
35.212586
 20
37.871024
 30
0.0
 10
35.058260
 20
37.440478
 30
0.0
 10
34.461323
 20
36.398682
 30
0.0
 10
33.886061
 20
35.555920
 30
0.0
  0
SPLINE
  5
202
100
AcDbEntity
  8
0
 62
7
100
AcDbSpline
 70
8
 71
3
 72
8
 73
4
 74
0
 40
0
 40
0
 40
0
 40
0
 40
1
 40
1
 40
1
 40
1
 10
33.886061
 20
35.555920
 30
0.0
 10
33.310796
 20
34.713156
 30
0.0
 10
32.930338
 20
34.022496
 30
0.0
 10
33.040603
 20
34.021120
 30
0.0
  0
SPLINE
  5
203
100
AcDbEntity
  8
0
 62
7
100
AcDbSpline
 70
8
 71
3
 72
8
 73
4
 74
0
 40
0
 40
0
 40
0
 40
0
 40
1
 40
1
 40
1
 40
1
 10
33.040603
 20
34.021120
 30
0.0
 10
33.458036
 20
34.015908
 30
0.0
 10
31.058673
 20
32.723122
 30
0.0
 10
30.414905
 20
32.606385
 30
0.0
  0
SPLINE
  5
204
100
AcDbEntity
  8
0
 62
7
100
AcDbSpline
 70
8
 71
3
 72
8
 73
4
 74
0
 40
0
 40
0
 40
0
 40
0
 40
1
 40
1
 40
1
 40
1
 10
30.414905
 20
32.606385
 30
0.0
 10
30.043969
 20
32.539122
 30
0.0
 10
29.457605
 20
32.625117
 30
0.0
 10
29.111874
 20
32.797480
 30
0.0
  0
LWPOLYLINE
  5
205
100
AcDbEntity
  8
0
 62
7
100
AcDbPolyline
 90
3
 70
0
 10
34.896295
 20
37.862812
 30
0.0
 10
35.493174
 20
38.653831
 30
0.0
 10
35.212586
 20
37.871024
 30
0.0
  0
SPLINE
  5
206
100
AcDbEntity
  8
0
 62
7
100
AcDbSpline
 70
8
 71
3
 72
8
 73
4
 74
0
 40
0
 40
0
 40
0
 40
0
 40
1
 40
1
 40
1
 40
1
 10
42.102347
 20
33.503563
 30
0.0
 10
42.290434
 20
33.862357
 30
0.0
 10
42.893573
 20
34.648315
 30
0.0
 10
43.442657
 20
35.250136
 30
0.0
  0
SPLINE
  5
207
100
AcDbEntity
  8
0
 62
7
100
AcDbSpline
 70
8
 71
3
 72
8
 73
4
 74
0
 40
0
 40
0
 40
0
 40
0
 40
1
 40
1
 40
1
 40
1
 10
43.442657
 20
35.250136
 30
0.0
 10
43.991742
 20
35.851957
 30
0.0
 10
44.638278
 20
36.725865
 30
0.0
 10
44.879406
 20
37.192154
 30
0.0
  0
LWPOLYLINE
  5
208
100
AcDbEntity
  8
0
 62
7
100
AcDbPolyline
 90
1
 70
1
 10
29.111874
 20
32.797480
 30
0.0
  0
SPLINE
  5
209
100
AcDbEntity
  8
0
 62
7
100
AcDbSpline
 70
8
 71
3
 72
8
 73
4
 74
0
 40
0
 40
0
 40
0
 40
0
 40
1
 40
1
 40
1
 40
1
 10
43.765970
 20
39.669807
 30
0.0
 10
41.133247
 20
42.434875
 30
0.0
 10
40.639651
 20
43.438093
 30
0.0
 10
41.138541
 20
45.009959
 30
0.0
  0
SPLINE
  5
20a
100
AcDbEntity
  8
0
 62
7
100
AcDbSpline
 70
8
 71
3
 72
8
 73
4
 74
0
 40
0
 40
0
 40
0
 40
0
 40
1
 40
1
 40
1
 40
1
 10
41.138541
 20
45.009959
 30
0.0
 10
41.301083
 20
45.522087
 30
0.0
 10
41.484881
 20
45.538845
 30
0.0
 10
45.886537
 20
45.442852
 30
0.0
  0
SPLINE
  5
20b
100
AcDbEntity
  8
0
 62
7
100
AcDbSpline
 70
8
 71
3
 72
8
 73
4
 74
0
 40
0
 40
0
 40
0
 40
0
 40
1
 40
1
 40
1
 40
1
 10
45.886537
 20
45.442852
 30
0.0
 10
49.502938
 20
45.363984
 30
0.0
 10
50.818566
 20
45.433459
 30
0.0
 10
52.145332
 20
45.773360
 30
0.0
  0
SPLINE
  5
20c
100
AcDbEntity
  8
0
 62
7
100
AcDbSpline
 70
8
 71
3
 72
8
 73
4
 74
0
 40
0
 40
0
 40
0
 40
0
 40
1
 40
1
 40
1
 40
1
 10
52.145332
 20
45.773360
 30
0.0
 10
53.069268
 20
46.010061
 30
0.0
 10
53.881509
 20
46.147433
 30
0.0
 10
53.950314
 20
46.078629
 30
0.0
  0
SPLINE
  5
20d
100
AcDbEntity
  8
0
 62
7
100
AcDbSpline
 70
8
 71
3
 72
8
 73
4
 74
0
 40
0
 40
0
 40
0
 40
0
 40
1
 40
1
 40
1
 40
1
 10
53.950314
 20
46.078629
 30
0.0
 10
54.159949
 20
45.868993
 30
0.0
 10
51.171904
 20
41.554032
 30
0.0
 10
49.937736
 20
40.284170
 30
0.0
  0
SPLINE
  5
20e
100
AcDbEntity
  8
0
 62
7
100
AcDbSpline
 70
8
 71
3
 72
8
 73
4
 74
0
 40
0
 40
0
 40
0
 40
0
 40
1
 40
1
 40
1
 40
1
 10
49.937736
 20
40.284170
 30
0.0
 10
48.775350
 20
39.088163
 30
0.0
 10
46.989500
 20
37.992373
 30
0.0
 10
46.202706
 20
37.992373
 30
0.0
  0
SPLINE
  5
20f
100
AcDbEntity
  8
0
 62
7
100
AcDbSpline
 70
8
 71
3
 72
8
 73
4
 74
0
 40
0
 40
0
 40
0
 40
0
 40
1
 40
1
 40
1
 40
1
 10
46.202706
 20
37.992373
 30
0.0
 10
45.971203
 20
37.992373
 30
0.0
 10
45.620030
 20
37.605420
 30
0.0
 10
45.422320
 20
37.132477
 30
0.0
  0
SPLINE
  5
210
100
AcDbEntity
  8
0
 62
7
100
AcDbSpline
 70
8
 71
3
 72
8
 73
4
 74
0
 40
0
 40
0
 40
0
 40
0
 40
1
 40
1
 40
1
 40
1
 10
45.422320
 20
37.132477
 30
0.0
 10
44.975941
 20
36.064679
 30
0.0
 10
43.798733
 20
34.566381
 30
0.0
 10
42.640250
 20
33.591582
 30
0.0
  0
SPLINE
  5
211
100
AcDbEntity
  8
0
 62
7
100
AcDbSpline
 70
8
 71
3
 72
8
 73
4
 74
0
 40
0
 40
0
 40
0
 40
0
 40
1
 40
1
 40
1
 40
1
 10
42.640250
 20
33.591582
 30
0.0
 10
41.769893
 20
32.859223
 30
0.0
 10
41.764072
 20
32.858271
 30
0.0
 10
42.102347
 20
33.503563
 30
0.0
  0
LWPOLYLINE
  5
212
100
AcDbEntity
  8
0
 62
7
100
AcDbPolyline
 90
3
 70
0
 10
44.879406
 20
37.192154
 30
0.0
 10
45.317817
 20
38.039950
 30
0.0
 10
43.765970
 20
39.669807
 30
0.0
  0
SPLINE
  5
213
100
AcDbEntity
  8
0
 62
7
100
AcDbSpline
 70
8
 71
3
 72
8
 73
4
 74
0
 40
0
 40
0
 40
0
 40
0
 40
1
 40
1
 40
1
 40
1
 10
49.100237
 20
40.841091
 30
0.0
 10
49.528084
 20
41.056631
 30
0.0
 10
50.096486
 20
41.486111
 30
0.0
 10
50.363355
 20
41.795491
 30
0.0
  0
SPLINE
  5
214
100
AcDbEntity
  8
0
 62
7
100
AcDbSpline
 70
8
 71
3
 72
8
 73
4
 74
0
 40
0
 40
0
 40
0
 40
0
 40
1
 40
1
 40
1
 40
1
 10
50.363355
 20
41.795491
 30
0.0
 10
51.258078
 20
42.832740
 30
0.0
 10
52.403677
 20
44.538461
 30
0.0
 10
52.285175
 20
44.656961
 30
0.0
  0
SPLINE
  5
215
100
AcDbEntity
  8
0
 62
7
100
AcDbSpline
 70
8
 71
3
 72
8
 73
4
 74
0
 40
0
 40
0
 40
0
 40
0
 40
1
 40
1
 40
1
 40
1
 10
52.285175
 20
44.656961
 30
0.0
 10
52.220654
 20
44.721483
 30
0.0
 10
51.124025
 20
44.637263
 30
0.0
 10
49.848222
 20
44.469805
 30
0.0
  0
SPLINE
  5
216
100
AcDbEntity
  8
0
 62
7
100
AcDbSpline
 70
8
 71
3
 72
8
 73
4
 74
0
 40
0
 40
0
 40
0
 40
0
 40
1
 40
1
 40
1
 40
1
 10
49.848222
 20
44.469805
 30
0.0
 10
48.572420
 20
44.302347
 30
0.0
 10
46.827559
 20
44.197773
 30
0.0
 10
45.970751
 20
44.237415
 30
0.0
  0
SPLINE
  5
217
100
AcDbEntity
  8
0
 62
7
100
AcDbSpline
 70
8
 71
3
 72
8
 73
4
 74
0
 40
0
 40
0
 40
0
 40
0
 40
1
 40
1
 40
1
 40
1
 10
45.970751
 20
44.237415
 30
0.0
 10
44.767725
 20
44.293078
 30
0.0
 10
44.484610
 20
44.237944
 30
0.0
 10
44.727686
 20
43.995205
 30
0.0
  0
SPLINE
  5
218
100
AcDbEntity
  8
0
 62
7
100
AcDbSpline
 70
8
 71
3
 72
8
 73
4
 74
0
 40
0
 40
0
 40
0
 40
0
 40
1
 40
1
 40
1
 40
1
 10
44.727686
 20
43.995205
 30
0.0
 10
44.939230
 20
43.783980
 30
0.0
 10
45.970685
 20
43.699647
 30
0.0
 10
47.873018
 20
43.738035
 30
0.0
  0
SPLINE
  5
219
100
AcDbEntity
  8
0
 62
7
100
AcDbSpline
 70
8
 71
3
 72
8
 73
4
 74
0
 40
0
 40
0
 40
0
 40
0
 40
1
 40
1
 40
1
 40
1
 10
47.873018
 20
43.738035
 30
0.0
 10
50.724218
 20
43.795572
 30
0.0
 10
51.166387
 20
43.492513
 30
0.0
 10
48.731861
 20
43.149393
 30
0.0
  0
SPLINE
  5
21a
100
AcDbEntity
  8
0
 62
7
100
AcDbSpline
 70
8
 71
3
 72
8
 73
4
 74
0
 40
0
 40
0
 40
0
 40
0
 40
1
 40
1
 40
1
 40
1
 10
48.731861
 20
43.149393
 30
0.0
 10
48.070058
 20
43.056117
 30
0.0
 10
46.934813
 20
42.827112
 30
0.0
 10
46.209093
 20
42.640491
 30
0.0
  0
SPLINE
  5
21b
100
AcDbEntity
  8
0
 62
7
100
AcDbSpline
 70
8
 71
3
 72
8
 73
4
 74
0
 40
0
 40
0
 40
0
 40
0
 40
1
 40
1
 40
1
 40
1
 10
46.209093
 20
42.640491
 30
0.0
 10
45.123415
 20
42.361305
 30
0.0
 10
44.991777
 20
42.268749
 30
0.0
 10
45.466206
 20
42.118172
 30
0.0
  0
SPLINE
  5
21c
100
AcDbEntity
  8
0
 62
7
100
AcDbSpline
 70
8
 71
3
 72
8
 73
4
 74
0
 40
0
 40
0
 40
0
 40
0
 40
1
 40
1
 40
1
 40
1
 10
45.466206
 20
42.118172
 30
0.0
 10
45.783341
 20
42.017516
 30
0.0
 10
46.893969
 20
42.006710
 30
0.0
 10
47.934271
 20
42.094147
 30
0.0
  0
SPLINE
  5
21d
100
AcDbEntity
  8
0
 62
7
100
AcDbSpline
 70
8
 71
3
 72
8
 73
4
 74
0
 40
0
 40
0
 40
0
 40
0
 40
1
 40
1
 40
1
 40
1
 10
47.934271
 20
42.094147
 30
0.0
 10
50.196462
 20
42.284303
 30
0.0
 10
50.192361
 20
41.972680
 30
0.0
 10
47.921783
 20
41.144785
 30
0.0
  0
SPLINE
  5
21e
100
AcDbEntity
  8
0
 62
7
100
AcDbSpline
 70
8
 71
3
 72
8
 73
4
 74
0
 40
0
 40
0
 40
0
 40
0
 40
1
 40
1
 40
1
 40
1
 10
47.921783
 20
41.144785
 30
0.0
 10
47.056334
 20
40.829225
 30
0.0
 10
46.410076
 20
40.470989
 30
0.0
 10
46.485651
 20
40.348702
 30
0.0
  0
SPLINE
  5
21f
100
AcDbEntity
  8
0
 62
7
100
AcDbSpline
 70
8
 71
3
 72
8
 73
4
 74
0
 40
0
 40
0
 40
0
 40
0
 40
1
 40
1
 40
1
 40
1
 10
46.485651
 20
40.348702
 30
0.0
 10
46.661414
 20
40.064314
 30
0.0
 10
48.093813
 20
40.334070
 30
0.0
 10
49.100243
 20
40.841083
 30
0.0
  0
LWPOLYLINE
  5
220
100
AcDbEntity
  8
0
 62
7
100
AcDbPolyline
 90
1
 70
1
 10
42.102347
 20
33.503563
 30
0.0
  0
SPLINE
  5
221
100
AcDbEntity
  8
0
 62
7
100
AcDbSpline
 70
8
 71
3
 72
8
 73
4
 74
0
 40
0
 40
0
 40
0
 40
0
 40
1
 40
1
 40
1
 40
1
 10
26.525384
 20
34.705544
 30
0.0
 10
26.213121
 20
35.102522
 30
0.0
 10
25.995120
 20
35.464811
 30
0.0
 10
26.040938
 20
35.510629
 30
0.0
  0
SPLINE
  5
222
100
AcDbEntity
  8
0
 62
7
100
AcDbSpline
 70
8
 71
3
 72
8
 73
4
 74
0
 40
0
 40
0
 40
0
 40
0
 40
1
 40
1
 40
1
 40
1
 10
26.040938
 20
35.510629
 30
0.0
 10
26.086756
 20
35.556447
 30
0.0
 10
26.559155
 20
35.460456
 30
0.0
 10
27.090714
 20
35.297316
 30
0.0
  0
SPLINE
  5
223
100
AcDbEntity
  8
0
 62
7
100
AcDbSpline
 70
8
 71
3
 72
8
 73
4
 74
0
 40
0
 40
0
 40
0
 40
0
 40
1
 40
1
 40
1
 40
1
 10
27.090714
 20
35.297316
 30
0.0
 10
28.405026
 20
34.893943
 30
0.0
 10
30.011277
 20
35.522432
 30
0.0
 10
31.829563
 20
37.151522
 30
0.0
  0
SPLINE
  5
224
100
AcDbEntity
  8
0
 62
7
100
AcDbSpline
 70
8
 71
3
 72
8
 73
4
 74
0
 40
0
 40
0
 40
0
 40
0
 40
1
 40
1
 40
1
 40
1
 10
31.829563
 20
37.151522
 30
0.0
 10
33.152741
 20
38.337019
 30
0.0
 10
33.189341
 20
38.352203
 30
0.0
 10
32.696893
 20
37.511360
 30
0.0
  0
SPLINE
  5
225
100
AcDbEntity
  8
0
 62
7
100
AcDbSpline
 70
8
 71
3
 72
8
 73
4
 74
0
 40
0
 40
0
 40
0
 40
0
 40
1
 40
1
 40
1
 40
1
 10
32.696893
 20
37.511360
 30
0.0
 10
32.125084
 20
36.535011
 30
0.0
 10
31.060356
 20
35.645603
 30
0.0
 10
29.508939
 20
34.848345
 30
0.0
  0
SPLINE
  5
226
100
AcDbEntity
  8
0
 62
7
100
AcDbSpline
 70
8
 71
3
 72
8
 73
4
 74
0
 40
0
 40
0
 40
0
 40
0
 40
1
 40
1
 40
1
 40
1
 10
29.508939
 20
34.848345
 30
0.0
 10
27.699901
 20
33.918694
 30
0.0
 10
27.164477
 20
33.893067
 30
0.0
 10
26.525384
 20
34.705544
 30
0.0
  0
LWPOLYLINE
  5
227
100
AcDbEntity
  8
0
 62
7
100
AcDbPolyline
 90
1
 70
1
 10
49.100243
 20
40.841083
 30
0.0
  0
SPLINE
  5
228
100
AcDbEntity
  8
0
 62
7
100
AcDbSpline
 70
8
 71
3
 72
8
 73
4
 74
0
 40
0
 40
0
 40
0
 40
0
 40
1
 40
1
 40
1
 40
1
 10
24.128942
 20
36.603310
 30
0.0
 10
23.572772
 20
37.053668
 30
0.0
 10
23.613576
 20
37.066498
 30
0.0
 10
25.620986
 20
37.072464
 30
0.0
  0
SPLINE
  5
229
100
AcDbEntity
  8
0
 62
7
100
AcDbSpline
 70
8
 71
3
 72
8
 73
4
 74
0
 40
0
 40
0
 40
0
 40
0
 40
1
 40
1
 40
1
 40
1
 10
25.620986
 20
37.072464
 30
0.0
 10
27.703820
 20
37.078655
 30
0.0
 10
29.247507
 20
37.598903
 30
0.0
 10
30.530726
 20
38.727134
 30
0.0
  0
SPLINE
  5
22a
100
AcDbEntity
  8
0
 62
7
100
AcDbSpline
 70
8
 71
3
 72
8
 73
4
 74
0
 40
0
 40
0
 40
0
 40
0
 40
1
 40
1
 40
1
 40
1
 10
30.530726
 20
38.727134
 30
0.0
 10
30.786279
 20
38.951821
 30
0.0
 10
31.059660
 20
39.071365
 30
0.0
 10
31.138241
 20
38.992786
 30
0.0
  0
SPLINE
  5
22b
100
AcDbEntity
  8
0
 62
7
100
AcDbSpline
 70
8
 71
3
 72
8
 73
4
 74
0
 40
0
 40
0
 40
0
 40
0
 40
1
 40
1
 40
1
 40
1
 10
31.138241
 20
38.992786
 30
0.0
 10
31.356750
 20
38.774277
 30
0.0
 10
29.337407
 20
37.261983
 30
0.0
 10
28.042563
 20
36.674420
 30
0.0
  0
SPLINE
  5
22c
100
AcDbEntity
  8
0
 62
7
100
AcDbSpline
 70
8
 71
3
 72
8
 73
4
 74
0
 40
0
 40
0
 40
0
 40
0
 40
1
 40
1
 40
1
 40
1
 10
28.042563
 20
36.674420
 30
0.0
 10
26.596060
 20
36.018039
 30
0.0
 10
24.890006
 20
35.987040
 30
0.0
 10
24.128942
 20
36.603310
 30
0.0
  0
LWPOLYLINE
  5
22d
100
AcDbEntity
  8
0
 62
7
100
AcDbPolyline
 90
1
 70
1
 10
26.525384
 20
34.705544
 30
0.0
  0
SPLINE
  5
22e
100
AcDbEntity
  8
0
 62
7
100
AcDbSpline
 70
8
 71
3
 72
8
 73
4
 74
0
 40
0
 40
0
 40
0
 40
0
 40
1
 40
1
 40
1
 40
1
 10
21.152933
 20
38.013981
 30
0.0
 10
20.481992
 20
38.274450
 30
0.0
 10
20.467061
 20
38.316532
 30
0.0
 10
20.888349
 20
38.759688
 30
0.0
  0
SPLINE
  5
22f
100
AcDbEntity
  8
0
 62
7
100
AcDbSpline
 70
8
 71
3
 72
8
 73
4
 74
0
 40
0
 40
0
 40
0
 40
0
 40
1
 40
1
 40
1
 40
1
 10
20.888349
 20
38.759688
 30
0.0
 10
21.315718
 20
39.209239
 30
0.0
 10
21.379524
 20
39.207173
 30
0.0
 10
22.378604
 20
38.711460
 30
0.0
  0
SPLINE
  5
230
100
AcDbEntity
  8
0
 62
7
100
AcDbSpline
 70
8
 71
3
 72
8
 73
4
 74
0
 40
0
 40
0
 40
0
 40
0
 40
1
 40
1
 40
1
 40
1
 10
22.378604
 20
38.711460
 30
0.0
 10
23.710882
 20
38.050422
 30
0.0
 10
25.622108
 20
38.211144
 30
0.0
 10
27.751765
 20
39.163310
 30
0.0
  0
SPLINE
  5
231
100
AcDbEntity
  8
0
 62
7
100
AcDbSpline
 70
8
 71
3
 72
8
 73
4
 74
0
 40
0
 40
0
 40
0
 40
0
 40
1
 40
1
 40
1
 40
1
 10
27.751765
 20
39.163310
 30
0.0
 10
28.619693
 20
39.551359
 30
0.0
 10
29.045210
 20
39.660301
 30
0.0
 10
28.743167
 20
39.417133
 30
0.0
  0
SPLINE
  5
232
100
AcDbEntity
  8
0
 62
7
100
AcDbSpline
 70
8
 71
3
 72
8
 73
4
 74
0
 40
0
 40
0
 40
0
 40
0
 40
1
 40
1
 40
1
 40
1
 10
28.743167
 20
39.417133
 30
0.0
 10
27.070037
 20
38.070136
 30
0.0
 10
22.963680
 20
37.311026
 30
0.0
 10
21.152933
 20
38.013981
 30
0.0
  0
LWPOLYLINE
  5
233
100
AcDbEntity
  8
0
 62
7
100
AcDbPolyline
 90
1
 70
1
 10
24.128942
 20
36.603310
 30
0.0
  0
SPLINE
  5
234
100
AcDbEntity
  8
0
 62
7
100
AcDbSpline
 70
8
 71
3
 72
8
 73
4
 74
0
 40
0
 40
0
 40
0
 40
0
 40
1
 40
1
 40
1
 40
1
 10
18.874209
 20
39.103623
 30
0.0
 10
18.361134
 20
39.616697
 30
0.0
 10
18.503882
 20
39.973086
 30
0.0
 10
19.350459
 20
40.292634
 30
0.0
  0
SPLINE
  5
235
100
AcDbEntity
  8
0
 62
7
100
AcDbSpline
 70
8
 71
3
 72
8
 73
4
 74
0
 40
0
 40
0
 40
0
 40
0
 40
1
 40
1
 40
1
 40
1
 10
19.350459
 20
40.292634
 30
0.0
 10
20.096795
 20
40.574344
 30
0.0
 10
20.470427
 20
40.341883
 30
0.0
 10
19.868862
 20
39.970096
 30
0.0
  0
SPLINE
  5
236
100
AcDbEntity
  8
0
 62
7
100
AcDbSpline
 70
8
 71
3
 72
8
 73
4
 74
0
 40
0
 40
0
 40
0
 40
0
 40
1
 40
1
 40
1
 40
1
 10
19.868862
 20
39.970096
 30
0.0
 10
19.717423
 20
39.876500
 30
0.0
 10
19.665916
 20
39.571819
 30
0.0
 10
19.754401
 20
39.293022
 30
0.0
  0
SPLINE
  5
237
100
AcDbEntity
  8
0
 62
7
100
AcDbSpline
 70
8
 71
3
 72
8
 73
4
 74
0
 40
0
 40
0
 40
0
 40
0
 40
1
 40
1
 40
1
 40
1
 10
19.754401
 20
39.293022
 30
0.0
 10
19.938416
 20
38.713246
 30
0.0
 10
19.383905
 20
38.593927
 30
0.0
 10
18.874209
 20
39.103623
 30
0.0
  0
LWPOLYLINE
  5
238
100
AcDbEntity
  8
0
 62
7
100
AcDbPolyline
 90
1
 70
1
 10
21.152933
 20
38.013981
 30
0.0
  0
SPLINE
  5
239
100
AcDbEntity
  8
0
 62
7
100
AcDbSpline
 70
8
 71
3
 72
8
 73
4
 74
0
 40
0
 40
0
 40
0
 40
0
 40
1
 40
1
 40
1
 40
1
 10
22.090068
 20
39.520437
 30
0.0
 10
21.513750
 20
39.610789
 30
0.0
 10
20.485926
 20
40.538950
 30
0.0
 10
20.711923
 20
40.764949
 30
0.0
  0
SPLINE
  5
23a
100
AcDbEntity
  8
0
 62
7
100
AcDbSpline
 70
8
 71
3
 72
8
 73
4
 74
0
 40
0
 40
0
 40
0
 40
0
 40
1
 40
1
 40
1
 40
1
 10
20.711923
 20
40.764949
 30
0.0
 10
20.779846
 20
40.832873
 30
0.0
 10
21.293805
 20
40.761880
 30
0.0
 10
21.854052
 20
40.607189
 30
0.0
  0
SPLINE
  5
23b
100
AcDbEntity
  8
0
 62
7
100
AcDbSpline
 70
8
 71
3
 72
8
 73
4
 74
0
 40
0
 40
0
 40
0
 40
0
 40
1
 40
1
 40
1
 40
1
 10
21.854052
 20
40.607189
 30
0.0
 10
22.933766
 20
40.309064
 30
0.0
 10
25.054441
 20
40.499668
 30
0.0
 10
25.313032
 20
40.918077
 30
0.0
  0
SPLINE
  5
23c
100
AcDbEntity
  8
0
 62
7
100
AcDbSpline
 70
8
 71
3
 72
8
 73
4
 74
0
 40
0
 40
0
 40
0
 40
0
 40
1
 40
1
 40
1
 40
1
 10
25.313032
 20
40.918077
 30
0.0
 10
25.507871
 20
41.233333
 30
0.0
 10
25.965042
 20
41.243951
 30
0.0
 10
25.965042
 20
40.933211
 30
0.0
  0
SPLINE
  5
23d
100
AcDbEntity
  8
0
 62
7
100
AcDbSpline
 70
8
 71
3
 72
8
 73
4
 74
0
 40
0
 40
0
 40
0
 40
0
 40
1
 40
1
 40
1
 40
1
 10
25.965042
 20
40.933211
 30
0.0
 10
25.965042
 20
40.277963
 30
0.0
 10
23.346855
 20
39.323394
 30
0.0
 10
22.090068
 20
39.520429
 30
0.0
  0
LWPOLYLINE
  5
23e
100
AcDbEntity
  8
0
 62
7
100
AcDbPolyline
 90
1
 70
1
 10
18.874209
 20
39.103623
 30
0.0
  0
LWPOLYLINE
  5
23f
100
AcDbEntity
  8
0
 62
7
100
AcDbPolyline
 90
1
 70
1
 10
22.090068
 20
39.520429
 30
0.0
  0
SPLINE
  5
240
100
AcDbEntity
  8
0
 62
7
100
AcDbSpline
 70
8
 71
3
 72
8
 73
4
 74
0
 40
0
 40
0
 40
0
 40
0
 40
1
 40
1
 40
1
 40
1
 10
15.527240
 20
41.320686
 30
0.0
 10
16.817370
 20
41.839002
 30
0.0
 10
18.119654
 20
42.059630
 30
0.0
 10
17.912737
 20
41.724831
 30
0.0
  0
SPLINE
  5
241
100
AcDbEntity
  8
0
 62
7
100
AcDbSpline
 70
8
 71
3
 72
8
 73
4
 74
0
 40
0
 40
0
 40
0
 40
0
 40
1
 40
1
 40
1
 40
1
 10
17.912737
 20
41.724831
 30
0.0
 10
17.813182
 20
41.563750
 30
0.0
 10
17.507657
 20
41.431956
 30
0.0
 10
17.233792
 20
41.431956
 30
0.0
  0
SPLINE
  5
242
100
AcDbEntity
  8
0
 62
7
100
AcDbSpline
 70
8
 71
3
 72
8
 73
4
 74
0
 40
0
 40
0
 40
0
 40
0
 40
1
 40
1
 40
1
 40
1
 10
17.233792
 20
41.431956
 30
0.0
 10
16.656305
 20
41.431956
 30
0.0
 10
16.310476
 20
41.014097
 30
0.0
 10
16.692539
 20
40.777967
 30
0.0
  0
SPLINE
  5
243
100
AcDbEntity
  8
0
 62
7
100
AcDbSpline
 70
8
 71
3
 72
8
 73
4
 74
0
 40
0
 40
0
 40
0
 40
0
 40
1
 40
1
 40
1
 40
1
 10
16.692539
 20
40.777967
 30
0.0
 10
16.836160
 20
40.689205
 30
0.0
 10
17.325417
 20
40.808820
 30
0.0
 10
17.779776
 20
41.043778
 30
0.0
  0
SPLINE
  5
244
100
AcDbEntity
  8
0
 62
7
100
AcDbSpline
 70
8
 71
3
 72
8
 73
4
 74
0
 40
0
 40
0
 40
0
 40
0
 40
1
 40
1
 40
1
 40
1
 10
17.779776
 20
41.043778
 30
0.0
 10
18.688077
 20
41.513477
 30
0.0
 10
19.065479
 20
41.434824
 30
0.0
 10
18.430812
 20
40.908097
 30
0.0
  0
SPLINE
  5
245
100
AcDbEntity
  8
0
 62
7
100
AcDbSpline
 70
8
 71
3
 72
8
 73
4
 74
0
 40
0
 40
0
 40
0
 40
0
 40
1
 40
1
 40
1
 40
1
 10
18.430812
 20
40.908097
 30
0.0
 10
18.209014
 20
40.724021
 30
0.0
 10
18.027542
 20
40.409397
 30
0.0
 10
18.027542
 20
40.208936
 30
0.0
  0
SPLINE
  5
246
100
AcDbEntity
  8
0
 62
7
100
AcDbSpline
 70
8
 71
3
 72
8
 73
4
 74
0
 40
0
 40
0
 40
0
 40
0
 40
1
 40
1
 40
1
 40
1
 10
18.027542
 20
40.208936
 30
0.0
 10
18.027542
 20
39.763094
 30
0.0
 10
17.981925
 20
39.769206
 30
0.0
 10
16.188698
 20
40.455363
 30
0.0
  0
LWPOLYLINE
  5
247
100
AcDbEntity
  8
0
 62
7
100
AcDbPolyline
 90
3
 70
0
 10
16.188698
 20
40.455363
 30
0.0
 10
14.746730
 20
41.007115
 30
0.0
 10
15.527240
 20
41.320686
 30
0.0
  0
SPLINE
  5
248
100
AcDbEntity
  8
0
 62
7
100
AcDbSpline
 70
8
 71
3
 72
8
 73
4
 74
0
 40
0
 40
0
 40
0
 40
0
 40
1
 40
1
 40
1
 40
1
 10
12.524915
 20
41.393216
 30
0.0
 10
11.958522
 20
41.752504
 30
0.0
 10
12.740672
 20
42.196956
 30
0.0
 10
14.485517
 20
42.507313
 30
0.0
  0
SPLINE
  5
249
100
AcDbEntity
  8
0
 62
7
100
AcDbSpline
 70
8
 71
3
 72
8
 73
4
 74
0
 40
0
 40
0
 40
0
 40
0
 40
1
 40
1
 40
1
 40
1
 10
14.485517
 20
42.507313
 30
0.0
 10
15.342225
 20
42.659697
 30
0.0
 10
16.266436
 20
42.850025
 30
0.0
 10
16.539322
 20
42.930262
 30
0.0
  0
SPLINE
  5
24a
100
AcDbEntity
  8
0
 62
7
100
AcDbSpline
 70
8
 71
3
 72
8
 73
4
 74
0
 40
0
 40
0
 40
0
 40
0
 40
1
 40
1
 40
1
 40
1
 10
16.539322
 20
42.930262
 30
0.0
 10
16.838782
 20
43.018313
 30
0.0
 10
16.969346
 20
42.969146
 30
0.0
 10
16.868664
 20
42.806242
 30
0.0
  0
SPLINE
  5
24b
100
AcDbEntity
  8
0
 62
7
100
AcDbSpline
 70
8
 71
3
 72
8
 73
4
 74
0
 40
0
 40
0
 40
0
 40
0
 40
1
 40
1
 40
1
 40
1
 10
16.868664
 20
42.806242
 30
0.0
 10
16.776917
 20
42.657792
 30
0.0
 10
16.196461
 20
42.457746
 30
0.0
 10
15.578760
 20
42.361691
 30
0.0
  0
SPLINE
  5
24c
100
AcDbEntity
  8
0
 62
7
100
AcDbSpline
 70
8
 71
3
 72
8
 73
4
 74
0
 40
0
 40
0
 40
0
 40
0
 40
1
 40
1
 40
1
 40
1
 10
15.578760
 20
42.361691
 30
0.0
 10
14.961058
 20
42.265640
 30
0.0
 10
14.226720
 20
42.121659
 30
0.0
 10
13.946894
 20
42.041736
 30
0.0
  0
SPLINE
  5
24d
100
AcDbEntity
  8
0
 62
7
100
AcDbSpline
 70
8
 71
3
 72
8
 73
4
 74
0
 40
0
 40
0
 40
0
 40
0
 40
1
 40
1
 40
1
 40
1
 10
13.946894
 20
42.041736
 30
0.0
 10
13.475889
 20
41.907209
 30
0.0
 10
13.485710
 20
41.870056
 30
0.0
 10
14.079186
 20
41.541271
 30
0.0
  0
SPLINE
  5
24e
100
AcDbEntity
  8
0
 62
7
100
AcDbSpline
 70
8
 71
3
 72
8
 73
4
 74
0
 40
0
 40
0
 40
0
 40
0
 40
1
 40
1
 40
1
 40
1
 10
14.079186
 20
41.541271
 30
0.0
 10
14.714300
 20
41.189421
 30
0.0
 10
14.711654
 20
41.186074
 30
0.0
 10
13.794209
 20
41.180800
 30
0.0
  0
SPLINE
  5
24f
100
AcDbEntity
  8
0
 62
7
100
AcDbSpline
 70
8
 71
3
 72
8
 73
4
 74
0
 40
0
 40
0
 40
0
 40
0
 40
1
 40
1
 40
1
 40
1
 10
13.794209
 20
41.180800
 30
0.0
 10
13.284886
 20
41.177864
 30
0.0
 10
12.713703
 20
41.273460
 30
0.0
 10
12.524915
 20
41.393216
 30
0.0
  0
LWPOLYLINE
  5
250
100
AcDbEntity
  8
0
 62
7
100
AcDbPolyline
 90
1
 70
1
 10
16.188698
 20
40.455363
 30
0.0
  0
SPLINE
  5
251
100
AcDbEntity
  8
0
 62
7
100
AcDbSpline
 70
8
 71
3
 72
8
 73
4
 74
0
 40
0
 40
0
 40
0
 40
0
 40
1
 40
1
 40
1
 40
1
 10
19.482750
 20
41.469752
 30
0.0
 10
19.191709
 20
41.641435
 30
0.0
 10
18.858371
 20
41.941295
 30
0.0
 10
18.741996
 20
42.136102
 30
0.0
  0
SPLINE
  5
252
100
AcDbEntity
  8
0
 62
7
100
AcDbSpline
 70
8
 71
3
 72
8
 73
4
 74
0
 40
0
 40
0
 40
0
 40
0
 40
1
 40
1
 40
1
 40
1
 10
18.741996
 20
42.136102
 30
0.0
 10
18.625622
 20
42.330912
 30
0.0
 10
18.179138
 20
42.671950
 30
0.0
 10
17.749809
 20
42.893964
 30
0.0
  0
SPLINE
  5
253
100
AcDbEntity
  8
0
 62
7
100
AcDbSpline
 70
8
 71
3
 72
8
 73
4
 74
0
 40
0
 40
0
 40
0
 40
0
 40
1
 40
1
 40
1
 40
1
 10
17.749809
 20
42.893964
 30
0.0
 10
16.567584
 20
43.505316
 30
0.0
 10
16.805363
 20
43.726531
 30
0.0
 10
18.512021
 20
43.603085
 30
0.0
  0
SPLINE
  5
254
100
AcDbEntity
  8
0
 62
7
100
AcDbSpline
 70
8
 71
3
 72
8
 73
4
 74
0
 40
0
 40
0
 40
0
 40
0
 40
1
 40
1
 40
1
 40
1
 10
18.512021
 20
43.603085
 30
0.0
 10
19.734639
 20
43.514648
 30
0.0
 10
20.404633
 20
43.632779
 30
0.0
 10
21.740337
 20
44.172293
 30
0.0
  0
SPLINE
  5
255
100
AcDbEntity
  8
0
 62
7
100
AcDbSpline
 70
8
 71
3
 72
8
 73
4
 74
0
 40
0
 40
0
 40
0
 40
0
 40
1
 40
1
 40
1
 40
1
 10
21.740337
 20
44.172293
 30
0.0
 10
22.667365
 20
44.546737
 30
0.0
 10
23.472630
 20
44.806312
 30
0.0
 10
23.529814
 20
44.749127
 30
0.0
  0
SPLINE
  5
256
100
AcDbEntity
  8
0
 62
7
100
AcDbSpline
 70
8
 71
3
 72
8
 73
4
 74
0
 40
0
 40
0
 40
0
 40
0
 40
1
 40
1
 40
1
 40
1
 10
23.529814
 20
44.749127
 30
0.0
 10
23.760661
 20
44.518283
 30
0.0
 10
21.366848
 20
43.247355
 30
0.0
 10
20.072459
 20
42.913541
 30
0.0
  0
LWPOLYLINE
  5
257
100
AcDbEntity
  8
0
 62
7
100
AcDbPolyline
 90
1
 70
1
 10
12.524915
 20
41.393216
 30
0.0
  0
SPLINE
  5
258
100
AcDbEntity
  8
0
 62
7
100
AcDbSpline
 70
8
 71
3
 72
8
 73
4
 74
0
 40
0
 40
0
 40
0
 40
0
 40
1
 40
1
 40
1
 40
1
 10
19.752723
 20
42.235263
 30
0.0
 10
20.812107
 20
41.915080
 30
0.0
 10
21.538970
 20
42.066498
 30
0.0
 10
24.222509
 20
43.166398
 30
0.0
  0
SPLINE
  5
259
100
AcDbEntity
  8
0
 62
7
100
AcDbSpline
 70
8
 71
3
 72
8
 73
4
 74
0
 40
0
 40
0
 40
0
 40
0
 40
1
 40
1
 40
1
 40
1
 10
24.222509
 20
43.166398
 30
0.0
 10
25.105247
 20
43.528205
 30
0.0
 10
24.440518
 20
42.814081
 30
0.0
 10
23.239389
 20
42.110223
 30
0.0
  0
SPLINE
  5
25a
100
AcDbEntity
  8
0
 62
7
100
AcDbSpline
 70
8
 71
3
 72
8
 73
4
 74
0
 40
0
 40
0
 40
0
 40
0
 40
1
 40
1
 40
1
 40
1
 10
23.239389
 20
42.110223
 30
0.0
 10
21.899222
 20
41.324887
 30
0.0
 10
20.215075
 20
41.037756
 30
0.0
 10
19.482750
 20
41.469752
 30
0.0
  0
LWPOLYLINE
  5
25b
100
AcDbEntity
  8
0
 62
7
100
AcDbPolyline
 90
3
 70
0
 10
20.072459
 20
42.913541
 30
0.0
 10
18.689000
 20
42.556755
 30
0.0
 10
19.752723
 20
42.235263
 30
0.0
  0
SPLINE
  5
25c
100
AcDbEntity
  8
0
 62
7
100
AcDbSpline
 70
8
 71
3
 72
8
 73
4
 74
0
 40
0
 40
0
 40
0
 40
0
 40
1
 40
1
 40
1
 40
1
 10
10.817646
 20
42.294802
 30
0.0
 10
9.598481
 20
42.599602
 30
0.0
 10
9.557901
 20
42.893255
 30
0.0
 10
10.685355
 20
43.252117
 30
0.0
  0
SPLINE
  5
25d
100
AcDbEntity
  8
0
 62
7
100
AcDbSpline
 70
8
 71
3
 72
8
 73
4
 74
0
 40
0
 40
0
 40
0
 40
0
 40
1
 40
1
 40
1
 40
1
 10
10.685355
 20
43.252117
 30
0.0
 10
11.774996
 20
43.598941
 30
0.0
 10
15.273761
 20
43.904379
 30
0.0
 10
14.323375
 20
43.569713
 30
0.0
  0
SPLINE
  5
25e
100
AcDbEntity
  8
0
 62
7
100
AcDbSpline
 70
8
 71
3
 72
8
 73
4
 74
0
 40
0
 40
0
 40
0
 40
0
 40
1
 40
1
 40
1
 40
1
 10
14.323375
 20
43.569713
 30
0.0
 10
13.959573
 20
43.441604
 30
0.0
 10
13.245198
 20
43.323095
 30
0.0
 10
12.735875
 20
43.306362
 30
0.0
  0
SPLINE
  5
25f
100
AcDbEntity
  8
0
 62
7
100
AcDbSpline
 70
8
 71
3
 72
8
 73
4
 74
0
 40
0
 40
0
 40
0
 40
0
 40
1
 40
1
 40
1
 40
1
 10
12.735875
 20
43.306362
 30
0.0
 10
12.226552
 20
43.289614
 30
0.0
 10
11.634105
 20
43.164810
 30
0.0
 10
11.419327
 20
43.028992
 30
0.0
  0
SPLINE
  5
260
100
AcDbEntity
  8
0
 62
7
100
AcDbSpline
 70
8
 71
3
 72
8
 73
4
 74
0
 40
0
 40
0
 40
0
 40
0
 40
1
 40
1
 40
1
 40
1
 10
11.419327
 20
43.028992
 30
0.0
 10
11.099901
 20
42.826996
 30
0.0
 10
11.144253
 20
42.739344
 30
0.0
 10
11.663001
 20
42.547447
 30
0.0
  0
SPLINE
  5
261
100
AcDbEntity
  8
0
 62
7
100
AcDbSpline
 70
8
 71
3
 72
8
 73
4
 74
0
 40
0
 40
0
 40
0
 40
0
 40
1
 40
1
 40
1
 40
1
 10
11.663001
 20
42.547447
 30
0.0
 10
12.603983
 20
42.199356
 30
0.0
 10
11.964213
 20
42.008152
 30
0.0
 10
10.817646
 20
42.294802
 30
0.0
  0
LWPOLYLINE
  5
262
100
AcDbEntity
  8
0
 62
7
100
AcDbPolyline
 90
1
 70
1
 10
19.482750
 20
41.469752
 30
0.0
  0
SPLINE
  5
263
100
AcDbEntity
  8
0
 62
7
100
AcDbSpline
 70
8
 71
3
 72
8
 73
4
 74
0
 40
0
 40
0
 40
0
 40
0
 40
1
 40
1
 40
1
 40
1
 10
39.339001
 20
45.909643
 30
0.0
 10
39.255943
 20
46.044037
 30
0.0
 10
38.594072
 20
46.351262
 30
0.0
 10
37.868180
 20
46.592365
 30
0.0
  0
SPLINE
  5
264
100
AcDbEntity
  8
0
 62
7
100
AcDbSpline
 70
8
 71
3
 72
8
 73
4
 74
0
 40
0
 40
0
 40
0
 40
0
 40
1
 40
1
 40
1
 40
1
 10
37.868180
 20
46.592365
 30
0.0
 10
37.142288
 20
46.833467
 30
0.0
 10
36.551089
 20
47.110462
 30
0.0
 10
36.554410
 20
47.207907
 30
0.0
  0
SPLINE
  5
265
100
AcDbEntity
  8
0
 62
7
100
AcDbSpline
 70
8
 71
3
 72
8
 73
4
 74
0
 40
0
 40
0
 40
0
 40
0
 40
1
 40
1
 40
1
 40
1
 10
36.554410
 20
47.207907
 30
0.0
 10
36.563882
 20
47.485597
 30
0.0
 10
42.879870
 20
50.858818
 30
0.0
 10
44.353583
 20
51.373254
 30
0.0
  0
SPLINE
  5
266
100
AcDbEntity
  8
0
 62
7
100
AcDbSpline
 70
8
 71
3
 72
8
 73
4
 74
0
 40
0
 40
0
 40
0
 40
0
 40
1
 40
1
 40
1
 40
1
 10
44.353583
 20
51.373254
 30
0.0
 10
45.128360
 20
51.643709
 30
0.0
 10
46.498708
 20
51.842277
 30
0.0
 10
47.660875
 20
51.852491
 30
0.0
  0
SPLINE
  5
267
100
AcDbEntity
  8
0
 62
7
100
AcDbSpline
 70
8
 71
3
 72
8
 73
4
 74
0
 40
0
 40
0
 40
0
 40
0
 40
1
 40
1
 40
1
 40
1
 10
47.660875
 20
51.852491
 30
0.0
 10
49.373496
 20
51.867543
 30
0.0
 10
49.898885
 20
51.750787
 30
0.0
 10
51.497333
 20
50.999922
 30
0.0
  0
SPLINE
  5
268
100
AcDbEntity
  8
0
 62
7
100
AcDbSpline
 70
8
 71
3
 72
8
 73
4
 74
0
 40
0
 40
0
 40
0
 40
0
 40
1
 40
1
 40
1
 40
1
 10
51.497333
 20
50.999922
 30
0.0
 10
52.515979
 20
50.521417
 30
0.0
 10
53.626618
 20
49.869513
 30
0.0
 10
53.965419
 20
49.551247
 30
0.0
  0
SPLINE
  5
269
100
AcDbEntity
  8
0
 62
7
100
AcDbSpline
 70
8
 71
3
 72
8
 73
4
 74
0
 40
0
 40
0
 40
0
 40
0
 40
1
 40
1
 40
1
 40
1
 10
53.965419
 20
49.551247
 30
0.0
 10
54.562827
 20
48.990048
 30
0.0
 10
54.815751
 20
48.968588
 30
0.0
 10
62.344390
 20
48.840289
 30
0.0
  0
SPLINE
  5
26a
100
AcDbEntity
  8
0
 62
7
100
AcDbSpline
 70
8
 71
3
 72
8
 73
4
 74
0
 40
0
 40
0
 40
0
 40
0
 40
1
 40
1
 40
1
 40
1
 10
62.344390
 20
48.840289
 30
0.0
 10
66.614024
 20
48.767529
 30
0.0
 10
70.175964
 20
48.639169
 30
0.0
 10
70.259813
 20
48.555046
 30
0.0
  0
SPLINE
  5
26b
100
AcDbEntity
  8
0
 62
7
100
AcDbSpline
 70
8
 71
3
 72
8
 73
4
 74
0
 40
0
 40
0
 40
0
 40
0
 40
1
 40
1
 40
1
 40
1
 10
70.259813
 20
48.555046
 30
0.0
 10
70.343662
 20
48.470922
 30
0.0
 10
68.253512
 20
48.253986
 30
0.0
 10
65.615039
 20
48.072965
 30
0.0
  0
SPLINE
  5
26c
100
AcDbEntity
  8
0
 62
7
100
AcDbSpline
 70
8
 71
3
 72
8
 73
4
 74
0
 40
0
 40
0
 40
0
 40
0
 40
1
 40
1
 40
1
 40
1
 10
65.615039
 20
48.072965
 30
0.0
 10
60.184911
 20
47.700414
 30
0.0
 10
56.503914
 20
47.208253
 30
0.0
 10
55.623486
 20
46.737062
 30
0.0
  0
SPLINE
  5
26d
100
AcDbEntity
  8
0
 62
7
100
AcDbSpline
 70
8
 71
3
 72
8
 73
4
 74
0
 40
0
 40
0
 40
0
 40
0
 40
1
 40
1
 40
1
 40
1
 10
55.623486
 20
46.737062
 30
0.0
 10
55.138989
 20
46.477767
 30
0.0
 10
54.941306
 20
46.490410
 30
0.0
 10
54.584177
 20
46.803531
 30
0.0
  0
SPLINE
  5
26e
100
AcDbEntity
  8
0
 62
7
100
AcDbSpline
 70
8
 71
3
 72
8
 73
4
 74
0
 40
0
 40
0
 40
0
 40
0
 40
1
 40
1
 40
1
 40
1
 10
54.584177
 20
46.803531
 30
0.0
 10
54.341623
 20
47.016199
 30
0.0
 10
53.868291
 20
47.274053
 30
0.0
 10
53.532334
 20
47.376541
 30
0.0
  0
SPLINE
  5
26f
100
AcDbEntity
  8
0
 62
7
100
AcDbSpline
 70
8
 71
3
 72
8
 73
4
 74
0
 40
0
 40
0
 40
0
 40
0
 40
1
 40
1
 40
1
 40
1
 10
53.532334
 20
47.376541
 30
0.0
 10
52.947104
 20
47.555073
 30
0.0
 10
52.939529
 20
47.590396
 30
0.0
 10
53.351599
 20
48.219293
 30
0.0
  0
SPLINE
  5
270
100
AcDbEntity
  8
0
 62
7
100
AcDbSpline
 70
8
 71
3
 72
8
 73
4
 74
0
 40
0
 40
0
 40
0
 40
0
 40
1
 40
1
 40
1
 40
1
 10
53.351599
 20
48.219293
 30
0.0
 10
53.680331
 20
48.721003
 30
0.0
 10
53.710255
 20
48.961783
 30
0.0
 10
53.478568
 20
49.240947
 30
0.0
  0
SPLINE
  5
271
100
AcDbEntity
  8
0
 62
7
100
AcDbSpline
 70
8
 71
3
 72
8
 73
4
 74
0
 40
0
 40
0
 40
0
 40
0
 40
1
 40
1
 40
1
 40
1
 10
53.478568
 20
49.240947
 30
0.0
 10
53.137811
 20
49.651535
 30
0.0
 10
51.408116
 20
50.315294
 30
0.0
 10
50.108271
 20
50.534278
 30
0.0
  0
SPLINE
  5
272
100
AcDbEntity
  8
0
 62
7
100
AcDbSpline
 70
8
 71
3
 72
8
 73
4
 74
0
 40
0
 40
0
 40
0
 40
0
 40
1
 40
1
 40
1
 40
1
 10
50.108271
 20
50.534278
 30
0.0
 10
48.843634
 20
50.747330
 30
0.0
 10
49.061664
 20
50.482422
 30
0.0
 10
50.435714
 20
50.136433
 30
0.0
  0
SPLINE
  5
273
100
AcDbEntity
  8
0
 62
7
100
AcDbSpline
 70
8
 71
3
 72
8
 73
4
 74
0
 40
0
 40
0
 40
0
 40
0
 40
1
 40
1
 40
1
 40
1
 10
50.435714
 20
50.136433
 30
0.0
 10
51.897799
 20
49.768276
 30
0.0
 10
51.782038
 20
49.492945
 30
0.0
 10
50.069657
 20
49.265791
 30
0.0
  0
SPLINE
  5
274
100
AcDbEntity
  8
0
 62
7
100
AcDbSpline
 70
8
 71
3
 72
8
 73
4
 74
0
 40
0
 40
0
 40
0
 40
0
 40
1
 40
1
 40
1
 40
1
 10
50.069657
 20
49.265791
 30
0.0
 10
48.414387
 20
49.046211
 30
0.0
 10
47.520619
 20
48.376096
 30
0.0
 10
47.782504
 20
47.550966
 30
0.0
  0
SPLINE
  5
275
100
AcDbEntity
  8
0
 62
7
100
AcDbSpline
 70
8
 71
3
 72
8
 73
4
 74
0
 40
0
 40
0
 40
0
 40
0
 40
1
 40
1
 40
1
 40
1
 10
47.782504
 20
47.550966
 30
0.0
 10
47.886371
 20
47.223707
 30
0.0
 10
48.258685
 20
46.825033
 30
0.0
 10
48.609864
 20
46.665025
 30
0.0
  0
SPLINE
  5
276
100
AcDbEntity
  8
0
 62
7
100
AcDbSpline
 70
8
 71
3
 72
8
 73
4
 74
0
 40
0
 40
0
 40
0
 40
0
 40
1
 40
1
 40
1
 40
1
 10
48.609864
 20
46.665025
 30
0.0
 10
48.961045
 20
46.505016
 30
0.0
 10
49.248375
 20
46.289032
 30
0.0
 10
49.248375
 20
46.185059
 30
0.0
  0
SPLINE
  5
277
100
AcDbEntity
  8
0
 62
7
100
AcDbSpline
 70
8
 71
3
 72
8
 73
4
 74
0
 40
0
 40
0
 40
0
 40
0
 40
1
 40
1
 40
1
 40
1
 10
49.248375
 20
46.185059
 30
0.0
 10
49.248375
 20
45.915088
 30
0.0
 10
47.816619
 20
45.665289
 30
0.0
 10
46.269246
 20
45.665289
 30
0.0
  0
SPLINE
  5
278
100
AcDbEntity
  8
0
 62
7
100
AcDbSpline
 70
8
 71
3
 72
8
 73
4
 74
0
 40
0
 40
0
 40
0
 40
0
 40
1
 40
1
 40
1
 40
1
 10
46.269246
 20
45.665289
 30
0.0
 10
45.110154
 20
45.665289
 30
0.0
 10
41.612844
 20
46.157827
 30
0.0
 10
41.346840
 20
46.358527
 30
0.0
  0
SPLINE
  5
279
100
AcDbEntity
  8
0
 62
7
100
AcDbSpline
 70
8
 71
3
 72
8
 73
4
 74
0
 40
0
 40
0
 40
0
 40
0
 40
1
 40
1
 40
1
 40
1
 10
41.346840
 20
46.358527
 30
0.0
 10
41.293862
 20
46.398500
 30
0.0
 10
41.508222
 20
46.848185
 30
0.0
 10
41.823198
 20
47.357827
 30
0.0
  0
SPLINE
  5
27a
100
AcDbEntity
  8
0
 62
7
100
AcDbSpline
 70
8
 71
3
 72
8
 73
4
 74
0
 40
0
 40
0
 40
0
 40
0
 40
1
 40
1
 40
1
 40
1
 10
41.823198
 20
47.357827
 30
0.0
 10
42.470782
 20
48.405639
 30
0.0
 10
43.739284
 20
49.273885
 30
0.0
 10
45.365397
 20
49.782340
 30
0.0
  0
SPLINE
  5
27b
100
AcDbEntity
  8
0
 62
7
100
AcDbSpline
 70
8
 71
3
 72
8
 73
4
 74
0
 40
0
 40
0
 40
0
 40
0
 40
1
 40
1
 40
1
 40
1
 10
45.365397
 20
49.782340
 30
0.0
 10
46.317678
 20
50.080101
 30
0.0
 10
46.368600
 20
50.130251
 30
0.0
 10
45.734147
 20
50.145507
 30
0.0
  0
SPLINE
  5
27c
100
AcDbEntity
  8
0
 62
7
100
AcDbSpline
 70
8
 71
3
 72
8
 73
4
 74
0
 40
0
 40
0
 40
0
 40
0
 40
1
 40
1
 40
1
 40
1
 10
45.734147
 20
50.145507
 30
0.0
 10
44.093802
 20
50.184949
 30
0.0
 10
41.339834
 20
48.263070
 30
0.0
 10
40.356816
 20
46.392894
 30
0.0
  0
SPLINE
  5
27d
100
AcDbEntity
  8
0
 62
7
100
AcDbSpline
 70
8
 71
3
 72
8
 73
4
 74
0
 40
0
 40
0
 40
0
 40
0
 40
1
 40
1
 40
1
 40
1
 10
40.356816
 20
46.392894
 30
0.0
 10
39.964929
 20
45.647328
 30
0.0
 10
39.606344
 20
45.477075
 30
0.0
 10
39.339001
 20
45.909643
 30
0.0
  0
LWPOLYLINE
  5
27e
100
AcDbEntity
  8
0
 62
7
100
AcDbPolyline
 90
1
 70
1
 10
10.817646
 20
42.294802
 30
0.0
  0
SPLINE
  5
27f
100
AcDbEntity
  8
0
 62
7
100
AcDbSpline
 70
8
 71
3
 72
8
 73
4
 74
0
 40
0
 40
0
 40
0
 40
0
 40
1
 40
1
 40
1
 40
1
 10
50.571292
 20
46.922372
 30
0.0
 10
49.881893
 20
47.185850
 30
0.0
 10
49.535741
 20
47.859314
 30
0.0
 10
49.818322
 20
48.387323
 30
0.0
  0
SPLINE
  5
280
100
AcDbEntity
  8
0
 62
7
100
AcDbSpline
 70
8
 71
3
 72
8
 73
4
 74
0
 40
0
 40
0
 40
0
 40
0
 40
1
 40
1
 40
1
 40
1
 10
49.818322
 20
48.387323
 30
0.0
 10
50.211839
 20
49.122616
 30
0.0
 10
52.523594
 20
48.932468
 30
0.0
 10
52.634581
 20
48.155679
 30
0.0
  0
SPLINE
  5
281
100
AcDbEntity
  8
0
 62
7
100
AcDbSpline
 70
8
 71
3
 72
8
 73
4
 74
0
 40
0
 40
0
 40
0
 40
0
 40
1
 40
1
 40
1
 40
1
 10
52.634581
 20
48.155679
 30
0.0
 10
52.754154
 20
47.318775
 30
0.0
 10
51.498280
 20
46.568090
 30
0.0
 10
50.571292
 20
46.922372
 30
0.0
  0
LWPOLYLINE
  5
282
100
AcDbEntity
  8
0
 62
7
100
AcDbPolyline
 90
1
 70
1
 10
39.339001
 20
45.909643
 30
0.0
  0
LWPOLYLINE
  5
283
100
AcDbEntity
  8
0
 62
7
100
AcDbPolyline
 90
1
 70
1
 10
50.571292
 20
46.922372
 30
0.0
  0
ENDSEC
  0
SECTION
  2
OBJECTS
  0
DICTIONARY
  5
C
330
0
100
AcDbDictionary
  3
ACAD_GROUP
350
D
  3
ACAD_MLINESTYLE
350
17
  0
DICTIONARY
  5
D
330
C
100
AcDbDictionary
  0
DICTIONARY
  5
1A
330
C
100
AcDbDictionary
  0
DICTIONARY
  5
17
330
C
100
AcDbDictionary
  3
STANDARD
350
18
  0
DICTIONARY
  5
19
330
C
100
AcDbDictionary
  0
ENDSEC
  0
EOF
