  0
SECTION
  2
BLOCKS
  0
ENDSEC
  0
SECTION
  2
ENTITIES
  0
LINE
  8
0
 10
3.000000
 11
3.000000
 20
3.000000
 21
103.000000
  0
LINE
  8
0
 10
3.000000
 11
18.000000
 20
103.000000
 21
103.000000
  0
LINE
  8
0
 10
18.000000
 11
18.000000
 20
103.000000
 21
100.000000
  0
LINE
  8
0
 10
18.000000
 11
28.000000
 20
100.000000
 21
100.000000
  0
LINE
  8
0
 10
28.000000
 11
28.000000
 20
100.000000
 21
103.000000
  0
LINE
  8
0
 10
28.000000
 11
38.000000
 20
103.000000
 21
103.000000
  0
LINE
  8
0
 10
38.000000
 11
38.000000
 20
103.000000
 21
100.000000
  0
LINE
  8
0
 10
38.000000
 11
48.000000
 20
100.000000
 21
100.000000
  0
LINE
  8
0
 10
48.000000
 11
48.000000
 20
100.000000
 21
103.000000
  0
LINE
  8
0
 10
48.000000
 11
58.000000
 20
103.000000
 21
103.000000
  0
LINE
  8
0
 10
58.000000
 11
58.000000
 20
103.000000
 21
100.000000
  0
LINE
  8
0
 10
58.000000
 11
68.000000
 20
100.000000
 21
100.000000
  0
LINE
  8
0
 10
68.000000
 11
68.000000
 20
100.000000
 21
103.000000
  0
LINE
  8
0
 10
68.000000
 11
78.000000
 20
103.000000
 21
103.000000
  0
LINE
  8
0
 10
78.000000
 11
78.000000
 20
103.000000
 21
100.000000
  0
LINE
  8
0
 10
78.000000
 11
88.000000
 20
100.000000
 21
100.000000
  0
LINE
  8
0
 10
88.000000
 11
88.000000
 20
100.000000
 21
103.000000
  0
LINE
  8
0
 10
88.000000
 11
103.000000
 20
103.000000
 21
103.000000
  0
LINE
  8
0
 10
103.000000
 11
103.000000
 20
103.000000
 21
88.000000
  0
LINE
  8
0
 10
103.000000
 11
100.000000
 20
88.000000
 21
88.000000
  0
LINE
  8
0
 10
100.000000
 11
100.000000
 20
88.000000
 21
78.000000
  0
LINE
  8
0
 10
100.000000
 11
103.000000
 20
78.000000
 21
78.000000
  0
LINE
  8
0
 10
103.000000
 11
103.000000
 20
78.000000
 21
68.000000
  0
LINE
  8
0
 10
103.000000
 11
100.000000
 20
68.000000
 21
68.000000
  0
LINE
  8
0
 10
100.000000
 11
100.000000
 20
68.000000
 21
58.000000
  0
LINE
  8
0
 10
100.000000
 11
103.000000
 20
58.000000
 21
58.000000
  0
LINE
  8
0
 10
103.000000
 11
103.000000
 20
58.000000
 21
48.000000
  0
LINE
  8
0
 10
103.000000
 11
100.000000
 20
48.000000
 21
48.000000
  0
LINE
  8
0
 10
100.000000
 11
100.000000
 20
48.000000
 21
38.000000
  0
LINE
  8
0
 10
100.000000
 11
103.000000
 20
38.000000
 21
38.000000
  0
LINE
  8
0
 10
103.000000
 11
103.000000
 20
38.000000
 21
28.000000
  0
LINE
  8
0
 10
103.000000
 11
100.000000
 20
28.000000
 21
28.000000
  0
LINE
  8
0
 10
100.000000
 11
100.000000
 20
28.000000
 21
18.000000
  0
LINE
  8
0
 10
100.000000
 11
103.000000
 20
18.000000
 21
18.000000
  0
LINE
  8
0
 10
103.000000
 11
103.000000
 20
18.000000
 21
3.000000
  0
LINE
  8
0
 10
103.000000
 11
88.000000
 20
3.000000
 21
3.000000
  0
LINE
  8
0
 10
88.000000
 11
88.000000
 20
3.000000
 21
6.000000
  0
LINE
  8
0
 10
88.000000
 11
78.000000
 20
6.000000
 21
6.000000
  0
LINE
  8
0
 10
78.000000
 11
78.000000
 20
6.000000
 21
3.000000
  0
LINE
  8
0
 10
78.000000
 11
68.000000
 20
3.000000
 21
3.000000
  0
LINE
  8
0
 10
68.000000
 11
68.000000
 20
3.000000
 21
6.000000
  0
LINE
  8
0
 10
68.000000
 11
58.000000
 20
6.000000
 21
6.000000
  0
LINE
  8
0
 10
58.000000
 11
58.000000
 20
6.000000
 21
3.000000
  0
LINE
  8
0
 10
58.000000
 11
48.000000
 20
3.000000
 21
3.000000
  0
LINE
  8
0
 10
48.000000
 11
48.000000
 20
3.000000
 21
6.000000
  0
LINE
  8
0
 10
48.000000
 11
38.000000
 20
6.000000
 21
6.000000
  0
LINE
  8
0
 10
38.000000
 11
38.000000
 20
6.000000
 21
3.000000
  0
LINE
  8
0
 10
38.000000
 11
28.000000
 20
3.000000
 21
3.000000
  0
LINE
  8
0
 10
28.000000
 11
28.000000
 20
3.000000
 21
6.000000
  0
LINE
  8
0
 10
28.000000
 11
18.000000
 20
6.000000
 21
6.000000
  0
LINE
  8
0
 10
18.000000
 11
18.000000
 20
6.000000
 21
3.000000
  0
LINE
  8
0
 10
18.000000
 11
3.000000
 20
3.000000
 21
3.000000
  0
LINE
  8
0
 10
106.000000
 11
106.000000
 20
3.000000
 21
103.000000
  0
LINE
  8
0
 10
106.000000
 11
121.000000
 20
103.000000
 21
103.000000
  0
LINE
  8
0
 10
121.000000
 11
121.000000
 20
103.000000
 21
100.000000
  0
LINE
  8
0
 10
121.000000
 11
131.000000
 20
100.000000
 21
100.000000
  0
LINE
  8
0
 10
131.000000
 11
131.000000
 20
100.000000
 21
103.000000
  0
LINE
  8
0
 10
131.000000
 11
141.000000
 20
103.000000
 21
103.000000
  0
LINE
  8
0
 10
141.000000
 11
141.000000
 20
103.000000
 21
100.000000
  0
LINE
  8
0
 10
141.000000
 11
151.000000
 20
100.000000
 21
100.000000
  0
LINE
  8
0
 10
151.000000
 11
151.000000
 20
100.000000
 21
103.000000
  0
LINE
  8
0
 10
151.000000
 11
161.000000
 20
103.000000
 21
103.000000
  0
LINE
  8
0
 10
161.000000
 11
161.000000
 20
103.000000
 21
100.000000
  0
LINE
  8
0
 10
161.000000
 11
171.000000
 20
100.000000
 21
100.000000
  0
LINE
  8
0
 10
171.000000
 11
171.000000
 20
100.000000
 21
103.000000
  0
LINE
  8
0
 10
171.000000
 11
181.000000
 20
103.000000
 21
103.000000
  0
LINE
  8
0
 10
181.000000
 11
181.000000
 20
103.000000
 21
100.000000
  0
LINE
  8
0
 10
181.000000
 11
191.000000
 20
100.000000
 21
100.000000
  0
LINE
  8
0
 10
191.000000
 11
191.000000
 20
100.000000
 21
103.000000
  0
LINE
  8
0
 10
191.000000
 11
206.000000
 20
103.000000
 21
103.000000
  0
LINE
  8
0
 10
206.000000
 11
206.000000
 20
103.000000
 21
88.000000
  0
LINE
  8
0
 10
206.000000
 11
203.000000
 20
88.000000
 21
88.000000
  0
LINE
  8
0
 10
203.000000
 11
203.000000
 20
88.000000
 21
78.000000
  0
LINE
  8
0
 10
203.000000
 11
206.000000
 20
78.000000
 21
78.000000
  0
LINE
  8
0
 10
206.000000
 11
206.000000
 20
78.000000
 21
68.000000
  0
LINE
  8
0
 10
206.000000
 11
203.000000
 20
68.000000
 21
68.000000
  0
LINE
  8
0
 10
203.000000
 11
203.000000
 20
68.000000
 21
58.000000
  0
LINE
  8
0
 10
203.000000
 11
206.000000
 20
58.000000
 21
58.000000
  0
LINE
  8
0
 10
206.000000
 11
206.000000
 20
58.000000
 21
48.000000
  0
LINE
  8
0
 10
206.000000
 11
203.000000
 20
48.000000
 21
48.000000
  0
LINE
  8
0
 10
203.000000
 11
203.000000
 20
48.000000
 21
38.000000
  0
LINE
  8
0
 10
203.000000
 11
206.000000
 20
38.000000
 21
38.000000
  0
LINE
  8
0
 10
206.000000
 11
206.000000
 20
38.000000
 21
28.000000
  0
LINE
  8
0
 10
206.000000
 11
203.000000
 20
28.000000
 21
28.000000
  0
LINE
  8
0
 10
203.000000
 11
203.000000
 20
28.000000
 21
18.000000
  0
LINE
  8
0
 10
203.000000
 11
206.000000
 20
18.000000
 21
18.000000
  0
LINE
  8
0
 10
206.000000
 11
206.000000
 20
18.000000
 21
3.000000
  0
LINE
  8
0
 10
206.000000
 11
191.000000
 20
3.000000
 21
3.000000
  0
LINE
  8
0
 10
191.000000
 11
191.000000
 20
3.000000
 21
6.000000
  0
LINE
  8
0
 10
191.000000
 11
181.000000
 20
6.000000
 21
6.000000
  0
LINE
  8
0
 10
181.000000
 11
181.000000
 20
6.000000
 21
3.000000
  0
LINE
  8
0
 10
181.000000
 11
171.000000
 20
3.000000
 21
3.000000
  0
LINE
  8
0
 10
171.000000
 11
171.000000
 20
3.000000
 21
6.000000
  0
LINE
  8
0
 10
171.000000
 11
161.000000
 20
6.000000
 21
6.000000
  0
LINE
  8
0
 10
161.000000
 11
161.000000
 20
6.000000
 21
3.000000
  0
LINE
  8
0
 10
161.000000
 11
151.000000
 20
3.000000
 21
3.000000
  0
LINE
  8
0
 10
151.000000
 11
151.000000
 20
3.000000
 21
6.000000
  0
LINE
  8
0
 10
151.000000
 11
141.000000
 20
6.000000
 21
6.000000
  0
LINE
  8
0
 10
141.000000
 11
141.000000
 20
6.000000
 21
3.000000
  0
LINE
  8
0
 10
141.000000
 11
131.000000
 20
3.000000
 21
3.000000
  0
LINE
  8
0
 10
131.000000
 11
131.000000
 20
3.000000
 21
6.000000
  0
LINE
  8
0
 10
131.000000
 11
121.000000
 20
6.000000
 21
6.000000
  0
LINE
  8
0
 10
121.000000
 11
121.000000
 20
6.000000
 21
3.000000
  0
LINE
  8
0
 10
121.000000
 11
106.000000
 20
3.000000
 21
3.000000
  0
LINE
  8
0
 10
209.000000
 11
209.000000
 20
18.000000
 21
28.000000
  0
LINE
  8
0
 10
209.000000
 11
212.000000
 20
28.000000
 21
28.000000
  0
LINE
  8
0
 10
212.000000
 11
212.000000
 20
28.000000
 21
38.000000
  0
LINE
  8
0
 10
212.000000
 11
209.000000
 20
38.000000
 21
38.000000
  0
LINE
  8
0
 10
209.000000
 11
209.000000
 20
38.000000
 21
48.000000
  0
LINE
  8
0
 10
209.000000
 11
212.000000
 20
48.000000
 21
48.000000
  0
LINE
  8
0
 10
212.000000
 11
212.000000
 20
48.000000
 21
58.000000
  0
LINE
  8
0
 10
212.000000
 11
209.000000
 20
58.000000
 21
58.000000
  0
LINE
  8
0
 10
209.000000
 11
209.000000
 20
58.000000
 21
68.000000
  0
LINE
  8
0
 10
209.000000
 11
212.000000
 20
68.000000
 21
68.000000
  0
LINE
  8
0
 10
212.000000
 11
212.000000
 20
68.000000
 21
78.000000
  0
LINE
  8
0
 10
212.000000
 11
209.000000
 20
78.000000
 21
78.000000
  0
LINE
  8
0
 10
209.000000
 11
209.000000
 20
78.000000
 21
88.000000
  0
LINE
  8
0
 10
209.000000
 11
212.000000
 20
88.000000
 21
88.000000
  0
LINE
  8
0
 10
212.000000
 11
212.000000
 20
88.000000
 21
103.000000
  0
LINE
  8
0
 10
212.000000
 11
306.000000
 20
103.000000
 21
103.000000
  0
LINE
  8
0
 10
306.000000
 11
306.000000
 20
103.000000
 21
88.000000
  0
LINE
  8
0
 10
306.000000
 11
309.000000
 20
88.000000
 21
88.000000
  0
LINE
  8
0
 10
309.000000
 11
309.000000
 20
88.000000
 21
78.000000
  0
LINE
  8
0
 10
309.000000
 11
306.000000
 20
78.000000
 21
78.000000
  0
LINE
  8
0
 10
306.000000
 11
306.000000
 20
78.000000
 21
68.000000
  0
LINE
  8
0
 10
306.000000
 11
309.000000
 20
68.000000
 21
68.000000
  0
LINE
  8
0
 10
309.000000
 11
309.000000
 20
68.000000
 21
58.000000
  0
LINE
  8
0
 10
309.000000
 11
306.000000
 20
58.000000
 21
58.000000
  0
LINE
  8
0
 10
306.000000
 11
306.000000
 20
58.000000
 21
48.000000
  0
LINE
  8
0
 10
306.000000
 11
309.000000
 20
48.000000
 21
48.000000
  0
LINE
  8
0
 10
309.000000
 11
309.000000
 20
48.000000
 21
38.000000
  0
LINE
  8
0
 10
309.000000
 11
306.000000
 20
38.000000
 21
38.000000
  0
LINE
  8
0
 10
306.000000
 11
306.000000
 20
38.000000
 21
28.000000
  0
LINE
  8
0
 10
306.000000
 11
309.000000
 20
28.000000
 21
28.000000
  0
LINE
  8
0
 10
309.000000
 11
309.000000
 20
28.000000
 21
18.000000
  0
LINE
  8
0
 10
309.000000
 11
306.000000
 20
18.000000
 21
18.000000
  0
LINE
  8
0
 10
306.000000
 11
306.000000
 20
18.000000
 21
3.000000
  0
LINE
  8
0
 10
306.000000
 11
294.000000
 20
3.000000
 21
3.000000
  0
LINE
  8
0
 10
294.000000
 11
294.000000
 20
3.000000
 21
6.000000
  0
LINE
  8
0
 10
294.000000
 11
284.000000
 20
6.000000
 21
6.000000
  0
LINE
  8
0
 10
284.000000
 11
284.000000
 20
6.000000
 21
3.000000
  0
LINE
  8
0
 10
284.000000
 11
274.000000
 20
3.000000
 21
3.000000
  0
LINE
  8
0
 10
274.000000
 11
274.000000
 20
3.000000
 21
6.000000
  0
LINE
  8
0
 10
274.000000
 11
264.000000
 20
6.000000
 21
6.000000
  0
LINE
  8
0
 10
264.000000
 11
264.000000
 20
6.000000
 21
3.000000
  0
LINE
  8
0
 10
264.000000
 11
254.000000
 20
3.000000
 21
3.000000
  0
LINE
  8
0
 10
254.000000
 11
254.000000
 20
3.000000
 21
6.000000
  0
LINE
  8
0
 10
254.000000
 11
244.000000
 20
6.000000
 21
6.000000
  0
LINE
  8
0
 10
244.000000
 11
244.000000
 20
6.000000
 21
3.000000
  0
LINE
  8
0
 10
244.000000
 11
234.000000
 20
3.000000
 21
3.000000
  0
LINE
  8
0
 10
234.000000
 11
234.000000
 20
3.000000
 21
6.000000
  0
LINE
  8
0
 10
234.000000
 11
224.000000
 20
6.000000
 21
6.000000
  0
LINE
  8
0
 10
224.000000
 11
224.000000
 20
6.000000
 21
3.000000
  0
LINE
  8
0
 10
224.000000
 11
212.000000
 20
3.000000
 21
3.000000
  0
LINE
  8
0
 10
212.000000
 11
212.000000
 20
3.000000
 21
18.000000
  0
LINE
  8
0
 10
212.000000
 11
209.000000
 20
18.000000
 21
18.000000
  0
LINE
  8
0
 10
312.000000
 11
312.000000
 20
18.000000
 21
28.000000
  0
LINE
  8
0
 10
312.000000
 11
315.000000
 20
28.000000
 21
28.000000
  0
LINE
  8
0
 10
315.000000
 11
315.000000
 20
28.000000
 21
38.000000
  0
LINE
  8
0
 10
315.000000
 11
312.000000
 20
38.000000
 21
38.000000
  0
LINE
  8
0
 10
312.000000
 11
312.000000
 20
38.000000
 21
48.000000
  0
LINE
  8
0
 10
312.000000
 11
315.000000
 20
48.000000
 21
48.000000
  0
LINE
  8
0
 10
315.000000
 11
315.000000
 20
48.000000
 21
58.000000
  0
LINE
  8
0
 10
315.000000
 11
312.000000
 20
58.000000
 21
58.000000
  0
LINE
  8
0
 10
312.000000
 11
312.000000
 20
58.000000
 21
68.000000
  0
LINE
  8
0
 10
312.000000
 11
315.000000
 20
68.000000
 21
68.000000
  0
LINE
  8
0
 10
315.000000
 11
315.000000
 20
68.000000
 21
78.000000
  0
LINE
  8
0
 10
315.000000
 11
312.000000
 20
78.000000
 21
78.000000
  0
LINE
  8
0
 10
312.000000
 11
312.000000
 20
78.000000
 21
88.000000
  0
LINE
  8
0
 10
312.000000
 11
315.000000
 20
88.000000
 21
88.000000
  0
LINE
  8
0
 10
315.000000
 11
315.000000
 20
88.000000
 21
103.000000
  0
LINE
  8
0
 10
315.000000
 11
409.000000
 20
103.000000
 21
103.000000
  0
LINE
  8
0
 10
409.000000
 11
409.000000
 20
103.000000
 21
88.000000
  0
LINE
  8
0
 10
409.000000
 11
412.000000
 20
88.000000
 21
88.000000
  0
LINE
  8
0
 10
412.000000
 11
412.000000
 20
88.000000
 21
78.000000
  0
LINE
  8
0
 10
412.000000
 11
409.000000
 20
78.000000
 21
78.000000
  0
LINE
  8
0
 10
409.000000
 11
409.000000
 20
78.000000
 21
68.000000
  0
LINE
  8
0
 10
409.000000
 11
412.000000
 20
68.000000
 21
68.000000
  0
LINE
  8
0
 10
412.000000
 11
412.000000
 20
68.000000
 21
58.000000
  0
LINE
  8
0
 10
412.000000
 11
409.000000
 20
58.000000
 21
58.000000
  0
LINE
  8
0
 10
409.000000
 11
409.000000
 20
58.000000
 21
48.000000
  0
LINE
  8
0
 10
409.000000
 11
412.000000
 20
48.000000
 21
48.000000
  0
LINE
  8
0
 10
412.000000
 11
412.000000
 20
48.000000
 21
38.000000
  0
LINE
  8
0
 10
412.000000
 11
409.000000
 20
38.000000
 21
38.000000
  0
LINE
  8
0
 10
409.000000
 11
409.000000
 20
38.000000
 21
28.000000
  0
LINE
  8
0
 10
409.000000
 11
412.000000
 20
28.000000
 21
28.000000
  0
LINE
  8
0
 10
412.000000
 11
412.000000
 20
28.000000
 21
18.000000
  0
LINE
  8
0
 10
412.000000
 11
409.000000
 20
18.000000
 21
18.000000
  0
LINE
  8
0
 10
409.000000
 11
409.000000
 20
18.000000
 21
3.000000
  0
LINE
  8
0
 10
409.000000
 11
397.000000
 20
3.000000
 21
3.000000
  0
LINE
  8
0
 10
397.000000
 11
397.000000
 20
3.000000
 21
6.000000
  0
LINE
  8
0
 10
397.000000
 11
387.000000
 20
6.000000
 21
6.000000
  0
LINE
  8
0
 10
387.000000
 11
387.000000
 20
6.000000
 21
3.000000
  0
LINE
  8
0
 10
387.000000
 11
377.000000
 20
3.000000
 21
3.000000
  0
LINE
  8
0
 10
377.000000
 11
377.000000
 20
3.000000
 21
6.000000
  0
LINE
  8
0
 10
377.000000
 11
367.000000
 20
6.000000
 21
6.000000
  0
LINE
  8
0
 10
367.000000
 11
367.000000
 20
6.000000
 21
3.000000
  0
LINE
  8
0
 10
367.000000
 11
357.000000
 20
3.000000
 21
3.000000
  0
LINE
  8
0
 10
357.000000
 11
357.000000
 20
3.000000
 21
6.000000
  0
LINE
  8
0
 10
357.000000
 11
347.000000
 20
6.000000
 21
6.000000
  0
LINE
  8
0
 10
347.000000
 11
347.000000
 20
6.000000
 21
3.000000
  0
LINE
  8
0
 10
347.000000
 11
337.000000
 20
3.000000
 21
3.000000
  0
LINE
  8
0
 10
337.000000
 11
337.000000
 20
3.000000
 21
6.000000
  0
LINE
  8
0
 10
337.000000
 11
327.000000
 20
6.000000
 21
6.000000
  0
LINE
  8
0
 10
327.000000
 11
327.000000
 20
6.000000
 21
3.000000
  0
LINE
  8
0
 10
327.000000
 11
315.000000
 20
3.000000
 21
3.000000
  0
LINE
  8
0
 10
315.000000
 11
315.000000
 20
3.000000
 21
18.000000
  0
LINE
  8
0
 10
315.000000
 11
312.000000
 20
18.000000
 21
18.000000
  0
LINE
  8
0
 10
415.000000
 11
415.000000
 20
18.000000
 21
28.000000
  0
LINE
  8
0
 10
415.000000
 11
418.000000
 20
28.000000
 21
28.000000
  0
LINE
  8
0
 10
418.000000
 11
418.000000
 20
28.000000
 21
38.000000
  0
LINE
  8
0
 10
418.000000
 11
415.000000
 20
38.000000
 21
38.000000
  0
LINE
  8
0
 10
415.000000
 11
415.000000
 20
38.000000
 21
48.000000
  0
LINE
  8
0
 10
415.000000
 11
418.000000
 20
48.000000
 21
48.000000
  0
LINE
  8
0
 10
418.000000
 11
418.000000
 20
48.000000
 21
58.000000
  0
LINE
  8
0
 10
418.000000
 11
415.000000
 20
58.000000
 21
58.000000
  0
LINE
  8
0
 10
415.000000
 11
415.000000
 20
58.000000
 21
68.000000
  0
LINE
  8
0
 10
415.000000
 11
418.000000
 20
68.000000
 21
68.000000
  0
LINE
  8
0
 10
418.000000
 11
418.000000
 20
68.000000
 21
78.000000
  0
LINE
  8
0
 10
418.000000
 11
415.000000
 20
78.000000
 21
78.000000
  0
LINE
  8
0
 10
415.000000
 11
415.000000
 20
78.000000
 21
88.000000
  0
LINE
  8
0
 10
415.000000
 11
418.000000
 20
88.000000
 21
88.000000
  0
LINE
  8
0
 10
418.000000
 11
418.000000
 20
88.000000
 21
100.000000
  0
LINE
  8
0
 10
418.000000
 11
430.000000
 20
100.000000
 21
100.000000
  0
LINE
  8
0
 10
430.000000
 11
430.000000
 20
100.000000
 21
103.000000
  0
LINE
  8
0
 10
430.000000
 11
440.000000
 20
103.000000
 21
103.000000
  0
LINE
  8
0
 10
440.000000
 11
440.000000
 20
103.000000
 21
100.000000
  0
LINE
  8
0
 10
440.000000
 11
450.000000
 20
100.000000
 21
100.000000
  0
LINE
  8
0
 10
450.000000
 11
450.000000
 20
100.000000
 21
103.000000
  0
LINE
  8
0
 10
450.000000
 11
460.000000
 20
103.000000
 21
103.000000
  0
LINE
  8
0
 10
460.000000
 11
460.000000
 20
103.000000
 21
100.000000
  0
LINE
  8
0
 10
460.000000
 11
470.000000
 20
100.000000
 21
100.000000
  0
LINE
  8
0
 10
470.000000
 11
470.000000
 20
100.000000
 21
103.000000
  0
LINE
  8
0
 10
470.000000
 11
480.000000
 20
103.000000
 21
103.000000
  0
LINE
  8
0
 10
480.000000
 11
480.000000
 20
103.000000
 21
100.000000
  0
LINE
  8
0
 10
480.000000
 11
490.000000
 20
100.000000
 21
100.000000
  0
LINE
  8
0
 10
490.000000
 11
490.000000
 20
100.000000
 21
103.000000
  0
LINE
  8
0
 10
490.000000
 11
500.000000
 20
103.000000
 21
103.000000
  0
LINE
  8
0
 10
500.000000
 11
500.000000
 20
103.000000
 21
100.000000
  0
LINE
  8
0
 10
500.000000
 11
512.000000
 20
100.000000
 21
100.000000
  0
LINE
  8
0
 10
512.000000
 11
512.000000
 20
100.000000
 21
88.000000
  0
LINE
  8
0
 10
512.000000
 11
515.000000
 20
88.000000
 21
88.000000
  0
LINE
  8
0
 10
515.000000
 11
515.000000
 20
88.000000
 21
78.000000
  0
LINE
  8
0
 10
515.000000
 11
512.000000
 20
78.000000
 21
78.000000
  0
LINE
  8
0
 10
512.000000
 11
512.000000
 20
78.000000
 21
68.000000
  0
LINE
  8
0
 10
512.000000
 11
515.000000
 20
68.000000
 21
68.000000
  0
LINE
  8
0
 10
515.000000
 11
515.000000
 20
68.000000
 21
58.000000
  0
LINE
  8
0
 10
515.000000
 11
512.000000
 20
58.000000
 21
58.000000
  0
LINE
  8
0
 10
512.000000
 11
512.000000
 20
58.000000
 21
48.000000
  0
LINE
  8
0
 10
512.000000
 11
515.000000
 20
48.000000
 21
48.000000
  0
LINE
  8
0
 10
515.000000
 11
515.000000
 20
48.000000
 21
38.000000
  0
LINE
  8
0
 10
515.000000
 11
512.000000
 20
38.000000
 21
38.000000
  0
LINE
  8
0
 10
512.000000
 11
512.000000
 20
38.000000
 21
28.000000
  0
LINE
  8
0
 10
512.000000
 11
515.000000
 20
28.000000
 21
28.000000
  0
LINE
  8
0
 10
515.000000
 11
515.000000
 20
28.000000
 21
18.000000
  0
LINE
  8
0
 10
515.000000
 11
512.000000
 20
18.000000
 21
18.000000
  0
LINE
  8
0
 10
512.000000
 11
512.000000
 20
18.000000
 21
6.000000
  0
LINE
  8
0
 10
512.000000
 11
500.000000
 20
6.000000
 21
6.000000
  0
LINE
  8
0
 10
500.000000
 11
500.000000
 20
6.000000
 21
3.000000
  0
LINE
  8
0
 10
500.000000
 11
490.000000
 20
3.000000
 21
3.000000
  0
LINE
  8
0
 10
490.000000
 11
490.000000
 20
3.000000
 21
6.000000
  0
LINE
  8
0
 10
490.000000
 11
480.000000
 20
6.000000
 21
6.000000
  0
LINE
  8
0
 10
480.000000
 11
480.000000
 20
6.000000
 21
3.000000
  0
LINE
  8
0
 10
480.000000
 11
470.000000
 20
3.000000
 21
3.000000
  0
LINE
  8
0
 10
470.000000
 11
470.000000
 20
3.000000
 21
6.000000
  0
LINE
  8
0
 10
470.000000
 11
460.000000
 20
6.000000
 21
6.000000
  0
LINE
  8
0
 10
460.000000
 11
460.000000
 20
6.000000
 21
3.000000
  0
LINE
  8
0
 10
460.000000
 11
450.000000
 20
3.000000
 21
3.000000
  0
LINE
  8
0
 10
450.000000
 11
450.000000
 20
3.000000
 21
6.000000
  0
LINE
  8
0
 10
450.000000
 11
440.000000
 20
6.000000
 21
6.000000
  0
LINE
  8
0
 10
440.000000
 11
440.000000
 20
6.000000
 21
3.000000
  0
LINE
  8
0
 10
440.000000
 11
430.000000
 20
3.000000
 21
3.000000
  0
LINE
  8
0
 10
430.000000
 11
430.000000
 20
3.000000
 21
6.000000
  0
LINE
  8
0
 10
430.000000
 11
418.000000
 20
6.000000
 21
6.000000
  0
LINE
  8
0
 10
418.000000
 11
418.000000
 20
6.000000
 21
18.000000
  0
LINE
  8
0
 10
418.000000
 11
415.000000
 20
18.000000
 21
18.000000
  0
ENDSEC
  0
SECTION
  2
OBJECTS
  0
DICTIONARY
  0
ENDSEC
  0
EOF
