  0
SECTION
  2
HEADER
  9
$ACADVER
  1
AC1006
  9
$EXTMIN
 10
0.000000
 20
0.000000
 30
0.000000
  9
$EXTMAX
 10
736.000000
 20
736.000000
 30
0.000000
  0
ENDSEC
  0
SECTION
  2
ENTITIES
  0
POLYLINE
  8
0
 66
1
 70
1
  0
VERTEX
  8
0
 10
500.627278
 20
696.471085
 42
0.061657
  0
VERTEX
  8
0
 10
500.382645
 20
695.485314
 42
0.009844
  0
VERTEX
  8
0
 10
500.183112
 20
693.504694
 42
0.010769
  0
VERTEX
  8
0
 10
500.043577
 20
691.149623
 42
0.009252
  0
VERTEX
  8
0
 10
499.996081
 20
688.668213
 42
-0.034097
  0
VERTEX
  8
0
 10
499.391223
 20
679.890921
 42
-0.010217
  0
VERTEX
  8
0
 10
497.288947
 20
666.645444
 42
-0.010580
  0
VERTEX
  8
0
 10
494.579363
 20
653.209377
 42
-0.025012
  0
VERTEX
  8
0
 10
491.854307
 20
643.369530
 42
-0.018219
  0
VERTEX
  8
0
 10
490.022515
 20
638.452578
 42
-0.005994
  0
VERTEX
  8
0
 10
486.980571
 20
631.357598
 42
-0.005961
  0
VERTEX
  8
0
 10
483.414437
 20
623.560225
 42
-0.006717
  0
VERTEX
  8
0
 10
479.798638
 20
616.156544
 42
0.007458
  0
VERTEX
  8
0
 10
474.050214
 20
604.341754
 42
0.025524
  0
VERTEX
  8
0
 10
470.828078
 20
596.432820
 42
0.030957
  0
VERTEX
  8
0
 10
468.756225
 20
589.059880
 42
0.015351
  0
VERTEX
  8
0
 10
467.003296
 20
579.500000
 42
-0.003955
  0
VERTEX
  8
0
 10
466.504269
 20
576.379138
 42
-0.005684
  0
VERTEX
  8
0
 10
466.009141
 20
573.624370
 42
-0.003172
  0
VERTEX
  8
0
 10
465.550979
 20
571.311351
 42
-0.085748
  0
VERTEX
  8
0
 10
465.324249
 20
570.731897
 42
-0.311552
  0
VERTEX
  8
0
 10
464.958541
 20
570.567392
 42
-0.046864
  0
VERTEX
  8
0
 10
464.141565
 20
570.797894
 42
-0.038860
  0
VERTEX
  8
0
 10
463.099163
 20
571.296723
 42
-0.023696
  0
VERTEX
  8
0
 10
461.950592
 20
572.035182
 42
0.038495
  0
VERTEX
  8
0
 10
457.720828
 20
574.581123
 42
0.015299
  0
VERTEX
  8
0
 10
451.569778
 20
577.434009
 42
0.014756
  0
VERTEX
  8
0
 10
444.567628
 20
580.183517
 42
0.015650
  0
VERTEX
  8
0
 10
437.550475
 20
582.457334
 42
0.036485
  0
VERTEX
  8
0
 10
425.351280
 20
585.046351
 42
0.039489
  0
VERTEX
  8
0
 10
413.226505
 20
585.741286
 42
0.040031
  0
VERTEX
  8
0
 10
401.294657
 20
584.523594
 42
0.039647
  0
VERTEX
  8
0
 10
389.669526
 20
581.418944
 42
-0.017712
  0
VERTEX
  8
0
 10
385.094155
 20
579.979488
 42
-0.044134
  0
VERTEX
  8
0
 10
381.647636
 20
579.348145
 42
-0.030739
  0
VERTEX
  8
0
 10
377.485300
 20
579.216970
 42
-0.005145
  0
VERTEX
  8
0
 10
369.500000
 20
579.538510
 42
0.006776
  0
VERTEX
  8
0
 10
361.982378
 20
579.816669
 42
0.023332
  0
VERTEX
  8
0
 10
357.105315
 20
579.703394
 42
0.027676
  0
VERTEX
  8
0
 10
352.702718
 20
579.149226
 42
0.012754
  0
VERTEX
  8
0
 10
347.046821
 20
577.966993
 42
0.018992
  0
VERTEX
  8
0
 10
338.381531
 20
575.573039
 42
0.023534
  0
VERTEX
  8
0
 10
330.534251
 20
572.667722
 42
0.024482
  0
VERTEX
  8
0
 10
323.261571
 20
569.149253
 42
0.024040
  0
VERTEX
  8
0
 10
316.321814
 20
564.917113
 42
0.000000
  0
VERTEX
  8
0
 10
309.143629
 20
560.051497
 42
0.000000
  0
VERTEX
  8
0
 10
307.431932
 20
565.275749
 42
0.035357
  0
VERTEX
  8
0
 10
303.299732
 20
575.405942
 42
0.022047
  0
VERTEX
  8
0
 10
297.126400
 20
586.650558
 42
0.021286
  0
VERTEX
  8
0
 10
289.628280
 20
597.880011
 42
0.023826
  0
VERTEX
  8
0
 10
281.462373
 20
608.000000
 42
-0.031610
  0
VERTEX
  8
0
 10
275.764905
 20
615.290037
 42
-0.032262
  0
VERTEX
  8
0
 10
271.074411
 20
623.192104
 42
-0.023605
  0
VERTEX
  8
0
 10
266.401548
 20
633.545029
 42
-0.007950
  0
VERTEX
  8
0
 10
260.551335
 20
649.045984
 42
0.000066
  0
VERTEX
  8
0
 10
257.860455
 20
656.531011
 42
0.000073
  0
VERTEX
  8
0
 10
255.258961
 20
663.761073
 42
0.000068
  0
VERTEX
  8
0
 10
253.037464
 20
669.929591
 42
0.000381
  0
VERTEX
  8
0
 10
251.847061
 20
673.225752
 42
0.020508
  0
VERTEX
  8
0
 10
250.868614
 20
675.617340
 42
0.017197
  0
VERTEX
  8
0
 10
249.642740
 20
678.068495
 42
0.017541
  0
VERTEX
  8
0
 10
248.365716
 20
680.232064
 42
0.044810
  0
VERTEX
  8
0
 10
247.253694
 20
681.671268
 42
0.000000
  0
VERTEX
  8
0
 10
244.733102
 20
684.391032
 42
0.000000
  0
VERTEX
  8
0
 10
242.407469
 20
681.687322
 42
0.055687
  0
VERTEX
  8
0
 10
241.336023
 20
680.118187
 42
0.014236
  0
VERTEX
  8
0
 10
239.970039
 20
677.356796
 42
0.014325
  0
VERTEX
  8
0
 10
238.582451
 20
674.095390
 42
0.014088
  0
VERTEX
  8
0
 10
237.375617
 20
670.741806
 42
0.015745
  0
VERTEX
  8
0
 10
235.918554
 20
665.782697
 42
0.031316
  0
VERTEX
  8
0
 10
235.138912
 20
661.765098
 42
0.025375
  0
VERTEX
  8
0
 10
234.778499
 20
657.172936
 42
0.007181
  0
VERTEX
  8
0
 10
234.683652
 20
650.000000
 42
0.008151
  0
VERTEX
  8
0
 10
234.803351
 20
643.137873
 42
0.020750
  0
VERTEX
  8
0
 10
235.177559
 20
638.173499
 42
0.023982
  0
VERTEX
  8
0
 10
235.922208
 20
633.692785
 42
0.014756
  0
VERTEX
  8
0
 10
237.204801
 20
628.500000
 42
-0.000213
  0
VERTEX
  8
0
 10
238.296589
 20
624.573909
 42
-0.000156
  0
VERTEX
  8
0
 10
239.505652
 20
620.213645
 42
-0.000157
  0
VERTEX
  8
0
 10
240.648538
 20
616.081992
 42
-0.000348
  0
VERTEX
  8
0
 10
241.517163
 20
612.929428
 42
0.000000
  0
VERTEX
  8
0
 10
243.322627
 20
606.358856
 42
0.000000
  0
VERTEX
  8
0
 10
240.700238
 20
596.929428
 42
0.010941
  0
VERTEX
  8
0
 10
237.992660
 20
586.297831
 42
0.024538
  0
VERTEX
  8
0
 10
236.514667
 20
578.102402
 42
0.023674
  0
VERTEX
  8
0
 10
235.817757
 20
569.624710
 42
0.009525
  0
VERTEX
  8
0
 10
235.636035
 20
558.000000
 42
0.015555
  0
VERTEX
  8
0
 10
236.071992
 20
545.378573
 42
0.022986
  0
VERTEX
  8
0
 10
237.305717
 20
534.369649
 42
0.024421
  0
VERTEX
  8
0
 10
239.468121
 20
524.041965
 42
0.021398
  0
VERTEX
  8
0
 10
242.706271
 20
513.500000
 42
0.021036
  0
VERTEX
  8
0
 10
245.938968
 20
505.473435
 42
0.011992
  0
VERTEX
  8
0
 10
250.478589
 20
496.049801
 42
0.011991
  0
VERTEX
  8
0
 10
255.381593
 20
487.008093
 42
0.024735
  0
VERTEX
  8
0
 10
259.723333
 20
480.239231
 42
0.000000
  0
VERTEX
  8
0
 10
264.323966
 20
473.792022
 42
0.000000
  0
VERTEX
  8
0
 10
262.035872
 20
467.646011
 42
0.015754
  0
VERTEX
  8
0
 10
259.432897
 20
459.917963
 42
0.012707
  0
VERTEX
  8
0
 10
257.113024
 20
451.468918
 42
0.012463
  0
VERTEX
  8
0
 10
255.396684
 20
443.707366
 42
0.042571
  0
VERTEX
  8
0
 10
254.841663
 20
438.569892
 42
0.020165
  0
VERTEX
  8
0
 10
254.895688
 20
435.534762
 42
0.093149
  0
VERTEX
  8
0
 10
255.317972
 20
433.837736
 42
0.095892
  0
VERTEX
  8
0
 10
256.321775
 20
432.434183
 42
0.022045
  0
VERTEX
  8
0
 10
258.531519
 20
430.516832
 42
-0.007393
  0
VERTEX
  8
0
 10
260.264015
 20
429.100368
 42
-0.004068
  0
VERTEX
  8
0
 10
262.343321
 20
427.319304
 42
-0.004055
  0
VERTEX
  8
0
 10
264.423698
 20
425.477895
 42
-0.006483
  0
VERTEX
  8
0
 10
266.167033
 20
423.868033
 42
0.000000
  0
VERTEX
  8
0
 10
269.999228
 20
420.236067
 42
0.000000
  0
VERTEX
  8
0
 10
267.457553
 20
413.483459
 42
0.021008
  0
VERTEX
  8
0
 10
265.072440
 20
406.237348
 42
0.022512
  0
VERTEX
  8
0
 10
263.366035
 20
398.980933
 42
0.022909
  0
VERTEX
  8
0
 10
262.342224
 20
391.722950
 42
0.023586
  0
VERTEX
  8
0
 10
262.000000
 20
384.472137
 42
0.033144
  0
VERTEX
  8
0
 10
262.473228
 20
377.341062
 42
0.046962
  0
VERTEX
  8
0
 10
263.899819
 20
371.147410
 42
0.044360
  0
VERTEX
  8
0
 10
266.531722
 20
365.073661
 42
0.025698
  0
VERTEX
  8
0
 10
270.686190
 20
358.281535
 42
0.000000
  0
VERTEX
  8
0
 10
275.159812
 20
351.747139
 42
0.000000
  0
VERTEX
  8
0
 10
271.901310
 20
344.273651
 42
-0.010730
  0
VERTEX
  8
0
 10
270.563337
 20
341.376294
 42
-0.015087
  0
VERTEX
  8
0
 10
269.237904
 20
338.856554
 42
-0.011263
  0
VERTEX
  8
0
 10
268.041818
 20
336.847278
 42
-0.162642
  0
VERTEX
  8
0
 10
267.410165
 20
336.327154
 42
-0.161350
  0
VERTEX
  8
0
 10
266.702177
 20
336.294233
 42
-0.027729
  0
VERTEX
  8
0
 10
265.411975
 20
336.734604
 42
-0.027719
  0
VERTEX
  8
0
 10
263.898872
 20
337.446553
 42
-0.021622
  0
VERTEX
  8
0
 10
262.338761
 20
338.378445
 42
0.033156
  0
VERTEX
  8
0
 10
257.491643
 20
341.124192
 42
0.014152
  0
VERTEX
  8
0
 10
250.686259
 20
344.169913
 42
0.013915
  0
VERTEX
  8
0
 10
243.210086
 20
347.023992
 42
0.017602
  0
VERTEX
  8
0
 10
236.146417
 20
349.221840
 42
0.047275
  0
VERTEX
  8
0
 10
226.233278
 20
350.943630
 42
0.019189
  0
VERTEX
  8
0
 10
212.525034
 20
351.480137
 42
0.019324
  0
VERTEX
  8
0
 10
198.414709
 20
350.945099
 42
0.035095
  0
VERTEX
  8
0
 10
187.000000
 20
349.258386
 42
0.014286
  0
VERTEX
  8
0
 10
178.261685
 20
347.069546
 42
0.025853
  0
VERTEX
  8
0
 10
171.277292
 20
344.710705
 42
0.023148
  0
VERTEX
  8
0
 10
164.081044
 20
341.465203
 42
0.009173
  0
VERTEX
  8
0
 10
154.500000
 20
336.375477
 42
0.012737
  0
VERTEX
  8
0
 10
132.137857
 20
323.208915
 42
0.018420
  0
VERTEX
  8
0
 10
113.140198
 20
310.366339
 42
0.019628
  0
VERTEX
  8
0
 10
96.090261
 20
296.843776
 42
0.018008
  0
VERTEX
  8
0
 10
79.638856
 20
281.646527
 42
0.034401
  0
VERTEX
  8
0
 10
57.270738
 20
256.154522
 42
0.045613
  0
VERTEX
  8
0
 10
40.878184
 20
230.024385
 42
0.049785
  0
VERTEX
  8
0
 10
30.560001
 20
203.392715
 42
0.056776
  0
VERTEX
  8
0
 10
26.295325
 20
176.403078
 42
0.020174
  0
VERTEX
  8
0
 10
26.255583
 20
162.900932
 42
0.036985
  0
VERTEX
  8
0
 10
27.477411
 20
151.972064
 42
0.040942
  0
VERTEX
  8
0
 10
30.173863
 20
142.118445
 42
0.032190
  0
VERTEX
  8
0
 10
34.621828
 20
131.976499
 42
0.012446
  0
VERTEX
  8
0
 10
37.194053
 20
127.296563
 42
0.007657
  0
VERTEX
  8
0
 10
40.441748
 20
121.912375
 42
0.007676
  0
VERTEX
  8
0
 10
43.819176
 20
116.682675
 42
0.013602
  0
VERTEX
  8
0
 10
46.784658
 20
112.493331
 42
0.020160
  0
VERTEX
  8
0
 10
54.169327
 20
103.426472
 42
0.010097
  0
VERTEX
  8
0
 10
64.182570
 20
92.548050
 42
0.010076
  0
VERTEX
  8
0
 10
74.545801
 20
82.163147
 42
0.021849
  0
VERTEX
  8
0
 10
83.000000
 20
74.709263
 42
0.025886
  0
VERTEX
  8
0
 10
100.066266
 20
62.340409
 42
0.028809
  0
VERTEX
  8
0
 10
117.737246
 20
52.274609
 42
0.030628
  0
VERTEX
  8
0
 10
135.298049
 20
44.871831
 42
0.040900
  0
VERTEX
  8
0
 10
152.028291
 20
40.493617
 42
0.047643
  0
VERTEX
  8
0
 10
169.050210
 20
39.146328
 42
0.057099
  0
VERTEX
  8
0
 10
184.979091
 20
41.233743
 42
0.057572
  0
VERTEX
  8
0
 10
199.916717
 20
46.846000
 42
0.049693
  0
VERTEX
  8
0
 10
214.000000
 20
55.946993
 42
-0.052020
  0
VERTEX
  8
0
 10
215.679036
 20
57.021015
 42
-0.095476
  0
VERTEX
  8
0
 10
217.236117
 20
57.459931
 42
-0.052958
  0
VERTEX
  8
0
 10
219.401222
 20
57.413511
 42
-0.007423
  0
VERTEX
  8
0
 10
223.836527
 20
56.778980
 42
0.076247
  0
VERTEX
  8
0
 10
238.531706
 20
56.709252
 42
0.069138
  0
VERTEX
  8
0
 10
253.108412
 20
60.987977
 42
0.057987
  0
VERTEX
  8
0
 10
268.047939
 20
69.931264
 42
0.033074
  0
VERTEX
  8
0
 10
283.866920
 20
83.844282
 42
0.000000
  0
VERTEX
  8
0
 10
292.233841
 20
92.246514
 42
0.000000
  0
VERTEX
  8
0
 10
322.357095
 20
88.571938
 42
-0.001809
  0
VERTEX
  8
0
 10
338.821444
 20
86.503068
 42
-0.011072
  0
VERTEX
  8
0
 10
347.288177
 20
85.216845
 42
-0.017903
  0
VERTEX
  8
0
 10
352.369223
 20
84.140725
 42
-0.128114
  0
VERTEX
  8
0
 10
354.554626
 20
82.948681
 42
0.033409
  0
VERTEX
  8
0
 10
356.300938
 20
81.515016
 42
0.151989
  0
VERTEX
  8
0
 10
357.535099
 20
81.107487
 42
0.197620
  0
VERTEX
  8
0
 10
358.590738
 20
81.520512
 42
0.062429
  0
VERTEX
  8
0
 10
359.680600
 20
82.860166
 42
0.208193
  0
VERTEX
  8
0
 10
359.889741
 20
84.265604
 42
0.089050
  0
VERTEX
  8
0
 10
359.063147
 20
86.019446
 42
0.034283
  0
VERTEX
  8
0
 10
356.849027
 20
88.720781
 42
0.004416
  0
VERTEX
  8
0
 10
351.671146
 20
94.125426
 42
-0.002261
  0
VERTEX
  8
0
 10
341.008917
 20
105.159038
 42
-0.002990
  0
VERTEX
  8
0
 10
331.402672
 20
115.311103
 42
-0.002490
  0
VERTEX
  8
0
 10
323.526653
 20
123.819482
 42
-0.022564
  0
VERTEX
  8
0
 10
320.277986
 20
127.702188
 42
0.000000
  0
VERTEX
  8
0
 10
317.739079
 20
131.030867
 42
0.000000
  0
VERTEX
  8
0
 10
322.662387
 20
136.265434
 42
0.021375
  0
VERTEX
  8
0
 10
328.106455
 20
142.573372
 42
0.020156
  0
VERTEX
  8
0
 10
333.105525
 20
149.444570
 42
0.019435
  0
VERTEX
  8
0
 10
337.701791
 20
156.944663
 42
0.016860
  0
VERTEX
  8
0
 10
341.938469
 20
165.138165
 42
0.011588
  0
VERTEX
  8
0
 10
346.145107
 20
174.549797
 42
0.022529
  0
VERTEX
  8
0
 10
348.983126
 20
182.274220
 42
0.027218
  0
VERTEX
  8
0
 10
350.558223
 20
188.375940
 42
0.096207
  0
VERTEX
  8
0
 10
350.583918
 20
192.404372
 42
0.089724
  0
VERTEX
  8
0
 10
348.498171
 20
197.872312
 42
0.051767
  0
VERTEX
  8
0
 10
344.240397
 20
203.510223
 42
0.051861
  0
VERTEX
  8
0
 10
338.932051
 20
208.136989
 42
0.092101
  0
VERTEX
  8
0
 10
333.674693
 20
210.545511
 42
0.000000
  0
VERTEX
  8
0
 10
331.187547
 20
211.169745
 42
0.000000
  0
VERTEX
  8
0
 10
333.054525
 20
215.390359
 42
0.046695
  0
VERTEX
  8
0
 10
334.817332
 20
220.654219
 42
0.023376
  0
VERTEX
  8
0
 10
336.096355
 20
227.561956
 42
0.023225
  0
VERTEX
  8
0
 10
336.744873
 20
234.756301
 42
0.036405
  0
VERTEX
  8
0
 10
336.562856
 20
240.962544
 42
0.046332
  0
VERTEX
  8
0
 10
334.525924
 20
251.292183
 42
0.032518
  0
VERTEX
  8
0
 10
330.433139
 20
262.424612
 42
0.030344
  0
VERTEX
  8
0
 10
324.549306
 20
273.782064
 42
0.027128
  0
VERTEX
  8
0
 10
317.129172
 20
284.794979
 42
-0.000323
  0
VERTEX
  8
0
 10
314.876459
 20
287.779918
 42
-0.000389
  0
VERTEX
  8
0
 10
312.763186
 20
290.588404
 42
-0.000331
  0
VERTEX
  8
0
 10
310.986576
 20
292.956565
 42
-0.002626
  0
VERTEX
  8
0
 10
310.171037
 20
294.057153
 42
-0.105823
  0
VERTEX
  8
0
 10
309.594819
 20
295.341919
 42
-0.084000
  0
VERTEX
  8
0
 10
309.529073
 20
296.865061
 42
-0.042626
  0
VERTEX
  8
0
 10
310.007873
 20
299.115084
 42
-0.007727
  0
VERTEX
  8
0
 10
311.313106
 20
303.185226
 42
-0.003665
  0
VERTEX
  8
0
 10
312.350734
 20
306.184147
 42
-0.003744
  0
VERTEX
  8
0
 10
313.425015
 20
309.146225
 42
-0.003634
  0
VERTEX
  8
0
 10
314.395893
 20
311.704775
 42
-0.015577
  0
VERTEX
  8
0
 10
315.032619
 20
313.206180
 42
0.000000
  0
VERTEX
  8
0
 10
316.281098
 20
315.912359
 42
0.000000
  0
VERTEX
  8
0
 10
318.003100
 20
313.706180
 42
-0.030213
  0
VERTEX
  8
0
 10
318.841388
 20
312.487020
 42
-0.008328
  0
VERTEX
  8
0
 10
320.008716
 20
310.473018
 42
-0.008382
  0
VERTEX
  8
0
 10
321.257323
 20
308.142635
 42
-0.008671
  0
VERTEX
  8
0
 10
322.412600
 20
305.797713
 42
0.067763
  0
VERTEX
  8
0
 10
328.532193
 20
296.369973
 42
0.040400
  0
VERTEX
  8
0
 10
338.067297
 20
286.956555
 42
0.039746
  0
VERTEX
  8
0
 10
349.279514
 20
278.972840
 42
0.054933
  0
VERTEX
  8
0
 10
360.500000
 20
273.832786
 42
0.047572
  0
VERTEX
  8
0
 10
368.886565
 20
271.915622
 42
0.036037
  0
VERTEX
  8
0
 10
378.315767
 20
271.371686
 42
0.036602
  0
VERTEX
  8
0
 10
387.504674
 20
272.178622
 42
0.057043
  0
VERTEX
  8
0
 10
395.146153
 20
274.332401
 42
0.000000
  0
VERTEX
  8
0
 10
401.792305
 20
277.054162
 42
0.000000
  0
VERTEX
  8
0
 10
406.545092
 20
274.527081
 42
0.068610
  0
VERTEX
  8
0
 10
412.098191
 20
272.489435
 42
0.077321
  0
VERTEX
  8
0
 10
417.767744
 20
272.146893
 42
0.073540
  0
VERTEX
  8
0
 10
423.501010
 20
273.554818
 42
0.054652
  0
VERTEX
  8
0
 10
429.240301
 20
276.666529
 42
-0.041392
  0
VERTEX
  8
0
 10
431.951690
 20
278.230785
 42
-0.069392
  0
VERTEX
  8
0
 10
434.458944
 20
279.011810
 42
-0.034900
  0
VERTEX
  8
0
 10
438.090517
 20
279.352887
 42
-0.003980
  0
VERTEX
  8
0
 10
446.327341
 20
279.483976
 42
0.012732
  0
VERTEX
  8
0
 10
455.828999
 20
279.801603
 42
0.053110
  0
VERTEX
  8
0
 10
461.470352
 20
280.740961
 42
0.072807
  0
VERTEX
  8
0
 10
465.868698
 20
282.686584
 42
0.038646
  0
VERTEX
  8
0
 10
470.661006
 20
286.247865
 42
0.000000
  0
VERTEX
  8
0
 10
474.396468
 20
289.500000
 42
0.000000
  0
VERTEX
  8
0
 10
471.287119
 20
284.000000
 42
0.054150
  0
VERTEX
  8
0
 10
466.631274
 20
273.179884
 42
0.042904
  0
VERTEX
  8
0
 10
463.945736
 20
260.726698
 42
0.043926
  0
VERTEX
  8
0
 10
463.466727
 20
248.402299
 42
0.068915
  0
VERTEX
  8
0
 10
465.430215
 20
238.000000
 42
0.047203
  0
VERTEX
  8
0
 10
470.989610
 20
225.500912
 42
0.048883
  0
VERTEX
  8
0
 10
478.740626
 20
214.423426
 42
0.051374
  0
VERTEX
  8
0
 10
488.062607
 20
205.564757
 42
0.066139
  0
VERTEX
  8
0
 10
498.278835
 20
199.644926
 42
-0.046920
  0
VERTEX
  8
0
 10
500.759777
 20
198.331612
 42
-0.238913
  0
VERTEX
  8
0
 10
501.513997
 20
197.017790
 42
-0.072604
  0
VERTEX
  8
0
 10
501.304169
 20
194.764562
 42
-0.002142
  0
VERTEX
  8
0
 10
499.016418
 20
185.500000
 42
0.010236
  0
VERTEX
  8
0
 10
497.492332
 20
178.868592
 42
0.005752
  0
VERTEX
  8
0
 10
495.899607
 20
170.758926
 42
0.003821
  0
VERTEX
  8
0
 10
493.927260
 20
159.589558
 42
0.001137
  0
VERTEX
  8
0
 10
491.083939
 20
142.500000
 42
-0.001343
  0
VERTEX
  8
0
 10
489.756136
 20
134.539593
 42
-0.000911
  0
VERTEX
  8
0
 10
488.203222
 20
125.481446
 42
-0.000918
  0
VERTEX
  8
0
 10
486.671622
 20
116.739801
 42
-0.001840
  0
VERTEX
  8
0
 10
485.423652
 20
109.841092
 42
0.005552
  0
VERTEX
  8
0
 10
484.430627
 20
104.109117
 42
0.008025
  0
VERTEX
  8
0
 10
483.690804
 20
99.020855
 42
0.004626
  0
VERTEX
  8
0
 10
483.178535
 20
94.739470
 42
0.119626
  0
VERTEX
  8
0
 10
483.326671
 20
93.591092
 42
0.177395
  0
VERTEX
  8
0
 10
484.307650
 20
92.467060
 42
0.122409
  0
VERTEX
  8
0
 10
485.956830
 20
92.030973
 42
0.147490
  0
VERTEX
  8
0
 10
487.412743
 20
92.446423
 42
0.255332
  0
VERTEX
  8
0
 10
488.000000
 20
93.521439
 42
-0.124648
  0
VERTEX
  8
0
 10
488.164560
 20
94.171283
 42
-0.062262
  0
VERTEX
  8
0
 10
488.660938
 20
94.865993
 42
-0.055984
  0
VERTEX
  8
0
 10
489.389470
 20
95.497505
 42
-0.053667
  0
VERTEX
  8
0
 10
490.250000
 20
95.962155
 42
-0.028024
  0
VERTEX
  8
0
 10
494.032527
 20
97.265533
 42
-0.000185
  0
VERTEX
  8
0
 10
527.757078
 20
106.796677
 42
-0.000188
  0
VERTEX
  8
0
 10
561.456187
 20
116.293500
 42
-0.027437
  0
VERTEX
  8
0
 10
565.437897
 20
117.181596
 42
0.277116
  0
VERTEX
  8
0
 10
566.948757
 20
118.467813
 42
0.014885
  0
VERTEX
  8
0
 10
568.853900
 20
124.735091
 42
0.013193
  0
VERTEX
  8
0
 10
571.281512
 20
134.700337
 42
0.002775
  0
VERTEX
  8
0
 10
574.966900
 20
152.247516
 42
-0.008174
  0
VERTEX
  8
0
 10
575.688298
 20
155.506951
 42
-0.078417
  0
VERTEX
  8
0
 10
576.228174
 20
156.817818
 42
-0.259605
  0
VERTEX
  8
0
 10
576.894999
 20
157.195740
 42
-0.144045
  0
VERTEX
  8
0
 10
577.820382
 20
156.931138
 42
-0.010200
  0
VERTEX
  8
0
 10
586.153812
 20
151.411257
 42
-0.032352
  0
VERTEX
  8
0
 10
591.392941
 20
147.259598
 42
-0.046165
  0
VERTEX
  8
0
 10
594.957587
 20
143.384864
 42
-0.047522
  0
VERTEX
  8
0
 10
597.711737
 20
138.957609
 42
-0.023912
  0
VERTEX
  8
0
 10
600.587673
 20
132.407337
 42
-0.008566
  0
VERTEX
  8
0
 10
604.073405
 20
122.821499
 42
-0.008655
  0
VERTEX
  8
0
 10
607.253149
 20
113.040861
 42
-0.021443
  0
VERTEX
  8
0
 10
609.147208
 20
105.749195
 42
0.133205
  0
VERTEX
  8
0
 10
614.848406
 20
94.693469
 42
0.154678
  0
VERTEX
  8
0
 10
625.063897
 20
88.804903
 42
0.110504
  0
VERTEX
  8
0
 10
639.712336
 20
88.865350
 42
0.049549
  0
VERTEX
  8
0
 10
658.069248
 20
95.015120
 42
0.046772
  0
VERTEX
  8
0
 10
673.120366
 20
103.548142
 42
0.037037
  0
VERTEX
  8
0
 10
687.632294
 20
115.362047
 42
0.038004
  0
VERTEX
  8
0
 10
699.727550
 20
128.674863
 42
0.063424
  0
VERTEX
  8
0
 10
707.433450
 20
141.681252
 42
0.073329
  0
VERTEX
  8
0
 10
708.781221
 20
146.711370
 42
0.052435
  0
VERTEX
  8
0
 10
708.843190
 20
152.545819
 42
0.048152
  0
VERTEX
  8
0
 10
707.641703
 20
158.780286
 42
0.041571
  0
VERTEX
  8
0
 10
705.231402
 20
165.000000
 42
0.033846
  0
VERTEX
  8
0
 10
701.368378
 20
171.739616
 42
0.010684
  0
VERTEX
  8
0
 10
694.721462
 20
181.260025
 42
0.011012
  0
VERTEX
  8
0
 10
687.239670
 20
191.042987
 42
0.017603
  0
VERTEX
  8
0
 10
680.382009
 20
199.019493
 42
0.000000
  0
VERTEX
  8
0
 10
674.401212
 20
205.500000
 42
0.000000
  0
VERTEX
  8
0
 10
672.636039
 20
217.886039
 42
0.020743
  0
VERTEX
  8
0
 10
668.862255
 20
238.272481
 42
0.017047
  0
VERTEX
  8
0
 10
663.200643
 20
259.674635
 42
0.015427
  0
VERTEX
  8
0
 10
655.478697
 20
282.702030
 42
0.010989
  0
VERTEX
  8
0
 10
645.477294
 20
308.007704
 42
0.026026
  0
VERTEX
  8
0
 10
639.650325
 20
320.058146
 42
0.038804
  0
VERTEX
  8
0
 10
633.237096
 20
329.846622
 42
0.041685
  0
VERTEX
  8
0
 10
625.776247
 20
338.002879
 42
0.037524
  0
VERTEX
  8
0
 10
616.812211
 20
345.127525
 42
0.078647
  0
VERTEX
  8
0
 10
598.355903
 20
353.806936
 42
0.069249
  0
VERTEX
  8
0
 10
577.281042
 20
356.869984
 42
0.064493
  0
VERTEX
  8
0
 10
554.809343
 20
354.097553
 42
0.053811
  0
VERTEX
  8
0
 10
532.274964
 20
345.639212
 42
-0.006946
  0
VERTEX
  8
0
 10
529.414558
 20
344.247917
 42
-0.009488
  0
VERTEX
  8
0
 10
526.797762
 20
343.079833
 42
-0.006727
  0
VERTEX
  8
0
 10
524.589396
 20
342.178753
 42
-0.101048
  0
VERTEX
  8
0
 10
523.774964
 20
342.036816
 42
-0.225090
  0
VERTEX
  8
0
 10
522.618536
 20
342.626670
 42
-0.002352
  0
VERTEX
  8
0
 10
516.985210
 20
350.012019
 42
-0.005533
  0
VERTEX
  8
0
 10
511.804569
 20
357.030730
 42
-0.065416
  0
VERTEX
  8
0
 10
510.201413
 20
360.006590
 42
-0.256463
  0
VERTEX
  8
0
 10
510.276953
 20
360.548082
 42
-0.003679
  0
VERTEX
  8
0
 10
512.314892
 20
363.239619
 42
-0.009083
  0
VERTEX
  8
0
 10
514.803955
 20
366.358272
 42
-0.005734
  0
VERTEX
  8
0
 10
517.815527
 20
369.910403
 42
0.009531
  0
VERTEX
  8
0
 10
521.927911
 20
374.836287
 42
0.026272
  0
VERTEX
  8
0
 10
524.569749
 20
378.505371
 42
0.034101
  0
VERTEX
  8
0
 10
526.400485
 20
381.830116
 42
0.029500
  0
VERTEX
  8
0
 10
527.864114
 20
385.535642
 42
0.057732
  0
VERTEX
  8
0
 10
529.730464
 20
394.655613
 42
0.050525
  0
VERTEX
  8
0
 10
529.589848
 20
404.391202
 42
0.047195
  0
VERTEX
  8
0
 10
527.433954
 20
414.519564
 42
0.038591
  0
VERTEX
  8
0
 10
523.312084
 20
424.803780
 42
0.000000
  0
VERTEX
  8
0
 10
519.708552
 20
432.107561
 42
0.000000
  0
VERTEX
  8
0
 10
521.895957
 20
433.639679
 42
0.046666
  0
VERTEX
  8
0
 10
522.920135
 20
434.509848
 42
0.016081
  0
VERTEX
  8
0
 10
524.233387
 20
435.944942
 42
0.015819
  0
VERTEX
  8
0
 10
525.587970
 20
437.629314
 42
0.017685
  0
VERTEX
  8
0
 10
526.781494
 20
439.335898
 42
0.030389
  0
VERTEX
  8
0
 10
528.212979
 20
441.870162
 42
0.056392
  0
VERTEX
  8
0
 10
529.001316
 20
444.093441
 42
0.044256
  0
VERTEX
  8
0
 10
529.378259
 20
446.775386
 42
0.012482
  0
VERTEX
  8
0
 10
529.489045
 20
451.000000
 42
0.019511
  0
VERTEX
  8
0
 10
529.315149
 20
455.603019
 42
0.046646
  0
VERTEX
  8
0
 10
528.737364
 20
458.968899
 42
0.035238
  0
VERTEX
  8
0
 10
527.448313
 20
462.687650
 42
0.007345
  0
VERTEX
  8
0
 10
524.638392
 20
469.000000
 42
-0.006113
  0
VERTEX
  8
0
 10
522.662639
 20
473.409170
 42
-0.005680
  0
VERTEX
  8
0
 10
520.744977
 20
477.974277
 42
-0.005672
  0
VERTEX
  8
0
 10
519.131900
 20
482.072470
 42
-0.019021
  0
VERTEX
  8
0
 10
518.208997
 20
484.806048
 42
0.000000
  0
VERTEX
  8
0
 10
516.639675
 20
490.112096
 42
0.000000
  0
VERTEX
  8
0
 10
520.334205
 20
496.952264
 42
0.074180
  0
VERTEX
  8
0
 10
526.558773
 20
514.157155
 42
0.048293
  0
VERTEX
  8
0
 10
528.725560
 20
535.214150
 42
0.040537
  0
VERTEX
  8
0
 10
526.862997
 20
560.001557
 42
0.025355
  0
VERTEX
  8
0
 10
520.886153
 20
588.500000
 42
-0.025319
  0
VERTEX
  8
0
 10
518.572633
 20
599.527297
 42
-0.025073
  0
VERTEX
  8
0
 10
517.376199
 20
610.768105
 42
-0.025274
  0
VERTEX
  8
0
 10
517.316024
 20
621.981338
 42
-0.026782
  0
VERTEX
  8
0
 10
518.400022
 20
632.926135
 42
0.016437
  0
VERTEX
  8
0
 10
519.477588
 20
641.908108
 42
0.017534
  0
VERTEX
  8
0
 10
519.933009
 20
650.749777
 42
0.018767
  0
VERTEX
  8
0
 10
519.763477
 20
658.770906
 42
0.035190
  0
VERTEX
  8
0
 10
518.929305
 20
665.200779
 42
0.021805
  0
VERTEX
  8
0
 10
516.991614
 20
673.018346
 42
0.016376
  0
VERTEX
  8
0
 10
514.208943
 20
681.434507
 42
0.015761
  0
VERTEX
  8
0
 10
511.182360
 20
688.933868
 42
0.058956
  0
VERTEX
  8
0
 10
508.604917
 20
693.303937
 42
0.041694
  0
VERTEX
  8
0
 10
506.104786
 20
696.075269
 42
0.094162
  0
VERTEX
  8
0
 10
503.727687
 20
697.584500
 42
0.175413
  0
VERTEX
  8
0
 10
501.857719
 20
697.641792
 42
0.225648
  0
SEQEND
  0
POLYLINE
  8
0
 66
1
 70
1
  0
VERTEX
  8
0
 10
258.951387
 20
634.678566
 42
0.021330
  0
VERTEX
  8
0
 10
260.735015
 20
630.903028
 42
0.008459
  0
VERTEX
  8
0
 10
263.489987
 20
625.870974
 42
0.008353
  0
VERTEX
  8
0
 10
266.651146
 20
620.531384
 42
0.010377
  0
VERTEX
  8
0
 10
269.775307
 20
615.678566
 42
-0.002227
  0
VERTEX
  8
0
 10
283.864524
 20
594.557947
 42
-0.013386
  0
VERTEX
  8
0
 10
290.844053
 20
583.352510
 42
-0.023316
  0
VERTEX
  8
0
 10
295.380368
 20
574.716634
 42
-0.018125
  0
VERTEX
  8
0
 10
299.520861
 20
564.945336
 42
-0.004365
  0
VERTEX
  8
0
 10
301.657555
 20
559.196059
 42
-0.046106
  0
VERTEX
  8
0
 10
302.288512
 20
556.775089
 42
-0.121438
  0
VERTEX
  8
0
 10
302.166905
 20
555.236757
 42
-0.104120
  0
VERTEX
  8
0
 10
301.346573
 20
553.830465
 42
-0.041688
  0
VERTEX
  8
0
 10
300.638794
 20
553.168577
 42
-0.063026
  0
VERTEX
  8
0
 10
299.917306
 20
552.733449
 42
-0.084834
  0
VERTEX
  8
0
 10
299.292917
 20
552.575648
 42
-0.219339
  0
VERTEX
  8
0
 10
298.867255
 20
552.732745
 42
-0.072456
  0
VERTEX
  8
0
 10
297.278494
 20
554.863331
 42
-0.000541
  0
VERTEX
  8
0
 10
286.857932
 20
574.166947
 42
-0.002342
  0
VERTEX
  8
0
 10
276.745553
 20
593.160805
 42
-0.003967
  0
VERTEX
  8
0
 10
268.479089
 20
609.171318
 42
-0.006581
  0
VERTEX
  8
0
 10
260.821461
 20
624.803011
 42
-0.011684
  0
VERTEX
  8
0
 10
254.986773
 20
637.904097
 42
-0.014127
  0
VERTEX
  8
0
 10
250.734940
 20
648.952474
 42
-0.025961
  0
VERTEX
  8
0
 10
248.005223
 20
658.194118
 42
-0.002520
  0
VERTEX
  8
0
 10
245.780690
 20
667.683933
 42
-0.659129
  0
VERTEX
  8
0
 10
246.296038
 20
668.060060
 42
-0.176452
  0
VERTEX
  8
0
 10
247.270679
 20
666.870547
 42
-0.001816
  0
VERTEX
  8
0
 10
250.863416
 20
656.500000
 42
0.003401
  0
VERTEX
  8
0
 10
252.940051
 20
650.566614
 42
0.002869
  0
VERTEX
  8
0
 10
255.216472
 20
644.314954
 42
0.002893
  0
VERTEX
  8
0
 10
257.358986
 20
638.635500
 42
0.008041
  0
SEQEND
  0
POLYLINE
  8
0
 66
1
 70
1
  0
VERTEX
  8
0
 10
505.554030
 20
661.851542
 42
-0.040443
  0
VERTEX
  8
0
 10
504.279548
 20
654.810260
 42
-0.014328
  0
VERTEX
  8
0
 10
501.362835
 20
644.984559
 42
-0.012314
  0
VERTEX
  8
0
 10
497.100482
 20
633.005283
 42
-0.007405
  0
VERTEX
  8
0
 10
491.485817
 20
619.000000
 42
0.006417
  0
VERTEX
  8
0
 10
485.472740
 20
604.086269
 42
0.010377
  0
VERTEX
  8
0
 10
480.785747
 20
591.232889
 42
0.012186
  0
VERTEX
  8
0
 10
477.302320
 20
580.150512
 42
0.020603
  0
VERTEX
  8
0
 10
474.998477
 20
570.694163
 42
-0.023229
  0
VERTEX
  8
0
 10
473.923070
 20
566.378718
 42
-0.275367
  0
VERTEX
  8
0
 10
472.703361
 20
565.258945
 42
-0.464176
  0
VERTEX
  8
0
 10
471.757186
 20
565.999158
 42
-0.028920
  0
VERTEX
  8
0
 10
471.838157
 20
570.036103
 42
-0.038970
  0
VERTEX
  8
0
 10
472.959170
 20
577.174000
 42
-0.021772
  0
VERTEX
  8
0
 10
475.367180
 20
585.636750
 42
-0.016771
  0
VERTEX
  8
0
 10
479.225928
 20
596.068637
 42
-0.007621
  0
VERTEX
  8
0
 10
484.934077
 20
609.454883
 42
0.003161
  0
VERTEX
  8
0
 10
494.669781
 20
631.733250
 42
0.015454
  0
VERTEX
  8
0
 10
499.703487
 20
644.530094
 42
0.025774
  0
VERTEX
  8
0
 10
502.620058
 20
654.221522
 42
0.025080
  0
VERTEX
  8
0
 10
504.555349
 20
664.250000
 42
-0.009179
  0
VERTEX
  8
0
 10
505.278320
 20
668.763080
 42
-0.748374
  0
VERTEX
  8
0
 10
505.741161
 20
668.813578
 42
-0.117387
  0
VERTEX
  8
0
 10
506.009302
 20
667.160906
 42
-0.006340
  0
SEQEND
  0
POLYLINE
  8
0
 66
1
 70
1
  0
VERTEX
  8
0
 10
511.984687
 20
639.473766
 42
0.008296
  0
VERTEX
  8
0
 10
512.229276
 20
625.452258
 42
0.017591
  0
VERTEX
  8
0
 10
512.980332
 20
614.618309
 42
0.017251
  0
VERTEX
  8
0
 10
514.501997
 20
603.733005
 42
0.007673
  0
VERTEX
  8
0
 10
517.220618
 20
589.500000
 42
-0.007273
  0
VERTEX
  8
0
 10
518.831809
 20
581.101320
 42
-0.016424
  0
VERTEX
  8
0
 10
519.749306
 20
574.690238
 42
-0.017189
  0
VERTEX
  8
0
 10
520.220521
 20
568.412984
 42
-0.008746
  0
VERTEX
  8
0
 10
520.403033
 20
560.500000
 42
-0.013871
  0
VERTEX
  8
0
 10
520.174618
 20
550.198823
 42
-0.025647
  0
VERTEX
  8
0
 10
519.329133
 20
541.872138
 42
-0.029258
  0
VERTEX
  8
0
 10
517.995880
 20
535.646641
 42
-0.144850
  0
VERTEX
  8
0
 10
516.121585
 20
532.638215
 42
-0.044030
  0
VERTEX
  8
0
 10
514.235498
 20
531.240022
 42
-0.006308
  0
VERTEX
  8
0
 10
510.102676
 20
528.777813
 42
-0.003249
  0
VERTEX
  8
0
 10
505.720615
 20
526.279339
 42
-0.128625
  0
VERTEX
  8
0
 10
504.652713
 20
526.000000
 42
-0.402618
  0
VERTEX
  8
0
 10
504.490453
 20
526.155934
 42
-0.013466
  0
VERTEX
  8
0
 10
504.477943
 20
527.131751
 42
-0.018734
  0
VERTEX
  8
0
 10
504.542137
 20
528.375389
 42
-0.011075
  0
VERTEX
  8
0
 10
504.707078
 20
529.852770
 42
0.083617
  0
VERTEX
  8
0
 10
504.547192
 20
534.621658
 42
0.079126
  0
VERTEX
  8
0
 10
502.842168
 20
539.175111
 42
0.073717
  0
VERTEX
  8
0
 10
499.670453
 20
543.233453
 42
0.059407
  0
VERTEX
  8
0
 10
495.230849
 20
546.549824
 42
-0.221373
  0
VERTEX
  8
0
 10
494.710923
 20
547.290288
 42
-0.000731
  0
VERTEX
  8
0
 10
492.718886
 20
558.557283
 42
-0.004389
  0
VERTEX
  8
0
 10
490.969286
 20
569.080469
 42
-0.010930
  0
VERTEX
  8
0
 10
489.926194
 20
576.811197
 42
-0.009071
  0
VERTEX
  8
0
 10
489.378499
 20
582.613256
 42
-0.042510
  0
VERTEX
  8
0
 10
489.408621
 20
585.963069
 42
-0.045097
  0
VERTEX
  8
0
 10
490.005642
 20
589.169367
 42
-0.011035
  0
VERTEX
  8
0
 10
491.575360
 20
594.311197
 42
-0.005681
  0
VERTEX
  8
0
 10
492.892576
 20
598.160204
 42
-0.002788
  0
VERTEX
  8
0
 10
494.652558
 20
603.032039
 42
-0.002765
  0
VERTEX
  8
0
 10
496.537563
 20
608.074007
 42
-0.004017
  0
VERTEX
  8
0
 10
498.261061
 20
612.500000
 42
0.013357
  0
VERTEX
  8
0
 10
503.073931
 20
625.576760
 42
0.016734
  0
VERTEX
  8
0
 10
506.800033
 20
637.950884
 42
0.018367
  0
VERTEX
  8
0
 10
509.245297
 20
648.769464
 42
0.045369
  0
VERTEX
  8
0
 10
510.015313
 20
656.860468
 42
-0.010504
  0
VERTEX
  8
0
 10
510.059881
 20
658.627665
 42
-0.096576
  0
VERTEX
  8
0
 10
510.240472
 20
659.369554
 42
-0.462788
  0
VERTEX
  8
0
 10
510.552509
 20
659.456783
 42
-0.101036
  0
VERTEX
  8
0
 10
511.000000
 20
659.000000
 42
-0.127693
  0
VERTEX
  8
0
 10
511.387915
 20
657.828344
 42
-0.003832
  0
VERTEX
  8
0
 10
511.689119
 20
652.645419
 42
-0.007380
  0
VERTEX
  8
0
 10
511.908509
 20
646.489828
 42
-0.005004
  0
SEQEND
  0
POLYLINE
  8
0
 66
1
 70
1
  0
VERTEX
  8
0
 10
248.353855
 20
623.250000
 42
-0.015335
  0
VERTEX
  8
0
 10
249.457976
 20
620.874516
 42
-0.006061
  0
VERTEX
  8
0
 10
250.835436
 20
617.545313
 42
-0.005992
  0
VERTEX
  8
0
 10
252.237566
 20
613.910901
 42
-0.007465
  0
VERTEX
  8
0
 10
253.449065
 20
610.500000
 42
0.014105
  0
VERTEX
  8
0
 10
254.758183
 20
606.963840
 42
0.009093
  0
VERTEX
  8
0
 10
256.463710
 20
602.940625
 42
0.009140
  0
VERTEX
  8
0
 10
258.276684
 20
599.063713
 42
0.016974
  0
VERTEX
  8
0
 10
259.909438
 20
596.000000
 42
-0.011248
  0
VERTEX
  8
0
 10
263.668170
 20
589.137574
 42
-0.021523
  0
VERTEX
  8
0
 10
266.318146
 20
583.443231
 42
-0.022068
  0
VERTEX
  8
0
 10
268.426964
 20
577.637182
 42
-0.012517
  0
VERTEX
  8
0
 10
270.488606
 20
570.446876
 42
-0.011371
  0
VERTEX
  8
0
 10
272.672110
 20
561.182366
 42
-0.004579
  0
VERTEX
  8
0
 10
275.249671
 20
548.438160
 42
-0.002806
  0
VERTEX
  8
0
 10
277.610924
 20
535.805975
 42
-0.044825
  0
VERTEX
  8
0
 10
278.000000
 20
531.474738
 42
-0.088459
  0
VERTEX
  8
0
 10
277.804995
 20
530.381121
 42
-0.027256
  0
VERTEX
  8
0
 10
277.138865
 20
528.837582
 42
-0.026320
  0
VERTEX
  8
0
 10
276.190462
 20
527.159988
 42
-0.026089
  0
VERTEX
  8
0
 10
275.068477
 20
525.586168
 42
0.071141
  0
VERTEX
  8
0
 10
272.806190
 20
521.720264
 42
0.029175
  0
VERTEX
  8
0
 10
270.837216
 20
515.954602
 42
0.028731
  0
VERTEX
  8
0
 10
269.457862
 20
509.586359
 42
0.038984
  0
VERTEX
  8
0
 10
269.000000
 20
503.722890
 42
0.000000
  0
VERTEX
  8
0
 10
269.000000
 20
499.340591
 42
0.000000
  0
VERTEX
  8
0
 10
263.453065
 20
500.346009
 42
0.000000
  0
VERTEX
  8
0
 10
257.906130
 20
501.351428
 42
0.000000
  0
VERTEX
  8
0
 10
254.514623
 20
508.425714
 42
-0.025726
  0
VERTEX
  8
0
 10
249.215262
 20
521.115189
 42
-0.030712
  0
VERTEX
  8
0
 10
245.599342
 20
533.560688
 42
-0.028976
  0
VERTEX
  8
0
 10
243.392557
 20
546.944475
 42
-0.019148
  0
VERTEX
  8
0
 10
242.345850
 20
562.500000
 42
-0.004999
  0
VERTEX
  8
0
 10
242.161122
 20
572.274187
 42
-0.017647
  0
VERTEX
  8
0
 10
242.326864
 20
578.552795
 42
-0.021816
  0
VERTEX
  8
0
 10
242.912665
 20
584.095042
 42
-0.011103
  0
VERTEX
  8
0
 10
244.106022
 20
591.000000
 42
0.019919
  0
VERTEX
  8
0
 10
245.508480
 20
600.064151
 42
0.016068
  0
VERTEX
  8
0
 10
246.311194
 20
609.886266
 42
0.015920
  0
VERTEX
  8
0
 10
246.468597
 20
618.842477
 42
0.051350
  0
VERTEX
  8
0
 10
245.775000
 20
624.750000
 42
-0.015642
  0
VERTEX
  8
0
 10
245.248651
 20
627.513639
 42
-0.632023
  0
VERTEX
  8
0
 10
245.638213
 20
627.780409
 42
-0.139600
  0
VERTEX
  8
0
 10
246.441374
 20
626.946420
 42
-0.005851
  0
SEQEND
  0
POLYLINE
  8
0
 66
1
 70
1
  0
VERTEX
  8
0
 10
433.500000
 20
576.755872
 42
-0.027079
  0
VERTEX
  8
0
 10
444.980278
 20
571.984897
 42
-0.016970
  0
VERTEX
  8
0
 10
457.872334
 20
565.241251
 42
-0.017047
  0
VERTEX
  8
0
 10
470.027718
 20
557.789201
 42
-0.032468
  0
VERTEX
  8
0
 10
479.158510
 20
550.862681
 42
-0.028817
  0
VERTEX
  8
0
 10
484.552465
 20
545.616537
 42
-0.059643
  0
VERTEX
  8
0
 10
487.974416
 20
540.848808
 42
-0.356143
  0
VERTEX
  8
0
 10
487.652992
 20
539.091330
 42
-0.311273
  0
VERTEX
  8
0
 10
485.748493
 20
538.896206
 42
-0.044721
  0
VERTEX
  8
0
 10
484.334601
 20
539.844561
 42
-0.002875
  0
VERTEX
  8
0
 10
480.488620
 20
542.992678
 42
-0.004184
  0
VERTEX
  8
0
 10
475.951795
 20
546.814504
 42
-0.003103
  0
VERTEX
  8
0
 10
471.000000
 20
551.110824
 42
0.008199
  0
VERTEX
  8
0
 10
465.405392
 20
555.865798
 42
0.011457
  0
VERTEX
  8
0
 10
460.240520
 20
559.916966
 42
0.012679
  0
VERTEX
  8
0
 10
455.781553
 20
563.079223
 42
0.036827
  0
VERTEX
  8
0
 10
452.500000
 20
564.948936
 42
0.022057
  0
VERTEX
  8
0
 10
446.633225
 20
567.430496
 42
0.008430
  0
VERTEX
  8
0
 10
438.268922
 20
570.381691
 42
0.008536
  0
VERTEX
  8
0
 10
429.464693
 20
573.156032
 42
0.014496
  0
VERTEX
  8
0
 10
422.000000
 20
575.135444
 42
0.038744
  0
VERTEX
  8
0
 10
415.300219
 20
576.166972
 42
0.025230
  0
VERTEX
  8
0
 10
407.470671
 20
576.361704
 42
0.025156
  0
VERTEX
  8
0
 10
400.089006
 20
575.800475
 42
0.067203
  0
VERTEX
  8
0
 10
395.000000
 20
574.444562
 42
-0.047520
  0
VERTEX
  8
0
 10
391.812089
 20
573.459726
 42
-0.029625
  0
VERTEX
  8
0
 10
387.939665
 20
572.892567
 42
-0.016643
  0
VERTEX
  8
0
 10
382.198979
 20
572.588538
 42
-0.003374
  0
VERTEX
  8
0
 10
372.000000
 20
572.457175
 42
0.004382
  0
VERTEX
  8
0
 10
362.561970
 20
572.316589
 42
0.012718
  0
VERTEX
  8
0
 10
356.042753
 20
571.996280
 42
0.018118
  0
VERTEX
  8
0
 10
351.127029
 20
571.449574
 42
0.029125
  0
VERTEX
  8
0
 10
347.000000
 20
570.590501
 42
0.027160
  0
VERTEX
  8
0
 10
341.344808
 20
568.730426
 42
0.012101
  0
VERTEX
  8
0
 10
334.107384
 20
565.702204
 42
0.011955
  0
VERTEX
  8
0
 10
326.601725
 20
562.128369
 42
0.016102
  0
VERTEX
  8
0
 10
320.000000
 20
558.517553
 42
0.000000
  0
VERTEX
  8
0
 10
315.500000
 20
555.864578
 42
0.000000
  0
VERTEX
  8
0
 10
319.917624
 20
559.966912
 42
-0.030421
  0
VERTEX
  8
0
 10
322.175739
 20
561.821473
 42
-0.012864
  0
VERTEX
  8
0
 10
325.411769
 20
564.040296
 42
-0.012672
  0
VERTEX
  8
0
 10
328.999518
 20
566.239814
 42
-0.016174
  0
VERTEX
  8
0
 10
332.417624
 20
568.073025
 42
-0.034956
  0
VERTEX
  8
0
 10
340.895493
 20
571.558431
 42
-0.039980
  0
VERTEX
  8
0
 10
349.406813
 20
573.643570
 42
-0.034379
  0
VERTEX
  8
0
 10
359.149378
 20
574.538539
 42
-0.017309
  0
VERTEX
  8
0
 10
371.500000
 20
574.393545
 42
0.004614
  0
VERTEX
  8
0
 10
380.151119
 20
574.072232
 42
0.029052
  0
VERTEX
  8
0
 10
384.563401
 20
574.205494
 42
0.042745
  0
VERTEX
  8
0
 10
388.186636
 20
574.841327
 42
0.017219
  0
VERTEX
  8
0
 10
393.000000
 20
576.296542
 42
-0.006510
  0
VERTEX
  8
0
 10
400.038489
 20
578.590074
 42
-0.039529
  0
VERTEX
  8
0
 10
403.774148
 20
579.437089
 42
-0.037812
  0
VERTEX
  8
0
 10
407.660834
 20
579.703206
 42
-0.005649
  0
VERTEX
  8
0
 10
415.500000
 20
579.557977
 42
-0.009704
  0
VERTEX
  8
0
 10
421.278331
 20
579.273283
 42
-0.021452
  0
VERTEX
  8
0
 10
425.665129
 20
578.781963
 42
-0.025404
  0
VERTEX
  8
0
 10
429.502227
 20
577.983226
 42
-0.020926
  0
SEQEND
  0
POLYLINE
  8
0
 66
1
 70
1
  0
VERTEX
  8
0
 10
397.936293
 20
568.018271
 42
-0.025372
  0
VERTEX
  8
0
 10
399.305709
 20
567.549160
 42
-0.027075
  0
VERTEX
  8
0
 10
400.590317
 20
566.952370
 42
-0.028007
  0
VERTEX
  8
0
 10
401.629874
 20
566.322085
 42
-0.101395
  0
VERTEX
  8
0
 10
402.164378
 20
565.768271
 42
-0.121837
  0
VERTEX
  8
0
 10
402.897944
 20
563.577286
 42
-0.050691
  0
VERTEX
  8
0
 10
402.832957
 20
560.437225
 42
-0.041117
  0
VERTEX
  8
0
 10
402.035883
 20
556.587769
 42
-0.024903
  0
VERTEX
  8
0
 10
400.500000
 20
552.192279
 42
0.027579
  0
VERTEX
  8
0
 10
398.758954
 20
547.122756
 42
0.063658
  0
VERTEX
  8
0
 10
398.163933
 20
543.146047
 42
0.040798
  0
VERTEX
  8
0
 10
398.462827
 20
538.184665
 42
0.006171
  0
VERTEX
  8
0
 10
399.990181
 20
528.349373
 42
0.010124
  0
VERTEX
  8
0
 10
403.074186
 20
512.018908
 42
0.033102
  0
VERTEX
  8
0
 10
406.037527
 20
501.438404
 42
0.050457
  0
VERTEX
  8
0
 10
409.491407
 20
494.103537
 42
0.073927
  0
VERTEX
  8
0
 10
414.016349
 20
488.604195
 42
0.041337
  0
VERTEX
  8
0
 10
416.325946
 20
486.840815
 42
0.009600
  0
VERTEX
  8
0
 10
420.492582
 20
484.284735
 42
0.009842
  0
VERTEX
  8
0
 10
425.419190
 20
481.520080
 42
0.009497
  0
VERTEX
  8
0
 10
430.509312
 20
478.917162
 42
-0.020430
  0
VERTEX
  8
0
 10
443.780390
 20
471.760594
 42
-0.039478
  0
VERTEX
  8
0
 10
453.632470
 20
464.811094
 42
-0.048568
  0
VERTEX
  8
0
 10
460.818861
 20
457.553830
 42
-0.059607
  0
VERTEX
  8
0
 10
465.917237
 20
449.500000
 42
-0.003457
  0
VERTEX
  8
0
 10
469.543504
 20
441.764637
 42
-0.297416
  0
VERTEX
  8
0
 10
469.363312
 20
440.545282
 42
-0.430554
  0
VERTEX
  8
0
 10
468.362061
 20
440.512449
 42
-0.004428
  0
VERTEX
  8
0
 10
462.863821
 20
446.052719
 42
0.010429
  0
VERTEX
  8
0
 10
456.196662
 20
452.611508
 42
0.022393
  0
VERTEX
  8
0
 10
450.736452
 20
457.319628
 42
0.025308
  0
VERTEX
  8
0
 10
445.323346
 20
461.152995
 42
0.017831
  0
VERTEX
  8
0
 10
438.886962
 20
464.923496
 42
0.020055
  0
VERTEX
  8
0
 10
430.933872
 20
468.806146
 42
0.026414
  0
VERTEX
  8
0
 10
423.384251
 20
471.658519
 42
0.029573
  0
VERTEX
  8
0
 10
416.457290
 20
473.422050
 42
0.047577
  0
VERTEX
  8
0
 10
410.397207
 20
474.000000
 42
0.042719
  0
VERTEX
  8
0
 10
394.207545
 20
472.614274
 42
0.046243
  0
VERTEX
  8
0
 10
378.930172
 20
468.497924
 42
0.042935
  0
VERTEX
  8
0
 10
363.748091
 20
461.323978
 42
0.029222
  0
VERTEX
  8
0
 10
347.820239
 20
450.758893
 42
-0.011387
  0
VERTEX
  8
0
 10
341.583855
 20
446.294148
 42
-0.097903
  0
VERTEX
  8
0
 10
338.447194
 20
444.955493
 42
-0.516998
  0
VERTEX
  8
0
 10
337.468725
 20
445.859958
 42
-0.087125
  0
VERTEX
  8
0
 10
338.378067
 20
448.764208
 42
-0.056675
  0
VERTEX
  8
0
 10
341.293071
 20
453.113336
 42
-0.019856
  0
VERTEX
  8
0
 10
346.393448
 20
458.661003
 42
-0.018221
  0
VERTEX
  8
0
 10
352.897156
 20
464.734858
 42
-0.014347
  0
VERTEX
  8
0
 10
360.355269
 20
470.841641
 42
0.013735
  0
VERTEX
  8
0
 10
370.272388
 20
478.941641
 42
0.041595
  0
VERTEX
  8
0
 10
376.368335
 20
485.161924
 42
0.053605
  0
VERTEX
  8
0
 10
380.475755
 20
491.362594
 42
0.037307
  0
VERTEX
  8
0
 10
383.774739
 20
499.092744
 42
0.024025
  0
VERTEX
  8
0
 10
387.726903
 20
512.798260
 42
0.035454
  0
VERTEX
  8
0
 10
389.743367
 20
525.149870
 42
0.040752
  0
VERTEX
  8
0
 10
389.847624
 20
536.134256
 42
0.058025
  0
VERTEX
  8
0
 10
388.026529
 20
545.712406
 42
-0.017188
  0
VERTEX
  8
0
 10
386.175638
 20
552.414900
 42
-0.037654
  0
VERTEX
  8
0
 10
385.329117
 20
557.667465
 42
-0.050793
  0
VERTEX
  8
0
 10
385.397544
 20
561.696391
 42
-0.115904
  0
VERTEX
  8
0
 10
386.431794
 20
564.536248
 42
-0.070316
  0
VERTEX
  8
0
 10
388.599772
 20
567.005905
 42
-0.104391
  0
VERTEX
  8
0
 10
391.114762
 20
568.386155
 42
-0.094452
  0
VERTEX
  8
0
 10
394.162507
 20
568.709061
 42
-0.049167
  0
SEQEND
  0
POLYLINE
  8
0
 66
1
 70
1
  0
VERTEX
  8
0
 10
335.427214
 20
523.843071
 42
0.009831
  0
VERTEX
  8
0
 10
338.390094
 20
523.308410
 42
0.043070
  0
VERTEX
  8
0
 10
340.162816
 20
523.179155
 42
0.082656
  0
VERTEX
  8
0
 10
341.276701
 20
523.379823
 42
0.170125
  0
VERTEX
  8
0
 10
341.956696
 20
523.929933
 42
-0.365014
  0
VERTEX
  8
0
 10
344.145975
 20
524.648755
 42
-0.018883
  0
VERTEX
  8
0
 10
351.448685
 20
521.383279
 42
-0.026587
  0
VERTEX
  8
0
 10
358.670212
 20
517.330458
 42
-0.078536
  0
VERTEX
  8
0
 10
362.929961
 20
513.584391
 42
-0.075628
  0
VERTEX
  8
0
 10
363.561674
 20
512.534721
 42
-0.600359
  0
VERTEX
  8
0
 10
363.282766
 20
512.197186
 42
-0.045749
  0
VERTEX
  8
0
 10
361.692199
 20
512.676306
 42
-0.001777
  0
VERTEX
  8
0
 10
356.012250
 20
514.994949
 42
0.026137
  0
VERTEX
  8
0
 10
347.301608
 20
518.065044
 42
0.033070
  0
VERTEX
  8
0
 10
338.972338
 20
519.931821
 42
0.031294
  0
VERTEX
  8
0
 10
330.107621
 20
520.747856
 42
0.019951
  0
VERTEX
  8
0
 10
319.750000
 20
520.637365
 42
-0.006859
  0
VERTEX
  8
0
 10
311.579266
 20
520.336181
 42
-0.059637
  0
VERTEX
  8
0
 10
307.966557
 20
520.684096
 42
-0.607275
  0
VERTEX
  8
0
 10
307.728317
 20
521.564923
 42
-0.093745
  0
VERTEX
  8
0
 10
309.750000
 20
522.822589
 42
-0.052600
  0
VERTEX
  8
0
 10
315.002851
 20
524.245060
 42
-0.029917
  0
VERTEX
  8
0
 10
321.559520
 20
524.899864
 42
-0.028557
  0
VERTEX
  8
0
 10
328.618011
 20
524.777194
 42
-0.030939
  0
SEQEND
  0
POLYLINE
  8
0
 66
1
 70
1
  0
VERTEX
  8
0
 10
449.216970
 20
523.849089
 42
0.262404
  0
VERTEX
  8
0
 10
449.753771
 20
523.363053
 42
0.060403
  0
VERTEX
  8
0
 10
451.014981
 20
523.234076
 42
0.033595
  0
VERTEX
  8
0
 10
453.076479
 20
523.411626
 42
0.008354
  0
VERTEX
  8
0
 10
456.415618
 20
523.984078
 42
-0.040536
  0
VERTEX
  8
0
 10
464.708376
 20
524.861935
 42
-0.032483
  0
VERTEX
  8
0
 10
473.683233
 20
524.498207
 42
-0.027324
  0
VERTEX
  8
0
 10
481.311763
 20
523.266470
 42
-0.352634
  0
VERTEX
  8
0
 10
483.000000
 20
521.170383
 42
-0.399232
  0
VERTEX
  8
0
 10
482.708118
 20
520.863094
 42
-0.002003
  0
VERTEX
  8
0
 10
478.079687
 20
520.643485
 42
-0.007077
  0
VERTEX
  8
0
 10
472.672684
 20
520.485271
 42
-0.004248
  0
VERTEX
  8
0
 10
466.250000
 20
520.442868
 42
0.003740
  0
VERTEX
  8
0
 10
455.520952
 20
520.382938
 42
0.028076
  0
VERTEX
  8
0
 10
450.452691
 20
520.031642
 42
0.040570
  0
VERTEX
  8
0
 10
446.206105
 20
519.142335
 42
0.012620
  0
VERTEX
  8
0
 10
440.000000
 20
517.135392
 42
0.004908
  0
VERTEX
  8
0
 10
436.291510
 20
515.790833
 42
0.006897
  0
VERTEX
  8
0
 10
433.011562
 20
514.513260
 42
0.004300
  0
VERTEX
  8
0
 10
430.288263
 20
513.381640
 42
0.088957
  0
VERTEX
  8
0
 10
429.550000
 20
512.898090
 42
-0.061427
  0
VERTEX
  8
0
 10
429.082645
 20
512.554018
 42
-0.037527
  0
VERTEX
  8
0
 10
428.461219
 20
512.263814
 42
-0.037146
  0
VERTEX
  8
0
 10
427.791776
 20
512.065776
 42
-0.053392
  0
VERTEX
  8
0
 10
427.177555
 20
512.000000
 42
-0.645950
  0
VERTEX
  8
0
 10
426.678881
 20
513.105513
 42
-0.054538
  0
VERTEX
  8
0
 10
429.809709
 20
515.955833
 42
-0.030695
  0
VERTEX
  8
0
 10
435.489608
 20
519.582014
 42
-0.029189
  0
VERTEX
  8
0
 10
441.664969
 20
522.553339
 42
-0.003509
  0
VERTEX
  8
0
 10
446.149082
 20
524.360393
 42
-0.051581
  0
VERTEX
  8
0
 10
447.785034
 20
524.818432
 42
-0.199811
  0
VERTEX
  8
0
 10
448.645350
 20
524.621975
 42
-0.158844
  0
SEQEND
  0
POLYLINE
  8
0
 66
1
 70
1
  0
VERTEX
  8
0
 10
462.343771
 20
500.921528
 42
-0.013936
  0
VERTEX
  8
0
 10
465.621207
 20
499.912285
 42
-0.725867
  0
VERTEX
  8
0
 10
465.616016
 20
499.462862
 42
-0.119617
  0
VERTEX
  8
0
 10
464.111436
 20
499.364335
 42
-0.008392
  0
VERTEX
  8
0
 10
459.931413
 20
500.166052
 42
0.019759
  0
VERTEX
  8
0
 10
456.876086
 20
500.680359
 42
0.042568
  0
VERTEX
  8
0
 10
454.493878
 20
500.780878
 42
0.041982
  0
VERTEX
  8
0
 10
452.108581
 20
500.476721
 42
0.018723
  0
VERTEX
  8
0
 10
449.036427
 20
499.698212
 42
-0.009294
  0
VERTEX
  8
0
 10
444.896242
 20
498.565583
 42
-0.125031
  0
VERTEX
  8
0
 10
443.336259
 20
498.566087
 42
-0.686033
  0
VERTEX
  8
0
 10
443.273965
 20
499.086559
 42
-0.019467
  0
VERTEX
  8
0
 10
446.098683
 20
500.445508
 42
-0.059376
  0
VERTEX
  8
0
 10
449.519584
 20
501.469574
 42
-0.035755
  0
VERTEX
  8
0
 10
453.738687
 20
501.896192
 42
-0.034542
  0
VERTEX
  8
0
 10
458.193745
 20
501.718952
 42
-0.040530
  0
SEQEND
  0
POLYLINE
  8
0
 66
1
 70
1
  0
VERTEX
  8
0
 10
327.000000
 20
493.581787
 42
0.030379
  0
VERTEX
  8
0
 10
327.039308
 20
492.935424
 42
0.017206
  0
VERTEX
  8
0
 10
327.161133
 20
492.160269
 42
0.017130
  0
VERTEX
  8
0
 10
327.338308
 20
491.384559
 42
0.026906
  0
VERTEX
  8
0
 10
327.548538
 20
490.734109
 42
-0.204451
  0
VERTEX
  8
0
 10
327.522396
 20
490.026655
 42
-0.144493
  0
VERTEX
  8
0
 10
326.987004
 20
489.425110
 42
-0.069194
  0
VERTEX
  8
0
 10
325.807198
 20
488.900571
 42
-0.018258
  0
VERTEX
  8
0
 10
323.798538
 20
488.401192
 42
0.022184
  0
VERTEX
  8
0
 10
321.649052
 20
487.848850
 42
0.074207
  0
VERTEX
  8
0
 10
320.338281
 20
487.225304
 42
0.113000
  0
VERTEX
  8
0
 10
319.574009
 20
486.410781
 42
0.097088
  0
VERTEX
  8
0
 10
319.187019
 20
485.299006
 42
-0.036775
  0
VERTEX
  8
0
 10
318.928324
 20
484.113876
 42
-0.225801
  0
VERTEX
  8
0
 10
318.521421
 20
483.661553
 42
-0.183755
  0
VERTEX
  8
0
 10
317.853334
 20
483.641102
 42
-0.023672
  0
VERTEX
  8
0
 10
316.500260
 20
484.181836
 42
-0.024190
  0
VERTEX
  8
0
 10
315.097478
 20
484.904839
 42
-0.210763
  0
VERTEX
  8
0
 10
314.693434
 20
485.457738
 42
-0.183246
  0
VERTEX
  8
0
 10
314.799512
 20
486.174965
 42
-0.017685
  0
VERTEX
  8
0
 10
315.727975
 20
487.707589
 42
-0.064570
  0
VERTEX
  8
0
 10
317.599857
 20
489.889796
 42
-0.025743
  0
VERTEX
  8
0
 10
320.667212
 20
492.377151
 42
-0.022642
  0
VERTEX
  8
0
 10
323.840508
 20
494.477157
 42
-0.135656
  0
VERTEX
  8
0
 10
325.732135
 20
495.000000
 42
-0.111085
  0
VERTEX
  8
0
 10
326.215809
 20
494.891200
 42
-0.100029
  0
VERTEX
  8
0
 10
326.627565
 20
494.583400
 42
-0.094710
  0
VERTEX
  8
0
 10
326.903765
 20
494.123283
 42
-0.088170
  0
SEQEND
  0
POLYLINE
  8
0
 66
1
 70
1
  0
VERTEX
  8
0
 10
441.692234
 20
490.081822
 42
0.000000
  0
VERTEX
  8
0
 10
441.766428
 20
485.163645
 42
0.000000
  0
VERTEX
  8
0
 10
438.133214
 20
485.723364
 42
-0.007724
  0
VERTEX
  8
0
 10
436.709812
 20
485.965214
 42
-0.010629
  0
VERTEX
  8
0
 10
435.439469
 20
486.229355
 42
-0.007552
  0
VERTEX
  8
0
 10
434.393048
 20
486.486949
 42
-0.114838
  0
VERTEX
  8
0
 10
434.064977
 20
486.659898
 42
-0.416590
  0
VERTEX
  8
0
 10
434.036232
 20
487.084962
 42
-0.001739
  0
VERTEX
  8
0
 10
437.450449
 20
490.935520
 42
-0.002290
  0
VERTEX
  8
0
 10
440.849110
 20
494.706864
 42
-0.211248
  0
VERTEX
  8
0
 10
441.511968
 20
495.000000
 42
-0.402992
  0
VERTEX
  8
0
 10
441.555992
 20
494.957637
 42
-0.000457
  0
VERTEX
  8
0
 10
441.608675
 20
493.555285
 42
-0.003368
  0
VERTEX
  8
0
 10
441.656161
 20
491.967688
 42
-0.002020
  0
SEQEND
  0
POLYLINE
  8
0
 66
1
 70
1
  0
VERTEX
  8
0
 10
473.933974
 20
492.541681
 42
-0.020038
  0
VERTEX
  8
0
 10
475.540910
 20
491.434829
 42
-0.016953
  0
VERTEX
  8
0
 10
477.148980
 20
490.142031
 42
-0.017288
  0
VERTEX
  8
0
 10
478.534978
 20
488.862142
 42
-0.044929
  0
VERTEX
  8
0
 10
479.410184
 20
487.824768
 42
-0.020503
  0
VERTEX
  8
0
 10
480.304554
 20
486.429463
 42
-0.181487
  0
VERTEX
  8
0
 10
480.426112
 20
485.721085
 42
-0.199044
  0
VERTEX
  8
0
 10
480.045962
 20
485.143468
 42
-0.025330
  0
VERTEX
  8
0
 10
478.746082
 20
484.355203
 42
-0.024444
  0
VERTEX
  8
0
 10
477.453607
 20
483.737872
 42
-0.184981
  0
VERTEX
  8
0
 10
476.789884
 20
483.717361
 42
-0.217633
  0
VERTEX
  8
0
 10
476.344285
 20
484.143875
 42
-0.034790
  0
VERTEX
  8
0
 10
475.967973
 20
485.322116
 42
0.097913
  0
VERTEX
  8
0
 10
475.472174
 20
486.389637
 42
0.090661
  0
VERTEX
  8
0
 10
474.596135
 20
487.222216
 42
0.064780
  0
VERTEX
  8
0
 10
473.223396
 20
487.884923
 42
0.025192
  0
VERTEX
  8
0
 10
471.187153
 20
488.448493
 42
-0.019387
  0
VERTEX
  8
0
 10
469.254383
 20
488.959355
 42
-0.065840
  0
VERTEX
  8
0
 10
468.071269
 20
489.500046
 42
-0.130973
  0
VERTEX
  8
0
 10
467.511106
 20
490.101125
 42
-0.217360
  0
VERTEX
  8
0
 10
467.469180
 20
490.780280
 42
0.027628
  0
VERTEX
  8
0
 10
467.672647
 20
491.412924
 42
0.017169
  0
VERTEX
  8
0
 10
467.844072
 20
492.173832
 42
0.017212
  0
VERTEX
  8
0
 10
467.961874
 20
492.938598
 42
0.029612
  0
VERTEX
  8
0
 10
468.000000
 20
493.581787
 42
-0.191412
  0
VERTEX
  8
0
 10
468.393681
 20
494.572469
 42
-0.252099
  0
VERTEX
  8
0
 10
469.300694
 20
494.873435
 42
-0.082918
  0
VERTEX
  8
0
 10
471.005563
 20
494.272327
 42
-0.014667
  0
SEQEND
  0
POLYLINE
  8
0
 66
1
 70
1
  0
VERTEX
  8
0
 10
349.000000
 20
490.950340
 42
-0.069444
  0
VERTEX
  8
0
 10
348.558808
 20
487.789076
 42
-0.060838
  0
VERTEX
  8
0
 10
347.262429
 20
484.713070
 42
-0.060286
  0
VERTEX
  8
0
 10
345.249225
 20
482.013707
 42
-0.065596
  0
VERTEX
  8
0
 10
342.701451
 20
479.959516
 42
-0.045260
  0
VERTEX
  8
0
 10
339.884292
 20
478.573953
 42
-0.087738
  0
VERTEX
  8
0
 10
337.428791
 20
478.097623
 42
-0.100335
  0
VERTEX
  8
0
 10
335.181914
 20
478.514439
 42
-0.074445
  0
VERTEX
  8
0
 10
333.000292
 20
479.798680
 42
0.000000
  0
VERTEX
  8
0
 10
330.779017
 20
481.597360
 42
0.000000
  0
VERTEX
  8
0
 10
334.523546
 20
481.703502
 42
0.072481
  0
VERTEX
  8
0
 10
337.905307
 20
482.294621
 42
0.079103
  0
VERTEX
  8
0
 10
340.867932
 20
483.820593
 42
0.072718
  0
VERTEX
  8
0
 10
343.396952
 20
486.315917
 42
0.049777
  0
VERTEX
  8
0
 10
345.500000
 20
489.765770
 42
-0.014508
  0
VERTEX
  8
0
 10
347.138373
 20
492.936023
 42
-0.186737
  0
VERTEX
  8
0
 10
348.143789
 20
493.775285
 42
-0.467814
  0
VERTEX
  8
0
 10
348.822720
 20
493.360157
 42
-0.036733
  0
SEQEND
  0
POLYLINE
  8
0
 66
1
 70
1
  0
VERTEX
  8
0
 10
357.702393
 20
490.803833
 42
-0.013480
  0
VERTEX
  8
0
 10
360.248967
 20
488.198843
 42
-0.162376
  0
VERTEX
  8
0
 10
360.819704
 20
486.938311
 42
-0.385794
  0
VERTEX
  8
0
 10
360.285509
 20
486.210526
 42
-0.050346
  0
VERTEX
  8
0
 10
358.200000
 20
486.000000
 42
0.033777
  0
VERTEX
  8
0
 10
357.050768
 20
485.922276
 42
0.032974
  0
VERTEX
  8
0
 10
355.912972
 20
485.690472
 42
0.034800
  0
VERTEX
  8
0
 10
354.944263
 20
485.351641
 42
0.095123
  0
VERTEX
  8
0
 10
354.346289
 20
484.946289
 42
-0.341152
  0
VERTEX
  8
0
 10
353.901155
 20
484.889064
 42
-0.204685
  0
VERTEX
  8
0
 10
353.567184
 20
485.340142
 42
-0.052604
  0
VERTEX
  8
0
 10
353.399465
 20
486.639013
 42
-0.010963
  0
VERTEX
  8
0
 10
353.396289
 20
488.940125
 42
-0.008399
  0
VERTEX
  8
0
 10
353.468606
 20
490.875853
 42
-0.013866
  0
VERTEX
  8
0
 10
353.602425
 20
492.506766
 42
-0.007476
  0
VERTEX
  8
0
 10
353.768287
 20
493.831560
 42
-0.370042
  0
VERTEX
  8
0
 10
353.952393
 20
493.993836
 42
-0.176291
  0
VERTEX
  8
0
 10
354.238626
 20
493.894073
 42
-0.005129
  0
VERTEX
  8
0
 10
355.240567
 20
493.059315
 42
-0.009738
  0
VERTEX
  8
0
 10
356.405941
 20
492.028187
 42
-0.006487
  0
SEQEND
  0
POLYLINE
  8
0
 66
1
 70
1
  0
VERTEX
  8
0
 10
449.500000
 20
489.765770
 42
0.051120
  0
VERTEX
  8
0
 10
451.610797
 20
486.323982
 42
0.069401
  0
VERTEX
  8
0
 10
454.199067
 20
483.763830
 42
0.076034
  0
VERTEX
  8
0
 10
457.185212
 20
482.172662
 42
0.079212
  0
VERTEX
  8
0
 10
460.468292
 20
481.576225
 42
-0.016260
  0
VERTEX
  8
0
 10
463.156483
 20
481.430566
 42
-0.281367
  0
VERTEX
  8
0
 10
463.834561
 20
480.930749
 42
-0.377690
  0
VERTEX
  8
0
 10
463.597838
 20
480.251206
 42
-0.021455
  0
VERTEX
  8
0
 10
461.452947
 20
479.160515
 42
-0.042913
  0
VERTEX
  8
0
 10
458.984360
 20
478.282414
 42
-0.085970
  0
VERTEX
  8
0
 10
456.927930
 20
478.108315
 42
-0.080841
  0
VERTEX
  8
0
 10
454.851102
 20
478.635057
 42
-0.034470
  0
VERTEX
  8
0
 10
452.298549
 20
479.959516
 42
-0.065596
  0
VERTEX
  8
0
 10
449.750775
 20
482.013707
 42
-0.060286
  0
VERTEX
  8
0
 10
447.737571
 20
484.713070
 42
-0.060838
  0
VERTEX
  8
0
 10
446.441192
 20
487.789076
 42
-0.069444
  0
VERTEX
  8
0
 10
446.000000
 20
490.950340
 42
-0.036733
  0
VERTEX
  8
0
 10
446.177280
 20
493.360157
 42
-0.467814
  0
VERTEX
  8
0
 10
446.856211
 20
493.775285
 42
-0.186737
  0
VERTEX
  8
0
 10
447.861627
 20
492.936023
 42
-0.014508
  0
SEQEND
  0
POLYLINE
  8
0
 66
1
 70
1
  0
VERTEX
  8
0
 10
326.203177
 20
475.234392
 42
-0.171971
  0
VERTEX
  8
0
 10
325.026679
 20
475.256584
 42
-0.014963
  0
VERTEX
  8
0
 10
322.215383
 20
476.410191
 42
-0.012238
  0
VERTEX
  8
0
 10
319.439951
 20
477.729689
 42
-0.282832
  0
VERTEX
  8
0
 10
319.000000
 20
478.445235
 42
-0.492058
  0
VERTEX
  8
0
 10
319.135234
 20
478.549380
 42
-0.007731
  0
VERTEX
  8
0
 10
320.214770
 20
478.246234
 42
-0.013520
  0
VERTEX
  8
0
 10
321.549248
 20
477.809533
 42
-0.007749
  0
VERTEX
  8
0
 10
323.135386
 20
477.214684
 42
-0.015260
  0
VERTEX
  8
0
 10
324.650316
 20
476.565573
 42
-0.034485
  0
VERTEX
  8
0
 10
325.742397
 20
475.962897
 42
-0.070644
  0
VERTEX
  8
0
 10
326.275874
 20
475.500387
 42
-0.534842
  0
SEQEND
  0
POLYLINE
  8
0
 66
1
 70
1
  0
VERTEX
  8
0
 10
349.000000
 20
477.525680
 42
-0.284790
  0
VERTEX
  8
0
 10
348.442745
 20
476.626669
 42
-0.020086
  0
VERTEX
  8
0
 10
345.623291
 20
475.364704
 42
-0.027414
  0
VERTEX
  8
0
 10
342.581224
 20
474.336745
 42
-0.071795
  0
VERTEX
  8
0
 10
340.299660
 20
474.043770
 42
-0.034200
  0
VERTEX
  8
0
 10
339.069315
 20
474.147370
 42
-0.643005
  0
VERTEX
  8
0
 10
338.990149
 20
474.427383
 42
-0.084358
  0
VERTEX
  8
0
 10
339.763085
 20
474.885602
 42
-0.004317
  0
VERTEX
  8
0
 10
342.500000
 20
475.910094
 42
-0.002614
  0
VERTEX
  8
0
 10
346.234403
 20
477.249250
 42
-0.023873
  0
VERTEX
  8
0
 10
347.888042
 20
477.745151
 42
-0.074151
  0
VERTEX
  8
0
 10
348.716390
 20
477.824570
 42
-0.398934
  0
SEQEND
  0
POLYLINE
  8
0
 66
1
 70
1
  0
VERTEX
  8
0
 10
331.250000
 20
474.337719
 42
-0.057986
  0
VERTEX
  8
0
 10
330.679992
 20
474.181385
 42
-0.037979
  0
VERTEX
  8
0
 10
330.000000
 20
474.129660
 42
-0.037979
  0
VERTEX
  8
0
 10
329.320008
 20
474.181385
 42
-0.057986
  0
VERTEX
  8
0
 10
328.750000
 20
474.337719
 42
-0.174857
  0
VERTEX
  8
0
 10
328.540618
 20
474.525001
 42
-0.447206
  0
VERTEX
  8
0
 10
328.601562
 20
474.693942
 42
-0.078554
  0
VERTEX
  8
0
 10
329.108560
 20
474.810911
 42
-0.017491
  0
VERTEX
  8
0
 10
330.000000
 20
474.842105
 42
-0.017491
  0
VERTEX
  8
0
 10
330.891440
 20
474.810911
 42
-0.078554
  0
VERTEX
  8
0
 10
331.398438
 20
474.693942
 42
-0.447206
  0
VERTEX
  8
0
 10
331.459382
 20
474.525001
 42
-0.174857
  0
SEQEND
  0
POLYLINE
  8
0
 66
1
 70
1
  0
VERTEX
  8
0
 10
465.118409
 20
469.915686
 42
-0.045582
  0
VERTEX
  8
0
 10
466.680087
 20
468.573715
 42
-0.008031
  0
VERTEX
  8
0
 10
469.329394
 20
465.751218
 42
-0.008643
  0
VERTEX
  8
0
 10
472.334616
 20
462.327599
 42
-0.007677
  0
VERTEX
  8
0
 10
475.343213
 20
458.665686
 42
0.007758
  0
VERTEX
  8
0
 10
482.362199
 20
450.125353
 42
0.012406
  0
VERTEX
  8
0
 10
488.645760
 20
443.079289
 42
0.012547
  0
VERTEX
  8
0
 10
493.905863
 20
437.742473
 42
0.072702
  0
VERTEX
  8
0
 10
497.111376
 20
435.442405
 42
0.067469
  0
VERTEX
  8
0
 10
500.156764
 20
434.356512
 42
0.063104
  0
VERTEX
  8
0
 10
503.452885
 20
434.086484
 42
0.062451
  0
VERTEX
  8
0
 10
506.743977
 20
434.648171
 42
0.063521
  0
VERTEX
  8
0
 10
509.774170
 20
436.003738
 42
-0.007296
  0
VERTEX
  8
0
 10
512.586120
 20
437.662393
 42
-0.140569
  0
VERTEX
  8
0
 10
513.561371
 20
437.900051
 42
-0.606015
  0
VERTEX
  8
0
 10
513.744910
 20
437.511055
 42
-0.021693
  0
VERTEX
  8
0
 10
512.407348
 20
435.897621
 42
-0.051591
  0
VERTEX
  8
0
 10
510.148343
 20
433.867268
 42
-0.049652
  0
VERTEX
  8
0
 10
507.493460
 20
432.312334
 42
-0.050449
  0
VERTEX
  8
0
 10
504.627920
 20
431.331470
 42
-0.057308
  0
VERTEX
  8
0
 10
501.745441
 20
431.000000
 42
-0.137333
  0
VERTEX
  8
0
 10
496.111901
 20
432.577083
 42
-0.043258
  0
VERTEX
  8
0
 10
488.990110
 20
437.795663
 42
-0.032903
  0
VERTEX
  8
0
 10
480.559313
 20
446.213360
 42
-0.015115
  0
VERTEX
  8
0
 10
470.669980
 20
458.191514
 42
0.011640
  0
VERTEX
  8
0
 10
467.833738
 20
461.675862
 42
0.012311
  0
VERTEX
  8
0
 10
464.889414
 20
464.958534
 42
0.011997
  0
VERTEX
  8
0
 10
462.220424
 20
467.657957
 42
0.053425
  0
VERTEX
  8
0
 10
460.462666
 20
469.023074
 42
-0.008172
  0
VERTEX
  8
0
 10
459.135613
 20
469.873518
 42
-0.012522
  0
VERTEX
  8
0
 10
458.017158
 20
470.657398
 42
-0.007012
  0
VERTEX
  8
0
 10
457.116299
 20
471.342757
 42
-0.230561
  0
VERTEX
  8
0
 10
457.000000
 20
471.581559
 42
-0.427744
  0
VERTEX
  8
0
 10
457.649971
 20
472.202314
 42
-0.039123
  0
VERTEX
  8
0
 10
460.119497
 20
471.894058
 42
-0.039547
  0
VERTEX
  8
0
 10
462.931775
 20
471.080986
 42
-0.064660
  0
SEQEND
  0
POLYLINE
  8
0
 66
1
 70
1
  0
VERTEX
  8
0
 10
352.000000
 20
469.580367
 42
-0.297558
  0
VERTEX
  8
0
 10
351.859600
 20
469.365336
 42
-0.005146
  0
VERTEX
  8
0
 10
350.511815
 20
468.789705
 42
-0.011183
  0
VERTEX
  8
0
 10
348.875921
 20
468.153346
 42
-0.006985
  0
VERTEX
  8
0
 10
346.933837
 20
467.478024
 42
0.058420
  0
VERTEX
  8
0
 10
342.958443
 20
465.619144
 42
0.047169
  0
VERTEX
  8
0
 10
339.198968
 20
462.770853
 42
0.031734
  0
VERTEX
  8
0
 10
334.897271
 20
458.287429
 42
0.009739
  0
VERTEX
  8
0
 10
328.982576
 20
451.000000
 42
-0.016875
  0
VERTEX
  8
0
 10
322.486870
 20
443.226108
 42
-0.019496
  0
VERTEX
  8
0
 10
315.774964
 20
436.287562
 42
-0.019913
  0
VERTEX
  8
0
 10
309.645173
 20
430.876609
 42
-0.079809
  0
VERTEX
  8
0
 10
305.327503
 20
428.380973
 42
-0.066855
  0
VERTEX
  8
0
 10
301.405532
 20
427.457299
 42
-0.077969
  0
VERTEX
  8
0
 10
297.587628
 20
427.678357
 42
-0.079194
  0
VERTEX
  8
0
 10
294.068084
 20
429.049602
 42
-0.071882
  0
VERTEX
  8
0
 10
291.015800
 20
431.483182
 42
-0.022130
  0
VERTEX
  8
0
 10
289.514493
 20
433.230068
 42
-0.412077
  0
VERTEX
  8
0
 10
289.590911
 20
433.885527
 42
-0.321077
  0
VERTEX
  8
0
 10
290.357252
 20
433.925125
 42
-0.019674
  0
VERTEX
  8
0
 10
292.342233
 20
432.540512
 42
0.084835
  0
VERTEX
  8
0
 10
294.998780
 20
431.160338
 42
0.053442
  0
VERTEX
  8
0
 10
298.431654
 20
430.453347
 42
0.053795
  0
VERTEX
  8
0
 10
301.900469
 20
430.492066
 42
0.091744
  0
VERTEX
  8
0
 10
304.659313
 20
431.350387
 42
0.065036
  0
VERTEX
  8
0
 10
307.976049
 20
433.690743
 42
0.015099
  0
VERTEX
  8
0
 10
312.863553
 20
438.473545
 42
0.012551
  0
VERTEX
  8
0
 10
319.069791
 20
445.257846
 42
0.005582
  0
VERTEX
  8
0
 10
326.922027
 20
454.492613
 42
-0.012861
  0
VERTEX
  8
0
 10
333.842165
 20
462.395146
 42
-0.046537
  0
VERTEX
  8
0
 10
338.806355
 20
466.863236
 42
-0.073913
  0
VERTEX
  8
0
 10
343.145434
 20
469.190403
 42
-0.086092
  0
VERTEX
  8
0
 10
347.750000
 20
469.994877
 42
-0.009263
  0
VERTEX
  8
0
 10
349.379519
 20
469.966651
 42
-0.015346
  0
VERTEX
  8
0
 10
350.751562
 20
469.875228
 42
-0.009088
  0
VERTEX
  8
0
 10
351.853861
 20
469.747456
 42
-0.375610
  0
SEQEND
  0
POLYLINE
  8
0
 66
1
 70
1
  0
VERTEX
  8
0
 10
419.200779
 20
468.922399
 42
-0.065988
  0
VERTEX
  8
0
 10
430.609747
 20
464.983910
 42
-0.037319
  0
VERTEX
  8
0
 10
443.185750
 20
457.466147
 42
-0.035354
  0
VERTEX
  8
0
 10
455.426053
 20
447.485173
 42
-0.037476
  0
VERTEX
  8
0
 10
465.882648
 20
436.059193
 42
-0.025904
  0
VERTEX
  8
0
 10
469.860510
 20
430.420902
 42
-0.032286
  0
VERTEX
  8
0
 10
472.922593
 20
424.789949
 42
-0.021561
  0
VERTEX
  8
0
 10
476.028823
 20
417.241817
 42
-0.005220
  0
VERTEX
  8
0
 10
480.490898
 20
404.500000
 42
0.004345
  0
VERTEX
  8
0
 10
484.714091
 20
392.372353
 42
0.018658
  0
VERTEX
  8
0
 10
487.558418
 20
385.273720
 42
0.030264
  0
VERTEX
  8
0
 10
490.145121
 20
380.291995
 42
0.034393
  0
VERTEX
  8
0
 10
493.218033
 20
375.878312
 42
0.000000
  0
VERTEX
  8
0
 10
496.160913
 20
372.216291
 42
0.000000
  0
VERTEX
  8
0
 10
493.391885
 20
366.358146
 42
-0.029416
  0
VERTEX
  8
0
 10
491.967644
 20
363.753378
 42
-0.016402
  0
VERTEX
  8
0
 10
489.949464
 20
360.752080
 42
-0.016316
  0
VERTEX
  8
0
 10
487.701596
 20
357.840232
 42
-0.025370
  0
VERTEX
  8
0
 10
485.561428
 20
355.500000
 42
-0.022771
  0
VERTEX
  8
0
 10
482.447319
 20
352.691978
 42
-0.046573
  0
VERTEX
  8
0
 10
479.726214
 20
350.849694
 42
-0.038203
  0
VERTEX
  8
0
 10
476.381501
 20
349.333115
 42
-0.011005
  0
VERTEX
  8
0
 10
471.000000
 20
347.505906
 42
-0.011534
  0
VERTEX
  8
0
 10
467.069525
 20
346.366116
 42
-0.011758
  0
VERTEX
  8
0
 10
463.115625
 20
345.416678
 42
-0.011592
  0
VERTEX
  8
0
 10
459.646076
 20
344.753129
 42
-0.046874
  0
VERTEX
  8
0
 10
457.500000
 20
344.598115
 42
-0.088512
  0
VERTEX
  8
0
 10
451.832914
 20
345.735900
 42
-0.064238
  0
VERTEX
  8
0
 10
446.183541
 20
348.844212
 42
-0.061593
  0
VERTEX
  8
0
 10
441.279497
 20
353.452640
 42
-0.066796
  0
VERTEX
  8
0
 10
437.801284
 20
359.000000
 42
0.009036
  0
VERTEX
  8
0
 10
431.464322
 20
372.297440
 42
0.063122
  0
VERTEX
  8
0
 10
427.476870
 20
378.267455
 42
0.097245
  0
VERTEX
  8
0
 10
422.836603
 20
381.883493
 42
0.035619
  0
VERTEX
  8
0
 10
415.130953
 20
385.113153
 42
-0.021101
  0
VERTEX
  8
0
 10
411.689727
 20
386.439475
 42
-0.049905
  0
VERTEX
  8
0
 10
409.294191
 20
387.778803
 42
-0.050717
  0
VERTEX
  8
0
 10
407.234345
 20
389.552422
 42
-0.022425
  0
VERTEX
  8
0
 10
404.880953
 20
392.269821
 42
-0.016401
  0
VERTEX
  8
0
 10
402.961662
 20
394.868753
 42
-0.043695
  0
VERTEX
  8
0
 10
401.825165
 20
396.872406
 42
-0.060545
  0
VERTEX
  8
0
 10
401.273151
 20
398.609518
 42
-0.071720
  0
VERTEX
  8
0
 10
401.198224
 20
400.329001
 42
-0.058282
  0
VERTEX
  8
0
 10
401.576412
 20
402.051903
 42
-0.142802
  0
VERTEX
  8
0
 10
402.319199
 20
403.100766
 42
-0.086961
  0
VERTEX
  8
0
 10
403.758605
 20
403.882317
 42
-0.013418
  0
VERTEX
  8
0
 10
406.878195
 20
404.837438
 42
0.028753
  0
VERTEX
  8
0
 10
409.955501
 20
405.883800
 42
0.062871
  0
VERTEX
  8
0
 10
412.124025
 20
407.099143
 42
0.052436
  0
VERTEX
  8
0
 10
414.151613
 20
408.954915
 42
0.015076
  0
VERTEX
  8
0
 10
416.878195
 20
412.227161
 42
0.037331
  0
VERTEX
  8
0
 10
424.079737
 20
422.984981
 42
0.055541
  0
VERTEX
  8
0
 10
428.533135
 20
433.392840
 42
0.070560
  0
VERTEX
  8
0
 10
429.882573
 20
442.175239
 42
0.188450
  0
VERTEX
  8
0
 10
427.683753
 20
448.000000
 42
0.032083
  0
VERTEX
  8
0
 10
422.116534
 20
453.432641
 42
0.028456
  0
VERTEX
  8
0
 10
415.680904
 20
458.346627
 42
0.027781
  0
VERTEX
  8
0
 10
409.581347
 20
462.000217
 42
0.121627
  0
VERTEX
  8
0
 10
405.532119
 20
463.000000
 42
0.123946
  0
VERTEX
  8
0
 10
404.326129
 20
462.696381
 42
0.409045
  0
VERTEX
  8
0
 10
404.106397
 20
461.988478
 42
0.149138
  0
VERTEX
  8
0
 10
405.049631
 20
461.019011
 42
0.041922
  0
VERTEX
  8
0
 10
407.000000
 20
460.149845
 42
-0.012727
  0
VERTEX
  8
0
 10
408.149699
 20
459.715939
 42
-0.019549
  0
VERTEX
  8
0
 10
409.118750
 20
459.276866
 42
-0.014674
  0
VERTEX
  8
0
 10
409.869348
 20
458.872774
 42
-0.268054
  0
VERTEX
  8
0
 10
410.000000
 20
458.646580
 42
-0.412853
  0
VERTEX
  8
0
 10
409.827899
 20
458.473677
 42
-0.003389
  0
VERTEX
  8
0
 10
407.723437
 20
458.478160
 42
-0.009222
  0
VERTEX
  8
0
 10
405.221763
 20
458.546604
 42
-0.005509
  0
VERTEX
  8
0
 10
402.250000
 20
458.715623
 42
0.015014
  0
VERTEX
  8
0
 10
398.964628
 20
458.839887
 42
0.014068
  0
VERTEX
  8
0
 10
395.605422
 20
458.771503
 42
0.014408
  0
VERTEX
  8
0
 10
392.608712
 20
458.539390
 42
0.041141
  0
VERTEX
  8
0
 10
390.556229
 20
458.148167
 42
-0.008437
  0
VERTEX
  8
0
 10
387.222263
 20
457.283669
 42
-0.247914
  0
VERTEX
  8
0
 10
386.399533
 20
457.493037
 42
-0.489840
  0
VERTEX
  8
0
 10
386.442485
 20
458.061631
 42
-0.012716
  0
VERTEX
  8
0
 10
388.930767
 20
459.618174
 42
0.017649
  0
VERTEX
  8
0
 10
390.106368
 20
460.369805
 42
0.024549
  0
VERTEX
  8
0
 10
391.098413
 20
461.129050
 42
0.022632
  0
VERTEX
  8
0
 10
391.834281
 20
461.811274
 42
0.196978
  0
VERTEX
  8
0
 10
392.000000
 20
462.215608
 42
0.369004
  0
VERTEX
  8
0
 10
391.431930
 20
462.880532
 42
0.119412
  0
VERTEX
  8
0
 10
390.036820
 20
462.767396
 42
0.050913
  0
VERTEX
  8
0
 10
387.713972
 20
461.729090
 42
0.016683
  0
VERTEX
  8
0
 10
384.525159
 20
459.750000
 42
-0.000189
  0
VERTEX
  8
0
 10
382.369865
 20
458.311774
 42
-0.000127
  0
VERTEX
  8
0
 10
379.911171
 20
456.673335
 42
-0.000128
  0
VERTEX
  8
0
 10
377.533760
 20
455.090818
 42
-0.000256
  0
VERTEX
  8
0
 10
375.651639
 20
453.840077
 42
0.077037
  0
VERTEX
  8
0
 10
371.213939
 20
449.789811
 42
0.101412
  0
VERTEX
  8
0
 10
368.713076
 20
444.928188
 42
0.093300
  0
VERTEX
  8
0
 10
368.210296
 20
439.157914
 42
0.056366
  0
VERTEX
  8
0
 10
369.657091
 20
432.428139
 42
0.056824
  0
VERTEX
  8
0
 10
373.297500
 20
424.653120
 42
0.037907
  0
VERTEX
  8
0
 10
379.074278
 20
416.683428
 42
0.038100
  0
VERTEX
  8
0
 10
385.929017
 20
409.742448
 42
0.061011
  0
VERTEX
  8
0
 10
392.823374
 20
405.090108
 42
-0.012259
  0
VERTEX
  8
0
 10
394.428986
 20
404.220737
 42
-0.017883
  0
VERTEX
  8
0
 10
395.794945
 20
403.370919
 42
-0.013525
  0
VERTEX
  8
0
 10
396.858650
 20
402.612574
 42
-0.208680
  0
VERTEX
  8
0
 10
397.074310
 20
402.229676
 42
0.013272
  0
VERTEX
  8
0
 10
397.128733
 20
401.806926
 42
0.002226
  0
VERTEX
  8
0
 10
397.258106
 20
401.000254
 42
0.002436
  0
VERTEX
  8
0
 10
397.419054
 20
400.053262
 42
0.002160
  0
VERTEX
  8
0
 10
397.595649
 20
399.069061
 42
-0.173137
  0
VERTEX
  8
0
 10
397.304263
 20
397.275042
 42
-0.046226
  0
VERTEX
  8
0
 10
395.654093
 20
394.843615
 42
-0.023444
  0
VERTEX
  8
0
 10
392.353747
 20
391.196607
 42
-0.003942
  0
VERTEX
  8
0
 10
385.660847
 20
384.569061
 42
0.006785
  0
VERTEX
  8
0
 10
377.451780
 20
376.347215
 42
0.047432
  0
VERTEX
  8
0
 10
373.905789
 20
371.928485
 42
0.059090
  0
VERTEX
  8
0
 10
371.591933
 20
367.298146
 42
0.013713
  0
VERTEX
  8
0
 10
368.866493
 20
359.017121
 42
-0.073950
  0
VERTEX
  8
0
 10
365.760896
 20
352.388775
 42
-0.072289
  0
VERTEX
  8
0
 10
360.841124
 20
346.892601
 42
-0.076195
  0
VERTEX
  8
0
 10
354.828333
 20
343.253470
 42
-0.099674
  0
VERTEX
  8
0
 10
348.538110
 20
342.021092
 42
-0.092370
  0
VERTEX
  8
0
 10
338.387306
 20
343.967401
 42
-0.038380
  0
VERTEX
  8
0
 10
325.769906
 20
350.068199
 42
-0.036505
  0
VERTEX
  8
0
 10
314.684493
 20
357.653416
 42
-0.164417
  0
VERTEX
  8
0
 10
310.495179
 20
364.163184
 42
-0.100221
  0
VERTEX
  8
0
 10
310.282357
 20
368.773474
 42
-0.005923
  0
VERTEX
  8
0
 10
312.599034
 20
382.644350
 42
-0.009666
  0
VERTEX
  8
0
 10
315.356546
 20
396.484325
 42
-0.027152
  0
VERTEX
  8
0
 10
317.993066
 20
406.000000
 42
-0.018615
  0
VERTEX
  8
0
 10
320.921090
 20
413.736490
 42
-0.028082
  0
VERTEX
  8
0
 10
324.088511
 20
420.207679
 42
-0.028986
  0
VERTEX
  8
0
 10
327.879690
 20
426.131701
 42
-0.021744
  0
VERTEX
  8
0
 10
332.693284
 20
432.198440
 42
-0.040276
  0
VERTEX
  8
0
 10
345.559968
 20
444.827498
 42
-0.035470
  0
VERTEX
  8
0
 10
360.820548
 20
455.829863
 42
-0.036567
  0
VERTEX
  8
0
 10
376.869894
 20
464.198521
 42
-0.053503
  0
VERTEX
  8
0
 10
392.075186
 20
468.912737
 42
-0.034430
  0
VERTEX
  8
0
 10
397.825822
 20
469.634766
 42
-0.013929
  0
VERTEX
  8
0
 10
405.730690
 20
469.857847
 42
-0.013867
  0
VERTEX
  8
0
 10
413.600917
 20
469.642336
 42
-0.036393
  0
SEQEND
  0
POLYLINE
  8
0
 66
1
 70
1
  0
VERTEX
  8
0
 10
412.081912
 20
448.283663
 42
-0.030386
  0
VERTEX
  8
0
 10
415.081704
 20
446.729410
 42
-0.046120
  0
VERTEX
  8
0
 10
417.451812
 20
444.997823
 42
-0.062429
  0
VERTEX
  8
0
 10
418.836086
 20
443.428920
 42
-0.360407
  0
VERTEX
  8
0
 10
418.740172
 20
442.406839
 42
-0.212788
  0
VERTEX
  8
0
 10
418.268438
 20
442.225997
 42
-0.005415
  0
VERTEX
  8
0
 10
415.937903
 20
442.375536
 42
-0.010630
  0
VERTEX
  8
0
 10
413.159067
 20
442.643598
 42
-0.006941
  0
VERTEX
  8
0
 10
409.965611
 20
443.065356
 42
0.025287
  0
VERTEX
  8
0
 10
403.077524
 20
443.719111
 42
0.021903
  0
VERTEX
  8
0
 10
395.818162
 20
443.721042
 42
0.022459
  0
VERTEX
  8
0
 10
388.832436
 20
443.101585
 42
0.032850
  0
VERTEX
  8
0
 10
382.782142
 20
441.881239
 42
-0.018597
  0
VERTEX
  8
0
 10
380.918074
 20
441.449660
 42
-0.025817
  0
VERTEX
  8
0
 10
379.220400
 20
441.212665
 42
-0.024360
  0
VERTEX
  8
0
 10
377.847546
 20
441.159962
 42
-0.198948
  0
VERTEX
  8
0
 10
377.282142
 20
441.401084
 42
-0.412308
  0
VERTEX
  8
0
 10
377.291850
 20
442.745952
 42
-0.026017
  0
VERTEX
  8
0
 10
380.542684
 20
445.651747
 42
-0.032026
  0
VERTEX
  8
0
 10
384.447835
 20
448.400706
 42
-0.068359
  0
VERTEX
  8
0
 10
387.821159
 20
449.878194
 42
-0.061699
  0
VERTEX
  8
0
 10
392.931304
 20
450.666602
 42
-0.023871
  0
VERTEX
  8
0
 10
400.108979
 20
450.538120
 42
-0.023796
  0
VERTEX
  8
0
 10
407.219172
 20
449.729693
 42
-0.064210
  0
SEQEND
  0
POLYLINE
  8
0
 66
1
 70
1
  0
VERTEX
  8
0
 10
416.872445
 20
418.250000
 42
-0.043282
  0
VERTEX
  8
0
 10
415.378999
 20
416.651952
 42
-0.047162
  0
VERTEX
  8
0
 10
413.672489
 20
415.385470
 42
-0.030697
  0
VERTEX
  8
0
 10
411.217295
 20
414.098434
 42
-0.007652
  0
VERTEX
  8
0
 10
407.052123
 20
412.307167
 42
-0.011605
  0
VERTEX
  8
0
 10
401.487283
 20
410.163901
 42
-0.776256
  0
VERTEX
  8
0
 10
401.132691
 20
410.687771
 42
-0.081743
  0
VERTEX
  8
0
 10
403.302326
 20
412.451332
 42
-0.004463
  0
VERTEX
  8
0
 10
411.000000
 20
416.761866
 42
-0.005198
  0
VERTEX
  8
0
 10
415.267104
 20
419.044199
 42
-0.058208
  0
VERTEX
  8
0
 10
417.062877
 20
419.729313
 42
-0.573524
  0
VERTEX
  8
0
 10
417.427877
 20
419.358525
 42
-0.100625
  0
SEQEND
  0
POLYLINE
  8
0
 66
1
 70
1
  0
VERTEX
  8
0
 10
413.297157
 20
376.633048
 42
-0.054978
  0
VERTEX
  8
0
 10
418.024206
 20
373.063617
 42
-0.010672
  0
VERTEX
  8
0
 10
425.653883
 20
365.546744
 42
-0.011984
  0
VERTEX
  8
0
 10
433.180916
 20
357.426980
 42
-0.028751
  0
VERTEX
  8
0
 10
438.250000
 20
350.976894
 42
-0.016954
  0
VERTEX
  8
0
 10
440.297591
 20
347.815107
 42
-0.053949
  0
VERTEX
  8
0
 10
441.352318
 20
345.533373
 42
-0.058630
  0
VERTEX
  8
0
 10
441.848554
 20
343.182987
 42
-0.022741
  0
VERTEX
  8
0
 10
442.000000
 20
339.854895
 42
-0.093478
  0
VERTEX
  8
0
 10
439.569797
 20
326.969721
 42
-0.087773
  0
VERTEX
  8
0
 10
432.590310
 20
315.532732
 42
-0.088918
  0
VERTEX
  8
0
 10
422.204838
 20
307.297974
 42
-0.099421
  0
VERTEX
  8
0
 10
410.000000
 20
303.591419
 42
-0.000661
  0
VERTEX
  8
0
 10
406.486631
 20
303.255466
 42
-0.086143
  0
VERTEX
  8
0
 10
406.054775
 20
303.289155
 42
-0.788638
  0
VERTEX
  8
0
 10
406.056220
 20
303.389036
 42
-0.001553
  0
VERTEX
  8
0
 10
408.593288
 20
303.950183
 42
0.026474
  0
VERTEX
  8
0
 10
413.302350
 20
305.240805
 42
0.038555
  0
VERTEX
  8
0
 10
417.269802
 20
306.906589
 42
0.038969
  0
VERTEX
  8
0
 10
420.903357
 20
309.146764
 42
0.027858
  0
VERTEX
  8
0
 10
424.600350
 20
312.173742
 42
0.053639
  0
VERTEX
  8
0
 10
428.389468
 20
316.477955
 42
0.034068
  0
VERTEX
  8
0
 10
431.864014
 20
322.189159
 42
0.033440
  0
VERTEX
  8
0
 10
434.348899
 20
327.881636
 42
0.115510
  0
VERTEX
  8
0
 10
434.806514
 20
331.852682
 42
0.059351
  0
VERTEX
  8
0
 10
434.527038
 20
333.026016
 42
0.545075
  0
VERTEX
  8
0
 10
434.106698
 20
333.120141
 42
0.082951
  0
VERTEX
  8
0
 10
433.441917
 20
332.203490
 42
0.004397
  0
VERTEX
  8
0
 10
431.856028
 20
328.946599
 42
-0.027096
  0
VERTEX
  8
0
 10
430.481026
 20
326.420816
 42
-0.013708
  0
VERTEX
  8
0
 10
428.494735
 20
323.389848
 42
-0.013574
  0
VERTEX
  8
0
 10
426.266815
 20
320.364009
 42
-0.019664
  0
VERTEX
  8
0
 10
424.126139
 20
317.828394
 42
-0.071413
  0
VERTEX
  8
0
 10
416.315334
 20
311.411390
 42
-0.090111
  0
VERTEX
  8
0
 10
407.594549
 20
308.074732
 42
-0.079623
  0
VERTEX
  8
0
 10
397.420542
 20
307.802231
 42
-0.043785
  0
VERTEX
  8
0
 10
385.235138
 20
310.522618
 42
0.188858
  0
VERTEX
  8
0
 10
383.851273
 20
310.430931
 42
0.438440
  0
VERTEX
  8
0
 10
383.573410
 20
309.548085
 42
0.096610
  0
VERTEX
  8
0
 10
385.152877
 20
307.725660
 42
0.040649
  0
VERTEX
  8
0
 10
387.871800
 20
305.933334
 42
0.000000
  0
VERTEX
  8
0
 10
391.500000
 20
303.943862
 42
0.000000
  0
VERTEX
  8
0
 10
388.000000
 20
304.591894
 42
-0.046812
  0
VERTEX
  8
0
 10
383.375389
 20
305.904888
 42
-0.022263
  0
VERTEX
  8
0
 10
377.705907
 20
308.400831
 42
-0.021989
  0
VERTEX
  8
0
 10
372.025787
 20
311.527536
 42
-0.031279
  0
VERTEX
  8
0
 10
367.303145
 20
314.826232
 42
-0.037792
  0
VERTEX
  8
0
 10
363.262295
 20
318.574050
 42
-0.042779
  0
VERTEX
  8
0
 10
360.012663
 20
322.744348
 42
-0.045703
  0
VERTEX
  8
0
 10
357.703508
 20
327.125123
 42
-0.058860
  0
VERTEX
  8
0
 10
356.463599
 20
331.500000
 42
0.000000
  0
VERTEX
  8
0
 10
355.823874
 20
335.500000
 42
0.000000
  0
VERTEX
  8
0
 10
360.661937
 20
335.174775
 42
0.106429
  0
VERTEX
  8
0
 10
366.879981
 20
336.082371
 42
0.117029
  0
VERTEX
  8
0
 10
371.931968
 20
339.464924
 42
0.081360
  0
VERTEX
  8
0
 10
376.185210
 20
345.880346
 42
0.029528
  0
VERTEX
  8
0
 10
380.085350
 20
356.116425
 42
-0.029198
  0
VERTEX
  8
0
 10
383.071388
 20
363.968973
 42
-0.050822
  0
VERTEX
  8
0
 10
386.551202
 20
370.000161
 42
-0.056143
  0
VERTEX
  8
0
 10
390.901640
 20
374.793118
 42
-0.045889
  0
VERTEX
  8
0
 10
396.500000
 20
378.873901
 42
-0.127211
  0
VERTEX
  8
0
 10
399.528123
 20
379.761398
 42
-0.041189
  0
VERTEX
  8
0
 10
404.229118
 20
379.524772
 42
-0.040856
  0
VERTEX
  8
0
 10
409.210203
 20
378.440729
 42
-0.060313
  0
SEQEND
  0
POLYLINE
  8
0
 66
1
 70
1
  0
VERTEX
  8
0
 10
501.989176
 20
369.750000
 42
-0.095540
  0
VERTEX
  8
0
 10
500.712970
 20
363.427008
 42
-0.013370
  0
VERTEX
  8
0
 10
495.293589
 20
351.173178
 42
-0.015908
  0
VERTEX
  8
0
 10
489.048471
 20
339.028085
 42
-0.048681
  0
VERTEX
  8
0
 10
483.794678
 20
331.414981
 42
-0.034313
  0
VERTEX
  8
0
 10
477.546166
 20
324.970170
 42
-0.074803
  0
VERTEX
  8
0
 10
471.812619
 20
321.189638
 42
-0.053895
  0
VERTEX
  8
0
 10
464.102093
 20
318.583699
 42
-0.011225
  0
VERTEX
  8
0
 10
450.070356
 20
315.800869
 42
0.000000
  0
VERTEX
  8
0
 10
442.640712
 20
314.500000
 42
0.000000
  0
VERTEX
  8
0
 10
439.849174
 20
309.000000
 42
-0.085972
  0
VERTEX
  8
0
 10
432.673322
 20
299.386078
 42
-0.071805
  0
VERTEX
  8
0
 10
422.252610
 20
292.029483
 42
-0.071982
  0
VERTEX
  8
0
 10
410.203647
 20
287.934257
 42
-0.087253
  0
VERTEX
  8
0
 10
398.286252
 20
287.816850
 42
-0.038735
  0
VERTEX
  8
0
 10
392.094291
 20
289.342918
 42
-0.031510
  0
VERTEX
  8
0
 10
385.752923
 20
291.891005
 42
-0.031421
  0
VERTEX
  8
0
 10
379.761006
 20
295.226091
 42
-0.037786
  0
VERTEX
  8
0
 10
374.614486
 20
299.108140
 42
-0.008274
  0
VERTEX
  8
0
 10
372.839907
 20
300.723079
 42
-0.013842
  0
VERTEX
  8
0
 10
371.409110
 20
302.145787
 42
-0.007487
  0
VERTEX
  8
0
 10
370.296618
 20
303.350605
 42
-0.398254
  0
VERTEX
  8
0
 10
370.304489
 20
303.637822
 42
-0.297883
  0
VERTEX
  8
0
 10
370.620647
 20
303.704011
 42
-0.009268
  0
VERTEX
  8
0
 10
371.904240
 20
303.174597
 42
-0.015320
  0
VERTEX
  8
0
 10
373.445782
 20
302.448183
 42
-0.009665
  0
VERTEX
  8
0
 10
375.200866
 20
301.511298
 42
0.060920
  0
VERTEX
  8
0
 10
384.161962
 20
297.849043
 42
0.036144
  0
VERTEX
  8
0
 10
395.500958
 20
295.620965
 42
0.036098
  0
VERTEX
  8
0
 10
407.076074
 20
295.046311
 42
0.059474
  0
VERTEX
  8
0
 10
416.763994
 20
296.425048
 42
0.055283
  0
VERTEX
  8
0
 10
425.236978
 20
299.717517
 42
0.068748
  0
VERTEX
  8
0
 10
432.117520
 20
304.612590
 42
0.071442
  0
VERTEX
  8
0
 10
437.217869
 20
311.017219
 42
0.066597
  0
VERTEX
  8
0
 10
440.458778
 20
318.750000
 42
-0.009263
  0
VERTEX
  8
0
 10
441.581846
 20
322.620558
 42
-0.050746
  0
VERTEX
  8
0
 10
442.433250
 20
324.621301
 42
-0.109759
  0
VERTEX
  8
0
 10
443.328269
 20
325.636886
 42
-0.157831
  0
VERTEX
  8
0
 10
444.458778
 20
326.007384
 42
0.010887
  0
VERTEX
  8
0
 10
459.663874
 20
326.393535
 42
0.038173
  0
VERTEX
  8
0
 10
469.380843
 20
327.599452
 42
0.060543
  0
VERTEX
  8
0
 10
476.113013
 20
329.835800
 42
0.086696
  0
VERTEX
  8
0
 10
481.240902
 20
333.455135
 42
0.069248
  0
VERTEX
  8
0
 10
484.437904
 20
337.705010
 42
0.005565
  0
VERTEX
  8
0
 10
491.117259
 20
350.062187
 42
0.006261
  0
VERTEX
  8
0
 10
497.454868
 20
362.480559
 42
0.055503
  0
VERTEX
  8
0
 10
499.550895
 20
368.250000
 42
-0.053563
  0
VERTEX
  8
0
 10
500.165461
 20
369.962238
 42
-0.142874
  0
VERTEX
  8
0
 10
501.027601
 20
370.915098
 42
-0.405927
  0
VERTEX
  8
0
 10
501.690521
 20
370.767066
 42
-0.148208
  0
SEQEND
  0
POLYLINE
  8
0
 66
1
 70
1
  0
VERTEX
  8
0
 10
315.882020
 20
350.948886
 42
-0.013628
  0
VERTEX
  8
0
 10
320.266044
 20
347.185541
 42
-0.008215
  0
VERTEX
  8
0
 10
325.264454
 20
342.500511
 42
-0.008225
  0
VERTEX
  8
0
 10
330.082124
 20
337.677749
 42
-0.014245
  0
VERTEX
  8
0
 10
333.901485
 20
333.494278
 42
0.015832
  0
VERTEX
  8
0
 10
340.720625
 20
326.072495
 42
0.041824
  0
VERTEX
  8
0
 10
346.176200
 20
321.360166
 42
0.057337
  0
VERTEX
  8
0
 10
351.181513
 20
318.532187
 42
0.066311
  0
VERTEX
  8
0
 10
356.460497
 20
317.086482
 42
-0.022951
  0
VERTEX
  8
0
 10
359.206308
 20
316.584638
 42
-0.051705
  0
VERTEX
  8
0
 10
361.205723
 20
315.899826
 42
-0.060473
  0
VERTEX
  8
0
 10
362.824170
 20
314.898394
 42
-0.043741
  0
VERTEX
  8
0
 10
364.359705
 20
313.432128
 42
-0.011881
  0
VERTEX
  8
0
 10
365.348996
 20
312.251102
 42
-0.015724
  0
VERTEX
  8
0
 10
366.189059
 20
311.127689
 42
-0.013080
  0
VERTEX
  8
0
 10
366.826980
 20
310.163454
 42
-0.130382
  0
VERTEX
  8
0
 10
366.968399
 20
309.704687
 42
-0.461436
  0
VERTEX
  8
0
 10
366.355784
 20
309.138693
 42
-0.019109
  0
VERTEX
  8
0
 10
363.018409
 20
309.666998
 42
-0.024015
  0
VERTEX
  8
0
 10
358.962142
 20
310.673532
 42
-0.019970
  0
VERTEX
  8
0
 10
354.758635
 20
312.118902
 42
-0.034391
  0
VERTEX
  8
0
 10
349.021096
 20
314.819144
 42
-0.043579
  0
VERTEX
  8
0
 10
344.173315
 20
318.105408
 42
-0.030935
  0
VERTEX
  8
0
 10
338.851917
 20
323.010236
 42
-0.008728
  0
VERTEX
  8
0
 10
331.185667
 20
331.292261
 42
0.004733
  0
VERTEX
  8
0
 10
326.363474
 20
336.585996
 42
0.003846
  0
VERTEX
  8
0
 10
321.098548
 20
342.170216
 42
0.003886
  0
VERTEX
  8
0
 10
316.167185
 20
347.241196
 42
0.010090
  0
VERTEX
  8
0
 10
312.514198
 20
350.793352
 42
-0.003954
  0
VERTEX
  8
0
 10
308.089149
 20
354.991858
 42
-0.023865
  0
VERTEX
  8
0
 10
305.917321
 20
357.295132
 42
-0.077626
  0
VERTEX
  8
0
 10
305.163059
 20
358.516105
 42
-0.536355
  0
VERTEX
  8
0
 10
305.484384
 20
359.000000
 42
-0.165396
  0
VERTEX
  8
0
 10
305.823321
 20
358.884729
 42
-0.000810
  0
VERTEX
  8
0
 10
308.738499
 20
356.634985
 42
-0.003569
  0
VERTEX
  8
0
 10
312.046891
 20
354.035241
 42
-0.002237
  0
SEQEND
  0
POLYLINE
  8
0
 66
1
 70
1
  0
VERTEX
  8
0
 10
589.000000
 20
345.781908
 42
-0.028064
  0
VERTEX
  8
0
 10
594.209670
 20
343.813703
 42
-0.018705
  0
VERTEX
  8
0
 10
599.943259
 20
341.010469
 42
-0.010705
  0
VERTEX
  8
0
 10
605.145079
 20
338.076465
 42
-0.255648
  0
VERTEX
  8
0
 10
605.971638
 20
336.682612
 42
-0.248102
  0
VERTEX
  8
0
 10
605.841673
 20
336.414726
 42
-0.117516
  0
VERTEX
  8
0
 10
605.477606
 20
336.261334
 42
-0.074049
  0
VERTEX
  8
0
 10
604.918675
 20
336.251849
 42
-0.040967
  0
VERTEX
  8
0
 10
604.250000
 20
336.396295
 42
0.034522
  0
VERTEX
  8
0
 10
601.961051
 20
336.921672
 42
0.001086
  0
VERTEX
  8
0
 10
592.492908
 20
338.395584
 42
0.001025
  0
VERTEX
  8
0
 10
582.976561
 20
339.835860
 42
0.037056
  0
VERTEX
  8
0
 10
580.764848
 20
340.000000
 42
0.544970
  0
VERTEX
  8
0
 10
580.426846
 20
339.475964
 42
0.100716
  0
VERTEX
  8
0
 10
581.253693
 20
338.331982
 42
0.027803
  0
VERTEX
  8
0
 10
583.819313
 20
336.220520
 42
0.005873
  0
VERTEX
  8
0
 10
588.536314
 20
332.844014
 42
-0.004557
  0
VERTEX
  8
0
 10
591.368069
 20
330.828248
 42
-0.007689
  0
VERTEX
  8
0
 10
593.700407
 20
329.080377
 42
-0.002400
  0
VERTEX
  8
0
 10
595.649894
 20
327.557039
 42
-0.449002
  0
VERTEX
  8
0
 10
595.663231
 20
327.329898
 42
-0.237824
  0
VERTEX
  8
0
 10
595.363530
 20
327.231103
 42
-0.000726
  0
VERTEX
  8
0
 10
591.242479
 20
327.853937
 42
-0.003849
  0
VERTEX
  8
0
 10
586.559272
 20
328.605627
 42
-0.002371
  0
VERTEX
  8
0
 10
581.058824
 20
329.558824
 42
0.004884
  0
VERTEX
  8
0
 10
575.536251
 20
330.487292
 42
0.007715
  0
VERTEX
  8
0
 10
570.781528
 20
331.163969
 42
0.002833
  0
VERTEX
  8
0
 10
566.715076
 20
331.655415
 42
0.233108
  0
VERTEX
  8
0
 10
566.135641
 20
331.448206
 42
0.387224
  0
VERTEX
  8
0
 10
566.120975
 20
330.966494
 42
0.007650
  0
VERTEX
  8
0
 10
567.889845
 20
328.964895
 42
0.014018
  0
VERTEX
  8
0
 10
570.169976
 20
326.599684
 42
0.008421
  0
VERTEX
  8
0
 10
573.000000
 20
323.916145
 42
-0.007978
  0
VERTEX
  8
0
 10
578.681578
 20
318.538205
 42
-0.494109
  0
VERTEX
  8
0
 10
578.536161
 20
317.341852
 42
-0.188043
  0
VERTEX
  8
0
 10
576.619830
 20
317.032110
 42
-0.002888
  0
VERTEX
  8
0
 10
565.481758
 20
319.490941
 42
0.001301
  0
VERTEX
  8
0
 10
561.218862
 20
320.446214
 42
0.001972
  0
VERTEX
  8
0
 10
557.505579
 20
321.252829
 42
0.000731
  0
VERTEX
  8
0
 10
554.305811
 20
321.929803
 42
0.048778
  0
VERTEX
  8
0
 10
553.750000
 20
321.990941
 42
0.497329
  0
VERTEX
  8
0
 10
553.278707
 20
321.383507
 42
0.133389
  0
VERTEX
  8
0
 10
554.006252
 20
320.137142
 42
0.032089
  0
VERTEX
  8
0
 10
556.753389
 20
317.761263
 42
0.006484
  0
VERTEX
  8
0
 10
561.946770
 20
313.927300
 42
-0.006434
  0
VERTEX
  8
0
 10
567.516204
 20
309.816591
 42
-0.038536
  0
VERTEX
  8
0
 10
570.210681
 20
307.425886
 42
-0.406399
  0
VERTEX
  8
0
 10
570.207458
 20
306.618596
 42
-0.274988
  0
VERTEX
  8
0
 10
569.250000
 20
306.365867
 42
0.031638
  0
VERTEX
  8
0
 10
568.114165
 20
306.614362
 42
0.002829
  0
VERTEX
  8
0
 10
565.223438
 20
307.040820
 42
0.003677
  0
VERTEX
  8
0
 10
561.766030
 20
307.504993
 42
0.002861
  0
VERTEX
  8
0
 10
558.000000
 20
307.960549
 42
-0.001343
  0
VERTEX
  8
0
 10
554.124594
 20
308.417401
 42
-0.001435
  0
VERTEX
  8
0
 10
550.335938
 20
308.885383
 42
-0.001360
  0
VERTEX
  8
0
 10
547.080591
 20
309.305977
 42
-0.006713
  0
VERTEX
  8
0
 10
545.250000
 20
309.572607
 42
0.025983
  0
VERTEX
  8
0
 10
544.004164
 20
309.705298
 42
0.043815
  0
VERTEX
  8
0
 10
542.954687
 20
309.670211
 42
0.057564
  0
VERTEX
  8
0
 10
542.221053
 20
309.493790
 42
0.314769
  0
VERTEX
  8
0
 10
542.000000
 20
309.177445
 42
0.230516
  0
VERTEX
  8
0
 10
542.262835
 20
308.637636
 42
0.004418
  0
VERTEX
  8
0
 10
544.796738
 20
306.688352
 42
0.009735
  0
VERTEX
  8
0
 10
547.871621
 20
304.458532
 42
0.006250
  0
VERTEX
  8
0
 10
551.520812
 20
301.986277
 42
-0.003765
  0
VERTEX
  8
0
 10
555.148080
 20
299.555081
 42
-0.006353
  0
VERTEX
  8
0
 10
558.147764
 20
297.455328
 42
-0.001652
  0
VERTEX
  8
0
 10
560.692722
 20
295.612478
 42
-0.460486
  0
VERTEX
  8
0
 10
560.710999
 20
295.377666
 42
-0.222162
  0
VERTEX
  8
0
 10
560.400778
 20
295.265067
 42
-0.001087
  0
VERTEX
  8
0
 10
556.981230
 20
295.577878
 42
-0.004628
  0
VERTEX
  8
0
 10
553.064871
 20
295.981325
 42
-0.002878
  0
VERTEX
  8
0
 10
548.478195
 20
296.523521
 42
0.004469
  0
VERTEX
  8
0
 10
539.782587
 20
297.523386
 42
0.016547
  0
VERTEX
  8
0
 10
534.275243
 20
297.923109
 42
0.018085
  0
VERTEX
  8
0
 10
530.666640
 20
297.934643
 42
0.416792
  0
VERTEX
  8
0
 10
530.031342
 20
297.250000
 42
0.232117
  0
VERTEX
  8
0
 10
530.273226
 20
296.805037
 42
0.002777
  0
VERTEX
  8
0
 10
533.055207
 20
294.855831
 42
0.007624
  0
VERTEX
  8
0
 10
536.362066
 20
292.639962
 42
0.004825
  0
VERTEX
  8
0
 10
540.281342
 20
290.152829
 42
0.000000
  0
VERTEX
  8
0
 10
550.500000
 20
283.805658
 42
0.000000
  0
VERTEX
  8
0
 10
540.608253
 20
284.432977
 42
-0.002082
  0
VERTEX
  8
0
 10
536.391762
 20
284.718010
 42
-0.001721
  0
VERTEX
  8
0
 10
531.901345
 20
285.055886
 42
-0.001737
  0
VERTEX
  8
0
 10
527.784783
 20
285.394282
 42
-0.004662
  0
VERTEX
  8
0
 10
524.858253
 20
285.672604
 42
0.013321
  0
VERTEX
  8
0
 10
522.494351
 20
285.856177
 42
0.027091
  0
VERTEX
  8
0
 10
520.631393
 20
285.850013
 42
0.029107
  0
VERTEX
  8
0
 10
519.302337
 20
285.695587
 42
0.364158
  0
VERTEX
  8
0
 10
519.000000
 20
285.335519
 42
0.288527
  0
VERTEX
  8
0
 10
519.597015
 20
284.387058
 42
0.002209
  0
VERTEX
  8
0
 10
528.194493
 20
280.310251
 42
0.004346
  0
VERTEX
  8
0
 10
536.453528
 20
276.525744
 42
0.105636
  0
VERTEX
  8
0
 10
538.914236
 20
276.000000
 42
-0.067323
  0
VERTEX
  8
0
 10
539.329194
 20
275.943874
 42
-0.084206
  0
VERTEX
  8
0
 10
539.680771
 20
275.779688
 42
-0.099719
  0
VERTEX
  8
0
 10
539.915697
 20
275.536002
 42
-0.143375
  0
VERTEX
  8
0
 10
539.999026
 20
275.250000
 42
-0.395367
  0
VERTEX
  8
0
 10
539.710900
 20
274.943379
 42
-0.002072
  0
VERTEX
  8
0
 10
535.225187
 20
274.676929
 42
-0.007199
  0
VERTEX
  8
0
 10
529.979646
 20
274.462852
 42
-0.004325
  0
VERTEX
  8
0
 10
523.749026
 20
274.352311
 42
0.008897
  0
VERTEX
  8
0
 10
511.560396
 20
274.024581
 42
0.058351
  0
VERTEX
  8
0
 10
505.535606
 20
273.044611
 42
0.088320
  0
VERTEX
  8
0
 10
501.020761
 20
270.841392
 42
0.033989
  0
VERTEX
  8
0
 10
495.657241
 20
266.340857
 42
-0.009225
  0
VERTEX
  8
0
 10
490.157509
 20
261.241562
 42
-0.043836
  0
VERTEX
  8
0
 10
486.722933
 20
258.675973
 42
-0.073700
  0
VERTEX
  8
0
 10
483.823144
 20
257.426581
 42
-0.065013
  0
VERTEX
  8
0
 10
480.556271
 20
257.000000
 42
-0.028466
  0
VERTEX
  8
0
 10
478.823720
 20
257.098718
 42
-0.026444
  0
VERTEX
  8
0
 10
477.069739
 20
257.393861
 42
-0.027416
  0
VERTEX
  8
0
 10
475.539217
 20
257.824706
 42
-0.075682
  0
VERTEX
  8
0
 10
474.548603
 20
258.340802
 42
-0.213152
  0
VERTEX
  8
0
 10
473.101688
 20
260.871376
 42
-0.065846
  0
VERTEX
  8
0
 10
473.245994
 20
265.363231
 42
-0.048514
  0
VERTEX
  8
0
 10
474.819709
 20
271.265427
 42
-0.025978
  0
VERTEX
  8
0
 10
477.825977
 20
278.192346
 42
-0.048718
  0
VERTEX
  8
0
 10
489.036837
 20
296.122821
 42
-0.034417
  0
VERTEX
  8
0
 10
504.799567
 20
313.916805
 42
-0.033557
  0
VERTEX
  8
0
 10
523.413348
 20
329.914583
 42
-0.038513
  0
VERTEX
  8
0
 10
543.196840
 20
342.480577
 42
-0.011456
  0
VERTEX
  8
0
 10
548.380065
 20
345.087352
 42
-0.038350
  0
VERTEX
  8
0
 10
551.928838
 20
346.449166
 42
-0.039336
  0
VERTEX
  8
0
 10
555.597108
 20
347.235320
 42
-0.012524
  0
VERTEX
  8
0
 10
561.155611
 20
347.834832
 42
-0.014162
  0
VERTEX
  8
0
 10
569.656183
 20
348.294920
 42
-0.024841
  0
VERTEX
  8
0
 10
576.696292
 20
348.126470
 42
-0.028553
  0
VERTEX
  8
0
 10
582.944200
 20
347.305280
 42
-0.029342
  0
SEQEND
  0
POLYLINE
  8
0
 66
1
 70
1
  0
VERTEX
  8
0
 10
218.741015
 20
341.394528
 42
-0.024088
  0
VERTEX
  8
0
 10
226.005254
 20
339.747220
 42
-0.009842
  0
VERTEX
  8
0
 10
235.704556
 20
336.843868
 42
-0.008836
  0
VERTEX
  8
0
 10
244.998404
 20
333.679143
 42
-0.043920
  0
VERTEX
  8
0
 10
250.000000
 20
331.363124
 42
-0.027064
  0
VERTEX
  8
0
 10
251.311481
 20
330.512189
 42
-0.802269
  0
VERTEX
  8
0
 10
251.221307
 20
330.305350
 42
-0.021070
  0
VERTEX
  8
0
 10
249.561890
 20
330.702135
 42
-0.000426
  0
VERTEX
  8
0
 10
241.274551
 20
333.064473
 42
0.024879
  0
VERTEX
  8
0
 10
232.629841
 20
335.077557
 42
0.021634
  0
VERTEX
  8
0
 10
223.414980
 20
336.336515
 42
0.022273
  0
VERTEX
  8
0
 10
214.506141
 20
336.764319
 42
0.034298
  0
VERTEX
  8
0
 10
206.809292
 20
336.262367
 42
0.066782
  0
VERTEX
  8
0
 10
189.206888
 20
331.446493
 42
0.022961
  0
VERTEX
  8
0
 10
165.333532
 20
320.022051
 42
0.022819
  0
VERTEX
  8
0
 10
140.478907
 20
305.195000
 42
0.028719
  0
VERTEX
  8
0
 10
119.000000
 20
289.171888
 42
0.012032
  0
VERTEX
  8
0
 10
109.402683
 20
280.713263
 42
0.006950
  0
VERTEX
  8
0
 10
98.249713
 20
270.104838
 42
0.006770
  0
VERTEX
  8
0
 10
87.877330
 20
259.682104
 42
0.020139
  0
VERTEX
  8
0
 10
81.165123
 20
252.169123
 42
0.014424
  0
VERTEX
  8
0
 10
75.402898
 20
244.745279
 42
0.014791
  0
VERTEX
  8
0
 10
70.128409
 20
237.062282
 42
0.014577
  0
VERTEX
  8
0
 10
65.247819
 20
228.973235
 42
0.013137
  0
VERTEX
  8
0
 10
60.666591
 20
220.331508
 42
0.012751
  0
VERTEX
  8
0
 10
55.154773
 20
208.491375
 42
0.020182
  0
VERTEX
  8
0
 10
51.109414
 20
198.056110
 42
0.019343
  0
VERTEX
  8
0
 10
47.805086
 20
187.014709
 42
0.010556
  0
VERTEX
  8
0
 10
44.567116
 20
173.247191
 42
0.000000
  0
VERTEX
  8
0
 10
42.277782
 20
162.500000
 42
0.000000
  0
VERTEX
  8
0
 10
41.521836
 20
168.264664
 42
-0.045260
  0
VERTEX
  8
0
 10
41.115395
 20
178.437503
 42
-0.023388
  0
VERTEX
  8
0
 10
42.353080
 20
191.118414
 42
-0.022471
  0
VERTEX
  8
0
 10
44.926485
 20
204.572031
 42
-0.025263
  0
VERTEX
  8
0
 10
48.622873
 20
217.214685
 42
-0.012015
  0
VERTEX
  8
0
 10
51.815519
 20
225.722733
 42
-0.018335
  0
VERTEX
  8
0
 10
55.028482
 20
232.923537
 42
-0.018845
  0
VERTEX
  8
0
 10
58.690817
 20
239.723454
 42
-0.013746
  0
VERTEX
  8
0
 10
63.244865
 20
247.000000
 42
-0.016419
  0
VERTEX
  8
0
 10
69.622165
 20
255.941690
 42
-0.021809
  0
VERTEX
  8
0
 10
76.025435
 20
263.606215
 42
-0.016334
  0
VERTEX
  8
0
 10
84.374973
 20
272.178140
 42
-0.005017
  0
VERTEX
  8
0
 10
97.519390
 20
284.567633
 42
-0.017210
  0
VERTEX
  8
0
 10
125.308505
 20
308.520494
 42
-0.032184
  0
VERTEX
  8
0
 10
149.589773
 20
325.586364
 42
-0.039753
  0
VERTEX
  8
0
 10
171.623017
 20
336.745801
 42
-0.058863
  0
VERTEX
  8
0
 10
192.459597
 20
342.552108
 42
-0.020018
  0
VERTEX
  8
0
 10
198.572333
 20
343.252889
 42
-0.029541
  0
VERTEX
  8
0
 10
203.970687
 20
343.334130
 42
-0.024066
  0
VERTEX
  8
0
 10
210.092230
 20
342.768496
 42
-0.008643
  0
SEQEND
  0
POLYLINE
  8
0
 66
1
 70
1
  0
VERTEX
  8
0
 10
484.000000
 20
305.478560
 42
-0.126208
  0
VERTEX
  8
0
 10
483.565045
 20
303.782836
 42
-0.012138
  0
VERTEX
  8
0
 10
481.408041
 20
300.071289
 42
-0.007910
  0
VERTEX
  8
0
 10
479.055133
 20
296.372367
 42
-0.475011
  0
VERTEX
  8
0
 10
478.364638
 20
296.302028
 42
-0.277969
  0
VERTEX
  8
0
 10
478.292419
 20
296.593167
 42
-0.005854
  0
VERTEX
  8
0
 10
478.765193
 20
298.064982
 42
-0.011830
  0
VERTEX
  8
0
 10
479.395683
 20
299.812942
 42
-0.007477
  0
VERTEX
  8
0
 10
480.209445
 20
301.822356
 42
-0.017228
  0
VERTEX
  8
0
 10
481.711943
 20
305.062551
 42
-0.083894
  0
VERTEX
  8
0
 10
482.909684
 20
306.684607
 42
-0.456901
  0
VERTEX
  8
0
 10
483.632086
 20
306.619562
 42
-0.157238
  0
SEQEND
  0
POLYLINE
  8
0
 66
1
 70
1
  0
VERTEX
  8
0
 10
395.729167
 20
303.395833
 42
-0.126455
  0
VERTEX
  8
0
 10
395.402231
 20
303.202593
 42
-0.060344
  0
VERTEX
  8
0
 10
394.916927
 20
303.123424
 42
-0.054150
  0
VERTEX
  8
0
 10
394.359369
 20
303.160852
 42
-0.051402
  0
VERTEX
  8
0
 10
393.812500
 20
303.316886
 42
-0.054073
  0
VERTEX
  8
0
 10
393.395823
 20
303.538436
 42
-0.470617
  0
VERTEX
  8
0
 10
393.378580
 20
303.720685
 42
-0.168741
  0
VERTEX
  8
0
 10
393.670344
 20
303.862007
 42
-0.018894
  0
VERTEX
  8
0
 10
394.416667
 20
303.921053
 42
-0.028489
  0
VERTEX
  8
0
 10
395.112848
 20
303.910055
 42
-0.077125
  0
VERTEX
  8
0
 10
395.592839
 20
303.799335
 42
-0.208169
  0
VERTEX
  8
0
 10
395.775380
 20
303.614691
 42
-0.296942
  0
SEQEND
  0
POLYLINE
  8
0
 66
1
 70
1
  0
VERTEX
  8
0
 10
548.695666
 20
228.044003
 42
-0.064484
  0
VERTEX
  8
0
 10
551.823453
 20
225.533560
 42
-0.086365
  0
VERTEX
  8
0
 10
553.853523
 20
222.523541
 42
-0.056034
  0
VERTEX
  8
0
 10
555.276925
 20
218.066300
 42
-0.013485
  0
VERTEX
  8
0
 10
556.592516
 20
210.411002
 42
0.022366
  0
VERTEX
  8
0
 10
558.329777
 20
201.276778
 42
0.045574
  0
VERTEX
  8
0
 10
560.651011
 20
194.359372
 42
0.044410
  0
VERTEX
  8
0
 10
564.229181
 20
187.865291
 42
0.020209
  0
VERTEX
  8
0
 10
569.967633
 20
180.040588
 42
0.029957
  0
VERTEX
  8
0
 10
578.721940
 20
170.318881
 42
0.054551
  0
VERTEX
  8
0
 10
587.095711
 20
163.700792
 42
0.068400
  0
VERTEX
  8
0
 10
595.191292
 20
160.054032
 42
0.094551
  0
VERTEX
  8
0
 10
603.101313
 20
159.275470
 42
0.070299
  0
VERTEX
  8
0
 10
610.045783
 20
160.907303
 42
0.057083
  0
VERTEX
  8
0
 10
616.816789
 20
164.477269
 42
0.044935
  0
VERTEX
  8
0
 10
623.930970
 20
170.337571
 42
0.021636
  0
VERTEX
  8
0
 10
631.979312
 20
179.000000
 42
0.000000
  0
VERTEX
  8
0
 10
634.108226
 20
181.500000
 42
0.000000
  0
VERTEX
  8
0
 10
633.498913
 20
173.500000
 42
-0.009088
  0
VERTEX
  8
0
 10
633.029791
 20
168.534317
 42
-0.063260
  0
VERTEX
  8
0
 10
632.454120
 20
166.168811
 42
-0.091603
  0
VERTEX
  8
0
 10
631.379881
 20
164.407875
 42
-0.029301
  0
VERTEX
  8
0
 10
629.194800
 20
162.238702
 42
-0.039531
  0
VERTEX
  8
0
 10
624.464050
 20
158.685928
 42
-0.040650
  0
VERTEX
  8
0
 10
619.275720
 20
155.959312
 42
-0.041015
  0
VERTEX
  8
0
 10
613.759933
 20
154.127631
 42
-0.041827
  0
VERTEX
  8
0
 10
608.055298
 20
153.236069
 42
-0.040249
  0
VERTEX
  8
0
 10
598.568535
 20
153.321706
 42
-0.081719
  0
VERTEX
  8
0
 10
591.364692
 20
155.180791
 42
-0.066587
  0
VERTEX
  8
0
 10
584.236910
 20
159.537263
 42
-0.019708
  0
VERTEX
  8
0
 10
574.611598
 20
167.996328
 42
-0.028533
  0
VERTEX
  8
0
 10
564.852969
 20
178.401655
 42
-0.048628
  0
VERTEX
  8
0
 10
558.136414
 20
188.238043
 42
-0.057590
  0
VERTEX
  8
0
 10
554.218584
 20
197.854545
 42
-0.068060
  0
VERTEX
  8
0
 10
552.888889
 20
207.577819
 42
0.013813
  0
VERTEX
  8
0
 10
552.776056
 20
211.661496
 42
0.046170
  0
VERTEX
  8
0
 10
552.382555
 20
214.309548
 42
0.055116
  0
VERTEX
  8
0
 10
551.551892
 20
216.585757
 42
0.026290
  0
VERTEX
  8
0
 10
550.021657
 20
219.304798
 42
0.021813
  0
VERTEX
  8
0
 10
548.698743
 20
221.202471
 42
0.016559
  0
VERTEX
  8
0
 10
547.092743
 20
223.166170
 42
0.016831
  0
VERTEX
  8
0
 10
545.460128
 20
224.910603
 42
0.037067
  0
VERTEX
  8
0
 10
544.077213
 20
226.101035
 42
-0.015859
  0
VERTEX
  8
0
 10
542.898594
 20
227.031646
 42
-0.021734
  0
VERTEX
  8
0
 10
541.903931
 20
227.946320
 42
-0.019253
  0
VERTEX
  8
0
 10
541.161163
 20
228.751170
 42
-0.178563
  0
VERTEX
  8
0
 10
541.000000
 20
229.188058
 42
-0.376653
  0
VERTEX
  8
0
 10
541.653118
 20
229.932060
 42
-0.069486
  0
VERTEX
  8
0
 10
543.635182
 20
229.914555
 42
-0.052472
  0
VERTEX
  8
0
 10
546.217408
 20
229.248521
 42
-0.047604
  0
SEQEND
  0
POLYLINE
  8
0
 66
1
 70
1
  0
VERTEX
  8
0
 10
497.508928
 20
213.465346
 42
0.038639
  0
VERTEX
  8
0
 10
506.107182
 20
208.657319
 42
0.074787
  0
VERTEX
  8
0
 10
513.653669
 20
206.460038
 42
0.065632
  0
VERTEX
  8
0
 10
522.150080
 20
206.434881
 42
0.024045
  0
VERTEX
  8
0
 10
534.000000
 20
208.544678
 42
-0.635484
  0
VERTEX
  8
0
 10
534.310239
 20
208.147298
 42
-0.171593
  0
VERTEX
  8
0
 10
533.482018
 20
207.357614
 42
-0.020594
  0
VERTEX
  8
0
 10
528.562640
 20
205.389750
 42
-0.020618
  0
VERTEX
  8
0
 10
523.500000
 20
203.834147
 42
-0.058154
  0
VERTEX
  8
0
 10
515.798159
 20
202.743240
 42
-0.077287
  0
VERTEX
  8
0
 10
508.794710
 20
203.656987
 42
-0.067557
  0
VERTEX
  8
0
 10
501.720119
 20
206.807108
 42
-0.033747
  0
VERTEX
  8
0
 10
493.737157
 20
212.521813
 42
-0.011170
  0
VERTEX
  8
0
 10
490.452251
 20
215.351571
 42
-0.041642
  0
VERTEX
  8
0
 10
488.585913
 20
217.338462
 42
-0.139910
  0
VERTEX
  8
0
 10
488.118913
 20
218.465352
 42
-0.448268
  0
VERTEX
  8
0
 10
488.595428
 20
219.000000
 42
-0.138157
  0
VERTEX
  8
0
 10
489.012504
 20
218.882513
 42
-0.001629
  0
VERTEX
  8
0
 10
491.459383
 20
217.374195
 42
-0.004777
  0
VERTEX
  8
0
 10
494.277746
 20
215.586663
 42
-0.003084
  0
SEQEND
  0
POLYLINE
  8
0
 66
1
 70
1
  0
VERTEX
  8
0
 10
267.222392
 20
203.209437
 42
-0.022540
  0
VERTEX
  8
0
 10
275.404487
 20
192.248950
 42
-0.059748
  0
VERTEX
  8
0
 10
279.885155
 20
183.575526
 42
-0.079419
  0
VERTEX
  8
0
 10
281.481489
 20
175.658989
 42
-0.070288
  0
VERTEX
  8
0
 10
280.642136
 20
167.282806
 42
-0.041974
  0
VERTEX
  8
0
 10
277.185309
 20
156.993559
 42
-0.025878
  0
VERTEX
  8
0
 10
271.515058
 20
145.541969
 42
-0.023655
  0
VERTEX
  8
0
 10
264.000087
 20
133.523494
 42
-0.019759
  0
VERTEX
  8
0
 10
254.942649
 20
121.500000
 42
-0.021413
  0
VERTEX
  8
0
 10
247.945895
 20
113.649347
 42
-0.005390
  0
VERTEX
  8
0
 10
235.879570
 20
101.489801
 42
-0.005601
  0
VERTEX
  8
0
 10
223.425739
 20
89.479683
 42
-0.017460
  0
VERTEX
  8
0
 10
214.676009
 20
81.787855
 42
-0.027075
  0
VERTEX
  8
0
 10
207.973938
 20
76.879796
 42
-0.026912
  0
VERTEX
  8
0
 10
200.767540
 20
72.713974
 42
-0.028427
  0
VERTEX
  8
0
 10
193.672199
 20
69.600636
 42
-0.046260
  0
VERTEX
  8
0
 10
187.326878
 20
67.884108
 42
-0.046115
  0
VERTEX
  8
0
 10
182.287257
 20
67.482227
 42
-0.045367
  0
VERTEX
  8
0
 10
177.230902
 20
68.006216
 42
-0.038479
  0
VERTEX
  8
0
 10
171.671790
 20
69.549858
 42
-0.020528
  0
VERTEX
  8
0
 10
165.065678
 20
72.256256
 42
-0.036410
  0
VERTEX
  8
0
 10
156.387381
 20
77.027264
 42
-0.012736
  0
VERTEX
  8
0
 10
144.634079
 20
85.084016
 42
-0.012755
  0
VERTEX
  8
0
 10
133.296301
 20
93.737085
 42
-0.035938
  0
VERTEX
  8
0
 10
125.999460
 20
100.524638
 42
0.000000
  0
VERTEX
  8
0
 10
123.500000
 20
103.209253
 42
0.000000
  0
VERTEX
  8
0
 10
127.000000
 20
101.717497
 42
-0.000690
  0
VERTEX
  8
0
 10
129.389315
 20
100.695236
 42
-0.000036
  0
VERTEX
  8
0
 10
137.088207
 20
97.388065
 42
-0.000057
  0
VERTEX
  8
0
 10
146.241014
 20
93.454343
 42
-0.000041
  0
VERTEX
  8
0
 10
156.427940
 20
89.073814
 42
0.002473
  0
VERTEX
  8
0
 10
166.454613
 20
84.819869
 42
0.003911
  0
VERTEX
  8
0
 10
175.097150
 20
81.282676
 42
0.001024
  0
VERTEX
  8
0
 10
182.652664
 20
78.277080
 42
0.153614
  0
VERTEX
  8
0
 10
183.573250
 20
78.210944
 42
0.497834
  0
VERTEX
  8
0
 10
183.806198
 20
78.741324
 42
0.004490
  0
VERTEX
  8
0
 10
181.319962
 20
83.094083
 42
0.009978
  0
VERTEX
  8
0
 10
178.082129
 20
88.400105
 42
0.005232
  0
VERTEX
  8
0
 10
173.854791
 20
94.876147
 42
-0.002580
  0
VERTEX
  8
0
 10
169.689813
 20
101.183344
 42
-0.004267
  0
VERTEX
  8
0
 10
166.246240
 20
106.556680
 42
-0.000746
  0
VERTEX
  8
0
 10
163.271236
 20
111.302948
 42
-0.349188
  0
VERTEX
  8
0
 10
163.310039
 20
111.643373
 42
-0.298201
  0
VERTEX
  8
0
 10
163.659829
 20
111.716388
 42
-0.001699
  0
VERTEX
  8
0
 10
166.934824
 20
110.418851
 42
-0.006303
  0
VERTEX
  8
0
 10
170.701988
 20
108.856117
 42
-0.003874
  0
VERTEX
  8
0
 10
175.100559
 20
106.925614
 42
0.001577
  0
VERTEX
  8
0
 10
189.043654
 20
100.729533
 42
0.005518
  0
VERTEX
  8
0
 10
198.088403
 20
96.862939
 42
0.002902
  0
VERTEX
  8
0
 10
204.670092
 20
94.179466
 42
0.186611
  0
VERTEX
  8
0
 10
205.887295
 20
94.164421
 42
0.446809
  0
VERTEX
  8
0
 10
206.067869
 20
94.624807
 42
0.001905
  0
VERTEX
  8
0
 10
203.344892
 20
99.979746
 42
0.006853
  0
VERTEX
  8
0
 10
200.052123
 20
106.183814
 42
0.004070
  0
VERTEX
  8
0
 10
195.967398
 20
113.490033
 42
-0.001503
  0
VERTEX
  8
0
 10
191.836879
 20
120.789940
 42
-0.002490
  0
VERTEX
  8
0
 10
188.400838
 20
126.977279
 42
-0.000259
  0
VERTEX
  8
0
 10
185.370647
 20
132.505205
 42
-0.333141
  0
VERTEX
  8
0
 10
185.403873
 20
132.737206
 42
-0.333992
  0
VERTEX
  8
0
 10
185.636018
 20
132.770089
 42
-0.000228
  0
VERTEX
  8
0
 10
191.532516
 20
129.514807
 42
-0.002336
  0
VERTEX
  8
0
 10
198.125031
 20
125.831042
 42
-0.001409
  0
VERTEX
  8
0
 10
205.906250
 20
121.406250
 42
0.003391
  0
VERTEX
  8
0
 10
213.713015
 20
117.007791
 42
0.005568
  0
VERTEX
  8
0
 10
220.386246
 20
113.403955
 42
0.001288
  0
VERTEX
  8
0
 10
226.225939
 20
110.352939
 42
0.327033
  0
VERTEX
  8
0
 10
226.770371
 20
110.437038
 42
0.320891
  0
VERTEX
  8
0
 10
226.918326
 20
111.329017
 42
0.000705
  0
VERTEX
  8
0
 10
220.538189
 20
124.269716
 42
0.004730
  0
VERTEX
  8
0
 10
214.017097
 20
137.141623
 42
0.005997
  0
VERTEX
  8
0
 10
207.739224
 20
148.900706
 42
-0.012637
  0
VERTEX
  8
0
 10
206.634088
 20
151.038592
 42
-0.033316
  0
VERTEX
  8
0
 10
205.986594
 20
152.635458
 42
-0.075193
  0
VERTEX
  8
0
 10
205.831080
 20
153.549586
 42
-0.535475
  0
VERTEX
  8
0
 10
206.136075
 20
153.760921
 42
-0.051647
  0
VERTEX
  8
0
 10
207.098475
 20
153.259280
 42
-0.000882
  0
VERTEX
  8
0
 10
212.061622
 20
149.968699
 42
-0.002241
  0
VERTEX
  8
0
 10
217.820351
 20
146.098655
 42
-0.001488
  0
VERTEX
  8
0
 10
224.392852
 20
141.610215
 42
0.002491
  0
VERTEX
  8
0
 10
230.937729
 20
137.159855
 42
0.003920
  0
VERTEX
  8
0
 10
236.606644
 20
133.410501
 42
0.001082
  0
VERTEX
  8
0
 10
241.566353
 20
130.201052
 42
0.144027
  0
VERTEX
  8
0
 10
242.249841
 20
130.000000
 42
0.454782
  0
VERTEX
  8
0
 10
242.696589
 20
130.512304
 42
0.063055
  0
VERTEX
  8
0
 10
242.281046
 20
132.059171
 42
0.010392
  0
VERTEX
  8
0
 10
240.728685
 20
135.639010
 42
0.000275
  0
VERTEX
  8
0
 10
233.517227
 20
151.342509
 42
-0.002283
  0
VERTEX
  8
0
 10
230.222143
 20
158.594443
 42
-0.003755
  0
VERTEX
  8
0
 10
227.509146
 20
164.761989
 42
-0.000605
  0
VERTEX
  8
0
 10
225.165699
 20
170.218018
 42
-0.306565
  0
VERTEX
  8
0
 10
225.232818
 20
170.566151
 42
-0.376900
  0
VERTEX
  8
0
 10
225.552918
 20
170.586835
 42
-0.000732
  0
VERTEX
  8
0
 10
229.956099
 20
167.184933
 42
-0.004256
  0
VERTEX
  8
0
 10
234.935426
 20
163.257949
 42
-0.002563
  0
VERTEX
  8
0
 10
240.776864
 20
158.520412
 42
0.004171
  0
VERTEX
  8
0
 10
246.624551
 20
153.808884
 42
0.007010
  0
VERTEX
  8
0
 10
251.621557
 20
149.963802
 42
0.001984
  0
VERTEX
  8
0
 10
255.951288
 20
146.754497
 42
0.437939
  0
VERTEX
  8
0
 10
256.402368
 20
146.842028
 42
0.223767
  0
VERTEX
  8
0
 10
256.472446
 20
147.457940
 42
0.001109
  0
VERTEX
  8
0
 10
254.399321
 20
153.526103
 42
0.004686
  0
VERTEX
  8
0
 10
251.941020
 20
160.458053
 42
0.002914
  0
VERTEX
  8
0
 10
248.933890
 20
168.545258
 42
-0.001966
  0
VERTEX
  8
0
 10
245.911327
 20
176.627020
 42
-0.003161
  0
VERTEX
  8
0
 10
243.405596
 20
183.542150
 42
-0.000612
  0
VERTEX
  8
0
 10
241.247399
 20
189.641475
 42
-0.174964
  0
VERTEX
  8
0
 10
241.251411
 20
190.172700
 42
-0.513755
  0
VERTEX
  8
0
 10
241.783268
 20
190.318545
 42
-0.002755
  0
VERTEX
  8
0
 10
246.605707
 20
186.362263
 42
-0.006507
  0
VERTEX
  8
0
 10
252.996545
 20
180.918145
 42
-0.002077
  0
VERTEX
  8
0
 10
262.364796
 20
172.655993
 42
0.008792
  0
VERTEX
  8
0
 10
264.945279
 20
170.441076
 42
0.013601
  0
VERTEX
  8
0
 10
267.257490
 20
168.629715
 42
0.007850
  0
VERTEX
  8
0
 10
269.225421
 20
167.219938
 42
0.252032
  0
VERTEX
  8
0
 10
269.793188
 20
167.155993
 42
0.371612
  0
VERTEX
  8
0
 10
270.043634
 20
167.639916
 42
0.001406
  0
VERTEX
  8
0
 10
268.455986
 20
174.217797
 42
0.005907
  0
VERTEX
  8
0
 10
266.511296
 20
181.787744
 42
0.003566
  0
VERTEX
  8
0
 10
264.037238
 20
190.713104
 42
-0.001370
  0
VERTEX
  8
0
 10
258.943839
 20
208.779306
 42
-0.131152
  0
VERTEX
  8
0
 10
258.913836
 20
211.448015
 42
-0.607177
  0
VERTEX
  8
0
 10
260.084173
 20
211.721873
 42
-0.005742
  0
SEQEND
  0
POLYLINE
  8
0
 66
1
 70
1
  0
VERTEX
  8
0
 10
299.500000
 20
199.160166
 42
-0.168531
  0
VERTEX
  8
0
 10
303.795111
 20
193.940801
 42
-0.059224
  0
VERTEX
  8
0
 10
306.099038
 20
184.374087
 42
-0.051657
  0
VERTEX
  8
0
 10
306.273159
 20
172.606597
 42
-0.045267
  0
VERTEX
  8
0
 10
304.083893
 20
160.500000
 42
-0.020438
  0
VERTEX
  8
0
 10
302.830404
 20
156.590106
 42
-0.007894
  0
VERTEX
  8
0
 10
300.787451
 20
151.274067
 42
-0.007800
  0
VERTEX
  8
0
 10
298.388813
 20
145.573534
 42
-0.009550
  0
VERTEX
  8
0
 10
295.963478
 20
140.326611
 42
-0.023317
  0
VERTEX
  8
0
 10
287.917873
 20
125.554014
 42
-0.023516
  0
VERTEX
  8
0
 10
278.552669
 20
111.637969
 42
-0.021484
  0
VERTEX
  8
0
 10
267.150481
 20
97.605312
 42
-0.014189
  0
VERTEX
  8
0
 10
252.927656
 20
82.450450
 42
-0.006358
  0
VERTEX
  8
0
 10
246.395217
 20
76.039380
 42
-0.020385
  0
VERTEX
  8
0
 10
241.820894
 20
72.006777
 42
-0.028306
  0
VERTEX
  8
0
 10
237.834183
 20
69.129333
 42
-0.026010
  0
VERTEX
  8
0
 10
233.436488
 20
66.631339
 42
-0.008726
  0
VERTEX
  8
0
 10
230.477848
 20
65.212668
 42
-0.012644
  0
VERTEX
  8
0
 10
227.813794
 20
64.072556
 42
-0.008282
  0
VERTEX
  8
0
 10
225.573059
 20
63.222669
 42
-0.168496
  0
VERTEX
  8
0
 10
224.857963
 20
63.214012
 42
-0.539103
  0
VERTEX
  8
0
 10
224.744415
 20
63.640562
 42
-0.006075
  0
VERTEX
  8
0
 10
227.125388
 20
66.243672
 42
-0.011576
  0
VERTEX
  8
0
 10
230.200922
 20
69.376567
 42
-0.006561
  0
VERTEX
  8
0
 10
234.060734
 20
73.033123
 42
0.012373
  0
VERTEX
  8
0
 10
244.763951
 20
83.411372
 42
0.007146
  0
VERTEX
  8
0
 10
257.145182
 20
96.391839
 42
0.007038
  0
VERTEX
  8
0
 10
268.689944
 20
109.204082
 42
0.018878
  0
VERTEX
  8
0
 10
276.423323
 20
118.736411
 42
0.021478
  0
VERTEX
  8
0
 10
281.741384
 20
126.495142
 42
0.015090
  0
VERTEX
  8
0
 10
287.073463
 20
135.642579
 42
0.015037
  0
VERTEX
  8
0
 10
291.872538
 20
145.148851
 42
0.020526
  0
VERTEX
  8
0
 10
295.577127
 20
154.000000
 42
0.018227
  0
VERTEX
  8
0
 10
297.120689
 20
158.675165
 42
0.036870
  0
VERTEX
  8
0
 10
297.923618
 20
162.465717
 42
0.026733
  0
VERTEX
  8
0
 10
298.297630
 20
167.040148
 42
0.005739
  0
VERTEX
  8
0
 10
298.430173
 20
175.000000
 42
0.005547
  0
VERTEX
  8
0
 10
298.384993
 20
182.628660
 42
0.023635
  0
VERTEX
  8
0
 10
298.092308
 20
187.175841
 42
0.035434
  0
VERTEX
  8
0
 10
297.440820
 20
190.708383
 42
0.026873
  0
VERTEX
  8
0
 10
296.250000
 20
194.465341
 42
-0.001473
  0
VERTEX
  8
0
 10
295.387561
 20
196.772450
 42
-0.002308
  0
VERTEX
  8
0
 10
294.660937
 20
198.761982
 42
-0.000603
  0
VERTEX
  8
0
 10
294.037030
 20
200.501638
 42
-0.085997
  0
VERTEX
  8
0
 10
294.000000
 20
200.715341
 42
-0.434566
  0
VERTEX
  8
0
 10
294.407303
 20
201.095474
 42
-0.051691
  0
VERTEX
  8
0
 10
295.769248
 20
200.858496
 42
-0.039807
  0
VERTEX
  8
0
 10
297.586330
 20
200.184612
 42
-0.028409
  0
SEQEND
  0
POLYLINE
  8
0
 66
1
 70
1
  0
VERTEX
  8
0
 10
383.500000
 20
402.071287
 42
0.065651
  0
VERTEX
  8
0
 10
377.596362
 20
399.795622
 42
0.073837
  0
VERTEX
  8
0
 10
372.743087
 20
396.133355
 42
0.058792
  0
VERTEX
  8
0
 10
368.383740
 20
390.510662
 42
0.025467
  0
VERTEX
  8
0
 10
363.911763
 20
382.149402
 42
-0.011517
  0
VERTEX
  8
0
 10
361.097327
 20
376.514813
 42
-0.028126
  0
VERTEX
  8
0
 10
358.703333
 20
372.543680
 42
-0.031332
  0
VERTEX
  8
0
 10
356.041805
 20
369.124191
 42
-0.017803
  0
VERTEX
  8
0
 10
352.429761
 20
365.321102
 42
0.007786
  0
VERTEX
  8
0
 10
349.935701
 20
362.798300
 42
0.012940
  0
VERTEX
  8
0
 10
347.923488
 20
360.586661
 42
0.006549
  0
VERTEX
  8
0
 10
346.346059
 20
358.710991
 42
0.385433
  0
VERTEX
  8
0
 10
346.366462
 20
358.300205
 42
0.342047
  0
VERTEX
  8
0
 10
347.734077
 20
358.126614
 42
0.016113
  0
VERTEX
  8
0
 10
351.915266
 20
360.777886
 42
0.024313
  0
VERTEX
  8
0
 10
356.300921
 20
364.083961
 42
0.032890
  0
VERTEX
  8
0
 10
359.897113
 20
367.504207
 42
0.025957
  0
VERTEX
  8
0
 10
361.714952
 20
369.694183
 42
0.015812
  0
VERTEX
  8
0
 10
363.639633
 20
372.452166
 42
0.015832
  0
VERTEX
  8
0
 10
365.379053
 20
375.314841
 42
0.026882
  0
VERTEX
  8
0
 10
366.624484
 20
377.824854
 42
-0.007294
  0
VERTEX
  8
0
 10
370.525780
 20
386.527587
 42
-0.033110
  0
VERTEX
  8
0
 10
373.199266
 20
391.395788
 42
-0.055000
  0
VERTEX
  8
0
 10
375.753558
 20
394.565510
 42
-0.055489
  0
VERTEX
  8
0
 10
378.930429
 20
397.091465
 42
-0.015432
  0
VERTEX
  8
0
 10
380.808236
 20
398.191764
 42
-0.017578
  0
VERTEX
  8
0
 10
382.671751
 20
399.124361
 42
-0.016971
  0
VERTEX
  8
0
 10
384.296843
 20
399.801721
 42
-0.087754
  0
VERTEX
  8
0
 10
385.250000
 20
399.981000
 42
0.084194
  0
VERTEX
  8
0
 10
385.918315
 20
400.101818
 42
0.092263
  0
VERTEX
  8
0
 10
386.485937
 20
400.435044
 42
0.099296
  0
VERTEX
  8
0
 10
386.865664
 20
400.926340
 42
0.115524
  0
VERTEX
  8
0
 10
387.000000
 20
401.500000
 42
0.015715
  0
VERTEX
  8
0
 10
386.982139
 20
402.068115
 42
0.028544
  0
VERTEX
  8
0
 10
386.926562
 20
402.529306
 42
0.031874
  0
VERTEX
  8
0
 10
386.847360
 20
402.851939
 42
0.439087
  0
VERTEX
  8
0
 10
386.750000
 20
402.897639
 42
-0.034084
  0
VERTEX
  8
0
 10
386.563993
 20
402.835898
 42
-0.000839
  0
VERTEX
  8
0
 10
385.692187
 20
402.612674
 42
-0.001813
  0
VERTEX
  8
0
 10
384.667666
 20
402.356128
 42
-0.001233
  0
SEQEND
  0
POLYLINE
  8
0
 66
1
 70
1
  0
VERTEX
  8
0
 10
418.550000
 20
402.120802
 42
0.068585
  0
VERTEX
  8
0
 10
419.139452
 20
401.709039
 42
0.013742
  0
VERTEX
  8
0
 10
420.298911
 20
401.155638
 42
0.014285
  0
VERTEX
  8
0
 10
421.695120
 20
400.582915
 42
0.012901
  0
VERTEX
  8
0
 10
423.169695
 20
400.069753
 42
-0.089074
  0
VERTEX
  8
0
 10
426.976980
 20
398.054730
 42
-0.045664
  0
VERTEX
  8
0
 10
430.920842
 20
394.338277
 42
-0.043210
  0
VERTEX
  8
0
 10
434.417196
 20
389.617177
 42
-0.048301
  0
VERTEX
  8
0
 10
436.901880
 20
384.532702
 42
0.032578
  0
VERTEX
  8
0
 10
439.687843
 20
378.346661
 42
0.034531
  0
VERTEX
  8
0
 10
443.206980
 20
372.700021
 42
0.036094
  0
VERTEX
  8
0
 10
447.294821
 20
367.832122
 42
0.044701
  0
VERTEX
  8
0
 10
451.778492
 20
363.972185
 42
0.015687
  0
VERTEX
  8
0
 10
455.087494
 20
361.756296
 42
0.037654
  0
VERTEX
  8
0
 10
457.698884
 20
360.385387
 42
0.067784
  0
VERTEX
  8
0
 10
459.413303
 20
359.905748
 42
0.455064
  0
VERTEX
  8
0
 10
460.000000
 20
360.416887
 42
0.194664
  0
VERTEX
  8
0
 10
459.888151
 20
360.693288
 42
0.001323
  0
VERTEX
  8
0
 10
458.060599
 20
362.571665
 42
0.004891
  0
VERTEX
  8
0
 10
455.928653
 20
364.709099
 42
0.003076
  0
VERTEX
  8
0
 10
453.397783
 20
367.166887
 42
-0.017989
  0
VERTEX
  8
0
 10
449.810442
 20
370.864775
 42
-0.031143
  0
VERTEX
  8
0
 10
447.145574
 20
374.214734
 42
-0.028285
  0
VERTEX
  8
0
 10
444.754442
 20
378.087202
 42
-0.012141
  0
VERTEX
  8
0
 10
441.989036
 20
383.500000
 42
0.015725
  0
VERTEX
  8
0
 10
438.536503
 20
390.139848
 42
0.041617
  0
VERTEX
  8
0
 10
435.542059
 20
394.572431
 42
0.051366
  0
VERTEX
  8
0
 10
432.259006
 20
397.891404
 42
0.037055
  0
VERTEX
  8
0
 10
428.000000
 20
400.894305
 42
0.065406
  0
VERTEX
  8
0
 10
425.060085
 20
402.170053
 42
0.037449
  0
VERTEX
  8
0
 10
421.266658
 20
402.954550
 42
0.072509
  0
VERTEX
  8
0
 10
418.789906
 20
402.915668
 42
0.625008
  0
SEQEND
  0
POLYLINE
  8
0
 66
1
 70
1
  0
VERTEX
  8
0
 10
399.014781
 20
375.472506
 42
0.044461
  0
VERTEX
  8
0
 10
399.082324
 20
374.825774
 42
0.002690
  0
VERTEX
  8
0
 10
399.466834
 20
372.912268
 42
0.004005
  0
VERTEX
  8
0
 10
399.956000
 20
370.636184
 42
0.002949
  0
VERTEX
  8
0
 10
400.532929
 20
368.122449
 42
-0.027913
  0
VERTEX
  8
0
 10
401.216019
 20
364.274501
 42
-0.016051
  0
VERTEX
  8
0
 10
401.628978
 20
359.582044
 42
-0.012451
  0
VERTEX
  8
0
 10
401.810978
 20
353.670511
 42
-0.005716
  0
VERTEX
  8
0
 10
401.768148
 20
345.960635
 42
0.004046
  0
VERTEX
  8
0
 10
401.647914
 20
332.442685
 42
0.116699
  0
VERTEX
  8
0
 10
402.439202
 20
329.086549
 42
0.663938
  0
VERTEX
  8
0
 10
403.677665
 20
329.167557
 42
0.013799
  0
VERTEX
  8
0
 10
406.188649
 20
337.125018
 42
0.013226
  0
VERTEX
  8
0
 10
407.336387
 20
341.589817
 42
0.041664
  0
VERTEX
  8
0
 10
407.773307
 20
344.648531
 42
0.039282
  0
VERTEX
  8
0
 10
407.709902
 20
347.831236
 42
0.010780
  0
VERTEX
  8
0
 10
407.109122
 20
352.813630
 42
0.020885
  0
VERTEX
  8
0
 10
405.951795
 20
359.055776
 42
0.019302
  0
VERTEX
  8
0
 10
404.252999
 20
365.348259
 42
0.019852
  0
VERTEX
  8
0
 10
402.292621
 20
370.855407
 42
0.055111
  0
VERTEX
  8
0
 10
400.354975
 20
374.472506
 42
0.020867
  0
VERTEX
  8
0
 10
399.833890
 20
375.167103
 42
0.061177
  0
VERTEX
  8
0
 10
399.402366
 20
375.579915
 42
0.215959
  0
VERTEX
  8
0
 10
399.145278
 20
375.636233
 42
0.358318
  0
SEQEND
  0
ENDSEC
  0
EOF
