  0
SECTION
  2
HEADER
  9
$ACADVER
  1
AC1009
  9
$EXTMIN
 10
41.05002800
 20
-0.50275816
 30
0.0
  9
$EXTMAX
 10
70.51402800
 20
80.77724184
 30
0.0
  0
ENDSEC
  0
SECTION
  2
TABLES
  0
TABLE
  2
LAYER
 70
1
 0
LAYER
 2
Default_Layer
 70
0
 62
18
 6
CONTINUOUS
 0
ENDTAB
 0
ENDSEC
  0
SECTION
  2
ENTITIES
  0
POLYLINE
  8
Default_Layer
 62
256
 66
   1
 39
0.000000
 70
    1
  0
VERTEX
  8
0
 10
41.05002800
 20
40.13724184
  0
VERTEX
  8
0
 10
41.05002800
 20
80.77724184
  0
VERTEX
  8
0
 10
55.78202800
 20
80.77724184
  0
VERTEX
  8
0
 10
70.51402800
 20
80.77724184
  0
VERTEX
  8
0
 10
70.51402800
 20
40.13724184
  0
VERTEX
  8
0
 10
70.51402800
 20
-0.50275816
  0
VERTEX
  8
0
 10
55.78202800
 20
-0.50275816
  0
VERTEX
  8
0
 10
41.05002800
 20
-0.50275816
  0
VERTEX
  8
0
 10
41.05002800
 20
40.13724184
  0
SEQEND
  0
POLYLINE
  8
Default_Layer
 62
256
 66
   1
 39
0.000000
 70
    1
  0
VERTEX
  8
0
 10
66.04120324
 20
1.99766649
  0
VERTEX
  8
0
 10
66.04096833
 20
2.55707792
  0
VERTEX
  8
0
 10
66.09006918
 20
3.09354894
  0
VERTEX
  8
0
 10
66.18772547
 20
3.60491150
  0
VERTEX
  8
0
 10
66.33315691
 20
4.08899756
  0
VERTEX
  8
0
 10
66.52558319
 20
4.54363908
  0
VERTEX
  8
0
 10
66.76422401
 20
4.96666800
  0
VERTEX
  8
0
 10
67.04829907
 20
5.35591629
  0
VERTEX
  8
0
 10
67.37702807
 20
5.70921590
  0
VERTEX
  8
0
 10
67.73886343
 20
6.06218826
  0
VERTEX
  8
0
 10
67.88936133
 20
6.22458801
  0
VERTEX
  8
0
 10
67.71412695
 20
6.34754191
  0
VERTEX
  8
0
 10
67.29281876
 20
6.60567638
  0
VERTEX
  8
0
 10
67.02745639
 20
6.77472773
  0
VERTEX
  8
0
 10
66.80076345
 20
6.94408785
  0
VERTEX
  8
0
 10
66.61173854
 20
7.11506709
  0
VERTEX
  8
0
 10
66.45938029
 20
7.28897579
  0
VERTEX
  8
0
 10
66.34268729
 20
7.46712427
  0
VERTEX
  8
0
 10
66.26065815
 20
7.65082286
  0
VERTEX
  8
0
 10
66.21229148
 20
7.84138192
  0
VERTEX
  8
0
 10
66.19658588
 20
8.04011177
  0
VERTEX
  8
0
 10
66.20614047
 20
8.21121050
  0
VERTEX
  8
0
 10
66.23505310
 20
8.36975811
  0
VERTEX
  8
0
 10
66.28446200
 20
8.51762694
  0
VERTEX
  8
0
 10
66.35550538
 20
8.65668935
  0
VERTEX
  8
0
 10
66.44932147
 20
8.78881770
  0
VERTEX
  8
0
 10
66.56704849
 20
8.91588433
  0
VERTEX
  8
0
 10
66.70982467
 20
9.03976161
  0
VERTEX
  8
0
 10
66.87878822
 20
9.16232188
  0
VERTEX
  8
0
 10
67.20732586
 20
9.35285561
  0
VERTEX
  8
0
 10
67.37182614
 20
9.42368511
  0
VERTEX
  8
0
 10
67.54105469
 20
9.47951117
  0
VERTEX
  8
0
 10
67.71844201
 20
9.52129989
  0
VERTEX
  8
0
 10
67.90741856
 20
9.55001737
  0
VERTEX
  8
0
 10
68.33386133
 20
9.57210300
  0
VERTEX
  8
0
 10
68.82069467
 20
9.57257518
  0
VERTEX
  8
0
 10
68.82069467
 20
10.00867821
  0
VERTEX
  8
0
 10
68.82069467
 20
10.44478124
  0
VERTEX
  8
0
 10
68.03701649
 20
10.39330333
  0
VERTEX
  8
0
 10
67.48793422
 20
10.33870295
  0
VERTEX
  8
0
 10
66.99658193
 20
10.25022657
  0
VERTEX
  8
0
 10
66.56087177
 20
10.12683234
  0
VERTEX
  8
0
 10
66.17871587
 20
9.96747844
  0
VERTEX
  8
0
 10
65.84802637
 20
9.77112301
  0
VERTEX
  8
0
 10
65.70132906
 20
9.65874414
  0
VERTEX
  8
0
 10
65.56671541
 20
9.53672421
  0
VERTEX
  8
0
 10
65.44392442
 20
9.40493298
  0
VERTEX
  8
0
 10
65.33269513
 20
9.26324021
  0
VERTEX
  8
0
 10
65.14387766
 20
8.94962916
  0
VERTEX
  8
0
 10
65.01210000
 20
8.66177067
  0
VERTEX
  8
0
 10
64.93765994
 20
8.40756106
  0
VERTEX
  8
0
 10
64.90511065
 20
8.10688777
  0
VERTEX
  8
0
 10
64.89900527
 20
7.67963830
  0
VERTEX
  8
0
 10
64.91461582
 20
7.27368810
  0
VERTEX
  8
0
 10
64.95876020
 20
6.83519844
  0
VERTEX
  8
0
 10
65.03186737
 20
6.36082959
  0
VERTEX
  8
0
 10
65.13436632
 20
5.84724184
  0
VERTEX
  8
0
 10
65.23531772
 20
5.34918481
  0
VERTEX
  8
0
 10
65.30331752
 20
4.91528417
  0
VERTEX
  8
0
 10
65.33778259
 20
4.53444843
  0
VERTEX
  8
0
 10
65.33812983
 20
4.19558612
  0
VERTEX
  8
0
 10
65.30377612
 20
3.88760575
  0
VERTEX
  8
0
 10
65.23413835
 20
3.59941585
  0
VERTEX
  8
0
 10
65.12863341
 20
3.31992493
  0
VERTEX
  8
0
 10
64.98667818
 20
3.03804150
  0
VERTEX
  8
0
 10
64.86455934
 20
2.83820461
  0
VERTEX
  8
0
 10
64.72040387
 20
2.63400166
  0
VERTEX
  8
0
 10
64.38313092
 20
2.23101133
  0
VERTEX
  8
0
 10
64.00915504
 20
1.86609806
  0
VERTEX
  8
0
 10
63.81912091
 20
1.70949143
  0
VERTEX
  8
0
 10
63.63277193
 20
1.57628939
  0
VERTEX
  8
0
 10
63.46977459
 20
1.45371926
  0
VERTEX
  8
0
 10
63.40191075
 20
1.37133767
  0
VERTEX
  8
0
 10
63.50709596
 20
1.35242027
  0
VERTEX
  8
0
 10
63.79357801
 20
1.34065549
  0
VERTEX
  8
0
 10
64.73541075
 20
1.34238395
  0
VERTEX
  8
0
 10
66.06902800
 20
1.36719272
  0
VERTEX
  8
0
 10
66.04120324
 20
1.99766649
  0
SEQEND
  0
POLYLINE
  8
Default_Layer
 62
256
 66
   1
 39
0.000000
 70
    1
  0
VERTEX
  8
0
 10
53.28776590
 20
1.73409979
  0
VERTEX
  8
0
 10
53.30838354
 20
1.91980479
  0
VERTEX
  8
0
 10
53.31354226
 20
2.10270016
  0
VERTEX
  8
0
 10
53.30275827
 20
2.28532654
  0
VERTEX
  8
0
 10
53.27554780
 20
2.47022454
  0
VERTEX
  8
0
 10
53.16991231
 20
2.85699798
  0
VERTEX
  8
0
 10
52.99276560
 20
3.28334555
  0
VERTEX
  8
0
 10
52.81013923
 20
3.60939911
  0
VERTEX
  8
0
 10
52.59633151
 20
3.88488636
  0
VERTEX
  8
0
 10
52.35482238
 20
4.10802927
  0
VERTEX
  8
0
 10
52.08909177
 20
4.27704980
  0
VERTEX
  8
0
 10
51.80261963
 20
4.39016992
  0
VERTEX
  8
0
 10
51.65269297
 20
4.42521170
  0
VERTEX
  8
0
 10
51.49888590
 20
4.44561162
  0
VERTEX
  8
0
 10
51.34163342
 20
4.45114741
  0
VERTEX
  8
0
 10
51.18137052
 20
4.44159684
  0
VERTEX
  8
0
 10
50.85355343
 20
4.37634758
  0
VERTEX
  8
0
 10
50.63510060
 20
4.29364970
  0
VERTEX
  8
0
 10
50.42385061
 20
4.17797120
  0
VERTEX
  8
0
 10
50.22656091
 20
4.03624043
  0
VERTEX
  8
0
 10
50.04998896
 20
3.87538574
  0
VERTEX
  8
0
 10
49.90089223
 20
3.70233551
  0
VERTEX
  8
0
 10
49.78602819
 20
3.52401809
  0
VERTEX
  8
0
 10
49.71215429
 20
3.34736185
  0
VERTEX
  8
0
 10
49.68602800
 20
3.17929513
  0
VERTEX
  8
0
 10
49.70613175
 20
3.08247798
  0
VERTEX
  8
0
 10
49.76240809
 20
2.97945886
  0
VERTEX
  8
0
 10
49.84880458
 20
2.87512748
  0
VERTEX
  8
0
 10
49.95926884
 20
2.77437351
  0
VERTEX
  8
0
 10
50.08774845
 20
2.68208665
  0
VERTEX
  8
0
 10
50.22819101
 20
2.60315660
  0
VERTEX
  8
0
 10
50.37454411
 20
2.54247303
  0
VERTEX
  8
0
 10
50.52075533
 20
2.50492565
  0
VERTEX
  8
0
 10
50.74510832
 20
2.48583181
  0
VERTEX
  8
0
 10
50.94892471
 20
2.50449490
  0
VERTEX
  8
0
 10
51.12671238
 20
2.55684268
  0
VERTEX
  8
0
 10
51.27297921
 20
2.63880289
  0
VERTEX
  8
0
 10
51.38223305
 20
2.74630329
  0
VERTEX
  8
0
 10
51.44898177
 20
2.87527164
  0
VERTEX
  8
0
 10
51.46773324
 20
3.02163569
  0
VERTEX
  8
0
 10
51.43299534
 20
3.18132320
  0
VERTEX
  8
0
 10
51.39263983
 20
3.24969815
  0
VERTEX
  8
0
 10
51.33007612
 20
3.30841008
  0
VERTEX
  8
0
 10
51.24922250
 20
3.35631239
  0
VERTEX
  8
0
 10
51.15399731
 20
3.39225848
  0
VERTEX
  8
0
 10
51.04831886
 20
3.41510175
  0
VERTEX
  8
0
 10
50.93610547
 20
3.42369562
  0
VERTEX
  8
0
 10
50.82127545
 20
3.41689348
  0
VERTEX
  8
0
 10
50.70774714
 20
3.39354874
  0
VERTEX
  8
0
 10
50.52432050
 20
3.36117666
  0
VERTEX
  8
0
 10
50.46852146
 20
3.36707592
  0
VERTEX
  8
0
 10
50.44802800
 20
3.38794393
  0
VERTEX
  8
0
 10
50.46303534
 20
3.42488739
  0
VERTEX
  8
0
 10
50.50688664
 20
3.45815249
  0
VERTEX
  8
0
 10
50.67409676
 20
3.51218964
  0
VERTEX
  8
0
 10
50.93560962
 20
3.54713939
  0
VERTEX
  8
0
 10
51.27737648
 20
3.56008575
  0
VERTEX
  8
0
 10
51.47334942
 20
3.54893108
  0
VERTEX
  8
0
 10
51.64578429
 20
3.51482599
  0
VERTEX
  8
0
 10
51.79388229
 20
3.45841379
  0
VERTEX
  8
0
 10
51.91684462
 20
3.38033780
  0
VERTEX
  8
0
 10
52.01387248
 20
3.28124136
  0
VERTEX
  8
0
 10
52.08416709
 20
3.16176779
  0
VERTEX
  8
0
 10
52.12692964
 20
3.02256040
  0
VERTEX
  8
0
 10
52.14136133
 20
2.86426252
  0
VERTEX
  8
0
 10
52.11418133
 20
2.63922633
  0
VERTEX
  8
0
 10
52.08028587
 20
2.53860283
  0
VERTEX
  8
0
 10
52.03292414
 20
2.44594625
  0
VERTEX
  8
0
 10
51.97214916
 20
2.36128451
  0
VERTEX
  8
0
 10
51.89801396
 20
2.28464549
  0
VERTEX
  8
0
 10
51.70987499
 20
2.15554726
  0
VERTEX
  8
0
 10
51.46893145
 20
2.05887474
  0
VERTEX
  8
0
 10
51.17560752
 20
1.99485116
  0
VERTEX
  8
0
 10
50.83032743
 20
1.96369971
  0
VERTEX
  8
0
 10
50.43351537
 20
1.96564360
  0
VERTEX
  8
0
 10
50.00855999
 20
2.00360741
  0
VERTEX
  8
0
 10
49.64056680
 20
2.07846932
  0
VERTEX
  8
0
 10
49.32775493
 20
2.19154855
  0
VERTEX
  8
0
 10
49.19148548
 20
2.26283191
  0
VERTEX
  8
0
 10
49.06834353
 20
2.34416429
  0
VERTEX
  8
0
 10
48.95810648
 20
2.43571060
  0
VERTEX
  8
0
 10
48.86055172
 20
2.53763575
  0
VERTEX
  8
0
 10
48.77545664
 20
2.65010462
  0
VERTEX
  8
0
 10
48.70259864
 20
2.77328211
  0
VERTEX
  8
0
 10
48.64175510
 20
2.90733314
  0
VERTEX
  8
0
 10
48.59270341
 20
3.05242260
  0
VERTEX
  8
0
 10
48.52908518
 20
3.37637640
  0
VERTEX
  8
0
 10
48.52432875
 20
3.65625510
  0
VERTEX
  8
0
 10
48.57273761
 20
3.94225202
  0
VERTEX
  8
0
 10
48.67068681
 20
4.22834380
  0
VERTEX
  8
0
 10
48.81455139
 20
4.50850708
  0
VERTEX
  8
0
 10
49.00070643
 20
4.77671847
  0
VERTEX
  8
0
 10
49.22552695
 20
5.02695461
  0
VERTEX
  8
0
 10
49.48538803
 20
5.25319214
  0
VERTEX
  8
0
 10
49.77666471
 20
5.44940769
  0
VERTEX
  8
0
 10
50.13914299
 20
5.63265602
  0
VERTEX
  8
0
 10
50.51888508
 20
5.76953057
  0
VERTEX
  8
0
 10
50.91067655
 20
5.85977313
  0
VERTEX
  8
0
 10
51.30930293
 20
5.90312552
  0
VERTEX
  8
0
 10
51.70954978
 20
5.89932952
  0
VERTEX
  8
0
 10
52.10620267
 20
5.84812697
  0
VERTEX
  8
0
 10
52.49404714
 20
5.74925964
  0
VERTEX
  8
0
 10
52.86786875
 20
5.60246937
  0
VERTEX
  8
0
 10
53.24459784
 20
5.40031972
  0
VERTEX
  8
0
 10
53.57907452
 20
5.16616058
  0
VERTEX
  8
0
 10
53.87141168
 20
4.89983696
  0
VERTEX
  8
0
 10
54.12172222
 20
4.60119388
  0
VERTEX
  8
0
 10
54.33011902
 20
4.27007634
  0
VERTEX
  8
0
 10
54.49671499
 20
3.90632935
  0
VERTEX
  8
0
 10
54.62162301
 20
3.50979792
  0
VERTEX
  8
0
 10
54.70495597
 20
3.08032706
  0
VERTEX
  8
0
 10
54.79146210
 20
2.46384934
  0
VERTEX
  8
0
 10
55.11765563
 20
2.75854559
  0
VERTEX
  8
0
 10
55.34968160
 20
2.95436432
  0
VERTEX
  8
0
 10
55.43384602
 20
3.00901425
  0
VERTEX
  8
0
 10
55.50213705
 20
3.03599134
  0
VERTEX
  8
0
 10
55.55857394
 20
3.03617068
  0
VERTEX
  8
0
 10
55.60717592
 20
3.01042738
  0
VERTEX
  8
0
 10
55.65196223
 20
2.95963650
  0
VERTEX
  8
0
 10
55.69695211
 20
2.88467315
  0
VERTEX
  8
0
 10
55.73045708
 20
2.78857329
  0
VERTEX
  8
0
 10
55.73363735
 20
2.68525743
  0
VERTEX
  8
0
 10
55.70781192
 20
2.57692942
  0
VERTEX
  8
0
 10
55.65429979
 20
2.46579311
  0
VERTEX
  8
0
 10
55.57441998
 20
2.35405235
  0
VERTEX
  8
0
 10
55.46949148
 20
2.24391099
  0
VERTEX
  8
0
 10
55.34083329
 20
2.13757287
  0
VERTEX
  8
0
 10
55.18976442
 20
2.03724184
  0
VERTEX
  8
0
 10
54.90077563
 20
1.85464761
  0
VERTEX
  8
0
 10
54.68048258
 20
1.69501184
  0
VERTEX
  8
0
 10
54.53104483
 20
1.56288192
  0
VERTEX
  8
0
 10
54.45462194
 20
1.46280524
  0
VERTEX
  8
0
 10
54.44446593
 20
1.42620792
  0
VERTEX
  8
0
 10
54.45337347
 20
1.39932918
  0
VERTEX
  8
0
 10
54.48161451
 20
1.38273745
  0
VERTEX
  8
0
 10
54.52945899
 20
1.37700114
  0
VERTEX
  8
0
 10
54.68503805
 20
1.40036852
  0
VERTEX
  8
0
 10
54.92227021
 20
1.47397870
  0
VERTEX
  8
0
 10
55.19409403
 20
1.54961841
  0
VERTEX
  8
0
 10
55.41321132
 20
1.56767270
  0
VERTEX
  8
0
 10
55.49670568
 20
1.55545623
  0
VERTEX
  8
0
 10
55.55946418
 20
1.52926451
  0
VERTEX
  8
0
 10
55.59896709
 20
1.48923791
  0
VERTEX
  8
0
 10
55.61269467
 20
1.43551679
  0
VERTEX
  8
0
 10
55.64819129
 20
1.42023610
  0
VERTEX
  8
0
 10
55.75008339
 20
1.40606201
  0
VERTEX
  8
0
 10
56.12546738
 20
1.38220844
  0
VERTEX
  8
0
 10
57.36952800
 20
1.36070303
  0
VERTEX
  8
0
 10
59.12636133
 20
1.36149754
  0
VERTEX
  8
0
 10
58.70302800
 20
1.60498384
  0
VERTEX
  8
0
 10
58.50297931
 20
1.73561243
  0
VERTEX
  8
0
 10
58.28627497
 20
1.90447657
  0
VERTEX
  8
0
 10
58.06120807
 20
2.10308706
  0
VERTEX
  8
0
 10
57.83607169
 20
2.32295468
  0
VERTEX
  8
0
 10
57.61915893
 20
2.55559023
  0
VERTEX
  8
0
 10
57.41876286
 20
2.79250450
  0
VERTEX
  8
0
 10
57.24317658
 20
3.02520827
  0
VERTEX
  8
0
 10
57.10069316
 20
3.24521235
  0
VERTEX
  8
0
 10
56.93990152
 20
3.53967299
  0
VERTEX
  8
0
 10
56.80229135
 20
3.83381747
  0
VERTEX
  8
0
 10
56.68718373
 20
4.13014604
  0
VERTEX
  8
0
 10
56.59389976
 20
4.43115897
  0
VERTEX
  8
0
 10
56.52176052
 20
4.73935652
  0
VERTEX
  8
0
 10
56.47008710
 20
5.05723897
  0
VERTEX
  8
0
 10
56.43820058
 20
5.38730658
  0
VERTEX
  8
0
 10
56.42542204
 20
5.73205961
  0
VERTEX
  8
0
 10
56.41702800
 20
6.59054404
  0
VERTEX
  8
0
 10
56.20536133
 20
6.43829609
  0
VERTEX
  8
0
 10
55.98125925
 20
6.25166551
  0
VERTEX
  8
0
 10
55.73969467
 20
6.01675292
  0
VERTEX
  8
0
 10
55.49486222
 20
5.78999269
  0
VERTEX
  8
0
 10
55.25067280
 20
5.63167964
  0
VERTEX
  8
0
 10
55.12700443
 20
5.57726738
  0
VERTEX
  8
0
 10
55.00131909
 20
5.53885880
  0
VERTEX
  8
0
 10
54.87289084
 20
5.51608452
  0
VERTEX
  8
0
 10
54.74099380
 20
5.50857518
  0
VERTEX
  8
0
 10
54.45355052
 20
5.50857518
  0
VERTEX
  8
0
 10
54.67328926
 20
5.95359880
  0
VERTEX
  8
0
 10
54.87212391
 20
6.39577356
  0
VERTEX
  8
0
 10
55.04160389
 20
6.83394778
  0
VERTEX
  8
0
 10
55.14203717
 20
7.09670809
  0
VERTEX
  8
0
 10
55.25783878
 20
7.33905126
  0
VERTEX
  8
0
 10
55.39116658
 20
7.56365394
  0
VERTEX
  8
0
 10
55.54417841
 20
7.77319274
  0
VERTEX
  8
0
 10
55.71903213
 20
7.97034430
  0
VERTEX
  8
0
 10
55.91788556
 20
8.15778525
  0
VERTEX
  8
0
 10
56.14289656
 20
8.33819222
  0
VERTEX
  8
0
 10
56.39622297
 20
8.51424184
  0
VERTEX
  8
0
 10
56.85595689
 20
8.83187413
  0
VERTEX
  8
0
 10
56.99651015
 20
8.94301567
  0
VERTEX
  8
0
 10
57.04896353
 20
9.00107518
  0
VERTEX
  8
0
 10
57.02132600
 20
9.03297545
  0
VERTEX
  8
0
 10
56.94370225
 20
9.05341651
  0
VERTEX
  8
0
 10
56.69212580
 20
9.06209355
  0
VERTEX
  8
0
 10
56.40149362
 20
9.03145141
  0
VERTEX
  8
0
 10
56.27505020
 20
9.00274350
  0
VERTEX
  8
0
 10
56.17906515
 20
8.96583522
  0
VERTEX
  8
0
 10
55.86210444
 20
8.75435875
  0
VERTEX
  8
0
 10
55.35913126
 20
8.38457144
  0
VERTEX
  8
0
 10
54.86268326
 20
8.02376028
  0
VERTEX
  8
0
 10
54.48270989
 20
7.78638613
  0
VERTEX
  8
0
 10
54.33058032
 20
7.71080996
  0
VERTEX
  8
0
 10
54.20058438
 20
7.66227948
  0
VERTEX
  8
0
 10
54.09039371
 20
7.63952349
  0
VERTEX
  8
0
 10
53.99767998
 20
7.64127083
  0
VERTEX
  8
0
 10
53.90751953
 20
7.66292491
  0
VERTEX
  8
0
 10
53.88548316
 20
7.68185968
  0
VERTEX
  8
0
 10
53.87901970
 20
7.71184548
  0
VERTEX
  8
0
 10
53.91344251
 20
7.82190777
  0
VERTEX
  8
0
 10
54.01205001
 20
8.02698706
  0
VERTEX
  8
0
 10
54.10135600
 20
8.18203125
  0
VERTEX
  8
0
 10
54.22304913
 20
8.35731900
  0
VERTEX
  8
0
 10
54.53397864
 20
8.73561121
  0
VERTEX
  8
0
 10
54.88560217
 20
9.09583569
  0
VERTEX
  8
0
 10
55.05816283
 20
9.24853879
  0
VERTEX
  8
0
 10
55.21868335
 20
9.37196445
  0
VERTEX
  8
0
 10
55.45967203
 20
9.54004338
  0
VERTEX
  8
0
 10
54.93231087
 20
9.80142789
  0
VERTEX
  8
0
 10
54.40494971
 20
10.06281240
  0
VERTEX
  8
0
 10
53.88698886
 20
9.50769779
  0
VERTEX
  8
0
 10
53.52551982
 20
9.14720846
  0
VERTEX
  8
0
 10
53.16366308
 20
8.84213699
  0
VERTEX
  8
0
 10
52.79648103
 20
8.59021718
  0
VERTEX
  8
0
 10
52.41903607
 20
8.38918281
  0
VERTEX
  8
0
 10
52.02639058
 20
8.23676764
  0
VERTEX
  8
0
 10
51.61360697
 20
8.13070546
  0
VERTEX
  8
0
 10
51.17574761
 20
8.06873004
  0
VERTEX
  8
0
 10
50.70787491
 20
8.04857518
  0
VERTEX
  8
0
 10
50.28525316
 20
8.06894043
  0
VERTEX
  8
0
 10
49.87727463
 20
8.12977283
  0
VERTEX
  8
0
 10
49.48484496
 20
8.23067730
  0
VERTEX
  8
0
 10
49.10886981
 20
8.37125877
  0
VERTEX
  8
0
 10
48.75025483
 20
8.55112218
  0
VERTEX
  8
0
 10
48.40990568
 20
8.76987246
  0
VERTEX
  8
0
 10
48.08872800
 20
9.02711455
  0
VERTEX
  8
0
 10
47.78762746
 20
9.32245337
  0
VERTEX
  8
0
 10
47.60147534
 20
9.51344991
  0
VERTEX
  8
0
 10
47.46248290
 20
9.61038216
  0
VERTEX
  8
0
 10
47.39426361
 20
9.63066836
  0
VERTEX
  8
0
 10
47.31814470
 20
9.63595152
  0
VERTEX
  8
0
 10
47.11595533
 20
9.61285937
  0
VERTEX
  8
0
 10
46.79933057
 20
9.53891009
  0
VERTEX
  8
0
 10
46.48129129
 20
9.42127928
  0
VERTEX
  8
0
 10
46.16989374
 20
9.26564972
  0
VERTEX
  8
0
 10
45.87319419
 20
9.07770416
  0
VERTEX
  8
0
 10
45.59924891
 20
8.86312537
  0
VERTEX
  8
0
 10
45.35611414
 20
8.62759613
  0
VERTEX
  8
0
 10
45.15184615
 20
8.37679918
  0
VERTEX
  8
0
 10
44.99450121
 20
8.11641732
  0
VERTEX
  8
0
 10
44.87973465
 20
7.84394803
  0
VERTEX
  8
0
 10
44.80991557
 20
7.57843753
  0
VERTEX
  8
0
 10
44.78483604
 20
7.32109830
  0
VERTEX
  8
0
 10
44.80428813
 20
7.07314286
  0
VERTEX
  8
0
 10
44.86806390
 20
6.83578371
  0
VERTEX
  8
0
 10
44.97595541
 20
6.61023335
  0
VERTEX
  8
0
 10
45.12775474
 20
6.39770427
  0
VERTEX
  8
0
 10
45.32325394
 20
6.19940900
  0
VERTEX
  8
0
 10
45.58017312
 20
6.00390306
  0
VERTEX
  8
0
 10
45.70389474
 20
5.93859771
  0
VERTEX
  8
0
 10
45.83292565
 20
5.89258566
  0
VERTEX
  8
0
 10
45.97361681
 20
5.86411308
  0
VERTEX
  8
0
 10
46.13231917
 20
5.85142612
  0
VERTEX
  8
0
 10
46.52916131
 20
5.86639373
  0
VERTEX
  8
0
 10
46.78295585
 20
5.89675655
  0
VERTEX
  8
0
 10
46.96292651
 20
5.94825076
  0
VERTEX
  8
0
 10
47.10592792
 20
6.03686415
  0
VERTEX
  8
0
 10
47.24881473
 20
6.17858452
  0
VERTEX
  8
0
 10
47.33697027
 20
6.28763303
  0
VERTEX
  8
0
 10
47.39869653
 20
6.38979994
  0
VERTEX
  8
0
 10
47.43385360
 20
6.48781955
  0
VERTEX
  8
0
 10
47.44230159
 20
6.58442615
  0
VERTEX
  8
0
 10
47.42390062
 20
6.68235405
  0
VERTEX
  8
0
 10
47.37851078
 20
6.78433754
  0
VERTEX
  8
0
 10
47.30599217
 20
6.89311093
  0
VERTEX
  8
0
 10
47.20620491
 20
7.01140851
  0
VERTEX
  8
0
 10
47.11776946
 20
7.08719895
  0
VERTEX
  8
0
 10
47.01245422
 20
7.14404951
  0
VERTEX
  8
0
 10
46.89650261
 20
7.18155807
  0
VERTEX
  8
0
 10
46.77615806
 20
7.19932251
  0
VERTEX
  8
0
 10
46.65766400
 20
7.19694072
  0
VERTEX
  8
0
 10
46.54726386
 20
7.17401059
  0
VERTEX
  8
0
 10
46.45120106
 20
7.13012999
  0
VERTEX
  8
0
 10
46.37571904
 20
7.06489683
  0
VERTEX
  8
0
 10
46.32503054
 20
6.98672493
  0
VERTEX
  8
0
 10
46.32527649
 20
6.91748745
  0
VERTEX
  8
0
 10
46.38380645
 20
6.83867122
  0
VERTEX
  8
0
 10
46.50796996
 20
6.73176308
  0
VERTEX
  8
0
 10
46.75393048
 20
6.53564101
  0
VERTEX
  8
0
 10
46.51134611
 20
6.47475621
  0
VERTEX
  8
0
 10
46.39830149
 20
6.45773336
  0
VERTEX
  8
0
 10
46.28492305
 20
6.46231504
  0
VERTEX
  8
0
 10
46.17319529
 20
6.48748317
  0
VERTEX
  8
0
 10
46.06510270
 20
6.53221968
  0
VERTEX
  8
0
 10
45.96262978
 20
6.59550649
  0
VERTEX
  8
0
 10
45.86776104
 20
6.67632551
  0
VERTEX
  8
0
 10
45.78248097
 20
6.77365868
  0
VERTEX
  8
0
 10
45.70877407
 20
6.88648791
  0
VERTEX
  8
0
 10
45.65384901
 20
7.01833096
  0
VERTEX
  8
0
 10
45.63806274
 20
7.14298688
  0
VERTEX
  8
0
 10
45.65820344
 20
7.25940658
  0
VERTEX
  8
0
 10
45.71105926
 20
7.36654098
  0
VERTEX
  8
0
 10
45.79341835
 20
7.46334099
  0
VERTEX
  8
0
 10
45.90206890
 20
7.54875752
  0
VERTEX
  8
0
 10
46.03379904
 20
7.62174148
  0
VERTEX
  8
0
 10
46.18539696
 20
7.68124377
  0
VERTEX
  8
0
 10
46.35365080
 20
7.72621531
  0
VERTEX
  8
0
 10
46.53534873
 20
7.75560702
  0
VERTEX
  8
0
 10
46.72727891
 20
7.76836979
  0
VERTEX
  8
0
 10
46.92622950
 20
7.76345455
  0
VERTEX
  8
0
 10
47.12898867
 20
7.73981219
  0
VERTEX
  8
0
 10
47.33234457
 20
7.69639364
  0
VERTEX
  8
0
 10
47.53308536
 20
7.63214980
  0
VERTEX
  8
0
 10
47.72799922
 20
7.54603159
  0
VERTEX
  8
0
 10
47.89546642
 20
7.44836621
  0
VERTEX
  8
0
 10
48.04690682
 20
7.33527004
  0
VERTEX
  8
0
 10
48.18200096
 20
7.20818541
  0
VERTEX
  8
0
 10
48.30042935
 20
7.06855466
  0
VERTEX
  8
0
 10
48.40187253
 20
6.91782011
  0
VERTEX
  8
0
 10
48.48601104
 20
6.75742412
  0
VERTEX
  8
0
 10
48.55252539
 20
6.58880900
  0
VERTEX
  8
0
 10
48.60109612
 20
6.41341711
  0
VERTEX
  8
0
 10
48.63140377
 20
6.23269078
  0
VERTEX
  8
0
 10
48.64312885
 20
6.04807233
  0
VERTEX
  8
0
 10
48.63595190
 20
5.86100412
  0
VERTEX
  8
0
 10
48.60955346
 20
5.67292847
  0
VERTEX
  8
0
 10
48.56361404
 20
5.48528772
  0
VERTEX
  8
0
 10
48.49781418
 20
5.29952420
  0
VERTEX
  8
0
 10
48.41183441
 20
5.11708026
  0
VERTEX
  8
0
 10
48.30535526
 20
4.93939824
  0
VERTEX
  8
0
 10
48.07859650
 20
4.64857065
  0
VERTEX
  8
0
 10
47.81385208
 20
4.39603170
  0
VERTEX
  8
0
 10
47.51368965
 20
4.18290076
  0
VERTEX
  8
0
 10
47.18067685
 20
4.01029723
  0
VERTEX
  8
0
 10
46.81738133
 20
3.87934049
  0
VERTEX
  8
0
 10
46.42637074
 20
3.79114991
  0
VERTEX
  8
0
 10
46.01021272
 20
3.74684488
  0
VERTEX
  8
0
 10
45.57147492
 20
3.74754478
  0
VERTEX
  8
0
 10
45.18744146
 20
3.77803211
  0
VERTEX
  8
0
 10
44.88249835
 20
3.83461908
  0
VERTEX
  8
0
 10
44.58811725
 20
3.93528659
  0
VERTEX
  8
0
 10
44.23576984
 20
4.09801554
  0
VERTEX
  8
0
 10
44.01298846
 20
4.22101167
  0
VERTEX
  8
0
 10
43.78522311
 20
4.36948207
  0
VERTEX
  8
0
 10
43.56316534
 20
4.53398443
  0
VERTEX
  8
0
 10
43.35750671
 20
4.70507647
  0
VERTEX
  8
0
 10
43.17893877
 20
4.87331587
  0
VERTEX
  8
0
 10
43.03815308
 20
5.02926036
  0
VERTEX
  8
0
 10
42.94584120
 20
5.16346763
  0
VERTEX
  8
0
 10
42.91269467
 20
5.26649539
  0
VERTEX
  8
0
 10
42.89097087
 20
5.31787257
  0
VERTEX
  8
0
 10
42.83874132
 20
5.33924184
  0
VERTEX
  8
0
 10
42.80533467
 20
5.29565279
  0
VERTEX
  8
0
 10
42.77974254
 20
5.16654813
  0
VERTEX
  8
0
 10
42.75217801
 20
4.66176693
  0
VERTEX
  8
0
 10
42.75640006
 20
3.84484820
  0
VERTEX
  8
0
 10
42.79276103
 20
2.73574184
  0
VERTEX
  8
0
 10
42.85066587
 20
1.35990851
  0
VERTEX
  8
0
 10
48.04115916
 20
1.35990851
  0
VERTEX
  8
0
 10
53.23165245
 20
1.35990851
  0
VERTEX
  8
0
 10
53.28776590
 20
1.73409979
  0
SEQEND
  0
POLYLINE
  8
Default_Layer
 62
256
 66
   1
 39
0.000000
 70
    1
  0
VERTEX
  8
0
 10
68.83003250
 20
3.58241180
  0
VERTEX
  8
0
 10
68.81834559
 20
5.12376126
  0
VERTEX
  8
0
 10
68.80053416
 20
5.76804364
  0
VERTEX
  8
0
 10
68.74692499
 20
5.76798429
  0
VERTEX
  8
0
 10
68.68253436
 20
5.74498716
  0
VERTEX
  8
0
 10
68.52639891
 20
5.63456864
  0
VERTEX
  8
0
 10
68.34210816
 20
5.44556628
  0
VERTEX
  8
0
 10
68.13964243
 20
5.18675823
  0
VERTEX
  8
0
 10
67.96251019
 20
4.91375476
  0
VERTEX
  8
0
 10
67.80725144
 20
4.61959685
  0
VERTEX
  8
0
 10
67.67356088
 20
4.30323097
  0
VERTEX
  8
0
 10
67.56113319
 20
3.96360360
  0
VERTEX
  8
0
 10
67.46966306
 20
3.59966124
  0
VERTEX
  8
0
 10
67.39884517
 20
3.21035037
  0
VERTEX
  8
0
 10
67.34837421
 20
2.79461748
  0
VERTEX
  8
0
 10
67.31794487
 20
2.35140905
  0
VERTEX
  8
0
 10
67.27317599
 20
1.35324292
  0
VERTEX
  8
0
 10
68.05526700
 20
1.37774238
  0
VERTEX
  8
0
 10
68.83735801
 20
1.40224184
  0
VERTEX
  8
0
 10
68.83003250
 20
3.58241180
  0
SEQEND
  0
POLYLINE
  8
Default_Layer
 62
256
 66
   1
 39
0.000000
 70
    1
  0
VERTEX
  8
0
 10
61.83569467
 20
4.23279957
  0
VERTEX
  8
0
 10
61.98711896
 20
4.31222823
  0
VERTEX
  8
0
 10
62.14067638
 20
4.41733179
  0
VERTEX
  8
0
 10
62.28977845
 20
4.54109052
  0
VERTEX
  8
0
 10
62.42783671
 20
4.67648470
  0
VERTEX
  8
0
 10
62.54826270
 20
4.81649459
  0
VERTEX
  8
0
 10
62.64446796
 20
4.95410047
  0
VERTEX
  8
0
 10
62.70986402
 20
5.08228260
  0
VERTEX
  8
0
 10
62.73786242
 20
5.19402126
  0
VERTEX
  8
0
 10
62.74444266
 20
5.40139347
  0
VERTEX
  8
0
 10
62.73111792
 20
5.57973523
  0
VERTEX
  8
0
 10
62.69532622
 20
5.73334165
  0
VERTEX
  8
0
 10
62.63450560
 20
5.86650787
  0
VERTEX
  8
0
 10
62.54609410
 20
5.98352901
  0
VERTEX
  8
0
 10
62.42752976
 20
6.08870021
  0
VERTEX
  8
0
 10
62.27625060
 20
6.18631659
  0
VERTEX
  8
0
 10
62.08969467
 20
6.28067327
  0
VERTEX
  8
0
 10
61.91472607
 20
6.35360519
  0
VERTEX
  8
0
 10
61.75679484
 20
6.40296830
  0
VERTEX
  8
0
 10
61.61336268
 20
6.42855223
  0
VERTEX
  8
0
 10
61.48189133
 20
6.43014661
  0
VERTEX
  8
0
 10
61.35984251
 20
6.40754107
  0
VERTEX
  8
0
 10
61.24467795
 20
6.36052526
  0
VERTEX
  8
0
 10
61.13385937
 20
6.28888880
  0
VERTEX
  8
0
 10
61.02484851
 20
6.19242133
  0
VERTEX
  8
0
 10
60.92765862
 20
6.07962971
  0
VERTEX
  8
0
 10
60.85462047
 20
5.96153114
  0
VERTEX
  8
0
 10
60.80601315
 20
5.84102190
  0
VERTEX
  8
0
 10
60.78211576
 20
5.72099822
  0
VERTEX
  8
0
 10
60.78320738
 20
5.60435639
  0
VERTEX
  8
0
 10
60.80956710
 20
5.49399266
  0
VERTEX
  8
0
 10
60.86147403
 20
5.39280328
  0
VERTEX
  8
0
 10
60.93920725
 20
5.30368453
  0
VERTEX
  8
0
 10
61.02850660
 20
5.24113210
  0
VERTEX
  8
0
 10
61.12895190
 20
5.20138261
  0
VERTEX
  8
0
 10
61.23529792
 20
5.18373057
  0
VERTEX
  8
0
 10
61.34229947
 20
5.18747049
  0
VERTEX
  8
0
 10
61.44471134
 20
5.21189689
  0
VERTEX
  8
0
 10
61.53728832
 20
5.25630429
  0
VERTEX
  8
0
 10
61.61478521
 20
5.31998719
  0
VERTEX
  8
0
 10
61.67195679
 20
5.40224011
  0
VERTEX
  8
0
 10
61.75490867
 20
5.51999322
  0
VERTEX
  8
0
 10
61.79293193
 20
5.54302512
  0
VERTEX
  8
0
 10
61.82208529
 20
5.53629567
  0
VERTEX
  8
0
 10
61.85530138
 20
5.49201238
  0
VERTEX
  8
0
 10
61.87323209
 20
5.44140856
  0
VERTEX
  8
0
 10
61.86397924
 20
5.32366831
  0
VERTEX
  8
0
 10
61.79581055
 20
5.18793283
  0
VERTEX
  8
0
 10
61.67020982
 20
5.03906002
  0
VERTEX
  8
0
 10
61.53879996
 20
4.94024881
  0
VERTEX
  8
0
 10
61.37691839
 20
4.86999357
  0
VERTEX
  8
0
 10
61.19377558
 20
4.82825042
  0
VERTEX
  8
0
 10
60.99858198
 20
4.81497545
  0
VERTEX
  8
0
 10
60.80054806
 20
4.83012475
  0
VERTEX
  8
0
 10
60.60888429
 20
4.87365443
  0
VERTEX
  8
0
 10
60.43280112
 20
4.94552058
  0
VERTEX
  8
0
 10
60.28150904
 20
5.04567930
  0
VERTEX
  8
0
 10
60.13124099
 20
5.20238827
  0
VERTEX
  8
0
 10
60.01451967
 20
5.38791949
  0
VERTEX
  8
0
 10
59.93209166
 20
5.59641940
  0
VERTEX
  8
0
 10
59.88470358
 20
5.82203446
  0
VERTEX
  8
0
 10
59.87310203
 20
6.05891112
  0
VERTEX
  8
0
 10
59.89803362
 20
6.30119583
  0
VERTEX
  8
0
 10
59.96024495
 20
6.54303503
  0
VERTEX
  8
0
 10
60.06048262
 20
6.77857518
  0
VERTEX
  8
0
 10
60.12988079
 20
6.89142568
  0
VERTEX
  8
0
 10
60.22377180
 20
7.01282960
  0
VERTEX
  8
0
 10
60.46555637
 20
7.26337049
  0
VERTEX
  8
0
 10
60.74688440
 20
7.49434342
  0
VERTEX
  8
0
 10
61.02880393
 20
7.66989396
  0
VERTEX
  8
0
 10
61.17057858
 20
7.72636484
  0
VERTEX
  8
0
 10
61.34510995
 20
7.77060676
  0
VERTEX
  8
0
 10
61.54771058
 20
7.80236985
  0
VERTEX
  8
0
 10
61.77369297
 20
7.82140421
  0
VERTEX
  8
0
 10
62.27705319
 20
7.82028726
  0
VERTEX
  8
0
 10
62.81769083
 20
7.76525683
  0
VERTEX
  8
0
 10
63.29168700
 20
7.69360516
  0
VERTEX
  8
0
 10
63.33996742
 20
8.33198316
  0
VERTEX
  8
0
 10
63.37511382
 20
8.63628354
  0
VERTEX
  8
0
 10
63.43322122
 20
8.92873670
  0
VERTEX
  8
0
 10
63.51355149
 20
9.20766302
  0
VERTEX
  8
0
 10
63.61536648
 20
9.47138290
  0
VERTEX
  8
0
 10
63.73792803
 20
9.71821675
  0
VERTEX
  8
0
 10
63.88049800
 20
9.94648495
  0
VERTEX
  8
0
 10
64.04233825
 20
10.15450790
  0
VERTEX
  8
0
 10
64.22271063
 20
10.34060601
  0
VERTEX
  8
0
 10
64.38113107
 20
10.47543268
  0
VERTEX
  8
0
 10
64.55953041
 20
10.60701018
  0
VERTEX
  8
0
 10
64.96843568
 20
10.85761192
  0
VERTEX
  8
0
 10
65.43376630
 20
11.08679981
  0
VERTEX
  8
0
 10
65.93986213
 20
11.28896245
  0
VERTEX
  8
0
 10
66.47106302
 20
11.45848844
  0
VERTEX
  8
0
 10
67.01170883
 20
11.58976635
  0
VERTEX
  8
0
 10
67.54613943
 20
11.67718478
  0
VERTEX
  8
0
 10
68.05869467
 20
11.71513232
  0
VERTEX
  8
0
 10
68.58125746
 20
11.74603733
  0
VERTEX
  8
0
 10
68.75135040
 20
11.77045279
  0
VERTEX
  8
0
 10
68.82703610
 20
11.79725088
  0
VERTEX
  8
0
 10
68.84686834
 20
11.94330756
  0
VERTEX
  8
0
 10
68.85963187
 20
12.27631330
  0
VERTEX
  8
0
 10
68.86548938
 20
13.25259560
  0
VERTEX
  8
0
 10
68.84768194
 20
14.22494512
  0
VERTEX
  8
0
 10
68.83086427
 20
14.55303489
  0
VERTEX
  8
0
 10
68.80928286
 20
14.69220921
  0
VERTEX
  8
0
 10
68.74727689
 20
14.69053435
  0
VERTEX
  8
0
 10
68.61390885
 20
14.65051402
  0
VERTEX
  8
0
 10
68.21154026
 20
14.48290776
  0
VERTEX
  8
0
 10
67.88545225
 20
14.34136106
  0
VERTEX
  8
0
 10
67.56428163
 20
14.22610991
  0
VERTEX
  8
0
 10
67.23877551
 20
14.13567108
  0
VERTEX
  8
0
 10
66.89968100
 20
14.06856136
  0
VERTEX
  8
0
 10
66.53774521
 20
14.02329753
  0
VERTEX
  8
0
 10
66.14371527
 20
13.99839637
  0
VERTEX
  8
0
 10
65.70833827
 20
13.99237468
  0
VERTEX
  8
0
 10
65.22236133
 20
14.00374922
  0
VERTEX
  8
0
 10
64.40885119
 20
14.05584673
  0
VERTEX
  8
0
 10
64.06043662
 20
14.09675332
  0
VERTEX
  8
0
 10
63.74383035
 20
14.14892723
  0
VERTEX
  8
0
 10
63.45371835
 20
14.21339006
  0
VERTEX
  8
0
 10
63.18478661
 20
14.29116337
  0
VERTEX
  8
0
 10
62.93172110
 20
14.38326875
  0
VERTEX
  8
0
 10
62.68920779
 20
14.49072776
  0
VERTEX
  8
0
 10
62.44946849
 20
14.59816179
  0
VERTEX
  8
0
 10
62.34008633
 20
14.63082482
  0
VERTEX
  8
0
 10
62.27401492
 20
13.97524184
  0
VERTEX
  8
0
 10
62.19326823
 20
13.29961577
  0
VERTEX
  8
0
 10
62.13332414
 20
12.98145403
  0
VERTEX
  8
0
 10
62.06027170
 20
12.67627881
  0
VERTEX
  8
0
 10
61.97406501
 20
12.38400436
  0
VERTEX
  8
0
 10
61.87465818
 20
12.10454490
  0
VERTEX
  8
0
 10
61.76200531
 20
11.83781470
  0
VERTEX
  8
0
 10
61.63606052
 20
11.58372797
  0
VERTEX
  8
0
 10
61.49677790
 20
11.34219897
  0
VERTEX
  8
0
 10
61.34411157
 20
11.11314194
  0
VERTEX
  8
0
 10
61.17801562
 20
10.89647111
  0
VERTEX
  8
0
 10
60.99844418
 20
10.69210073
  0
VERTEX
  8
0
 10
60.80535133
 20
10.49994504
  0
VERTEX
  8
0
 10
60.59869119
 20
10.31991828
  0
VERTEX
  8
0
 10
60.37841787
 20
10.15193469
  0
VERTEX
  8
0
 10
60.14448547
 20
9.99590851
  0
VERTEX
  8
0
 10
59.34070213
 20
9.48762133
  0
VERTEX
  8
0
 10
58.87800820
 20
9.16105810
  0
VERTEX
  8
0
 10
58.73293866
 20
9.03233566
  0
VERTEX
  8
0
 10
58.62318414
 20
8.90873943
  0
VERTEX
  8
0
 10
58.53209220
 20
8.77683450
  0
VERTEX
  8
0
 10
58.44301040
 20
8.62318594
  0
VERTEX
  8
0
 10
58.30559734
 20
8.35215084
  0
VERTEX
  8
0
 10
58.26177033
 20
8.23009461
  0
VERTEX
  8
0
 10
58.23131626
 20
8.09859531
  0
VERTEX
  8
0
 10
58.20088665
 20
7.75201574
  0
VERTEX
  8
0
 10
58.19502800
 20
7.20190851
  0
VERTEX
  8
0
 10
58.20169116
 20
6.66639146
  0
VERTEX
  8
0
 10
58.23138898
 20
6.30937609
  0
VERTEX
  8
0
 10
58.29868397
 20
6.03625336
  0
VERTEX
  8
0
 10
58.41813866
 20
5.75241426
  0
VERTEX
  8
0
 10
58.55425300
 20
5.49005205
  0
VERTEX
  8
0
 10
58.70666246
 20
5.24735610
  0
VERTEX
  8
0
 10
58.87408903
 20
5.02489466
  0
VERTEX
  8
0
 10
59.05525469
 20
4.82323602
  0
VERTEX
  8
0
 10
59.24888144
 20
4.64294843
  0
VERTEX
  8
0
 10
59.45369124
 20
4.48460017
  0
VERTEX
  8
0
 10
59.66840610
 20
4.34875950
  0
VERTEX
  8
0
 10
59.89174800
 20
4.23599470
  0
VERTEX
  8
0
 10
60.12243891
 20
4.14687402
  0
VERTEX
  8
0
 10
60.35920083
 20
4.08196575
  0
VERTEX
  8
0
 10
60.60075574
 20
4.04183815
  0
VERTEX
  8
0
 10
60.84582563
 20
4.02705949
  0
VERTEX
  8
0
 10
61.09313248
 20
4.03819803
  0
VERTEX
  8
0
 10
61.34139828
 20
4.07582204
  0
VERTEX
  8
0
 10
61.58934501
 20
4.14049980
  0
VERTEX
  8
0
 10
61.83569467
 20
4.23279957
  0
SEQEND
  0
POLYLINE
  8
Default_Layer
 62
256
 66
   1
 39
0.000000
 70
    1
  0
VERTEX
  8
0
 10
68.15069831
 20
7.47976786
  0
VERTEX
  8
0
 10
68.28817544
 20
7.60666246
  0
VERTEX
  8
0
 10
68.37994104
 20
7.73856590
  0
VERTEX
  8
0
 10
68.42653411
 20
7.87202055
  0
VERTEX
  8
0
 10
68.42849362
 20
8.00356873
  0
VERTEX
  8
0
 10
68.38635855
 20
8.12975279
  0
VERTEX
  8
0
 10
68.30066789
 20
8.24711509
  0
VERTEX
  8
0
 10
68.17196062
 20
8.35219796
  0
VERTEX
  8
0
 10
68.00077572
 20
8.44154374
  0
VERTEX
  8
0
 10
67.85956133
 20
8.48867908
  0
VERTEX
  8
0
 10
67.72049204
 20
8.51302159
  0
VERTEX
  8
0
 10
67.58552799
 20
8.51651083
  0
VERTEX
  8
0
 10
67.45662935
 20
8.50108634
  0
VERTEX
  8
0
 10
67.33575629
 20
8.46868768
  0
VERTEX
  8
0
 10
67.22486895
 20
8.42125442
  0
VERTEX
  8
0
 10
67.12592751
 20
8.36072610
  0
VERTEX
  8
0
 10
67.04089212
 20
8.28904228
  0
VERTEX
  8
0
 10
66.97172294
 20
8.20814251
  0
VERTEX
  8
0
 10
66.92038013
 20
8.11996635
  0
VERTEX
  8
0
 10
66.88882385
 20
8.02645336
  0
VERTEX
  8
0
 10
66.87901426
 20
7.92954309
  0
VERTEX
  8
0
 10
66.89291153
 20
7.83117509
  0
VERTEX
  8
0
 10
66.93247580
 20
7.73328892
  0
VERTEX
  8
0
 10
66.99966725
 20
7.63782414
  0
VERTEX
  8
0
 10
67.09644603
 20
7.54672030
  0
VERTEX
  8
0
 10
67.20505555
 20
7.48008039
  0
VERTEX
  8
0
 10
67.33659905
 20
7.42905329
  0
VERTEX
  8
0
 10
67.48291983
 20
7.39415699
  0
VERTEX
  8
0
 10
67.63586119
 20
7.37590951
  0
VERTEX
  8
0
 10
67.78726642
 20
7.37482884
  0
VERTEX
  8
0
 10
67.92897882
 20
7.39143301
  0
VERTEX
  8
0
 10
68.05284168
 20
7.42624001
  0
VERTEX
  8
0
 10
68.15069831
 20
7.47976786
  0
SEQEND
  0
POLYLINE
  8
Default_Layer
 62
256
 66
   1
 39
0.000000
 70
    1
  0
VERTEX
  8
0
 10
43.67586674
 20
9.07320845
  0
VERTEX
  8
0
 10
44.01609801
 20
9.37073774
  0
VERTEX
  8
0
 10
44.40397172
 20
9.63651595
  0
VERTEX
  8
0
 10
44.82686712
 20
9.86590285
  0
VERTEX
  8
0
 10
45.27216347
 20
10.05425819
  0
VERTEX
  8
0
 10
45.72724005
 20
10.19694172
  0
VERTEX
  8
0
 10
46.17947611
 20
10.28931318
  0
VERTEX
  8
0
 10
46.61625093
 20
10.32673234
  0
VERTEX
  8
0
 10
46.82489639
 20
10.32338472
  0
VERTEX
  8
0
 10
47.02494376
 20
10.30455893
  0
VERTEX
  8
0
 10
47.37772561
 20
10.25620480
  0
VERTEX
  8
0
 10
47.41852408
 20
10.82455666
  0
VERTEX
  8
0
 10
47.44518300
 20
11.07473702
  0
VERTEX
  8
0
 10
47.48872803
 20
11.30394851
  0
VERTEX
  8
0
 10
47.55090439
 20
11.51578872
  0
VERTEX
  8
0
 10
47.63345725
 20
11.71385527
  0
VERTEX
  8
0
 10
47.73813184
 20
11.90174579
  0
VERTEX
  8
0
 10
47.86667334
 20
12.08305789
  0
VERTEX
  8
0
 10
48.02082696
 20
12.26138918
  0
VERTEX
  8
0
 10
48.20233790
 20
12.44033728
  0
VERTEX
  8
0
 10
48.38943588
 20
12.60324874
  0
VERTEX
  8
0
 10
48.56912491
 20
12.73767206
  0
VERTEX
  8
0
 10
48.74865542
 20
12.84645058
  0
VERTEX
  8
0
 10
48.93527782
 20
12.93242761
  0
VERTEX
  8
0
 10
49.13624252
 20
12.99844647
  0
VERTEX
  8
0
 10
49.35879995
 20
13.04735047
  0
VERTEX
  8
0
 10
49.61020053
 20
13.08198294
  0
VERTEX
  8
0
 10
49.89769467
 20
13.10518719
  0
VERTEX
  8
0
 10
50.27940856
 20
13.12079411
  0
VERTEX
  8
0
 10
50.54220214
 20
13.10170301
  0
VERTEX
  8
0
 10
50.76816519
 20
13.03320226
  0
VERTEX
  8
0
 10
51.03938748
 20
12.90058026
  0
VERTEX
  8
0
 10
51.26926522
 20
12.76246589
  0
VERTEX
  8
0
 10
51.46794902
 20
12.60719657
  0
VERTEX
  8
0
 10
51.63560642
 20
12.43449723
  0
VERTEX
  8
0
 10
51.77240496
 20
12.24409283
  0
VERTEX
  8
0
 10
51.87851218
 20
12.03570830
  0
VERTEX
  8
0
 10
51.95409563
 20
11.80906858
  0
VERTEX
  8
0
 10
51.99932283
 20
11.56389863
  0
VERTEX
  8
0
 10
52.01436133
 20
11.29992337
  0
VERTEX
  8
0
 10
52.00573878
 20
11.03424123
  0
VERTEX
  8
0
 10
51.97651922
 20
10.83203315
  0
VERTEX
  8
0
 10
51.92167483
 20
10.67161029
  0
VERTEX
  8
0
 10
51.83617775
 20
10.53128382
  0
VERTEX
  8
0
 10
51.65256323
 20
10.33407387
  0
VERTEX
  8
0
 10
51.42773526
 20
10.17215385
  0
VERTEX
  8
0
 10
51.17197709
 20
10.04783516
  0
VERTEX
  8
0
 10
50.89557197
 20
9.96342924
  0
VERTEX
  8
0
 10
50.60880313
 20
9.92124750
  0
VERTEX
  8
0
 10
50.32195383
 20
9.92360137
  0
VERTEX
  8
0
 10
50.04530731
 20
9.97280226
  0
VERTEX
  8
0
 10
49.78914682
 20
10.07116159
  0
VERTEX
  8
0
 10
49.63662262
 20
10.16224590
  0
VERTEX
  8
0
 10
49.50813965
 20
10.26608335
  0
VERTEX
  8
0
 10
49.40338122
 20
10.38054576
  0
VERTEX
  8
0
 10
49.32203069
 20
10.50350495
  0
VERTEX
  8
0
 10
49.26377139
 20
10.63283274
  0
VERTEX
  8
0
 10
49.22828665
 20
10.76640094
  0
VERTEX
  8
0
 10
49.21525981
 20
10.90208137
  0
VERTEX
  8
0
 10
49.22437422
 20
11.03774585
  0
VERTEX
  8
0
 10
49.25531319
 20
11.17126620
  0
VERTEX
  8
0
 10
49.30776008
 20
11.30051424
  0
VERTEX
  8
0
 10
49.38139822
 20
11.42336178
  0
VERTEX
  8
0
 10
49.47591095
 20
11.53768064
  0
VERTEX
  8
0
 10
49.59098160
 20
11.64134264
  0
VERTEX
  8
0
 10
49.72629351
 20
11.73221960
  0
VERTEX
  8
0
 10
49.88153002
 20
11.80818333
  0
VERTEX
  8
0
 10
50.05637447
 20
11.86710566
  0
VERTEX
  8
0
 10
50.18794022
 20
11.91011476
  0
VERTEX
  8
0
 10
50.26778945
 20
11.95289377
  0
VERTEX
  8
0
 10
50.29788388
 20
11.99376817
  0
VERTEX
  8
0
 10
50.28018525
 20
12.03106341
  0
VERTEX
  8
0
 10
50.21665529
 20
12.06310497
  0
VERTEX
  8
0
 10
50.10925572
 20
12.08821831
  0
VERTEX
  8
0
 10
49.77069467
 20
12.11096221
  0
VERTEX
  8
0
 10
49.50332068
 20
12.08665610
  0
VERTEX
  8
0
 10
49.25961883
 20
12.01485161
  0
VERTEX
  8
0
 10
49.04328416
 20
11.89936452
  0
VERTEX
  8
0
 10
48.85801171
 20
11.74401058
  0
VERTEX
  8
0
 10
48.70749652
 20
11.55260558
  0
VERTEX
  8
0
 10
48.59543364
 20
11.32896527
  0
VERTEX
  8
0
 10
48.52551809
 20
11.07690544
  0
VERTEX
  8
0
 10
48.50144493
 20
10.80024184
  0
VERTEX
  8
0
 10
48.52225913
 20
10.55236849
  0
VERTEX
  8
0
 10
48.58242267
 20
10.31837302
  0
VERTEX
  8
0
 10
48.67872835
 20
10.09971512
  0
VERTEX
  8
0
 10
48.80796897
 20
9.89785445
  0
VERTEX
  8
0
 10
48.96693733
 20
9.71425069
  0
VERTEX
  8
0
 10
49.15242623
 20
9.55036350
  0
VERTEX
  8
0
 10
49.36122848
 20
9.40765257
  0
VERTEX
  8
0
 10
49.59013687
 20
9.28757757
  0
VERTEX
  8
0
 10
49.83594421
 20
9.19159816
  0
VERTEX
  8
0
 10
50.09544329
 20
9.12117402
  0
VERTEX
  8
0
 10
50.36542692
 20
9.07776482
  0
VERTEX
  8
0
 10
50.64268790
 20
9.06283023
  0
VERTEX
  8
0
 10
50.92401903
 20
9.07782994
  0
VERTEX
  8
0
 10
51.20621311
 20
9.12422360
  0
VERTEX
  8
0
 10
51.48606295
 20
9.20347089
  0
VERTEX
  8
0
 10
51.76036133
 20
9.31703149
  0
VERTEX
  8
0
 10
51.98191929
 20
9.43771703
  0
VERTEX
  8
0
 10
52.19812936
 20
9.58086568
  0
VERTEX
  8
0
 10
52.40492999
 20
9.74248663
  0
VERTEX
  8
0
 10
52.59825960
 20
9.91858907
  0
VERTEX
  8
0
 10
52.77405662
 20
10.10518220
  0
VERTEX
  8
0
 10
52.92825949
 20
10.29827522
  0
VERTEX
  8
0
 10
53.05680664
 20
10.49387731
  0
VERTEX
  8
0
 10
53.15563650
 20
10.68799768
  0
VERTEX
  8
0
 10
53.25299587
 20
10.93559135
  0
VERTEX
  8
0
 10
53.29640668
 20
11.13363456
  0
VERTEX
  8
0
 10
53.29194862
 20
11.34621733
  0
VERTEX
  8
0
 10
53.24570141
 20
11.63742969
  0
VERTEX
  8
0
 10
53.21311432
 20
11.87980752
  0
VERTEX
  8
0
 10
53.20393234
 20
12.12476155
  0
VERTEX
  8
0
 10
53.21743263
 20
12.37096847
  0
VERTEX
  8
0
 10
53.25289235
 20
12.61710498
  0
VERTEX
  8
0
 10
53.30958866
 20
12.86184779
  0
VERTEX
  8
0
 10
53.38679871
 20
13.10387360
  0
VERTEX
  8
0
 10
53.48379967
 20
13.34185911
  0
VERTEX
  8
0
 10
53.59986869
 20
13.57448102
  0
VERTEX
  8
0
 10
53.73428294
 20
13.80041604
  0
VERTEX
  8
0
 10
53.88631956
 20
14.01834086
  0
VERTEX
  8
0
 10
54.05525572
 20
14.22693220
  0
VERTEX
  8
0
 10
54.24036858
 20
14.42486674
  0
VERTEX
  8
0
 10
54.44093529
 20
14.61082120
  0
VERTEX
  8
0
 10
54.65623302
 20
14.78347228
  0
VERTEX
  8
0
 10
54.88553893
 20
14.94149668
  0
VERTEX
  8
0
 10
55.12813016
 20
15.08357109
  0
VERTEX
  8
0
 10
55.43698753
 20
15.23709012
  0
VERTEX
  8
0
 10
55.70874614
 20
15.32666409
  0
VERTEX
  8
0
 10
56.03788458
 20
15.37378550
  0
VERTEX
  8
0
 10
56.51888141
 20
15.39994687
  0
VERTEX
  8
0
 10
56.89904940
 20
15.40406551
  0
VERTEX
  8
0
 10
57.25396304
 20
15.38560855
  0
VERTEX
  8
0
 10
57.58520676
 20
15.34416930
  0
VERTEX
  8
0
 10
57.89436498
 20
15.27934104
  0
VERTEX
  8
0
 10
58.18302212
 20
15.19071708
  0
VERTEX
  8
0
 10
58.45276260
 20
15.07789071
  0
VERTEX
  8
0
 10
58.70517084
 20
14.94045523
  0
VERTEX
  8
0
 10
58.94183127
 20
14.77800393
  0
VERTEX
  8
0
 10
59.11045326
 20
14.64058847
  0
VERTEX
  8
0
 10
59.25014364
 20
14.50647386
  0
VERTEX
  8
0
 10
59.36289001
 20
14.37194633
  0
VERTEX
  8
0
 10
59.45067997
 20
14.23329208
  0
VERTEX
  8
0
 10
59.51550115
 20
14.08679735
  0
VERTEX
  8
0
 10
59.55934114
 20
13.92874834
  0
VERTEX
  8
0
 10
59.58418755
 20
13.75543127
  0
VERTEX
  8
0
 10
59.59202800
 20
13.56313237
  0
VERTEX
  8
0
 10
59.58335420
 20
13.36141982
  0
VERTEX
  8
0
 10
59.55762151
 20
13.16983147
  0
VERTEX
  8
0
 10
59.51526297
 20
12.98876602
  0
VERTEX
  8
0
 10
59.45671161
 20
12.81862219
  0
VERTEX
  8
0
 10
59.38240049
 20
12.65979866
  0
VERTEX
  8
0
 10
59.29276266
 20
12.51269414
  0
VERTEX
  8
0
 10
59.18823114
 20
12.37770733
  0
VERTEX
  8
0
 10
59.06923899
 20
12.25523693
  0
VERTEX
  8
0
 10
58.93621925
 20
12.14568163
  0
VERTEX
  8
0
 10
58.78960497
 20
12.04944015
  0
VERTEX
  8
0
 10
58.62982918
 20
11.96691118
  0
VERTEX
  8
0
 10
58.45732493
 20
11.89849342
  0
VERTEX
  8
0
 10
58.27252527
 20
11.84458557
  0
VERTEX
  8
0
 10
58.07586324
 20
11.80558634
  0
VERTEX
  8
0
 10
57.86777189
 20
11.78189442
  0
VERTEX
  8
0
 10
57.64868425
 20
11.77390851
  0
VERTEX
  8
0
 10
57.32430412
 20
11.80001758
  0
VERTEX
  8
0
 10
57.01410191
 20
11.87413045
  0
VERTEX
  8
0
 10
56.72702499
 20
11.98992560
  0
VERTEX
  8
0
 10
56.47202073
 20
12.14108150
  0
VERTEX
  8
0
 10
56.25803652
 20
12.32127663
  0
VERTEX
  8
0
 10
56.09401971
 20
12.52418947
  0
VERTEX
  8
0
 10
56.03354514
 20
12.63218955
  0
VERTEX
  8
0
 10
55.98891769
 20
12.74349849
  0
VERTEX
  8
0
 10
55.96125577
 20
12.85732610
  0
VERTEX
  8
0
 10
55.95167782
 20
12.97288218
  0
VERTEX
  8
0
 10
55.96968458
 20
13.06834187
  0
VERTEX
  8
0
 10
56.01926248
 20
13.17494743
  0
VERTEX
  8
0
 10
56.09337956
 20
13.28534047
  0
VERTEX
  8
0
 10
56.18500380
 20
13.39216265
  0
VERTEX
  8
0
 10
56.28710323
 20
13.48805557
  0
VERTEX
  8
0
 10
56.39264586
 20
13.56566088
  0
VERTEX
  8
0
 10
56.49459969
 20
13.61762021
  0
VERTEX
  8
0
 10
56.58593273
 20
13.63657518
  0
VERTEX
  8
0
 10
56.71107203
 20
13.65381411
  0
VERTEX
  8
0
 10
56.85244459
 20
13.69526092
  0
VERTEX
  8
0
 10
56.92481810
 20
13.71703798
  0
VERTEX
  8
0
 10
56.94128788
 20
13.71419428
  0
VERTEX
  8
0
 10
56.94429865
 20
13.70059096
  0
VERTEX
  8
0
 10
56.90900001
 20
13.63629108
  0
VERTEX
  8
0
 10
56.81703593
 20
13.51450955
  0
VERTEX
  8
0
 10
56.69492877
 20
13.32169837
  0
VERTEX
  8
0
 10
56.63643919
 20
13.14007542
  0
VERTEX
  8
0
 10
56.63863841
 20
12.97411603
  0
VERTEX
  8
0
 10
56.66158109
 20
12.89840870
  0
VERTEX
  8
0
 10
56.69859767
 20
12.82829551
  0
VERTEX
  8
0
 10
56.81338818
 20
12.70708917
  0
VERTEX
  8
0
 10
56.98008118
 20
12.61497235
  0
VERTEX
  8
0
 10
57.19574789
 20
12.55642036
  0
VERTEX
  8
0
 10
57.45745953
 20
12.53590851
  0
VERTEX
  8
0
 10
57.71015906
 20
12.54482442
  0
VERTEX
  8
0
 10
57.88737045
 20
12.58367316
  0
VERTEX
  8
0
 10
58.03613517
 20
12.67060624
  0
VERTEX
  8
0
 10
58.20349467
 20
12.82377518
  0
VERTEX
  8
0
 10
58.32277816
 20
12.96038102
  0
VERTEX
  8
0
 10
58.41146856
 20
13.09977958
  0
VERTEX
  8
0
 10
58.46939406
 20
13.23991077
  0
VERTEX
  8
0
 10
58.49638285
 20
13.37871445
  0
VERTEX
  8
0
 10
58.49226313
 20
13.51413053
  0
VERTEX
  8
0
 10
58.45686309
 20
13.64409887
  0
VERTEX
  8
0
 10
58.39001092
 20
13.76655938
  0
VERTEX
  8
0
 10
58.29153482
 20
13.87945193
  0
VERTEX
  8
0
 10
58.08883252
 20
14.03364128
  0
VERTEX
  8
0
 10
57.84138877
 20
14.16283028
  0
VERTEX
  8
0
 10
57.56004083
 20
14.26500747
  0
VERTEX
  8
0
 10
57.25562598
 20
14.33816138
  0
VERTEX
  8
0
 10
56.93898149
 20
14.38028052
  0
VERTEX
  8
0
 10
56.62094462
 20
14.38935342
  0
VERTEX
  8
0
 10
56.31235263
 20
14.36336861
  0
VERTEX
  8
0
 10
56.02404280
 20
14.30031462
  0
VERTEX
  8
0
 10
55.77755705
 20
14.19948613
  0
VERTEX
  8
0
 10
55.53683957
 20
14.05131609
  0
VERTEX
  8
0
 10
55.31024203
 20
13.86564077
  0
VERTEX
  8
0
 10
55.10611607
 20
13.65229646
  0
VERTEX
  8
0
 10
54.93281336
 20
13.42111942
  0
VERTEX
  8
0
 10
54.79868556
 20
13.18194591
  0
VERTEX
  8
0
 10
54.71208433
 20
12.94461223
  0
VERTEX
  8
0
 10
54.68136133
 20
12.71895463
  0
VERTEX
  8
0
 10
54.70363174
 20
12.48656068
  0
VERTEX
  8
0
 10
54.76813926
 20
12.25751416
  0
VERTEX
  8
0
 10
54.87142837
 20
12.03392772
  0
VERTEX
  8
0
 10
55.01004351
 20
11.81791403
  0
VERTEX
  8
0
 10
55.18052916
 20
11.61158573
  0
VERTEX
  8
0
 10
55.37942976
 20
11.41705547
  0
VERTEX
  8
0
 10
55.60328978
 20
11.23643592
  0
VERTEX
  8
0
 10
55.84865367
 20
11.07183973
  0
VERTEX
  8
0
 10
56.11206591
 20
10.92537954
  0
VERTEX
  8
0
 10
56.39007094
 20
10.79916801
  0
VERTEX
  8
0
 10
56.67921322
 20
10.69531780
  0
VERTEX
  8
0
 10
56.97603723
 20
10.61594157
  0
VERTEX
  8
0
 10
57.27708741
 20
10.56315195
  0
VERTEX
  8
0
 10
57.57890822
 20
10.53906162
  0
VERTEX
  8
0
 10
57.87804414
 20
10.54578322
  0
VERTEX
  8
0
 10
58.17103960
 20
10.58542940
  0
VERTEX
  8
0
 10
58.48348118
 20
10.66013469
  0
VERTEX
  8
0
 10
58.77907809
 20
10.75800669
  0
VERTEX
  8
0
 10
59.05784138
 20
10.87906017
  0
VERTEX
  8
0
 10
59.31978210
 20
11.02330988
  0
VERTEX
  8
0
 10
59.56491132
 20
11.19077057
  0
VERTEX
  8
0
 10
59.79324006
 20
11.38145699
  0
VERTEX
  8
0
 10
60.00477940
 20
11.59538390
  0
VERTEX
  8
0
 10
60.19954037
 20
11.83256605
  0
VERTEX
  8
0
 10
60.37753403
 20
12.09301819
  0
VERTEX
  8
0
 10
60.53877143
 20
12.37675508
  0
VERTEX
  8
0
 10
60.68326362
 20
12.68379146
  0
VERTEX
  8
0
 10
60.81102165
 20
13.01414210
  0
VERTEX
  8
0
 10
60.92205658
 20
13.36782175
  0
VERTEX
  8
0
 10
61.01637945
 20
13.74484515
  0
VERTEX
  8
0
 10
61.09400131
 20
14.14522707
  0
VERTEX
  8
0
 10
61.15493322
 20
14.56898225
  0
VERTEX
  8
0
 10
61.21104393
 20
15.03357518
  0
VERTEX
  8
0
 10
60.34572702
 20
15.96490851
  0
VERTEX
  8
0
 10
60.03543634
 20
16.30941704
  0
VERTEX
  8
0
 10
59.76791100
 20
16.62973701
  0
VERTEX
  8
0
 10
59.54107685
 20
16.92922415
  0
VERTEX
  8
0
 10
59.35285969
 20
17.21123421
  0
VERTEX
  8
0
 10
59.20118535
 20
17.47912292
  0
VERTEX
  8
0
 10
59.08397966
 20
17.73624601
  0
VERTEX
  8
0
 10
58.99916844
 20
17.98595924
  0
VERTEX
  8
0
 10
58.94467751
 20
18.23161832
  0
VERTEX
  8
0
 10
58.88883163
 20
18.46889704
  0
VERTEX
  8
0
 10
58.85708617
 20
18.55019836
  0
VERTEX
  8
0
 10
58.82790132
 20
18.59088953
  0
VERTEX
  8
0
 10
58.77728984
 20
18.59570547
  0
VERTEX
  8
0
 10
58.68720453
 20
18.57932669
  0
VERTEX
  8
0
 10
58.43957966
 20
18.49550426
  0
VERTEX
  8
0
 10
58.30056375
 20
18.45169921
  0
VERTEX
  8
0
 10
58.13041497
 20
18.42051384
  0
VERTEX
  8
0
 10
57.73866376
 20
18.39594054
  0
VERTEX
  8
0
 10
57.34821605
 20
18.42166130
  0
VERTEX
  8
0
 10
57.17969664
 20
18.45334349
  0
VERTEX
  8
0
 10
57.04296186
 20
18.49755305
  0
VERTEX
  8
0
 10
56.97424873
 20
18.51097749
  0
VERTEX
  8
0
 10
56.91390052
 20
18.48511454
  0
VERTEX
  8
0
 10
56.85776297
 20
18.41659832
  0
VERTEX
  8
0
 10
56.80168182
 20
18.30206296
  0
VERTEX
  8
0
 10
56.72648291
 20
18.16186025
  0
VERTEX
  8
0
 10
56.60993456
 20
17.99660806
  0
VERTEX
  8
0
 10
56.28723071
 20
17.62664193
  0
VERTEX
  8
0
 10
55.90245247
 20
17.26353810
  0
VERTEX
  8
0
 10
55.70831115
 20
17.10686376
  0
VERTEX
  8
0
 10
55.52448206
 20
16.97867006
  0
VERTEX
  8
0
 10
55.11827059
 20
16.75443243
  0
VERTEX
  8
0
 10
54.66346058
 20
16.56045778
  0
VERTEX
  8
0
 10
54.17217593
 20
16.39923518
  0
VERTEX
  8
0
 10
53.65654051
 20
16.27325370
  0
VERTEX
  8
0
 10
53.12867821
 20
16.18500240
  0
VERTEX
  8
0
 10
52.60071291
 20
16.13697033
  0
VERTEX
  8
0
 10
52.08476851
 20
16.13164658
  0
VERTEX
  8
0
 10
51.59296888
 20
16.17152021
  0
VERTEX
  8
0
 10
51.19209832
 20
16.23441893
  0
VERTEX
  8
0
 10
50.80855360
 20
16.31400061
  0
VERTEX
  8
0
 10
50.44264760
 20
16.41004813
  0
VERTEX
  8
0
 10
50.09469318
 20
16.52234434
  0
VERTEX
  8
0
 10
49.76500322
 20
16.65067213
  0
VERTEX
  8
0
 10
49.45389057
 20
16.79481438
  0
VERTEX
  8
0
 10
49.16166811
 20
16.95455394
  0
VERTEX
  8
0
 10
48.88864870
 20
17.12967370
  0
VERTEX
  8
0
 10
48.63514521
 20
17.31995653
  0
VERTEX
  8
0
 10
48.40147050
 20
17.52518530
  0
VERTEX
  8
0
 10
48.18793744
 20
17.74514288
  0
VERTEX
  8
0
 10
47.99485891
 20
17.97961215
  0
VERTEX
  8
0
 10
47.82254775
 20
18.22837598
  0
VERTEX
  8
0
 10
47.67131686
 20
18.49121724
  0
VERTEX
  8
0
 10
47.54147908
 20
18.76791881
  0
VERTEX
  8
0
 10
47.43334728
 20
19.05826356
  0
VERTEX
  8
0
 10
47.28485042
 20
19.51226659
  0
VERTEX
  8
0
 10
47.10960587
 20
19.27097225
  0
VERTEX
  8
0
 10
46.58603324
 20
18.57162334
  0
VERTEX
  8
0
 10
46.11283121
 20
17.98896174
  0
VERTEX
  8
0
 10
45.67827286
 20
17.51316280
  0
VERTEX
  8
0
 10
45.27063129
 20
17.13440184
  0
VERTEX
  8
0
 10
45.07323964
 20
16.97834040
  0
VERTEX
  8
0
 10
44.87817960
 20
16.84285422
  0
VERTEX
  8
0
 10
44.68398529
 20
16.72671519
  0
VERTEX
  8
0
 10
44.48919087
 20
16.62869525
  0
VERTEX
  8
0
 10
44.29233045
 20
16.54756631
  0
VERTEX
  8
0
 10
44.09193819
 20
16.48210029
  0
VERTEX
  8
0
 10
43.67469467
 20
16.39324467
  0
VERTEX
  8
0
 10
43.29369467
 20
16.33734185
  0
VERTEX
  8
0
 10
43.60221789
 20
16.65912518
  0
VERTEX
  8
0
 10
43.82933216
 20
16.92348471
  0
VERTEX
  8
0
 10
44.01755361
 20
17.20394256
  0
VERTEX
  8
0
 10
44.16790652
 20
17.50410890
  0
VERTEX
  8
0
 10
44.28141516
 20
17.82759393
  0
VERTEX
  8
0
 10
44.35910381
 20
18.17800782
  0
VERTEX
  8
0
 10
44.40199674
 20
18.55896078
  0
VERTEX
  8
0
 10
44.41111823
 20
18.97406298
  0
VERTEX
  8
0
 10
44.38749256
 20
19.42692461
  0
VERTEX
  8
0
 10
44.34199749
 20
20.17110097
  0
VERTEX
  8
0
 10
44.33340871
 20
20.75827100
  0
VERTEX
  8
0
 10
44.35110167
 20
21.23363348
  0
VERTEX
  8
0
 10
43.83386560
 20
21.34339845
  0
VERTEX
  8
0
 10
43.61028753
 20
21.40256675
  0
VERTEX
  8
0
 10
43.39487357
 20
21.48062716
  0
VERTEX
  8
0
 10
43.20857142
 20
21.56890584
  0
VERTEX
  8
0
 10
43.07232876
 20
21.65872896
  0
VERTEX
  8
0
 10
42.82802800
 20
21.86429450
  0
VERTEX
  8
0
 10
42.82802800
 20
17.41791329
  0
VERTEX
  8
0
 10
42.82802800
 20
12.97153208
  0
VERTEX
  8
0
 10
43.04873012
 20
12.79792777
  0
VERTEX
  8
0
 10
43.36599339
 20
12.58443098
  0
VERTEX
  8
0
 10
43.72144799
 20
12.40722908
  0
VERTEX
  8
0
 10
44.10049655
 20
12.26912106
  0
VERTEX
  8
0
 10
44.48854166
 20
12.17290592
  0
VERTEX
  8
0
 10
44.87098596
 20
12.12138265
  0
VERTEX
  8
0
 10
45.23323205
 20
12.11735023
  0
VERTEX
  8
0
 10
45.56068256
 20
12.16360768
  0
VERTEX
  8
0
 10
45.70679779
 20
12.20646978
  0
VERTEX
  8
0
 10
45.83874010
 20
12.26295396
  0
VERTEX
  8
0
 10
45.98623854
 20
12.34676664
  0
VERTEX
  8
0
 10
46.12147571
 20
12.44073150
  0
VERTEX
  8
0
 10
46.35349803
 20
12.65431328
  0
VERTEX
  8
0
 10
46.53147067
 20
12.89409035
  0
VERTEX
  8
0
 10
46.65205722
 20
13.15045375
  0
VERTEX
  8
0
 10
46.68978809
 20
13.28185252
  0
VERTEX
  8
0
 10
46.71192128
 20
13.41379453
  0
VERTEX
  8
0
 10
46.71803976
 20
13.54507863
  0
VERTEX
  8
0
 10
46.70772646
 20
13.67450373
  0
VERTEX
  8
0
 10
46.68056434
 20
13.80086869
  0
VERTEX
  8
0
 10
46.63613635
 20
13.92297240
  0
VERTEX
  8
0
 10
46.57402543
 20
14.03961375
  0
VERTEX
  8
0
 10
46.49381454
 20
14.14959160
  0
VERTEX
  8
0
 10
46.38047133
 20
14.27018572
  0
VERTEX
  8
0
 10
46.25873240
 20
14.37367733
  0
VERTEX
  8
0
 10
46.12997729
 20
14.46012646
  0
VERTEX
  8
0
 10
45.99558550
 20
14.52959317
  0
VERTEX
  8
0
 10
45.85693658
 20
14.58213752
  0
VERTEX
  8
0
 10
45.71541002
 20
14.61781954
  0
VERTEX
  8
0
 10
45.57238537
 20
14.63669929
  0
VERTEX
  8
0
 10
45.42924213
 20
14.63883682
  0
VERTEX
  8
0
 10
45.28735983
 20
14.62429219
  0
VERTEX
  8
0
 10
45.14811800
 20
14.59312543
  0
VERTEX
  8
0
 10
45.01289614
 20
14.54539661
  0
VERTEX
  8
0
 10
44.88307379
 20
14.48116576
  0
VERTEX
  8
0
 10
44.76003046
 20
14.40049295
  0
VERTEX
  8
0
 10
44.64514569
 20
14.30343823
  0
VERTEX
  8
0
 10
44.53979897
 20
14.19006163
  0
VERTEX
  8
0
 10
44.44536985
 20
14.06042322
  0
VERTEX
  8
0
 10
44.30969467
 20
13.84927126
  0
VERTEX
  8
0
 10
44.55394603
 20
14.03925655
  0
VERTEX
  8
0
 10
44.69096508
 20
14.12321584
  0
VERTEX
  8
0
 10
44.85082557
 20
14.18422135
  0
VERTEX
  8
0
 10
45.02462933
 20
14.22212457
  0
VERTEX
  8
0
 10
45.20347819
 20
14.23677698
  0
VERTEX
  8
0
 10
45.37847399
 20
14.22803009
  0
VERTEX
  8
0
 10
45.54071856
 20
14.19573538
  0
VERTEX
  8
0
 10
45.68131373
 20
14.13974436
  0
VERTEX
  8
0
 10
45.79136133
 20
14.05990851
  0
VERTEX
  8
0
 10
45.86780454
 20
13.96449322
  0
VERTEX
  8
0
 10
45.92071927
 20
13.85718795
  0
VERTEX
  8
0
 10
45.95026207
 20
13.74162474
  0
VERTEX
  8
0
 10
45.95658949
 20
13.62143559
  0
VERTEX
  8
0
 10
45.93985810
 20
13.50025252
  0
VERTEX
  8
0
 10
45.90022443
 20
13.38170756
  0
VERTEX
  8
0
 10
45.83784504
 20
13.26943272
  0
VERTEX
  8
0
 10
45.75287648
 20
13.16706002
  0
VERTEX
  8
0
 10
45.63148160
 20
13.06452557
  0
VERTEX
  8
0
 10
45.50056972
 20
13.00087283
  0
VERTEX
  8
0
 10
45.33638138
 20
12.96835915
  0
VERTEX
  8
0
 10
45.11515711
 20
12.95924184
  0
VERTEX
  8
0
 10
44.91912581
 20
12.96664204
  0
VERTEX
  8
0
 10
44.73772771
 20
12.98910487
  0
VERTEX
  8
0
 10
44.57001527
 20
13.02702370
  0
VERTEX
  8
0
 10
44.41504098
 20
13.08079189
  0
VERTEX
  8
0
 10
44.27185731
 20
13.15080279
  0
VERTEX
  8
0
 10
44.13951674
 20
13.23744978
  0
VERTEX
  8
0
 10
44.01707174
 20
13.34112620
  0
VERTEX
  8
0
 10
43.90357479
 20
13.46222542
  0
VERTEX
  8
0
 10
43.79944523
 20
13.60442948
  0
VERTEX
  8
0
 10
43.72642130
 20
13.74670265
  0
VERTEX
  8
0
 10
43.68450923
 20
13.88923226
  0
VERTEX
  8
0
 10
43.67371527
 20
14.03220566
  0
VERTEX
  8
0
 10
43.69404563
 20
14.17581018
  0
VERTEX
  8
0
 10
43.74550656
 20
14.32023316
  0
VERTEX
  8
0
 10
43.82810430
 20
14.46566193
  0
VERTEX
  8
0
 10
43.94184506
 20
14.61228384
  0
VERTEX
  8
0
 10
44.09104766
 20
14.76508486
  0
VERTEX
  8
0
 10
44.25299420
 20
14.89935062
  0
VERTEX
  8
0
 10
44.42600415
 20
15.01498647
  0
VERTEX
  8
0
 10
44.60839702
 20
15.11189775
  0
VERTEX
  8
0
 10
44.79849229
 20
15.18998982
  0
VERTEX
  8
0
 10
44.99460944
 20
15.24916803
  0
VERTEX
  8
0
 10
45.19506797
 20
15.28933773
  0
VERTEX
  8
0
 10
45.39818735
 20
15.31040427
  0
VERTEX
  8
0
 10
45.60228710
 20
15.31227300
  0
VERTEX
  8
0
 10
45.80568668
 20
15.29484927
  0
VERTEX
  8
0
 10
46.00670558
 20
15.25803844
  0
VERTEX
  8
0
 10
46.20366331
 20
15.20174584
  0
VERTEX
  8
0
 10
46.39487933
 20
15.12587685
  0
VERTEX
  8
0
 10
46.57867315
 20
15.03033679
  0
VERTEX
  8
0
 10
46.75336425
 20
14.91503103
  0
VERTEX
  8
0
 10
46.91727212
 20
14.77986492
  0
VERTEX
  8
0
 10
47.04992745
 20
14.64638857
  0
VERTEX
  8
0
 10
47.16422788
 20
14.50729106
  0
VERTEX
  8
0
 10
47.26061843
 20
14.36321890
  0
VERTEX
  8
0
 10
47.33954410
 20
14.21481860
  0
VERTEX
  8
0
 10
47.40144990
 20
14.06273669
  0
VERTEX
  8
0
 10
47.44678083
 20
13.90761967
  0
VERTEX
  8
0
 10
47.47598190
 20
13.75011407
  0
VERTEX
  8
0
 10
47.48949812
 20
13.59086639
  0
VERTEX
  8
0
 10
47.47125604
 20
13.26973090
  0
VERTEX
  8
0
 10
47.39561463
 20
12.94938530
  0
VERTEX
  8
0
 10
47.26613397
 20
12.63500174
  0
VERTEX
  8
0
 10
47.08637409
 20
12.33175234
  0
VERTEX
  8
0
 10
46.85989506
 20
12.04480922
  0
VERTEX
  8
0
 10
46.59025694
 20
11.77934451
  0
VERTEX
  8
0
 10
46.28101978
 20
11.54053033
  0
VERTEX
  8
0
 10
45.93574364
 20
11.33353881
  0
VERTEX
  8
0
 10
45.55798857
 20
11.16354207
  0
VERTEX
  8
0
 10
45.15131463
 20
11.03571225
  0
VERTEX
  8
0
 10
44.71928188
 20
10.95522147
  0
VERTEX
  8
0
 10
44.26545038
 20
10.92724184
  0
VERTEX
  8
0
 10
44.01403704
 20
10.93701794
  0
VERTEX
  8
0
 10
43.74630727
 20
10.96363603
  0
VERTEX
  8
0
 10
43.49427016
 20
11.00303080
  0
VERTEX
  8
0
 10
43.28993481
 20
11.05113695
  0
VERTEX
  8
0
 10
42.99418801
 20
11.13333222
  0
VERTEX
  8
0
 10
42.86123002
 20
11.15697028
  0
VERTEX
  8
0
 10
42.81494603
 20
9.58653975
  0
VERTEX
  8
0
 10
42.78569467
 20
8.03417098
  0
VERTEX
  8
0
 10
42.99336832
 20
8.31653975
  0
VERTEX
  8
0
 10
43.27951761
 20
8.65528829
  0
VERTEX
  8
0
 10
43.67586674
 20
9.07320845
  0
SEQEND
  0
POLYLINE
  8
Default_Layer
 62
256
 66
   1
 39
0.000000
 70
    1
  0
VERTEX
  8
0
 10
66.87961233
 20
16.85599235
  0
VERTEX
  8
0
 10
67.15621601
 20
16.95701693
  0
VERTEX
  8
0
 10
67.41388624
 20
17.07591447
  0
VERTEX
  8
0
 10
67.65168849
 20
17.21195819
  0
VERTEX
  8
0
 10
67.86868824
 20
17.36442131
  0
VERTEX
  8
0
 10
68.06395096
 20
17.53257703
  0
VERTEX
  8
0
 10
68.23654211
 20
17.71569856
  0
VERTEX
  8
0
 10
68.38552716
 20
17.91305911
  0
VERTEX
  8
0
 10
68.50997158
 20
18.12393190
  0
VERTEX
  8
0
 10
68.63426799
 20
18.38646443
  0
VERTEX
  8
0
 10
68.70176994
 20
18.60448251
  0
VERTEX
  8
0
 10
68.72417810
 20
18.83656046
  0
VERTEX
  8
0
 10
68.71319314
 20
19.14127257
  0
VERTEX
  8
0
 10
68.66593460
 20
19.51291643
  0
VERTEX
  8
0
 10
68.57527318
 20
19.86409797
  0
VERTEX
  8
0
 10
68.44243969
 20
20.19296308
  0
VERTEX
  8
0
 10
68.26866497
 20
20.49765768
  0
VERTEX
  8
0
 10
68.05517983
 20
20.77632768
  0
VERTEX
  8
0
 10
67.80321507
 20
21.02711898
  0
VERTEX
  8
0
 10
67.51400153
 20
21.24817748
  0
VERTEX
  8
0
 10
67.18877003
 20
21.43764910
  0
VERTEX
  8
0
 10
66.86077762
 20
21.58161275
  0
VERTEX
  8
0
 10
66.53598830
 20
21.68086021
  0
VERTEX
  8
0
 10
66.21471475
 20
21.73540385
  0
VERTEX
  8
0
 10
65.89726967
 20
21.74525607
  0
VERTEX
  8
0
 10
65.58396576
 20
21.71042924
  0
VERTEX
  8
0
 10
65.27511571
 20
21.63093574
  0
VERTEX
  8
0
 10
64.97103223
 20
21.50678795
  0
VERTEX
  8
0
 10
64.67202800
 20
21.33799825
  0
VERTEX
  8
0
 10
64.47906616
 20
21.20171177
  0
VERTEX
  8
0
 10
64.31359896
 20
21.05908245
  0
VERTEX
  8
0
 10
64.17508195
 20
20.90921827
  0
VERTEX
  8
0
 10
64.06297070
 20
20.75122722
  0
VERTEX
  8
0
 10
63.97672079
 20
20.58421728
  0
VERTEX
  8
0
 10
63.91578776
 20
20.40729643
  0
VERTEX
  8
0
 10
63.87962720
 20
20.21957266
  0
VERTEX
  8
0
 10
63.86769467
 20
20.02015394
  0
VERTEX
  8
0
 10
63.89365450
 20
19.74496916
  0
VERTEX
  8
0
 10
63.96893114
 20
19.49442165
  0
VERTEX
  8
0
 10
64.08962024
 20
19.27222669
  0
VERTEX
  8
0
 10
64.25181749
 20
19.08209957
  0
VERTEX
  8
0
 10
64.45161857
 20
18.92775558
  0
VERTEX
  8
0
 10
64.68511914
 20
18.81290999
  0
VERTEX
  8
0
 10
64.94841489
 20
18.74127809
  0
VERTEX
  8
0
 10
65.23760149
 20
18.71657518
  0
VERTEX
  8
0
 10
65.51924731
 20
18.73215137
  0
VERTEX
  8
0
 10
65.78010716
 20
18.77693696
  0
VERTEX
  8
0
 10
66.01501321
 20
18.84801747
  0
VERTEX
  8
0
 10
66.21879759
 20
18.94247842
  0
VERTEX
  8
0
 10
66.38629244
 20
19.05740532
  0
VERTEX
  8
0
 10
66.51232992
 20
19.18988370
  0
VERTEX
  8
0
 10
66.59174217
 20
19.33699908
  0
VERTEX
  8
0
 10
66.61936133
 20
19.49583698
  0
VERTEX
  8
0
 10
66.60572025
 20
19.62729927
  0
VERTEX
  8
0
 10
66.55299900
 20
19.72578984
  0
VERTEX
  8
0
 10
66.44350059
 20
19.81139188
  0
VERTEX
  8
0
 10
66.25952800
 20
19.90418858
  0
VERTEX
  8
0
 10
65.89969467
 20
20.06752294
  0
VERTEX
  8
0
 10
66.30996460
 20
20.06938239
  0
VERTEX
  8
0
 10
66.55561364
 20
20.05446324
  0
VERTEX
  8
0
 10
66.77067845
 20
20.00774832
  0
VERTEX
  8
0
 10
66.95449050
 20
19.92984632
  0
VERTEX
  8
0
 10
67.10638128
 20
19.82136597
  0
VERTEX
  8
0
 10
67.22568228
 20
19.68291598
  0
VERTEX
  8
0
 10
67.31172496
 20
19.51510506
  0
VERTEX
  8
0
 10
67.36384082
 20
19.31854191
  0
VERTEX
  8
0
 10
67.38136133
 20
19.09383526
  0
VERTEX
  8
0
 10
67.36544470
 20
18.93910294
  0
VERTEX
  8
0
 10
67.31334389
 20
18.79118594
  0
VERTEX
  8
0
 10
67.21853256
 20
18.63664818
  0
VERTEX
  8
0
 10
67.07448437
 20
18.46205355
  0
VERTEX
  8
0
 10
66.89744905
 20
18.29521825
  0
VERTEX
  8
0
 10
66.68941054
 20
18.15127584
  0
VERTEX
  8
0
 10
66.45229910
 20
18.03081244
  0
VERTEX
  8
0
 10
66.18804497
 20
17.93441422
  0
VERTEX
  8
0
 10
65.89857838
 20
17.86266730
  0
VERTEX
  8
0
 10
65.58582958
 20
17.81615785
  0
VERTEX
  8
0
 10
65.25172882
 20
17.79547200
  0
VERTEX
  8
0
 10
64.89820633
 20
17.80119590
  0
VERTEX
  8
0
 10
64.47402348
 20
17.84449409
  0
VERTEX
  8
0
 10
64.08664799
 20
17.92807084
  0
VERTEX
  8
0
 10
63.73511071
 20
18.05253079
  0
VERTEX
  8
0
 10
63.41844247
 20
18.21847862
  0
VERTEX
  8
0
 10
63.13567411
 20
18.42651898
  0
VERTEX
  8
0
 10
62.88583646
 20
18.67725653
  0
VERTEX
  8
0
 10
62.66796037
 20
18.97129593
  0
VERTEX
  8
0
 10
62.48107667
 20
19.30924184
  0
VERTEX
  8
0
 10
62.36884294
 20
19.57179301
  0
VERTEX
  8
0
 10
62.30180858
 20
19.81489289
  0
VERTEX
  8
0
 10
62.27000117
 20
20.09091725
  0
VERTEX
  8
0
 10
62.26344832
 20
20.45224184
  0
VERTEX
  8
0
 10
62.27225551
 20
20.72871520
  0
VERTEX
  8
0
 10
62.29748606
 20
20.97132560
  0
VERTEX
  8
0
 10
62.34316025
 20
21.18965259
  0
VERTEX
  8
0
 10
62.41329839
 20
21.39327572
  0
VERTEX
  8
0
 10
62.51192078
 20
21.59177454
  0
VERTEX
  8
0
 10
62.64304770
 20
21.79472861
  0
VERTEX
  8
0
 10
62.81069947
 20
22.01171746
  0
VERTEX
  8
0
 10
63.01889637
 20
22.25232066
  0
VERTEX
  8
0
 10
63.21786954
 20
22.45383255
  0
VERTEX
  8
0
 10
63.43557898
 20
22.63704358
  0
VERTEX
  8
0
 10
63.67129625
 20
22.80181589
  0
VERTEX
  8
0
 10
63.92429291
 20
22.94801160
  0
VERTEX
  8
0
 10
64.19384050
 20
23.07549284
  0
VERTEX
  8
0
 10
64.47921059
 20
23.18412174
  0
VERTEX
  8
0
 10
64.77967474
 20
23.27376044
  0
VERTEX
  8
0
 10
65.09450450
 20
23.34427105
  0
VERTEX
  8
0
 10
65.42297143
 20
23.39551570
  0
VERTEX
  8
0
 10
65.76434708
 20
23.42735654
  0
VERTEX
  8
0
 10
66.11790301
 20
23.43965568
  0
VERTEX
  8
0
 10
66.48291078
 20
23.43227526
  0
VERTEX
  8
0
 10
66.85864195
 20
23.40507740
  0
VERTEX
  8
0
 10
67.24436807
 20
23.35792424
  0
VERTEX
  8
0
 10
67.63936070
 20
23.29067790
  0
VERTEX
  8
0
 10
68.04289139
 20
23.20320052
  0
VERTEX
  8
0
 10
68.78372472
 20
23.03457518
  0
VERTEX
  8
0
 10
68.79807946
 20
23.13896157
  0
VERTEX
  8
0
 10
68.80983474
 20
23.42318195
  0
VERTEX
  8
0
 10
68.82069467
 20
24.35749184
  0
VERTEX
  8
0
 10
68.82069467
 20
25.68040851
  0
VERTEX
  8
0
 10
68.54999697
 20
25.62626897
  0
VERTEX
  8
0
 10
68.16312814
 20
25.56018991
  0
VERTEX
  8
0
 10
67.80433117
 20
25.52315948
  0
VERTEX
  8
0
 10
67.46968656
 20
25.51566099
  0
VERTEX
  8
0
 10
67.15527481
 20
25.53817781
  0
VERTEX
  8
0
 10
66.85717640
 20
25.59119325
  0
VERTEX
  8
0
 10
66.57147183
 20
25.67519067
  0
VERTEX
  8
0
 10
66.29424159
 20
25.79065339
  0
VERTEX
  8
0
 10
66.02156618
 20
25.93806476
  0
VERTEX
  8
0
 10
65.86937278
 20
26.04012384
  0
VERTEX
  8
0
 10
65.71911656
 20
26.16237523
  0
VERTEX
  8
0
 10
65.56962141
 20
26.30621600
  0
VERTEX
  8
0
 10
65.41971125
 20
26.47304318
  0
VERTEX
  8
0
 10
65.11394147
 20
26.88124502
  0
VERTEX
  8
0
 10
64.79239845
 20
27.39815715
  0
VERTEX
  8
0
 10
64.73120734
 20
27.48171549
  0
VERTEX
  8
0
 10
64.69535787
 20
27.50002049
  0
VERTEX
  8
0
 10
64.64839561
 20
27.50171900
  0
VERTEX
  8
0
 10
64.49830229
 20
27.45242538
  0
VERTEX
  8
0
 10
64.23526639
 20
27.32809231
  0
VERTEX
  8
0
 10
63.79079172
 20
27.09032895
  0
VERTEX
  8
0
 10
63.34478112
 20
26.81296691
  0
VERTEX
  8
0
 10
62.90482186
 20
26.50235392
  0
VERTEX
  8
0
 10
62.47850122
 20
26.16483774
  0
VERTEX
  8
0
 10
62.07340647
 20
25.80676610
  0
VERTEX
  8
0
 10
61.69712488
 20
25.43448677
  0
VERTEX
  8
0
 10
61.35724372
 20
25.05434747
  0
VERTEX
  8
0
 10
61.06135026
 20
24.67269597
  0
VERTEX
  8
0
 10
60.89025118
 20
24.41573598
  0
VERTEX
  8
0
 10
60.71632580
 20
24.12306455
  0
VERTEX
  8
0
 10
60.38218230
 20
23.47740733
  0
VERTEX
  8
0
 10
60.10329203
 20
22.82936423
  0
VERTEX
  8
0
 10
59.99843321
 20
22.53371045
  0
VERTEX
  8
0
 10
59.92402729
 20
22.27257518
  0
VERTEX
  8
0
 10
59.88121747
 20
22.03163898
  0
VERTEX
  8
0
 10
59.84689510
 20
21.71986059
  0
VERTEX
  8
0
 10
59.82454998
 20
21.37752283
  0
VERTEX
  8
0
 10
59.81767189
 20
21.04490851
  0
VERTEX
  8
0
 10
59.83353193
 20
20.68407597
  0
VERTEX
  8
0
 10
59.87625063
 20
20.33458727
  0
VERTEX
  8
0
 10
59.94559539
 20
19.99673759
  0
VERTEX
  8
0
 10
60.04133357
 20
19.67082212
  0
VERTEX
  8
0
 10
60.16323259
 20
19.35713605
  0
VERTEX
  8
0
 10
60.31105980
 20
19.05597456
  0
VERTEX
  8
0
 10
60.48458262
 20
18.76763285
  0
VERTEX
  8
0
 10
60.68356841
 20
18.49240610
  0
VERTEX
  8
0
 10
60.90778456
 20
18.23058949
  0
VERTEX
  8
0
 10
61.15699847
 20
17.98247822
  0
VERTEX
  8
0
 10
61.43097752
 20
17.74836748
  0
VERTEX
  8
0
 10
61.72948908
 20
17.52855244
  0
VERTEX
  8
0
 10
62.05230056
 20
17.32332830
  0
VERTEX
  8
0
 10
62.39917933
 20
17.13299024
  0
VERTEX
  8
0
 10
62.76989278
 20
16.95783346
  0
VERTEX
  8
0
 10
63.16420830
 20
16.79815313
  0
VERTEX
  8
0
 10
63.51237533
 20
16.70098165
  0
VERTEX
  8
0
 10
63.93960200
 20
16.63435279
  0
VERTEX
  8
0
 10
64.42296685
 20
16.59790973
  0
VERTEX
  8
0
 10
64.93954841
 20
16.59129563
  0
VERTEX
  8
0
 10
65.46642520
 20
16.61415368
  0
VERTEX
  8
0
 10
65.98067577
 20
16.66612703
  0
VERTEX
  8
0
 10
66.45937864
 20
16.74685886
  0
VERTEX
  8
0
 10
66.87961233
 20
16.85599235
  0
SEQEND
  0
POLYLINE
  8
Default_Layer
 62
256
 66
   1
 39
0.000000
 70
    1
  0
VERTEX
  8
0
 10
54.25802800
 20
18.47539375
  0
VERTEX
  8
0
 10
54.55423561
 20
18.63160684
  0
VERTEX
  8
0
 10
54.81576871
 20
18.80593476
  0
VERTEX
  8
0
 10
55.04231328
 20
18.99584038
  0
VERTEX
  8
0
 10
55.23355531
 20
19.19878652
  0
VERTEX
  8
0
 10
55.38918078
 20
19.41223606
  0
VERTEX
  8
0
 10
55.50887570
 20
19.63365183
  0
VERTEX
  8
0
 10
55.59232603
 20
19.86049669
  0
VERTEX
  8
0
 10
55.63921778
 20
20.09023349
  0
VERTEX
  8
0
 10
55.64923693
 20
20.32032507
  0
VERTEX
  8
0
 10
55.62206947
 20
20.54823429
  0
VERTEX
  8
0
 10
55.55740139
 20
20.77142400
  0
VERTEX
  8
0
 10
55.45491867
 20
20.98735704
  0
VERTEX
  8
0
 10
55.31430731
 20
21.19349627
  0
VERTEX
  8
0
 10
55.13525328
 20
21.38730454
  0
VERTEX
  8
0
 10
54.91744259
 20
21.56624469
  0
VERTEX
  8
0
 10
54.66056122
 20
21.72777957
  0
VERTEX
  8
0
 10
54.43267140
 20
21.83329405
  0
VERTEX
  8
0
 10
54.18722252
 20
21.91203869
  0
VERTEX
  8
0
 10
53.93324697
 20
21.96364452
  0
VERTEX
  8
0
 10
53.67977711
 20
21.98774254
  0
VERTEX
  8
0
 10
53.43584534
 20
21.98396379
  0
VERTEX
  8
0
 10
53.21048402
 20
21.95193928
  0
VERTEX
  8
0
 10
53.01272553
 20
21.89130004
  0
VERTEX
  8
0
 10
52.85160226
 20
21.80167707
  0
VERTEX
  8
0
 10
52.72049578
 20
21.69342825
  0
VERTEX
  8
0
 10
52.60692313
 20
21.57853089
  0
VERTEX
  8
0
 10
52.51087958
 20
21.45886600
  0
VERTEX
  8
0
 10
52.43236040
 20
21.33631460
  0
VERTEX
  8
0
 10
52.37136088
 20
21.21275772
  0
VERTEX
  8
0
 10
52.32787627
 20
21.09007638
  0
VERTEX
  8
0
 10
52.30190187
 20
20.97015159
  0
VERTEX
  8
0
 10
52.29343294
 20
20.85486438
  0
VERTEX
  8
0
 10
52.30246475
 20
20.74609576
  0
VERTEX
  8
0
 10
52.32899259
 20
20.64572676
  0
VERTEX
  8
0
 10
52.37301172
 20
20.55563840
  0
VERTEX
  8
0
 10
52.43451742
 20
20.47771169
  0
VERTEX
  8
0
 10
52.51350497
 20
20.41382766
  0
VERTEX
  8
0
 10
52.60996963
 20
20.36586733
  0
VERTEX
  8
0
 10
52.72390669
 20
20.33571172
  0
VERTEX
  8
0
 10
52.85531142
 20
20.32524184
  0
VERTEX
  8
0
 10
52.98888878
 20
20.33479172
  0
VERTEX
  8
0
 10
53.11074120
 20
20.36330361
  0
VERTEX
  8
0
 10
53.22061683
 20
20.41057093
  0
VERTEX
  8
0
 10
53.31826385
 20
20.47638709
  0
VERTEX
  8
0
 10
53.40343044
 20
20.56054550
  0
VERTEX
  8
0
 10
53.47586477
 20
20.66283956
  0
VERTEX
  8
0
 10
53.53531502
 20
20.78306270
  0
VERTEX
  8
0
 10
53.58152936
 20
20.92100831
  0
VERTEX
  8
0
 10
53.66722900
 20
21.15800241
  0
VERTEX
  8
0
 10
53.71033002
 20
21.23009685
  0
VERTEX
  8
0
 10
53.74638603
 20
21.25657518
  0
VERTEX
  8
0
 10
53.80738086
 20
21.23114191
  0
VERTEX
  8
0
 10
53.87576772
 20
21.16146299
  0
VERTEX
  8
0
 10
54.01557751
 20
20.92909341
  0
VERTEX
  8
0
 10
54.12753538
 20
20.63891694
  0
VERTEX
  8
0
 10
54.16110734
 20
20.49697940
  0
VERTEX
  8
0
 10
54.17336133
 20
20.37038406
  0
VERTEX
  8
0
 10
54.15491055
 20
20.20868885
  0
VERTEX
  8
0
 10
54.10184696
 20
20.06004939
  0
VERTEX
  8
0
 10
54.01760368
 20
19.92525315
  0
VERTEX
  8
0
 10
53.90561381
 20
19.80508761
  0
VERTEX
  8
0
 10
53.76931049
 20
19.70034024
  0
VERTEX
  8
0
 10
53.61212681
 20
19.61179851
  0
VERTEX
  8
0
 10
53.43749591
 20
19.54024989
  0
VERTEX
  8
0
 10
53.24885090
 20
19.48648186
  0
VERTEX
  8
0
 10
53.04962489
 20
19.45128188
  0
VERTEX
  8
0
 10
52.84325100
 20
19.43543743
  0
VERTEX
  8
0
 10
52.63316235
 20
19.43973598
  0
VERTEX
  8
0
 10
52.42279205
 20
19.46496500
  0
VERTEX
  8
0
 10
52.21557322
 20
19.51191197
  0
VERTEX
  8
0
 10
52.01493898
 20
19.58136435
  0
VERTEX
  8
0
 10
51.82432245
 20
19.67410963
  0
VERTEX
  8
0
 10
51.64715673
 20
19.79093526
  0
VERTEX
  8
0
 10
51.52985809
 20
19.89518772
  0
VERTEX
  8
0
 10
51.41873207
 20
20.02208782
  0
VERTEX
  8
0
 10
51.31665284
 20
20.16612359
  0
VERTEX
  8
0
 10
51.22649454
 20
20.32178307
  0
VERTEX
  8
0
 10
51.15113136
 20
20.48355430
  0
VERTEX
  8
0
 10
51.09343745
 20
20.64592531
  0
VERTEX
  8
0
 10
51.05628698
 20
20.80338415
  0
VERTEX
  8
0
 10
51.04255411
 20
20.95041885
  0
VERTEX
  8
0
 10
51.06087187
 20
21.21618298
  0
VERTEX
  8
0
 10
51.11874020
 20
21.47221483
  0
VERTEX
  8
0
 10
51.21436919
 20
21.71586853
  0
VERTEX
  8
0
 10
51.34596892
 20
21.94449821
  0
VERTEX
  8
0
 10
51.51174947
 20
22.15545799
  0
VERTEX
  8
0
 10
51.70992092
 20
22.34610201
  0
VERTEX
  8
0
 10
51.93869334
 20
22.51378438
  0
VERTEX
  8
0
 10
52.19627682
 20
22.65585924
  0
VERTEX
  8
0
 10
52.67093291
 20
22.88040753
  0
VERTEX
  8
0
 10
52.24583349
 20
23.31732468
  0
VERTEX
  8
0
 10
51.90565124
 20
23.70549255
  0
VERTEX
  8
0
 10
51.77107127
 20
23.88551896
  0
VERTEX
  8
0
 10
51.68471437
 20
24.02520397
  0
VERTEX
  8
0
 10
51.59934805
 20
24.24441426
  0
VERTEX
  8
0
 10
51.55440366
 20
24.47768693
  0
VERTEX
  8
0
 10
51.54905738
 20
24.72108090
  0
VERTEX
  8
0
 10
51.58248540
 20
24.97065509
  0
VERTEX
  8
0
 10
51.65386390
 20
25.22246844
  0
VERTEX
  8
0
 10
51.76236907
 20
25.47257987
  0
VERTEX
  8
0
 10
51.90717710
 20
25.71704832
  0
VERTEX
  8
0
 10
52.08746417
 20
25.95193269
  0
VERTEX
  8
0
 10
52.23190184
 20
26.13714559
  0
VERTEX
  8
0
 10
52.26930468
 20
26.20002362
  0
VERTEX
  8
0
 10
52.27527993
 20
26.23087880
  0
VERTEX
  8
0
 10
52.20033457
 20
26.23374447
  0
VERTEX
  8
0
 10
52.04902389
 20
26.18773079
  0
VERTEX
  8
0
 10
51.59339530
 20
25.98646499
  0
VERTEX
  8
0
 10
51.06057159
 20
25.70188060
  0
VERTEX
  8
0
 10
50.81276701
 20
25.55171867
  0
VERTEX
  8
0
 10
50.60273019
 20
25.40877680
  0
VERTEX
  8
0
 10
50.37805661
 20
25.23335931
  0
VERTEX
  8
0
 10
50.16866211
 20
25.04958090
  0
VERTEX
  8
0
 10
49.97457072
 20
24.85749352
  0
VERTEX
  8
0
 10
49.79580646
 20
24.65714914
  0
VERTEX
  8
0
 10
49.63239335
 20
24.44859971
  0
VERTEX
  8
0
 10
49.48435541
 20
24.23189719
  0
VERTEX
  8
0
 10
49.35171665
 20
24.00709354
  0
VERTEX
  8
0
 10
49.23450111
 20
23.77424073
  0
VERTEX
  8
0
 10
49.13273279
 20
23.53339071
  0
VERTEX
  8
0
 10
49.04643572
 20
23.28459545
  0
VERTEX
  8
0
 10
48.97563392
 20
23.02790691
  0
VERTEX
  8
0
 10
48.92035141
 20
22.76337704
  0
VERTEX
  8
0
 10
48.88061221
 20
22.49105781
  0
VERTEX
  8
0
 10
48.85644034
 20
22.21100118
  0
VERTEX
  8
0
 10
48.84785982
 20
21.92325910
  0
VERTEX
  8
0
 10
48.85489468
 20
21.62788354
  0
VERTEX
  8
0
 10
48.88405061
 20
21.23752664
  0
VERTEX
  8
0
 10
48.93366636
 20
20.92211156
  0
VERTEX
  8
0
 10
49.01275068
 20
20.63979849
  0
VERTEX
  8
0
 10
49.13031234
 20
20.34874757
  0
VERTEX
  8
0
 10
49.31035923
 20
20.01754042
  0
VERTEX
  8
0
 10
49.54221906
 20
19.70129694
  0
VERTEX
  8
0
 10
49.82088862
 20
19.40387740
  0
VERTEX
  8
0
 10
50.14136469
 20
19.12914206
  0
VERTEX
  8
0
 10
50.49864406
 20
18.88095117
  0
VERTEX
  8
0
 10
50.88772352
 20
18.66316501
  0
VERTEX
  8
0
 10
51.30359985
 20
18.47964382
  0
VERTEX
  8
0
 10
51.74126983
 20
18.33424787
  0
VERTEX
  8
0
 10
52.02886453
 20
18.27237600
  0
VERTEX
  8
0
 10
52.35168808
 20
18.23476581
  0
VERTEX
  8
0
 10
52.69598320
 20
18.22064576
  0
VERTEX
  8
0
 10
53.04799263
 20
18.22924432
  0
VERTEX
  8
0
 10
53.39395909
 20
18.25978994
  0
VERTEX
  8
0
 10
53.72012532
 20
18.31151108
  0
VERTEX
  8
0
 10
54.01273404
 20
18.38363620
  0
VERTEX
  8
0
 10
54.25802800
 20
18.47539375
  0
SEQEND
  0
POLYLINE
  8
Default_Layer
 62
256
 66
   1
 39
0.000000
 70
    1
  0
VERTEX
  8
0
 10
57.85636133
 20
20.93017824
  0
VERTEX
  8
0
 10
58.36308491
 20
20.89283923
  0
VERTEX
  8
0
 10
58.41341243
 20
20.89188988
  0
VERTEX
  8
0
 10
58.45420547
 20
20.90355771
  0
VERTEX
  8
0
 10
58.48727259
 20
20.93245149
  0
VERTEX
  8
0
 10
58.51442239
 20
20.98318001
  0
VERTEX
  8
0
 10
58.55820434
 20
21.16857640
  0
VERTEX
  8
0
 10
58.60001998
 20
21.49661713
  0
VERTEX
  8
0
 10
58.68399457
 20
22.07832155
  0
VERTEX
  8
0
 10
58.80556458
 20
22.67591848
  0
VERTEX
  8
0
 10
58.95784321
 20
23.26904617
  0
VERTEX
  8
0
 10
59.13394366
 20
23.83734285
  0
VERTEX
  8
0
 10
59.32697912
 20
24.36044676
  0
VERTEX
  8
0
 10
59.53006280
 20
24.81799615
  0
VERTEX
  8
0
 10
59.73630790
 20
25.18962924
  0
VERTEX
  8
0
 10
59.83846386
 20
25.33686412
  0
VERTEX
  8
0
 10
59.93882762
 20
25.45498427
  0
VERTEX
  8
0
 10
60.19124350
 20
25.71639336
  0
VERTEX
  8
0
 10
59.44713575
 20
25.71673904
  0
VERTEX
  8
0
 10
58.91138979
 20
25.73728132
  0
VERTEX
  8
0
 10
58.66183511
 20
25.76849488
  0
VERTEX
  8
0
 10
58.40186096
 20
25.81877469
  0
VERTEX
  8
0
 10
57.78275921
 20
25.99184697
  0
VERTEX
  8
0
 10
56.91829448
 20
26.28712597
  0
VERTEX
  8
0
 10
56.57640785
 20
26.40014254
  0
VERTEX
  8
0
 10
56.23917860
 20
26.49633024
  0
VERTEX
  8
0
 10
55.62915080
 20
26.62983237
  0
VERTEX
  8
0
 10
55.38158154
 20
26.66295343
  0
VERTEX
  8
0
 10
55.18912822
 20
26.67085892
  0
VERTEX
  8
0
 10
55.06440549
 20
26.65145216
  0
VERTEX
  8
0
 10
55.03138518
 20
26.63085148
  0
VERTEX
  8
0
 10
55.02002800
 20
26.60263649
  0
VERTEX
  8
0
 10
55.04545452
 20
26.53432235
  0
VERTEX
  8
0
 10
55.07297738
 20
26.51354095
  0
VERTEX
  8
0
 10
55.10658638
 20
26.50590851
  0
VERTEX
  8
0
 10
55.18619507
 20
26.47634386
  0
VERTEX
  8
0
 10
55.30208720
 20
26.39589527
  0
VERTEX
  8
0
 10
55.59350157
 20
26.13181849
  0
VERTEX
  8
0
 10
55.88238904
 20
25.81262260
  0
VERTEX
  8
0
 10
55.99512254
 20
25.66327512
  0
VERTEX
  8
0
 10
56.07030914
 20
25.53725201
  0
VERTEX
  8
0
 10
56.15217512
 20
25.32000394
  0
VERTEX
  8
0
 10
56.19512755
 20
25.09382744
  0
VERTEX
  8
0
 10
56.19883504
 20
24.85720690
  0
VERTEX
  8
0
 10
56.16296622
 20
24.60862666
  0
VERTEX
  8
0
 10
56.08718971
 20
24.34657109
  0
VERTEX
  8
0
 10
55.97117413
 20
24.06952455
  0
VERTEX
  8
0
 10
55.81458810
 20
23.77597140
  0
VERTEX
  8
0
 10
55.61710024
 20
23.46439601
  0
VERTEX
  8
0
 10
55.37480547
 20
23.07230914
  0
VERTEX
  8
0
 10
55.30109854
 20
22.92556916
  0
VERTEX
  8
0
 10
55.27402800
 20
22.83905676
  0
VERTEX
  8
0
 10
55.30396866
 20
22.78097305
  0
VERTEX
  8
0
 10
55.38549025
 20
22.71163796
  0
VERTEX
  8
0
 10
55.50614222
 20
22.63974858
  0
VERTEX
  8
0
 10
55.65347398
 20
22.57400204
  0
VERTEX
  8
0
 10
55.83476771
 20
22.48724746
  0
VERTEX
  8
0
 10
56.01579546
 20
22.36776281
  0
VERTEX
  8
0
 10
56.19205437
 20
22.22057390
  0
VERTEX
  8
0
 10
56.35904159
 20
22.05070656
  0
VERTEX
  8
0
 10
56.51225424
 20
21.86318658
  0
VERTEX
  8
0
 10
56.64718948
 20
21.66303979
  0
VERTEX
  8
0
 10
56.75934445
 20
21.45529199
  0
VERTEX
  8
0
 10
56.84421628
 20
21.24496900
  0
VERTEX
  8
0
 10
56.92883160
 20
21.00650436
  0
VERTEX
  8
0
 10
56.96429705
 20
20.93428796
  0
VERTEX
  8
0
 10
57.00112602
 20
20.88819903
  0
VERTEX
  8
0
 10
57.04376227
 20
20.86432520
  0
VERTEX
  8
0
 10
57.09664956
 20
20.85875409
  0
VERTEX
  8
0
 10
57.25095224
 20
20.88687058
  0
VERTEX
  8
0
 10
57.53882241
 20
20.92573753
  0
VERTEX
  8
0
 10
57.85636133
 20
20.93017824
  0
SEQEND
  0
POLYLINE
  8
Default_Layer
 62
256
 66
   1
 39
0.000000
 70
    1
  0
VERTEX
  8
0
 10
47.23069467
 20
22.57785401
  0
VERTEX
  8
0
 10
47.25664118
 20
22.89981562
  0
VERTEX
  8
0
 10
47.33133647
 20
23.26469612
  0
VERTEX
  8
0
 10
47.45006417
 20
23.66116624
  0
VERTEX
  8
0
 10
47.60810791
 20
24.07789668
  0
VERTEX
  8
0
 10
47.80075131
 20
24.50355819
  0
VERTEX
  8
0
 10
48.02327801
 20
24.92682146
  0
VERTEX
  8
0
 10
48.27097164
 20
25.33635723
  0
VERTEX
  8
0
 10
48.53911582
 20
25.72083622
  0
VERTEX
  8
0
 10
48.87702714
 20
26.13211885
  0
VERTEX
  8
0
 10
49.24879717
 20
26.51507006
  0
VERTEX
  8
0
 10
49.64747777
 20
26.86493836
  0
VERTEX
  8
0
 10
50.06612082
 20
27.17697222
  0
VERTEX
  8
0
 10
50.49777818
 20
27.44642014
  0
VERTEX
  8
0
 10
50.93550173
 20
27.66853062
  0
VERTEX
  8
0
 10
51.37234334
 20
27.83855213
  0
VERTEX
  8
0
 10
51.80135488
 20
27.95173318
  0
VERTEX
  8
0
 10
52.30375933
 20
28.05057522
  0
VERTEX
  8
0
 10
51.70799529
 20
28.77346107
  0
VERTEX
  8
0
 10
51.26355376
 20
29.33217443
  0
VERTEX
  8
0
 10
50.86578359
 20
29.87351048
  0
VERTEX
  8
0
 10
50.51367554
 20
30.39925688
  0
VERTEX
  8
0
 10
50.20622036
 20
30.91120129
  0
VERTEX
  8
0
 10
49.94240881
 20
31.41113136
  0
VERTEX
  8
0
 10
49.72123166
 20
31.90083473
  0
VERTEX
  8
0
 10
49.54167965
 20
32.38209906
  0
VERTEX
  8
0
 10
49.40274356
 20
32.85671199
  0
VERTEX
  8
0
 10
49.25248985
 20
33.40578732
  0
VERTEX
  8
0
 10
49.15854799
 20
33.66561074
  0
VERTEX
  8
0
 10
49.11522143
 20
33.67911655
  0
VERTEX
  8
0
 10
49.03705411
 20
33.67608879
  0
VERTEX
  8
0
 10
48.82055830
 20
33.62567421
  0
VERTEX
  8
0
 10
48.70729703
 20
33.57586710
  0
VERTEX
  8
0
 10
48.60068851
 20
33.50520251
  0
VERTEX
  8
0
 10
48.50334463
 20
33.41724540
  0
VERTEX
  8
0
 10
48.41787729
 20
33.31556071
  0
VERTEX
  8
0
 10
48.34689838
 20
33.20371339
  0
VERTEX
  8
0
 10
48.29301979
 20
33.08526838
  0
VERTEX
  8
0
 10
48.25885342
 20
32.96379064
  0
VERTEX
  8
0
 10
48.24701115
 20
32.84284512
  0
VERTEX
  8
0
 10
48.25774719
 20
32.75445635
  0
VERTEX
  8
0
 10
48.28811783
 20
32.64919954
  0
VERTEX
  8
0
 10
48.39823877
 20
32.40575307
  0
VERTEX
  8
0
 10
48.55832578
 20
32.14784827
  0
VERTEX
  8
0
 10
48.74933063
 20
31.91082772
  0
VERTEX
  8
0
 10
48.94461295
 20
31.62478935
  0
VERTEX
  8
0
 10
49.19121442
 20
31.17634277
  0
VERTEX
  8
0
 10
49.34708492
 20
30.84478152
  0
VERTEX
  8
0
 10
49.43201347
 20
30.56998090
  0
VERTEX
  8
0
 10
49.46732922
 20
30.24566932
  0
VERTEX
  8
0
 10
49.47436133
 20
29.76557518
  0
VERTEX
  8
0
 10
49.46697780
 20
29.29154606
  0
VERTEX
  8
0
 10
49.43257300
 20
28.96413210
  0
VERTEX
  8
0
 10
49.35276562
 20
28.68585308
  0
VERTEX
  8
0
 10
49.20917437
 20
28.35922879
  0
VERTEX
  8
0
 10
49.07419197
 20
28.10460947
  0
VERTEX
  8
0
 10
48.91617768
 20
27.85996529
  0
VERTEX
  8
0
 10
48.73703875
 20
27.62641071
  0
VERTEX
  8
0
 10
48.53868244
 20
27.40506014
  0
VERTEX
  8
0
 10
48.32301601
 20
27.19702802
  0
VERTEX
  8
0
 10
48.09194670
 20
27.00342879
  0
VERTEX
  8
0
 10
47.84738177
 20
26.82537688
  0
VERTEX
  8
0
 10
47.59122848
 20
26.66398673
  0
VERTEX
  8
0
 10
47.32539408
 20
26.52037275
  0
VERTEX
  8
0
 10
47.05178582
 20
26.39564940
  0
VERTEX
  8
0
 10
46.77231096
 20
26.29093109
  0
VERTEX
  8
0
 10
46.48887675
 20
26.20733227
  0
VERTEX
  8
0
 10
46.20339045
 20
26.14596737
  0
VERTEX
  8
0
 10
45.91775930
 20
26.10795082
  0
VERTEX
  8
0
 10
45.63389057
 20
26.09439705
  0
VERTEX
  8
0
 10
45.35369151
 20
26.10642050
  0
VERTEX
  8
0
 10
45.01135676
 20
26.15826758
  0
VERTEX
  8
0
 10
44.68083499
 20
26.24950672
  0
VERTEX
  8
0
 10
44.36531521
 20
26.37812783
  0
VERTEX
  8
0
 10
44.06798642
 20
26.54212082
  0
VERTEX
  8
0
 10
43.79203764
 20
26.73947559
  0
VERTEX
  8
0
 10
43.54065785
 20
26.96818205
  0
VERTEX
  8
0
 10
43.31703608
 20
27.22623012
  0
VERTEX
  8
0
 10
43.12436133
 20
27.51160970
  0
VERTEX
  8
0
 10
42.93253842
 20
27.81598458
  0
VERTEX
  8
0
 10
42.82802800
 20
27.94356797
  0
VERTEX
  8
0
 10
42.81159076
 20
27.77720599
  0
VERTEX
  8
0
 10
42.79813008
 20
27.32299358
  0
VERTEX
  8
0
 10
42.78569467
 20
25.82860617
  0
VERTEX
  8
0
 10
42.80733474
 20
24.26249539
  0
VERTEX
  8
0
 10
42.83385225
 20
23.86991762
  0
VERTEX
  8
0
 10
42.85088003
 20
23.77506302
  0
VERTEX
  8
0
 10
42.87036133
 20
23.74928456
  0
VERTEX
  8
0
 10
43.28164023
 20
23.90150544
  0
VERTEX
  8
0
 10
43.73381540
 20
24.02470027
  0
VERTEX
  8
0
 10
44.14766190
 20
24.10065093
  0
VERTEX
  8
0
 10
44.31545410
 20
24.11521653
  0
VERTEX
  8
0
 10
44.44395477
 20
24.11113930
  0
VERTEX
  8
0
 10
44.72648753
 20
24.05045059
  0
VERTEX
  8
0
 10
44.99218255
 20
23.94914874
  0
VERTEX
  8
0
 10
45.23577205
 20
23.81201232
  0
VERTEX
  8
0
 10
45.45198824
 20
23.64381988
  0
VERTEX
  8
0
 10
45.63556334
 20
23.44935000
  0
VERTEX
  8
0
 10
45.78122954
 20
23.23338123
  0
VERTEX
  8
0
 10
45.88371908
 20
23.00069215
  0
VERTEX
  8
0
 10
45.93776414
 20
22.75606131
  0
VERTEX
  8
0
 10
45.98012551
 20
22.38023242
  0
VERTEX
  8
0
 10
46.34129023
 20
22.42094091
  0
VERTEX
  8
0
 10
46.49401352
 20
22.42949084
  0
VERTEX
  8
0
 10
46.64285948
 20
22.42267730
  0
VERTEX
  8
0
 10
46.77078363
 20
22.40218206
  0
VERTEX
  8
0
 10
46.86074148
 20
22.36968690
  0
VERTEX
  8
0
 10
47.03707407
 20
22.28816452
  0
VERTEX
  8
0
 10
47.10126303
 20
22.27909717
  0
VERTEX
  8
0
 10
47.15107577
 20
22.29206421
  0
VERTEX
  8
0
 10
47.18771880
 20
22.32774453
  0
VERTEX
  8
0
 10
47.21239862
 20
22.38681701
  0
VERTEX
  8
0
 10
47.23069467
 20
22.57785401
  0
SEQEND
  0
POLYLINE
  8
Default_Layer
 62
256
 66
   1
 39
0.000000
 70
    1
  0
VERTEX
  8
0
 10
54.77029770
 20
23.79961547
  0
VERTEX
  8
0
 10
54.94931760
 20
23.95130912
  0
VERTEX
  8
0
 10
55.08920936
 20
24.12074186
  0
VERTEX
  8
0
 10
55.18899810
 20
24.30296001
  0
VERTEX
  8
0
 10
55.24770896
 20
24.49300991
  0
VERTEX
  8
0
 10
55.26436707
 20
24.68593788
  0
VERTEX
  8
0
 10
55.23799756
 20
24.87679024
  0
VERTEX
  8
0
 10
55.16762556
 20
25.06061331
  0
VERTEX
  8
0
 10
55.05227619
 20
25.23245341
  0
VERTEX
  8
0
 10
54.93782268
 20
25.35733733
  0
VERTEX
  8
0
 10
54.81978737
 20
25.46357904
  0
VERTEX
  8
0
 10
54.69686352
 20
25.55179222
  0
VERTEX
  8
0
 10
54.56774437
 20
25.62259053
  0
VERTEX
  8
0
 10
54.43112318
 20
25.67658765
  0
VERTEX
  8
0
 10
54.28569319
 20
25.71439724
  0
VERTEX
  8
0
 10
54.13014766
 20
25.73663297
  0
VERTEX
  8
0
 10
53.96317983
 20
25.74390851
  0
VERTEX
  8
0
 10
53.67795839
 20
25.72185330
  0
VERTEX
  8
0
 10
53.41386284
 20
25.65843045
  0
VERTEX
  8
0
 10
53.17610321
 20
25.55775417
  0
VERTEX
  8
0
 10
52.96988953
 20
25.42393865
  0
VERTEX
  8
0
 10
52.80043181
 20
25.26109807
  0
VERTEX
  8
0
 10
52.67294008
 20
25.07334664
  0
VERTEX
  8
0
 10
52.59262436
 20
24.86479855
  0
VERTEX
  8
0
 10
52.56469467
 20
24.63956799
  0
VERTEX
  8
0
 10
52.57766457
 20
24.46392114
  0
VERTEX
  8
0
 10
52.62402067
 20
24.31670890
  0
VERTEX
  8
0
 10
52.71493256
 20
24.17437031
  0
VERTEX
  8
0
 10
52.86156984
 20
24.01334444
  0
VERTEX
  8
0
 10
52.99851052
 20
23.89144384
  0
VERTEX
  8
0
 10
53.15190898
 20
23.77899609
  0
VERTEX
  8
0
 10
53.30301287
 20
23.68849924
  0
VERTEX
  8
0
 10
53.43306984
 20
23.63245136
  0
VERTEX
  8
0
 10
53.59296105
 20
23.59608001
  0
VERTEX
  8
0
 10
53.76901337
 20
23.57783151
  0
VERTEX
  8
0
 10
53.95418373
 20
23.57682541
  0
VERTEX
  8
0
 10
54.14142902
 20
23.59218127
  0
VERTEX
  8
0
 10
54.32370615
 20
23.62301865
  0
VERTEX
  8
0
 10
54.49397204
 20
23.66845711
  0
VERTEX
  8
0
 10
54.64518359
 20
23.72761620
  0
VERTEX
  8
0
 10
54.77029770
 20
23.79961547
  0
SEQEND
  0
POLYLINE
  8
Default_Layer
 62
256
 66
   1
 39
0.000000
 70
    1
  0
VERTEX
  8
0
 10
60.05241117
 20
27.18452110
  0
VERTEX
  8
0
 10
60.38579433
 20
27.28463895
  0
VERTEX
  8
0
 10
59.71091034
 20
27.63610706
  0
VERTEX
  8
0
 10
59.14991214
 20
27.94870258
  0
VERTEX
  8
0
 10
58.63484602
 20
28.27634114
  0
VERTEX
  8
0
 10
58.18359147
 20
28.60684535
  0
VERTEX
  8
0
 10
57.81402800
 20
28.92803782
  0
VERTEX
  8
0
 10
57.18996411
 20
29.51318425
  0
VERTEX
  8
0
 10
57.01982971
 20
29.67851672
  0
VERTEX
  8
0
 10
56.92796744
 20
29.80575381
  0
VERTEX
  8
0
 10
56.89843753
 20
29.92760248
  0
VERTEX
  8
0
 10
56.91530023
 20
30.07676968
  0
VERTEX
  8
0
 10
56.97546405
 20
30.28945629
  0
VERTEX
  8
0
 10
57.06901342
 20
30.45282249
  0
VERTEX
  8
0
 10
57.21197660
 20
30.58703495
  0
VERTEX
  8
0
 10
57.42038189
 20
30.71226037
  0
VERTEX
  8
0
 10
57.63937637
 20
30.79712770
  0
VERTEX
  8
0
 10
57.87791495
 20
30.84036493
  0
VERTEX
  8
0
 10
58.12566261
 20
30.84415983
  0
VERTEX
  8
0
 10
58.37228430
 20
30.81070016
  0
VERTEX
  8
0
 10
58.60744502
 20
30.74217371
  0
VERTEX
  8
0
 10
58.82080973
 20
30.64076824
  0
VERTEX
  8
0
 10
59.00204340
 20
30.50867151
  0
VERTEX
  8
0
 10
59.14081101
 20
30.34807131
  0
VERTEX
  8
0
 10
59.21012698
 20
30.22338296
  0
VERTEX
  8
0
 10
59.23994093
 20
30.10542923
  0
VERTEX
  8
0
 10
59.23264955
 20
29.96691906
  0
VERTEX
  8
0
 10
59.19064954
 20
29.78056145
  0
VERTEX
  8
0
 10
59.13516710
 20
29.51720414
  0
VERTEX
  8
0
 10
59.13265799
 20
29.37438697
  0
VERTEX
  8
0
 10
59.18602479
 20
29.36461757
  0
VERTEX
  8
0
 10
59.30529886
 20
29.38013770
  0
VERTEX
  8
0
 10
59.67092168
 20
29.47397555
  0
VERTEX
  8
0
 10
59.93390250
 20
29.54774384
  0
VERTEX
  8
0
 10
60.19968805
 20
29.60667944
  0
VERTEX
  8
0
 10
60.73350720
 20
29.68086617
  0
VERTEX
  8
0
 10
61.26004689
 20
29.69816304
  0
VERTEX
  8
0
 10
61.76697487
 20
29.66019732
  0
VERTEX
  8
0
 10
62.24195888
 20
29.56859631
  0
VERTEX
  8
0
 10
62.46361807
 20
29.50319110
  0
VERTEX
  8
0
 10
62.67266667
 20
29.42498729
  0
VERTEX
  8
0
 10
62.86756316
 20
29.33418830
  0
VERTEX
  8
0
 10
63.04676600
 20
29.23099753
  0
VERTEX
  8
0
 10
63.20873366
 20
29.11561841
  0
VERTEX
  8
0
 10
63.35192460
 20
28.98825433
  0
VERTEX
  8
0
 10
63.57129936
 20
28.76887957
  0
VERTEX
  8
0
 10
63.97349701
 20
28.92222788
  0
VERTEX
  8
0
 10
64.16997539
 20
29.01769220
  0
VERTEX
  8
0
 10
64.38360964
 20
29.15713319
  0
VERTEX
  8
0
 10
64.60508808
 20
29.33149841
  0
VERTEX
  8
0
 10
64.82509901
 20
29.53173539
  0
VERTEX
  8
0
 10
65.03433076
 20
29.74879166
  0
VERTEX
  8
0
 10
65.22347163
 20
29.97361476
  0
VERTEX
  8
0
 10
65.38320995
 20
30.19715222
  0
VERTEX
  8
0
 10
65.50423402
 20
30.41035159
  0
VERTEX
  8
0
 10
65.64017897
 20
30.72865763
  0
VERTEX
  8
0
 10
65.74935268
 20
31.06076915
  0
VERTEX
  8
0
 10
65.83203230
 20
31.40488314
  0
VERTEX
  8
0
 10
65.88849495
 20
31.75919655
  0
VERTEX
  8
0
 10
65.91901776
 20
32.12190637
  0
VERTEX
  8
0
 10
65.92387787
 20
32.49120955
  0
VERTEX
  8
0
 10
65.90335240
 20
32.86530307
  0
VERTEX
  8
0
 10
65.85771849
 20
33.24238389
  0
VERTEX
  8
0
 10
65.78725327
 20
33.62064898
  0
VERTEX
  8
0
 10
65.69223387
 20
33.99829532
  0
VERTEX
  8
0
 10
65.57293743
 20
34.37351986
  0
VERTEX
  8
0
 10
65.42964107
 20
34.74451958
  0
VERTEX
  8
0
 10
65.26262193
 20
35.10949145
  0
VERTEX
  8
0
 10
65.07215714
 20
35.46663243
  0
VERTEX
  8
0
 10
64.85852384
 20
35.81413950
  0
VERTEX
  8
0
 10
64.62199914
 20
36.15020962
  0
VERTEX
  8
0
 10
64.41048190
 20
36.41401266
  0
VERTEX
  8
0
 10
64.18847931
 20
36.65669254
  0
VERTEX
  8
0
 10
63.95611916
 20
36.87820284
  0
VERTEX
  8
0
 10
63.71352922
 20
37.07849716
  0
VERTEX
  8
0
 10
63.46083729
 20
37.25752910
  0
VERTEX
  8
0
 10
63.19817115
 20
37.41525223
  0
VERTEX
  8
0
 10
62.92565858
 20
37.55162016
  0
VERTEX
  8
0
 10
62.64342737
 20
37.66658647
  0
VERTEX
  8
0
 10
62.35160529
 20
37.76010476
  0
VERTEX
  8
0
 10
62.05032015
 20
37.83212861
  0
VERTEX
  8
0
 10
61.73969971
 20
37.88261163
  0
VERTEX
  8
0
 10
61.41987177
 20
37.91150739
  0
VERTEX
  8
0
 10
61.09096410
 20
37.91876949
  0
VERTEX
  8
0
 10
60.75310450
 20
37.90435152
  0
VERTEX
  8
0
 10
60.40642075
 20
37.86820708
  0
VERTEX
  8
0
 10
60.05104062
 20
37.81028975
  0
VERTEX
  8
0
 10
59.62291215
 20
37.71223939
  0
VERTEX
  8
0
 10
59.22653158
 20
37.58830210
  0
VERTEX
  8
0
 10
58.86305213
 20
37.43916419
  0
VERTEX
  8
0
 10
58.53362702
 20
37.26551191
  0
VERTEX
  8
0
 10
58.23940944
 20
37.06803157
  0
VERTEX
  8
0
 10
57.98155263
 20
36.84740943
  0
VERTEX
  8
0
 10
57.76120978
 20
36.60433179
  0
VERTEX
  8
0
 10
57.57953412
 20
36.33948493
  0
VERTEX
  8
0
 10
57.45785200
 20
36.10883352
  0
VERTEX
  8
0
 10
57.38789317
 20
35.89042159
  0
VERTEX
  8
0
 10
57.35596162
 20
35.61831388
  0
VERTEX
  8
0
 10
57.34836133
 20
35.22657518
  0
VERTEX
  8
0
 10
57.35633418
 20
34.82140156
  0
VERTEX
  8
0
 10
57.39380258
 20
34.53580139
  0
VERTEX
  8
0
 10
57.48109128
 20
34.28187843
  0
VERTEX
  8
0
 10
57.63852505
 20
33.97173646
  0
VERTEX
  8
0
 10
57.84561396
 20
33.63546375
  0
VERTEX
  8
0
 10
58.07852147
 20
33.34219020
  0
VERTEX
  8
0
 10
58.33634090
 20
33.09248206
  0
VERTEX
  8
0
 10
58.61816559
 20
32.88690561
  0
VERTEX
  8
0
 10
58.92308886
 20
32.72602711
  0
VERTEX
  8
0
 10
59.25020406
 20
32.61041280
  0
VERTEX
  8
0
 10
59.59860452
 20
32.54062896
  0
VERTEX
  8
0
 10
59.96738356
 20
32.51724184
  0
VERTEX
  8
0
 10
60.30580112
 20
32.53751792
  0
VERTEX
  8
0
 10
60.64117879
 20
32.59556753
  0
VERTEX
  8
0
 10
60.96455714
 20
32.68722271
  0
VERTEX
  8
0
 10
61.26697678
 20
32.80831553
  0
VERTEX
  8
0
 10
61.53947829
 20
32.95467803
  0
VERTEX
  8
0
 10
61.77310227
 20
33.12214225
  0
VERTEX
  8
0
 10
61.95888929
 20
33.30654026
  0
VERTEX
  8
0
 10
62.08787995
 20
33.50370411
  0
VERTEX
  8
0
 10
62.18781224
 20
33.76451973
  0
VERTEX
  8
0
 10
62.20572063
 20
33.87696835
  0
VERTEX
  8
0
 10
62.20143855
 20
33.98291090
  0
VERTEX
  8
0
 10
62.17435205
 20
34.08644739
  0
VERTEX
  8
0
 10
62.12384717
 20
34.19167785
  0
VERTEX
  8
0
 10
61.95012643
 20
34.42362080
  0
VERTEX
  8
0
 10
61.71216618
 20
34.65892702
  0
VERTEX
  8
0
 10
61.46888031
 20
34.83101541
  0
VERTEX
  8
0
 10
61.34701342
 20
34.89234014
  0
VERTEX
  8
0
 10
61.22594290
 20
34.93664509
  0
VERTEX
  8
0
 10
61.10637801
 20
34.96352514
  0
VERTEX
  8
0
 10
60.98902800
 20
34.97257518
  0
VERTEX
  8
0
 10
60.88049752
 20
34.96340299
  0
VERTEX
  8
0
 10
60.76511691
 20
34.93775385
  0
VERTEX
  8
0
 10
60.53601708
 20
34.84822926
  0
VERTEX
  8
0
 10
60.34615203
 20
34.72641048
  0
VERTEX
  8
0
 10
60.27981489
 20
34.66039360
  0
VERTEX
  8
0
 10
60.23994527
 20
34.59470659
  0
VERTEX
  8
0
 10
60.22940382
 20
34.53139793
  0
VERTEX
  8
0
 10
60.26181464
 20
34.49144032
  0
VERTEX
  8
0
 10
60.34527690
 20
34.47058300
  0
VERTEX
  8
0
 10
60.48788979
 20
34.46457518
  0
VERTEX
  8
0
 10
60.75521189
 20
34.43739901
  0
VERTEX
  8
0
 10
60.98244482
 20
34.36238319
  0
VERTEX
  8
0
 10
61.16321311
 20
34.24929673
  0
VERTEX
  8
0
 10
61.29114128
 20
34.10790864
  0
VERTEX
  8
0
 10
61.33329798
 20
34.02965431
  0
VERTEX
  8
0
 10
61.35985385
 20
33.94798794
  0
VERTEX
  8
0
 10
61.37001196
 20
33.86413068
  0
VERTEX
  8
0
 10
61.36297536
 20
33.77930364
  0
VERTEX
  8
0
 10
61.33794713
 20
33.69472796
  0
VERTEX
  8
0
 10
61.29413034
 20
33.61162476
  0
VERTEX
  8
0
 10
61.23072803
 20
33.53121516
  0
VERTEX
  8
0
 10
61.14694330
 20
33.45472030
  0
VERTEX
  8
0
 10
61.02323327
 20
33.37736187
  0
VERTEX
  8
0
 10
60.88100713
 20
33.32210585
  0
VERTEX
  8
0
 10
60.72643691
 20
33.28895224
  0
VERTEX
  8
0
 10
60.56569467
 20
33.27790104
  0
VERTEX
  8
0
 10
60.40495242
 20
33.28895224
  0
VERTEX
  8
0
 10
60.25038220
 20
33.32210585
  0
VERTEX
  8
0
 10
60.10815607
 20
33.37736187
  0
VERTEX
  8
0
 10
59.98444603
 20
33.45472030
  0
VERTEX
  8
0
 10
59.82689246
 20
33.61131017
  0
VERTEX
  8
0
 10
59.77896411
 20
33.68436139
  0
VERTEX
  8
0
 10
59.76136133
 20
33.74137564
  0
VERTEX
  8
0
 10
59.72420830
 20
33.89113202
  0
VERTEX
  8
0
 10
59.63488294
 20
34.09506386
  0
VERTEX
  8
0
 10
59.53961250
 20
34.32803104
  0
VERTEX
  8
0
 10
59.51933658
 20
34.43460355
  0
VERTEX
  8
0
 10
59.51757587
 20
34.53833085
  0
VERTEX
  8
0
 10
59.53453716
 20
34.64203461
  0
VERTEX
  8
0
 10
59.57042721
 20
34.74853647
  0
VERTEX
  8
0
 10
59.69982068
 20
34.98122106
  0
VERTEX
  8
0
 10
59.80201260
 20
35.10779625
  0
VERTEX
  8
0
 10
59.92638929
 20
35.21773599
  0
VERTEX
  8
0
 10
60.07036552
 20
35.31102287
  0
VERTEX
  8
0
 10
60.23135608
 20
35.38763948
  0
VERTEX
  8
0
 10
60.40677576
 20
35.44756840
  0
VERTEX
  8
0
 10
60.59403934
 20
35.49079222
  0
VERTEX
  8
0
 10
60.79056161
 20
35.51729351
  0
VERTEX
  8
0
 10
60.99375736
 20
35.52705487
  0
VERTEX
  8
0
 10
61.20104137
 20
35.52005887
  0
VERTEX
  8
0
 10
61.40982842
 20
35.49628809
  0
VERTEX
  8
0
 10
61.61753331
 20
35.45572514
  0
VERTEX
  8
0
 10
61.82157081
 20
35.39835257
  0
VERTEX
  8
0
 10
62.01935571
 20
35.32415299
  0
VERTEX
  8
0
 10
62.20830281
 20
35.23310897
  0
VERTEX
  8
0
 10
62.38582687
 20
35.12520310
  0
VERTEX
  8
0
 10
62.54934270
 20
35.00041796
  0
VERTEX
  8
0
 10
62.71896797
 20
34.83676031
  0
VERTEX
  8
0
 10
62.85837808
 20
34.66335312
  0
VERTEX
  8
0
 10
62.96796723
 20
34.48183427
  0
VERTEX
  8
0
 10
63.04812964
 20
34.29384166
  0
VERTEX
  8
0
 10
63.09925950
 20
34.10101315
  0
VERTEX
  8
0
 10
63.12175102
 20
33.90498662
  0
VERTEX
  8
0
 10
63.11599843
 20
33.70739997
  0
VERTEX
  8
0
 10
63.08239591
 20
33.50989107
  0
VERTEX
  8
0
 10
63.02133769
 20
33.31409780
  0
VERTEX
  8
0
 10
62.93321797
 20
33.12165805
  0
VERTEX
  8
0
 10
62.81843096
 20
32.93420968
  0
VERTEX
  8
0
 10
62.67737087
 20
32.75339060
  0
VERTEX
  8
0
 10
62.51043190
 20
32.58083866
  0
VERTEX
  8
0
 10
62.31800827
 20
32.41819176
  0
VERTEX
  8
0
 10
62.10049418
 20
32.26708778
  0
VERTEX
  8
0
 10
61.85828384
 20
32.12916460
  0
VERTEX
  8
0
 10
61.62782376
 20
32.01949571
  0
VERTEX
  8
0
 10
61.39308251
 20
31.92502489
  0
VERTEX
  8
0
 10
61.15461675
 20
31.84574300
  0
VERTEX
  8
0
 10
60.91298314
 20
31.78164089
  0
VERTEX
  8
0
 10
60.66873836
 20
31.73270940
  0
VERTEX
  8
0
 10
60.42243905
 20
31.69893939
  0
VERTEX
  8
0
 10
60.17464190
 20
31.68032169
  0
VERTEX
  8
0
 10
59.92590355
 20
31.67684717
  0
VERTEX
  8
0
 10
59.67678069
 20
31.68850666
  0
VERTEX
  8
0
 10
59.42782997
 20
31.71529102
  0
VERTEX
  8
0
 10
59.17960805
 20
31.75719109
  0
VERTEX
  8
0
 10
58.93267160
 20
31.81419773
  0
VERTEX
  8
0
 10
58.68757730
 20
31.88630177
  0
VERTEX
  8
0
 10
58.44488179
 20
31.97349407
  0
VERTEX
  8
0
 10
58.20514175
 20
32.07576549
  0
VERTEX
  8
0
 10
57.96891383
 20
32.19310685
  0
VERTEX
  8
0
 10
57.73986739
 20
32.32776199
  0
VERTEX
  8
0
 10
57.52433802
 20
32.48035794
  0
VERTEX
  8
0
 10
57.32233652
 20
32.65088299
  0
VERTEX
  8
0
 10
57.13387366
 20
32.83932542
  0
VERTEX
  8
0
 10
56.95896021
 20
33.04567354
  0
VERTEX
  8
0
 10
56.79760695
 20
33.26991564
  0
VERTEX
  8
0
 10
56.64982465
 20
33.51204001
  0
VERTEX
  8
0
 10
56.51562410
 20
33.77203493
  0
VERTEX
  8
0
 10
56.36817262
 20
34.10645136
  0
VERTEX
  8
0
 10
56.28780382
 20
34.39233457
  0
VERTEX
  8
0
 10
56.25436281
 20
34.74228635
  0
VERTEX
  8
0
 10
56.24769467
 20
35.26890851
  0
VERTEX
  8
0
 10
56.25461682
 20
35.77906905
  0
VERTEX
  8
0
 10
56.28474629
 20
36.12459674
  0
VERTEX
  8
0
 10
56.35212762
 20
36.39407054
  0
VERTEX
  8
0
 10
56.47080533
 20
36.67606943
  0
VERTEX
  8
0
 10
56.58158474
 20
36.88755523
  0
VERTEX
  8
0
 10
56.71828118
 20
37.11163559
  0
VERTEX
  8
0
 10
56.86353136
 20
37.32158162
  0
VERTEX
  8
0
 10
56.99997199
 20
37.49066443
  0
VERTEX
  8
0
 10
57.21612405
 20
37.75488424
  0
VERTEX
  8
0
 10
57.28187827
 20
37.85468993
  0
VERTEX
  8
0
 10
57.30602800
 20
37.91442018
  0
VERTEX
  8
0
 10
57.28627350
 20
37.95137045
  0
VERTEX
  8
0
 10
57.23248648
 20
37.98915149
  0
VERTEX
  8
0
 10
57.05567390
 20
38.04947933
  0
VERTEX
  8
0
 10
56.96203672
 20
38.08162219
  0
VERTEX
  8
0
 10
56.87044408
 20
38.13773736
  0
VERTEX
  8
0
 10
56.78411391
 20
38.21350681
  0
VERTEX
  8
0
 10
56.70626415
 20
38.30461251
  0
VERTEX
  8
0
 10
56.64011274
 20
38.40673644
  0
VERTEX
  8
0
 10
56.58887762
 20
38.51556057
  0
VERTEX
  8
0
 10
56.55577673
 20
38.62676687
  0
VERTEX
  8
0
 10
56.54402800
 20
38.73603730
  0
VERTEX
  8
0
 10
56.53801281
 20
38.77229047
  0
VERTEX
  8
0
 10
56.51782989
 20
38.80152401
  0
VERTEX
  8
0
 10
56.42213679
 20
38.84162713
  0
VERTEX
  8
0
 10
56.23130050
 20
38.86173647
  0
VERTEX
  8
0
 10
55.91967284
 20
38.86724184
  0
VERTEX
  8
0
 10
55.55071859
 20
38.88357232
  0
VERTEX
  8
0
 10
55.21561637
 20
38.93205280
  0
VERTEX
  8
0
 10
54.91585594
 20
39.01191689
  0
VERTEX
  8
0
 10
54.65292705
 20
39.12239817
  0
VERTEX
  8
0
 10
54.42831948
 20
39.26273023
  0
VERTEX
  8
0
 10
54.24352298
 20
39.43214667
  0
VERTEX
  8
0
 10
54.10002732
 20
39.62988108
  0
VERTEX
  8
0
 10
53.99932226
 20
39.85516704
  0
VERTEX
  8
0
 10
53.96381979
 20
39.98802778
  0
VERTEX
  8
0
 10
53.94649807
 20
40.11914238
  0
VERTEX
  8
0
 10
53.94790800
 20
40.25099314
  0
VERTEX
  8
0
 10
53.96860049
 20
40.38606234
  0
VERTEX
  8
0
 10
54.00912646
 20
40.52683226
  0
VERTEX
  8
0
 10
54.07003679
 20
40.67578519
  0
VERTEX
  8
0
 10
54.25521422
 20
41.00816921
  0
VERTEX
  8
0
 10
54.49695684
 20
41.38935776
  0
VERTEX
  8
0
 10
54.25393333
 20
41.67346647
  0
VERTEX
  8
0
 10
54.08128721
 20
41.90520679
  0
VERTEX
  8
0
 10
54.02798102
 20
41.99989746
  0
VERTEX
  8
0
 10
54.00746891
 20
42.06340851
  0
VERTEX
  8
0
 10
53.99753596
 20
42.08957694
  0
VERTEX
  8
0
 10
53.96887670
 20
42.11171446
  0
VERTEX
  8
0
 10
53.85119905
 20
42.14456473
  0
VERTEX
  8
0
 10
53.64607559
 20
42.16329522
  0
VERTEX
  8
0
 10
53.34514594
 20
42.16924184
  0
VERTEX
  8
0
 10
52.94092368
 20
42.18319803
  0
VERTEX
  8
0
 10
52.55988939
 20
42.23132934
  0
VERTEX
  8
0
 10
52.14882889
 20
42.32302989
  0
VERTEX
  8
0
 10
51.65452800
 20
42.46769382
  0
VERTEX
  8
0
 10
51.56350964
 20
42.48898737
  0
VERTEX
  8
0
 10
51.50378233
 20
42.48403511
  0
VERTEX
  8
0
 10
51.47606746
 20
42.45008539
  0
VERTEX
  8
0
 10
51.48108644
 20
42.38438653
  0
VERTEX
  8
0
 10
51.51956065
 20
42.28418686
  0
VERTEX
  8
0
 10
51.59221150
 20
42.14673471
  0
VERTEX
  8
0
 10
51.84292872
 20
41.74906628
  0
VERTEX
  8
0
 10
52.18164504
 20
41.20121212
  0
VERTEX
  8
0
 10
52.43467043
 20
40.70965169
  0
VERTEX
  8
0
 10
52.52630573
 20
40.49103017
  0
VERTEX
  8
0
 10
52.59322634
 20
40.29374032
  0
VERTEX
  8
0
 10
52.63433495
 20
40.12020157
  0
VERTEX
  8
0
 10
52.64853423
 20
39.97283332
  0
VERTEX
  8
0
 10
52.62711824
 20
39.81089153
  0
VERTEX
  8
0
 10
52.56318443
 20
39.61152954
  0
VERTEX
  8
0
 10
52.45841143
 20
39.37904423
  0
VERTEX
  8
0
 10
52.31447788
 20
39.11773247
  0
VERTEX
  8
0
 10
52.05357146
 20
38.64696802
  0
VERTEX
  8
0
 10
51.82783653
 20
38.15789488
  0
VERTEX
  8
0
 10
51.60702789
 20
37.57811787
  0
VERTEX
  8
0
 10
51.36090034
 20
36.83524184
  0
VERTEX
  8
0
 10
51.07182660
 20
36.04010579
  0
VERTEX
  8
0
 10
50.73470272
 20
35.25788506
  0
VERTEX
  8
0
 10
50.47244287
 20
34.65822520
  0
VERTEX
  8
0
 10
50.39266249
 20
34.43400551
  0
VERTEX
  8
0
 10
50.36336133
 20
34.30201210
  0
VERTEX
  8
0
 10
50.37753302
 20
34.17330776
  0
VERTEX
  8
0
 10
50.41827993
 20
34.03426382
  0
VERTEX
  8
0
 10
50.48294981
 20
33.88896051
  0
VERTEX
  8
0
 10
50.56889041
 20
33.74147802
  0
VERTEX
  8
0
 10
50.67344949
 20
33.59589656
  0
VERTEX
  8
0
 10
50.79397478
 20
33.45629635
  0
VERTEX
  8
0
 10
50.92781406
 20
33.32675758
  0
VERTEX
  8
0
 10
51.07231506
 20
33.21136048
  0
VERTEX
  8
0
 10
51.27069730
 20
33.07999483
  0
VERTEX
  8
0
 10
51.47674285
 20
32.96471087
  0
VERTEX
  8
0
 10
51.68907992
 20
32.86556627
  0
VERTEX
  8
0
 10
51.90633673
 20
32.78261866
  0
VERTEX
  8
0
 10
52.12714149
 20
32.71592571
  0
VERTEX
  8
0
 10
52.35012243
 20
32.66554506
  0
VERTEX
  8
0
 10
52.57390775
 20
32.63153437
  0
VERTEX
  8
0
 10
52.79712568
 20
32.61395129
  0
VERTEX
  8
0
 10
53.01840444
 20
32.61285347
  0
VERTEX
  8
0
 10
53.23637224
 20
32.62829856
  0
VERTEX
  8
0
 10
53.44965729
 20
32.66034422
  0
VERTEX
  8
0
 10
53.65688783
 20
32.70904810
  0
VERTEX
  8
0
 10
53.85669205
 20
32.77446785
  0
VERTEX
  8
0
 10
54.04769819
 20
32.85666111
  0
VERTEX
  8
0
 10
54.22853445
 20
32.95568556
  0
VERTEX
  8
0
 10
54.39782905
 20
33.07159882
  0
VERTEX
  8
0
 10
54.59569286
 20
33.25822894
  0
VERTEX
  8
0
 10
54.75333249
 20
33.47902195
  0
VERTEX
  8
0
 10
54.86860286
 20
33.72247067
  0
VERTEX
  8
0
 10
54.93935892
 20
33.97706792
  0
VERTEX
  8
0
 10
54.96345559
 20
34.23130652
  0
VERTEX
  8
0
 10
54.93874781
 20
34.47367929
  0
VERTEX
  8
0
 10
54.86309051
 20
34.69267905
  0
VERTEX
  8
0
 10
54.80548545
 20
34.78981806
  0
VERTEX
  8
0
 10
54.73433861
 20
34.87679862
  0
VERTEX
  8
0
 10
54.49141670
 20
35.08922402
  0
VERTEX
  8
0
 10
54.21387559
 20
35.26351004
  0
VERTEX
  8
0
 10
53.91620229
 20
35.39651578
  0
VERTEX
  8
0
 10
53.61288382
 20
35.48510032
  0
VERTEX
  8
0
 10
53.31840718
 20
35.52612278
  0
VERTEX
  8
0
 10
53.04725938
 20
35.51644223
  0
VERTEX
  8
0
 10
52.92496099
 20
35.49160680
  0
VERTEX
  8
0
 10
52.81392744
 20
35.45291777
  0
VERTEX
  8
0
 10
52.71596961
 20
35.39998255
  0
VERTEX
  8
0
 10
52.63289837
 20
35.33240851
  0
VERTEX
  8
0
 10
52.44239837
 20
35.14190851
  0
VERTEX
  8
0
 10
52.86337985
 20
35.14159202
  0
VERTEX
  8
0
 10
53.04574156
 20
35.13269052
  0
VERTEX
  8
0
 10
53.21259796
 20
35.10722480
  0
VERTEX
  8
0
 10
53.36323939
 20
35.06662477
  0
VERTEX
  8
0
 10
53.49695622
 20
35.01232036
  0
VERTEX
  8
0
 10
53.61303879
 20
34.94574148
  0
VERTEX
  8
0
 10
53.71077747
 20
34.86831805
  0
VERTEX
  8
0
 10
53.78946260
 20
34.78148000
  0
VERTEX
  8
0
 10
53.84838455
 20
34.68665723
  0
VERTEX
  8
0
 10
53.88683366
 20
34.58527967
  0
VERTEX
  8
0
 10
53.90410029
 20
34.47877724
  0
VERTEX
  8
0
 10
53.89947479
 20
34.36857986
  0
VERTEX
  8
0
 10
53.87224752
 20
34.25611744
  0
VERTEX
  8
0
 10
53.82170883
 20
34.14281991
  0
VERTEX
  8
0
 10
53.74714908
 20
34.03011718
  0
VERTEX
  8
0
 10
53.64785862
 20
33.91943917
  0
VERTEX
  8
0
 10
53.52312781
 20
33.81221580
  0
VERTEX
  8
0
 10
53.34375135
 20
33.69032437
  0
VERTEX
  8
0
 10
53.17234738
 20
33.61841430
  0
VERTEX
  8
0
 10
52.96523839
 20
33.58424483
  0
VERTEX
  8
0
 10
52.67874685
 20
33.57557518
  0
VERTEX
  8
0
 10
52.38349243
 20
33.58311229
  0
VERTEX
  8
0
 10
52.18819369
 20
33.61749967
  0
VERTEX
  8
0
 10
52.03916270
 20
33.69640135
  0
VERTEX
  8
0
 10
51.88271156
 20
33.83748136
  0
VERTEX
  8
0
 10
51.75938904
 20
33.98408117
  0
VERTEX
  8
0
 10
51.66832833
 20
34.14235125
  0
VERTEX
  8
0
 10
51.60820643
 20
34.30968079
  0
VERTEX
  8
0
 10
51.57770034
 20
34.48345899
  0
VERTEX
  8
0
 10
51.57548706
 20
34.66107504
  0
VERTEX
  8
0
 10
51.60024361
 20
34.83991814
  0
VERTEX
  8
0
 10
51.65064699
 20
35.01737748
  0
VERTEX
  8
0
 10
51.72537420
 20
35.19084226
  0
VERTEX
  8
0
 10
51.82310225
 20
35.35770168
  0
VERTEX
  8
0
 10
51.94250814
 20
35.51534492
  0
VERTEX
  8
0
 10
52.08226889
 20
35.66116120
  0
VERTEX
  8
0
 10
52.24106149
 20
35.79253969
  0
VERTEX
  8
0
 10
52.41756296
 20
35.90686960
  0
VERTEX
  8
0
 10
52.61045030
 20
36.00154012
  0
VERTEX
  8
0
 10
52.81840050
 20
36.07394044
  0
VERTEX
  8
0
 10
53.04009059
 20
36.12145977
  0
VERTEX
  8
0
 10
53.28224708
 20
36.13890903
  0
VERTEX
  8
0
 10
53.54002578
 20
36.12276959
  0
VERTEX
  8
0
 10
53.80789342
 20
36.07490760
  0
VERTEX
  8
0
 10
54.08031674
 20
35.99718924
  0
VERTEX
  8
0
 10
54.35176248
 20
35.89148066
  0
VERTEX
  8
0
 10
54.61669738
 20
35.75964804
  0
VERTEX
  8
0
 10
54.86958818
 20
35.60355752
  0
VERTEX
  8
0
 10
55.10490161
 20
35.42507529
  0
VERTEX
  8
0
 10
55.27249393
 20
35.25843416
  0
VERTEX
  8
0
 10
55.40603521
 20
35.07183110
  0
VERTEX
  8
0
 10
55.50641262
 20
34.86846311
  0
VERTEX
  8
0
 10
55.57451336
 20
34.65152717
  0
VERTEX
  8
0
 10
55.61122459
 20
34.42422026
  0
VERTEX
  8
0
 10
55.61743351
 20
34.18973938
  0
VERTEX
  8
0
 10
55.59402730
 20
33.95128150
  0
VERTEX
  8
0
 10
55.54189313
 20
33.71204362
  0
VERTEX
  8
0
 10
55.46191820
 20
33.47522272
  0
VERTEX
  8
0
 10
55.35498968
 20
33.24401579
  0
VERTEX
  8
0
 10
55.22199475
 20
33.02161981
  0
VERTEX
  8
0
 10
55.06382061
 20
32.81123177
  0
VERTEX
  8
0
 10
54.88135442
 20
32.61604865
  0
VERTEX
  8
0
 10
54.67548338
 20
32.43926744
  0
VERTEX
  8
0
 10
54.44709467
 20
32.28408514
  0
VERTEX
  8
0
 10
54.19707546
 20
32.15369871
  0
VERTEX
  8
0
 10
53.86528248
 20
32.02783780
  0
VERTEX
  8
0
 10
53.49247540
 20
31.92623331
  0
VERTEX
  8
0
 10
53.09278306
 20
31.85010281
  0
VERTEX
  8
0
 10
52.68033434
 20
31.80066388
  0
VERTEX
  8
0
 10
52.26925808
 20
31.77913410
  0
VERTEX
  8
0
 10
51.87368315
 20
31.78673106
  0
VERTEX
  8
0
 10
51.50773841
 20
31.82467233
  0
VERTEX
  8
0
 10
51.18555271
 20
31.89417548
  0
VERTEX
  8
0
 10
51.10977676
 20
31.90788694
  0
VERTEX
  8
0
 10
51.07192069
 20
31.88650172
  0
VERTEX
  8
0
 10
51.06713788
 20
31.82003387
  0
VERTEX
  8
0
 10
51.09058173
 20
31.69849745
  0
VERTEX
  8
0
 10
51.16033064
 20
31.46907566
  0
VERTEX
  8
0
 10
51.26462510
 20
31.21914793
  0
VERTEX
  8
0
 10
51.39969897
 20
30.95466384
  0
VERTEX
  8
0
 10
51.56178608
 20
30.68157296
  0
VERTEX
  8
0
 10
51.74712028
 20
30.40582489
  0
VERTEX
  8
0
 10
51.95193543
 20
30.13336919
  0
VERTEX
  8
0
 10
52.17246536
 20
29.87015547
  0
VERTEX
  8
0
 10
52.40494393
 20
29.62213330
  0
VERTEX
  8
0
 10
52.88423514
 20
29.17629054
  0
VERTEX
  8
0
 10
53.39925239
 20
28.76541569
  0
VERTEX
  8
0
 10
53.94664615
 20
28.39130150
  0
VERTEX
  8
0
 10
54.52306685
 20
28.05574075
  0
VERTEX
  8
0
 10
55.12516494
 20
27.76052621
  0
VERTEX
  8
0
 10
55.74959086
 20
27.50745066
  0
VERTEX
  8
0
 10
56.39299507
 20
27.29830687
  0
VERTEX
  8
0
 10
57.05202800
 20
27.13488761
  0
VERTEX
  8
0
 10
57.34485155
 20
27.09177821
  0
VERTEX
  8
0
 10
57.72028667
 20
27.06373638
  0
VERTEX
  8
0
 10
58.60075382
 20
27.05089946
  0
VERTEX
  8
0
 10
59.04666695
 20
27.06512641
  0
VERTEX
  8
0
 10
59.45695386
 20
27.09246499
  0
VERTEX
  8
0
 10
59.80205508
 20
27.13242622
  0
VERTEX
  8
0
 10
60.05241117
 20
27.18452110
  0
SEQEND
  0
POLYLINE
  8
Default_Layer
 62
256
 66
   1
 39
0.000000
 70
    1
  0
VERTEX
  8
0
 10
67.73901250
 20
27.98811683
  0
VERTEX
  8
0
 10
67.88097534
 20
28.10060771
  0
VERTEX
  8
0
 10
68.03665091
 20
28.25002345
  0
VERTEX
  8
0
 10
68.18718193
 20
28.41688646
  0
VERTEX
  8
0
 10
68.31371109
 20
28.58171917
  0
VERTEX
  8
0
 10
68.49441052
 20
28.84518647
  0
VERTEX
  8
0
 10
68.62826015
 20
29.08602944
  0
VERTEX
  8
0
 10
68.67976331
 20
29.22162341
  0
VERTEX
  8
0
 10
68.72213047
 20
29.37994924
  0
VERTEX
  8
0
 10
68.78289198
 20
29.80264705
  0
VERTEX
  8
0
 10
68.81741519
 20
30.42982405
  0
VERTEX
  8
0
 10
68.83257060
 20
31.33718139
  0
VERTEX
  8
0
 10
68.83226000
 20
34.29524184
  0
VERTEX
  8
0
 10
68.82223924
 20
39.03506256
  0
VERTEX
  8
0
 10
68.76187572
 20
38.97728861
  0
VERTEX
  8
0
 10
68.61891538
 20
38.78106256
  0
VERTEX
  8
0
 10
68.42120989
 20
38.53352362
  0
VERTEX
  8
0
 10
68.30386742
 20
38.42191037
  0
VERTEX
  8
0
 10
68.16422969
 20
38.31110210
  0
VERTEX
  8
0
 10
67.78816215
 20
38.07000293
  0
VERTEX
  8
0
 10
67.23319467
 20
37.76643100
  0
VERTEX
  8
0
 10
66.73987904
 20
37.48288408
  0
VERTEX
  8
0
 10
66.58981068
 20
37.37787586
  0
VERTEX
  8
0
 10
66.53469467
 20
37.31703870
  0
VERTEX
  8
0
 10
66.60837522
 20
37.02007705
  0
VERTEX
  8
0
 10
66.78552208
 20
36.42129313
  0
VERTEX
  8
0
 10
67.10187361
 20
35.34023798
  0
VERTEX
  8
0
 10
67.21124946
 20
34.90541788
  0
VERTEX
  8
0
 10
67.29277418
 20
34.51563109
  0
VERTEX
  8
0
 10
67.34995937
 20
34.15179884
  0
VERTEX
  8
0
 10
67.38631664
 20
33.79484239
  0
VERTEX
  8
0
 10
67.40535758
 20
33.42568297
  0
VERTEX
  8
0
 10
67.41059381
 20
33.02524184
  0
VERTEX
  8
0
 10
67.40139518
 20
32.57638926
  0
VERTEX
  8
0
 10
67.37094875
 20
32.16968834
  0
VERTEX
  8
0
 10
67.31329957
 20
31.78366682
  0
VERTEX
  8
0
 10
67.22249272
 20
31.39685243
  0
VERTEX
  8
0
 10
67.09257326
 20
30.98777289
  0
VERTEX
  8
0
 10
66.91758626
 20
30.53495594
  0
VERTEX
  8
0
 10
66.69157678
 20
30.01692930
  0
VERTEX
  8
0
 10
66.40858990
 20
29.41222070
  0
VERTEX
  8
0
 10
65.87498808
 20
28.29686622
  0
VERTEX
  8
0
 10
66.05671811
 20
28.12613972
  0
VERTEX
  8
0
 10
66.23359234
 20
27.98950037
  0
VERTEX
  8
0
 10
66.43398411
 20
27.88582520
  0
VERTEX
  8
0
 10
66.65090788
 20
27.81568733
  0
VERTEX
  8
0
 10
66.87737810
 20
27.77965988
  0
VERTEX
  8
0
 10
67.10640922
 20
27.77831598
  0
VERTEX
  8
0
 10
67.33101569
 20
27.81222875
  0
VERTEX
  8
0
 10
67.54421197
 20
27.88197133
  0
VERTEX
  8
0
 10
67.73901250
 20
27.98811683
  0
SEQEND
  0
POLYLINE
  8
Default_Layer
 62
256
 66
   1
 39
0.000000
 70
    1
  0
VERTEX
  8
0
 10
47.20882043
 20
28.70328842
  0
VERTEX
  8
0
 10
47.39061517
 20
28.79525386
  0
VERTEX
  8
0
 10
47.57029502
 20
28.90969259
  0
VERTEX
  8
0
 10
47.74238296
 20
29.04124599
  0
VERTEX
  8
0
 10
47.90140195
 20
29.18455545
  0
VERTEX
  8
0
 10
48.04187496
 20
29.33426237
  0
VERTEX
  8
0
 10
48.15832493
 20
29.48500813
  0
VERTEX
  8
0
 10
48.24527485
 20
29.63143411
  0
VERTEX
  8
0
 10
48.29724767
 20
29.76818171
  0
VERTEX
  8
0
 10
48.31554013
 20
29.90777952
  0
VERTEX
  8
0
 10
48.32479895
 20
30.12631892
  0
VERTEX
  8
0
 10
48.31401494
 20
30.68048295
  0
VERTEX
  8
0
 10
48.29004200
 20
30.96328000
  0
VERTEX
  8
0
 10
48.25040786
 20
31.21984684
  0
VERTEX
  8
0
 10
48.19476115
 20
31.45103523
  0
VERTEX
  8
0
 10
48.12275050
 20
31.65769692
  0
VERTEX
  8
0
 10
48.03402457
 20
31.84068366
  0
VERTEX
  8
0
 10
47.92823199
 20
32.00084719
  0
VERTEX
  8
0
 10
47.80502140
 20
32.13903927
  0
VERTEX
  8
0
 10
47.66404143
 20
32.25611165
  0
VERTEX
  8
0
 10
47.54609517
 20
32.33109261
  0
VERTEX
  8
0
 10
47.42883060
 20
32.38363117
  0
VERTEX
  8
0
 10
47.30427539
 20
32.41348120
  0
VERTEX
  8
0
 10
47.16445717
 20
32.42039661
  0
VERTEX
  8
0
 10
47.00140360
 20
32.40413127
  0
VERTEX
  8
0
 10
46.80714232
 20
32.36443907
  0
VERTEX
  8
0
 10
46.29310726
 20
32.21378963
  0
VERTEX
  8
0
 10
46.01351134
 20
32.13110091
  0
VERTEX
  8
0
 10
45.73816466
 20
32.06717341
  0
VERTEX
  8
0
 10
45.45699356
 20
32.02135931
  0
VERTEX
  8
0
 10
45.15992442
 20
31.99301076
  0
VERTEX
  8
0
 10
44.83688359
 20
31.98147993
  0
VERTEX
  8
0
 10
44.47779745
 20
31.98611898
  0
VERTEX
  8
0
 10
43.61119467
 20
32.04131537
  0
VERTEX
  8
0
 10
42.74336133
 20
32.11572223
  0
VERTEX
  8
0
 10
42.74336133
 20
31.30048204
  0
VERTEX
  8
0
 10
42.74957904
 20
30.72503370
  0
VERTEX
  8
0
 10
42.76452800
 20
30.48631436
  0
VERTEX
  8
0
 10
43.27339038
 20
30.73473106
  0
VERTEX
  8
0
 10
43.69786441
 20
30.92152287
  0
VERTEX
  8
0
 10
44.14189224
 20
31.06516490
  0
VERTEX
  8
0
 10
44.59197978
 20
31.16467796
  0
VERTEX
  8
0
 10
45.03463291
 20
31.21908289
  0
VERTEX
  8
0
 10
45.45635754
 20
31.22740048
  0
VERTEX
  8
0
 10
45.84365957
 20
31.18865157
  0
VERTEX
  8
0
 10
46.02018520
 20
31.15132118
  0
VERTEX
  8
0
 10
46.18304490
 20
31.10185696
  0
VERTEX
  8
0
 10
46.33055190
 20
31.04013653
  0
VERTEX
  8
0
 10
46.46101944
 20
30.96603748
  0
VERTEX
  8
0
 10
46.61740716
 20
30.84415525
  0
VERTEX
  8
0
 10
46.75801335
 20
30.69883781
  0
VERTEX
  8
0
 10
46.87962483
 20
30.53656239
  0
VERTEX
  8
0
 10
46.97902841
 20
30.36380621
  0
VERTEX
  8
0
 10
47.05301092
 20
30.18704647
  0
VERTEX
  8
0
 10
47.09835915
 20
30.01276039
  0
VERTEX
  8
0
 10
47.11185994
 20
29.84742518
  0
VERTEX
  8
0
 10
47.09030010
 20
29.69751807
  0
VERTEX
  8
0
 10
47.02967903
 20
29.54929284
  0
VERTEX
  8
0
 10
46.94041590
 20
29.41733837
  0
VERTEX
  8
0
 10
46.82700246
 20
29.30208184
  0
VERTEX
  8
0
 10
46.69393046
 20
29.20395040
  0
VERTEX
  8
0
 10
46.54569165
 20
29.12337125
  0
VERTEX
  8
0
 10
46.38677777
 20
29.06077156
  0
VERTEX
  8
0
 10
46.22168057
 20
29.01657849
  0
VERTEX
  8
0
 10
46.05489179
 20
28.99121922
  0
VERTEX
  8
0
 10
45.89090319
 20
28.98512093
  0
VERTEX
  8
0
 10
45.73420652
 20
28.99871079
  0
VERTEX
  8
0
 10
45.58929351
 20
29.03241597
  0
VERTEX
  8
0
 10
45.46065592
 20
29.08666365
  0
VERTEX
  8
0
 10
45.35278549
 20
29.16188099
  0
VERTEX
  8
0
 10
45.27017397
 20
29.25849519
  0
VERTEX
  8
0
 10
45.21731312
 20
29.37693339
  0
VERTEX
  8
0
 10
45.19869467
 20
29.51762280
  0
VERTEX
  8
0
 10
45.20941173
 20
29.62864652
  0
VERTEX
  8
0
 10
45.22764904
 20
29.66486502
  0
VERTEX
  8
0
 10
45.25877527
 20
29.69056188
  0
VERTEX
  8
0
 10
45.37260378
 20
29.71741245
  0
VERTEX
  8
0
 10
45.57671577
 20
29.72324184
  0
VERTEX
  8
0
 10
45.74795646
 20
29.73328995
  0
VERTEX
  8
0
 10
45.88468143
 20
29.76225771
  0
VERTEX
  8
0
 10
45.98572358
 20
29.80838029
  0
VERTEX
  8
0
 10
46.04991583
 20
29.86989285
  0
VERTEX
  8
0
 10
46.07609108
 20
29.94503057
  0
VERTEX
  8
0
 10
46.06308224
 20
30.03202860
  0
VERTEX
  8
0
 10
46.00972222
 20
30.12912212
  0
VERTEX
  8
0
 10
45.91484391
 20
30.23454629
  0
VERTEX
  8
0
 10
45.79519152
 20
30.32753430
  0
VERTEX
  8
0
 10
45.66129675
 20
30.38905367
  0
VERTEX
  8
0
 10
45.49849680
 20
30.42386513
  0
VERTEX
  8
0
 10
45.29212887
 20
30.43672938
  0
VERTEX
  8
0
 10
45.09715473
 20
30.43033695
  0
VERTEX
  8
0
 10
44.93386636
 20
30.40378189
  0
VERTEX
  8
0
 10
44.80051297
 20
30.35546154
  0
VERTEX
  8
0
 10
44.69534376
 20
30.28377319
  0
VERTEX
  8
0
 10
44.61660795
 20
30.18711417
  0
VERTEX
  8
0
 10
44.56255473
 20
30.06388180
  0
VERTEX
  8
0
 10
44.53143332
 20
29.91247338
  0
VERTEX
  8
0
 10
44.52149290
 20
29.73128623
  0
VERTEX
  8
0
 10
44.53195598
 20
29.54293118
  0
VERTEX
  8
0
 10
44.56255916
 20
29.36408701
  0
VERTEX
  8
0
 10
44.61231865
 20
29.19663819
  0
VERTEX
  8
0
 10
44.68025066
 20
29.04246919
  0
VERTEX
  8
0
 10
44.76537139
 20
28.90346445
  0
VERTEX
  8
0
 10
44.86669705
 20
28.78150845
  0
VERTEX
  8
0
 10
44.98324385
 20
28.67848565
  0
VERTEX
  8
0
 10
45.11402800
 20
28.59628051
  0
VERTEX
  8
0
 10
45.29813547
 20
28.52822442
  0
VERTEX
  8
0
 10
45.53033140
 20
28.48475648
  0
VERTEX
  8
0
 10
45.79767750
 20
28.46521578
  0
VERTEX
  8
0
 10
46.08723549
 20
28.46894139
  0
VERTEX
  8
0
 10
46.38606706
 20
28.49527239
  0
VERTEX
  8
0
 10
46.68123394
 20
28.54354784
  0
VERTEX
  8
0
 10
46.95979783
 20
28.61310683
  0
VERTEX
  8
0
 10
47.20882043
 20
28.70328842
  0
SEQEND
  0
POLYLINE
  8
Default_Layer
 62
256
 66
   1
 39
0.000000
 70
    1
  0
VERTEX
  8
0
 10
46.59569467
 20
33.61724150
  0
VERTEX
  8
0
 10
47.11703373
 20
33.80394568
  0
VERTEX
  8
0
 10
47.60090749
 20
34.02540738
  0
VERTEX
  8
0
 10
48.05245066
 20
34.28568422
  0
VERTEX
  8
0
 10
48.47679796
 20
34.58883378
  0
VERTEX
  8
0
 10
48.87908412
 20
34.93891369
  0
VERTEX
  8
0
 10
49.26444385
 20
35.33998153
  0
VERTEX
  8
0
 10
49.63801188
 20
35.79609492
  0
VERTEX
  8
0
 10
50.00492292
 20
36.31131145
  0
VERTEX
  8
0
 10
50.32156621
 20
36.81645486
  0
VERTEX
  8
0
 10
50.55344363
 20
37.25012938
  0
VERTEX
  8
0
 10
50.68008638
 20
37.56935034
  0
VERTEX
  8
0
 10
50.69754825
 20
37.67260803
  0
VERTEX
  8
0
 10
50.68102565
 20
37.73113308
  0
VERTEX
  8
0
 10
50.62937689
 20
37.72892855
  0
VERTEX
  8
0
 10
50.51675041
 20
37.69492482
  0
VERTEX
  8
0
 10
50.17498243
 20
37.55467926
  0
VERTEX
  8
0
 10
49.71303690
 20
37.36534154
  0
VERTEX
  8
0
 10
49.25150678
 20
37.21752725
  0
VERTEX
  8
0
 10
48.80265952
 20
37.11240869
  0
VERTEX
  8
0
 10
48.37876262
 20
37.05115819
  0
VERTEX
  8
0
 10
47.99208353
 20
37.03494804
  0
VERTEX
  8
0
 10
47.65488975
 20
37.06495056
  0
VERTEX
  8
0
 10
47.50868343
 20
37.09764792
  0
VERTEX
  8
0
 10
47.37944874
 20
37.14233807
  0
VERTEX
  8
0
 10
47.26871911
 20
37.19916753
  0
VERTEX
  8
0
 10
47.17802798
 20
37.26828286
  0
VERTEX
  8
0
 10
47.10375292
 20
37.35244799
  0
VERTEX
  8
0
 10
47.04642243
 20
37.44808714
  0
VERTEX
  8
0
 10
47.00631795
 20
37.55286277
  0
VERTEX
  8
0
 10
46.98372091
 20
37.66443736
  0
VERTEX
  8
0
 10
46.97891278
 20
37.78047336
  0
VERTEX
  8
0
 10
46.99217500
 20
37.89863327
  0
VERTEX
  8
0
 10
47.02378901
 20
38.01657953
  0
VERTEX
  8
0
 10
47.07403627
 20
38.13197462
  0
VERTEX
  8
0
 10
47.16474510
 20
38.27787179
  0
VERTEX
  8
0
 10
47.27341576
 20
38.37883892
  0
VERTEX
  8
0
 10
47.43191231
 20
38.45613704
  0
VERTEX
  8
0
 10
47.67209879
 20
38.53102721
  0
VERTEX
  8
0
 10
47.88984040
 20
38.56426637
  0
VERTEX
  8
0
 10
48.11708145
 20
38.53945977
  0
VERTEX
  8
0
 10
48.37311906
 20
38.45212985
  0
VERTEX
  8
0
 10
48.67725036
 20
38.29779905
  0
VERTEX
  8
0
 10
48.70413291
 20
38.30790656
  0
VERTEX
  8
0
 10
48.74288785
 20
38.35813388
  0
VERTEX
  8
0
 10
48.84777377
 20
38.56082140
  0
VERTEX
  8
0
 10
48.97542591
 20
38.86960844
  0
VERTEX
  8
0
 10
49.10936204
 20
39.24824184
  0
VERTEX
  8
0
 10
49.16794706
 20
39.38451262
  0
VERTEX
  8
0
 10
49.26097802
 20
39.53841419
  0
VERTEX
  8
0
 10
49.39039265
 20
39.71208795
  0
VERTEX
  8
0
 10
49.55812862
 20
39.90767530
  0
VERTEX
  8
0
 10
50.01631540
 20
40.37315636
  0
VERTEX
  8
0
 10
50.65103998
 20
40.95198856
  0
VERTEX
  8
0
 10
50.90266822
 20
41.18285235
  0
VERTEX
  8
0
 10
51.04373381
 20
41.34368729
  0
VERTEX
  8
0
 10
51.07982164
 20
41.40813440
  0
VERTEX
  8
0
 10
51.09668804
 20
41.46742286
  0
VERTEX
  8
0
 10
51.08398219
 20
41.58698856
  0
VERTEX
  8
0
 10
51.01289495
 20
41.80003878
  0
VERTEX
  8
0
 10
50.92554776
 20
42.01339381
  0
VERTEX
  8
0
 10
50.69950041
 20
42.44532268
  0
VERTEX
  8
0
 10
50.40069397
 20
42.89138380
  0
VERTEX
  8
0
 10
50.02398227
 20
43.36018586
  0
VERTEX
  8
0
 10
49.61632887
 20
43.85336036
  0
VERTEX
  8
0
 10
49.47339114
 20
44.05128906
  0
VERTEX
  8
0
 10
49.36330100
 20
44.23086919
  0
VERTEX
  8
0
 10
49.28024967
 20
44.40266858
  0
VERTEX
  8
0
 10
49.21842835
 20
44.57725509
  0
VERTEX
  8
0
 10
49.17202827
 20
44.76519656
  0
VERTEX
  8
0
 10
49.13524063
 20
44.97706083
  0
VERTEX
  8
0
 10
49.07633829
 20
45.37187982
  0
VERTEX
  8
0
 10
48.56802932
 20
45.04334388
  0
VERTEX
  8
0
 10
48.14601770
 20
44.79240736
  0
VERTEX
  8
0
 10
47.72918509
 20
44.59104492
  0
VERTEX
  8
0
 10
47.30901506
 20
44.43762389
  0
VERTEX
  8
0
 10
46.87699116
 20
44.33051163
  0
VERTEX
  8
0
 10
46.42459694
 20
44.26807548
  0
VERTEX
  8
0
 10
45.94331598
 20
44.24868277
  0
VERTEX
  8
0
 10
45.42463181
 20
44.27070087
  0
VERTEX
  8
0
 10
44.86002800
 20
44.33249711
  0
VERTEX
  8
0
 10
43.28929238
 20
44.54489509
  0
VERTEX
  8
0
 10
42.85612803
 20
44.59137051
  0
VERTEX
  8
0
 10
42.83222363
 20
44.28022405
  0
VERTEX
  8
0
 10
42.82037038
 20
43.61775345
  0
VERTEX
  8
0
 10
42.82299440
 20
42.95288021
  0
VERTEX
  8
0
 10
42.84252178
 20
42.63452584
  0
VERTEX
  8
0
 10
43.01872496
 20
42.56536721
  0
VERTEX
  8
0
 10
43.37981552
 20
42.46163909
  0
VERTEX
  8
0
 10
43.66197238
 20
42.37845390
  0
VERTEX
  8
0
 10
43.93384020
 20
42.27889711
  0
VERTEX
  8
0
 10
44.19474634
 20
42.16364459
  0
VERTEX
  8
0
 10
44.44401815
 20
42.03337223
  0
VERTEX
  8
0
 10
44.68098296
 20
41.88875591
  0
VERTEX
  8
0
 10
44.90496813
 20
41.73047149
  0
VERTEX
  8
0
 10
45.11530101
 20
41.55919486
  0
VERTEX
  8
0
 10
45.31130896
 20
41.37560189
  0
VERTEX
  8
0
 10
45.49231931
 20
41.18036846
  0
VERTEX
  8
0
 10
45.65765941
 20
40.97417044
  0
VERTEX
  8
0
 10
45.80665663
 20
40.75768372
  0
VERTEX
  8
0
 10
45.93863829
 20
40.53158416
  0
VERTEX
  8
0
 10
46.05293177
 20
40.29654766
  0
VERTEX
  8
0
 10
46.14886439
 20
40.05325007
  0
VERTEX
  8
0
 10
46.22576352
 20
39.80236729
  0
VERTEX
  8
0
 10
46.28295651
 20
39.54457518
  0
VERTEX
  8
0
 10
46.32159661
 20
39.24676220
  0
VERTEX
  8
0
 10
46.32826730
 20
38.96126866
  0
VERTEX
  8
0
 10
46.30358609
 20
38.68872523
  0
VERTEX
  8
0
 10
46.24817049
 20
38.42976258
  0
VERTEX
  8
0
 10
46.16263800
 20
38.18501138
  0
VERTEX
  8
0
 10
46.04760615
 20
37.95510232
  0
VERTEX
  8
0
 10
45.90369245
 20
37.74066606
  0
VERTEX
  8
0
 10
45.73151440
 20
37.54233327
  0
VERTEX
  8
0
 10
45.53168953
 20
37.36073464
  0
VERTEX
  8
0
 10
45.30483534
 20
37.19650083
  0
VERTEX
  8
0
 10
45.05156935
 20
37.05026252
  0
VERTEX
  8
0
 10
44.77250907
 20
36.92265038
  0
VERTEX
  8
0
 10
44.46827201
 20
36.81429509
  0
VERTEX
  8
0
 10
44.13947568
 20
36.72582732
  0
VERTEX
  8
0
 10
43.78673760
 20
36.65787774
  0
VERTEX
  8
0
 10
43.41067529
 20
36.61107702
  0
VERTEX
  8
0
 10
42.82802800
 20
36.55692567
  0
VERTEX
  8
0
 10
42.81827825
 20
35.27791709
  0
VERTEX
  8
0
 10
42.82132945
 20
34.01144946
  0
VERTEX
  8
0
 10
42.83823650
 20
33.73976003
  0
VERTEX
  8
0
 10
42.86759310
 20
33.63601105
  0
VERTEX
  8
0
 10
43.43081435
 20
33.48916858
  0
VERTEX
  8
0
 10
43.76225390
 20
33.43318788
  0
VERTEX
  8
0
 10
44.15062119
 20
33.39933746
  0
VERTEX
  8
0
 10
44.57661956
 20
33.38683642
  0
VERTEX
  8
0
 10
45.02095236
 20
33.39490391
  0
VERTEX
  8
0
 10
45.46432293
 20
33.42275903
  0
VERTEX
  8
0
 10
45.88743461
 20
33.46962092
  0
VERTEX
  8
0
 10
46.27099074
 20
33.53470870
  0
VERTEX
  8
0
 10
46.59569467
 20
33.61724150
  0
SEQEND
  0
POLYLINE
  8
Default_Layer
 62
256
 66
   1
 39
0.000000
 70
    1
  0
VERTEX
  8
0
 10
44.54843188
 20
38.12640851
  0
VERTEX
  8
0
 10
44.81673731
 20
38.41522168
  0
VERTEX
  8
0
 10
45.01083497
 20
38.69962610
  0
VERTEX
  8
0
 10
45.08006857
 20
38.84057979
  0
VERTEX
  8
0
 10
45.13076548
 20
38.98091699
  0
VERTEX
  8
0
 10
45.16293075
 20
39.12079959
  0
VERTEX
  8
0
 10
45.17656949
 20
39.26038951
  0
VERTEX
  8
0
 10
45.17168676
 20
39.39984865
  0
VERTEX
  8
0
 10
45.14828764
 20
39.53933889
  0
VERTEX
  8
0
 10
45.10637722
 20
39.67902214
  0
VERTEX
  8
0
 10
45.04596057
 20
39.81906030
  0
VERTEX
  8
0
 10
44.96704278
 20
39.95961526
  0
VERTEX
  8
0
 10
44.86962892
 20
40.10084893
  0
VERTEX
  8
0
 10
44.61933333
 20
40.38600000
  0
VERTEX
  8
0
 10
44.45910702
 20
40.52943021
  0
VERTEX
  8
0
 10
44.26287456
 20
40.67810962
  0
VERTEX
  8
0
 10
43.80152057
 20
40.96909801
  0
VERTEX
  8
0
 10
43.31353016
 20
41.21472917
  0
VERTEX
  8
0
 10
43.08400218
 20
41.30671203
  0
VERTEX
  8
0
 10
42.87716214
 20
41.37076709
  0
VERTEX
  8
0
 10
42.75299012
 20
41.39379592
  0
VERTEX
  8
0
 10
42.71424967
 20
41.38629626
  0
VERTEX
  8
0
 10
42.68789598
 20
41.36064909
  0
VERTEX
  8
0
 10
42.66281805
 20
41.23849783
  0
VERTEX
  8
0
 10
42.65869467
 20
40.99451334
  0
VERTEX
  8
0
 10
42.65869467
 20
40.56342774
  0
VERTEX
  8
0
 10
43.08966602
 20
40.34503803
  0
VERTEX
  8
0
 10
43.30408816
 20
40.22507667
  0
VERTEX
  8
0
 10
43.51301587
 20
40.08682006
  0
VERTEX
  8
0
 10
43.71117939
 20
39.93523565
  0
VERTEX
  8
0
 10
43.89330899
 20
39.77529090
  0
VERTEX
  8
0
 10
44.05413491
 20
39.61195326
  0
VERTEX
  8
0
 10
44.18838741
 20
39.45019018
  0
VERTEX
  8
0
 10
44.29079675
 20
39.29496913
  0
VERTEX
  8
0
 10
44.35609318
 20
39.15125755
  0
VERTEX
  8
0
 10
44.39305680
 20
39.01000249
  0
VERTEX
  8
0
 10
44.41159107
 20
38.86657197
  0
VERTEX
  8
0
 10
44.41178338
 20
38.72143836
  0
VERTEX
  8
0
 10
44.39372111
 20
38.57507406
  0
VERTEX
  8
0
 10
44.35749165
 20
38.42795145
  0
VERTEX
  8
0
 10
44.30318238
 20
38.28054289
  0
VERTEX
  8
0
 10
44.23088069
 20
38.13332079
  0
VERTEX
  8
0
 10
44.14067396
 20
37.98675753
  0
VERTEX
  8
0
 10
44.00439353
 20
37.75347586
  0
VERTEX
  8
0
 10
43.99781706
 20
37.70457160
  0
VERTEX
  8
0
 10
44.03121174
 20
37.70045814
  0
VERTEX
  8
0
 10
44.10377406
 20
37.74086028
  0
VERTEX
  8
0
 10
44.21470053
 20
37.82550286
  0
VERTEX
  8
0
 10
44.54843188
 20
38.12640851
  0
SEQEND
  0
POLYLINE
  8
Default_Layer
 62
256
 66
   1
 39
0.000000
 70
    1
  0
VERTEX
  8
0
 10
67.15084230
 20
38.52877615
  0
VERTEX
  8
0
 10
67.29469201
 20
38.58267927
  0
VERTEX
  8
0
 10
67.44477395
 20
38.66011701
  0
VERTEX
  8
0
 10
67.74319715
 20
38.86878456
  0
VERTEX
  8
0
 10
68.00523728
 20
39.12115526
  0
VERTEX
  8
0
 10
68.10984037
 20
39.25322192
  0
VERTEX
  8
0
 10
68.19001970
 20
39.38360554
  0
VERTEX
  8
0
 10
68.24849975
 20
39.52096429
  0
VERTEX
  8
0
 10
68.28700314
 20
39.66668118
  0
VERTEX
  8
0
 10
68.30567105
 20
39.81869983
  0
VERTEX
  8
0
 10
68.30464465
 20
39.97496388
  0
VERTEX
  8
0
 10
68.28406512
 20
40.13341695
  0
VERTEX
  8
0
 10
68.24407362
 20
40.29200269
  0
VERTEX
  8
0
 10
68.18481135
 20
40.44866471
  0
VERTEX
  8
0
 10
68.10641945
 20
40.60134667
  0
VERTEX
  8
0
 10
68.01643639
 20
40.73255474
  0
VERTEX
  8
0
 10
67.90938929
 20
40.85066523
  0
VERTEX
  8
0
 10
67.78764881
 20
40.95531948
  0
VERTEX
  8
0
 10
67.65358559
 20
41.04615883
  0
VERTEX
  8
0
 10
67.50957027
 20
41.12282461
  0
VERTEX
  8
0
 10
67.35797350
 20
41.18495818
  0
VERTEX
  8
0
 10
67.20116592
 20
41.23220085
  0
VERTEX
  8
0
 10
67.04151818
 20
41.26419399
  0
VERTEX
  8
0
 10
66.88140091
 20
41.28057892
  0
VERTEX
  8
0
 10
66.72318478
 20
41.28099698
  0
VERTEX
  8
0
 10
66.56924041
 20
41.26508951
  0
VERTEX
  8
0
 10
66.42193846
 20
41.23249786
  0
VERTEX
  8
0
 10
66.28364956
 20
41.18286336
  0
VERTEX
  8
0
 10
66.15674437
 20
41.11582735
  0
VERTEX
  8
0
 10
66.04359353
 20
41.03103116
  0
VERTEX
  8
0
 10
65.94656767
 20
40.92811615
  0
VERTEX
  8
0
 10
65.81182892
 20
40.73738209
  0
VERTEX
  8
0
 10
65.78627775
 20
40.67930772
  0
VERTEX
  8
0
 10
65.78905507
 20
40.64552062
  0
VERTEX
  8
0
 10
65.82049816
 20
40.63558993
  0
VERTEX
  8
0
 10
65.88094427
 20
40.64908477
  0
VERTEX
  8
0
 10
66.09019467
 20
40.74462757
  0
VERTEX
  8
0
 10
66.32463828
 20
40.83734673
  0
VERTEX
  8
0
 10
66.57103591
 20
40.88175122
  0
VERTEX
  8
0
 10
66.82026473
 20
40.88036317
  0
VERTEX
  8
0
 10
67.06320195
 20
40.83570471
  0
VERTEX
  8
0
 10
67.29072474
 20
40.75029795
  0
VERTEX
  8
0
 10
67.49371031
 20
40.62666504
  0
VERTEX
  8
0
 10
67.66303582
 20
40.46732810
  0
VERTEX
  8
0
 10
67.78957848
 20
40.27480925
  0
VERTEX
  8
0
 10
67.84270274
 20
40.14627312
  0
VERTEX
  8
0
 10
67.85470490
 20
40.03893391
  0
VERTEX
  8
0
 10
67.82307627
 20
39.92443600
  0
VERTEX
  8
0
 10
67.74530815
 20
39.77442373
  0
VERTEX
  8
0
 10
67.65081528
 20
39.63771612
  0
VERTEX
  8
0
 10
67.53491193
 20
39.51673565
  0
VERTEX
  8
0
 10
67.40024580
 20
39.41167700
  0
VERTEX
  8
0
 10
67.24946457
 20
39.32273483
  0
VERTEX
  8
0
 10
67.08521595
 20
39.25010382
  0
VERTEX
  8
0
 10
66.91014762
 20
39.19397863
  0
VERTEX
  8
0
 10
66.72690728
 20
39.15455394
  0
VERTEX
  8
0
 10
66.53814261
 20
39.13202442
  0
VERTEX
  8
0
 10
66.34650132
 20
39.12658474
  0
VERTEX
  8
0
 10
66.15463109
 20
39.13842956
  0
VERTEX
  8
0
 10
65.96517962
 20
39.16775356
  0
VERTEX
  8
0
 10
65.78079460
 20
39.21475142
  0
VERTEX
  8
0
 10
65.60412372
 20
39.27961779
  0
VERTEX
  8
0
 10
65.43781468
 20
39.36254735
  0
VERTEX
  8
0
 10
65.28451517
 20
39.46373478
  0
VERTEX
  8
0
 10
65.14687288
 20
39.58337474
  0
VERTEX
  8
0
 10
65.03002109
 20
39.71697177
  0
VERTEX
  8
0
 10
64.93791937
 20
39.85792891
  0
VERTEX
  8
0
 10
64.87001490
 20
40.00472854
  0
VERTEX
  8
0
 10
64.82575484
 20
40.15585304
  0
VERTEX
  8
0
 10
64.80458637
 20
40.30978477
  0
VERTEX
  8
0
 10
64.80595667
 20
40.46500611
  0
VERTEX
  8
0
 10
64.82931289
 20
40.61999944
  0
VERTEX
  8
0
 10
64.87410222
 20
40.77324713
  0
VERTEX
  8
0
 10
64.93977182
 20
40.92323156
  0
VERTEX
  8
0
 10
65.02576887
 20
41.06843510
  0
VERTEX
  8
0
 10
65.13154054
 20
41.20734013
  0
VERTEX
  8
0
 10
65.25653401
 20
41.33842902
  0
VERTEX
  8
0
 10
65.40019644
 20
41.46018416
  0
VERTEX
  8
0
 10
65.56197500
 20
41.57108791
  0
VERTEX
  8
0
 10
65.74131687
 20
41.66962264
  0
VERTEX
  8
0
 10
65.93766923
 20
41.75427074
  0
VERTEX
  8
0
 10
66.28103230
 20
41.85649364
  0
VERTEX
  8
0
 10
66.64374618
 20
41.91524656
  0
VERTEX
  8
0
 10
67.01436248
 20
41.93191975
  0
VERTEX
  8
0
 10
67.38143282
 20
41.90790349
  0
VERTEX
  8
0
 10
67.73350883
 20
41.84458804
  0
VERTEX
  8
0
 10
68.05914213
 20
41.74336368
  0
VERTEX
  8
0
 10
68.34688433
 20
41.60562068
  0
VERTEX
  8
0
 10
68.47296865
 20
41.52348914
  0
VERTEX
  8
0
 10
68.58528705
 20
41.43274930
  0
VERTEX
  8
0
 10
68.70809841
 20
41.35135745
  0
VERTEX
  8
0
 10
68.75761218
 20
41.33875188
  0
VERTEX
  8
0
 10
68.79023168
 20
41.34855663
  0
VERTEX
  8
0
 10
68.81450316
 20
41.53542727
  0
VERTEX
  8
0
 10
68.83315685
 20
41.98336170
  0
VERTEX
  8
0
 10
68.85213428
 20
43.30984489
  0
VERTEX
  8
0
 10
68.84421082
 20
44.62285227
  0
VERTEX
  8
0
 10
68.82923842
 20
45.05394191
  0
VERTEX
  8
0
 10
68.80643337
 20
45.21722985
  0
VERTEX
  8
0
 10
68.77094565
 20
45.19552214
  0
VERTEX
  8
0
 10
68.71615728
 20
45.13640811
  0
VERTEX
  8
0
 10
68.57858383
 20
44.94207518
  0
VERTEX
  8
0
 10
68.37696331
 20
44.66264485
  0
VERTEX
  8
0
 10
68.12362157
 20
44.38381674
  0
VERTEX
  8
0
 10
67.82765271
 20
44.11218181
  0
VERTEX
  8
0
 10
67.49815080
 20
43.85433103
  0
VERTEX
  8
0
 10
67.14420995
 20
43.61685535
  0
VERTEX
  8
0
 10
66.77492425
 20
43.40634574
  0
VERTEX
  8
0
 10
66.39938779
 20
43.22939316
  0
VERTEX
  8
0
 10
66.02669467
 20
43.09258857
  0
VERTEX
  8
0
 10
65.70729573
 20
43.00887886
  0
VERTEX
  8
0
 10
65.35334788
 20
42.94338453
  0
VERTEX
  8
0
 10
64.97786112
 20
42.89669522
  0
VERTEX
  8
0
 10
64.59384549
 20
42.86940054
  0
VERTEX
  8
0
 10
64.21431101
 20
42.86209014
  0
VERTEX
  8
0
 10
63.85226769
 20
42.87535365
  0
VERTEX
  8
0
 10
63.52072557
 20
42.90978069
  0
VERTEX
  8
0
 10
63.23269467
 20
42.96596089
  0
VERTEX
  8
0
 10
62.82532435
 20
43.09679801
  0
VERTEX
  8
0
 10
62.42507100
 20
43.27566464
  0
VERTEX
  8
0
 10
62.03945341
 20
43.49668394
  0
VERTEX
  8
0
 10
61.67599032
 20
43.75397906
  0
VERTEX
  8
0
 10
61.34220053
 20
44.04167315
  0
VERTEX
  8
0
 10
61.04560281
 20
44.35388936
  0
VERTEX
  8
0
 10
60.79371592
 20
44.68475084
  0
VERTEX
  8
0
 10
60.59405864
 20
45.02838073
  0
VERTEX
  8
0
 10
60.49894227
 20
45.25591414
  0
VERTEX
  8
0
 10
60.43325765
 20
45.50306839
  0
VERTEX
  8
0
 10
60.39123418
 20
45.79893670
  0
VERTEX
  8
0
 10
60.36710124
 20
46.17261226
  0
VERTEX
  8
0
 10
60.35773894
 20
46.58412221
  0
VERTEX
  8
0
 10
60.37861297
 20
46.86974015
  0
VERTEX
  8
0
 10
60.44232807
 20
47.10744750
  0
VERTEX
  8
0
 10
60.56148898
 20
47.37522570
  0
VERTEX
  8
0
 10
60.65830099
 20
47.55746996
  0
VERTEX
  8
0
 10
60.76255895
 20
47.72110422
  0
VERTEX
  8
0
 10
60.87778892
 20
47.86948914
  0
VERTEX
  8
0
 10
61.00751696
 20
48.00598540
  0
VERTEX
  8
0
 10
61.15526913
 20
48.13395366
  0
VERTEX
  8
0
 10
61.32457149
 20
48.25675458
  0
VERTEX
  8
0
 10
61.74193103
 20
48.50029707
  0
VERTEX
  8
0
 10
61.98819981
 20
48.61523034
  0
VERTEX
  8
0
 10
62.22005212
 20
48.68432940
  0
VERTEX
  8
0
 10
62.49028479
 20
48.71844816
  0
VERTEX
  8
0
 10
62.85169467
 20
48.72844051
  0
VERTEX
  8
0
 10
63.08379113
 20
48.72206583
  0
VERTEX
  8
0
 10
63.30149419
 20
48.70149063
  0
VERTEX
  8
0
 10
63.50432295
 20
48.66715215
  0
VERTEX
  8
0
 10
63.69179654
 20
48.61948761
  0
VERTEX
  8
0
 10
63.86343408
 20
48.55893427
  0
VERTEX
  8
0
 10
64.01875468
 20
48.48592935
  0
VERTEX
  8
0
 10
64.15727747
 20
48.40091010
  0
VERTEX
  8
0
 10
64.27852156
 20
48.30431375
  0
VERTEX
  8
0
 10
64.38200606
 20
48.19657754
  0
VERTEX
  8
0
 10
64.46725011
 20
48.07813870
  0
VERTEX
  8
0
 10
64.53377282
 20
47.94943448
  0
VERTEX
  8
0
 10
64.58109330
 20
47.81090212
  0
VERTEX
  8
0
 10
64.60873067
 20
47.66297883
  0
VERTEX
  8
0
 10
64.61620406
 20
47.50610188
  0
VERTEX
  8
0
 10
64.60303259
 20
47.34070849
  0
VERTEX
  8
0
 10
64.56873536
 20
47.16723590
  0
VERTEX
  8
0
 10
64.52005752
 20
47.02601927
  0
VERTEX
  8
0
 10
64.44895152
 20
46.88853464
  0
VERTEX
  8
0
 10
64.36003497
 20
46.75943515
  0
VERTEX
  8
0
 10
64.25792552
 20
46.64337396
  0
VERTEX
  8
0
 10
64.14724079
 20
46.54500422
  0
VERTEX
  8
0
 10
64.03259843
 20
46.46897907
  0
VERTEX
  8
0
 10
63.91861606
 20
46.41995168
  0
VERTEX
  8
0
 10
63.80991131
 20
46.40257518
  0
VERTEX
  8
0
 10
63.72752780
 20
46.41046061
  0
VERTEX
  8
0
 10
63.71089762
 20
46.42311746
  0
VERTEX
  8
0
 10
63.71156555
 20
46.44407265
  0
VERTEX
  8
0
 10
63.76756687
 20
46.51834490
  0
VERTEX
  8
0
 10
63.90107405
 20
46.64821094
  0
VERTEX
  8
0
 10
64.03974453
 20
46.80443235
  0
VERTEX
  8
0
 10
64.12874547
 20
46.96507004
  0
VERTEX
  8
0
 10
64.16873545
 20
47.12690960
  0
VERTEX
  8
0
 10
64.16037300
 20
47.28673664
  0
VERTEX
  8
0
 10
64.10431669
 20
47.44133679
  0
VERTEX
  8
0
 10
64.00122506
 20
47.58749566
  0
VERTEX
  8
0
 10
63.85175667
 20
47.72199884
  0
VERTEX
  8
0
 10
63.65657006
 20
47.84163197
  0
VERTEX
  8
0
 10
63.49941607
 20
47.91167821
  0
VERTEX
  8
0
 10
63.34149627
 20
47.96201506
  0
VERTEX
  8
0
 10
63.18327364
 20
47.99263943
  0
VERTEX
  8
0
 10
63.02521113
 20
48.00354824
  0
VERTEX
  8
0
 10
62.86777172
 20
47.99473842
  0
VERTEX
  8
0
 10
62.71141837
 20
47.96620688
  0
VERTEX
  8
0
 10
62.55661405
 20
47.91795054
  0
VERTEX
  8
0
 10
62.40382171
 20
47.84996632
  0
VERTEX
  8
0
 10
62.24986135
 20
47.75777184
  0
VERTEX
  8
0
 10
62.11794433
 20
47.65006893
  0
VERTEX
  8
0
 10
62.00750467
 20
47.52577824
  0
VERTEX
  8
0
 10
61.91797635
 20
47.38382040
  0
VERTEX
  8
0
 10
61.84879339
 20
47.22311607
  0
VERTEX
  8
0
 10
61.79938979
 20
47.04258588
  0
VERTEX
  8
0
 10
61.76919954
 20
46.84115048
  0
VERTEX
  8
0
 10
61.75765666
 20
46.61773052
  0
VERTEX
  8
0
 10
61.76290241
 20
46.38207395
  0
VERTEX
  8
0
 10
61.78472121
 20
46.17316618
  0
VERTEX
  8
0
 10
61.82454015
 20
45.98780255
  0
VERTEX
  8
0
 10
61.88378632
 20
45.82277841
  0
VERTEX
  8
0
 10
61.96388682
 20
45.67488911
  0
VERTEX
  8
0
 10
62.06626875
 20
45.54093001
  0
VERTEX
  8
0
 10
62.19235919
 20
45.41769645
  0
VERTEX
  8
0
 10
62.34358525
 20
45.30198379
  0
VERTEX
  8
0
 10
62.52736249
 20
45.18734897
  0
VERTEX
  8
0
 10
62.71845643
 20
45.09199358
  0
VERTEX
  8
0
 10
62.91913246
 20
45.01540742
  0
VERTEX
  8
0
 10
63.13165595
 20
44.95708028
  0
VERTEX
  8
0
 10
63.35829232
 20
44.91650197
  0
VERTEX
  8
0
 10
63.60130693
 20
44.89316230
  0
VERTEX
  8
0
 10
63.86296519
 20
44.88655104
  0
VERTEX
  8
0
 10
64.14553248
 20
44.89615802
  0
VERTEX
  8
0
 10
64.42414558
 20
44.92122942
  0
VERTEX
  8
0
 10
64.67448750
 20
44.96252380
  0
VERTEX
  8
0
 10
64.90053472
 20
45.02185278
  0
VERTEX
  8
0
 10
65.10626372
 20
45.10102798
  0
VERTEX
  8
0
 10
65.29565100
 20
45.20186103
  0
VERTEX
  8
0
 10
65.47267305
 20
45.32616353
  0
VERTEX
  8
0
 10
65.64130634
 20
45.47574712
  0
VERTEX
  8
0
 10
65.80552736
 20
45.65242340
  0
VERTEX
  8
0
 10
66.04593284
 20
45.96555659
  0
VERTEX
  8
0
 10
66.23791451
 20
46.28613833
  0
VERTEX
  8
0
 10
66.38125407
 20
46.61312446
  0
VERTEX
  8
0
 10
66.47573319
 20
46.94547080
  0
VERTEX
  8
0
 10
66.52113356
 20
47.28213321
  0
VERTEX
  8
0
 10
66.51723686
 20
47.62206752
  0
VERTEX
  8
0
 10
66.46382477
 20
47.96422956
  0
VERTEX
  8
0
 10
66.36067898
 20
48.30757518
  0
VERTEX
  8
0
 10
66.23005143
 20
48.58886258
  0
VERTEX
  8
0
 10
66.04842262
 20
48.87516813
  0
VERTEX
  8
0
 10
65.82143112
 20
49.16104078
  0
VERTEX
  8
0
 10
65.55471548
 20
49.44102951
  0
VERTEX
  8
0
 10
65.25391427
 20
49.70968328
  0
VERTEX
  8
0
 10
64.92466604
 20
49.96155106
  0
VERTEX
  8
0
 10
64.57260935
 20
50.19118181
  0
VERTEX
  8
0
 10
64.20338276
 20
50.39312450
  0
VERTEX
  8
0
 10
63.45712757
 20
50.76290851
  0
VERTEX
  8
0
 10
62.51941112
 20
50.76112962
  0
VERTEX
  8
0
 10
62.14001199
 20
50.75409940
  0
VERTEX
  8
0
 10
61.80128793
 20
50.73238610
  0
VERTEX
  8
0
 10
61.49011825
 20
50.69275595
  0
VERTEX
  8
0
 10
61.19338225
 20
50.63197516
  0
VERTEX
  8
0
 10
60.89795925
 20
50.54680996
  0
VERTEX
  8
0
 10
60.59072856
 20
50.43402656
  0
VERTEX
  8
0
 10
60.25856948
 20
50.29039119
  0
VERTEX
  8
0
 10
59.88836133
 20
50.11267007
  0
VERTEX
  8
0
 10
59.40633232
 20
49.85283552
  0
VERTEX
  8
0
 10
58.95210247
 20
49.56762434
  0
VERTEX
  8
0
 10
58.52855687
 20
49.25965108
  0
VERTEX
  8
0
 10
58.13858064
 20
48.93153029
  0
VERTEX
  8
0
 10
57.78505889
 20
48.58587652
  0
VERTEX
  8
0
 10
57.47087672
 20
48.22530432
  0
VERTEX
  8
0
 10
57.19891925
 20
47.85242824
  0
VERTEX
  8
0
 10
56.97207158
 20
47.46986283
  0
VERTEX
  8
0
 10
56.83763280
 20
47.19157423
  0
VERTEX
  8
0
 10
56.75905360
 20
46.95046985
  0
VERTEX
  8
0
 10
56.72214519
 20
46.68421567
  0
VERTEX
  8
0
 10
56.71271877
 20
46.33047764
  0
VERTEX
  8
0
 10
56.68816570
 20
45.62006321
  0
VERTEX
  8
0
 10
56.62289141
 20
44.94337142
  0
VERTEX
  8
0
 10
56.52738854
 20
44.38124983
  0
VERTEX
  8
0
 10
56.47158034
 20
44.16841772
  0
VERTEX
  8
0
 10
56.41214975
 20
44.01454599
  0
VERTEX
  8
0
 10
56.32349278
 20
43.87105064
  0
VERTEX
  8
0
 10
56.18571175
 20
43.68656981
  0
VERTEX
  8
0
 10
55.83811904
 20
43.28977757
  0
VERTEX
  8
0
 10
55.62057793
 20
43.05681187
  0
VERTEX
  8
0
 10
55.50224887
 20
42.89901699
  0
VERTEX
  8
0
 10
55.47517005
 20
42.83935487
  0
VERTEX
  8
0
 10
55.46675169
 20
42.78774097
  0
VERTEX
  8
0
 10
55.47494627
 20
42.74059381
  0
VERTEX
  8
0
 10
55.49770626
 20
42.69433188
  0
VERTEX
  8
0
 10
55.58061672
 20
42.51166759
  0
VERTEX
  8
0
 10
55.64871748
 20
42.28264013
  0
VERTEX
  8
0
 10
55.69122541
 20
42.13822325
  0
VERTEX
  8
0
 10
55.72096871
 20
42.09010590
  0
VERTEX
  8
0
 10
55.76223834
 20
42.05436246
  0
VERTEX
  8
0
 10
55.89695686
 20
42.00893689
  0
VERTEX
  8
0
 10
56.13058156
 20
41.97982569
  0
VERTEX
  8
0
 10
56.31692170
 20
41.95026194
  0
VERTEX
  8
0
 10
56.50148800
 20
41.90034339
  0
VERTEX
  8
0
 10
56.66615527
 20
41.83600021
  0
VERTEX
  8
0
 10
56.79279832
 20
41.76316256
  0
VERTEX
  8
0
 10
57.03070544
 20
41.58727023
  0
VERTEX
  8
0
 10
57.37306043
 20
41.75665400
  0
VERTEX
  8
0
 10
57.55123090
 20
41.82882938
  0
VERTEX
  8
0
 10
57.78326851
 20
41.90013248
  0
VERTEX
  8
0
 10
58.03912690
 20
41.96234118
  0
VERTEX
  8
0
 10
58.28875968
 20
42.00723333
  0
VERTEX
  8
0
 10
58.88442788
 20
42.11075283
  0
VERTEX
  8
0
 10
58.86163669
 20
42.25805109
  0
VERTEX
  8
0
 10
58.77549236
 20
42.58084519
  0
VERTEX
  8
0
 10
58.72326399
 20
42.78842858
  0
VERTEX
  8
0
 10
58.69383462
 20
42.97838419
  0
VERTEX
  8
0
 10
58.68743100
 20
43.15191209
  0
VERTEX
  8
0
 10
58.70427991
 20
43.31021233
  0
VERTEX
  8
0
 10
58.74460814
 20
43.45448499
  0
VERTEX
  8
0
 10
58.80864245
 20
43.58593012
  0
VERTEX
  8
0
 10
58.89660962
 20
43.70574779
  0
VERTEX
  8
0
 10
59.00873644
 20
43.81513806
  0
VERTEX
  8
0
 10
59.19022915
 20
43.93297223
  0
VERTEX
  8
0
 10
59.39336397
 20
44.00606906
  0
VERTEX
  8
0
 10
59.60783543
 20
44.03598081
  0
VERTEX
  8
0
 10
59.82333809
 20
44.02425971
  0
VERTEX
  8
0
 10
60.02956651
 20
43.97245802
  0
VERTEX
  8
0
 10
60.21621525
 20
43.88212797
  0
VERTEX
  8
0
 10
60.37297885
 20
43.75482183
  0
VERTEX
  8
0
 10
60.48955187
 20
43.59209182
  0
VERTEX
  8
0
 10
60.55006997
 20
43.45882799
  0
VERTEX
  8
0
 10
60.56953969
 20
43.35274879
  0
VERTEX
  8
0
 10
60.54763095
 20
43.24490537
  0
VERTEX
  8
0
 10
60.48401371
 20
43.10634891
  0
VERTEX
  8
0
 10
60.41013221
 20
42.99718449
  0
VERTEX
  8
0
 10
60.30911148
 20
42.89694015
  0
VERTEX
  8
0
 10
60.18916496
 20
42.81248138
  0
VERTEX
  8
0
 10
60.05850612
 20
42.75067368
  0
VERTEX
  8
0
 10
59.84864761
 20
42.65555198
  0
VERTEX
  8
0
 10
59.78480791
 20
42.61164542
  0
VERTEX
  8
0
 10
59.76136133
 20
42.57774087
  0
VERTEX
  8
0
 10
59.78254350
 20
42.53161747
  0
VERTEX
  8
0
 10
59.84868196
 20
42.47702261
  0
VERTEX
  8
0
 10
60.13137948
 20
42.33581790
  0
VERTEX
  8
0
 10
60.64055734
 20
42.14092543
  0
VERTEX
  8
0
 10
61.40731902
 20
41.87914390
  0
VERTEX
  8
0
 10
61.99792619
 20
41.67997947
  0
VERTEX
  8
0
 10
62.44838809
 20
41.51101060
  0
VERTEX
  8
0
 10
62.77985683
 20
41.35248379
  0
VERTEX
  8
0
 10
62.90757880
 20
41.27096319
  0
VERTEX
  8
0
 10
63.01348452
 20
41.18464556
  0
VERTEX
  8
0
 10
63.10021800
 20
41.09106170
  0
VERTEX
  8
0
 10
63.17042326
 20
40.98774243
  0
VERTEX
  8
0
 10
63.22674431
 20
40.87221856
  0
VERTEX
  8
0
 10
63.27182515
 20
40.74202091
  0
VERTEX
  8
0
 10
63.33884231
 20
40.42772752
  0
VERTEX
  8
0
 10
63.39262683
 20
40.02510878
  0
VERTEX
  8
0
 10
63.43611883
 20
39.73340002
  0
VERTEX
  8
0
 10
63.48984623
 20
39.49349311
  0
VERTEX
  8
0
 10
63.55173454
 20
39.31293243
  0
VERTEX
  8
0
 10
63.61970929
 20
39.19926242
  0
VERTEX
  8
0
 10
63.71873178
 20
39.11128621
  0
VERTEX
  8
0
 10
63.86188985
 20
39.01354672
  0
VERTEX
  8
0
 10
64.24326483
 20
38.80677406
  0
VERTEX
  8
0
 10
64.68913845
 20
38.61493661
  0
VERTEX
  8
0
 10
65.12481494
 20
38.47402659
  0
VERTEX
  8
0
 10
65.32921564
 20
38.43497612
  0
VERTEX
  8
0
 10
65.57276408
 20
38.40971898
  0
VERTEX
  8
0
 10
66.12692453
 20
38.39922325
  0
VERTEX
  8
0
 10
66.68653702
 20
38.43981659
  0
VERTEX
  8
0
 10
66.93690052
 20
38.47842077
  0
VERTEX
  8
0
 10
67.15084230
 20
38.52877615
  0
SEQEND
  0
POLYLINE
  8
Default_Layer
 62
256
 66
   1
 39
0.000000
 70
    1
  0
VERTEX
  8
0
 10
58.56688969
 20
38.89856419
  0
VERTEX
  8
0
 10
58.66417614
 20
38.98223151
  0
VERTEX
  8
0
 10
58.81869102
 20
39.07548020
  0
VERTEX
  8
0
 10
59.24217374
 20
39.26818112
  0
VERTEX
  8
0
 10
59.72287320
 20
39.43158589
  0
VERTEX
  8
0
 10
59.94890901
 20
39.48821437
  0
VERTEX
  8
0
 10
60.14632476
 20
39.52061341
  0
VERTEX
  8
0
 10
60.47223879
 20
39.56944125
  0
VERTEX
  8
0
 10
60.57125546
 20
39.59610362
  0
VERTEX
  8
0
 10
60.60747011
 20
39.61992028
  0
VERTEX
  8
0
 10
60.55615599
 20
39.74043888
  0
VERTEX
  8
0
 10
60.41418386
 20
39.95045719
  0
VERTEX
  8
0
 10
60.19728523
 20
40.22857713
  0
VERTEX
  8
0
 10
59.92119160
 20
40.55340062
  0
VERTEX
  8
0
 10
59.75368152
 20
40.72870252
  0
VERTEX
  8
0
 10
59.58745604
 20
40.86993892
  0
VERTEX
  8
0
 10
59.41697059
 20
40.97901702
  0
VERTEX
  8
0
 10
59.23668056
 20
41.05784401
  0
VERTEX
  8
0
 10
59.04104136
 20
41.10832710
  0
VERTEX
  8
0
 10
58.82450841
 20
41.13237347
  0
VERTEX
  8
0
 10
58.58153711
 20
41.13189033
  0
VERTEX
  8
0
 10
58.30658287
 20
41.10878488
  0
VERTEX
  8
0
 10
57.91867615
 20
41.04134359
  0
VERTEX
  8
0
 10
57.78128829
 20
40.99360200
  0
VERTEX
  8
0
 10
57.67677175
 20
40.93281525
  0
VERTEX
  8
0
 10
57.60149726
 20
40.85620995
  0
VERTEX
  8
0
 10
57.55183557
 20
40.76101270
  0
VERTEX
  8
0
 10
57.52415742
 20
40.64445010
  0
VERTEX
  8
0
 10
57.51483353
 20
40.50374877
  0
VERTEX
  8
0
 10
57.49332302
 20
40.19533206
  0
VERTEX
  8
0
 10
57.44562401
 20
39.90904204
  0
VERTEX
  8
0
 10
57.41697162
 20
39.75456957
  0
VERTEX
  8
0
 10
57.42072511
 20
39.69884231
  0
VERTEX
  8
0
 10
57.44030758
 20
39.65153665
  0
VERTEX
  8
0
 10
57.53828692
 20
39.56443695
  0
VERTEX
  8
0
 10
57.73356469
 20
39.45776412
  0
VERTEX
  8
0
 10
57.89001563
 20
39.36457047
  0
VERTEX
  8
0
 10
58.01946458
 20
39.25959866
  0
VERTEX
  8
0
 10
58.11786483
 20
39.14671786
  0
VERTEX
  8
0
 10
58.18116966
 20
39.02979725
  0
VERTEX
  8
0
 10
58.26288104
 20
38.87045452
  0
VERTEX
  8
0
 10
58.30781412
 20
38.82228145
  0
VERTEX
  8
0
 10
58.35525334
 20
38.79517942
  0
VERTEX
  8
0
 10
58.40503959
 20
38.78920255
  0
VERTEX
  8
0
 10
58.45701380
 20
38.80440497
  0
VERTEX
  8
0
 10
58.56688969
 20
38.89856419
  0
SEQEND
  0
POLYLINE
  8
Default_Layer
 62
256
 66
   1
 39
0.000000
 70
    1
  0
VERTEX
  8
0
 10
54.16303926
 20
43.48635342
  0
VERTEX
  8
0
 10
54.34584186
 20
43.55325464
  0
VERTEX
  8
0
 10
54.53119244
 20
43.64446068
  0
VERTEX
  8
0
 10
54.71400347
 20
43.75593890
  0
VERTEX
  8
0
 10
54.88918743
 20
43.88365663
  0
VERTEX
  8
0
 10
55.05165679
 20
44.02358122
  0
VERTEX
  8
0
 10
55.19632401
 20
44.17168003
  0
VERTEX
  8
0
 10
55.31810156
 20
44.32392040
  0
VERTEX
  8
0
 10
55.41190191
 20
44.47626967
  0
VERTEX
  8
0
 10
55.49069814
 20
44.67023519
  0
VERTEX
  8
0
 10
55.53362540
 20
44.87368133
  0
VERTEX
  8
0
 10
55.54164139
 20
45.08195430
  0
VERTEX
  8
0
 10
55.51570384
 20
45.29040028
  0
VERTEX
  8
0
 10
55.45677046
 20
45.49436546
  0
VERTEX
  8
0
 10
55.36579897
 20
45.68919603
  0
VERTEX
  8
0
 10
55.24374708
 20
45.87023819
  0
VERTEX
  8
0
 10
55.09157252
 20
46.03283811
  0
VERTEX
  8
0
 10
54.89084586
 20
46.18896725
  0
VERTEX
  8
0
 10
54.67012026
 20
46.31462939
  0
VERTEX
  8
0
 10
54.43815907
 20
46.40822239
  0
VERTEX
  8
0
 10
54.20372560
 20
46.46814411
  0
VERTEX
  8
0
 10
53.97558318
 20
46.49279239
  0
VERTEX
  8
0
 10
53.76249513
 20
46.48056510
  0
VERTEX
  8
0
 10
53.57322478
 20
46.42986007
  0
VERTEX
  8
0
 10
53.41653545
 20
46.33907518
  0
VERTEX
  8
0
 10
53.31814720
 20
46.25399618
  0
VERTEX
  8
0
 10
53.30014957
 20
46.22738753
  0
VERTEX
  8
0
 10
53.30586025
 20
46.20904474
  0
VERTEX
  8
0
 10
53.39713852
 20
46.19009264
  0
VERTEX
  8
0
 10
53.60944591
 20
46.18301170
  0
VERTEX
  8
0
 10
53.78687844
 20
46.16838460
  0
VERTEX
  8
0
 10
53.95668448
 20
46.13273549
  0
VERTEX
  8
0
 10
54.11722707
 20
46.07702224
  0
VERTEX
  8
0
 10
54.26686925
 20
46.00220269
  0
VERTEX
  8
0
 10
54.40397407
 20
45.90923470
  0
VERTEX
  8
0
 10
54.52690455
 20
45.79907613
  0
VERTEX
  8
0
 10
54.63402374
 20
45.67268482
  0
VERTEX
  8
0
 10
54.72369467
 20
45.53101864
  0
VERTEX
  8
0
 10
54.89302800
 20
45.21724184
  0
VERTEX
  8
0
 10
54.72369467
 20
44.90189413
  0
VERTEX
  8
0
 10
54.58721291
 20
44.70455259
  0
VERTEX
  8
0
 10
54.40757863
 20
44.53216337
  0
VERTEX
  8
0
 10
54.19324552
 20
44.38796103
  0
VERTEX
  8
0
 10
53.95266728
 20
44.27518008
  0
VERTEX
  8
0
 10
53.69429762
 20
44.19705506
  0
VERTEX
  8
0
 10
53.42659025
 20
44.15682051
  0
VERTEX
  8
0
 10
53.15799887
 20
44.15771095
  0
VERTEX
  8
0
 10
52.89697718
 20
44.20296092
  0
VERTEX
  8
0
 10
52.68469413
 20
44.27716857
  0
VERTEX
  8
0
 10
52.49313660
 20
44.37804997
  0
VERTEX
  8
0
 10
52.32290944
 20
44.50268677
  0
VERTEX
  8
0
 10
52.17461748
 20
44.64816064
  0
VERTEX
  8
0
 10
52.04886556
 20
44.81155323
  0
VERTEX
  8
0
 10
51.94625852
 20
44.98994621
  0
VERTEX
  8
0
 10
51.86740120
 20
45.18042124
  0
VERTEX
  8
0
 10
51.81289842
 20
45.38005998
  0
VERTEX
  8
0
 10
51.78335503
 20
45.58594409
  0
VERTEX
  8
0
 10
51.77937587
 20
45.79515523
  0
VERTEX
  8
0
 10
51.80156577
 20
46.00477507
  0
VERTEX
  8
0
 10
51.85052957
 20
46.21188525
  0
VERTEX
  8
0
 10
51.92687210
 20
46.41356746
  0
VERTEX
  8
0
 10
52.03119820
 20
46.60690334
  0
VERTEX
  8
0
 10
52.16411272
 20
46.78897456
  0
VERTEX
  8
0
 10
52.32622048
 20
46.95686278
  0
VERTEX
  8
0
 10
52.61074367
 20
47.18348649
  0
VERTEX
  8
0
 10
52.91264347
 20
47.36656313
  0
VERTEX
  8
0
 10
53.22842125
 20
47.50534088
  0
VERTEX
  8
0
 10
53.55457839
 20
47.59906795
  0
VERTEX
  8
0
 10
53.88761626
 20
47.64699252
  0
VERTEX
  8
0
 10
54.22403623
 20
47.64836280
  0
VERTEX
  8
0
 10
54.56033969
 20
47.60242697
  0
VERTEX
  8
0
 10
54.89302800
 20
47.50843323
  0
VERTEX
  8
0
 10
55.51370390
 20
47.30889079
  0
VERTEX
  8
0
 10
55.54255513
 20
47.31640873
  0
VERTEX
  8
0
 10
55.57684504
 20
47.34615543
  0
VERTEX
  8
0
 10
55.65914045
 20
47.46770197
  0
VERTEX
  8
0
 10
55.75538920
 20
47.66426401
  0
VERTEX
  8
0
 10
55.86039036
 20
47.92657518
  0
VERTEX
  8
0
 10
56.14448380
 20
48.63157686
  0
VERTEX
  8
0
 10
56.29522829
 20
48.95166771
  0
VERTEX
  8
0
 10
56.45540395
 20
49.25415485
  0
VERTEX
  8
0
 10
56.62773525
 20
49.54204049
  0
VERTEX
  8
0
 10
56.81494667
 20
49.81832686
  0
VERTEX
  8
0
 10
57.01976270
 20
50.08601615
  0
VERTEX
  8
0
 10
57.24490781
 20
50.34811060
  0
VERTEX
  8
0
 10
57.49310650
 20
50.60761240
  0
VERTEX
  8
0
 10
57.76708323
 20
50.86752378
  0
VERTEX
  8
0
 10
58.06956250
 20
51.13084695
  0
VERTEX
  8
0
 10
58.40326878
 20
51.40058413
  0
VERTEX
  8
0
 10
59.17526030
 20
51.97130934
  0
VERTEX
  8
0
 10
60.10485367
 20
52.60371714
  0
VERTEX
  8
0
 10
60.73022292
 20
53.04458212
  0
VERTEX
  8
0
 10
61.24509485
 20
53.46990384
  0
VERTEX
  8
0
 10
61.46225569
 20
53.67861682
  0
VERTEX
  8
0
 10
61.65318581
 20
53.88570098
  0
VERTEX
  8
0
 10
61.81834978
 20
54.09190865
  0
VERTEX
  8
0
 10
61.95821212
 20
54.29799218
  0
VERTEX
  8
0
 10
62.07323738
 20
54.50470389
  0
VERTEX
  8
0
 10
62.16389010
 20
54.71279612
  0
VERTEX
  8
0
 10
62.23063482
 20
54.92302119
  0
VERTEX
  8
0
 10
62.27393609
 20
55.13613145
  0
VERTEX
  8
0
 10
62.29425843
 20
55.35287922
  0
VERTEX
  8
0
 10
62.29206640
 20
55.57401684
  0
VERTEX
  8
0
 10
62.26782454
 20
55.80029665
  0
VERTEX
  8
0
 10
62.22199738
 20
56.03247096
  0
VERTEX
  8
0
 10
62.15920208
 20
56.24246581
  0
VERTEX
  8
0
 10
62.07463637
 20
56.43631027
  0
VERTEX
  8
0
 10
61.96665109
 20
56.61582524
  0
VERTEX
  8
0
 10
61.83359711
 20
56.78283165
  0
VERTEX
  8
0
 10
61.67382529
 20
56.93915039
  0
VERTEX
  8
0
 10
61.48568649
 20
57.08660237
  0
VERTEX
  8
0
 10
61.26753156
 20
57.22700851
  0
VERTEX
  8
0
 10
61.01771136
 20
57.36218970
  0
VERTEX
  8
0
 10
60.68267395
 20
57.51944831
  0
VERTEX
  8
0
 10
60.41582325
 20
57.61042059
  0
VERTEX
  8
0
 10
60.14886021
 20
57.65207559
  0
VERTEX
  8
0
 10
59.81348579
 20
57.66138239
  0
VERTEX
  8
0
 10
59.59043672
 20
57.65322512
  0
VERTEX
  8
0
 10
59.38079127
 20
57.63045718
  0
VERTEX
  8
0
 10
59.18499676
 20
57.59350844
  0
VERTEX
  8
0
 10
59.00350051
 20
57.54280874
  0
VERTEX
  8
0
 10
58.83674985
 20
57.47878795
  0
VERTEX
  8
0
 10
58.68519211
 20
57.40187593
  0
VERTEX
  8
0
 10
58.54927462
 20
57.31250253
  0
VERTEX
  8
0
 10
58.42944471
 20
57.21109762
  0
VERTEX
  8
0
 10
58.32614970
 20
57.09809106
  0
VERTEX
  8
0
 10
58.23983692
 20
56.97391269
  0
VERTEX
  8
0
 10
58.17095369
 20
56.83899238
  0
VERTEX
  8
0
 10
58.11994736
 20
56.69376000
  0
VERTEX
  8
0
 10
58.08726523
 20
56.53864539
  0
VERTEX
  8
0
 10
58.07335465
 20
56.37407841
  0
VERTEX
  8
0
 10
58.07866293
 20
56.20048893
  0
VERTEX
  8
0
 10
58.10363741
 20
56.01830681
  0
VERTEX
  8
0
 10
58.14225410
 20
55.88419480
  0
VERTEX
  8
0
 10
58.20589206
 20
55.74768219
  0
VERTEX
  8
0
 10
58.29009135
 20
55.61380579
  0
VERTEX
  8
0
 10
58.39039203
 20
55.48760246
  0
VERTEX
  8
0
 10
58.50233419
 20
55.37410901
  0
VERTEX
  8
0
 10
58.62145787
 20
55.27836228
  0
VERTEX
  8
0
 10
58.74330316
 20
55.20539911
  0
VERTEX
  8
0
 10
58.86341012
 20
55.16025631
  0
VERTEX
  8
0
 10
59.05756482
 20
55.13391765
  0
VERTEX
  8
0
 10
59.11511293
 20
55.14575648
  0
VERTEX
  8
0
 10
59.14564758
 20
55.17291650
  0
VERTEX
  8
0
 10
59.14867330
 20
55.21438450
  0
VERTEX
  8
0
 10
59.12369461
 20
55.26914728
  0
VERTEX
  8
0
 10
58.98774214
 20
55.41450440
  0
VERTEX
  8
0
 10
58.82476465
 20
55.57057847
  0
VERTEX
  8
0
 10
58.70387771
 20
55.72261170
  0
VERTEX
  8
0
 10
58.62497134
 20
55.87160097
  0
VERTEX
  8
0
 10
58.58793553
 20
56.01854314
  0
VERTEX
  8
0
 10
58.59266029
 20
56.16443511
  0
VERTEX
  8
0
 10
58.63903563
 20
56.31027375
  0
VERTEX
  8
0
 10
58.72695155
 20
56.45705594
  0
VERTEX
  8
0
 10
58.85629806
 20
56.60577857
  0
VERTEX
  8
0
 10
59.00255300
 20
56.73117142
  0
VERTEX
  8
0
 10
59.16339241
 20
56.83056420
  0
VERTEX
  8
0
 10
59.33674593
 20
56.90359599
  0
VERTEX
  8
0
 10
59.52054323
 20
56.94990592
  0
VERTEX
  8
0
 10
59.71271395
 20
56.96913308
  0
VERTEX
  8
0
 10
59.91118774
 20
56.96091659
  0
VERTEX
  8
0
 10
60.11389428
 20
56.92489555
  0
VERTEX
  8
0
 10
60.31876319
 20
56.86070906
  0
VERTEX
  8
0
 10
60.49808084
 20
56.78314368
  0
VERTEX
  8
0
 10
60.64307190
 20
56.69781793
  0
VERTEX
  8
0
 10
60.75665787
 20
56.59956138
  0
VERTEX
  8
0
 10
60.84176023
 20
56.48320362
  0
VERTEX
  8
0
 10
60.90130046
 20
56.34357421
  0
VERTEX
  8
0
 10
60.93820006
 20
56.17550274
  0
VERTEX
  8
0
 10
60.95538051
 20
55.97381880
  0
VERTEX
  8
0
 10
60.95576329
 20
55.73335195
  0
VERTEX
  8
0
 10
60.94042714
 20
55.47063320
  0
VERTEX
  8
0
 10
60.90786784
 20
55.24288728
  0
VERTEX
  8
0
 10
60.85549918
 20
55.04531524
  0
VERTEX
  8
0
 10
60.78073497
 20
54.87311817
  0
VERTEX
  8
0
 10
60.68098898
 20
54.72149715
  0
VERTEX
  8
0
 10
60.55367501
 20
54.58565324
  0
VERTEX
  8
0
 10
60.39620686
 20
54.46078753
  0
VERTEX
  8
0
 10
60.20599830
 20
54.34210109
  0
VERTEX
  8
0
 10
59.99438109
 20
54.23586675
  0
VERTEX
  8
0
 10
59.77884201
 20
54.15320607
  0
VERTEX
  8
0
 10
59.56087425
 20
54.09368188
  0
VERTEX
  8
0
 10
59.34197099
 20
54.05685701
  0
VERTEX
  8
0
 10
59.12362541
 20
54.04229430
  0
VERTEX
  8
0
 10
58.90733070
 20
54.04955658
  0
VERTEX
  8
0
 10
58.69458005
 20
54.07820667
  0
VERTEX
  8
0
 10
58.48686664
 20
54.12780742
  0
VERTEX
  8
0
 10
58.28568365
 20
54.19792165
  0
VERTEX
  8
0
 10
58.09252427
 20
54.28811219
  0
VERTEX
  8
0
 10
57.90888169
 20
54.39794188
  0
VERTEX
  8
0
 10
57.73624909
 20
54.52697354
  0
VERTEX
  8
0
 10
57.57611966
 20
54.67477001
  0
VERTEX
  8
0
 10
57.42998657
 20
54.84089412
  0
VERTEX
  8
0
 10
57.29934303
 20
55.02490870
  0
VERTEX
  8
0
 10
57.18568220
 20
55.22637659
  0
VERTEX
  8
0
 10
57.06128604
 20
55.53611661
  0
VERTEX
  8
0
 10
56.99015615
 20
55.85583988
  0
VERTEX
  8
0
 10
56.97162927
 20
56.18186119
  0
VERTEX
  8
0
 10
57.00504214
 20
56.51049531
  0
VERTEX
  8
0
 10
57.08973148
 20
56.83805704
  0
VERTEX
  8
0
 10
57.22503403
 20
57.16086114
  0
VERTEX
  8
0
 10
57.41028653
 20
57.47522241
  0
VERTEX
  8
0
 10
57.64482571
 20
57.77745561
  0
VERTEX
  8
0
 10
57.83050848
 20
58.00769703
  0
VERTEX
  8
0
 10
57.87957910
 20
58.08389252
  0
VERTEX
  8
0
 10
57.88879551
 20
58.11918711
  0
VERTEX
  8
0
 10
57.37643941
 20
58.36249529
  0
VERTEX
  8
0
 10
56.89028351
 20
58.61461013
  0
VERTEX
  8
0
 10
56.36944100
 20
58.94073601
  0
VERTEX
  8
0
 10
55.86396240
 20
59.30710221
  0
VERTEX
  8
0
 10
55.42389822
 20
59.67993805
  0
VERTEX
  8
0
 10
55.02343511
 20
60.05389344
  0
VERTEX
  8
0
 10
54.94539345
 20
59.84862832
  0
VERTEX
  8
0
 10
54.88631380
 20
59.72103616
  0
VERTEX
  8
0
 10
54.80603115
 20
59.58979775
  0
VERTEX
  8
0
 10
54.59508172
 20
59.33030786
  0
VERTEX
  8
0
 10
54.33899490
 20
59.09801012
  0
VERTEX
  8
0
 10
54.20229050
 20
59.00076189
  0
VERTEX
  8
0
 10
54.06422039
 20
58.92075600
  0
VERTEX
  8
0
 10
53.87020398
 20
58.83619398
  0
VERTEX
  8
0
 10
53.67484992
 20
58.78789565
  0
VERTEX
  8
0
 10
53.44401034
 20
58.77060589
  0
VERTEX
  8
0
 10
53.14353735
 20
58.77906960
  0
VERTEX
  8
0
 10
52.73472970
 20
58.79350355
  0
VERTEX
  8
0
 10
52.56469467
 20
58.78227672
  0
VERTEX
  8
0
 10
52.65218081
 20
58.58930693
  0
VERTEX
  8
0
 10
52.72204608
 20
58.43215979
  0
VERTEX
  8
0
 10
52.77739775
 20
58.25141131
  0
VERTEX
  8
0
 10
52.81788761
 20
58.05143978
  0
VERTEX
  8
0
 10
52.84316744
 20
57.83662350
  0
VERTEX
  8
0
 10
52.85288904
 20
57.61134077
  0
VERTEX
  8
0
 10
52.84670420
 20
57.37996987
  0
VERTEX
  8
0
 10
52.82426471
 20
57.14688911
  0
VERTEX
  8
0
 10
52.78522236
 20
56.91647678
  0
VERTEX
  8
0
 10
52.64916763
 20
56.41151633
  0
VERTEX
  8
0
 10
52.45648338
 20
55.91922412
  0
VERTEX
  8
0
 10
52.21193491
 20
55.44616690
  0
VERTEX
  8
0
 10
51.92028749
 20
54.99891141
  0
VERTEX
  8
0
 10
51.58630638
 20
54.58402441
  0
VERTEX
  8
0
 10
51.21475687
 20
54.20807265
  0
VERTEX
  8
0
 10
50.81040423
 20
53.87762288
  0
VERTEX
  8
0
 10
50.59741589
 20
53.73151335
  0
VERTEX
  8
0
 10
50.37801374
 20
53.59924184
  0
VERTEX
  8
0
 10
49.87980890
 20
53.31599010
  0
VERTEX
  8
0
 10
49.75052060
 20
53.21812433
  0
VERTEX
  8
0
 10
49.71462237
 20
53.17323495
  0
VERTEX
  8
0
 10
49.69742803
 20
53.12841400
  0
VERTEX
  8
0
 10
49.69859256
 20
53.08169104
  0
VERTEX
  8
0
 10
49.71777093
 20
53.03109564
  0
VERTEX
  8
0
 10
49.80878903
 20
52.91040577
  0
VERTEX
  8
0
 10
50.19180980
 20
52.53585764
  0
VERTEX
  8
0
 10
50.64031497
 20
52.11372607
  0
VERTEX
  8
0
 10
50.86573308
 20
51.92397659
  0
VERTEX
  8
0
 10
50.90006091
 20
51.94486571
  0
VERTEX
  8
0
 10
50.94432955
 20
52.01967967
  0
VERTEX
  8
0
 10
51.03983802
 20
52.28384889
  0
VERTEX
  8
0
 10
51.10871480
 20
52.49610534
  0
VERTEX
  8
0
 10
51.19191122
 20
52.69424732
  0
VERTEX
  8
0
 10
51.28790528
 20
52.87619188
  0
VERTEX
  8
0
 10
51.39517501
 20
53.03985604
  0
VERTEX
  8
0
 10
51.51219843
 20
53.18315684
  0
VERTEX
  8
0
 10
51.63745354
 20
53.30401131
  0
VERTEX
  8
0
 10
51.76941838
 20
53.40033648
  0
VERTEX
  8
0
 10
51.90657096
 20
53.47004938
  0
VERTEX
  8
0
 10
52.10110283
 20
53.52647081
  0
VERTEX
  8
0
 10
52.36230018
 20
53.56685460
  0
VERTEX
  8
0
 10
52.68955468
 20
53.59113389
  0
VERTEX
  8
0
 10
53.08225799
 20
53.59924184
  0
VERTEX
  8
0
 10
53.93506129
 20
53.59924184
  0
VERTEX
  8
0
 10
54.44313348
 20
54.05902078
  0
VERTEX
  8
0
 10
54.87266311
 20
54.41713012
  0
VERTEX
  8
0
 10
55.05989104
 20
54.54650529
  0
VERTEX
  8
0
 10
55.23273705
 20
54.64474508
  0
VERTEX
  8
0
 10
55.39418314
 20
54.71333769
  0
VERTEX
  8
0
 10
55.54721134
 20
54.75377132
  0
VERTEX
  8
0
 10
55.69480363
 20
54.76753418
  0
VERTEX
  8
0
 10
55.83994203
 20
54.75611447
  0
VERTEX
  8
0
 10
55.99530130
 20
54.71703026
  0
VERTEX
  8
0
 10
56.20473559
 20
54.64570604
  0
VERTEX
  8
0
 10
56.69362291
 20
54.44698614
  0
VERTEX
  8
0
 10
57.12219128
 20
54.24125187
  0
VERTEX
  8
0
 10
57.25622689
 20
54.16115970
  0
VERTEX
  8
0
 10
57.30602800
 20
54.10980034
  0
VERTEX
  8
0
 10
57.27221990
 20
54.07237330
  0
VERTEX
  8
0
 10
57.18016814
 20
54.01263406
  0
VERTEX
  8
0
 10
56.87756891
 20
53.85912071
  0
VERTEX
  8
0
 10
56.64522666
 20
53.73661498
  0
VERTEX
  8
0
 10
56.40257663
 20
53.57434039
  0
VERTEX
  8
0
 10
56.14930329
 20
53.37198933
  0
VERTEX
  8
0
 10
55.88509115
 20
53.12925420
  0
VERTEX
  8
0
 10
55.60962470
 20
52.84582739
  0
VERTEX
  8
0
 10
55.32258843
 20
52.52140130
  0
VERTEX
  8
0
 10
55.02366682
 20
52.15566831
  0
VERTEX
  8
0
 10
54.71254437
 20
51.74832082
  0
VERTEX
  8
0
 10
54.29254760
 20
51.19425658
  0
VERTEX
  8
0
 10
53.91839761
 20
50.73111924
  0
VERTEX
  8
0
 10
53.57802003
 20
50.34793761
  0
VERTEX
  8
0
 10
53.25934045
 20
50.03374052
  0
VERTEX
  8
0
 10
52.95028447
 20
49.77755677
  0
VERTEX
  8
0
 10
52.63877771
 20
49.56841517
  0
VERTEX
  8
0
 10
52.31274576
 20
49.39534454
  0
VERTEX
  8
0
 10
51.96011423
 20
49.24737370
  0
VERTEX
  8
0
 10
51.43896628
 20
49.05145797
  0
VERTEX
  8
0
 10
51.11723641
 20
48.29851657
  0
VERTEX
  8
0
 10
50.90822690
 20
47.77441253
  0
VERTEX
  8
0
 10
50.74509446
 20
47.28618409
  0
VERTEX
  8
0
 10
50.62743959
 20
46.83054428
  0
VERTEX
  8
0
 10
50.55486277
 20
46.40420612
  0
VERTEX
  8
0
 10
50.52696450
 20
46.00388261
  0
VERTEX
  8
0
 10
50.54334526
 20
45.62628677
  0
VERTEX
  8
0
 10
50.60360555
 20
45.26813163
  0
VERTEX
  8
0
 10
50.70734585
 20
44.92613020
  0
VERTEX
  8
0
 10
50.80164914
 20
44.71762775
  0
VERTEX
  8
0
 10
50.92300743
 20
44.52041474
  0
VERTEX
  8
0
 10
51.06909973
 20
44.33545817
  0
VERTEX
  8
0
 10
51.23760504
 20
44.16372507
  0
VERTEX
  8
0
 10
51.42620235
 20
44.00618247
  0
VERTEX
  8
0
 10
51.63257067
 20
43.86379736
  0
VERTEX
  8
0
 10
51.85438900
 20
43.73753679
  0
VERTEX
  8
0
 10
52.08933633
 20
43.62836775
  0
VERTEX
  8
0
 10
52.33509167
 20
43.53725729
  0
VERTEX
  8
0
 10
52.58933402
 20
43.46517240
  0
VERTEX
  8
0
 10
52.84974237
 20
43.41308012
  0
VERTEX
  8
0
 10
53.11399574
 20
43.38194746
  0
VERTEX
  8
0
 10
53.37977311
 20
43.37274144
  0
VERTEX
  8
0
 10
53.64475348
 20
43.38642908
  0
VERTEX
  8
0
 10
53.90661587
 20
43.42397740
  0
VERTEX
  8
0
 10
54.16303926
 20
43.48635342
  0
SEQEND
  0
POLYLINE
  8
Default_Layer
 62
256
 66
   1
 39
0.000000
 70
    1
  0
VERTEX
  8
0
 10
47.43512742
 20
46.40072505
  0
VERTEX
  8
0
 10
47.75188565
 20
46.48986492
  0
VERTEX
  8
0
 10
48.04178457
 20
46.58936407
  0
VERTEX
  8
0
 10
48.30958615
 20
46.70190325
  0
VERTEX
  8
0
 10
48.56005235
 20
46.83016321
  0
VERTEX
  8
0
 10
48.79794513
 20
46.97682468
  0
VERTEX
  8
0
 10
49.02802645
 20
47.14456841
  0
VERTEX
  8
0
 10
49.25505826
 20
47.33607514
  0
VERTEX
  8
0
 10
49.48380254
 20
47.55402562
  0
VERTEX
  8
0
 10
49.70618900
 20
47.79090296
  0
VERTEX
  8
0
 10
49.90162449
 20
48.02788292
  0
VERTEX
  8
0
 10
50.07008992
 20
48.26474162
  0
VERTEX
  8
0
 10
50.21156623
 20
48.50125520
  0
VERTEX
  8
0
 10
50.32603432
 20
48.73719979
  0
VERTEX
  8
0
 10
50.41347511
 20
48.97235153
  0
VERTEX
  8
0
 10
50.47386954
 20
49.20648656
  0
VERTEX
  8
0
 10
50.50719852
 20
49.43938100
  0
VERTEX
  8
0
 10
50.51344296
 20
49.67081099
  0
VERTEX
  8
0
 10
50.49258379
 20
49.90055267
  0
VERTEX
  8
0
 10
50.44460194
 20
50.12838216
  0
VERTEX
  8
0
 10
50.36947832
 20
50.35407561
  0
VERTEX
  8
0
 10
50.26719384
 20
50.57740914
  0
VERTEX
  8
0
 10
50.13772944
 20
50.79815890
  0
VERTEX
  8
0
 10
49.98106603
 20
51.01610101
  0
VERTEX
  8
0
 10
49.79718453
 20
51.23101161
  0
VERTEX
  8
0
 10
49.60153990
 20
51.42696179
  0
VERTEX
  8
0
 10
49.39447944
 20
51.60515743
  0
VERTEX
  8
0
 10
49.17714762
 20
51.76534304
  0
VERTEX
  8
0
 10
48.95068887
 20
51.90726313
  0
VERTEX
  8
0
 10
48.71624767
 20
52.03066220
  0
VERTEX
  8
0
 10
48.47496847
 20
52.13528475
  0
VERTEX
  8
0
 10
48.22799571
 20
52.22087529
  0
VERTEX
  8
0
 10
47.97647387
 20
52.28717832
  0
VERTEX
  8
0
 10
47.72154738
 20
52.33393834
  0
VERTEX
  8
0
 10
47.46436072
 20
52.36089986
  0
VERTEX
  8
0
 10
47.20605833
 20
52.36780738
  0
VERTEX
  8
0
 10
46.94778467
 20
52.35440541
  0
VERTEX
  8
0
 10
46.69068419
 20
52.32043844
  0
VERTEX
  8
0
 10
46.43590136
 20
52.26565099
  0
VERTEX
  8
0
 10
46.18458062
 20
52.18978756
  0
VERTEX
  8
0
 10
45.93786643
 20
52.09259264
  0
VERTEX
  8
0
 10
45.73469236
 20
51.99221753
  0
VERTEX
  8
0
 10
45.54576493
 20
51.87797645
  0
VERTEX
  8
0
 10
45.37183012
 20
51.75145212
  0
VERTEX
  8
0
 10
45.21363391
 20
51.61422728
  0
VERTEX
  8
0
 10
45.07192227
 20
51.46788467
  0
VERTEX
  8
0
 10
44.94744120
 20
51.31400701
  0
VERTEX
  8
0
 10
44.84093666
 20
51.15417705
  0
VERTEX
  8
0
 10
44.75315464
 20
50.98997752
  0
VERTEX
  8
0
 10
44.68484112
 20
50.82299115
  0
VERTEX
  8
0
 10
44.63674207
 20
50.65480068
  0
VERTEX
  8
0
 10
44.60960348
 20
50.48698884
  0
VERTEX
  8
0
 10
44.60417131
 20
50.32113837
  0
VERTEX
  8
0
 10
44.62119156
 20
50.15883199
  0
VERTEX
  8
0
 10
44.66141021
 20
50.00165245
  0
VERTEX
  8
0
 10
44.72557322
 20
49.85118248
  0
VERTEX
  8
0
 10
44.81442658
 20
49.70900482
  0
VERTEX
  8
0
 10
45.00768065
 20
49.48236242
  0
VERTEX
  8
0
 10
45.22634048
 20
49.28861678
  0
VERTEX
  8
0
 10
45.46530561
 20
49.12978339
  0
VERTEX
  8
0
 10
45.71947559
 20
49.00787773
  0
VERTEX
  8
0
 10
45.98374994
 20
48.92491531
  0
VERTEX
  8
0
 10
46.25302821
 20
48.88291163
  0
VERTEX
  8
0
 10
46.52220994
 20
48.88388216
  0
VERTEX
  8
0
 10
46.78619467
 20
48.92984242
  0
VERTEX
  8
0
 10
46.96064765
 20
48.98951462
  0
VERTEX
  8
0
 10
47.13122316
 20
49.07221037
  0
VERTEX
  8
0
 10
47.29194700
 20
49.17272145
  0
VERTEX
  8
0
 10
47.43684499
 20
49.28583963
  0
VERTEX
  8
0
 10
47.55994294
 20
49.40635670
  0
VERTEX
  8
0
 10
47.65526666
 20
49.52906445
  0
VERTEX
  8
0
 10
47.71684197
 20
49.64875465
  0
VERTEX
  8
0
 10
47.73869467
 20
49.76021909
  0
VERTEX
  8
0
 10
47.72517690
 20
49.86519060
  0
VERTEX
  8
0
 10
47.68659557
 20
49.96147084
  0
VERTEX
  8
0
 10
47.62590864
 20
50.04847574
  0
VERTEX
  8
0
 10
47.54607408
 20
50.12562122
  0
VERTEX
  8
0
 10
47.45004985
 20
50.19232321
  0
VERTEX
  8
0
 10
47.34079392
 20
50.24799762
  0
VERTEX
  8
0
 10
47.09441881
 20
50.32392740
  0
VERTEX
  8
0
 10
46.83061246
 20
50.34873793
  0
VERTEX
  8
0
 10
46.69956748
 20
50.34051328
  0
VERTEX
  8
0
 10
46.57303858
 20
50.31775658
  0
VERTEX
  8
0
 10
46.45398373
 20
50.27988375
  0
VERTEX
  8
0
 10
46.34536090
 20
50.22631071
  0
VERTEX
  8
0
 10
46.25012804
 20
50.15645339
  0
VERTEX
  8
0
 10
46.17124312
 20
50.06972770
  0
VERTEX
  8
0
 10
46.11672409
 20
50.00240526
  0
VERTEX
  8
0
 10
46.08053531
 20
49.98474078
  0
VERTEX
  8
0
 10
46.05338270
 20
50.01919829
  0
VERTEX
  8
0
 10
46.02597220
 20
50.10824184
  0
VERTEX
  8
0
 10
46.01017749
 20
50.20305280
  0
VERTEX
  8
0
 10
46.01263796
 20
50.29381108
  0
VERTEX
  8
0
 10
46.03229685
 20
50.37995466
  0
VERTEX
  8
0
 10
46.06809744
 20
50.46092153
  0
VERTEX
  8
0
 10
46.11898298
 20
50.53614969
  0
VERTEX
  8
0
 10
46.18389675
 20
50.60507710
  0
VERTEX
  8
0
 10
46.35158200
 20
50.72178166
  0
VERTEX
  8
0
 10
46.56269931
 20
50.80653911
  0
VERTEX
  8
0
 10
46.80879477
 20
50.85485334
  0
VERTEX
  8
0
 10
47.08141449
 20
50.86222824
  0
VERTEX
  8
0
 10
47.37210459
 20
50.82416769
  0
VERTEX
  8
0
 10
47.57458265
 20
50.77291050
  0
VERTEX
  8
0
 10
47.75706162
 20
50.70809195
  0
VERTEX
  8
0
 10
47.92005211
 20
50.62933154
  0
VERTEX
  8
0
 10
48.06406477
 20
50.53624877
  0
VERTEX
  8
0
 10
48.18961021
 20
50.42846311
  0
VERTEX
  8
0
 10
48.29719908
 20
50.30559407
  0
VERTEX
  8
0
 10
48.38734198
 20
50.16726112
  0
VERTEX
  8
0
 10
48.46054957
 20
50.01308378
  0
VERTEX
  8
0
 10
48.52916191
 20
49.78607512
  0
VERTEX
  8
0
 10
48.55234563
 20
49.56689803
  0
VERTEX
  8
0
 10
48.53267639
 20
49.35714533
  0
VERTEX
  8
0
 10
48.47272986
 20
49.15840987
  0
VERTEX
  8
0
 10
48.37508169
 20
48.97228445
  0
VERTEX
  8
0
 10
48.24230755
 20
48.80036190
  0
VERTEX
  8
0
 10
48.07698309
 20
48.64423505
  0
VERTEX
  8
0
 10
47.88168399
 20
48.50549673
  0
VERTEX
  8
0
 10
47.65898590
 20
48.38573975
  0
VERTEX
  8
0
 10
47.41146448
 20
48.28655695
  0
VERTEX
  8
0
 10
47.14169540
 20
48.20954115
  0
VERTEX
  8
0
 10
46.85225432
 20
48.15628518
  0
VERTEX
  8
0
 10
46.54571690
 20
48.12838185
  0
VERTEX
  8
0
 10
46.22465880
 20
48.12742400
  0
VERTEX
  8
0
 10
45.89165568
 20
48.15500445
  0
VERTEX
  8
0
 10
45.54928320
 20
48.21271603
  0
VERTEX
  8
0
 10
45.28275126
 20
48.27720976
  0
VERTEX
  8
0
 10
45.03662692
 20
48.35383277
  0
VERTEX
  8
0
 10
44.80939304
 20
48.44341667
  0
VERTEX
  8
0
 10
44.59953248
 20
48.54679308
  0
VERTEX
  8
0
 10
44.40552810
 20
48.66479361
  0
VERTEX
  8
0
 10
44.22586276
 20
48.79824987
  0
VERTEX
  8
0
 10
44.05901931
 20
48.94799348
  0
VERTEX
  8
0
 10
43.90348062
 20
49.11485606
  0
VERTEX
  8
0
 10
43.73707428
 20
49.34076905
  0
VERTEX
  8
0
 10
43.60693779
 20
49.58440846
  0
VERTEX
  8
0
 10
43.51211532
 20
49.84252657
  0
VERTEX
  8
0
 10
43.45165100
 20
50.11187565
  0
VERTEX
  8
0
 10
43.42458899
 20
50.38920795
  0
VERTEX
  8
0
 10
43.42997343
 20
50.67127575
  0
VERTEX
  8
0
 10
43.46684848
 20
50.95483131
  0
VERTEX
  8
0
 10
43.53425828
 20
51.23662690
  0
VERTEX
  8
0
 10
43.63124699
 20
51.51341480
  0
VERTEX
  8
0
 10
43.75685875
 20
51.78194726
  0
VERTEX
  8
0
 10
43.91013771
 20
52.03897655
  0
VERTEX
  8
0
 10
44.09012802
 20
52.28125495
  0
VERTEX
  8
0
 10
44.29587384
 20
52.50553472
  0
VERTEX
  8
0
 10
44.52641930
 20
52.70856812
  0
VERTEX
  8
0
 10
44.78080857
 20
52.88710743
  0
VERTEX
  8
0
 10
45.05808579
 20
53.03790492
  0
VERTEX
  8
0
 10
45.29454955
 20
53.13208648
  0
VERTEX
  8
0
 10
45.61538456
 20
53.23638036
  0
VERTEX
  8
0
 10
45.97847240
 20
53.33809954
  0
VERTEX
  8
0
 10
46.34169467
 20
53.42455699
  0
VERTEX
  8
0
 10
47.38257406
 20
53.66198147
  0
VERTEX
  8
0
 10
48.21088791
 20
53.88637108
  0
VERTEX
  8
0
 10
48.86354706
 20
54.10886364
  0
VERTEX
  8
0
 10
49.13554076
 20
54.22287909
  0
VERTEX
  8
0
 10
49.37746236
 20
54.34059696
  0
VERTEX
  8
0
 10
49.70341877
 20
54.53237462
  0
VERTEX
  8
0
 10
50.01103823
 20
54.75360278
  0
VERTEX
  8
0
 10
50.29860980
 20
55.00053455
  0
VERTEX
  8
0
 10
50.56442257
 20
55.26942303
  0
VERTEX
  8
0
 10
50.80676562
 20
55.55652136
  0
VERTEX
  8
0
 10
51.02392802
 20
55.85808264
  0
VERTEX
  8
0
 10
51.21419885
 20
56.17035999
  0
VERTEX
  8
0
 10
51.37586719
 20
56.48960653
  0
VERTEX
  8
0
 10
51.50722213
 20
56.81207537
  0
VERTEX
  8
0
 10
51.60655274
 20
57.13401963
  0
VERTEX
  8
0
 10
51.67214810
 20
57.45169242
  0
VERTEX
  8
0
 10
51.70229729
 20
57.76134687
  0
VERTEX
  8
0
 10
51.69528938
 20
58.05923608
  0
VERTEX
  8
0
 10
51.64941347
 20
58.34161318
  0
VERTEX
  8
0
 10
51.56295862
 20
58.60473128
  0
VERTEX
  8
0
 10
51.43421392
 20
58.84484350
  0
VERTEX
  8
0
 10
51.33907545
 20
58.97090890
  0
VERTEX
  8
0
 10
51.22467723
 20
59.09192351
  0
VERTEX
  8
0
 10
51.09265013
 20
59.20728703
  0
VERTEX
  8
0
 10
50.94462504
 20
59.31639920
  0
VERTEX
  8
0
 10
50.60710442
 20
59.51346834
  0
VERTEX
  8
0
 10
50.22516245
 20
59.67832873
  0
VERTEX
  8
0
 10
49.81184622
 20
59.80617812
  0
VERTEX
  8
0
 10
49.38020280
 20
59.89221430
  0
VERTEX
  8
0
 10
48.94327928
 20
59.93163504
  0
VERTEX
  8
0
 10
48.51412273
 20
59.91963812
  0
VERTEX
  8
0
 10
48.24877996
 20
59.88366284
  0
VERTEX
  8
0
 10
47.99843022
 20
59.82753469
  0
VERTEX
  8
0
 10
47.76418995
 20
59.75262003
  0
VERTEX
  8
0
 10
47.54717562
 20
59.66028526
  0
VERTEX
  8
0
 10
47.34850369
 20
59.55189677
  0
VERTEX
  8
0
 10
47.16929060
 20
59.42882093
  0
VERTEX
  8
0
 10
47.01065283
 20
59.29242413
  0
VERTEX
  8
0
 10
46.87370682
 20
59.14407277
  0
VERTEX
  8
0
 10
46.75956903
 20
58.98513321
  0
VERTEX
  8
0
 10
46.66935593
 20
58.81697186
  0
VERTEX
  8
0
 10
46.60418396
 20
58.64095509
  0
VERTEX
  8
0
 10
46.56516959
 20
58.45844929
  0
VERTEX
  8
0
 10
46.55342927
 20
58.27082085
  0
VERTEX
  8
0
 10
46.57007946
 20
58.07943614
  0
VERTEX
  8
0
 10
46.61623662
 20
57.88566156
  0
VERTEX
  8
0
 10
46.69301720
 20
57.69086349
  0
VERTEX
  8
0
 10
46.76154119
 20
57.56245770
  0
VERTEX
  8
0
 10
46.83736964
 20
57.45288829
  0
VERTEX
  8
0
 10
46.92282404
 20
57.36061370
  0
VERTEX
  8
0
 10
47.02022588
 20
57.28409238
  0
VERTEX
  8
0
 10
47.13189665
 20
57.22178281
  0
VERTEX
  8
0
 10
47.26015785
 20
57.17214342
  0
VERTEX
  8
0
 10
47.57573746
 20
57.10470906
  0
VERTEX
  8
0
 10
47.76045757
 20
57.08929400
  0
VERTEX
  8
0
 10
47.94459083
 20
57.09281599
  0
VERTEX
  8
0
 10
48.12470525
 20
57.11431935
  0
VERTEX
  8
0
 10
48.29736886
 20
57.15284845
  0
VERTEX
  8
0
 10
48.45914968
 20
57.20744761
  0
VERTEX
  8
0
 10
48.60661574
 20
57.27716119
  0
VERTEX
  8
0
 10
48.73633507
 20
57.36103353
  0
VERTEX
  8
0
 10
48.84487568
 20
57.45810897
  0
VERTEX
  8
0
 10
49.05102800
 20
57.67821210
  0
VERTEX
  8
0
 10
48.73904651
 20
57.62000629
  0
VERTEX
  8
0
 10
48.59137775
 20
57.60432598
  0
VERTEX
  8
0
 10
48.42878349
 20
57.60694428
  0
VERTEX
  8
0
 10
48.26684476
 20
57.62678301
  0
VERTEX
  8
0
 10
48.12114256
 20
57.66276399
  0
VERTEX
  8
0
 10
47.92459610
 20
57.74414027
  0
VERTEX
  8
0
 10
47.76643963
 20
57.84322328
  0
VERTEX
  8
0
 10
47.64519012
 20
57.95653708
  0
VERTEX
  8
0
 10
47.55936457
 20
58.08060568
  0
VERTEX
  8
0
 10
47.50747995
 20
58.21195315
  0
VERTEX
  8
0
 10
47.48805325
 20
58.34710349
  0
VERTEX
  8
0
 10
47.49960144
 20
58.48258077
  0
VERTEX
  8
0
 10
47.54064151
 20
58.61490901
  0
VERTEX
  8
0
 10
47.60969045
 20
58.74061224
  0
VERTEX
  8
0
 10
47.70526522
 20
58.85621451
  0
VERTEX
  8
0
 10
47.82588282
 20
58.95823985
  0
VERTEX
  8
0
 10
47.97006023
 20
59.04321230
  0
VERTEX
  8
0
 10
48.13631442
 20
59.10765590
  0
VERTEX
  8
0
 10
48.32316239
 20
59.14809467
  0
VERTEX
  8
0
 10
48.52912110
 20
59.16105267
  0
VERTEX
  8
0
 10
48.75270755
 20
59.14305392
  0
VERTEX
  8
0
 10
49.08186462
 20
59.07240917
  0
VERTEX
  8
0
 10
49.36702188
 20
58.96818372
  0
VERTEX
  8
0
 10
49.60819033
 20
58.83460035
  0
VERTEX
  8
0
 10
49.80538101
 20
58.67588190
  0
VERTEX
  8
0
 10
49.95860492
 20
58.49625115
  0
VERTEX
  8
0
 10
50.06787309
 20
58.29993093
  0
VERTEX
  8
0
 10
50.13319654
 20
58.09114405
  0
VERTEX
  8
0
 10
50.15458629
 20
57.87411331
  0
VERTEX
  8
0
 10
50.13205335
 20
57.65306153
  0
VERTEX
  8
0
 10
50.06560875
 20
57.43221150
  0
VERTEX
  8
0
 10
49.95526351
 20
57.21578605
  0
VERTEX
  8
0
 10
49.80102865
 20
57.00800799
  0
VERTEX
  8
0
 10
49.60291518
 20
56.81310011
  0
VERTEX
  8
0
 10
49.36093412
 20
56.63528524
  0
VERTEX
  8
0
 10
49.07509650
 20
56.47878618
  0
VERTEX
  8
0
 10
48.74541333
 20
56.34782575
  0
VERTEX
  8
0
 10
48.54043450
 20
56.29239122
  0
VERTEX
  8
0
 10
48.30609702
 20
56.25050353
  0
VERTEX
  8
0
 10
47.78852810
 20
56.20838984
  0
VERTEX
  8
0
 10
47.52488765
 20
56.20867446
  0
VERTEX
  8
0
 10
47.27107052
 20
56.22352713
  0
VERTEX
  8
0
 10
47.03687222
 20
56.25320315
  0
VERTEX
  8
0
 10
46.83208823
 20
56.29795782
  0
VERTEX
  8
0
 10
46.64015314
 20
56.36502024
  0
VERTEX
  8
0
 10
46.45005629
 20
56.45679708
  0
VERTEX
  8
0
 10
46.26526029
 20
56.57042191
  0
VERTEX
  8
0
 10
46.08922775
 20
56.70302829
  0
VERTEX
  8
0
 10
45.92542127
 20
56.85174977
  0
VERTEX
  8
0
 10
45.77730346
 20
57.01371992
  0
VERTEX
  8
0
 10
45.64833693
 20
57.18607230
  0
VERTEX
  8
0
 10
45.54198430
 20
57.36594046
  0
VERTEX
  8
0
 10
45.43917091
 20
57.60499262
  0
VERTEX
  8
0
 10
45.36635806
 20
57.85956842
  0
VERTEX
  8
0
 10
45.32349992
 20
58.12352319
  0
VERTEX
  8
0
 10
45.31055065
 20
58.39071223
  0
VERTEX
  8
0
 10
45.32746443
 20
58.65499087
  0
VERTEX
  8
0
 10
45.37419540
 20
58.91021441
  0
VERTEX
  8
0
 10
45.45069774
 20
59.15023818
  0
VERTEX
  8
0
 10
45.55692561
 20
59.36891749
  0
VERTEX
  8
0
 10
45.68551672
 20
59.54725308
  0
VERTEX
  8
0
 10
45.89067467
 20
59.78748247
  0
VERTEX
  8
0
 10
46.42463734
 20
60.34799979
  0
VERTEX
  8
0
 10
46.94670619
 20
60.83922371
  0
VERTEX
  8
0
 10
47.13699685
 20
60.99283636
  0
VERTEX
  8
0
 10
47.24477376
 20
61.04990851
  0
VERTEX
  8
0
 10
47.29462623
 20
61.07301606
  0
VERTEX
  8
0
 10
47.31536133
 20
61.12857250
  0
VERTEX
  8
0
 10
47.27694714
 20
61.16704240
  0
VERTEX
  8
0
 10
47.17235404
 20
61.21363620
  0
VERTEX
  8
0
 10
46.82852800
 20
61.30768676
  0
VERTEX
  8
0
 10
46.26474797
 20
61.45236531
  0
VERTEX
  8
0
 10
46.01130563
 20
61.54017735
  0
VERTEX
  8
0
 10
45.77673659
 20
61.63839357
  0
VERTEX
  8
0
 10
45.56097194
 20
61.74708074
  0
VERTEX
  8
0
 10
45.36394282
 20
61.86630563
  0
VERTEX
  8
0
 10
45.18558035
 20
61.99613498
  0
VERTEX
  8
0
 10
45.02581564
 20
62.13663556
  0
VERTEX
  8
0
 10
44.88457981
 20
62.28787413
  0
VERTEX
  8
0
 10
44.76180400
 20
62.44991745
  0
VERTEX
  8
0
 10
44.65741930
 20
62.62283228
  0
VERTEX
  8
0
 10
44.57135686
 20
62.80668538
  0
VERTEX
  8
0
 10
44.50354778
 20
63.00154351
  0
VERTEX
  8
0
 10
44.45392319
 20
63.20747343
  0
VERTEX
  8
0
 10
44.42241420
 20
63.42454190
  0
VERTEX
  8
0
 10
44.40895194
 20
63.65281569
  0
VERTEX
  8
0
 10
44.42159389
 20
63.94208733
  0
VERTEX
  8
0
 10
44.46050930
 20
64.19088667
  0
VERTEX
  8
0
 10
44.48106676
 20
64.30712830
  0
VERTEX
  8
0
 10
44.46459873
 20
64.38947593
  0
VERTEX
  8
0
 10
44.40268732
 20
64.45366781
  0
VERTEX
  8
0
 10
44.28691463
 20
64.51544217
  0
VERTEX
  8
0
 10
44.13718763
 20
64.59447753
  0
VERTEX
  8
0
 10
43.96578379
 20
64.70353431
  0
VERTEX
  8
0
 10
43.59777041
 20
64.97921080
  0
VERTEX
  8
0
 10
43.26252415
 20
65.27746904
  0
VERTEX
  8
0
 10
43.13207921
 20
65.41475300
  0
VERTEX
  8
0
 10
43.03969467
 20
65.53330643
  0
VERTEX
  8
0
 10
42.90348257
 20
65.71520098
  0
VERTEX
  8
0
 10
42.81378115
 20
65.79099841
  0
VERTEX
  8
0
 10
42.78731177
 20
65.68173424
  0
VERTEX
  8
0
 10
42.76753843
 20
65.37066507
  0
VERTEX
  8
0
 10
42.74845873
 20
64.24498959
  0
VERTEX
  8
0
 10
42.75729987
 20
62.61772768
  0
VERTEX
  8
0
 10
42.79481963
 20
60.69263503
  0
VERTEX
  8
0
 10
42.85358613
 20
58.43036155
  0
VERTEX
  8
0
 10
43.28530706
 20
58.28764622
  0
VERTEX
  8
0
 10
43.58981702
 20
58.17323946
  0
VERTEX
  8
0
 10
43.86256892
 20
58.04137223
  0
VERTEX
  8
0
 10
44.10478669
 20
57.89093352
  0
VERTEX
  8
0
 10
44.31769423
 20
57.72081233
  0
VERTEX
  8
0
 10
44.50251546
 20
57.52989767
  0
VERTEX
  8
0
 10
44.66047428
 20
57.31707854
  0
VERTEX
  8
0
 10
44.79279461
 20
57.08124395
  0
VERTEX
  8
0
 10
44.90070035
 20
56.82128289
  0
VERTEX
  8
0
 10
44.96409483
 20
56.60491228
  0
VERTEX
  8
0
 10
45.00321452
 20
56.38594977
  0
VERTEX
  8
0
 10
45.01867823
 20
56.16562504
  0
VERTEX
  8
0
 10
45.01110478
 20
55.94516779
  0
VERTEX
  8
0
 10
44.98111298
 20
55.72580768
  0
VERTEX
  8
0
 10
44.92932163
 20
55.50877442
  0
VERTEX
  8
0
 10
44.85634956
 20
55.29529766
  0
VERTEX
  8
0
 10
44.76281558
 20
55.08660711
  0
VERTEX
  8
0
 10
44.64933849
 20
54.88393244
  0
VERTEX
  8
0
 10
44.51653712
 20
54.68850333
  0
VERTEX
  8
0
 10
44.36503027
 20
54.50154947
  0
VERTEX
  8
0
 10
44.19543675
 20
54.32430054
  0
VERTEX
  8
0
 10
44.00837538
 20
54.15798622
  0
VERTEX
  8
0
 10
43.80446498
 20
54.00383620
  0
VERTEX
  8
0
 10
43.58432434
 20
53.86308016
  0
VERTEX
  8
0
 10
43.34857229
 20
53.73694778
  0
VERTEX
  8
0
 10
42.80456229
 20
53.47224184
  0
VERTEX
  8
0
 10
42.82118898
 20
50.42424184
  0
VERTEX
  8
0
 10
42.83781568
 20
47.37624184
  0
VERTEX
  8
0
 10
43.06575517
 20
47.13551359
  0
VERTEX
  8
0
 10
43.18533501
 20
47.02407568
  0
VERTEX
  8
0
 10
43.33162617
 20
46.91268984
  0
VERTEX
  8
0
 10
43.68816025
 20
46.69852400
  0
VERTEX
  8
0
 10
44.10299296
 20
46.50991540
  0
VERTEX
  8
0
 10
44.54375986
 20
46.36376334
  0
VERTEX
  8
0
 10
44.82969539
 20
46.30492276
  0
VERTEX
  8
0
 10
45.17014092
 20
46.26463496
  0
VERTEX
  8
0
 10
45.54862507
 20
46.24268937
  0
VERTEX
  8
0
 10
45.94867649
 20
46.23887544
  0
VERTEX
  8
0
 10
46.35382380
 20
46.25298261
  0
VERTEX
  8
0
 10
46.74759563
 20
46.28480030
  0
VERTEX
  8
0
 10
47.11352063
 20
46.33411797
  0
VERTEX
  8
0
 10
47.43512742
 20
46.40072505
  0
SEQEND
  0
POLYLINE
  8
Default_Layer
 62
256
 66
   1
 39
0.000000
 70
    1
  0
VERTEX
  8
0
 10
68.88802259
 20
51.41957165
  0
VERTEX
  8
0
 10
68.88507806
 20
52.60033018
  0
VERTEX
  8
0
 10
68.86815288
 20
52.98289905
  0
VERTEX
  8
0
 10
68.84289987
 20
53.15117021
  0
VERTEX
  8
0
 10
68.79103140
 20
53.19404336
  0
VERTEX
  8
0
 10
68.70773123
 20
53.20392427
  0
VERTEX
  8
0
 10
68.57993340
 20
53.17994002
  0
VERTEX
  8
0
 10
68.39457195
 20
53.12121768
  0
VERTEX
  8
0
 10
68.22574310
 20
53.07171266
  0
VERTEX
  8
0
 10
68.04847699
 20
53.03778541
  0
VERTEX
  8
0
 10
67.86394732
 20
53.01909548
  0
VERTEX
  8
0
 10
67.67332779
 20
53.01530240
  0
VERTEX
  8
0
 10
67.27851395
 20
53.05104498
  0
VERTEX
  8
0
 10
66.87342505
 20
53.14228950
  0
VERTEX
  8
0
 10
66.46745070
 20
53.28631228
  0
VERTEX
  8
0
 10
66.06998049
 20
53.48038966
  0
VERTEX
  8
0
 10
65.69040400
 20
53.72179798
  0
VERTEX
  8
0
 10
65.33811084
 20
54.00781357
  0
VERTEX
  8
0
 10
65.13678075
 20
54.20120863
  0
VERTEX
  8
0
 10
64.97235424
 20
54.38090165
  0
VERTEX
  8
0
 10
64.84176792
 20
54.55306620
  0
VERTEX
  8
0
 10
64.74195841
 20
54.72387587
  0
VERTEX
  8
0
 10
64.66986233
 20
54.89950425
  0
VERTEX
  8
0
 10
64.62241629
 20
55.08612492
  0
VERTEX
  8
0
 10
64.59655690
 20
55.28991145
  0
VERTEX
  8
0
 10
64.58922078
 20
55.51703744
  0
VERTEX
  8
0
 10
64.61176549
 20
55.84757776
  0
VERTEX
  8
0
 10
64.67591325
 20
56.14857750
  0
VERTEX
  8
0
 10
64.78031750
 20
56.41821772
  0
VERTEX
  8
0
 10
64.92363171
 20
56.65467946
  0
VERTEX
  8
0
 10
65.10450931
 20
56.85614377
  0
VERTEX
  8
0
 10
65.32160375
 20
57.02079170
  0
VERTEX
  8
0
 10
65.57356849
 20
57.14680429
  0
VERTEX
  8
0
 10
65.85905698
 20
57.23236259
  0
VERTEX
  8
0
 10
66.21307279
 20
57.29843138
  0
VERTEX
  8
0
 10
66.49108477
 20
57.31634363
  0
VERTEX
  8
0
 10
66.76897353
 20
57.28414992
  0
VERTEX
  8
0
 10
67.12261967
 20
57.19990083
  0
VERTEX
  8
0
 10
67.34453454
 20
57.12732863
  0
VERTEX
  8
0
 10
67.54415081
 20
57.03326834
  0
VERTEX
  8
0
 10
67.72350151
 20
56.91658940
  0
VERTEX
  8
0
 10
67.88461967
 20
56.77616128
  0
VERTEX
  8
0
 10
68.04276683
 20
56.60417352
  0
VERTEX
  8
0
 10
68.13391645
 20
56.45525935
  0
VERTEX
  8
0
 10
68.17568643
 20
56.28743669
  0
VERTEX
  8
0
 10
68.18569467
 20
56.05872350
  0
VERTEX
  8
0
 10
68.17570543
 20
55.83700257
  0
VERTEX
  8
0
 10
68.13789003
 20
55.66990968
  0
VERTEX
  8
0
 10
68.06047695
 20
55.52563624
  0
VERTEX
  8
0
 10
67.93169467
 20
55.37237365
  0
VERTEX
  8
0
 10
67.78477943
 20
55.23438828
  0
VERTEX
  8
0
 10
67.62719051
 20
55.11917295
  0
VERTEX
  8
0
 10
67.46170855
 20
55.02632595
  0
VERTEX
  8
0
 10
67.29111416
 20
54.95544556
  0
VERTEX
  8
0
 10
67.11818798
 20
54.90613006
  0
VERTEX
  8
0
 10
66.94571063
 20
54.87797775
  0
VERTEX
  8
0
 10
66.77646275
 20
54.87058690
  0
VERTEX
  8
0
 10
66.61322496
 20
54.88355579
  0
VERTEX
  8
0
 10
66.45877788
 20
54.91648271
  0
VERTEX
  8
0
 10
66.31590216
 20
54.96896594
  0
VERTEX
  8
0
 10
66.18737842
 20
55.04060377
  0
VERTEX
  8
0
 10
66.07598727
 20
55.13099448
  0
VERTEX
  8
0
 10
65.98450937
 20
55.23973636
  0
VERTEX
  8
0
 10
65.91572532
 20
55.36642768
  0
VERTEX
  8
0
 10
65.87241577
 20
55.51066674
  0
VERTEX
  8
0
 10
65.85736133
 20
55.67205181
  0
VERTEX
  8
0
 10
65.87409297
 20
55.78197607
  0
VERTEX
  8
0
 10
65.92084034
 20
55.89284130
  0
VERTEX
  8
0
 10
65.99243213
 20
55.99984003
  0
VERTEX
  8
0
 10
66.08369701
 20
56.09816479
  0
VERTEX
  8
0
 10
66.18946367
 20
56.18300815
  0
VERTEX
  8
0
 10
66.30456080
 20
56.24956264
  0
VERTEX
  8
0
 10
66.42381706
 20
56.29302080
  0
VERTEX
  8
0
 10
66.54206115
 20
56.30857518
  0
VERTEX
  8
0
 10
66.72455915
 20
56.33344601
  0
VERTEX
  8
0
 10
66.79203808
 20
56.36036736
  0
VERTEX
  8
0
 10
66.83102800
 20
56.39324184
  0
VERTEX
  8
0
 10
66.82819314
 20
56.42802379
  0
VERTEX
  8
0
 10
66.77574906
 20
56.45473321
  0
VERTEX
  8
0
 10
66.67882844
 20
56.47186360
  0
VERTEX
  8
0
 10
66.54256392
 20
56.47790851
  0
VERTEX
  8
0
 10
66.36858528
 20
56.46864996
  0
VERTEX
  8
0
 10
66.20546628
 20
56.44174677
  0
VERTEX
  8
0
 10
66.05406211
 20
56.39850758
  0
VERTEX
  8
0
 10
65.91522800
 20
56.34024106
  0
VERTEX
  8
0
 10
65.78981914
 20
56.26825586
  0
VERTEX
  8
0
 10
65.67869074
 20
56.18386065
  0
VERTEX
  8
0
 10
65.58269803
 20
56.08836408
  0
VERTEX
  8
0
 10
65.50269620
 20
55.98307481
  0
VERTEX
  8
0
 10
65.43954047
 20
55.86930150
  0
VERTEX
  8
0
 10
65.39408604
 20
55.74835282
  0
VERTEX
  8
0
 10
65.36718813
 20
55.62153741
  0
VERTEX
  8
0
 10
65.35970194
 20
55.49016394
  0
VERTEX
  8
0
 10
65.37248269
 20
55.35554107
  0
VERTEX
  8
0
 10
65.40638559
 20
55.21897745
  0
VERTEX
  8
0
 10
65.46226583
 20
55.08178175
  0
VERTEX
  8
0
 10
65.54097864
 20
54.94526262
  0
VERTEX
  8
0
 10
65.65755028
 20
54.79719872
  0
VERTEX
  8
0
 10
65.79500094
 20
54.66923540
  0
VERTEX
  8
0
 10
65.95089119
 20
54.56134861
  0
VERTEX
  8
0
 10
66.12278160
 20
54.47351435
  0
VERTEX
  8
0
 10
66.30823276
 20
54.40570858
  0
VERTEX
  8
0
 10
66.50480523
 20
54.35790728
  0
VERTEX
  8
0
 10
66.71005958
 20
54.33008641
  0
VERTEX
  8
0
 10
66.92155638
 20
54.32222197
  0
VERTEX
  8
0
 10
67.13685622
 20
54.33428991
  0
VERTEX
  8
0
 10
67.35351966
 20
54.36626621
  0
VERTEX
  8
0
 10
67.56910727
 20
54.41812686
  0
VERTEX
  8
0
 10
67.78117963
 20
54.48984782
  0
VERTEX
  8
0
 10
67.98729731
 20
54.58140506
  0
VERTEX
  8
0
 10
68.18502089
 20
54.69277456
  0
VERTEX
  8
0
 10
68.37191092
 20
54.82393230
  0
VERTEX
  8
0
 10
68.54552800
 20
54.97485425
  0
VERTEX
  8
0
 10
68.82069467
 20
55.24112608
  0
VERTEX
  8
0
 10
68.82069467
 20
57.84325258
  0
VERTEX
  8
0
 10
68.82069467
 20
60.44537908
  0
VERTEX
  8
0
 10
68.29337353
 20
60.23110930
  0
VERTEX
  8
0
 10
67.76042129
 20
60.00298083
  0
VERTEX
  8
0
 10
67.26473527
 20
59.76619143
  0
VERTEX
  8
0
 10
66.80210058
 20
59.51803492
  0
VERTEX
  8
0
 10
66.36830230
 20
59.25580506
  0
VERTEX
  8
0
 10
65.95912555
 20
58.97679565
  0
VERTEX
  8
0
 10
65.57035542
 20
58.67830048
  0
VERTEX
  8
0
 10
65.19777701
 20
58.35761333
  0
VERTEX
  8
0
 10
64.83717542
 20
58.01202799
  0
VERTEX
  8
0
 10
64.50697453
 20
57.66472143
  0
VERTEX
  8
0
 10
64.23006203
 20
57.33742849
  0
VERTEX
  8
0
 10
63.99843818
 20
57.01471335
  0
VERTEX
  8
0
 10
63.80410325
 20
56.68114018
  0
VERTEX
  8
0
 10
63.63905751
 20
56.32127317
  0
VERTEX
  8
0
 10
63.49530121
 20
55.91967648
  0
VERTEX
  8
0
 10
63.36483464
 20
55.46091429
  0
VERTEX
  8
0
 10
63.23965804
 20
54.92955077
  0
VERTEX
  8
0
 10
63.02141795
 20
54.03805036
  0
VERTEX
  8
0
 10
62.92350431
 20
53.70589163
  0
VERTEX
  8
0
 10
62.85010456
 20
53.51150025
  0
VERTEX
  8
0
 10
62.76476074
 20
53.31112555
  0
VERTEX
  8
0
 10
62.74817292
 20
53.24079679
  0
VERTEX
  8
0
 10
62.75321348
 20
53.20383414
  0
VERTEX
  8
0
 10
63.05175873
 20
53.11425114
  0
VERTEX
  8
0
 10
63.71195649
 20
52.95645200
  0
VERTEX
  8
0
 10
64.54163274
 20
52.75484197
  0
VERTEX
  8
0
 10
65.21994196
 20
52.55227210
  0
VERTEX
  8
0
 10
65.81283488
 20
52.32652082
  0
VERTEX
  8
0
 10
66.38626225
 20
52.05536656
  0
VERTEX
  8
0
 10
66.67463660
 20
51.89134784
  0
VERTEX
  8
0
 10
66.97357213
 20
51.69266598
  0
VERTEX
  8
0
 10
67.27423011
 20
51.46707304
  0
VERTEX
  8
0
 10
67.56777180
 20
51.22232107
  0
VERTEX
  8
0
 10
67.84535848
 20
50.96616213
  0
VERTEX
  8
0
 10
68.09815141
 20
50.70634827
  0
VERTEX
  8
0
 10
68.31731185
 20
50.45063155
  0
VERTEX
  8
0
 10
68.49400108
 20
50.20676402
  0
VERTEX
  8
0
 10
68.69953809
 20
49.91203482
  0
VERTEX
  8
0
 10
68.81378710
 20
49.78973831
  0
VERTEX
  8
0
 10
68.83487865
 20
49.91849595
  0
VERTEX
  8
0
 10
68.85590565
 20
50.26870665
  0
VERTEX
  8
0
 10
68.88802259
 20
51.41957165
  0
SEQEND
  0
POLYLINE
  8
Default_Layer
 62
256
 66
   1
 39
0.000000
 70
    1
  0
VERTEX
  8
0
 10
52.52066881
 20
50.56442654
  0
VERTEX
  8
0
 10
52.71214904
 20
50.75283735
  0
VERTEX
  8
0
 10
52.92086267
 20
50.98021157
  0
VERTEX
  8
0
 10
53.33246185
 20
51.47764688
  0
VERTEX
  8
0
 10
53.64040987
 20
51.90832584
  0
VERTEX
  8
0
 10
53.71955953
 20
52.05225463
  0
VERTEX
  8
0
 10
53.73413613
 20
52.09825036
  0
VERTEX
  8
0
 10
53.72965022
 20
52.12384184
  0
VERTEX
  8
0
 10
53.67556762
 20
52.14583211
  0
VERTEX
  8
0
 10
53.59477339
 20
52.13281866
  0
VERTEX
  8
0
 10
53.48947076
 20
52.08630228
  0
VERTEX
  8
0
 10
53.36186294
 20
52.00778373
  0
VERTEX
  8
0
 10
53.04854468
 20
51.76074323
  0
VERTEX
  8
0
 10
52.67244438
 20
51.40370335
  0
VERTEX
  8
0
 10
52.24007465
 20
50.98103991
  0
VERTEX
  8
0
 10
52.02771456
 20
50.80524184
  0
VERTEX
  8
0
 10
51.99658700
 20
50.82515955
  0
VERTEX
  8
0
 10
51.97839859
 20
50.88158200
  0
VERTEX
  8
0
 10
51.97892322
 20
51.08395709
  0
VERTEX
  8
0
 10
52.02545643
 20
51.37239907
  0
VERTEX
  8
0
 10
52.11416624
 20
51.70693985
  0
VERTEX
  8
0
 10
52.19677449
 20
52.02582097
  0
VERTEX
  8
0
 10
52.20631315
 20
52.12805039
  0
VERTEX
  8
0
 10
52.19451281
 20
52.19246717
  0
VERTEX
  8
0
 10
52.16125198
 20
52.21931742
  0
VERTEX
  8
0
 10
52.10640916
 20
52.20884722
  0
VERTEX
  8
0
 10
52.02986283
 20
52.16130267
  0
VERTEX
  8
0
 10
51.93149150
 20
52.07692988
  0
VERTEX
  8
0
 10
51.82276126
 20
51.95731002
  0
VERTEX
  8
0
 10
51.72603982
 20
51.81647572
  0
VERTEX
  8
0
 10
51.64319540
 20
51.65985724
  0
VERTEX
  8
0
 10
51.57609625
 20
51.49288482
  0
VERTEX
  8
0
 10
51.52661059
 20
51.32098872
  0
VERTEX
  8
0
 10
51.49660665
 20
51.14959918
  0
VERTEX
  8
0
 10
51.48795267
 20
50.98414647
  0
VERTEX
  8
0
 10
51.50251687
 20
50.83006082
  0
VERTEX
  8
0
 10
51.57555434
 20
50.55726723
  0
VERTEX
  8
0
 10
51.67947951
 20
50.33402263
  0
VERTEX
  8
0
 10
51.73871486
 20
50.24814746
  0
VERTEX
  8
0
 10
51.80049999
 20
50.18325905
  0
VERTEX
  8
0
 10
51.86311086
 20
50.14222389
  0
VERTEX
  8
0
 10
51.92482342
 20
50.12790851
  0
VERTEX
  8
0
 10
52.00841524
 20
50.16235251
  0
VERTEX
  8
0
 10
52.14862086
 20
50.25613568
  0
VERTEX
  8
0
 10
52.52066881
 20
50.56442654
  0
SEQEND
  0
POLYLINE
  8
Default_Layer
 62
256
 66
   1
 39
0.000000
 70
    1
  0
VERTEX
  8
0
 10
43.35484061
 20
54.79595862
  0
VERTEX
  8
0
 10
43.64652871
 20
54.96562222
  0
VERTEX
  8
0
 10
43.89975760
 20
55.15860361
  0
VERTEX
  8
0
 10
44.11138163
 20
55.36987080
  0
VERTEX
  8
0
 10
44.27825514
 20
55.59439182
  0
VERTEX
  8
0
 10
44.39723247
 20
55.82713467
  0
VERTEX
  8
0
 10
44.46516796
 20
56.06306738
  0
VERTEX
  8
0
 10
44.47891595
 20
56.29715797
  0
VERTEX
  8
0
 10
44.46448661
 20
56.41193997
  0
VERTEX
  8
0
 10
44.43533078
 20
56.52437445
  0
VERTEX
  8
0
 10
44.37882227
 20
56.65493577
  0
VERTEX
  8
0
 10
44.29220187
 20
56.80649514
  0
VERTEX
  8
0
 10
44.06619381
 20
57.12525792
  0
VERTEX
  8
0
 10
43.83244332
 20
57.38596248
  0
VERTEX
  8
0
 10
43.73614489
 20
57.46494908
  0
VERTEX
  8
0
 10
43.66608712
 20
57.49390851
  0
VERTEX
  8
0
 10
43.65075949
 20
57.47219614
  0
VERTEX
  8
0
 10
43.66341131
 20
57.41307830
  0
VERTEX
  8
0
 10
43.76028931
 20
57.21874184
  0
VERTEX
  8
0
 10
43.86946117
 20
56.99220608
  0
VERTEX
  8
0
 10
43.92264386
 20
56.76437758
  0
VERTEX
  8
0
 10
43.92047895
 20
56.53696440
  0
VERTEX
  8
0
 10
43.86360803
 20
56.31167460
  0
VERTEX
  8
0
 10
43.75267267
 20
56.09021625
  0
VERTEX
  8
0
 10
43.58831445
 20
55.87429740
  0
VERTEX
  8
0
 10
43.37117495
 20
55.66562611
  0
VERTEX
  8
0
 10
43.10189573
 20
55.46591045
  0
VERTEX
  8
0
 10
42.86068579
 20
55.29800268
  0
VERTEX
  8
0
 10
42.72744207
 20
55.16816924
  0
VERTEX
  8
0
 10
42.69145140
 20
55.10375276
  0
VERTEX
  8
0
 10
42.67062491
 20
55.03232170
  0
VERTEX
  8
0
 10
42.65869467
 20
54.84637163
  0
VERTEX
  8
0
 10
42.66387137
 20
54.67014254
  0
VERTEX
  8
0
 10
42.68837422
 20
54.57931942
  0
VERTEX
  8
0
 10
42.71207891
 20
54.56001132
  0
VERTEX
  8
0
 10
42.74566229
 20
54.55494617
  0
VERTEX
  8
0
 10
42.84919467
 20
54.57806666
  0
VERTEX
  8
0
 10
43.07630941
 20
54.66636969
  0
VERTEX
  8
0
 10
43.35484061
 20
54.79595862
  0
SEQEND
  0
POLYLINE
  8
Default_Layer
 62
256
 66
   1
 39
0.000000
 70
    1
  0
VERTEX
  8
0
 10
63.48429806
 20
57.82109777
  0
VERTEX
  8
0
 10
63.92162278
 20
58.61794924
  0
VERTEX
  8
0
 10
64.13949700
 20
58.96816058
  0
VERTEX
  8
0
 10
64.35835574
 20
59.28832954
  0
VERTEX
  8
0
 10
64.57933147
 20
59.58003153
  0
VERTEX
  8
0
 10
64.80355665
 20
59.84484199
  0
VERTEX
  8
0
 10
65.03216376
 20
60.08433632
  0
VERTEX
  8
0
 10
65.26628525
 20
60.30008994
  0
VERTEX
  8
0
 10
65.70807213
 20
60.68071208
  0
VERTEX
  8
0
 10
65.16888340
 20
61.11240318
  0
VERTEX
  8
0
 10
64.64815417
 20
61.55787809
  0
VERTEX
  8
0
 10
64.20768035
 20
61.99841444
  0
VERTEX
  8
0
 10
64.01649660
 20
62.21869213
  0
VERTEX
  8
0
 10
63.84412553
 20
62.43996893
  0
VERTEX
  8
0
 10
63.69015011
 20
62.66298945
  0
VERTEX
  8
0
 10
63.55415328
 20
62.88849825
  0
VERTEX
  8
0
 10
63.43571798
 20
63.11723994
  0
VERTEX
  8
0
 10
63.33442716
 20
63.34995910
  0
VERTEX
  8
0
 10
63.24986377
 20
63.58740031
  0
VERTEX
  8
0
 10
63.18161075
 20
63.83030817
  0
VERTEX
  8
0
 10
63.12925105
 20
64.07942725
  0
VERTEX
  8
0
 10
63.09236761
 20
64.33550214
  0
VERTEX
  8
0
 10
63.07054339
 20
64.59927744
  0
VERTEX
  8
0
 10
63.06336133
 20
64.87149773
  0
VERTEX
  8
0
 10
63.08185120
 20
65.29236993
  0
VERTEX
  8
0
 10
63.13830997
 20
65.68767665
  0
VERTEX
  8
0
 10
63.23422139
 20
66.06066599
  0
VERTEX
  8
0
 10
63.37106919
 20
66.41458605
  0
VERTEX
  8
0
 10
63.55033711
 20
66.75268495
  0
VERTEX
  8
0
 10
63.77350891
 20
67.07821079
  0
VERTEX
  8
0
 10
64.04206832
 20
67.39441168
  0
VERTEX
  8
0
 10
64.35749908
 20
67.70453573
  0
VERTEX
  8
0
 10
64.58108514
 20
67.89475925
  0
VERTEX
  8
0
 10
64.81253967
 20
68.06612607
  0
VERTEX
  8
0
 10
65.05323835
 20
68.21931667
  0
VERTEX
  8
0
 10
65.30455684
 20
68.35501157
  0
VERTEX
  8
0
 10
65.56787078
 20
68.47389127
  0
VERTEX
  8
0
 10
65.84455585
 20
68.57663626
  0
VERTEX
  8
0
 10
66.13598770
 20
68.66392705
  0
VERTEX
  8
0
 10
66.44354200
 20
68.73644414
  0
VERTEX
  8
0
 10
66.68771186
 20
68.78008972
  0
VERTEX
  8
0
 10
66.92708153
 20
68.80778527
  0
VERTEX
  8
0
 10
67.16897301
 20
68.81913858
  0
VERTEX
  8
0
 10
67.42070832
 20
68.81375743
  0
VERTEX
  8
0
 10
67.98299845
 20
68.75122287
  0
VERTEX
  8
0
 10
68.67252800
 20
68.61704382
  0
VERTEX
  8
0
 10
68.90536133
 20
68.56550144
  0
VERTEX
  8
0
 10
68.90536133
 20
70.50924349
  0
VERTEX
  8
0
 10
68.88917666
 20
72.25593557
  0
VERTEX
  8
0
 10
68.85026457
 20
73.72591921
  0
VERTEX
  8
0
 10
68.79516780
 20
74.99885290
  0
VERTEX
  8
0
 10
68.36343123
 20
75.04646045
  0
VERTEX
  8
0
 10
67.66565497
 20
75.15041286
  0
VERTEX
  8
0
 10
67.39961528
 20
75.20675772
  0
VERTEX
  8
0
 10
67.30044758
 20
74.58416645
  0
VERTEX
  8
0
 10
67.19271245
 20
73.98061700
  0
VERTEX
  8
0
 10
67.06918231
 20
73.42678778
  0
VERTEX
  8
0
 10
66.92852953
 20
72.91918065
  0
VERTEX
  8
0
 10
66.76942648
 20
72.45429751
  0
VERTEX
  8
0
 10
66.59054554
 20
72.02864022
  0
VERTEX
  8
0
 10
66.39055906
 20
71.63871067
  0
VERTEX
  8
0
 10
66.16813942
 20
71.28101072
  0
VERTEX
  8
0
 10
65.92195898
 20
70.95204227
  0
VERTEX
  8
0
 10
65.74511398
 20
70.74860927
  0
VERTEX
  8
0
 10
65.55331345
 20
70.55173865
  0
VERTEX
  8
0
 10
65.12785288
 20
70.17928911
  0
VERTEX
  8
0
 10
64.65159150
 20
69.83790282
  0
VERTEX
  8
0
 10
64.13054356
 20
69.53078894
  0
VERTEX
  8
0
 10
63.57072328
 20
69.26115664
  0
VERTEX
  8
0
 10
62.97814491
 20
69.03221510
  0
VERTEX
  8
0
 10
62.35882268
 20
68.84717347
  0
VERTEX
  8
0
 10
61.71877082
 20
68.70924092
  0
VERTEX
  8
0
 10
61.38919145
 20
68.66311639
  0
VERTEX
  8
0
 10
61.00288408
 20
68.62816049
  0
VERTEX
  8
0
 10
60.12905038
 20
68.59267318
  0
VERTEX
  8
0
 10
59.23519987
 20
68.60461612
  0
VERTEX
  8
0
 10
58.82387148
 20
68.62894804
  0
VERTEX
  8
0
 10
58.45926269
 20
68.66582645
  0
VERTEX
  8
0
 10
58.16447569
 20
68.69957644
  0
VERTEX
  8
0
 10
57.94149897
 20
68.70964745
  0
VERTEX
  8
0
 10
57.78323187
 20
68.68801139
  0
VERTEX
  8
0
 10
57.72614548
 20
68.66279443
  0
VERTEX
  8
0
 10
57.68257375
 20
68.62664017
  0
VERTEX
  8
0
 10
57.65162912
 20
68.57854510
  0
VERTEX
  8
0
 10
57.63242398
 20
68.51750570
  0
VERTEX
  8
0
 10
57.62568192
 20
68.35257988
  0
VERTEX
  8
0
 10
57.65524693
 20
68.12383463
  0
VERTEX
  8
0
 10
57.71401836
 20
67.82324184
  0
VERTEX
  8
0
 10
57.75496123
 20
67.56083139
  0
VERTEX
  8
0
 10
57.77383536
 20
67.27740845
  0
VERTEX
  8
0
 10
57.77141407
 20
66.98013071
  0
VERTEX
  8
0
 10
57.74847072
 20
66.67615587
  0
VERTEX
  8
0
 10
57.70577865
 20
66.37264164
  0
VERTEX
  8
0
 10
57.64411121
 20
66.07674571
  0
VERTEX
  8
0
 10
57.56424174
 20
65.79562579
  0
VERTEX
  8
0
 10
57.46694358
 20
65.53643957
  0
VERTEX
  8
0
 10
57.37609677
 20
65.30792282
  0
VERTEX
  8
0
 10
57.33585582
 20
65.14405646
  0
VERTEX
  8
0
 10
57.34198293
 20
65.00752315
  0
VERTEX
  8
0
 10
57.39024026
 20
64.86100553
  0
VERTEX
  8
0
 10
57.46509115
 20
64.71981533
  0
VERTEX
  8
0
 10
57.57357770
 20
64.57267309
  0
VERTEX
  8
0
 10
57.71209500
 20
64.42261176
  0
VERTEX
  8
0
 10
57.87703811
 20
64.27266434
  0
VERTEX
  8
0
 10
58.06480213
 20
64.12586380
  0
VERTEX
  8
0
 10
58.27178214
 20
63.98524312
  0
VERTEX
  8
0
 10
58.49437320
 20
63.85383527
  0
VERTEX
  8
0
 10
58.72897041
 20
63.73467323
  0
VERTEX
  8
0
 10
59.03606351
 20
63.60251189
  0
VERTEX
  8
0
 10
59.29988222
 20
63.52311566
  0
VERTEX
  8
0
 10
59.57718985
 20
63.48405900
  0
VERTEX
  8
0
 10
59.92474972
 20
63.47291638
  0
VERTEX
  8
0
 10
60.17666470
 20
63.47824290
  0
VERTEX
  8
0
 10
60.39596068
 20
63.49733649
  0
VERTEX
  8
0
 10
60.58777164
 20
63.53219156
  0
VERTEX
  8
0
 10
60.75723157
 20
63.58480251
  0
VERTEX
  8
0
 10
60.90947444
 20
63.65716375
  0
VERTEX
  8
0
 10
61.04963425
 20
63.75126966
  0
VERTEX
  8
0
 10
61.18284496
 20
63.86911467
  0
VERTEX
  8
0
 10
61.31424058
 20
64.01269317
  0
VERTEX
  8
0
 10
61.41527284
 20
64.14857640
  0
VERTEX
  8
0
 10
61.49380657
 20
64.28796340
  0
VERTEX
  8
0
 10
61.55042138
 20
64.42946599
  0
VERTEX
  8
0
 10
61.58569686
 20
64.57169601
  0
VERTEX
  8
0
 10
61.60021261
 20
64.71326528
  0
VERTEX
  8
0
 10
61.59454824
 20
64.85278562
  0
VERTEX
  8
0
 10
61.56928333
 20
64.98886887
  0
VERTEX
  8
0
 10
61.52499750
 20
65.12012684
  0
VERTEX
  8
0
 10
61.46227033
 20
65.24517137
  0
VERTEX
  8
0
 10
61.38168143
 20
65.36261427
  0
VERTEX
  8
0
 10
61.28381040
 20
65.47106738
  0
VERTEX
  8
0
 10
61.16923683
 20
65.56914251
  0
VERTEX
  8
0
 10
61.03854033
 20
65.65545150
  0
VERTEX
  8
0
 10
60.89230050
 20
65.72860617
  0
VERTEX
  8
0
 10
60.73109692
 20
65.78721835
  0
VERTEX
  8
0
 10
60.55550921
 20
65.82989985
  0
VERTEX
  8
0
 10
60.42781999
 20
65.83647011
  0
VERTEX
  8
0
 10
60.27026784
 20
65.81891514
  0
VERTEX
  8
0
 10
59.92341605
 20
65.73082572
  0
VERTEX
  8
0
 10
59.76303707
 20
65.66998940
  0
VERTEX
  8
0
 10
59.63063645
 20
65.60442408
  0
VERTEX
  8
0
 10
59.54067453
 20
65.53897882
  0
VERTEX
  8
0
 10
59.50761163
 20
65.47850269
  0
VERTEX
  8
0
 10
59.54428410
 20
65.45199828
  0
VERTEX
  8
0
 10
59.64394986
 20
65.43029347
  0
VERTEX
  8
0
 10
59.97139030
 20
65.41024184
  0
VERTEX
  8
0
 10
60.21630031
 20
65.40163285
  0
VERTEX
  8
0
 10
60.39045390
 20
65.36860334
  0
VERTEX
  8
0
 10
60.52699228
 20
65.30034952
  0
VERTEX
  8
0
 10
60.65905667
 20
65.18606760
  0
VERTEX
  8
0
 10
60.73804903
 20
65.09633970
  0
VERTEX
  8
0
 10
60.79882417
 20
65.00439566
  0
VERTEX
  8
0
 10
60.84191416
 20
64.91121719
  0
VERTEX
  8
0
 10
60.86785102
 20
64.81778600
  0
VERTEX
  8
0
 10
60.87716682
 20
64.72508381
  0
VERTEX
  8
0
 10
60.87039361
 20
64.63409234
  0
VERTEX
  8
0
 10
60.84806342
 20
64.54579329
  0
VERTEX
  8
0
 10
60.81070831
 20
64.46116838
  0
VERTEX
  8
0
 10
60.69305153
 20
64.30686786
  0
VERTEX
  8
0
 10
60.52167964
 20
64.17904448
  0
VERTEX
  8
0
 10
60.30084904
 20
64.08555196
  0
VERTEX
  8
0
 10
60.03481611
 20
64.03424402
  0
VERTEX
  8
0
 10
59.80584802
 20
64.02817467
  0
VERTEX
  8
0
 10
59.59365716
 20
64.05353657
  0
VERTEX
  8
0
 10
59.39956348
 20
64.10739056
  0
VERTEX
  8
0
 10
59.22488689
 20
64.18679747
  0
VERTEX
  8
0
 10
59.07094734
 20
64.28881812
  0
VERTEX
  8
0
 10
58.93906476
 20
64.41051335
  0
VERTEX
  8
0
 10
58.83055908
 20
64.54894399
  0
VERTEX
  8
0
 10
58.74675022
 20
64.70117087
  0
VERTEX
  8
0
 10
58.68895813
 20
64.86425482
  0
VERTEX
  8
0
 10
58.65850274
 20
65.03525668
  0
VERTEX
  8
0
 10
58.65670398
 20
65.21123727
  0
VERTEX
  8
0
 10
58.68488178
 20
65.38925743
  0
VERTEX
  8
0
 10
58.74435607
 20
65.56637799
  0
VERTEX
  8
0
 10
58.83644679
 20
65.73965978
  0
VERTEX
  8
0
 10
58.96247387
 20
65.90616363
  0
VERTEX
  8
0
 10
59.12375724
 20
66.06295037
  0
VERTEX
  8
0
 10
59.31021106
 20
66.18712238
  0
VERTEX
  8
0
 10
59.54376726
 20
66.29077938
  0
VERTEX
  8
0
 10
59.81283845
 20
66.37219404
  0
VERTEX
  8
0
 10
60.10583726
 20
66.42963908
  0
VERTEX
  8
0
 10
60.41117633
 20
66.46138716
  0
VERTEX
  8
0
 10
60.71726828
 20
66.46571100
  0
VERTEX
  8
0
 10
61.01252574
 20
66.44088327
  0
VERTEX
  8
0
 10
61.28536133
 20
66.38517668
  0
VERTEX
  8
0
 10
61.55108211
 20
66.28345519
  0
VERTEX
  8
0
 10
61.79568800
 20
66.13529458
  0
VERTEX
  8
0
 10
62.01473634
 20
65.94681526
  0
VERTEX
  8
0
 10
62.20378449
 20
65.72413762
  0
VERTEX
  8
0
 10
62.35838979
 20
65.47338208
  0
VERTEX
  8
0
 10
62.47410959
 20
65.20066904
  0
VERTEX
  8
0
 10
62.54650123
 20
64.91211891
  0
VERTEX
  8
0
 10
62.57112207
 20
64.61385209
  0
VERTEX
  8
0
 10
62.54956855
 20
64.22825236
  0
VERTEX
  8
0
 10
62.52018378
 20
64.06789178
  0
VERTEX
  8
0
 10
62.47549522
 20
63.92143184
  0
VERTEX
  8
0
 10
62.41332907
 20
63.78307839
  0
VERTEX
  8
0
 10
62.33151150
 20
63.64703724
  0
VERTEX
  8
0
 10
62.10022680
 20
63.35871523
  0
VERTEX
  8
0
 10
61.95333730
 20
63.21082396
  0
VERTEX
  8
0
 10
61.79294172
 20
63.07690260
  0
VERTEX
  8
0
 10
61.61980546
 20
62.95708412
  0
VERTEX
  8
0
 10
61.43469394
 20
62.85150149
  0
VERTEX
  8
0
 10
61.23837255
 20
62.76028770
  0
VERTEX
  8
0
 10
61.03160671
 20
62.68357571
  0
VERTEX
  8
0
 10
60.81516182
 20
62.62149849
  0
VERTEX
  8
0
 10
60.58980329
 20
62.57418903
  0
VERTEX
  8
0
 10
60.35629652
 20
62.54178029
  0
VERTEX
  8
0
 10
60.11540692
 20
62.52440524
  0
VERTEX
  8
0
 10
59.86789990
 20
62.52219686
  0
VERTEX
  8
0
 10
59.61454087
 20
62.53528813
  0
VERTEX
  8
0
 10
59.09332837
 20
62.60790148
  0
VERTEX
  8
0
 10
58.55789270
 20
62.74330909
  0
VERTEX
  8
0
 10
58.25219397
 20
62.85251094
  0
VERTEX
  8
0
 10
57.95763672
 20
62.98645775
  0
VERTEX
  8
0
 10
57.67820862
 20
63.14222181
  0
VERTEX
  8
0
 10
57.41789736
 20
63.31687545
  0
VERTEX
  8
0
 10
57.18069063
 20
63.50749097
  0
VERTEX
  8
0
 10
56.97057609
 20
63.71114068
  0
VERTEX
  8
0
 10
56.79154145
 20
63.92489690
  0
VERTEX
  8
0
 10
56.64757437
 20
64.14583194
  0
VERTEX
  8
0
 10
56.59161855
 20
64.22746921
  0
VERTEX
  8
0
 10
56.56204561
 20
64.24547063
  0
VERTEX
  8
0
 10
56.52595868
 20
64.24741838
  0
VERTEX
  8
0
 10
56.41789090
 20
64.20062632
  0
VERTEX
  8
0
 10
56.23471133
 20
64.08203992
  0
VERTEX
  8
0
 10
56.06476703
 20
63.97944493
  0
VERTEX
  8
0
 10
55.86569098
 20
63.87978863
  0
VERTEX
  8
0
 10
55.40490984
 20
63.69769998
  0
VERTEX
  8
0
 10
54.90190028
 20
63.55258979
  0
VERTEX
  8
0
 10
54.40619467
 20
63.46127389
  0
VERTEX
  8
0
 10
54.06236862
 20
63.41060258
  0
VERTEX
  8
0
 10
53.91936133
 20
63.37332583
  0
VERTEX
  8
0
 10
54.09454238
 20
63.04867787
  0
VERTEX
  8
0
 10
54.26972342
 20
62.75176811
  0
VERTEX
  8
0
 10
54.07769725
 20
62.34533831
  0
VERTEX
  8
0
 10
53.85860520
 20
61.89184216
  0
VERTEX
  8
0
 10
53.87074978
 20
61.86276436
  0
VERTEX
  8
0
 10
53.92382467
 20
61.81838511
  0
VERTEX
  8
0
 10
54.11863632
 20
61.70786879
  0
VERTEX
  8
0
 10
54.28450851
 20
61.63360573
  0
VERTEX
  8
0
 10
54.38288884
 20
61.61696460
  0
VERTEX
  8
0
 10
54.41787993
 20
61.63234421
  0
VERTEX
  8
0
 10
54.44933051
 20
61.66463963
  0
VERTEX
  8
0
 10
54.51938669
 20
61.78332502
  0
VERTEX
  8
0
 10
54.59167926
 20
61.89341269
  0
VERTEX
  8
0
 10
54.68202037
 20
61.98900091
  0
VERTEX
  8
0
 10
54.78856346
 20
62.06928077
  0
VERTEX
  8
0
 10
54.90946196
 20
62.13344340
  0
VERTEX
  8
0
 10
55.04286931
 20
62.18067988
  0
VERTEX
  8
0
 10
55.18693894
 20
62.21018134
  0
VERTEX
  8
0
 10
55.33982428
 20
62.22113889
  0
VERTEX
  8
0
 10
55.49967877
 20
62.21274362
  0
VERTEX
  8
0
 10
55.66507464
 20
62.18852261
  0
VERTEX
  8
0
 10
55.80053363
 20
62.15520312
  0
VERTEX
  8
0
 10
55.90848575
 20
62.11053757
  0
VERTEX
  8
0
 10
55.99136105
 20
62.05227837
  0
VERTEX
  8
0
 10
56.05158956
 20
61.97817793
  0
VERTEX
  8
0
 10
56.09160131
 20
61.88598867
  0
VERTEX
  8
0
 10
56.11382633
 20
61.77346299
  0
VERTEX
  8
0
 10
56.12069467
 20
61.63835331
  0
VERTEX
  8
0
 10
56.10988920
 20
61.47500517
  0
VERTEX
  8
0
 10
56.07316408
 20
61.34698899
  0
VERTEX
  8
0
 10
56.00405623
 20
61.23995029
  0
VERTEX
  8
0
 10
55.89610259
 20
61.13953459
  0
VERTEX
  8
0
 10
55.74749898
 20
61.00572344
  0
VERTEX
  8
0
 10
55.71008699
 20
60.95798066
  0
VERTEX
  8
0
 10
55.70560259
 20
60.93208883
  0
VERTEX
  8
0
 10
55.87117364
 20
60.86974334
  0
VERTEX
  8
0
 10
56.22137475
 20
60.76307413
  0
VERTEX
  8
0
 10
56.48424140
 20
60.70337855
  0
VERTEX
  8
0
 10
56.78997128
 20
60.66298502
  0
VERTEX
  8
0
 10
57.13948623
 20
60.64180692
  0
VERTEX
  8
0
 10
57.53370808
 20
60.63975761
  0
VERTEX
  8
0
 10
58.13798447
 20
60.62885451
  0
VERTEX
  8
0
 10
58.38699923
 20
60.60361467
  0
VERTEX
  8
0
 10
58.60963165
 20
60.56310623
  0
VERTEX
  8
0
 10
58.81265667
 20
60.50577187
  0
VERTEX
  8
0
 10
59.00284926
 20
60.43005429
  0
VERTEX
  8
0
 10
59.18698437
 20
60.33439617
  0
VERTEX
  8
0
 10
59.37183695
 20
60.21724021
  0
VERTEX
  8
0
 10
59.51761292
 20
60.10500831
  0
VERTEX
  8
0
 10
59.64595837
 20
59.98045082
  0
VERTEX
  8
0
 10
59.75625494
 20
59.84470113
  0
VERTEX
  8
0
 10
59.84788424
 20
59.69889264
  0
VERTEX
  8
0
 10
59.92022791
 20
59.54415877
  0
VERTEX
  8
0
 10
59.97266756
 20
59.38163292
  0
VERTEX
  8
0
 10
60.00458483
 20
59.21244848
  0
VERTEX
  8
0
 10
60.01536133
 20
59.03773888
  0
VERTEX
  8
0
 10
60.02298245
 20
58.88670090
  0
VERTEX
  8
0
 10
60.04450376
 20
58.76550101
  0
VERTEX
  8
0
 10
60.07791218
 20
58.68165378
  0
VERTEX
  8
0
 10
60.12119467
 20
58.64267379
  0
VERTEX
  8
0
 10
60.63018812
 20
58.48306889
  0
VERTEX
  8
0
 10
61.07306353
 20
58.32322520
  0
VERTEX
  8
0
 10
61.45605672
 20
58.15953842
  0
VERTEX
  8
0
 10
61.78540354
 20
57.98840424
  0
VERTEX
  8
0
 10
62.06733984
 20
57.80621838
  0
VERTEX
  8
0
 10
62.30810145
 20
57.60937652
  0
VERTEX
  8
0
 10
62.51392423
 20
57.39427436
  0
VERTEX
  8
0
 10
62.69104402
 20
57.15730761
  0
VERTEX
  8
0
 10
62.85846445
 20
56.91666533
  0
VERTEX
  8
0
 10
62.94434592
 20
56.81657518
  0
VERTEX
  8
0
 10
63.11443090
 20
57.11165369
  0
VERTEX
  8
0
 10
63.48429806
 20
57.82109777
  0
SEQEND
  0
POLYLINE
  8
Default_Layer
 62
256
 66
   1
 39
0.000000
 70
    1
  0
VERTEX
  8
0
 10
53.81352800
 20
59.86364720
  0
VERTEX
  8
0
 10
53.93178830
 20
59.95176852
  0
VERTEX
  8
0
 10
54.01849108
 20
60.05075914
  0
VERTEX
  8
0
 10
54.07345080
 20
60.15762154
  0
VERTEX
  8
0
 10
54.09648194
 20
60.26935818
  0
VERTEX
  8
0
 10
54.08739896
 20
60.38297155
  0
VERTEX
  8
0
 10
54.04601633
 20
60.49546411
  0
VERTEX
  8
0
 10
53.97214851
 20
60.60383835
  0
VERTEX
  8
0
 10
53.86560996
 20
60.70509672
  0
VERTEX
  8
0
 10
53.77373275
 20
60.76694453
  0
VERTEX
  8
0
 10
53.67509441
 20
60.81455119
  0
VERTEX
  8
0
 10
53.46453760
 20
60.86924936
  0
VERTEX
  8
0
 10
53.24794604
 20
60.87360782
  0
VERTEX
  8
0
 10
53.03932623
 20
60.83204319
  0
VERTEX
  8
0
 10
52.85268468
 20
60.74897205
  0
VERTEX
  8
0
 10
52.70202790
 20
60.62881102
  0
VERTEX
  8
0
 10
52.64457083
 20
60.55620198
  0
VERTEX
  8
0
 10
52.60136239
 20
60.47597669
  0
VERTEX
  8
0
 10
52.57415340
 20
60.38868723
  0
VERTEX
  8
0
 10
52.56469467
 20
60.29488567
  0
VERTEX
  8
0
 10
52.57270743
 20
60.20024960
  0
VERTEX
  8
0
 10
52.59590984
 20
60.11261757
  0
VERTEX
  8
0
 10
52.63304811
 20
60.03242253
  0
VERTEX
  8
0
 10
52.68286843
 20
59.96009743
  0
VERTEX
  8
0
 10
52.81554000
 20
59.84078888
  0
VERTEX
  8
0
 10
52.98389414
 20
59.75815555
  0
VERTEX
  8
0
 10
53.17790043
 20
59.71566108
  0
VERTEX
  8
0
 10
53.38752845
 20
59.71676911
  0
VERTEX
  8
0
 10
53.60274778
 20
59.76494327
  0
VERTEX
  8
0
 10
53.81352800
 20
59.86364720
  0
SEQEND
  0
POLYLINE
  8
Default_Layer
 62
256
 66
   1
 39
0.000000
 70
    1
  0
VERTEX
  8
0
 10
51.79445073
 20
61.16356955
  0
VERTEX
  8
0
 10
51.99350583
 20
61.42777020
  0
VERTEX
  8
0
 10
52.10084159
 20
61.53879404
  0
VERTEX
  8
0
 10
52.19582278
 20
61.61597418
  0
VERTEX
  8
0
 10
52.40046256
 20
61.75005931
  0
VERTEX
  8
0
 10
52.21963498
 20
61.87671588
  0
VERTEX
  8
0
 10
52.13991401
 20
61.94865251
  0
VERTEX
  8
0
 10
52.05652563
 20
62.05089090
  0
VERTEX
  8
0
 10
51.97935747
 20
62.16981130
  0
VERTEX
  8
0
 10
51.91829719
 20
62.29179397
  0
VERTEX
  8
0
 10
51.87118716
 20
62.44377487
  0
VERTEX
  8
0
 10
51.85259076
 20
62.60207597
  0
VERTEX
  8
0
 10
51.86148164
 20
62.76330581
  0
VERTEX
  8
0
 10
51.89683346
 20
62.92407294
  0
VERTEX
  8
0
 10
51.95761989
 20
63.08098592
  0
VERTEX
  8
0
 10
52.04281457
 20
63.23065328
  0
VERTEX
  8
0
 10
52.15139118
 20
63.36968359
  0
VERTEX
  8
0
 10
52.28232336
 20
63.49468537
  0
VERTEX
  8
0
 10
52.56193002
 20
63.72516080
  0
VERTEX
  8
0
 10
52.13446010
 20
64.04429674
  0
VERTEX
  8
0
 10
51.94689269
 20
64.19733180
  0
VERTEX
  8
0
 10
51.77489700
 20
64.36432871
  0
VERTEX
  8
0
 10
51.61928803
 20
64.54405085
  0
VERTEX
  8
0
 10
51.48088081
 20
64.73526161
  0
VERTEX
  8
0
 10
51.36049033
 20
64.93672437
  0
VERTEX
  8
0
 10
51.25893161
 20
65.14720252
  0
VERTEX
  8
0
 10
51.17701966
 20
65.36545946
  0
VERTEX
  8
0
 10
51.11556948
 20
65.59025856
  0
VERTEX
  8
0
 10
51.07100977
 20
65.88290445
  0
VERTEX
  8
0
 10
51.07196543
 20
66.15724321
  0
VERTEX
  8
0
 10
51.11797508
 20
66.41235573
  0
VERTEX
  8
0
 10
51.20857731
 20
66.64732292
  0
VERTEX
  8
0
 10
51.34331073
 20
66.86122566
  0
VERTEX
  8
0
 10
51.52171394
 20
67.05314486
  0
VERTEX
  8
0
 10
51.74332555
 20
67.22216142
  0
VERTEX
  8
0
 10
52.00768416
 20
67.36735622
  0
VERTEX
  8
0
 10
52.19828291
 20
67.44492297
  0
VERTEX
  8
0
 10
52.39039828
 20
67.50190140
  0
VERTEX
  8
0
 10
52.58212632
 20
67.53901592
  0
VERTEX
  8
0
 10
52.77156308
 20
67.55699095
  0
VERTEX
  8
0
 10
52.95680459
 20
67.55655087
  0
VERTEX
  8
0
 10
53.13594692
 20
67.53842010
  0
VERTEX
  8
0
 10
53.30708609
 20
67.50332305
  0
VERTEX
  8
0
 10
53.46831817
 20
67.45198410
  0
VERTEX
  8
0
 10
53.61773920
 20
67.38512768
  0
VERTEX
  8
0
 10
53.75344522
 20
67.30347818
  0
VERTEX
  8
0
 10
53.87353228
 20
67.20776000
  0
VERTEX
  8
0
 10
53.97609643
 20
67.09869756
  0
VERTEX
  8
0
 10
54.05923371
 20
66.97701526
  0
VERTEX
  8
0
 10
54.12104018
 20
66.84343750
  0
VERTEX
  8
0
 10
54.15961187
 20
66.69868868
  0
VERTEX
  8
0
 10
54.17304484
 20
66.54349321
  0
VERTEX
  8
0
 10
54.15966841
 20
66.42564677
  0
VERTEX
  8
0
 10
54.12187920
 20
66.30817078
  0
VERTEX
  8
0
 10
54.06368671
 20
66.19579407
  0
VERTEX
  8
0
 10
53.98910047
 20
66.09324546
  0
VERTEX
  8
0
 10
53.90212998
 20
66.00525378
  0
VERTEX
  8
0
 10
53.80678474
 20
65.93654784
  0
VERTEX
  8
0
 10
53.70707428
 20
65.89185648
  0
VERTEX
  8
0
 10
53.60700809
 20
65.87590851
  0
VERTEX
  8
0
 10
53.49766504
 20
65.88273714
  0
VERTEX
  8
0
 10
53.44071516
 20
65.90999320
  0
VERTEX
  8
0
 10
53.42782355
 20
65.96783191
  0
VERTEX
  8
0
 10
53.45065532
 20
66.06640851
  0
VERTEX
  8
0
 10
53.53416985
 20
66.36217411
  0
VERTEX
  8
0
 10
53.55164547
 20
66.46512507
  0
VERTEX
  8
0
 10
53.55189871
 20
66.54694112
  0
VERTEX
  8
0
 10
53.53415362
 20
66.61423699
  0
VERTEX
  8
0
 10
53.49763424
 20
66.67362742
  0
VERTEX
  8
0
 10
53.36516883
 20
66.79515091
  0
VERTEX
  8
0
 10
53.24032281
 20
66.87946918
  0
VERTEX
  8
0
 10
53.11479239
 20
66.93687404
  0
VERTEX
  8
0
 10
52.98913215
 20
66.96740853
  0
VERTEX
  8
0
 10
52.86389664
 20
66.97111573
  0
VERTEX
  8
0
 10
52.73964041
 20
66.94803867
  0
VERTEX
  8
0
 10
52.61691804
 20
66.89822042
  0
VERTEX
  8
0
 10
52.49628407
 20
66.82170403
  0
VERTEX
  8
0
 10
52.37829307
 20
66.71853255
  0
VERTEX
  8
0
 10
52.24169424
 20
66.56895035
  0
VERTEX
  8
0
 10
52.16965948
 20
66.43942594
  0
VERTEX
  8
0
 10
52.14832554
 20
66.28828684
  0
VERTEX
  8
0
 10
52.16382918
 20
66.07386054
  0
VERTEX
  8
0
 10
52.21593763
 20
65.81173061
  0
VERTEX
  8
0
 10
52.30885670
 20
65.58214986
  0
VERTEX
  8
0
 10
52.44152684
 20
65.38592380
  0
VERTEX
  8
0
 10
52.61288853
 20
65.22385796
  0
VERTEX
  8
0
 10
52.82188220
 20
65.09675784
  0
VERTEX
  8
0
 10
53.06744833
 20
65.00542897
  0
VERTEX
  8
0
 10
53.34852737
 20
64.95067687
  0
VERTEX
  8
0
 10
53.66405978
 20
64.93330706
  0
VERTEX
  8
0
 10
53.88509959
 20
64.94374130
  0
VERTEX
  8
0
 10
54.09660738
 20
64.97246158
  0
VERTEX
  8
0
 10
54.29793789
 20
65.01883113
  0
VERTEX
  8
0
 10
54.48844584
 20
65.08221317
  0
VERTEX
  8
0
 10
54.66748595
 20
65.16197094
  0
VERTEX
  8
0
 10
54.83441295
 20
65.25746767
  0
VERTEX
  8
0
 10
54.98858157
 20
65.36806657
  0
VERTEX
  8
0
 10
55.12934654
 20
65.49313087
  0
VERTEX
  8
0
 10
55.25606258
 20
65.63202381
  0
VERTEX
  8
0
 10
55.36808441
 20
65.78410861
  0
VERTEX
  8
0
 10
55.46476677
 20
65.94874850
  0
VERTEX
  8
0
 10
55.54546439
 20
66.12530671
  0
VERTEX
  8
0
 10
55.60953198
 20
66.31314645
  0
VERTEX
  8
0
 10
55.65632427
 20
66.51163097
  0
VERTEX
  8
0
 10
55.68519600
 20
66.72012349
  0
VERTEX
  8
0
 10
55.69550188
 20
66.93798722
  0
VERTEX
  8
0
 10
55.68835999
 20
67.11135850
  0
VERTEX
  8
0
 10
55.66580721
 20
67.28079623
  0
VERTEX
  8
0
 10
55.62806323
 20
67.44604286
  0
VERTEX
  8
0
 10
55.57534771
 20
67.60684087
  0
VERTEX
  8
0
 10
55.50788036
 20
67.76293272
  0
VERTEX
  8
0
 10
55.42588086
 20
67.91406086
  0
VERTEX
  8
0
 10
55.21916412
 20
68.20039589
  0
VERTEX
  8
0
 10
54.95695497
 20
68.46378565
  0
VERTEX
  8
0
 10
54.64101090
 20
68.70216987
  0
VERTEX
  8
0
 10
54.27308937
 20
68.91348822
  0
VERTEX
  8
0
 10
53.85494786
 20
69.09568041
  0
VERTEX
  8
0
 10
53.49882861
 20
69.21047080
  0
VERTEX
  8
0
 10
53.13565039
 20
69.29018693
  0
VERTEX
  8
0
 10
52.76802765
 20
69.33577642
  0
VERTEX
  8
0
 10
52.39857484
 20
69.34818689
  0
VERTEX
  8
0
 10
52.02990641
 20
69.32836596
  0
VERTEX
  8
0
 10
51.66463681
 20
69.27726126
  0
VERTEX
  8
0
 10
51.30538049
 20
69.19582040
  0
VERTEX
  8
0
 10
50.95475191
 20
69.08499101
  0
VERTEX
  8
0
 10
50.61536551
 20
68.94572071
  0
VERTEX
  8
0
 10
50.28983574
 20
68.77895713
  0
VERTEX
  8
0
 10
49.98077706
 20
68.58564788
  0
VERTEX
  8
0
 10
49.69080391
 20
68.36674058
  0
VERTEX
  8
0
 10
49.42253074
 20
68.12318287
  0
VERTEX
  8
0
 10
49.17857201
 20
67.85592235
  0
VERTEX
  8
0
 10
48.96154216
 20
67.56590665
  0
VERTEX
  8
0
 10
48.77405566
 20
67.25408340
  0
VERTEX
  8
0
 10
48.59853609
 20
66.88202332
  0
VERTEX
  8
0
 10
48.45877217
 20
66.49231136
  0
VERTEX
  8
0
 10
48.35493468
 20
66.08641844
  0
VERTEX
  8
0
 10
48.28719442
 20
65.66581549
  0
VERTEX
  8
0
 10
48.25572217
 20
65.23197343
  0
VERTEX
  8
0
 10
48.26068874
 20
64.78636318
  0
VERTEX
  8
0
 10
48.30226491
 20
64.33045565
  0
VERTEX
  8
0
 10
48.38062149
 20
63.86572178
  0
VERTEX
  8
0
 10
48.48585042
 20
63.43062672
  0
VERTEX
  8
0
 10
48.61460586
 20
63.04237333
  0
VERTEX
  8
0
 10
48.77220594
 20
62.69327384
  0
VERTEX
  8
0
 10
48.96396877
 20
62.37564053
  0
VERTEX
  8
0
 10
49.19521247
 20
62.08178564
  0
VERTEX
  8
0
 10
49.47125516
 20
61.80402143
  0
VERTEX
  8
0
 10
49.79741496
 20
61.53466015
  0
VERTEX
  8
0
 10
50.17900999
 20
61.26601405
  0
VERTEX
  8
0
 10
50.83228937
 20
60.80613371
  0
VERTEX
  8
0
 10
51.08908595
 20
60.60505482
  0
VERTEX
  8
0
 10
51.25236133
 20
60.45854361
  0
VERTEX
  8
0
 10
51.50636133
 20
60.19091777
  0
VERTEX
  8
0
 10
51.55203990
 20
60.51808391
  0
VERTEX
  8
0
 10
51.58529943
 20
60.67023378
  0
VERTEX
  8
0
 10
51.64209049
 20
60.84265135
  0
VERTEX
  8
0
 10
51.71445896
 20
61.01415660
  0
VERTEX
  8
0
 10
51.79445073
 20
61.16356955
  0
SEQEND
  0
POLYLINE
  8
Default_Layer
 62
256
 66
   1
 39
0.000000
 70
    1
  0
VERTEX
  8
0
 10
66.78350232
 20
61.71753985
  0
VERTEX
  8
0
 10
66.86481153
 20
61.82130806
  0
VERTEX
  8
0
 10
67.00340660
 20
61.94589300
  0
VERTEX
  8
0
 10
67.40367205
 20
62.22693832
  0
VERTEX
  8
0
 10
67.88673405
 20
62.49952633
  0
VERTEX
  8
0
 10
68.12882482
 20
62.61353962
  0
VERTEX
  8
0
 10
68.35502800
 20
62.70250753
  0
VERTEX
  8
0
 10
68.64072939
 20
62.80717949
  0
VERTEX
  8
0
 10
68.79242924
 20
62.89407124
  0
VERTEX
  8
0
 10
68.83124762
 20
62.94302331
  0
VERTEX
  8
0
 10
68.85242846
 20
63.00213886
  0
VERTEX
  8
0
 10
68.86302800
 20
63.17033840
  0
VERTEX
  8
0
 10
68.86302800
 20
63.46290851
  0
VERTEX
  8
0
 10
68.27036133
 20
63.46863067
  0
VERTEX
  8
0
 10
67.89165057
 20
63.48204201
  0
VERTEX
  8
0
 10
67.55137806
 20
63.51515906
  0
VERTEX
  8
0
 10
67.24694871
 20
63.56885736
  0
VERTEX
  8
0
 10
66.97576742
 20
63.64401246
  0
VERTEX
  8
0
 10
66.73523910
 20
63.74149989
  0
VERTEX
  8
0
 10
66.52276863
 20
63.86219521
  0
VERTEX
  8
0
 10
66.33576093
 20
64.00697396
  0
VERTEX
  8
0
 10
66.17162089
 20
64.17671168
  0
VERTEX
  8
0
 10
66.05799352
 20
64.32944349
  0
VERTEX
  8
0
 10
65.96462904
 20
64.49180404
  0
VERTEX
  8
0
 10
65.89117092
 20
64.66170170
  0
VERTEX
  8
0
 10
65.83726262
 20
64.83704486
  0
VERTEX
  8
0
 10
65.80254760
 20
65.01574187
  0
VERTEX
  8
0
 10
65.78666933
 20
65.19570111
  0
VERTEX
  8
0
 10
65.78927127
 20
65.37483097
  0
VERTEX
  8
0
 10
65.80999687
 20
65.55103981
  0
VERTEX
  8
0
 10
65.84848962
 20
65.72223600
  0
VERTEX
  8
0
 10
65.90439296
 20
65.88632792
  0
VERTEX
  8
0
 10
65.97735036
 20
66.04122395
  0
VERTEX
  8
0
 10
66.06700529
 20
66.18483246
  0
VERTEX
  8
0
 10
66.17300121
 20
66.31506182
  0
VERTEX
  8
0
 10
66.29498158
 20
66.42982041
  0
VERTEX
  8
0
 10
66.43258986
 20
66.52701660
  0
VERTEX
  8
0
 10
66.58546953
 20
66.60455876
  0
VERTEX
  8
0
 10
66.76843840
 20
66.66698670
  0
VERTEX
  8
0
 10
66.95616911
 20
66.70521019
  0
VERTEX
  8
0
 10
67.14578065
 20
66.72079839
  0
VERTEX
  8
0
 10
67.33439200
 20
66.71532042
  0
VERTEX
  8
0
 10
67.51912217
 20
66.69034543
  0
VERTEX
  8
0
 10
67.69709013
 20
66.64744257
  0
VERTEX
  8
0
 10
67.86541487
 20
66.58818097
  0
VERTEX
  8
0
 10
68.02121538
 20
66.51412977
  0
VERTEX
  8
0
 10
68.16161066
 20
66.42685811
  0
VERTEX
  8
0
 10
68.28371969
 20
66.32793514
  0
VERTEX
  8
0
 10
68.38466145
 20
66.21893000
  0
VERTEX
  8
0
 10
68.46155494
 20
66.10141182
  0
VERTEX
  8
0
 10
68.51151915
 20
65.97694975
  0
VERTEX
  8
0
 10
68.53167306
 20
65.84711293
  0
VERTEX
  8
0
 10
68.51913566
 20
65.71347051
  0
VERTEX
  8
0
 10
68.47102595
 20
65.57759161
  0
VERTEX
  8
0
 10
68.39422849
 20
65.44390029
  0
VERTEX
  8
0
 10
68.30270990
 20
65.32755741
  0
VERTEX
  8
0
 10
68.19520005
 20
65.22784067
  0
VERTEX
  8
0
 10
68.07042881
 20
65.14402780
  0
VERTEX
  8
0
 10
67.92712606
 20
65.07539654
  0
VERTEX
  8
0
 10
67.76402168
 20
65.02122460
  0
VERTEX
  8
0
 10
67.57984552
 20
64.98078970
  0
VERTEX
  8
0
 10
67.37332748
 20
64.95336958
  0
VERTEX
  8
0
 10
66.84615262
 20
64.90224184
  0
VERTEX
  8
0
 10
67.24507014
 20
64.70364808
  0
VERTEX
  8
0
 10
67.41679970
 20
64.63100588
  0
VERTEX
  8
0
 10
67.60360209
 20
64.57456289
  0
VERTEX
  8
0
 10
67.79845717
 20
64.53481774
  0
VERTEX
  8
0
 10
67.99434478
 20
64.51226908
  0
VERTEX
  8
0
 10
68.18424477
 20
64.50741552
  0
VERTEX
  8
0
 10
68.36113700
 20
64.52075572
  0
VERTEX
  8
0
 10
68.51800130
 20
64.55278831
  0
VERTEX
  8
0
 10
68.64781754
 20
64.60401193
  0
VERTEX
  8
0
 10
68.70179905
 20
64.63855949
  0
VERTEX
  8
0
 10
68.74323429
 20
64.68570122
  0
VERTEX
  8
0
 10
68.77377184
 20
64.75830995
  0
VERTEX
  8
0
 10
68.79506028
 20
64.86925848
  0
VERTEX
  8
0
 10
68.81648418
 20
65.25766624
  0
VERTEX
  8
0
 10
68.82069467
 20
65.95390703
  0
VERTEX
  8
0
 10
68.82069467
 20
67.21128109
  0
VERTEX
  8
0
 10
68.51858449
 20
67.35464176
  0
VERTEX
  8
0
 10
68.24538611
 20
67.45703587
  0
VERTEX
  8
0
 10
67.94083682
 20
67.52211375
  0
VERTEX
  8
0
 10
67.61123198
 20
67.55033922
  0
VERTEX
  8
0
 10
67.26286699
 20
67.54217609
  0
VERTEX
  8
0
 10
66.90203721
 20
67.49808820
  0
VERTEX
  8
0
 10
66.53503804
 20
67.41853936
  0
VERTEX
  8
0
 10
66.16816486
 20
67.30399339
  0
VERTEX
  8
0
 10
65.80771304
 20
67.15491413
  0
VERTEX
  8
0
 10
65.56153679
 20
67.02946882
  0
VERTEX
  8
0
 10
65.33422989
 20
66.89237469
  0
VERTEX
  8
0
 10
65.12583257
 20
66.74366886
  0
VERTEX
  8
0
 10
64.93638508
 20
66.58338847
  0
VERTEX
  8
0
 10
64.76592767
 20
66.41157066
  0
VERTEX
  8
0
 10
64.61450059
 20
66.22825257
  0
VERTEX
  8
0
 10
64.48214408
 20
66.03347132
  0
VERTEX
  8
0
 10
64.36889839
 20
65.82726406
  0
VERTEX
  8
0
 10
64.27287582
 20
65.59379363
  0
VERTEX
  8
0
 10
64.20696482
 20
65.34973905
  0
VERTEX
  8
0
 10
64.17039592
 20
65.09695470
  0
VERTEX
  8
0
 10
64.16239968
 20
64.83729498
  0
VERTEX
  8
0
 10
64.18220663
 20
64.57261428
  0
VERTEX
  8
0
 10
64.22904732
 20
64.30476699
  0
VERTEX
  8
0
 10
64.30215228
 20
64.03560751
  0
VERTEX
  8
0
 10
64.40075206
 20
63.76699021
  0
VERTEX
  8
0
 10
64.52407719
 20
63.50076951
  0
VERTEX
  8
0
 10
64.67135822
 20
63.23879978
  0
VERTEX
  8
0
 10
64.84182570
 20
62.98293543
  0
VERTEX
  8
0
 10
65.03471015
 20
62.73503083
  0
VERTEX
  8
0
 10
65.24924213
 20
62.49694040
  0
VERTEX
  8
0
 10
65.48465217
 20
62.27051850
  0
VERTEX
  8
0
 10
65.74017082
 20
62.05761955
  0
VERTEX
  8
0
 10
66.01502862
 20
61.86009792
  0
VERTEX
  8
0
 10
66.33604487
 20
61.66104635
  0
VERTEX
  8
0
 10
66.45334423
 20
61.60441125
  0
VERTEX
  8
0
 10
66.54769605
 20
61.57528319
  0
VERTEX
  8
0
 10
66.62349405
 20
61.57284709
  0
VERTEX
  8
0
 10
66.68513194
 20
61.59628788
  0
VERTEX
  8
0
 10
66.73700346
 20
61.64479049
  0
VERTEX
  8
0
 10
66.78350232
 20
61.71753985
  0
SEQEND
  0
POLYLINE
  8
Default_Layer
 62
256
 66
   1
 39
0.000000
 70
    1
  0
VERTEX
  8
0
 10
47.99269467
 20
62.20408163
  0
VERTEX
  8
0
 10
47.97738407
 20
62.30338086
  0
VERTEX
  8
0
 10
47.93244825
 20
62.42026164
  0
VERTEX
  8
0
 10
47.85938120
 20
62.55270479
  0
VERTEX
  8
0
 10
47.75967688
 20
62.69869109
  0
VERTEX
  8
0
 10
47.48633232
 20
63.02321634
  0
VERTEX
  8
0
 10
47.12436636
 20
63.37768380
  0
VERTEX
  8
0
 10
46.92265498
 20
63.55025586
  0
VERTEX
  8
0
 10
46.72988377
 20
63.69472211
  0
VERTEX
  8
0
 10
46.54578784
 20
63.81119787
  0
VERTEX
  8
0
 10
46.37010233
 20
63.89979847
  0
VERTEX
  8
0
 10
46.20256235
 20
63.96063925
  0
VERTEX
  8
0
 10
46.04290302
 20
63.99383552
  0
VERTEX
  8
0
 10
45.89085947
 20
63.99950262
  0
VERTEX
  8
0
 10
45.74616683
 20
63.97775588
  0
VERTEX
  8
0
 10
45.61975453
 20
63.93667661
  0
VERTEX
  8
0
 10
45.58104410
 20
63.90946526
  0
VERTEX
  8
0
 10
45.55624430
 20
63.87203795
  0
VERTEX
  8
0
 10
45.54111694
 20
63.74923100
  0
VERTEX
  8
0
 10
45.55985326
 20
63.53364688
  0
VERTEX
  8
0
 10
45.62092087
 20
63.24412171
  0
VERTEX
  8
0
 10
45.67187989
 20
63.11189812
  0
VERTEX
  8
0
 10
45.73701810
 20
62.98709097
  0
VERTEX
  8
0
 10
45.81675726
 20
62.86899311
  0
VERTEX
  8
0
 10
45.91151915
 20
62.75689738
  0
VERTEX
  8
0
 10
46.14779822
 20
62.54788369
  0
VERTEX
  8
0
 10
46.38129518
 20
62.40562251
  0
VERTEX
  8
0
 10
46.66267824
 20
62.28265142
  0
VERTEX
  8
0
 10
46.96759223
 20
62.18350907
  0
VERTEX
  8
0
 10
47.27168196
 20
62.11273412
  0
VERTEX
  8
0
 10
47.55059225
 20
62.07486524
  0
VERTEX
  8
0
 10
47.77996791
 20
62.07444110
  0
VERTEX
  8
0
 10
47.86846927
 20
62.08968913
  0
VERTEX
  8
0
 10
47.93545378
 20
62.11600034
  0
VERTEX
  8
0
 10
47.97787704
 20
62.15394206
  0
VERTEX
  8
0
 10
47.99269467
 20
62.20408163
  0
SEQEND
  0
POLYLINE
  8
Default_Layer
 62
256
 66
   1
 39
0.000000
 70
    1
  0
VERTEX
  8
0
 10
47.05693919
 20
67.50703825
  0
VERTEX
  8
0
 10
47.16026595
 20
67.87721919
  0
VERTEX
  8
0
 10
47.27664571
 20
68.21903120
  0
VERTEX
  8
0
 10
47.40828612
 20
68.53648758
  0
VERTEX
  8
0
 10
47.55739482
 20
68.83360161
  0
VERTEX
  8
0
 10
47.72617946
 20
69.11438660
  0
VERTEX
  8
0
 10
47.91684770
 20
69.38285582
  0
VERTEX
  8
0
 10
48.13160718
 20
69.64302258
  0
VERTEX
  8
0
 10
48.37266555
 20
69.89890016
  0
VERTEX
  8
0
 10
48.77777166
 20
70.26525527
  0
VERTEX
  8
0
 10
49.21548674
 20
70.58620844
  0
VERTEX
  8
0
 10
49.68611368
 20
70.86188069
  0
VERTEX
  8
0
 10
50.18995539
 20
71.09239305
  0
VERTEX
  8
0
 10
50.72731478
 20
71.27786653
  0
VERTEX
  8
0
 10
51.29849474
 20
71.41842214
  0
VERTEX
  8
0
 10
51.90379818
 20
71.51418091
  0
VERTEX
  8
0
 10
52.54352800
 20
71.56526385
  0
VERTEX
  8
0
 10
52.91725196
 20
71.59084356
  0
VERTEX
  8
0
 10
53.07269467
 20
71.61978888
  0
VERTEX
  8
0
 10
53.00665839
 20
71.72012694
  0
VERTEX
  8
0
 10
52.84789033
 20
71.91735304
  0
VERTEX
  8
0
 10
52.64259723
 20
72.21185927
  0
VERTEX
  8
0
 10
52.44145189
 20
72.57951367
  0
VERTEX
  8
0
 10
52.28826697
 20
72.93135163
  0
VERTEX
  8
0
 10
52.24335111
 20
73.07353799
  0
VERTEX
  8
0
 10
52.22685510
 20
73.17840851
  0
VERTEX
  8
0
 10
52.21659247
 20
73.25639197
  0
VERTEX
  8
0
 10
52.18313468
 20
73.30113546
  0
VERTEX
  8
0
 10
52.12090562
 20
73.31030012
  0
VERTEX
  8
0
 10
52.02432919
 20
73.28154708
  0
VERTEX
  8
0
 10
51.70582985
 20
73.10093246
  0
VERTEX
  8
0
 10
51.18302784
 20
72.74058065
  0
VERTEX
  8
0
 10
50.73271042
 20
72.43237784
  0
VERTEX
  8
0
 10
50.34380099
 20
72.19686551
  0
VERTEX
  8
0
 10
50.00775214
 20
72.03209058
  0
VERTEX
  8
0
 10
49.71601648
 20
71.93610000
  0
VERTEX
  8
0
 10
49.58409504
 20
71.91328850
  0
VERTEX
  8
0
 10
49.46004661
 20
71.90694068
  0
VERTEX
  8
0
 10
49.34280277
 20
71.91681241
  0
VERTEX
  8
0
 10
49.23129511
 20
71.94265956
  0
VERTEX
  8
0
 10
49.12445518
 20
71.98423799
  0
VERTEX
  8
0
 10
49.02121457
 20
72.04130357
  0
VERTEX
  8
0
 10
48.82125761
 20
72.20091964
  0
VERTEX
  8
0
 10
48.72338815
 20
72.31100546
  0
VERTEX
  8
0
 10
48.65451865
 20
72.42390763
  0
VERTEX
  8
0
 10
48.61315866
 20
72.53799147
  0
VERTEX
  8
0
 10
48.59781772
 20
72.65162227
  0
VERTEX
  8
0
 10
48.60700539
 20
72.76316532
  0
VERTEX
  8
0
 10
48.63923122
 20
72.87098594
  0
VERTEX
  8
0
 10
48.69300477
 20
72.97344941
  0
VERTEX
  8
0
 10
48.76683557
 20
73.06892104
  0
VERTEX
  8
0
 10
48.85923319
 20
73.15576612
  0
VERTEX
  8
0
 10
48.96870717
 20
73.23234995
  0
VERTEX
  8
0
 10
49.09376706
 20
73.29703784
  0
VERTEX
  8
0
 10
49.23292242
 20
73.34819508
  0
VERTEX
  8
0
 10
49.38468280
 20
73.38418697
  0
VERTEX
  8
0
 10
49.54755774
 20
73.40337881
  0
VERTEX
  8
0
 10
49.72005680
 20
73.40413590
  0
VERTEX
  8
0
 10
49.90068953
 20
73.38482354
  0
VERTEX
  8
0
 10
50.08198571
 20
73.38023924
  0
VERTEX
  8
0
 10
50.16316637
 20
73.39873593
  0
VERTEX
  8
0
 10
50.23828804
 20
73.43160684
  0
VERTEX
  8
0
 10
50.30754018
 20
73.47923819
  0
VERTEX
  8
0
 10
50.37111228
 20
73.54201624
  0
VERTEX
  8
0
 10
50.48197420
 20
73.71455734
  0
VERTEX
  8
0
 10
50.57238958
 20
73.95232006
  0
VERTEX
  8
0
 10
50.64387419
 20
74.25839427
  0
VERTEX
  8
0
 10
50.69794380
 20
74.63586990
  0
VERTEX
  8
0
 10
50.73611418
 20
75.08783683
  0
VERTEX
  8
0
 10
50.78130374
 20
75.60598298
  0
VERTEX
  8
0
 10
50.81306210
 20
75.79815311
  0
VERTEX
  8
0
 10
50.85513198
 20
75.95858558
  0
VERTEX
  8
0
 10
50.91066522
 20
76.09692859
  0
VERTEX
  8
0
 10
50.98281370
 20
76.22283038
  0
VERTEX
  8
0
 10
51.18956373
 20
76.47590311
  0
VERTEX
  8
0
 10
51.40240922
 20
76.70423105
  0
VERTEX
  8
0
 10
51.15805194
 20
76.75747344
  0
VERTEX
  8
0
 10
50.66514815
 20
76.88845892
  0
VERTEX
  8
0
 10
50.09859468
 20
77.07239755
  0
VERTEX
  8
0
 10
49.57612968
 20
77.26823069
  0
VERTEX
  8
0
 10
49.21549132
 20
77.43489969
  0
VERTEX
  8
0
 10
49.05411669
 20
77.53994605
  0
VERTEX
  8
0
 10
48.88518386
 20
77.67163333
  0
VERTEX
  8
0
 10
48.55029307
 20
77.98785264
  0
VERTEX
  8
0
 10
48.26211781
 20
78.32940163
  0
VERTEX
  8
0
 10
48.15157941
 20
78.49275099
  0
VERTEX
  8
0
 10
48.07195697
 20
78.64212427
  0
VERTEX
  8
0
 10
47.95135847
 20
78.91457518
  0
VERTEX
  8
0
 10
45.38969324
 20
78.91457518
  0
VERTEX
  8
0
 10
42.82802800
 20
78.91457518
  0
VERTEX
  8
0
 10
42.82802800
 20
76.00669746
  0
VERTEX
  8
0
 10
42.83205222
 20
74.13361638
  0
VERTEX
  8
0
 10
42.85271666
 20
73.57521353
  0
VERTEX
  8
0
 10
42.89971302
 20
73.20518535
  0
VERTEX
  8
0
 10
42.93634278
 20
73.07587806
  0
VERTEX
  8
0
 10
42.98346407
 20
72.97574400
  0
VERTEX
  8
0
 10
43.04237972
 20
72.89880970
  0
VERTEX
  8
0
 10
43.11439258
 20
72.83910166
  0
VERTEX
  8
0
 10
43.30292134
 20
72.74747048
  0
VERTEX
  8
0
 10
43.55947311
 20
72.65306262
  0
VERTEX
  8
0
 10
43.92616942
 20
72.53367792
  0
VERTEX
  8
0
 10
44.28494984
 20
72.45730549
  0
VERTEX
  8
0
 10
44.63615328
 20
72.42397649
  0
VERTEX
  8
0
 10
44.98011867
 20
72.43372207
  0
VERTEX
  8
0
 10
45.31718492
 20
72.48657338
  0
VERTEX
  8
0
 10
45.64769094
 20
72.58256158
  0
VERTEX
  8
0
 10
45.97197566
 20
72.72171780
  0
VERTEX
  8
0
 10
46.29037799
 20
72.90407322
  0
VERTEX
  8
0
 10
46.56744197
 20
73.10653770
  0
VERTEX
  8
0
 10
46.80796349
 20
73.33041030
  0
VERTEX
  8
0
 10
47.00977639
 20
73.57166270
  0
VERTEX
  8
0
 10
47.17071446
 20
73.82626659
  0
VERTEX
  8
0
 10
47.28861152
 20
74.09019367
  0
VERTEX
  8
0
 10
47.36130140
 20
74.35941563
  0
VERTEX
  8
0
 10
47.38661791
 20
74.62990416
  0
VERTEX
  8
0
 10
47.36239485
 20
74.89763095
  0
VERTEX
  8
0
 10
47.31235189
 20
75.06819454
  0
VERTEX
  8
0
 10
47.22997946
 20
75.23067833
  0
VERTEX
  8
0
 10
47.11890027
 20
75.38372042
  0
VERTEX
  8
0
 10
46.98273704
 20
75.52595893
  0
VERTEX
  8
0
 10
46.82511249
 20
75.65603196
  0
VERTEX
  8
0
 10
46.64964934
 20
75.77257762
  0
VERTEX
  8
0
 10
46.45997030
 20
75.87423402
  0
VERTEX
  8
0
 10
46.25969810
 20
75.95963926
  0
VERTEX
  8
0
 10
46.05245545
 20
76.02743146
  0
VERTEX
  8
0
 10
45.84186507
 20
76.07624872
  0
VERTEX
  8
0
 10
45.63154968
 20
76.10472915
  0
VERTEX
  8
0
 10
45.42513200
 20
76.11151086
  0
VERTEX
  8
0
 10
45.22623475
 20
76.09523196
  0
VERTEX
  8
0
 10
45.03848063
 20
76.05453055
  0
VERTEX
  8
0
 10
44.86549239
 20
75.98804474
  0
VERTEX
  8
0
 10
44.71089272
 20
75.89441264
  0
VERTEX
  8
0
 10
44.52226956
 20
75.73223193
  0
VERTEX
  8
0
 10
44.48765757
 20
75.67556378
  0
VERTEX
  8
0
 10
44.49465424
 20
75.63285204
  0
VERTEX
  8
0
 10
44.54461625
 20
75.60235289
  0
VERTEX
  8
0
 10
44.63890031
 20
75.58232254
  0
VERTEX
  8
0
 10
44.96586133
 20
75.56669299
  0
VERTEX
  8
0
 10
45.18970170
 20
75.55693196
  0
VERTEX
  8
0
 10
45.39222655
 20
75.53048137
  0
VERTEX
  8
0
 10
45.57447825
 20
75.48686506
  0
VERTEX
  8
0
 10
45.73749917
 20
75.42560685
  0
VERTEX
  8
0
 10
45.88233167
 20
75.34623055
  0
VERTEX
  8
0
 10
46.01001812
 20
75.24826000
  0
VERTEX
  8
0
 10
46.12160089
 20
75.13121901
  0
VERTEX
  8
0
 10
46.21812235
 20
74.99463140
  0
VERTEX
  8
0
 10
46.29162318
 20
74.85825863
  0
VERTEX
  8
0
 10
46.34200678
 20
74.72737613
  0
VERTEX
  8
0
 10
46.36920711
 20
74.60093954
  0
VERTEX
  8
0
 10
46.37315811
 20
74.47790447
  0
VERTEX
  8
0
 10
46.35379374
 20
74.35722656
  0
VERTEX
  8
0
 10
46.31104794
 20
74.23786144
  0
VERTEX
  8
0
 10
46.24485467
 20
74.11876474
  0
VERTEX
  8
0
 10
46.15514788
 20
73.99889209
  0
VERTEX
  8
0
 10
45.99987743
 20
73.84108522
  0
VERTEX
  8
0
 10
45.82719375
 20
73.71306910
  0
VERTEX
  8
0
 10
45.64022584
 20
73.61412542
  0
VERTEX
  8
0
 10
45.44210272
 20
73.54353589
  0
VERTEX
  8
0
 10
45.23595340
 20
73.50058223
  0
VERTEX
  8
0
 10
45.02490690
 20
73.48454615
  0
VERTEX
  8
0
 10
44.81209223
 20
73.49470935
  0
VERTEX
  8
0
 10
44.60063841
 20
73.53035355
  0
VERTEX
  8
0
 10
44.39367446
 20
73.59076046
  0
VERTEX
  8
0
 10
44.19432939
 20
73.67521178
  0
VERTEX
  8
0
 10
44.00573221
 20
73.78298922
  0
VERTEX
  8
0
 10
43.83101194
 20
73.91337450
  0
VERTEX
  8
0
 10
43.67329760
 20
74.06564932
  0
VERTEX
  8
0
 10
43.53571820
 20
74.23909540
  0
VERTEX
  8
0
 10
43.42140276
 20
74.43299444
  0
VERTEX
  8
0
 10
43.33348028
 20
74.64662816
  0
VERTEX
  8
0
 10
43.27431923
 20
74.87143386
  0
VERTEX
  8
0
 10
43.24677763
 20
75.08887222
  0
VERTEX
  8
0
 10
43.24985689
 20
75.29799199
  0
VERTEX
  8
0
 10
43.28255843
 20
75.49784189
  0
VERTEX
  8
0
 10
43.34388365
 20
75.68747065
  0
VERTEX
  8
0
 10
43.43283396
 20
75.86592701
  0
VERTEX
  8
0
 10
43.54841079
 20
76.03225970
  0
VERTEX
  8
0
 10
43.68961554
 20
76.18551745
  0
VERTEX
  8
0
 10
43.85544961
 20
76.32474898
  0
VERTEX
  8
0
 10
44.04491443
 20
76.44900304
  0
VERTEX
  8
0
 10
44.25701141
 20
76.55732835
  0
VERTEX
  8
0
 10
44.49074195
 20
76.64877365
  0
VERTEX
  8
0
 10
44.74510746
 20
76.72238765
  0
VERTEX
  8
0
 10
45.01910937
 20
76.77721911
  0
VERTEX
  8
0
 10
45.31174908
 20
76.81231674
  0
VERTEX
  8
0
 10
45.62202800
 20
76.82672928
  0
VERTEX
  8
0
 10
46.07563112
 20
76.80989122
  0
VERTEX
  8
0
 10
46.49431850
 20
76.74868915
  0
VERTEX
  8
0
 10
46.87694927
 20
76.64371561
  0
VERTEX
  8
0
 10
47.22238253
 20
76.49556310
  0
VERTEX
  8
0
 10
47.52947742
 20
76.30482415
  0
VERTEX
  8
0
 10
47.79709305
 20
76.07209128
  0
VERTEX
  8
0
 10
48.02408855
 20
75.79795699
  0
VERTEX
  8
0
 10
48.20932302
 20
75.48301382
  0
VERTEX
  8
0
 10
48.32931739
 20
75.21683900
  0
VERTEX
  8
0
 10
48.39206906
 20
74.99992165
  0
VERTEX
  8
0
 10
48.40840474
 20
74.77126464
  0
VERTEX
  8
0
 10
48.38915111
 20
74.46987088
  0
VERTEX
  8
0
 10
48.32960088
 20
74.11370704
  0
VERTEX
  8
0
 10
48.21889251
 20
73.75004212
  0
VERTEX
  8
0
 10
48.06077379
 20
73.38488280
  0
VERTEX
  8
0
 10
47.85899249
 20
73.02423579
  0
VERTEX
  8
0
 10
47.61729642
 20
72.67410778
  0
VERTEX
  8
0
 10
47.33943335
 20
72.34050547
  0
VERTEX
  8
0
 10
47.02915108
 20
72.02943555
  0
VERTEX
  8
0
 10
46.69019739
 20
71.74690473
  0
VERTEX
  8
0
 10
46.28867168
 20
71.47240363
  0
VERTEX
  8
0
 10
45.82845163
 20
71.20683672
  0
VERTEX
  8
0
 10
45.33081583
 20
70.95873117
  0
VERTEX
  8
0
 10
44.81704286
 20
70.73661416
  0
VERTEX
  8
0
 10
44.30841131
 20
70.54901288
  0
VERTEX
  8
0
 10
43.82619979
 20
70.40445450
  0
VERTEX
  8
0
 10
43.39168688
 20
70.31146620
  0
VERTEX
  8
0
 10
43.02615117
 20
70.27857518
  0
VERTEX
  8
0
 10
42.74336133
 20
70.27857518
  0
VERTEX
  8
0
 10
42.74336133
 20
69.01549985
  0
VERTEX
  8
0
 10
42.72826501
 20
68.08411253
  0
VERTEX
  8
0
 10
42.71192405
 20
67.77016483
  0
VERTEX
  8
0
 10
42.69196961
 20
67.61849985
  0
VERTEX
  8
0
 10
42.67913593
 20
67.56649941
  0
VERTEX
  8
0
 10
42.68218317
 20
67.52391555
  0
VERTEX
  8
0
 10
42.69983651
 20
67.49514267
  0
VERTEX
  8
0
 10
42.73082115
 20
67.48457518
  0
VERTEX
  8
0
 10
42.77782692
 20
67.51947214
  0
VERTEX
  8
0
 10
42.83910218
 20
67.61448862
  0
VERTEX
  8
0
 10
42.97271286
 20
67.92683372
  0
VERTEX
  8
0
 10
43.14714547
 20
68.37859891
  0
VERTEX
  8
0
 10
43.34055913
 20
68.79430271
  0
VERTEX
  8
0
 10
43.51772499
 20
69.10489989
  0
VERTEX
  8
0
 10
43.58920598
 20
69.19920685
  0
VERTEX
  8
0
 10
43.64341419
 20
69.24134519
  0
VERTEX
  8
0
 10
43.68536907
 20
69.22747477
  0
VERTEX
  8
0
 10
43.72858743
 20
69.16837011
  0
VERTEX
  8
0
 10
43.76807547
 20
69.07333798
  0
VERTEX
  8
0
 10
43.79883940
 20
68.95168512
  0
VERTEX
  8
0
 10
43.85939377
 20
68.71208982
  0
VERTEX
  8
0
 10
43.95659776
 20
68.46564501
  0
VERTEX
  8
0
 10
44.09888995
 20
68.20057200
  0
VERTEX
  8
0
 10
44.29470893
 20
67.90509210
  0
VERTEX
  8
0
 10
44.55249329
 20
67.56742662
  0
VERTEX
  8
0
 10
44.88068162
 20
67.17579688
  0
VERTEX
  8
0
 10
45.78202455
 20
66.18352982
  0
VERTEX
  8
0
 10
46.44987822
 20
65.44576528
  0
VERTEX
  8
0
 10
46.65576972
 20
65.19939860
  0
VERTEX
  8
0
 10
46.73462794
 20
65.08286315
  0
VERTEX
  8
0
 10
46.76393833
 20
65.28754720
  0
VERTEX
  8
0
 10
46.81765064
 20
65.91440472
  0
VERTEX
  8
0
 10
46.85852529
 20
66.32701759
  0
VERTEX
  8
0
 10
46.91726604
 20
66.76483300
  0
VERTEX
  8
0
 10
46.98602122
 20
67.17559265
  0
VERTEX
  8
0
 10
47.05693919
 20
67.50703825
  0
SEQEND
  0
POLYLINE
  8
Default_Layer
 62
256
 66
   1
 39
0.000000
 70
    1
  0
VERTEX
  8
0
 10
60.56800122
 20
70.42803832
  0
VERTEX
  8
0
 10
60.61347688
 20
70.49014476
  0
VERTEX
  8
0
 10
60.67300330
 20
70.61326356
  0
VERTEX
  8
0
 10
60.80332249
 20
70.97124269
  0
VERTEX
  8
0
 10
60.88556794
 20
71.17901442
  0
VERTEX
  8
0
 10
61.01351530
 20
71.43346850
  0
VERTEX
  8
0
 10
61.34932817
 20
71.99478718
  0
VERTEX
  8
0
 10
61.69638582
 20
72.47992563
  0
VERTEX
  8
0
 10
61.83838916
 20
72.63915444
  0
VERTEX
  8
0
 10
61.94031296
 20
72.71361077
  0
VERTEX
  8
0
 10
61.98877704
 20
72.70944359
  0
VERTEX
  8
0
 10
62.04339642
 20
72.67325997
  0
VERTEX
  8
0
 10
62.09747698
 20
72.61111530
  0
VERTEX
  8
0
 10
62.14432458
 20
72.52906500
  0
VERTEX
  8
0
 10
62.17752912
 20
72.41311904
  0
VERTEX
  8
0
 10
62.18912533
 20
72.26485009
  0
VERTEX
  8
0
 10
62.18037570
 20
72.09107500
  0
VERTEX
  8
0
 10
62.15254269
 20
71.89861064
  0
VERTEX
  8
0
 10
62.04467642
 20
71.48488156
  0
VERTEX
  8
0
 10
61.96716811
 20
71.27725056
  0
VERTEX
  8
0
 10
61.87562632
 20
71.07819775
  0
VERTEX
  8
0
 10
61.77080090
 20
70.83923730
  0
VERTEX
  8
0
 10
61.74767714
 20
70.75778018
  0
VERTEX
  8
0
 10
61.74959330
 20
70.71745432
  0
VERTEX
  8
0
 10
61.78793470
 20
70.70778637
  0
VERTEX
  8
0
 10
61.85761147
 20
70.71971791
  0
VERTEX
  8
0
 10
62.07265669
 20
70.80022173
  0
VERTEX
  8
0
 10
62.35810014
 20
70.94265022
  0
VERTEX
  8
0
 10
62.67731301
 20
71.13068783
  0
VERTEX
  8
0
 10
63.05545101
 20
71.37049585
  0
VERTEX
  8
0
 10
63.01054085
 20
72.36970218
  0
VERTEX
  8
0
 10
62.99109816
 20
72.91937835
  0
VERTEX
  8
0
 10
63.00064442
 20
73.25635630
  0
VERTEX
  8
0
 10
63.01920442
 20
73.37305757
  0
VERTEX
  8
0
 10
63.04851089
 20
73.47015326
  0
VERTEX
  8
0
 10
63.14402885
 20
73.65028645
  0
VERTEX
  8
0
 10
63.22144856
 20
73.75688662
  0
VERTEX
  8
0
 10
63.30036707
 20
73.83913084
  0
VERTEX
  8
0
 10
63.37154113
 20
73.88888988
  0
VERTEX
  8
0
 10
63.42572750
 20
73.89803450
  0
VERTEX
  8
0
 10
63.49794921
 20
73.85502069
  0
VERTEX
  8
0
 10
63.56458730
 20
73.77611887
  0
VERTEX
  8
0
 10
63.62496482
 20
73.66349599
  0
VERTEX
  8
0
 10
63.67840478
 20
73.51931898
  0
VERTEX
  8
0
 10
63.76176414
 20
73.14497035
  0
VERTEX
  8
0
 10
63.80924961
 20
72.67040851
  0
VERTEX
  8
0
 10
63.85211078
 20
72.17709288
  0
VERTEX
  8
0
 10
63.87797886
 20
72.02702452
  0
VERTEX
  8
0
 10
63.90271612
 20
71.97190851
  0
VERTEX
  8
0
 10
63.95639109
 20
72.00220748
  0
VERTEX
  8
0
 10
64.04382223
 20
72.08561809
  0
VERTEX
  8
0
 10
64.28425348
 20
72.36685627
  0
VERTEX
  8
0
 10
64.55261085
 20
72.72578724
  0
VERTEX
  8
0
 10
64.77749534
 20
73.07257518
  0
VERTEX
  8
0
 10
64.96868931
 20
73.46339250
  0
VERTEX
  8
0
 10
65.11318807
 20
73.88494659
  0
VERTEX
  8
0
 10
65.21030810
 20
74.32496577
  0
VERTEX
  8
0
 10
65.25936585
 20
74.77117834
  0
VERTEX
  8
0
 10
65.25967779
 20
75.21131262
  0
VERTEX
  8
0
 10
65.21056038
 20
75.63309690
  0
VERTEX
  8
0
 10
65.11133009
 20
76.02425951
  0
VERTEX
  8
0
 10
65.04270901
 20
76.20452278
  0
VERTEX
  8
0
 10
64.96130339
 20
76.37252874
  0
VERTEX
  8
0
 10
64.83456431
 20
76.58146048
  0
VERTEX
  8
0
 10
64.68699078
 20
76.78039627
  0
VERTEX
  8
0
 10
64.51793647
 20
76.96989922
  0
VERTEX
  8
0
 10
64.32675504
 20
77.15053241
  0
VERTEX
  8
0
 10
64.11280016
 20
77.32285894
  0
VERTEX
  8
0
 10
63.87542550
 20
77.48744190
  0
VERTEX
  8
0
 10
63.61398472
 20
77.64484438
  0
VERTEX
  8
0
 10
63.32783149
 20
77.79562948
  0
VERTEX
  8
0
 10
62.94914364
 20
77.97374442
  0
VERTEX
  8
0
 10
62.79834090
 20
78.02950476
  0
VERTEX
  8
0
 10
62.65075873
 20
78.06756389
  0
VERTEX
  8
0
 10
62.29783539
 20
78.10406925
  0
VERTEX
  8
0
 10
61.75553224
 20
78.11024184
  0
VERTEX
  8
0
 10
61.25769399
 20
78.10314116
  0
VERTEX
  8
0
 10
60.91230870
 20
78.07510211
  0
VERTEX
  8
0
 10
60.64874245
 20
78.01601918
  0
VERTEX
  8
0
 10
60.39636133
 20
77.91578685
  0
VERTEX
  8
0
 10
60.13509028
 20
77.78649226
  0
VERTEX
  8
0
 10
59.89713309
 20
77.64977721
  0
VERTEX
  8
0
 10
59.68287697
 20
77.50647042
  0
VERTEX
  8
0
 10
59.49270913
 20
77.35740058
  0
VERTEX
  8
0
 10
59.32701679
 20
77.20339641
  0
VERTEX
  8
0
 10
59.18618716
 20
77.04528661
  0
VERTEX
  8
0
 10
59.07060746
 20
76.88389989
  0
VERTEX
  8
0
 10
58.98066489
 20
76.72006496
  0
VERTEX
  8
0
 10
58.91674668
 20
76.55461052
  0
VERTEX
  8
0
 10
58.87924004
 20
76.38836528
  0
VERTEX
  8
0
 10
58.86853218
 20
76.22215794
  0
VERTEX
  8
0
 10
58.88501032
 20
76.05681722
  0
VERTEX
  8
0
 10
58.92906166
 20
75.89317182
  0
VERTEX
  8
0
 10
59.00107343
 20
75.73205044
  0
VERTEX
  8
0
 10
59.10143284
 20
75.57428180
  0
VERTEX
  8
0
 10
59.23052710
 20
75.42069459
  0
VERTEX
  8
0
 10
59.37650395
 20
75.28217481
  0
VERTEX
  8
0
 10
59.53172758
 20
75.16295849
  0
VERTEX
  8
0
 10
59.69427814
 20
75.06298986
  0
VERTEX
  8
0
 10
59.86223574
 20
74.98221313
  0
VERTEX
  8
0
 10
60.03368052
 20
74.92057253
  0
VERTEX
  8
0
 10
60.20669261
 20
74.87801227
  0
VERTEX
  8
0
 10
60.37935215
 20
74.85447658
  0
VERTEX
  8
0
 10
60.54973926
 20
74.84990968
  0
VERTEX
  8
0
 10
60.71593407
 20
74.86425577
  0
VERTEX
  8
0
 10
60.87601672
 20
74.89745909
  0
VERTEX
  8
0
 10
61.02806734
 20
74.94946385
  0
VERTEX
  8
0
 10
61.17016606
 20
75.02021427
  0
VERTEX
  8
0
 10
61.30039300
 20
75.10965457
  0
VERTEX
  8
0
 10
61.41682831
 20
75.21772897
  0
VERTEX
  8
0
 10
61.51755211
 20
75.34438169
  0
VERTEX
  8
0
 10
61.60064454
 20
75.48955695
  0
VERTEX
  8
0
 10
61.65475861
 20
75.62241909
  0
VERTEX
  8
0
 10
61.68254449
 20
75.73902848
  0
VERTEX
  8
0
 10
61.68393237
 20
75.83952454
  0
VERTEX
  8
0
 10
61.65885245
 20
75.92404672
  0
VERTEX
  8
0
 10
61.60723492
 20
75.99273446
  0
VERTEX
  8
0
 10
61.52900999
 20
76.04572718
  0
VERTEX
  8
0
 10
61.42410784
 20
76.08316434
  0
VERTEX
  8
0
 10
61.29245868
 20
76.10518536
  0
VERTEX
  8
0
 10
61.17611728
 20
76.10951244
  0
VERTEX
  8
0
 10
61.07354618
 20
76.09839170
  0
VERTEX
  8
0
 10
60.98528226
 20
76.07221501
  0
VERTEX
  8
0
 10
60.91186241
 20
76.03137426
  0
VERTEX
  8
0
 10
60.85382351
 20
75.97626133
  0
VERTEX
  8
0
 10
60.81170245
 20
75.90726809
  0
VERTEX
  8
0
 10
60.78603609
 20
75.82478641
  0
VERTEX
  8
0
 10
60.77736133
 20
75.72920819
  0
VERTEX
  8
0
 10
60.76946616
 20
75.64753262
  0
VERTEX
  8
0
 10
60.74686967
 20
75.58789224
  0
VERTEX
  8
0
 10
60.71120541
 20
75.55041234
  0
VERTEX
  8
0
 10
60.66410689
 20
75.53521824
  0
VERTEX
  8
0
 10
60.60720766
 20
75.54243522
  0
VERTEX
  8
0
 10
60.54214126
 20
75.57218859
  0
VERTEX
  8
0
 10
60.39404107
 20
75.69980570
  0
VERTEX
  8
0
 10
60.33904832
 20
75.77519934
  0
VERTEX
  8
0
 10
60.30508950
 20
75.85487540
  0
VERTEX
  8
0
 10
60.29095834
 20
75.93757182
  0
VERTEX
  8
0
 10
60.29544852
 20
76.02202654
  0
VERTEX
  8
0
 10
60.31735375
 20
76.10697750
  0
VERTEX
  8
0
 10
60.35546772
 20
76.19116265
  0
VERTEX
  8
0
 10
60.47549674
 20
76.35218727
  0
VERTEX
  8
0
 10
60.64588517
 20
76.49500396
  0
VERTEX
  8
0
 10
60.85698262
 20
76.60951626
  0
VERTEX
  8
0
 10
61.09913872
 20
76.68562770
  0
VERTEX
  8
0
 10
61.36270306
 20
76.71324184
  0
VERTEX
  8
0
 10
61.55409752
 20
76.70237434
  0
VERTEX
  8
0
 10
61.73427911
 20
76.67073550
  0
VERTEX
  8
0
 10
61.90231713
 20
76.61977087
  0
VERTEX
  8
0
 10
62.05728090
 20
76.55092597
  0
VERTEX
  8
0
 10
62.19823972
 20
76.46564634
  0
VERTEX
  8
0
 10
62.32426290
 20
76.36537749
  0
VERTEX
  8
0
 10
62.43441973
 20
76.25156498
  0
VERTEX
  8
0
 10
62.52777954
 20
76.12565431
  0
VERTEX
  8
0
 10
62.60341162
 20
75.98909103
  0
VERTEX
  8
0
 10
62.66038528
 20
75.84332066
  0
VERTEX
  8
0
 10
62.69776983
 20
75.68978874
  0
VERTEX
  8
0
 10
62.71463457
 20
75.52994079
  0
VERTEX
  8
0
 10
62.71004881
 20
75.36522235
  0
VERTEX
  8
0
 10
62.68308186
 20
75.19707894
  0
VERTEX
  8
0
 10
62.63280301
 20
75.02695610
  0
VERTEX
  8
0
 10
62.55828159
 20
74.85629935
  0
VERTEX
  8
0
 10
62.41590590
 20
74.62084154
  0
VERTEX
  8
0
 10
62.24255697
 20
74.40825582
  0
VERTEX
  8
0
 10
62.04130135
 20
74.21906533
  0
VERTEX
  8
0
 10
61.81520559
 20
74.05379320
  0
VERTEX
  8
0
 10
61.56733624
 20
73.91296256
  0
VERTEX
  8
0
 10
61.30075985
 20
73.79709655
  0
VERTEX
  8
0
 10
61.01854297
 20
73.70671830
  0
VERTEX
  8
0
 10
60.72375215
 20
73.64235095
  0
VERTEX
  8
0
 10
60.41945393
 20
73.60451762
  0
VERTEX
  8
0
 10
60.10871488
 20
73.59374146
  0
VERTEX
  8
0
 10
59.79460153
 20
73.61054559
  0
VERTEX
  8
0
 10
59.48018043
 20
73.65545315
  0
VERTEX
  8
0
 10
59.16851814
 20
73.72898727
  0
VERTEX
  8
0
 10
58.86268121
 20
73.83167108
  0
VERTEX
  8
0
 10
58.56573618
 20
73.96402772
  0
VERTEX
  8
0
 10
58.28074961
 20
74.12658032
  0
VERTEX
  8
0
 10
58.03553734
 20
74.29640647
  0
VERTEX
  8
0
 10
57.82006717
 20
74.47337116
  0
VERTEX
  8
0
 10
57.63430213
 20
74.65784730
  0
VERTEX
  8
0
 10
57.47820526
 20
74.85020778
  0
VERTEX
  8
0
 10
57.35173957
 20
75.05082550
  0
VERTEX
  8
0
 10
57.25486809
 20
75.26007336
  0
VERTEX
  8
0
 10
57.18755386
 20
75.47832426
  0
VERTEX
  8
0
 10
57.14975990
 20
75.70595110
  0
VERTEX
  8
0
 10
57.14144924
 20
75.94332677
  0
VERTEX
  8
0
 10
57.16258490
 20
76.19082418
  0
VERTEX
  8
0
 10
57.21312991
 20
76.44881623
  0
VERTEX
  8
0
 10
57.29304730
 20
76.71767581
  0
VERTEX
  8
0
 10
57.40230010
 20
76.99777582
  0
VERTEX
  8
0
 10
57.54085133
 20
77.28948916
  0
VERTEX
  8
0
 10
57.70866402
 20
77.59318873
  0
VERTEX
  8
0
 10
57.90570121
 20
77.90924744
  0
VERTEX
  8
0
 10
58.24654662
 20
78.40428613
  0
VERTEX
  8
0
 10
58.45752710
 20
78.66762880
  0
VERTEX
  8
0
 10
58.52997979
 20
78.73668397
  0
VERTEX
  8
0
 10
58.56014347
 20
78.79208949
  0
VERTEX
  8
0
 10
58.54316347
 20
78.83521270
  0
VERTEX
  8
0
 10
58.47418510
 20
78.86742092
  0
VERTEX
  8
0
 10
58.34835371
 20
78.89008150
  0
VERTEX
  8
0
 10
58.16081462
 20
78.90456176
  0
VERTEX
  8
0
 10
57.58119467
 20
78.91445069
  0
VERTEX
  8
0
 10
56.58636133
 20
78.91432620
  0
VERTEX
  8
0
 10
56.16302800
 20
78.48159930
  0
VERTEX
  8
0
 10
55.86872986
 20
78.19827476
  0
VERTEX
  8
0
 10
55.57274150
 20
77.95043098
  0
VERTEX
  8
0
 10
55.26835501
 20
77.73451216
  0
VERTEX
  8
0
 10
54.94886250
 20
77.54696245
  0
VERTEX
  8
0
 10
54.60755605
 20
77.38422603
  0
VERTEX
  8
0
 10
54.23772775
 20
77.24274707
  0
VERTEX
  8
0
 10
53.83266971
 20
77.11896975
  0
VERTEX
  8
0
 10
53.38567400
 20
77.00933824
  0
VERTEX
  8
0
 10
53.03296437
 20
76.92678255
  0
VERTEX
  8
0
 10
52.84980752
 20
76.86470131
  0
VERTEX
  8
0
 10
52.81038733
 20
76.83531843
  0
VERTEX
  8
0
 10
52.79964648
 20
76.80382993
  0
VERTEX
  8
0
 10
52.81301535
 20
76.76782776
  0
VERTEX
  8
0
 10
52.84592430
 20
76.72490383
  0
VERTEX
  8
0
 10
52.90451349
 20
76.61761815
  0
VERTEX
  8
0
 10
52.97463746
 20
76.42800713
  0
VERTEX
  8
0
 10
53.11426945
 20
75.90890851
  0
VERTEX
  8
0
 10
53.21710168
 20
75.48713226
  0
VERTEX
  8
0
 10
53.33890638
 20
75.07893161
  0
VERTEX
  8
0
 10
53.47935691
 20
74.68473288
  0
VERTEX
  8
0
 10
53.63812665
 20
74.30496242
  0
VERTEX
  8
0
 10
53.81488899
 20
73.94004657
  0
VERTEX
  8
0
 10
54.00931730
 20
73.59041166
  0
VERTEX
  8
0
 10
54.22108496
 20
73.25648402
  0
VERTEX
  8
0
 10
54.44986534
 20
72.93868999
  0
VERTEX
  8
0
 10
54.69533183
 20
72.63745591
  0
VERTEX
  8
0
 10
54.95715779
 20
72.35320812
  0
VERTEX
  8
0
 10
55.23501661
 20
72.08637295
  0
VERTEX
  8
0
 10
55.52858166
 20
71.83737673
  0
VERTEX
  8
0
 10
55.83752632
 20
71.60664581
  0
VERTEX
  8
0
 10
56.16152397
 20
71.39460652
  0
VERTEX
  8
0
 10
56.50024799
 20
71.20168520
  0
VERTEX
  8
0
 10
56.85337174
 20
71.02830818
  0
VERTEX
  8
0
 10
57.38121192
 20
70.80596124
  0
VERTEX
  8
0
 10
57.86399960
 20
70.64199286
  0
VERTEX
  8
0
 10
58.33498649
 20
70.52666590
  0
VERTEX
  8
0
 10
58.82742428
 20
70.45024321
  0
VERTEX
  8
0
 10
59.39861461
 20
70.39924008
  0
VERTEX
  8
0
 10
59.93700039
 20
70.37779967
  0
VERTEX
  8
0
 10
60.35574234
 20
70.38702981
  0
VERTEX
  8
0
 10
60.49310962
 20
70.40349253
  0
VERTEX
  8
0
 10
60.56800122
 20
70.42803832
  0
SEQEND
  0
POLYLINE
  8
Default_Layer
 62
256
 66
   1
 39
0.000000
 70
    1
  0
VERTEX
  8
0
 10
68.84573883
 20
76.52274184
  0
VERTEX
  8
0
 10
68.86976092
 20
77.18750747
  0
VERTEX
  8
0
 10
68.85820164
 20
77.98324184
  0
VERTEX
  8
0
 10
68.82130412
 20
78.87224184
  0
VERTEX
  8
0
 10
67.02977640
 20
78.89513081
  0
VERTEX
  8
0
 10
65.23824867
 20
78.91801978
  0
VERTEX
  8
0
 10
65.66320454
 20
78.57966489
  0
VERTEX
  8
0
 10
65.99086621
 20
78.29616362
  0
VERTEX
  8
0
 10
66.26569038
 20
77.99367640
  0
VERTEX
  8
0
 10
66.53932621
 20
77.60733545
  0
VERTEX
  8
0
 10
66.86342284
 20
77.07227298
  0
VERTEX
  8
0
 10
67.01938000
 20
76.82226235
  0
VERTEX
  8
0
 10
67.18010128
 20
76.59589900
  0
VERTEX
  8
0
 10
67.32666309
 20
76.41807429
  0
VERTEX
  8
0
 10
67.44014184
 20
76.31367955
  0
VERTEX
  8
0
 10
67.66807813
 20
76.21077274
  0
VERTEX
  8
0
 10
68.01493927
 20
76.10023190
  0
VERTEX
  8
0
 10
68.39004205
 20
76.00757941
  0
VERTEX
  8
0
 10
68.70270324
 20
75.95833761
  0
VERTEX
  8
0
 10
68.72358011
 20
75.96749891
  0
VERTEX
  8
0
 10
68.74434848
 20
75.99715119
  0
VERTEX
  8
0
 10
68.78406394
 20
76.11202630
  0
VERTEX
  8
0
 10
68.81885794
 20
76.29115813
  0
VERTEX
  8
0
 10
68.84573883
 20
76.52274184
  0
SEQEND
  0
POLYLINE
  8
Default_Layer
 62
256
 66
   1
 39
0.000000
 70
    1
  0
VERTEX
  8
0
 10
53.71340614
 20
77.82182913
  0
VERTEX
  8
0
 10
53.92199997
 20
77.89721919
  0
VERTEX
  8
0
 10
54.15441154
 20
77.99961057
  0
VERTEX
  8
0
 10
54.64060516
 20
78.25625322
  0
VERTEX
  8
0
 10
55.07182148
 20
78.53346886
  0
VERTEX
  8
0
 10
55.23551143
 20
78.66157648
  0
VERTEX
  8
0
 10
55.34789498
 20
78.77296927
  0
VERTEX
  8
0
 10
55.39317706
 20
78.85002053
  0
VERTEX
  8
0
 10
55.38233446
 20
78.87497153
  0
VERTEX
  8
0
 10
55.34264533
 20
78.89254718
  0
VERTEX
  8
0
 10
55.15715509
 20
78.91059573
  0
VERTEX
  8
0
 10
54.79756165
 20
78.91421270
  0
VERTEX
  8
0
 10
54.42895110
 20
78.90645950
  0
VERTEX
  8
0
 10
54.17738995
 20
78.87249910
  0
VERTEX
  8
0
 10
53.97403123
 20
78.79554601
  0
VERTEX
  8
0
 10
53.75002800
 20
78.65881473
  0
VERTEX
  8
0
 10
53.37082133
 20
78.44116156
  0
VERTEX
  8
0
 10
52.95333584
 20
78.26777290
  0
VERTEX
  8
0
 10
52.50435953
 20
78.13947846
  0
VERTEX
  8
0
 10
52.03068036
 20
78.05710795
  0
VERTEX
  8
0
 10
51.53908631
 20
78.02149108
  0
VERTEX
  8
0
 10
51.03636536
 20
78.03345756
  0
VERTEX
  8
0
 10
50.52930549
 20
78.09383709
  0
VERTEX
  8
0
 10
50.02469467
 20
78.20345938
  0
VERTEX
  8
0
 10
49.91121294
 20
78.22849824
  0
VERTEX
  8
0
 10
49.85869463
 20
78.22785500
  0
VERTEX
  8
0
 10
49.86111049
 20
78.20544382
  0
VERTEX
  8
0
 10
49.91243129
 20
78.16517886
  0
VERTEX
  8
0
 10
50.13767076
 20
78.04674430
  0
VERTEX
  8
0
 10
50.48617915
 20
77.90386466
  0
VERTEX
  8
0
 10
50.87158772
 20
77.78124111
  0
VERTEX
  8
0
 10
51.27033198
 20
77.69051472
  0
VERTEX
  8
0
 10
51.67831478
 20
77.63178964
  0
VERTEX
  8
0
 10
52.09143895
 20
77.60517002
  0
VERTEX
  8
0
 10
52.50560733
 20
77.61076001
  0
VERTEX
  8
0
 10
52.91672277
 20
77.64866376
  0
VERTEX
  8
0
 10
53.32068809
 20
77.71898542
  0
VERTEX
  8
0
 10
53.71340614
 20
77.82182913
  0
SEQEND
  0
ENDSEC
  0
EOF
