  0
SECTION
  2
HEADER
  9
$ACADVER
  1
AC1015
  9
$ACADMAINTVER
 70
     6
  9
$DWGCODEPAGE
  3
ANSI_1252
  9
$INSBASE
 10
0.0
 20
0.0
 30
0.0
  9
$EXTMIN
 10
-199.8277
 20
975.2711
 30
0.0
  9
$EXTMAX
 10
0.8478
 20
1256.2983
 30
0.0
  9
$LIMMIN
 10
0.0
 20
0.0
  9
$LIMMAX
 10
12.0
 20
9.0
  9
$ORTHOMODE
 70
     0
  9
$REGENMODE
 70
     1
  9
$FILLMODE
 70
     1
  9
$QTEXTMODE
 70
     0
  9
$MIRRTEXT
 70
     1
  9
$LTSCALE
 40
1.0
  9
$ATTMODE
 70
     1
  9
$TEXTSIZE
 40
0.2
  9
$TRACEWID
 40
0.05
  9
$TEXTSTYLE
  7
Standard
  9
$CLAYER
  8
0
  9
$CELTYPE
  6
ByLayer
  9
$CECOLOR
 62
   256
  9
$CELTSCALE
 40
1.0
  9
$DISPSILH
 70
     0
  9
$DIMSCALE
 40
1.0
  9
$DIMASZ
 40
0.18
  9
$DIMEXO
 40
0.0625
  9
$DIMDLI
 40
0.38
  9
$DIMRND
 40
0.0
  9
$DIMDLE
 40
0.0
  9
$DIMEXE
 40
0.18
  9
$DIMTP
 40
0.0
  9
$DIMTM
 40
0.0
  9
$DIMTXT
 40
0.18
  9
$DIMCEN
 40
0.09
  9
$DIMTSZ
 40
0.0
  9
$DIMTOL
 70
     0
  9
$DIMLIM
 70
     0
  9
$DIMTIH
 70
     1
  9
$DIMTOH
 70
     1
  9
$DIMSE1
 70
     0
  9
$DIMSE2
 70
     0
  9
$DIMTAD
 70
     0
  9
$DIMZIN
 70
     0
  9
$DIMBLK
  1

  9
$DIMASO
 70
     1
  9
$DIMSHO
 70
     1
  9
$DIMPOST
  1

  9
$DIMAPOST
  1

  9
$DIMALT
 70
     0
  9
$DIMALTD
 70
     2
  9
$DIMALTF
 40
25.4
  9
$DIMLFAC
 40
1.0
  9
$DIMTOFL
 70
     0
  9
$DIMTVP
 40
0.0
  9
$DIMTIX
 70
     0
  9
$DIMSOXD
 70
     0
  9
$DIMSAH
 70
     0
  9
$DIMBLK1
  1

  9
$DIMBLK2
  1

  9
$DIMSTYLE
  2
Standard
  9
$DIMCLRD
 70
     0
  9
$DIMCLRE
 70
     0
  9
$DIMCLRT
 70
     0
  9
$DIMTFAC
 40
1.0
  9
$DIMGAP
 40
0.09
  9
$DIMJUST
 70
     0
  9
$DIMSD1
 70
     0
  9
$DIMSD2
 70
     0
  9
$DIMTOLJ
 70
     1
  9
$DIMTZIN
 70
     0
  9
$DIMALTZ
 70
     0
  9
$DIMALTTZ
 70
     0
  9
$DIMUPT
 70
     0
  9
$DIMDEC
 70
     4
  9
$DIMTDEC
 70
     4
  9
$DIMALTU
 70
     2
  9
$DIMALTTD
 70
     2
  9
$DIMTXSTY
  7
Standard
  9
$DIMAUNIT
 70
     0
  9
$DIMADEC
 70
     0
  9
$DIMALTRND
 40
0.0
  9
$DIMAZIN
 70
     0
  9
$DIMDSEP
 70
    46
  9
$DIMATFIT
 70
     3
  9
$DIMFRAC
 70
     0
  9
$DIMLDRBLK
  1

  9
$DIMLUNIT
 70
     2
  9
$DIMLWD
 70
    -2
  9
$DIMLWE
 70
    -2
  9
$DIMTMOVE
 70
     0
  9
$LUNITS
 70
     2
  9
$LUPREC
 70
     4
  9
$SKETCHINC
 40
0.1
  9
$FILLETRAD
 40
0.5
  9
$AUNITS
 70
     0
  9
$AUPREC
 70
     0
  9
$MENU
  1
.
  9
$ELEVATION
 40
0.0
  9
$PELEVATION
 40
0.0
  9
$THICKNESS
 40
0.0
  9
$LIMCHECK
 70
     0
  9
$CHAMFERA
 40
0.0
  9
$CHAMFERB
 40
0.0
  9
$CHAMFERC
 40
0.0
  9
$CHAMFERD
 40
0.0
  9
$SKPOLY
 70
     0
  9
$TDCREATE
 40
2457884.883688495
  9
$TDUCREATE
 40
2457884.758688495
  9
$TDUPDATE
 40
2457884.88368868
  9
$TDUUPDATE
 40
2457884.75868868
  9
$TDINDWG
 40
0.0000000116
  9
$TDUSRTIMER
 40
0.0000000116
  9
$USRTIMER
 70
     1
  9
$ANGBASE
 50
0.0
  9
$ANGDIR
 70
     0
  9
$PDMODE
 70
     0
  9
$PDSIZE
 40
0.0
  9
$PLINEWID
 40
0.0
  9
$SPLFRAME
 70
     0
  9
$SPLINETYPE
 70
     6
  9
$SPLINESEGS
 70
     8
  9
$HANDSEED
  5
F1
  9
$SURFTAB1
 70
     6
  9
$SURFTAB2
 70
     6
  9
$SURFTYPE
 70
     6
  9
$SURFU
 70
     6
  9
$SURFV
 70
     6
  9
$UCSBASE
  2

  9
$UCSNAME
  2

  9
$UCSORG
 10
0.0
 20
0.0
 30
0.0
  9
$UCSXDIR
 10
1.0
 20
0.0
 30
0.0
  9
$UCSYDIR
 10
0.0
 20
1.0
 30
0.0
  9
$UCSORTHOREF
  2

  9
$UCSORTHOVIEW
 70
     0
  9
$UCSORGTOP
 10
0.0
 20
0.0
 30
0.0
  9
$UCSORGBOTTOM
 10
0.0
 20
0.0
 30
0.0
  9
$UCSORGLEFT
 10
0.0
 20
0.0
 30
0.0
  9
$UCSORGRIGHT
 10
0.0
 20
0.0
 30
0.0
  9
$UCSORGFRONT
 10
0.0
 20
0.0
 30
0.0
  9
$UCSORGBACK
 10
0.0
 20
0.0
 30
0.0
  9
$PUCSBASE
  2

  9
$PUCSNAME
  2

  9
$PUCSORG
 10
0.0
 20
0.0
 30
0.0
  9
$PUCSXDIR
 10
1.0
 20
0.0
 30
0.0
  9
$PUCSYDIR
 10
0.0
 20
1.0
 30
0.0
  9
$PUCSORTHOREF
  2

  9
$PUCSORTHOVIEW
 70
     0
  9
$PUCSORGTOP
 10
0.0
 20
0.0
 30
0.0
  9
$PUCSORGBOTTOM
 10
0.0
 20
0.0
 30
0.0
  9
$PUCSORGLEFT
 10
0.0
 20
0.0
 30
0.0
  9
$PUCSORGRIGHT
 10
0.0
 20
0.0
 30
0.0
  9
$PUCSORGFRONT
 10
0.0
 20
0.0
 30
0.0
  9
$PUCSORGBACK
 10
0.0
 20
0.0
 30
0.0
  9
$USERI1
 70
     0
  9
$USERI2
 70
     0
  9
$USERI3
 70
     0
  9
$USERI4
 70
     0
  9
$USERI5
 70
     0
  9
$USERR1
 40
0.0
  9
$USERR2
 40
0.0
  9
$USERR3
 40
0.0
  9
$USERR4
 40
0.0
  9
$USERR5
 40
0.0
  9
$WORLDVIEW
 70
     1
  9
$SHADEDGE
 70
     3
  9
$SHADEDIF
 70
    70
  9
$TILEMODE
 70
     1
  9
$MAXACTVP
 70
    64
  9
$PINSBASE
 10
0.0
 20
0.0
 30
0.0
  9
$PLIMCHECK
 70
     0
  9
$PEXTMIN
 10
1.000000000000000E+20
 20
1.000000000000000E+20
 30
1.000000000000000E+20
  9
$PEXTMAX
 10
-1.000000000000000E+20
 20
-1.000000000000000E+20
 30
-1.000000000000000E+20
  9
$PLIMMIN
 10
0.0
 20
0.0
  9
$PLIMMAX
 10
12.0
 20
9.0
  9
$UNITMODE
 70
     0
  9
$VISRETAIN
 70
     1
  9
$PLINEGEN
 70
     0
  9
$PSLTSCALE
 70
     1
  9
$TREEDEPTH
 70
  3020
  9
$CMLSTYLE
  2
Standard
  9
$CMLJUST
 70
     0
  9
$CMLSCALE
 40
1.0
  9
$PROXYGRAPHICS
 70
     1
  9
$MEASUREMENT
 70
     0
  9
$CELWEIGHT
370
    -1
  9
$ENDCAPS
280
     0
  9
$JOINSTYLE
280
     0
  9
$LWDISPLAY
290
     0
  9
$INSUNITS
 70
     4
  9
$HYPERLINKBASE
  1

  9
$STYLESHEET
  1

  9
$XEDIT
290
     1
  9
$CEPSNTYPE
380
     0
  9
$PSTYLEMODE
290
     1
  9
$FINGERPRINTGUID
  2
{C86A569A-7752-4D94-B4CB-2367CE8C8BAD}
  9
$VERSIONGUID
  2
{FAEB1C32-E019-11D5-929B-00C0DF256EC4}
  9
$EXTNAMES
290
     1
  9
$PSVPSCALE
 40
0.0
  9
$OLESTARTUP
290
     0
  0
ENDSEC
  0
SECTION
  2
CLASSES
  0
CLASS
  1
ACDBDICTIONARYWDFLT
  2
AcDbDictionaryWithDefault
  3
ObjectDBX Classes
 90
        0
280
     0
281
     0
  0
CLASS
  1
VISUALSTYLE
  2
AcDbVisualStyle
  3
ObjectDBX Classes
 90
     4095
280
     0
281
     0
  0
CLASS
  1
MATERIAL
  2
AcDbMaterial
  3
ObjectDBX Classes
 90
     1153
280
     0
281
     0
  0
CLASS
  1
SCALE
  2
AcDbScale
  3
ObjectDBX Classes
 90
     1153
280
     0
281
     0
  0
CLASS
  1
TABLESTYLE
  2
AcDbTableStyle
  3
ObjectDBX Classes
 90
     4095
280
     0
281
     0
  0
CLASS
  1
MLEADERSTYLE
  2
AcDbMLeaderStyle
  3
ACDB_MLEADERSTYLE_CLASS
 90
     4095
280
     0
281
     0
  0
CLASS
  1
SUN
  2
AcDbSun
  3
SCENEOE
 90
     1153
280
     0
281
     0
  0
CLASS
  1
DICTIONARYVAR
  2
AcDbDictionaryVar
  3
ObjectDBX Classes
 90
        0
280
     0
281
     0
  0
CLASS
  1
ACDBPLACEHOLDER
  2
AcDbPlaceHolder
  3
ObjectDBX Classes
 90
        0
280
     0
281
     0
  0
CLASS
  1
LAYOUT
  2
AcDbLayout
  3
ObjectDBX Classes
 90
        0
280
     0
281
     0
  0
ENDSEC
  0
SECTION
  2
TABLES
  0
TABLE
  2
VPORT
  5
8
102
{ACAD_XDICTIONARY
360
B4
102
}
330
0
100
AcDbSymbolTable
 70
     1
  0
VPORT
  5
29
330
8
100
AcDbSymbolTableRecord
100
AcDbViewportTableRecord
  2
*Active
 70
     0
 10
0.0
 20
0.0
 11
1.0
 21
1.0
 12
10.42990654205607
 22
4.5
 13
0.0
 23
0.0
 14
0.5
 24
0.5
 15
0.5
 25
0.5
 16
0.0
 26
0.0
 36
1.0
 17
0.0
 27
0.0
 37
0.0
 40
9.0
 41
1.972972972850329
 42
50.0
 43
0.0
 44
0.0
 50
0.0
 51
0.0
 71
     0
 72
   100
 73
     1
 74
     3
 75
     0
 76
     0
 77
     0
 78
     0
281
     0
 65
     1
110
0.0
120
0.0
130
0.0
111
1.0
121
0.0
131
0.0
112
0.0
122
1.0
132
0.0
 79
     0
146
0.0
  0
ENDTAB
  0
TABLE
  2
LTYPE
  5
5
330
0
100
AcDbSymbolTable
 70
     1
  0
LTYPE
  5
14
330
5
100
AcDbSymbolTableRecord
100
AcDbLinetypeTableRecord
  2
ByBlock
 70
     0
  3

 72
    65
 73
     0
 40
0.0
  0
LTYPE
  5
15
330
5
100
AcDbSymbolTableRecord
100
AcDbLinetypeTableRecord
  2
ByLayer
 70
     0
  3

 72
    65
 73
     0
 40
0.0
  0
LTYPE
  5
16
330
5
100
AcDbSymbolTableRecord
100
AcDbLinetypeTableRecord
  2
Continuous
 70
     0
  3
Solid line
 72
    65
 73
     0
 40
0.0
  0
ENDTAB
  0
TABLE
  2
LAYER
  5
2
330
0
100
AcDbSymbolTable
 70
     2
  0
LAYER
  5
10
330
2
100
AcDbSymbolTableRecord
100
AcDbLayerTableRecord
  2
0
 70
     0
 62
     7
  6
Continuous
370
    -3
390
F
  0
LAYER
  5
6F
330
2
100
AcDbSymbolTableRecord
100
AcDbLayerTableRecord
  2
Layer 1
 70
     0
 62
     7
  6
Continuous
370
    -3
390
F
  0
ENDTAB
  0
TABLE
  2
STYLE
  5
3
330
0
100
AcDbSymbolTable
 70
     1
  0
STYLE
  5
11
330
3
100
AcDbSymbolTableRecord
100
AcDbTextStyleTableRecord
  2
Standard
 70
     0
 40
0.0
 41
1.0
 50
0.0
 71
     0
 42
0.2
  3
txt
  4

  0
ENDTAB
  0
TABLE
  2
VIEW
  5
6
330
0
100
AcDbSymbolTable
 70
     0
  0
ENDTAB
  0
TABLE
  2
UCS
  5
7
330
0
100
AcDbSymbolTable
 70
     0
  0
ENDTAB
  0
TABLE
  2
APPID
  5
9
330
0
100
AcDbSymbolTable
 70
     3
  0
APPID
  5
12
330
9
100
AcDbSymbolTableRecord
100
AcDbRegAppTableRecord
  2
ACAD
 70
     0
  0
APPID
  5
6E
330
9
100
AcDbSymbolTableRecord
100
AcDbRegAppTableRecord
  2
ODA
 70
     0
  0
APPID
  5
EE
330
9
100
AcDbSymbolTableRecord
100
AcDbRegAppTableRecord
  2
ACAD_MLEADERVER
 70
     0
  0
ENDTAB
  0
TABLE
  2
DIMSTYLE
  5
A
330
0
100
AcDbSymbolTable
 70
     1
100
AcDbDimStyleTable
  0
DIMSTYLE
105
27
330
A
100
AcDbSymbolTableRecord
100
AcDbDimStyleTableRecord
  2
Standard
 70
     0
178
     0
340
11
  0
ENDTAB
  0
TABLE
  2
BLOCK_RECORD
  5
1
330
0
100
AcDbSymbolTable
 70
     1
  0
BLOCK_RECORD
  5
1F
330
1
100
AcDbSymbolTableRecord
100
AcDbBlockTableRecord
  2
*Model_Space
340
22
  0
BLOCK_RECORD
  5
1B
330
1
100
AcDbSymbolTableRecord
100
AcDbBlockTableRecord
  2
*Paper_Space
340
1E
  0
BLOCK_RECORD
  5
23
330
1
100
AcDbSymbolTableRecord
100
AcDbBlockTableRecord
  2
*Paper_Space0
340
26
  0
ENDTAB
  0
ENDSEC
  0
SECTION
  2
BLOCKS
  0
BLOCK
  5
20
330
1F
100
AcDbEntity
  8
0
100
AcDbBlockBegin
  2
*Model_Space
 70
     0
 10
0.0
 20
0.0
 30
0.0
  3
*Model_Space
  1

  0
ENDBLK
  5
21
330
1F
100
AcDbEntity
  8
0
100
AcDbBlockEnd
  0
BLOCK
  5
1C
330
1B
100
AcDbEntity
 67
     1
  8
0
100
AcDbBlockBegin
  2
*Paper_Space
 70
     0
 10
0.0
 20
0.0
 30
0.0
  3
*Paper_Space
  1

  0
ENDBLK
  5
1D
330
1B
100
AcDbEntity
 67
     1
  8
0
100
AcDbBlockEnd
  0
BLOCK
  5
24
330
23
100
AcDbEntity
  8
0
100
AcDbBlockBegin
  2
*Paper_Space0
 70
     0
 10
0.0
 20
0.0
 30
0.0
  3
*Paper_Space0
  1

  0
ENDBLK
  5
25
330
23
100
AcDbEntity
  8
0
100
AcDbBlockEnd
  0
ENDSEC
  0
SECTION
  2
ENTITIES
  0
SPLINE
  5
70
330
1F
100
AcDbEntity
  8
Layer 1
 62
   240
370
     9
100
AcDbSpline
210
0.0
220
0.0
230
1.0
 70
    11
 71
     3
 72
   164
 73
   160
 74
     0
 42
0.000000001
 43
0.0000000001
 40
0.0
 40
0.0
 40
0.0
 40
0.0
 40
0.024390243902439
 40
0.024390243902439
 40
0.024390243902439
 40
0.024390243902439
 40
0.0487804878048781
 40
0.0487804878048781
 40
0.0487804878048781
 40
0.0487804878048781
 40
0.0731707317073171
 40
0.0731707317073171
 40
0.0731707317073171
 40
0.0731707317073171
 40
0.0975609756097561
 40
0.0975609756097561
 40
0.0975609756097561
 40
0.0975609756097561
 40
0.1219512195121951
 40
0.1219512195121951
 40
0.1219512195121951
 40
0.1219512195121951
 40
0.1463414634146341
 40
0.1463414634146341
 40
0.1463414634146341
 40
0.1463414634146341
 40
0.1707317073170732
 40
0.1707317073170732
 40
0.1707317073170732
 40
0.1707317073170732
 40
0.1951219512195122
 40
0.1951219512195122
 40
0.1951219512195122
 40
0.1951219512195122
 40
0.2195121951219512
 40
0.2195121951219512
 40
0.2195121951219512
 40
0.2195121951219512
 40
0.2439024390243902
 40
0.2439024390243902
 40
0.2439024390243902
 40
0.2439024390243902
 40
0.2682926829268293
 40
0.2682926829268293
 40
0.2682926829268293
 40
0.2682926829268293
 40
0.2926829268292683
 40
0.2926829268292683
 40
0.2926829268292683
 40
0.2926829268292683
 40
0.3170731707317073
 40
0.3170731707317073
 40
0.3170731707317073
 40
0.3170731707317073
 40
0.3414634146341464
 40
0.3414634146341464
 40
0.3414634146341464
 40
0.3414634146341464
 40
0.3658536585365854
 40
0.3658536585365854
 40
0.3658536585365854
 40
0.3658536585365854
 40
0.3902439024390244
 40
0.3902439024390244
 40
0.3902439024390244
 40
0.3902439024390244
 40
0.4146341463414634
 40
0.4146341463414634
 40
0.4146341463414634
 40
0.4146341463414634
 40
0.4390243902439024
 40
0.4390243902439024
 40
0.4390243902439024
 40
0.4390243902439024
 40
0.4634146341463415
 40
0.4634146341463415
 40
0.4634146341463415
 40
0.4634146341463415
 40
0.4878048780487805
 40
0.4878048780487805
 40
0.4878048780487805
 40
0.4878048780487805
 40
0.5121951219512195
 40
0.5121951219512195
 40
0.5121951219512195
 40
0.5121951219512195
 40
0.5365853658536586
 40
0.5365853658536586
 40
0.5365853658536586
 40
0.5365853658536586
 40
0.5609756097560976
 40
0.5609756097560976
 40
0.5609756097560976
 40
0.5609756097560976
 40
0.5853658536585366
 40
0.5853658536585366
 40
0.5853658536585366
 40
0.5853658536585366
 40
0.6097560975609756
 40
0.6097560975609756
 40
0.6097560975609756
 40
0.6097560975609756
 40
0.6341463414634146
 40
0.6341463414634146
 40
0.6341463414634146
 40
0.6341463414634146
 40
0.6585365853658537
 40
0.6585365853658537
 40
0.6585365853658537
 40
0.6585365853658537
 40
0.6829268292682927
 40
0.6829268292682927
 40
0.6829268292682927
 40
0.6829268292682927
 40
0.7073170731707317
 40
0.7073170731707317
 40
0.7073170731707317
 40
0.7073170731707317
 40
0.7317073170731707
 40
0.7317073170731707
 40
0.7317073170731707
 40
0.7317073170731707
 40
0.7560975609756098
 40
0.7560975609756098
 40
0.7560975609756098
 40
0.7560975609756098
 40
0.7804878048780488
 40
0.7804878048780488
 40
0.7804878048780488
 40
0.7804878048780488
 40
0.8048780487804879
 40
0.8048780487804879
 40
0.8048780487804879
 40
0.8048780487804879
 40
0.8292682926829268
 40
0.8292682926829268
 40
0.8292682926829268
 40
0.8292682926829268
 40
0.8536585365853658
 40
0.8536585365853658
 40
0.8536585365853658
 40
0.8536585365853658
 40
0.8780487804878049
 40
0.8780487804878049
 40
0.8780487804878049
 40
0.8780487804878049
 40
0.9024390243902439
 40
0.9024390243902439
 40
0.9024390243902439
 40
0.9024390243902439
 40
0.926829268292683
 40
0.926829268292683
 40
0.926829268292683
 40
0.926829268292683
 40
0.9512195121951219
 40
0.9512195121951219
 40
0.9512195121951219
 40
0.9512195121951219
 40
1.0
 40
1.0
 40
1.0
 40
1.0
 10
-2.0752
 20
1243.1365
 30
0.0
 10
-2.0752
 20
1243.1365
 30
0.0
 10
-12.2249
 20
1243.1365
 30
0.0
 10
-12.2249
 20
1243.1365
 30
0.0
 10
-12.2249
 20
1243.1365
 30
0.0
 10
-12.2249
 20
1243.1365
 30
0.0
 10
-12.2249
 20
1232.8865
 30
0.0
 10
-12.2249
 20
1232.8865
 30
0.0
 10
-12.2249
 20
1232.8865
 30
0.0
 10
-12.2249
 20
1232.8865
 30
0.0
 10
-14.525
 20
1232.8865
 30
0.0
 10
-14.525
 20
1232.8865
 30
0.0
 10
-14.525
 20
1232.8865
 30
0.0
 10
-14.525
 20
1232.8865
 30
0.0
 10
-14.525
 20
1243.1365
 30
0.0
 10
-14.525
 20
1243.1365
 30
0.0
 10
-14.525
 20
1243.1365
 30
0.0
 10
-14.525
 20
1243.1365
 30
0.0
 10
-24.7253
 20
1243.1365
 30
0.0
 10
-24.7253
 20
1243.1365
 30
0.0
 10
-24.7253
 20
1243.1365
 30
0.0
 10
-24.7253
 20
1243.1365
 30
0.0
 10
-24.7253
 20
1232.8865
 30
0.0
 10
-24.7253
 20
1232.8865
 30
0.0
 10
-24.7253
 20
1232.8865
 30
0.0
 10
-24.7253
 20
1232.8865
 30
0.0
 10
-27.0254
 20
1232.8865
 30
0.0
 10
-27.0254
 20
1232.8865
 30
0.0
 10
-27.0254
 20
1232.8865
 30
0.0
 10
-27.0254
 20
1232.8865
 30
0.0
 10
-27.0254
 20
1243.1365
 30
0.0
 10
-27.0254
 20
1243.1365
 30
0.0
 10
-27.0254
 20
1243.1365
 30
0.0
 10
-27.0254
 20
1243.1365
 30
0.0
 10
-37.2256
 20
1243.1365
 30
0.0
 10
-37.2256
 20
1243.1365
 30
0.0
 10
-37.2256
 20
1243.1365
 30
0.0
 10
-37.2256
 20
1243.1365
 30
0.0
 10
-37.2256
 20
1232.8865
 30
0.0
 10
-37.2256
 20
1232.8865
 30
0.0
 10
-37.2256
 20
1232.8865
 30
0.0
 10
-37.2256
 20
1232.8865
 30
0.0
 10
-39.5253
 20
1232.8865
 30
0.0
 10
-39.5253
 20
1232.8865
 30
0.0
 10
-39.5253
 20
1232.8865
 30
0.0
 10
-39.5253
 20
1232.8865
 30
0.0
 10
-39.5253
 20
1243.1365
 30
0.0
 10
-39.5253
 20
1243.1365
 30
0.0
 10
-39.5253
 20
1243.1365
 30
0.0
 10
-39.5253
 20
1243.1365
 30
0.0
 10
-49.6755
 20
1243.1365
 30
0.0
 10
-49.6755
 20
1243.1365
 30
0.0
 10
-49.6755
 20
1243.1365
 30
0.0
 10
-49.6755
 20
1243.1365
 30
0.0
 10
-49.6755
 20
1233.2365
 30
0.0
 10
-49.6755
 20
1233.2365
 30
0.0
 10
-49.6755
 20
1233.2365
 30
0.0
 10
-49.6755
 20
1233.2365
 30
0.0
 10
-52.1251
 20
1233.2365
 30
0.0
 10
-52.1251
 20
1233.2365
 30
0.0
 10
-52.1251
 20
1233.2365
 30
0.0
 10
-52.1251
 20
1233.2365
 30
0.0
 10
-52.1251
 20
1223.0362
 30
0.0
 10
-52.1251
 20
1223.0362
 30
0.0
 10
-52.1251
 20
1223.0362
 30
0.0
 10
-52.1251
 20
1223.0362
 30
0.0
 10
-49.6755
 20
1223.0362
 30
0.0
 10
-49.6755
 20
1223.0362
 30
0.0
 10
-49.6755
 20
1223.0362
 30
0.0
 10
-49.6755
 20
1223.0362
 30
0.0
 10
-49.6755
 20
1213.2361
 30
0.0
 10
-49.6755
 20
1213.2361
 30
0.0
 10
-49.6755
 20
1213.2361
 30
0.0
 10
-49.6755
 20
1213.2361
 30
0.0
 10
-52.1251
 20
1213.2361
 30
0.0
 10
-52.1251
 20
1213.2361
 30
0.0
 10
-52.1251
 20
1213.2361
 30
0.0
 10
-52.1251
 20
1213.2361
 30
0.0
 10
-52.1255
 20
1203.0362
 30
0.0
 10
-52.1255
 20
1203.0362
 30
0.0
 10
-52.1255
 20
1203.0362
 30
0.0
 10
-52.1255
 20
1203.0362
 30
0.0
 10
-49.6755
 20
1203.0362
 30
0.0
 10
-49.6755
 20
1203.0362
 30
0.0
 10
-49.6755
 20
1203.0362
 30
0.0
 10
-49.6755
 20
1203.0362
 30
0.0
 10
-49.6755
 20
1193.0861
 30
0.0
 10
-49.6755
 20
1193.0861
 30
0.0
 10
-49.6755
 20
1193.0861
 30
0.0
 10
-49.6755
 20
1193.0861
 30
0.0
 10
-40.976
 20
1193.0861
 30
0.0
 10
-40.976
 20
1193.0861
 30
0.0
 10
-40.976
 20
1193.0861
 30
0.0
 10
-40.976
 20
1193.0861
 30
0.0
 10
-40.976
 20
1190.6361
 30
0.0
 10
-40.976
 20
1190.6361
 30
0.0
 10
-40.976
 20
1190.6361
 30
0.0
 10
-40.976
 20
1190.6361
 30
0.0
 10
-30.7754
 20
1190.6361
 30
0.0
 10
-30.7754
 20
1190.6361
 30
0.0
 10
-30.7754
 20
1190.6361
 30
0.0
 10
-30.7754
 20
1190.6361
 30
0.0
 10
-30.7754
 20
1193.0861
 30
0.0
 10
-30.7754
 20
1193.0861
 30
0.0
 10
-30.7754
 20
1193.0861
 30
0.0
 10
-30.7754
 20
1193.0861
 30
0.0
 10
-20.9756
 20
1193.0861
 30
0.0
 10
-20.9756
 20
1193.0861
 30
0.0
 10
-20.9756
 20
1193.0861
 30
0.0
 10
-20.9756
 20
1193.0861
 30
0.0
 10
-20.9756
 20
1190.6361
 30
0.0
 10
-20.9756
 20
1190.6361
 30
0.0
 10
-20.9756
 20
1190.6361
 30
0.0
 10
-20.9756
 20
1190.6361
 30
0.0
 10
-10.7754
 20
1190.6361
 30
0.0
 10
-10.7754
 20
1190.6361
 30
0.0
 10
-10.7754
 20
1190.6361
 30
0.0
 10
-10.7754
 20
1190.6361
 30
0.0
 10
-10.7754
 20
1193.0861
 30
0.0
 10
-10.7754
 20
1193.0861
 30
0.0
 10
-10.7754
 20
1193.0861
 30
0.0
 10
-10.7754
 20
1193.0861
 30
0.0
 10
-2.0752
 20
1193.0861
 30
0.0
 10
-2.0752
 20
1193.0861
 30
0.0
 10
-2.0752
 20
1193.0861
 30
0.0
 10
-2.0752
 20
1193.0861
 30
0.0
 10
-2.0752
 20
1203.0362
 30
0.0
 10
-2.0752
 20
1203.0362
 30
0.0
 10
-2.0752
 20
1203.0362
 30
0.0
 10
-2.0752
 20
1203.0362
 30
0.0
 10
0.3742
 20
1203.0362
 30
0.0
 10
0.3742
 20
1203.0362
 30
0.0
 10
0.3742
 20
1203.0362
 30
0.0
 10
0.3742
 20
1203.0362
 30
0.0
 10
0.3742
 20
1213.2361
 30
0.0
 10
0.3742
 20
1213.2361
 30
0.0
 10
0.3742
 20
1213.2361
 30
0.0
 10
0.3742
 20
1213.2361
 30
0.0
 10
-2.0752
 20
1213.2361
 30
0.0
 10
-2.0752
 20
1213.2361
 30
0.0
 10
-2.0752
 20
1213.2361
 30
0.0
 10
-2.0752
 20
1213.2361
 30
0.0
 10
-2.0752
 20
1223.0362
 30
0.0
 10
-2.0752
 20
1223.0362
 30
0.0
 10
-2.0752
 20
1223.0362
 30
0.0
 10
-2.0752
 20
1223.0362
 30
0.0
 10
0.3742
 20
1223.0362
 30
0.0
 10
0.3742
 20
1223.0362
 30
0.0
 10
0.3742
 20
1223.0362
 30
0.0
 10
0.3742
 20
1223.0362
 30
0.0
 10
0.3742
 20
1233.2365
 30
0.0
 10
0.3742
 20
1233.2365
 30
0.0
 10
0.3742
 20
1233.2365
 30
0.0
 10
0.3742
 20
1233.2365
 30
0.0
 10
-2.0752
 20
1233.2365
 30
0.0
 10
-2.0752
 20
1233.2365
 30
0.0
 10
-2.0752
 20
1233.2365
 30
0.0
 10
-2.0752
 20
1233.2365
 30
0.0
 10
-2.0752
 20
1243.1365
 30
0.0
 10
-2.0752
 20
1243.1365
 30
0.0
  0
SPLINE
  5
71
330
1F
100
AcDbEntity
  8
Layer 1
 62
   240
370
     9
100
AcDbSpline
210
0.0
220
0.0
230
1.0
 70
    11
 71
     3
 72
   164
 73
   160
 74
     0
 42
0.000000001
 43
0.0000000001
 40
0.0
 40
0.0
 40
0.0
 40
0.0
 40
0.024390243902439
 40
0.024390243902439
 40
0.024390243902439
 40
0.024390243902439
 40
0.0487804878048781
 40
0.0487804878048781
 40
0.0487804878048781
 40
0.0487804878048781
 40
0.0731707317073171
 40
0.0731707317073171
 40
0.0731707317073171
 40
0.0731707317073171
 40
0.0975609756097561
 40
0.0975609756097561
 40
0.0975609756097561
 40
0.0975609756097561
 40
0.1219512195121951
 40
0.1219512195121951
 40
0.1219512195121951
 40
0.1219512195121951
 40
0.1463414634146341
 40
0.1463414634146341
 40
0.1463414634146341
 40
0.1463414634146341
 40
0.1707317073170732
 40
0.1707317073170732
 40
0.1707317073170732
 40
0.1707317073170732
 40
0.1951219512195122
 40
0.1951219512195122
 40
0.1951219512195122
 40
0.1951219512195122
 40
0.2195121951219512
 40
0.2195121951219512
 40
0.2195121951219512
 40
0.2195121951219512
 40
0.2439024390243902
 40
0.2439024390243902
 40
0.2439024390243902
 40
0.2439024390243902
 40
0.2682926829268293
 40
0.2682926829268293
 40
0.2682926829268293
 40
0.2682926829268293
 40
0.2926829268292683
 40
0.2926829268292683
 40
0.2926829268292683
 40
0.2926829268292683
 40
0.3170731707317073
 40
0.3170731707317073
 40
0.3170731707317073
 40
0.3170731707317073
 40
0.3414634146341464
 40
0.3414634146341464
 40
0.3414634146341464
 40
0.3414634146341464
 40
0.3658536585365854
 40
0.3658536585365854
 40
0.3658536585365854
 40
0.3658536585365854
 40
0.3902439024390244
 40
0.3902439024390244
 40
0.3902439024390244
 40
0.3902439024390244
 40
0.4146341463414634
 40
0.4146341463414634
 40
0.4146341463414634
 40
0.4146341463414634
 40
0.4390243902439024
 40
0.4390243902439024
 40
0.4390243902439024
 40
0.4390243902439024
 40
0.4634146341463415
 40
0.4634146341463415
 40
0.4634146341463415
 40
0.4634146341463415
 40
0.4878048780487805
 40
0.4878048780487805
 40
0.4878048780487805
 40
0.4878048780487805
 40
0.5121951219512195
 40
0.5121951219512195
 40
0.5121951219512195
 40
0.5121951219512195
 40
0.5365853658536586
 40
0.5365853658536586
 40
0.5365853658536586
 40
0.5365853658536586
 40
0.5609756097560976
 40
0.5609756097560976
 40
0.5609756097560976
 40
0.5609756097560976
 40
0.5853658536585366
 40
0.5853658536585366
 40
0.5853658536585366
 40
0.5853658536585366
 40
0.6097560975609756
 40
0.6097560975609756
 40
0.6097560975609756
 40
0.6097560975609756
 40
0.6341463414634146
 40
0.6341463414634146
 40
0.6341463414634146
 40
0.6341463414634146
 40
0.6585365853658537
 40
0.6585365853658537
 40
0.6585365853658537
 40
0.6585365853658537
 40
0.6829268292682927
 40
0.6829268292682927
 40
0.6829268292682927
 40
0.6829268292682927
 40
0.7073170731707317
 40
0.7073170731707317
 40
0.7073170731707317
 40
0.7073170731707317
 40
0.7317073170731707
 40
0.7317073170731707
 40
0.7317073170731707
 40
0.7317073170731707
 40
0.7560975609756098
 40
0.7560975609756098
 40
0.7560975609756098
 40
0.7560975609756098
 40
0.7804878048780488
 40
0.7804878048780488
 40
0.7804878048780488
 40
0.7804878048780488
 40
0.8048780487804879
 40
0.8048780487804879
 40
0.8048780487804879
 40
0.8048780487804879
 40
0.8292682926829268
 40
0.8292682926829268
 40
0.8292682926829268
 40
0.8292682926829268
 40
0.8536585365853658
 40
0.8536585365853658
 40
0.8536585365853658
 40
0.8536585365853658
 40
0.8780487804878049
 40
0.8780487804878049
 40
0.8780487804878049
 40
0.8780487804878049
 40
0.9024390243902439
 40
0.9024390243902439
 40
0.9024390243902439
 40
0.9024390243902439
 40
0.926829268292683
 40
0.926829268292683
 40
0.926829268292683
 40
0.926829268292683
 40
0.9512195121951219
 40
0.9512195121951219
 40
0.9512195121951219
 40
0.9512195121951219
 40
1.0
 40
1.0
 40
1.0
 40
1.0
 10
-75.6085
 20
1193.3359
 30
0.0
 10
-75.6085
 20
1193.3359
 30
0.0
 10
-75.6085
 20
1203.2863
 30
0.0
 10
-75.6085
 20
1203.2863
 30
0.0
 10
-75.6085
 20
1203.2863
 30
0.0
 10
-75.6085
 20
1203.2863
 30
0.0
 10
-73.1592
 20
1203.2863
 30
0.0
 10
-73.1592
 20
1203.2863
 30
0.0
 10
-73.1592
 20
1203.2863
 30
0.0
 10
-73.1592
 20
1203.2863
 30
0.0
 10
-73.1589
 20
1213.4862
 30
0.0
 10
-73.1589
 20
1213.4862
 30
0.0
 10
-73.1589
 20
1213.4862
 30
0.0
 10
-73.1589
 20
1213.4862
 30
0.0
 10
-75.6085
 20
1213.4862
 30
0.0
 10
-75.6085
 20
1213.4862
 30
0.0
 10
-75.6085
 20
1213.4862
 30
0.0
 10
-75.6085
 20
1213.4862
 30
0.0
 10
-75.6085
 20
1223.2864
 30
0.0
 10
-75.6085
 20
1223.2864
 30
0.0
 10
-75.6085
 20
1223.2864
 30
0.0
 10
-75.6085
 20
1223.2864
 30
0.0
 10
-73.1589
 20
1223.2864
 30
0.0
 10
-73.1589
 20
1223.2864
 30
0.0
 10
-73.1589
 20
1223.2864
 30
0.0
 10
-73.1589
 20
1223.2864
 30
0.0
 10
-73.1589
 20
1233.4866
 30
0.0
 10
-73.1589
 20
1233.4866
 30
0.0
 10
-73.1589
 20
1233.4866
 30
0.0
 10
-73.1589
 20
1233.4866
 30
0.0
 10
-75.6085
 20
1233.4866
 30
0.0
 10
-75.6085
 20
1233.4866
 30
0.0
 10
-75.6085
 20
1233.4866
 30
0.0
 10
-75.6085
 20
1233.4866
 30
0.0
 10
-75.6085
 20
1243.3866
 30
0.0
 10
-75.6085
 20
1243.3866
 30
0.0
 10
-75.6085
 20
1243.3866
 30
0.0
 10
-75.6085
 20
1243.3866
 30
0.0
 10
-123.2085
 20
1243.3861
 30
0.0
 10
-123.2085
 20
1243.3861
 30
0.0
 10
-123.2085
 20
1243.3861
 30
0.0
 10
-123.2085
 20
1243.3861
 30
0.0
 10
-123.2085
 20
1233.4866
 30
0.0
 10
-123.2085
 20
1233.4866
 30
0.0
 10
-123.2085
 20
1233.4866
 30
0.0
 10
-123.2085
 20
1233.4866
 30
0.0
 10
-125.6582
 20
1233.4866
 30
0.0
 10
-125.6582
 20
1233.4866
 30
0.0
 10
-125.6582
 20
1233.4866
 30
0.0
 10
-125.6582
 20
1233.4866
 30
0.0
 10
-125.6585
 20
1223.2864
 30
0.0
 10
-125.6585
 20
1223.2864
 30
0.0
 10
-125.6585
 20
1223.2864
 30
0.0
 10
-125.6585
 20
1223.2864
 30
0.0
 10
-123.2085
 20
1223.2864
 30
0.0
 10
-123.2085
 20
1223.2864
 30
0.0
 10
-123.2085
 20
1223.2864
 30
0.0
 10
-123.2085
 20
1223.2864
 30
0.0
 10
-123.2085
 20
1213.4862
 30
0.0
 10
-123.2085
 20
1213.4862
 30
0.0
 10
-123.2085
 20
1213.4862
 30
0.0
 10
-123.2085
 20
1213.4862
 30
0.0
 10
-125.6585
 20
1213.4862
 30
0.0
 10
-125.6585
 20
1213.4862
 30
0.0
 10
-125.6585
 20
1213.4862
 30
0.0
 10
-125.6585
 20
1213.4862
 30
0.0
 10
-125.6585
 20
1203.2863
 30
0.0
 10
-125.6585
 20
1203.2863
 30
0.0
 10
-125.6585
 20
1203.2863
 30
0.0
 10
-125.6585
 20
1203.2863
 30
0.0
 10
-123.2085
 20
1203.2863
 30
0.0
 10
-123.2085
 20
1203.2863
 30
0.0
 10
-123.2085
 20
1203.2863
 30
0.0
 10
-123.2085
 20
1203.2863
 30
0.0
 10
-123.2085
 20
1193.3359
 30
0.0
 10
-123.2085
 20
1193.3359
 30
0.0
 10
-123.2085
 20
1193.3359
 30
0.0
 10
-123.2085
 20
1193.3359
 30
0.0
 10
-114.509
 20
1193.3359
 30
0.0
 10
-114.509
 20
1193.3359
 30
0.0
 10
-114.509
 20
1193.3359
 30
0.0
 10
-114.509
 20
1193.3359
 30
0.0
 10
-114.509
 20
1190.8865
 30
0.0
 10
-114.509
 20
1190.8865
 30
0.0
 10
-114.509
 20
1190.8865
 30
0.0
 10
-114.509
 20
1190.8865
 30
0.0
 10
-113.0584
 20
1190.8865
 30
0.0
 10
-113.0584
 20
1190.8865
 30
0.0
 10
-113.0584
 20
1190.8865
 30
0.0
 10
-113.0584
 20
1190.8865
 30
0.0
 10
-113.0584
 20
1232.8865
 30
0.0
 10
-113.0584
 20
1232.8865
 30
0.0
 10
-113.0584
 20
1232.8865
 30
0.0
 10
-113.0584
 20
1232.8865
 30
0.0
 10
-110.7586
 20
1232.8865
 30
0.0
 10
-110.7586
 20
1232.8865
 30
0.0
 10
-110.7586
 20
1232.8865
 30
0.0
 10
-110.7586
 20
1232.8865
 30
0.0
 10
-110.7586
 20
1190.8865
 30
0.0
 10
-110.7586
 20
1190.8865
 30
0.0
 10
-110.7586
 20
1190.8865
 30
0.0
 10
-110.7586
 20
1190.8865
 30
0.0
 10
-104.3088
 20
1190.8865
 30
0.0
 10
-104.3088
 20
1190.8865
 30
0.0
 10
-104.3088
 20
1190.8865
 30
0.0
 10
-104.3088
 20
1190.8865
 30
0.0
 10
-104.3088
 20
1193.3359
 30
0.0
 10
-104.3088
 20
1193.3359
 30
0.0
 10
-104.3088
 20
1193.3359
 30
0.0
 10
-104.3088
 20
1193.3359
 30
0.0
 10
-100.5584
 20
1193.3359
 30
0.0
 10
-100.5584
 20
1193.3359
 30
0.0
 10
-100.5584
 20
1193.3359
 30
0.0
 10
-100.5584
 20
1193.3359
 30
0.0
 10
-100.5584
 20
1232.8861
 30
0.0
 10
-100.5584
 20
1232.8861
 30
0.0
 10
-100.5584
 20
1232.8861
 30
0.0
 10
-100.5584
 20
1232.8861
 30
0.0
 10
-98.2583
 20
1232.8861
 30
0.0
 10
-98.2583
 20
1232.8861
 30
0.0
 10
-98.2583
 20
1232.8861
 30
0.0
 10
-98.2583
 20
1232.8861
 30
0.0
 10
-98.2583
 20
1193.3359
 30
0.0
 10
-98.2583
 20
1193.3359
 30
0.0
 10
-98.2583
 20
1193.3359
 30
0.0
 10
-98.2583
 20
1193.3359
 30
0.0
 10
-94.5086
 20
1193.3359
 30
0.0
 10
-94.5086
 20
1193.3359
 30
0.0
 10
-94.5086
 20
1193.3359
 30
0.0
 10
-94.5086
 20
1193.3359
 30
0.0
 10
-94.5086
 20
1190.8865
 30
0.0
 10
-94.5086
 20
1190.8865
 30
0.0
 10
-94.5086
 20
1190.8865
 30
0.0
 10
-94.5086
 20
1190.8865
 30
0.0
 10
-88.0584
 20
1190.8865
 30
0.0
 10
-88.0584
 20
1190.8865
 30
0.0
 10
-88.0584
 20
1190.8865
 30
0.0
 10
-88.0584
 20
1190.8865
 30
0.0
 10
-88.0584
 20
1232.8861
 30
0.0
 10
-88.0584
 20
1232.8861
 30
0.0
 10
-88.0584
 20
1232.8861
 30
0.0
 10
-88.0584
 20
1232.8861
 30
0.0
 10
-85.7583
 20
1232.8861
 30
0.0
 10
-85.7583
 20
1232.8861
 30
0.0
 10
-85.7583
 20
1232.8861
 30
0.0
 10
-85.7583
 20
1232.8861
 30
0.0
 10
-85.7583
 20
1190.8865
 30
0.0
 10
-85.7583
 20
1190.8865
 30
0.0
 10
-85.7583
 20
1190.8865
 30
0.0
 10
-85.7583
 20
1190.8865
 30
0.0
 10
-84.3088
 20
1190.8865
 30
0.0
 10
-84.3088
 20
1190.8865
 30
0.0
 10
-84.3088
 20
1190.8865
 30
0.0
 10
-84.3088
 20
1190.8865
 30
0.0
 10
-84.3088
 20
1193.3359
 30
0.0
 10
-84.3088
 20
1193.3359
 30
0.0
 10
-84.3088
 20
1193.3359
 30
0.0
 10
-84.3088
 20
1193.3359
 30
0.0
 10
-75.6085
 20
1193.3359
 30
0.0
 10
-75.6085
 20
1193.3359
 30
0.0
  0
SPLINE
  5
72
330
1F
100
AcDbEntity
  8
Layer 1
 62
   240
370
     9
100
AcDbSpline
210
0.0
220
0.0
230
1.0
 70
    11
 71
     3
 72
   164
 73
   160
 74
     0
 42
0.000000001
 43
0.0000000001
 40
0.0
 40
0.0
 40
0.0
 40
0.0
 40
0.024390243902439
 40
0.024390243902439
 40
0.024390243902439
 40
0.024390243902439
 40
0.0487804878048781
 40
0.0487804878048781
 40
0.0487804878048781
 40
0.0487804878048781
 40
0.0731707317073171
 40
0.0731707317073171
 40
0.0731707317073171
 40
0.0731707317073171
 40
0.0975609756097561
 40
0.0975609756097561
 40
0.0975609756097561
 40
0.0975609756097561
 40
0.1219512195121951
 40
0.1219512195121951
 40
0.1219512195121951
 40
0.1219512195121951
 40
0.1463414634146341
 40
0.1463414634146341
 40
0.1463414634146341
 40
0.1463414634146341
 40
0.1707317073170732
 40
0.1707317073170732
 40
0.1707317073170732
 40
0.1707317073170732
 40
0.1951219512195122
 40
0.1951219512195122
 40
0.1951219512195122
 40
0.1951219512195122
 40
0.2195121951219512
 40
0.2195121951219512
 40
0.2195121951219512
 40
0.2195121951219512
 40
0.2439024390243902
 40
0.2439024390243902
 40
0.2439024390243902
 40
0.2439024390243902
 40
0.2682926829268293
 40
0.2682926829268293
 40
0.2682926829268293
 40
0.2682926829268293
 40
0.2926829268292683
 40
0.2926829268292683
 40
0.2926829268292683
 40
0.2926829268292683
 40
0.3170731707317073
 40
0.3170731707317073
 40
0.3170731707317073
 40
0.3170731707317073
 40
0.3414634146341464
 40
0.3414634146341464
 40
0.3414634146341464
 40
0.3414634146341464
 40
0.3658536585365854
 40
0.3658536585365854
 40
0.3658536585365854
 40
0.3658536585365854
 40
0.3902439024390244
 40
0.3902439024390244
 40
0.3902439024390244
 40
0.3902439024390244
 40
0.4146341463414634
 40
0.4146341463414634
 40
0.4146341463414634
 40
0.4146341463414634
 40
0.4390243902439024
 40
0.4390243902439024
 40
0.4390243902439024
 40
0.4390243902439024
 40
0.4634146341463415
 40
0.4634146341463415
 40
0.4634146341463415
 40
0.4634146341463415
 40
0.4878048780487805
 40
0.4878048780487805
 40
0.4878048780487805
 40
0.4878048780487805
 40
0.5121951219512195
 40
0.5121951219512195
 40
0.5121951219512195
 40
0.5121951219512195
 40
0.5365853658536586
 40
0.5365853658536586
 40
0.5365853658536586
 40
0.5365853658536586
 40
0.5609756097560976
 40
0.5609756097560976
 40
0.5609756097560976
 40
0.5609756097560976
 40
0.5853658536585366
 40
0.5853658536585366
 40
0.5853658536585366
 40
0.5853658536585366
 40
0.6097560975609756
 40
0.6097560975609756
 40
0.6097560975609756
 40
0.6097560975609756
 40
0.6341463414634146
 40
0.6341463414634146
 40
0.6341463414634146
 40
0.6341463414634146
 40
0.6585365853658537
 40
0.6585365853658537
 40
0.6585365853658537
 40
0.6585365853658537
 40
0.6829268292682927
 40
0.6829268292682927
 40
0.6829268292682927
 40
0.6829268292682927
 40
0.7073170731707317
 40
0.7073170731707317
 40
0.7073170731707317
 40
0.7073170731707317
 40
0.7317073170731707
 40
0.7317073170731707
 40
0.7317073170731707
 40
0.7317073170731707
 40
0.7560975609756098
 40
0.7560975609756098
 40
0.7560975609756098
 40
0.7560975609756098
 40
0.7804878048780488
 40
0.7804878048780488
 40
0.7804878048780488
 40
0.7804878048780488
 40
0.8048780487804879
 40
0.8048780487804879
 40
0.8048780487804879
 40
0.8048780487804879
 40
0.8292682926829268
 40
0.8292682926829268
 40
0.8292682926829268
 40
0.8292682926829268
 40
0.8536585365853658
 40
0.8536585365853658
 40
0.8536585365853658
 40
0.8536585365853658
 40
0.8780487804878049
 40
0.8780487804878049
 40
0.8780487804878049
 40
0.8780487804878049
 40
0.9024390243902439
 40
0.9024390243902439
 40
0.9024390243902439
 40
0.9024390243902439
 40
0.926829268292683
 40
0.926829268292683
 40
0.926829268292683
 40
0.926829268292683
 40
0.9512195121951219
 40
0.9512195121951219
 40
0.9512195121951219
 40
0.9512195121951219
 40
1.0
 40
1.0
 40
1.0
 40
1.0
 10
-2.0752
 20
1185.9243
 30
0.0
 10
-2.0752
 20
1185.9243
 30
0.0
 10
-12.2249
 20
1185.9243
 30
0.0
 10
-12.2249
 20
1185.9243
 30
0.0
 10
-12.2249
 20
1185.9243
 30
0.0
 10
-12.2249
 20
1185.9243
 30
0.0
 10
-12.2249
 20
1175.6743
 30
0.0
 10
-12.2249
 20
1175.6743
 30
0.0
 10
-12.2249
 20
1175.6743
 30
0.0
 10
-12.2249
 20
1175.6743
 30
0.0
 10
-14.525
 20
1175.6743
 30
0.0
 10
-14.525
 20
1175.6743
 30
0.0
 10
-14.525
 20
1175.6743
 30
0.0
 10
-14.525
 20
1175.6743
 30
0.0
 10
-14.525
 20
1185.9243
 30
0.0
 10
-14.525
 20
1185.9243
 30
0.0
 10
-14.525
 20
1185.9243
 30
0.0
 10
-14.525
 20
1185.9243
 30
0.0
 10
-24.7253
 20
1185.9243
 30
0.0
 10
-24.7253
 20
1185.9243
 30
0.0
 10
-24.7253
 20
1185.9243
 30
0.0
 10
-24.7253
 20
1185.9243
 30
0.0
 10
-24.7253
 20
1175.6743
 30
0.0
 10
-24.7253
 20
1175.6743
 30
0.0
 10
-24.7253
 20
1175.6743
 30
0.0
 10
-24.7253
 20
1175.6743
 30
0.0
 10
-27.0254
 20
1175.6743
 30
0.0
 10
-27.0254
 20
1175.6743
 30
0.0
 10
-27.0254
 20
1175.6743
 30
0.0
 10
-27.0254
 20
1175.6743
 30
0.0
 10
-27.0254
 20
1185.9243
 30
0.0
 10
-27.0254
 20
1185.9243
 30
0.0
 10
-27.0254
 20
1185.9243
 30
0.0
 10
-27.0254
 20
1185.9243
 30
0.0
 10
-37.2256
 20
1185.9243
 30
0.0
 10
-37.2256
 20
1185.9243
 30
0.0
 10
-37.2256
 20
1185.9243
 30
0.0
 10
-37.2256
 20
1185.9243
 30
0.0
 10
-37.2256
 20
1175.6743
 30
0.0
 10
-37.2256
 20
1175.6743
 30
0.0
 10
-37.2256
 20
1175.6743
 30
0.0
 10
-37.2256
 20
1175.6743
 30
0.0
 10
-39.5253
 20
1175.6743
 30
0.0
 10
-39.5253
 20
1175.6743
 30
0.0
 10
-39.5253
 20
1175.6743
 30
0.0
 10
-39.5253
 20
1175.6743
 30
0.0
 10
-39.5253
 20
1185.9243
 30
0.0
 10
-39.5253
 20
1185.9243
 30
0.0
 10
-39.5253
 20
1185.9243
 30
0.0
 10
-39.5253
 20
1185.9243
 30
0.0
 10
-49.6755
 20
1185.9243
 30
0.0
 10
-49.6755
 20
1185.9243
 30
0.0
 10
-49.6755
 20
1185.9243
 30
0.0
 10
-49.6755
 20
1185.9243
 30
0.0
 10
-49.6755
 20
1176.0243
 30
0.0
 10
-49.6755
 20
1176.0243
 30
0.0
 10
-49.6755
 20
1176.0243
 30
0.0
 10
-49.6755
 20
1176.0243
 30
0.0
 10
-52.1251
 20
1176.0243
 30
0.0
 10
-52.1251
 20
1176.0243
 30
0.0
 10
-52.1251
 20
1176.0243
 30
0.0
 10
-52.1251
 20
1176.0243
 30
0.0
 10
-52.1251
 20
1165.8241
 30
0.0
 10
-52.1251
 20
1165.8241
 30
0.0
 10
-52.1251
 20
1165.8241
 30
0.0
 10
-52.1251
 20
1165.8241
 30
0.0
 10
-49.6755
 20
1165.8241
 30
0.0
 10
-49.6755
 20
1165.8241
 30
0.0
 10
-49.6755
 20
1165.8241
 30
0.0
 10
-49.6755
 20
1165.8241
 30
0.0
 10
-49.6755
 20
1156.0239
 30
0.0
 10
-49.6755
 20
1156.0239
 30
0.0
 10
-49.6755
 20
1156.0239
 30
0.0
 10
-49.6755
 20
1156.0239
 30
0.0
 10
-52.1251
 20
1156.0239
 30
0.0
 10
-52.1251
 20
1156.0239
 30
0.0
 10
-52.1251
 20
1156.0239
 30
0.0
 10
-52.1251
 20
1156.0239
 30
0.0
 10
-52.1255
 20
1145.8241
 30
0.0
 10
-52.1255
 20
1145.8241
 30
0.0
 10
-52.1255
 20
1145.8241
 30
0.0
 10
-52.1255
 20
1145.8241
 30
0.0
 10
-49.6755
 20
1145.8241
 30
0.0
 10
-49.6755
 20
1145.8241
 30
0.0
 10
-49.6755
 20
1145.8241
 30
0.0
 10
-49.6755
 20
1145.8241
 30
0.0
 10
-49.6755
 20
1135.874
 30
0.0
 10
-49.6755
 20
1135.874
 30
0.0
 10
-49.6755
 20
1135.874
 30
0.0
 10
-49.6755
 20
1135.874
 30
0.0
 10
-40.976
 20
1135.874
 30
0.0
 10
-40.976
 20
1135.874
 30
0.0
 10
-40.976
 20
1135.874
 30
0.0
 10
-40.976
 20
1135.874
 30
0.0
 10
-40.976
 20
1133.4239
 30
0.0
 10
-40.976
 20
1133.4239
 30
0.0
 10
-40.976
 20
1133.4239
 30
0.0
 10
-40.976
 20
1133.4239
 30
0.0
 10
-30.7754
 20
1133.4239
 30
0.0
 10
-30.7754
 20
1133.4239
 30
0.0
 10
-30.7754
 20
1133.4239
 30
0.0
 10
-30.7754
 20
1133.4239
 30
0.0
 10
-30.7754
 20
1135.874
 30
0.0
 10
-30.7754
 20
1135.874
 30
0.0
 10
-30.7754
 20
1135.874
 30
0.0
 10
-30.7754
 20
1135.874
 30
0.0
 10
-20.9756
 20
1135.874
 30
0.0
 10
-20.9756
 20
1135.874
 30
0.0
 10
-20.9756
 20
1135.874
 30
0.0
 10
-20.9756
 20
1135.874
 30
0.0
 10
-20.9756
 20
1133.4239
 30
0.0
 10
-20.9756
 20
1133.4239
 30
0.0
 10
-20.9756
 20
1133.4239
 30
0.0
 10
-20.9756
 20
1133.4239
 30
0.0
 10
-10.7754
 20
1133.4239
 30
0.0
 10
-10.7754
 20
1133.4239
 30
0.0
 10
-10.7754
 20
1133.4239
 30
0.0
 10
-10.7754
 20
1133.4239
 30
0.0
 10
-10.7754
 20
1135.874
 30
0.0
 10
-10.7754
 20
1135.874
 30
0.0
 10
-10.7754
 20
1135.874
 30
0.0
 10
-10.7754
 20
1135.874
 30
0.0
 10
-2.0752
 20
1135.874
 30
0.0
 10
-2.0752
 20
1135.874
 30
0.0
 10
-2.0752
 20
1135.874
 30
0.0
 10
-2.0752
 20
1135.874
 30
0.0
 10
-2.0752
 20
1145.8241
 30
0.0
 10
-2.0752
 20
1145.8241
 30
0.0
 10
-2.0752
 20
1145.8241
 30
0.0
 10
-2.0752
 20
1145.8241
 30
0.0
 10
0.3742
 20
1145.8241
 30
0.0
 10
0.3742
 20
1145.8241
 30
0.0
 10
0.3742
 20
1145.8241
 30
0.0
 10
0.3742
 20
1145.8241
 30
0.0
 10
0.3742
 20
1156.0239
 30
0.0
 10
0.3742
 20
1156.0239
 30
0.0
 10
0.3742
 20
1156.0239
 30
0.0
 10
0.3742
 20
1156.0239
 30
0.0
 10
-2.0752
 20
1156.0239
 30
0.0
 10
-2.0752
 20
1156.0239
 30
0.0
 10
-2.0752
 20
1156.0239
 30
0.0
 10
-2.0752
 20
1156.0239
 30
0.0
 10
-2.0752
 20
1165.8241
 30
0.0
 10
-2.0752
 20
1165.8241
 30
0.0
 10
-2.0752
 20
1165.8241
 30
0.0
 10
-2.0752
 20
1165.8241
 30
0.0
 10
0.3742
 20
1165.8241
 30
0.0
 10
0.3742
 20
1165.8241
 30
0.0
 10
0.3742
 20
1165.8241
 30
0.0
 10
0.3742
 20
1165.8241
 30
0.0
 10
0.3742
 20
1176.0243
 30
0.0
 10
0.3742
 20
1176.0243
 30
0.0
 10
0.3742
 20
1176.0243
 30
0.0
 10
0.3742
 20
1176.0243
 30
0.0
 10
-2.0752
 20
1176.0243
 30
0.0
 10
-2.0752
 20
1176.0243
 30
0.0
 10
-2.0752
 20
1176.0243
 30
0.0
 10
-2.0752
 20
1176.0243
 30
0.0
 10
-2.0752
 20
1185.9243
 30
0.0
 10
-2.0752
 20
1185.9243
 30
0.0
  0
SPLINE
  5
73
330
1F
100
AcDbEntity
  8
Layer 1
 62
   240
370
     9
100
AcDbSpline
210
0.0
220
0.0
230
1.0
 70
    11
 71
     3
 72
   164
 73
   160
 74
     0
 42
0.000000001
 43
0.0000000001
 40
0.0
 40
0.0
 40
0.0
 40
0.0
 40
0.024390243902439
 40
0.024390243902439
 40
0.024390243902439
 40
0.024390243902439
 40
0.0487804878048781
 40
0.0487804878048781
 40
0.0487804878048781
 40
0.0487804878048781
 40
0.0731707317073171
 40
0.0731707317073171
 40
0.0731707317073171
 40
0.0731707317073171
 40
0.0975609756097561
 40
0.0975609756097561
 40
0.0975609756097561
 40
0.0975609756097561
 40
0.1219512195121951
 40
0.1219512195121951
 40
0.1219512195121951
 40
0.1219512195121951
 40
0.1463414634146341
 40
0.1463414634146341
 40
0.1463414634146341
 40
0.1463414634146341
 40
0.1707317073170732
 40
0.1707317073170732
 40
0.1707317073170732
 40
0.1707317073170732
 40
0.1951219512195122
 40
0.1951219512195122
 40
0.1951219512195122
 40
0.1951219512195122
 40
0.2195121951219512
 40
0.2195121951219512
 40
0.2195121951219512
 40
0.2195121951219512
 40
0.2439024390243902
 40
0.2439024390243902
 40
0.2439024390243902
 40
0.2439024390243902
 40
0.2682926829268293
 40
0.2682926829268293
 40
0.2682926829268293
 40
0.2682926829268293
 40
0.2926829268292683
 40
0.2926829268292683
 40
0.2926829268292683
 40
0.2926829268292683
 40
0.3170731707317073
 40
0.3170731707317073
 40
0.3170731707317073
 40
0.3170731707317073
 40
0.3414634146341464
 40
0.3414634146341464
 40
0.3414634146341464
 40
0.3414634146341464
 40
0.3658536585365854
 40
0.3658536585365854
 40
0.3658536585365854
 40
0.3658536585365854
 40
0.3902439024390244
 40
0.3902439024390244
 40
0.3902439024390244
 40
0.3902439024390244
 40
0.4146341463414634
 40
0.4146341463414634
 40
0.4146341463414634
 40
0.4146341463414634
 40
0.4390243902439024
 40
0.4390243902439024
 40
0.4390243902439024
 40
0.4390243902439024
 40
0.4634146341463415
 40
0.4634146341463415
 40
0.4634146341463415
 40
0.4634146341463415
 40
0.4878048780487805
 40
0.4878048780487805
 40
0.4878048780487805
 40
0.4878048780487805
 40
0.5121951219512195
 40
0.5121951219512195
 40
0.5121951219512195
 40
0.5121951219512195
 40
0.5365853658536586
 40
0.5365853658536586
 40
0.5365853658536586
 40
0.5365853658536586
 40
0.5609756097560976
 40
0.5609756097560976
 40
0.5609756097560976
 40
0.5609756097560976
 40
0.5853658536585366
 40
0.5853658536585366
 40
0.5853658536585366
 40
0.5853658536585366
 40
0.6097560975609756
 40
0.6097560975609756
 40
0.6097560975609756
 40
0.6097560975609756
 40
0.6341463414634146
 40
0.6341463414634146
 40
0.6341463414634146
 40
0.6341463414634146
 40
0.6585365853658537
 40
0.6585365853658537
 40
0.6585365853658537
 40
0.6585365853658537
 40
0.6829268292682927
 40
0.6829268292682927
 40
0.6829268292682927
 40
0.6829268292682927
 40
0.7073170731707317
 40
0.7073170731707317
 40
0.7073170731707317
 40
0.7073170731707317
 40
0.7317073170731707
 40
0.7317073170731707
 40
0.7317073170731707
 40
0.7317073170731707
 40
0.7560975609756098
 40
0.7560975609756098
 40
0.7560975609756098
 40
0.7560975609756098
 40
0.7804878048780488
 40
0.7804878048780488
 40
0.7804878048780488
 40
0.7804878048780488
 40
0.8048780487804879
 40
0.8048780487804879
 40
0.8048780487804879
 40
0.8048780487804879
 40
0.8292682926829268
 40
0.8292682926829268
 40
0.8292682926829268
 40
0.8292682926829268
 40
0.8536585365853658
 40
0.8536585365853658
 40
0.8536585365853658
 40
0.8536585365853658
 40
0.8780487804878049
 40
0.8780487804878049
 40
0.8780487804878049
 40
0.8780487804878049
 40
0.9024390243902439
 40
0.9024390243902439
 40
0.9024390243902439
 40
0.9024390243902439
 40
0.926829268292683
 40
0.926829268292683
 40
0.926829268292683
 40
0.926829268292683
 40
0.9512195121951219
 40
0.9512195121951219
 40
0.9512195121951219
 40
0.9512195121951219
 40
1.0
 40
1.0
 40
1.0
 40
1.0
 10
-75.6085
 20
1136.1237
 30
0.0
 10
-75.6085
 20
1136.1237
 30
0.0
 10
-75.6085
 20
1146.0742
 30
0.0
 10
-75.6085
 20
1146.0742
 30
0.0
 10
-75.6085
 20
1146.0742
 30
0.0
 10
-75.6085
 20
1146.0742
 30
0.0
 10
-73.1592
 20
1146.0742
 30
0.0
 10
-73.1592
 20
1146.0742
 30
0.0
 10
-73.1592
 20
1146.0742
 30
0.0
 10
-73.1592
 20
1146.0742
 30
0.0
 10
-73.1589
 20
1156.274
 30
0.0
 10
-73.1589
 20
1156.274
 30
0.0
 10
-73.1589
 20
1156.274
 30
0.0
 10
-73.1589
 20
1156.274
 30
0.0
 10
-75.6085
 20
1156.274
 30
0.0
 10
-75.6085
 20
1156.274
 30
0.0
 10
-75.6085
 20
1156.274
 30
0.0
 10
-75.6085
 20
1156.274
 30
0.0
 10
-75.6085
 20
1166.0742
 30
0.0
 10
-75.6085
 20
1166.0742
 30
0.0
 10
-75.6085
 20
1166.0742
 30
0.0
 10
-75.6085
 20
1166.0742
 30
0.0
 10
-73.1589
 20
1166.0742
 30
0.0
 10
-73.1589
 20
1166.0742
 30
0.0
 10
-73.1589
 20
1166.0742
 30
0.0
 10
-73.1589
 20
1166.0742
 30
0.0
 10
-73.1589
 20
1176.2744
 30
0.0
 10
-73.1589
 20
1176.2744
 30
0.0
 10
-73.1589
 20
1176.2744
 30
0.0
 10
-73.1589
 20
1176.2744
 30
0.0
 10
-75.6085
 20
1176.2744
 30
0.0
 10
-75.6085
 20
1176.2744
 30
0.0
 10
-75.6085
 20
1176.2744
 30
0.0
 10
-75.6085
 20
1176.2744
 30
0.0
 10
-75.6085
 20
1186.1744
 30
0.0
 10
-75.6085
 20
1186.1744
 30
0.0
 10
-75.6085
 20
1186.1744
 30
0.0
 10
-75.6085
 20
1186.1744
 30
0.0
 10
-123.2085
 20
1186.1741
 30
0.0
 10
-123.2085
 20
1186.1741
 30
0.0
 10
-123.2085
 20
1186.1741
 30
0.0
 10
-123.2085
 20
1186.1741
 30
0.0
 10
-123.2085
 20
1176.2744
 30
0.0
 10
-123.2085
 20
1176.2744
 30
0.0
 10
-123.2085
 20
1176.2744
 30
0.0
 10
-123.2085
 20
1176.2744
 30
0.0
 10
-125.6582
 20
1176.2744
 30
0.0
 10
-125.6582
 20
1176.2744
 30
0.0
 10
-125.6582
 20
1176.2744
 30
0.0
 10
-125.6582
 20
1176.2744
 30
0.0
 10
-125.6585
 20
1166.0742
 30
0.0
 10
-125.6585
 20
1166.0742
 30
0.0
 10
-125.6585
 20
1166.0742
 30
0.0
 10
-125.6585
 20
1166.0742
 30
0.0
 10
-123.2085
 20
1166.0742
 30
0.0
 10
-123.2085
 20
1166.0742
 30
0.0
 10
-123.2085
 20
1166.0742
 30
0.0
 10
-123.2085
 20
1166.0742
 30
0.0
 10
-123.2085
 20
1156.274
 30
0.0
 10
-123.2085
 20
1156.274
 30
0.0
 10
-123.2085
 20
1156.274
 30
0.0
 10
-123.2085
 20
1156.274
 30
0.0
 10
-125.6585
 20
1156.274
 30
0.0
 10
-125.6585
 20
1156.274
 30
0.0
 10
-125.6585
 20
1156.274
 30
0.0
 10
-125.6585
 20
1156.274
 30
0.0
 10
-125.6585
 20
1146.0742
 30
0.0
 10
-125.6585
 20
1146.0742
 30
0.0
 10
-125.6585
 20
1146.0742
 30
0.0
 10
-125.6585
 20
1146.0742
 30
0.0
 10
-123.2085
 20
1146.0742
 30
0.0
 10
-123.2085
 20
1146.0742
 30
0.0
 10
-123.2085
 20
1146.0742
 30
0.0
 10
-123.2085
 20
1146.0742
 30
0.0
 10
-123.2085
 20
1136.1237
 30
0.0
 10
-123.2085
 20
1136.1237
 30
0.0
 10
-123.2085
 20
1136.1237
 30
0.0
 10
-123.2085
 20
1136.1237
 30
0.0
 10
-114.509
 20
1136.1237
 30
0.0
 10
-114.509
 20
1136.1237
 30
0.0
 10
-114.509
 20
1136.1237
 30
0.0
 10
-114.509
 20
1136.1237
 30
0.0
 10
-114.509
 20
1133.6744
 30
0.0
 10
-114.509
 20
1133.6744
 30
0.0
 10
-114.509
 20
1133.6744
 30
0.0
 10
-114.509
 20
1133.6744
 30
0.0
 10
-113.0584
 20
1133.6744
 30
0.0
 10
-113.0584
 20
1133.6744
 30
0.0
 10
-113.0584
 20
1133.6744
 30
0.0
 10
-113.0584
 20
1133.6744
 30
0.0
 10
-113.0584
 20
1175.6743
 30
0.0
 10
-113.0584
 20
1175.6743
 30
0.0
 10
-113.0584
 20
1175.6743
 30
0.0
 10
-113.0584
 20
1175.6743
 30
0.0
 10
-110.7586
 20
1175.6743
 30
0.0
 10
-110.7586
 20
1175.6743
 30
0.0
 10
-110.7586
 20
1175.6743
 30
0.0
 10
-110.7586
 20
1175.6743
 30
0.0
 10
-110.7586
 20
1133.6744
 30
0.0
 10
-110.7586
 20
1133.6744
 30
0.0
 10
-110.7586
 20
1133.6744
 30
0.0
 10
-110.7586
 20
1133.6744
 30
0.0
 10
-104.3088
 20
1133.6744
 30
0.0
 10
-104.3088
 20
1133.6744
 30
0.0
 10
-104.3088
 20
1133.6744
 30
0.0
 10
-104.3088
 20
1133.6744
 30
0.0
 10
-104.3088
 20
1136.1237
 30
0.0
 10
-104.3088
 20
1136.1237
 30
0.0
 10
-104.3088
 20
1136.1237
 30
0.0
 10
-104.3088
 20
1136.1237
 30
0.0
 10
-100.5584
 20
1136.1237
 30
0.0
 10
-100.5584
 20
1136.1237
 30
0.0
 10
-100.5584
 20
1136.1237
 30
0.0
 10
-100.5584
 20
1136.1237
 30
0.0
 10
-100.5584
 20
1175.674
 30
0.0
 10
-100.5584
 20
1175.674
 30
0.0
 10
-100.5584
 20
1175.674
 30
0.0
 10
-100.5584
 20
1175.674
 30
0.0
 10
-98.2583
 20
1175.674
 30
0.0
 10
-98.2583
 20
1175.674
 30
0.0
 10
-98.2583
 20
1175.674
 30
0.0
 10
-98.2583
 20
1175.674
 30
0.0
 10
-98.2583
 20
1136.1237
 30
0.0
 10
-98.2583
 20
1136.1237
 30
0.0
 10
-98.2583
 20
1136.1237
 30
0.0
 10
-98.2583
 20
1136.1237
 30
0.0
 10
-94.5086
 20
1136.1237
 30
0.0
 10
-94.5086
 20
1136.1237
 30
0.0
 10
-94.5086
 20
1136.1237
 30
0.0
 10
-94.5086
 20
1136.1237
 30
0.0
 10
-94.5086
 20
1133.6744
 30
0.0
 10
-94.5086
 20
1133.6744
 30
0.0
 10
-94.5086
 20
1133.6744
 30
0.0
 10
-94.5086
 20
1133.6744
 30
0.0
 10
-88.0584
 20
1133.6744
 30
0.0
 10
-88.0584
 20
1133.6744
 30
0.0
 10
-88.0584
 20
1133.6744
 30
0.0
 10
-88.0584
 20
1133.6744
 30
0.0
 10
-88.0584
 20
1175.674
 30
0.0
 10
-88.0584
 20
1175.674
 30
0.0
 10
-88.0584
 20
1175.674
 30
0.0
 10
-88.0584
 20
1175.674
 30
0.0
 10
-85.7583
 20
1175.674
 30
0.0
 10
-85.7583
 20
1175.674
 30
0.0
 10
-85.7583
 20
1175.674
 30
0.0
 10
-85.7583
 20
1175.674
 30
0.0
 10
-85.7583
 20
1133.6744
 30
0.0
 10
-85.7583
 20
1133.6744
 30
0.0
 10
-85.7583
 20
1133.6744
 30
0.0
 10
-85.7583
 20
1133.6744
 30
0.0
 10
-84.3088
 20
1133.6744
 30
0.0
 10
-84.3088
 20
1133.6744
 30
0.0
 10
-84.3088
 20
1133.6744
 30
0.0
 10
-84.3088
 20
1133.6744
 30
0.0
 10
-84.3088
 20
1136.1237
 30
0.0
 10
-84.3088
 20
1136.1237
 30
0.0
 10
-84.3088
 20
1136.1237
 30
0.0
 10
-84.3088
 20
1136.1237
 30
0.0
 10
-75.6085
 20
1136.1237
 30
0.0
 10
-75.6085
 20
1136.1237
 30
0.0
  0
SPLINE
  5
74
330
1F
100
AcDbEntity
  8
Layer 1
 62
   240
370
     9
100
AcDbSpline
210
0.0
220
0.0
230
1.0
 70
    11
 71
     3
 72
   164
 73
   160
 74
     0
 42
0.000000001
 43
0.0000000001
 40
0.0
 40
0.0
 40
0.0
 40
0.0
 40
0.024390243902439
 40
0.024390243902439
 40
0.024390243902439
 40
0.024390243902439
 40
0.0487804878048781
 40
0.0487804878048781
 40
0.0487804878048781
 40
0.0487804878048781
 40
0.0731707317073171
 40
0.0731707317073171
 40
0.0731707317073171
 40
0.0731707317073171
 40
0.0975609756097561
 40
0.0975609756097561
 40
0.0975609756097561
 40
0.0975609756097561
 40
0.1219512195121951
 40
0.1219512195121951
 40
0.1219512195121951
 40
0.1219512195121951
 40
0.1463414634146341
 40
0.1463414634146341
 40
0.1463414634146341
 40
0.1463414634146341
 40
0.1707317073170732
 40
0.1707317073170732
 40
0.1707317073170732
 40
0.1707317073170732
 40
0.1951219512195122
 40
0.1951219512195122
 40
0.1951219512195122
 40
0.1951219512195122
 40
0.2195121951219512
 40
0.2195121951219512
 40
0.2195121951219512
 40
0.2195121951219512
 40
0.2439024390243902
 40
0.2439024390243902
 40
0.2439024390243902
 40
0.2439024390243902
 40
0.2682926829268293
 40
0.2682926829268293
 40
0.2682926829268293
 40
0.2682926829268293
 40
0.2926829268292683
 40
0.2926829268292683
 40
0.2926829268292683
 40
0.2926829268292683
 40
0.3170731707317073
 40
0.3170731707317073
 40
0.3170731707317073
 40
0.3170731707317073
 40
0.3414634146341464
 40
0.3414634146341464
 40
0.3414634146341464
 40
0.3414634146341464
 40
0.3658536585365854
 40
0.3658536585365854
 40
0.3658536585365854
 40
0.3658536585365854
 40
0.3902439024390244
 40
0.3902439024390244
 40
0.3902439024390244
 40
0.3902439024390244
 40
0.4146341463414634
 40
0.4146341463414634
 40
0.4146341463414634
 40
0.4146341463414634
 40
0.4390243902439024
 40
0.4390243902439024
 40
0.4390243902439024
 40
0.4390243902439024
 40
0.4634146341463415
 40
0.4634146341463415
 40
0.4634146341463415
 40
0.4634146341463415
 40
0.4878048780487805
 40
0.4878048780487805
 40
0.4878048780487805
 40
0.4878048780487805
 40
0.5121951219512195
 40
0.5121951219512195
 40
0.5121951219512195
 40
0.5121951219512195
 40
0.5365853658536586
 40
0.5365853658536586
 40
0.5365853658536586
 40
0.5365853658536586
 40
0.5609756097560976
 40
0.5609756097560976
 40
0.5609756097560976
 40
0.5609756097560976
 40
0.5853658536585366
 40
0.5853658536585366
 40
0.5853658536585366
 40
0.5853658536585366
 40
0.6097560975609756
 40
0.6097560975609756
 40
0.6097560975609756
 40
0.6097560975609756
 40
0.6341463414634146
 40
0.6341463414634146
 40
0.6341463414634146
 40
0.6341463414634146
 40
0.6585365853658537
 40
0.6585365853658537
 40
0.6585365853658537
 40
0.6585365853658537
 40
0.6829268292682927
 40
0.6829268292682927
 40
0.6829268292682927
 40
0.6829268292682927
 40
0.7073170731707317
 40
0.7073170731707317
 40
0.7073170731707317
 40
0.7073170731707317
 40
0.7317073170731707
 40
0.7317073170731707
 40
0.7317073170731707
 40
0.7317073170731707
 40
0.7560975609756098
 40
0.7560975609756098
 40
0.7560975609756098
 40
0.7560975609756098
 40
0.7804878048780488
 40
0.7804878048780488
 40
0.7804878048780488
 40
0.7804878048780488
 40
0.8048780487804879
 40
0.8048780487804879
 40
0.8048780487804879
 40
0.8048780487804879
 40
0.8292682926829268
 40
0.8292682926829268
 40
0.8292682926829268
 40
0.8292682926829268
 40
0.8536585365853658
 40
0.8536585365853658
 40
0.8536585365853658
 40
0.8536585365853658
 40
0.8780487804878049
 40
0.8780487804878049
 40
0.8780487804878049
 40
0.8780487804878049
 40
0.9024390243902439
 40
0.9024390243902439
 40
0.9024390243902439
 40
0.9024390243902439
 40
0.926829268292683
 40
0.926829268292683
 40
0.926829268292683
 40
0.926829268292683
 40
0.9512195121951219
 40
0.9512195121951219
 40
0.9512195121951219
 40
0.9512195121951219
 40
1.0
 40
1.0
 40
1.0
 40
1.0
 10
-2.0752
 20
1127.9702
 30
0.0
 10
-2.0752
 20
1127.9702
 30
0.0
 10
-12.2249
 20
1127.9702
 30
0.0
 10
-12.2249
 20
1127.9702
 30
0.0
 10
-12.2249
 20
1127.9702
 30
0.0
 10
-12.2249
 20
1127.9702
 30
0.0
 10
-12.2249
 20
1117.7199
 30
0.0
 10
-12.2249
 20
1117.7199
 30
0.0
 10
-12.2249
 20
1117.7199
 30
0.0
 10
-12.2249
 20
1117.7199
 30
0.0
 10
-14.525
 20
1117.7199
 30
0.0
 10
-14.525
 20
1117.7199
 30
0.0
 10
-14.525
 20
1117.7199
 30
0.0
 10
-14.525
 20
1117.7199
 30
0.0
 10
-14.525
 20
1127.9702
 30
0.0
 10
-14.525
 20
1127.9702
 30
0.0
 10
-14.525
 20
1127.9702
 30
0.0
 10
-14.525
 20
1127.9702
 30
0.0
 10
-24.7253
 20
1127.9699
 30
0.0
 10
-24.7253
 20
1127.9699
 30
0.0
 10
-24.7253
 20
1127.9699
 30
0.0
 10
-24.7253
 20
1127.9699
 30
0.0
 10
-24.7253
 20
1117.7199
 30
0.0
 10
-24.7253
 20
1117.7199
 30
0.0
 10
-24.7253
 20
1117.7199
 30
0.0
 10
-24.7253
 20
1117.7199
 30
0.0
 10
-27.0254
 20
1117.7199
 30
0.0
 10
-27.0254
 20
1117.7199
 30
0.0
 10
-27.0254
 20
1117.7199
 30
0.0
 10
-27.0254
 20
1117.7199
 30
0.0
 10
-27.0254
 20
1127.9699
 30
0.0
 10
-27.0254
 20
1127.9699
 30
0.0
 10
-27.0254
 20
1127.9699
 30
0.0
 10
-27.0254
 20
1127.9699
 30
0.0
 10
-37.2256
 20
1127.9699
 30
0.0
 10
-37.2256
 20
1127.9699
 30
0.0
 10
-37.2256
 20
1127.9699
 30
0.0
 10
-37.2256
 20
1127.9699
 30
0.0
 10
-37.2256
 20
1117.7199
 30
0.0
 10
-37.2256
 20
1117.7199
 30
0.0
 10
-37.2256
 20
1117.7199
 30
0.0
 10
-37.2256
 20
1117.7199
 30
0.0
 10
-39.5253
 20
1117.7199
 30
0.0
 10
-39.5253
 20
1117.7199
 30
0.0
 10
-39.5253
 20
1117.7199
 30
0.0
 10
-39.5253
 20
1117.7199
 30
0.0
 10
-39.5253
 20
1127.9699
 30
0.0
 10
-39.5253
 20
1127.9699
 30
0.0
 10
-39.5253
 20
1127.9699
 30
0.0
 10
-39.5253
 20
1127.9699
 30
0.0
 10
-49.6755
 20
1127.9699
 30
0.0
 10
-49.6755
 20
1127.9699
 30
0.0
 10
-49.6755
 20
1127.9699
 30
0.0
 10
-49.6755
 20
1127.9699
 30
0.0
 10
-49.6755
 20
1118.0699
 30
0.0
 10
-49.6755
 20
1118.0699
 30
0.0
 10
-49.6755
 20
1118.0699
 30
0.0
 10
-49.6755
 20
1118.0699
 30
0.0
 10
-52.1251
 20
1118.0699
 30
0.0
 10
-52.1251
 20
1118.0699
 30
0.0
 10
-52.1251
 20
1118.0699
 30
0.0
 10
-52.1251
 20
1118.0699
 30
0.0
 10
-52.1251
 20
1107.8696
 30
0.0
 10
-52.1251
 20
1107.8696
 30
0.0
 10
-52.1251
 20
1107.8696
 30
0.0
 10
-52.1251
 20
1107.8696
 30
0.0
 10
-49.6755
 20
1107.8696
 30
0.0
 10
-49.6755
 20
1107.8696
 30
0.0
 10
-49.6755
 20
1107.8696
 30
0.0
 10
-49.6755
 20
1107.8696
 30
0.0
 10
-49.6755
 20
1098.0695
 30
0.0
 10
-49.6755
 20
1098.0695
 30
0.0
 10
-49.6755
 20
1098.0695
 30
0.0
 10
-49.6755
 20
1098.0695
 30
0.0
 10
-52.1251
 20
1098.0695
 30
0.0
 10
-52.1251
 20
1098.0695
 30
0.0
 10
-52.1251
 20
1098.0695
 30
0.0
 10
-52.1251
 20
1098.0695
 30
0.0
 10
-52.1255
 20
1087.8696
 30
0.0
 10
-52.1255
 20
1087.8696
 30
0.0
 10
-52.1255
 20
1087.8696
 30
0.0
 10
-52.1255
 20
1087.8696
 30
0.0
 10
-49.6755
 20
1087.8696
 30
0.0
 10
-49.6755
 20
1087.8696
 30
0.0
 10
-49.6755
 20
1087.8696
 30
0.0
 10
-49.6755
 20
1087.8696
 30
0.0
 10
-49.6755
 20
1077.9199
 30
0.0
 10
-49.6755
 20
1077.9199
 30
0.0
 10
-49.6755
 20
1077.9199
 30
0.0
 10
-49.6755
 20
1077.9199
 30
0.0
 10
-40.976
 20
1077.9199
 30
0.0
 10
-40.976
 20
1077.9199
 30
0.0
 10
-40.976
 20
1077.9199
 30
0.0
 10
-40.976
 20
1077.9199
 30
0.0
 10
-40.976
 20
1075.4698
 30
0.0
 10
-40.976
 20
1075.4698
 30
0.0
 10
-40.976
 20
1075.4698
 30
0.0
 10
-40.976
 20
1075.4698
 30
0.0
 10
-30.7754
 20
1075.4698
 30
0.0
 10
-30.7754
 20
1075.4698
 30
0.0
 10
-30.7754
 20
1075.4698
 30
0.0
 10
-30.7754
 20
1075.4698
 30
0.0
 10
-30.7754
 20
1077.9199
 30
0.0
 10
-30.7754
 20
1077.9199
 30
0.0
 10
-30.7754
 20
1077.9199
 30
0.0
 10
-30.7754
 20
1077.9199
 30
0.0
 10
-20.9756
 20
1077.9199
 30
0.0
 10
-20.9756
 20
1077.9199
 30
0.0
 10
-20.9756
 20
1077.9199
 30
0.0
 10
-20.9756
 20
1077.9199
 30
0.0
 10
-20.9756
 20
1075.4698
 30
0.0
 10
-20.9756
 20
1075.4698
 30
0.0
 10
-20.9756
 20
1075.4698
 30
0.0
 10
-20.9756
 20
1075.4698
 30
0.0
 10
-10.7754
 20
1075.4698
 30
0.0
 10
-10.7754
 20
1075.4698
 30
0.0
 10
-10.7754
 20
1075.4698
 30
0.0
 10
-10.7754
 20
1075.4698
 30
0.0
 10
-10.7754
 20
1077.9199
 30
0.0
 10
-10.7754
 20
1077.9199
 30
0.0
 10
-10.7754
 20
1077.9199
 30
0.0
 10
-10.7754
 20
1077.9199
 30
0.0
 10
-2.0752
 20
1077.9199
 30
0.0
 10
-2.0752
 20
1077.9199
 30
0.0
 10
-2.0752
 20
1077.9199
 30
0.0
 10
-2.0752
 20
1077.9199
 30
0.0
 10
-2.0752
 20
1087.8696
 30
0.0
 10
-2.0752
 20
1087.8696
 30
0.0
 10
-2.0752
 20
1087.8696
 30
0.0
 10
-2.0752
 20
1087.8696
 30
0.0
 10
0.3742
 20
1087.8696
 30
0.0
 10
0.3742
 20
1087.8696
 30
0.0
 10
0.3742
 20
1087.8696
 30
0.0
 10
0.3742
 20
1087.8696
 30
0.0
 10
0.3742
 20
1098.0695
 30
0.0
 10
0.3742
 20
1098.0695
 30
0.0
 10
0.3742
 20
1098.0695
 30
0.0
 10
0.3742
 20
1098.0695
 30
0.0
 10
-2.0752
 20
1098.0695
 30
0.0
 10
-2.0752
 20
1098.0695
 30
0.0
 10
-2.0752
 20
1098.0695
 30
0.0
 10
-2.0752
 20
1098.0695
 30
0.0
 10
-2.0752
 20
1107.8696
 30
0.0
 10
-2.0752
 20
1107.8696
 30
0.0
 10
-2.0752
 20
1107.8696
 30
0.0
 10
-2.0752
 20
1107.8696
 30
0.0
 10
0.3742
 20
1107.8696
 30
0.0
 10
0.3742
 20
1107.8696
 30
0.0
 10
0.3742
 20
1107.8696
 30
0.0
 10
0.3742
 20
1107.8696
 30
0.0
 10
0.3742
 20
1118.0699
 30
0.0
 10
0.3742
 20
1118.0699
 30
0.0
 10
0.3742
 20
1118.0699
 30
0.0
 10
0.3742
 20
1118.0699
 30
0.0
 10
-2.0752
 20
1118.0699
 30
0.0
 10
-2.0752
 20
1118.0699
 30
0.0
 10
-2.0752
 20
1118.0699
 30
0.0
 10
-2.0752
 20
1118.0699
 30
0.0
 10
-2.0752
 20
1127.9702
 30
0.0
 10
-2.0752
 20
1127.9702
 30
0.0
  0
SPLINE
  5
75
330
1F
100
AcDbEntity
  8
Layer 1
 62
   240
370
     9
100
AcDbSpline
210
0.0
220
0.0
230
1.0
 70
    11
 71
     3
 72
   164
 73
   160
 74
     0
 42
0.000000001
 43
0.0000000001
 40
0.0
 40
0.0
 40
0.0
 40
0.0
 40
0.024390243902439
 40
0.024390243902439
 40
0.024390243902439
 40
0.024390243902439
 40
0.0487804878048781
 40
0.0487804878048781
 40
0.0487804878048781
 40
0.0487804878048781
 40
0.0731707317073171
 40
0.0731707317073171
 40
0.0731707317073171
 40
0.0731707317073171
 40
0.0975609756097561
 40
0.0975609756097561
 40
0.0975609756097561
 40
0.0975609756097561
 40
0.1219512195121951
 40
0.1219512195121951
 40
0.1219512195121951
 40
0.1219512195121951
 40
0.1463414634146341
 40
0.1463414634146341
 40
0.1463414634146341
 40
0.1463414634146341
 40
0.1707317073170732
 40
0.1707317073170732
 40
0.1707317073170732
 40
0.1707317073170732
 40
0.1951219512195122
 40
0.1951219512195122
 40
0.1951219512195122
 40
0.1951219512195122
 40
0.2195121951219512
 40
0.2195121951219512
 40
0.2195121951219512
 40
0.2195121951219512
 40
0.2439024390243902
 40
0.2439024390243902
 40
0.2439024390243902
 40
0.2439024390243902
 40
0.2682926829268293
 40
0.2682926829268293
 40
0.2682926829268293
 40
0.2682926829268293
 40
0.2926829268292683
 40
0.2926829268292683
 40
0.2926829268292683
 40
0.2926829268292683
 40
0.3170731707317073
 40
0.3170731707317073
 40
0.3170731707317073
 40
0.3170731707317073
 40
0.3414634146341464
 40
0.3414634146341464
 40
0.3414634146341464
 40
0.3414634146341464
 40
0.3658536585365854
 40
0.3658536585365854
 40
0.3658536585365854
 40
0.3658536585365854
 40
0.3902439024390244
 40
0.3902439024390244
 40
0.3902439024390244
 40
0.3902439024390244
 40
0.4146341463414634
 40
0.4146341463414634
 40
0.4146341463414634
 40
0.4146341463414634
 40
0.4390243902439024
 40
0.4390243902439024
 40
0.4390243902439024
 40
0.4390243902439024
 40
0.4634146341463415
 40
0.4634146341463415
 40
0.4634146341463415
 40
0.4634146341463415
 40
0.4878048780487805
 40
0.4878048780487805
 40
0.4878048780487805
 40
0.4878048780487805
 40
0.5121951219512195
 40
0.5121951219512195
 40
0.5121951219512195
 40
0.5121951219512195
 40
0.5365853658536586
 40
0.5365853658536586
 40
0.5365853658536586
 40
0.5365853658536586
 40
0.5609756097560976
 40
0.5609756097560976
 40
0.5609756097560976
 40
0.5609756097560976
 40
0.5853658536585366
 40
0.5853658536585366
 40
0.5853658536585366
 40
0.5853658536585366
 40
0.6097560975609756
 40
0.6097560975609756
 40
0.6097560975609756
 40
0.6097560975609756
 40
0.6341463414634146
 40
0.6341463414634146
 40
0.6341463414634146
 40
0.6341463414634146
 40
0.6585365853658537
 40
0.6585365853658537
 40
0.6585365853658537
 40
0.6585365853658537
 40
0.6829268292682927
 40
0.6829268292682927
 40
0.6829268292682927
 40
0.6829268292682927
 40
0.7073170731707317
 40
0.7073170731707317
 40
0.7073170731707317
 40
0.7073170731707317
 40
0.7317073170731707
 40
0.7317073170731707
 40
0.7317073170731707
 40
0.7317073170731707
 40
0.7560975609756098
 40
0.7560975609756098
 40
0.7560975609756098
 40
0.7560975609756098
 40
0.7804878048780488
 40
0.7804878048780488
 40
0.7804878048780488
 40
0.7804878048780488
 40
0.8048780487804879
 40
0.8048780487804879
 40
0.8048780487804879
 40
0.8048780487804879
 40
0.8292682926829268
 40
0.8292682926829268
 40
0.8292682926829268
 40
0.8292682926829268
 40
0.8536585365853658
 40
0.8536585365853658
 40
0.8536585365853658
 40
0.8536585365853658
 40
0.8780487804878049
 40
0.8780487804878049
 40
0.8780487804878049
 40
0.8780487804878049
 40
0.9024390243902439
 40
0.9024390243902439
 40
0.9024390243902439
 40
0.9024390243902439
 40
0.926829268292683
 40
0.926829268292683
 40
0.926829268292683
 40
0.926829268292683
 40
0.9512195121951219
 40
0.9512195121951219
 40
0.9512195121951219
 40
0.9512195121951219
 40
1.0
 40
1.0
 40
1.0
 40
1.0
 10
-75.6085
 20
1078.1693
 30
0.0
 10
-75.6085
 20
1078.1693
 30
0.0
 10
-75.6085
 20
1088.1197
 30
0.0
 10
-75.6085
 20
1088.1197
 30
0.0
 10
-75.6085
 20
1088.1197
 30
0.0
 10
-75.6085
 20
1088.1197
 30
0.0
 10
-73.1592
 20
1088.1197
 30
0.0
 10
-73.1592
 20
1088.1197
 30
0.0
 10
-73.1592
 20
1088.1197
 30
0.0
 10
-73.1592
 20
1088.1197
 30
0.0
 10
-73.1589
 20
1098.3196
 30
0.0
 10
-73.1589
 20
1098.3196
 30
0.0
 10
-73.1589
 20
1098.3196
 30
0.0
 10
-73.1589
 20
1098.3196
 30
0.0
 10
-75.6085
 20
1098.3196
 30
0.0
 10
-75.6085
 20
1098.3196
 30
0.0
 10
-75.6085
 20
1098.3196
 30
0.0
 10
-75.6085
 20
1098.3196
 30
0.0
 10
-75.6085
 20
1108.1198
 30
0.0
 10
-75.6085
 20
1108.1198
 30
0.0
 10
-75.6085
 20
1108.1198
 30
0.0
 10
-75.6085
 20
1108.1198
 30
0.0
 10
-73.1589
 20
1108.1198
 30
0.0
 10
-73.1589
 20
1108.1198
 30
0.0
 10
-73.1589
 20
1108.1198
 30
0.0
 10
-73.1589
 20
1108.1198
 30
0.0
 10
-73.1589
 20
1118.32
 30
0.0
 10
-73.1589
 20
1118.32
 30
0.0
 10
-73.1589
 20
1118.32
 30
0.0
 10
-73.1589
 20
1118.32
 30
0.0
 10
-75.6085
 20
1118.32
 30
0.0
 10
-75.6085
 20
1118.32
 30
0.0
 10
-75.6085
 20
1118.32
 30
0.0
 10
-75.6085
 20
1118.32
 30
0.0
 10
-75.6085
 20
1128.2203
 30
0.0
 10
-75.6085
 20
1128.2203
 30
0.0
 10
-75.6085
 20
1128.2203
 30
0.0
 10
-75.6085
 20
1128.2203
 30
0.0
 10
-123.2085
 20
1128.22
 30
0.0
 10
-123.2085
 20
1128.22
 30
0.0
 10
-123.2085
 20
1128.22
 30
0.0
 10
-123.2085
 20
1128.22
 30
0.0
 10
-123.2085
 20
1118.32
 30
0.0
 10
-123.2085
 20
1118.32
 30
0.0
 10
-123.2085
 20
1118.32
 30
0.0
 10
-123.2085
 20
1118.32
 30
0.0
 10
-125.6582
 20
1118.32
 30
0.0
 10
-125.6582
 20
1118.32
 30
0.0
 10
-125.6582
 20
1118.32
 30
0.0
 10
-125.6582
 20
1118.32
 30
0.0
 10
-125.6585
 20
1108.1198
 30
0.0
 10
-125.6585
 20
1108.1198
 30
0.0
 10
-125.6585
 20
1108.1198
 30
0.0
 10
-125.6585
 20
1108.1198
 30
0.0
 10
-123.2085
 20
1108.1198
 30
0.0
 10
-123.2085
 20
1108.1198
 30
0.0
 10
-123.2085
 20
1108.1198
 30
0.0
 10
-123.2085
 20
1108.1198
 30
0.0
 10
-123.2085
 20
1098.3196
 30
0.0
 10
-123.2085
 20
1098.3196
 30
0.0
 10
-123.2085
 20
1098.3196
 30
0.0
 10
-123.2085
 20
1098.3196
 30
0.0
 10
-125.6585
 20
1098.3196
 30
0.0
 10
-125.6585
 20
1098.3196
 30
0.0
 10
-125.6585
 20
1098.3196
 30
0.0
 10
-125.6585
 20
1098.3196
 30
0.0
 10
-125.6585
 20
1088.1197
 30
0.0
 10
-125.6585
 20
1088.1197
 30
0.0
 10
-125.6585
 20
1088.1197
 30
0.0
 10
-125.6585
 20
1088.1197
 30
0.0
 10
-123.2085
 20
1088.1197
 30
0.0
 10
-123.2085
 20
1088.1197
 30
0.0
 10
-123.2085
 20
1088.1197
 30
0.0
 10
-123.2085
 20
1088.1197
 30
0.0
 10
-123.2085
 20
1078.1693
 30
0.0
 10
-123.2085
 20
1078.1693
 30
0.0
 10
-123.2085
 20
1078.1693
 30
0.0
 10
-123.2085
 20
1078.1693
 30
0.0
 10
-114.509
 20
1078.1693
 30
0.0
 10
-114.509
 20
1078.1693
 30
0.0
 10
-114.509
 20
1078.1693
 30
0.0
 10
-114.509
 20
1078.1693
 30
0.0
 10
-114.509
 20
1075.7199
 30
0.0
 10
-114.509
 20
1075.7199
 30
0.0
 10
-114.509
 20
1075.7199
 30
0.0
 10
-114.509
 20
1075.7199
 30
0.0
 10
-113.0584
 20
1075.7199
 30
0.0
 10
-113.0584
 20
1075.7199
 30
0.0
 10
-113.0584
 20
1075.7199
 30
0.0
 10
-113.0584
 20
1075.7199
 30
0.0
 10
-113.0584
 20
1117.7199
 30
0.0
 10
-113.0584
 20
1117.7199
 30
0.0
 10
-113.0584
 20
1117.7199
 30
0.0
 10
-113.0584
 20
1117.7199
 30
0.0
 10
-110.7586
 20
1117.7199
 30
0.0
 10
-110.7586
 20
1117.7199
 30
0.0
 10
-110.7586
 20
1117.7199
 30
0.0
 10
-110.7586
 20
1117.7199
 30
0.0
 10
-110.7586
 20
1075.7199
 30
0.0
 10
-110.7586
 20
1075.7199
 30
0.0
 10
-110.7586
 20
1075.7199
 30
0.0
 10
-110.7586
 20
1075.7199
 30
0.0
 10
-104.3088
 20
1075.7199
 30
0.0
 10
-104.3088
 20
1075.7199
 30
0.0
 10
-104.3088
 20
1075.7199
 30
0.0
 10
-104.3088
 20
1075.7199
 30
0.0
 10
-104.3088
 20
1078.1693
 30
0.0
 10
-104.3088
 20
1078.1693
 30
0.0
 10
-104.3088
 20
1078.1693
 30
0.0
 10
-104.3088
 20
1078.1693
 30
0.0
 10
-100.5584
 20
1078.1693
 30
0.0
 10
-100.5584
 20
1078.1693
 30
0.0
 10
-100.5584
 20
1078.1693
 30
0.0
 10
-100.5584
 20
1078.1693
 30
0.0
 10
-100.5584
 20
1117.7196
 30
0.0
 10
-100.5584
 20
1117.7196
 30
0.0
 10
-100.5584
 20
1117.7196
 30
0.0
 10
-100.5584
 20
1117.7196
 30
0.0
 10
-98.2583
 20
1117.7196
 30
0.0
 10
-98.2583
 20
1117.7196
 30
0.0
 10
-98.2583
 20
1117.7196
 30
0.0
 10
-98.2583
 20
1117.7196
 30
0.0
 10
-98.2583
 20
1078.1693
 30
0.0
 10
-98.2583
 20
1078.1693
 30
0.0
 10
-98.2583
 20
1078.1693
 30
0.0
 10
-98.2583
 20
1078.1693
 30
0.0
 10
-94.5086
 20
1078.1693
 30
0.0
 10
-94.5086
 20
1078.1693
 30
0.0
 10
-94.5086
 20
1078.1693
 30
0.0
 10
-94.5086
 20
1078.1693
 30
0.0
 10
-94.5086
 20
1075.7199
 30
0.0
 10
-94.5086
 20
1075.7199
 30
0.0
 10
-94.5086
 20
1075.7199
 30
0.0
 10
-94.5086
 20
1075.7199
 30
0.0
 10
-88.0584
 20
1075.7199
 30
0.0
 10
-88.0584
 20
1075.7199
 30
0.0
 10
-88.0584
 20
1075.7199
 30
0.0
 10
-88.0584
 20
1075.7199
 30
0.0
 10
-88.0584
 20
1117.7196
 30
0.0
 10
-88.0584
 20
1117.7196
 30
0.0
 10
-88.0584
 20
1117.7196
 30
0.0
 10
-88.0584
 20
1117.7196
 30
0.0
 10
-85.7583
 20
1117.7196
 30
0.0
 10
-85.7583
 20
1117.7196
 30
0.0
 10
-85.7583
 20
1117.7196
 30
0.0
 10
-85.7583
 20
1117.7196
 30
0.0
 10
-85.7583
 20
1075.7199
 30
0.0
 10
-85.7583
 20
1075.7199
 30
0.0
 10
-85.7583
 20
1075.7199
 30
0.0
 10
-85.7583
 20
1075.7199
 30
0.0
 10
-84.3088
 20
1075.7199
 30
0.0
 10
-84.3088
 20
1075.7199
 30
0.0
 10
-84.3088
 20
1075.7199
 30
0.0
 10
-84.3088
 20
1075.7199
 30
0.0
 10
-84.3088
 20
1078.1693
 30
0.0
 10
-84.3088
 20
1078.1693
 30
0.0
 10
-84.3088
 20
1078.1693
 30
0.0
 10
-84.3088
 20
1078.1693
 30
0.0
 10
-75.6085
 20
1078.1693
 30
0.0
 10
-75.6085
 20
1078.1693
 30
0.0
  0
SPLINE
  5
76
330
1F
100
AcDbEntity
  8
Layer 1
 62
   240
370
     9
100
AcDbSpline
210
0.0
220
0.0
230
1.0
 70
    11
 71
     3
 72
    20
 73
    16
 74
     0
 42
0.000000001
 43
0.0000000001
 40
0.0
 40
0.0
 40
0.0
 40
0.0
 40
0.2
 40
0.2
 40
0.2
 40
0.2
 40
0.4
 40
0.4
 40
0.4
 40
0.4
 40
0.6
 40
0.6
 40
0.6
 40
0.6
 40
1.0
 40
1.0
 40
1.0
 40
1.0
 10
-199.7827
 20
1190.8858
 30
0.0
 10
-199.7827
 20
1190.8858
 30
0.0
 10
-199.7823
 20
1190.8858
 30
0.0
 10
-199.7823
 20
1190.8858
 30
0.0
 10
-199.7823
 20
1190.8858
 30
0.0
 10
-199.7823
 20
1190.8858
 30
0.0
 10
-199.7823
 20
1190.8872
 30
0.0
 10
-199.7823
 20
1190.8872
 30
0.0
 10
-199.7823
 20
1190.8872
 30
0.0
 10
-199.7823
 20
1190.8872
 30
0.0
 10
-199.7827
 20
1190.8872
 30
0.0
 10
-199.7827
 20
1190.8872
 30
0.0
 10
-199.7827
 20
1190.8872
 30
0.0
 10
-199.7827
 20
1190.8872
 30
0.0
 10
-199.7827
 20
1190.8858
 30
0.0
 10
-199.7827
 20
1190.8858
 30
0.0
  0
SPLINE
  5
77
330
1F
100
AcDbEntity
  8
Layer 1
 62
   240
370
     9
100
AcDbSpline
210
0.0
220
0.0
230
1.0
 70
    11
 71
     3
 72
    52
 73
    48
 74
     0
 42
0.000000001
 43
0.0000000001
 40
0.0
 40
0.0
 40
0.0
 40
0.0
 40
0.0769230769230769
 40
0.0769230769230769
 40
0.0769230769230769
 40
0.0769230769230769
 40
0.1538461538461539
 40
0.1538461538461539
 40
0.1538461538461539
 40
0.1538461538461539
 40
0.2307692307692308
 40
0.2307692307692308
 40
0.2307692307692308
 40
0.2307692307692308
 40
0.3076923076923077
 40
0.3076923076923077
 40
0.3076923076923077
 40
0.3076923076923077
 40
0.3846153846153846
 40
0.3846153846153846
 40
0.3846153846153846
 40
0.3846153846153846
 40
0.4615384615384616
 40
0.4615384615384616
 40
0.4615384615384616
 40
0.4615384615384616
 40
0.5384615384615384
 40
0.5384615384615384
 40
0.5384615384615384
 40
0.5384615384615384
 40
0.6153846153846154
 40
0.6153846153846154
 40
0.6153846153846154
 40
0.6153846153846154
 40
0.6923076923076923
 40
0.6923076923076923
 40
0.6923076923076923
 40
0.6923076923076923
 40
0.7692307692307693
 40
0.7692307692307693
 40
0.7692307692307693
 40
0.7692307692307693
 40
0.8461538461538461
 40
0.8461538461538461
 40
0.8461538461538461
 40
0.8461538461538461
 40
1.0
 40
1.0
 40
1.0
 40
1.0
 10
-158.5327
 20
1228.4869
 30
0.0
 10
-158.5327
 20
1228.4869
 30
0.0
 10
-159.8828
 20
1228.4869
 30
0.0
 10
-159.8828
 20
1228.4869
 30
0.0
 10
-159.8828
 20
1228.4869
 30
0.0
 10
-159.8828
 20
1228.4869
 30
0.0
 10
-159.8828
 20
1222.1361
 30
0.0
 10
-159.8828
 20
1222.1361
 30
0.0
 10
-159.8828
 20
1222.1361
 30
0.0
 10
-159.8828
 20
1222.1361
 30
0.0
 10
-162.1826
 20
1222.1361
 30
0.0
 10
-162.1826
 20
1222.1361
 30
0.0
 10
-162.1826
 20
1222.1361
 30
0.0
 10
-162.1826
 20
1222.1361
 30
0.0
 10
-162.1826
 20
1228.4869
 30
0.0
 10
-162.1826
 20
1228.4869
 30
0.0
 10
-162.1826
 20
1228.4869
 30
0.0
 10
-162.1826
 20
1228.4869
 30
0.0
 10
-168.5326
 20
1228.4869
 30
0.0
 10
-168.5326
 20
1228.4869
 30
0.0
 10
-168.5326
 20
1228.4869
 30
0.0
 10
-168.5326
 20
1228.4869
 30
0.0
 10
-168.5326
 20
1230.7867
 30
0.0
 10
-168.5326
 20
1230.7867
 30
0.0
 10
-168.5326
 20
1230.7867
 30
0.0
 10
-168.5326
 20
1230.7867
 30
0.0
 10
-162.1826
 20
1230.7867
 30
0.0
 10
-162.1826
 20
1230.7867
 30
0.0
 10
-162.1826
 20
1230.7867
 30
0.0
 10
-162.1826
 20
1230.7867
 30
0.0
 10
-162.1826
 20
1232.1364
 30
0.0
 10
-162.1826
 20
1232.1364
 30
0.0
 10
-162.1826
 20
1232.1364
 30
0.0
 10
-162.1826
 20
1232.1364
 30
0.0
 10
-159.8828
 20
1232.1364
 30
0.0
 10
-159.8828
 20
1232.1364
 30
0.0
 10
-159.8828
 20
1232.1364
 30
0.0
 10
-159.8828
 20
1232.1364
 30
0.0
 10
-159.8828
 20
1230.7867
 30
0.0
 10
-159.8828
 20
1230.7867
 30
0.0
 10
-159.8828
 20
1230.7867
 30
0.0
 10
-159.8828
 20
1230.7867
 30
0.0
 10
-158.5327
 20
1230.7867
 30
0.0
 10
-158.5327
 20
1230.7867
 30
0.0
 10
-158.5327
 20
1230.7867
 30
0.0
 10
-158.5327
 20
1230.7867
 30
0.0
 10
-158.5327
 20
1228.4869
 30
0.0
 10
-158.5327
 20
1228.4869
 30
0.0
  0
SPLINE
  5
78
330
1F
100
AcDbEntity
  8
Layer 1
 62
   240
370
     9
100
AcDbSpline
210
0.0
220
0.0
230
1.0
 70
    11
 71
     3
 72
    20
 73
    16
 74
     0
 42
0.000000001
 43
0.0000000001
 40
0.0
 40
0.0
 40
0.0
 40
0.0
 40
0.2
 40
0.2
 40
0.2
 40
0.2
 40
0.4
 40
0.4
 40
0.4
 40
0.4
 40
0.6
 40
0.6
 40
0.6
 40
0.6
 40
1.0
 40
1.0
 40
1.0
 40
1.0
 10
-158.5327
 20
1215.9866
 30
0.0
 10
-158.5327
 20
1215.9866
 30
0.0
 10
-168.5329
 20
1215.9866
 30
0.0
 10
-168.5329
 20
1215.9866
 30
0.0
 10
-168.5329
 20
1215.9866
 30
0.0
 10
-168.5329
 20
1215.9866
 30
0.0
 10
-168.5329
 20
1218.2867
 30
0.0
 10
-168.5329
 20
1218.2867
 30
0.0
 10
-168.5329
 20
1218.2867
 30
0.0
 10
-168.5329
 20
1218.2867
 30
0.0
 10
-158.5327
 20
1218.2867
 30
0.0
 10
-158.5327
 20
1218.2867
 30
0.0
 10
-158.5327
 20
1218.2867
 30
0.0
 10
-158.5327
 20
1218.2867
 30
0.0
 10
-158.5327
 20
1215.9866
 30
0.0
 10
-158.5327
 20
1215.9866
 30
0.0
  0
SPLINE
  5
79
330
1F
100
AcDbEntity
  8
Layer 1
 62
   240
370
     9
100
AcDbSpline
210
0.0
220
0.0
230
1.0
 70
    11
 71
     3
 72
    52
 73
    48
 74
     0
 42
0.000000001
 43
0.0000000001
 40
0.0
 40
0.0
 40
0.0
 40
0.0
 40
0.0769230769230769
 40
0.0769230769230769
 40
0.0769230769230769
 40
0.0769230769230769
 40
0.1538461538461539
 40
0.1538461538461539
 40
0.1538461538461539
 40
0.1538461538461539
 40
0.2307692307692308
 40
0.2307692307692308
 40
0.2307692307692308
 40
0.2307692307692308
 40
0.3076923076923077
 40
0.3076923076923077
 40
0.3076923076923077
 40
0.3076923076923077
 40
0.3846153846153846
 40
0.3846153846153846
 40
0.3846153846153846
 40
0.3846153846153846
 40
0.4615384615384616
 40
0.4615384615384616
 40
0.4615384615384616
 40
0.4615384615384616
 40
0.5384615384615384
 40
0.5384615384615384
 40
0.5384615384615384
 40
0.5384615384615384
 40
0.6153846153846154
 40
0.6153846153846154
 40
0.6153846153846154
 40
0.6153846153846154
 40
0.6923076923076923
 40
0.6923076923076923
 40
0.6923076923076923
 40
0.6923076923076923
 40
0.7692307692307693
 40
0.7692307692307693
 40
0.7692307692307693
 40
0.7692307692307693
 40
0.8461538461538461
 40
0.8461538461538461
 40
0.8461538461538461
 40
0.8461538461538461
 40
1.0
 40
1.0
 40
1.0
 40
1.0
 10
-158.5327
 20
1203.4866
 30
0.0
 10
-158.5327
 20
1203.4866
 30
0.0
 10
-159.8828
 20
1203.4866
 30
0.0
 10
-159.8828
 20
1203.4866
 30
0.0
 10
-159.8828
 20
1203.4866
 30
0.0
 10
-159.8828
 20
1203.4866
 30
0.0
 10
-159.8828
 20
1202.1361
 30
0.0
 10
-159.8828
 20
1202.1361
 30
0.0
 10
-159.8828
 20
1202.1361
 30
0.0
 10
-159.8828
 20
1202.1361
 30
0.0
 10
-162.1826
 20
1202.1361
 30
0.0
 10
-162.1826
 20
1202.1361
 30
0.0
 10
-162.1826
 20
1202.1361
 30
0.0
 10
-162.1826
 20
1202.1361
 30
0.0
 10
-162.1826
 20
1203.4866
 30
0.0
 10
-162.1826
 20
1203.4866
 30
0.0
 10
-162.1826
 20
1203.4866
 30
0.0
 10
-162.1826
 20
1203.4866
 30
0.0
 10
-168.5326
 20
1203.4866
 30
0.0
 10
-168.5326
 20
1203.4866
 30
0.0
 10
-168.5326
 20
1203.4866
 30
0.0
 10
-168.5326
 20
1203.4866
 30
0.0
 10
-168.5326
 20
1205.7864
 30
0.0
 10
-168.5326
 20
1205.7864
 30
0.0
 10
-168.5326
 20
1205.7864
 30
0.0
 10
-168.5326
 20
1205.7864
 30
0.0
 10
-162.1826
 20
1205.7864
 30
0.0
 10
-162.1826
 20
1205.7864
 30
0.0
 10
-162.1826
 20
1205.7864
 30
0.0
 10
-162.1826
 20
1205.7864
 30
0.0
 10
-162.1826
 20
1212.136
 30
0.0
 10
-162.1826
 20
1212.136
 30
0.0
 10
-162.1826
 20
1212.136
 30
0.0
 10
-162.1826
 20
1212.136
 30
0.0
 10
-159.8828
 20
1212.136
 30
0.0
 10
-159.8828
 20
1212.136
 30
0.0
 10
-159.8828
 20
1212.136
 30
0.0
 10
-159.8828
 20
1212.136
 30
0.0
 10
-159.8828
 20
1205.7864
 30
0.0
 10
-159.8828
 20
1205.7864
 30
0.0
 10
-159.8828
 20
1205.7864
 30
0.0
 10
-159.8828
 20
1205.7864
 30
0.0
 10
-158.5327
 20
1205.7864
 30
0.0
 10
-158.5327
 20
1205.7864
 30
0.0
 10
-158.5327
 20
1205.7864
 30
0.0
 10
-158.5327
 20
1205.7864
 30
0.0
 10
-158.5327
 20
1203.4866
 30
0.0
 10
-158.5327
 20
1203.4866
 30
0.0
  0
SPLINE
  5
7A
330
1F
100
AcDbEntity
  8
Layer 1
 62
   240
370
     9
100
AcDbSpline
210
0.0
220
0.0
230
1.0
 70
    11
 71
     3
 72
    20
 73
    16
 74
     0
 42
0.000000001
 43
0.0000000001
 40
0.0
 40
0.0
 40
0.0
 40
0.0
 40
0.2
 40
0.2
 40
0.2
 40
0.2
 40
0.4
 40
0.4
 40
0.4
 40
0.4
 40
0.6
 40
0.6
 40
0.6
 40
0.6
 40
1.0
 40
1.0
 40
1.0
 40
1.0
 10
-172.3831
 20
1222.1361
 30
0.0
 10
-172.3831
 20
1222.1361
 30
0.0
 10
-174.6833
 20
1222.1361
 30
0.0
 10
-174.6833
 20
1222.1361
 30
0.0
 10
-174.6833
 20
1222.1361
 30
0.0
 10
-174.6833
 20
1222.1361
 30
0.0
 10
-174.6833
 20
1232.1364
 30
0.0
 10
-174.6833
 20
1232.1364
 30
0.0
 10
-174.6833
 20
1232.1364
 30
0.0
 10
-174.6833
 20
1232.1364
 30
0.0
 10
-172.3831
 20
1232.1364
 30
0.0
 10
-172.3831
 20
1232.1364
 30
0.0
 10
-172.3831
 20
1232.1364
 30
0.0
 10
-172.3831
 20
1232.1364
 30
0.0
 10
-172.3831
 20
1222.1361
 30
0.0
 10
-172.3831
 20
1222.1361
 30
0.0
  0
SPLINE
  5
7B
330
1F
100
AcDbEntity
  8
Layer 1
 62
   240
370
     9
100
AcDbSpline
210
0.0
220
0.0
230
1.0
 70
    11
 71
     3
 72
    20
 73
    16
 74
     0
 42
0.000000001
 43
0.0000000001
 40
0.0
 40
0.0
 40
0.0
 40
0.0
 40
0.2
 40
0.2
 40
0.2
 40
0.2
 40
0.4
 40
0.4
 40
0.4
 40
0.4
 40
0.6
 40
0.6
 40
0.6
 40
0.6
 40
1.0
 40
1.0
 40
1.0
 40
1.0
 10
-172.3831
 20
1202.1361
 30
0.0
 10
-172.3831
 20
1202.1361
 30
0.0
 10
-174.6833
 20
1202.1361
 30
0.0
 10
-174.6833
 20
1202.1361
 30
0.0
 10
-174.6833
 20
1202.1361
 30
0.0
 10
-174.6833
 20
1202.1361
 30
0.0
 10
-174.6833
 20
1212.1364
 30
0.0
 10
-174.6833
 20
1212.1364
 30
0.0
 10
-174.6833
 20
1212.1364
 30
0.0
 10
-174.6833
 20
1212.1364
 30
0.0
 10
-172.3831
 20
1212.1364
 30
0.0
 10
-172.3831
 20
1212.1364
 30
0.0
 10
-172.3831
 20
1212.1364
 30
0.0
 10
-172.3831
 20
1212.1364
 30
0.0
 10
-172.3831
 20
1202.1361
 30
0.0
 10
-172.3831
 20
1202.1361
 30
0.0
  0
SPLINE
  5
7C
330
1F
100
AcDbEntity
  8
Layer 1
 62
   240
370
     9
100
AcDbSpline
210
0.0
220
0.0
230
1.0
 70
    11
 71
     3
 72
    52
 73
    48
 74
     0
 42
0.000000001
 43
0.0000000001
 40
0.0
 40
0.0
 40
0.0
 40
0.0
 40
0.0769230769230769
 40
0.0769230769230769
 40
0.0769230769230769
 40
0.0769230769230769
 40
0.1538461538461539
 40
0.1538461538461539
 40
0.1538461538461539
 40
0.1538461538461539
 40
0.2307692307692308
 40
0.2307692307692308
 40
0.2307692307692308
 40
0.2307692307692308
 40
0.3076923076923077
 40
0.3076923076923077
 40
0.3076923076923077
 40
0.3076923076923077
 40
0.3846153846153846
 40
0.3846153846153846
 40
0.3846153846153846
 40
0.3846153846153846
 40
0.4615384615384616
 40
0.4615384615384616
 40
0.4615384615384616
 40
0.4615384615384616
 40
0.5384615384615384
 40
0.5384615384615384
 40
0.5384615384615384
 40
0.5384615384615384
 40
0.6153846153846154
 40
0.6153846153846154
 40
0.6153846153846154
 40
0.6153846153846154
 40
0.6923076923076923
 40
0.6923076923076923
 40
0.6923076923076923
 40
0.6923076923076923
 40
0.7692307692307693
 40
0.7692307692307693
 40
0.7692307692307693
 40
0.7692307692307693
 40
0.8461538461538461
 40
0.8461538461538461
 40
0.8461538461538461
 40
0.8461538461538461
 40
1.0
 40
1.0
 40
1.0
 40
1.0
 10
-178.5328
 20
1228.4869
 30
0.0
 10
-178.5328
 20
1228.4869
 30
0.0
 10
-184.8831
 20
1228.4869
 30
0.0
 10
-184.8831
 20
1228.4869
 30
0.0
 10
-184.8831
 20
1228.4869
 30
0.0
 10
-184.8831
 20
1228.4869
 30
0.0
 10
-184.8831
 20
1222.1361
 30
0.0
 10
-184.8831
 20
1222.1361
 30
0.0
 10
-184.8831
 20
1222.1361
 30
0.0
 10
-184.8831
 20
1222.1361
 30
0.0
 10
-187.1832
 20
1222.1361
 30
0.0
 10
-187.1832
 20
1222.1361
 30
0.0
 10
-187.1832
 20
1222.1361
 30
0.0
 10
-187.1832
 20
1222.1361
 30
0.0
 10
-187.1832
 20
1228.4869
 30
0.0
 10
-187.1832
 20
1228.4869
 30
0.0
 10
-187.1832
 20
1228.4869
 30
0.0
 10
-187.1832
 20
1228.4869
 30
0.0
 10
-188.533
 20
1228.4869
 30
0.0
 10
-188.533
 20
1228.4869
 30
0.0
 10
-188.533
 20
1228.4869
 30
0.0
 10
-188.533
 20
1228.4869
 30
0.0
 10
-188.533
 20
1230.7867
 30
0.0
 10
-188.533
 20
1230.7867
 30
0.0
 10
-188.533
 20
1230.7867
 30
0.0
 10
-188.533
 20
1230.7867
 30
0.0
 10
-187.1832
 20
1230.7867
 30
0.0
 10
-187.1832
 20
1230.7867
 30
0.0
 10
-187.1832
 20
1230.7867
 30
0.0
 10
-187.1832
 20
1230.7867
 30
0.0
 10
-187.1832
 20
1232.1364
 30
0.0
 10
-187.1832
 20
1232.1364
 30
0.0
 10
-187.1832
 20
1232.1364
 30
0.0
 10
-187.1832
 20
1232.1364
 30
0.0
 10
-184.8831
 20
1232.1364
 30
0.0
 10
-184.8831
 20
1232.1364
 30
0.0
 10
-184.8831
 20
1232.1364
 30
0.0
 10
-184.8831
 20
1232.1364
 30
0.0
 10
-184.8831
 20
1230.7867
 30
0.0
 10
-184.8831
 20
1230.7867
 30
0.0
 10
-184.8831
 20
1230.7867
 30
0.0
 10
-184.8831
 20
1230.7867
 30
0.0
 10
-178.5328
 20
1230.7867
 30
0.0
 10
-178.5328
 20
1230.7867
 30
0.0
 10
-178.5328
 20
1230.7867
 30
0.0
 10
-178.5328
 20
1230.7867
 30
0.0
 10
-178.5328
 20
1228.4869
 30
0.0
 10
-178.5328
 20
1228.4869
 30
0.0
  0
SPLINE
  5
7D
330
1F
100
AcDbEntity
  8
Layer 1
 62
   240
370
     9
100
AcDbSpline
210
0.0
220
0.0
230
1.0
 70
    11
 71
     3
 72
    20
 73
    16
 74
     0
 42
0.000000001
 43
0.0000000001
 40
0.0
 40
0.0
 40
0.0
 40
0.0
 40
0.2
 40
0.2
 40
0.2
 40
0.2
 40
0.4
 40
0.4
 40
0.4
 40
0.4
 40
0.6
 40
0.6
 40
0.6
 40
0.6
 40
1.0
 40
1.0
 40
1.0
 40
1.0
 10
-178.5328
 20
1215.9866
 30
0.0
 10
-178.5328
 20
1215.9866
 30
0.0
 10
-188.533
 20
1215.9866
 30
0.0
 10
-188.533
 20
1215.9866
 30
0.0
 10
-188.533
 20
1215.9866
 30
0.0
 10
-188.533
 20
1215.9866
 30
0.0
 10
-188.533
 20
1218.2867
 30
0.0
 10
-188.533
 20
1218.2867
 30
0.0
 10
-188.533
 20
1218.2867
 30
0.0
 10
-188.533
 20
1218.2867
 30
0.0
 10
-178.5328
 20
1218.2867
 30
0.0
 10
-178.5328
 20
1218.2867
 30
0.0
 10
-178.5328
 20
1218.2867
 30
0.0
 10
-178.5328
 20
1218.2867
 30
0.0
 10
-178.5328
 20
1215.9866
 30
0.0
 10
-178.5328
 20
1215.9866
 30
0.0
  0
SPLINE
  5
7E
330
1F
100
AcDbEntity
  8
Layer 1
 62
   240
370
     9
100
AcDbSpline
210
0.0
220
0.0
230
1.0
 70
    11
 71
     3
 72
    52
 73
    48
 74
     0
 42
0.000000001
 43
0.0000000001
 40
0.0
 40
0.0
 40
0.0
 40
0.0
 40
0.0769230769230769
 40
0.0769230769230769
 40
0.0769230769230769
 40
0.0769230769230769
 40
0.1538461538461539
 40
0.1538461538461539
 40
0.1538461538461539
 40
0.1538461538461539
 40
0.2307692307692308
 40
0.2307692307692308
 40
0.2307692307692308
 40
0.2307692307692308
 40
0.3076923076923077
 40
0.3076923076923077
 40
0.3076923076923077
 40
0.3076923076923077
 40
0.3846153846153846
 40
0.3846153846153846
 40
0.3846153846153846
 40
0.3846153846153846
 40
0.4615384615384616
 40
0.4615384615384616
 40
0.4615384615384616
 40
0.4615384615384616
 40
0.5384615384615384
 40
0.5384615384615384
 40
0.5384615384615384
 40
0.5384615384615384
 40
0.6153846153846154
 40
0.6153846153846154
 40
0.6153846153846154
 40
0.6153846153846154
 40
0.6923076923076923
 40
0.6923076923076923
 40
0.6923076923076923
 40
0.6923076923076923
 40
0.7692307692307693
 40
0.7692307692307693
 40
0.7692307692307693
 40
0.7692307692307693
 40
0.8461538461538461
 40
0.8461538461538461
 40
0.8461538461538461
 40
0.8461538461538461
 40
1.0
 40
1.0
 40
1.0
 40
1.0
 10
-178.5328
 20
1203.4866
 30
0.0
 10
-178.5328
 20
1203.4866
 30
0.0
 10
-184.8831
 20
1203.4866
 30
0.0
 10
-184.8831
 20
1203.4866
 30
0.0
 10
-184.8831
 20
1203.4866
 30
0.0
 10
-184.8831
 20
1203.4866
 30
0.0
 10
-184.8831
 20
1202.1361
 30
0.0
 10
-184.8831
 20
1202.1361
 30
0.0
 10
-184.8831
 20
1202.1361
 30
0.0
 10
-184.8831
 20
1202.1361
 30
0.0
 10
-187.1832
 20
1202.1361
 30
0.0
 10
-187.1832
 20
1202.1361
 30
0.0
 10
-187.1832
 20
1202.1361
 30
0.0
 10
-187.1832
 20
1202.1361
 30
0.0
 10
-187.1832
 20
1203.4866
 30
0.0
 10
-187.1832
 20
1203.4866
 30
0.0
 10
-187.1832
 20
1203.4866
 30
0.0
 10
-187.1832
 20
1203.4866
 30
0.0
 10
-188.533
 20
1203.4866
 30
0.0
 10
-188.533
 20
1203.4866
 30
0.0
 10
-188.533
 20
1203.4866
 30
0.0
 10
-188.533
 20
1203.4866
 30
0.0
 10
-188.533
 20
1205.7864
 30
0.0
 10
-188.533
 20
1205.7864
 30
0.0
 10
-188.533
 20
1205.7864
 30
0.0
 10
-188.533
 20
1205.7864
 30
0.0
 10
-187.1832
 20
1205.7864
 30
0.0
 10
-187.1832
 20
1205.7864
 30
0.0
 10
-187.1832
 20
1205.7864
 30
0.0
 10
-187.1832
 20
1205.7864
 30
0.0
 10
-187.1832
 20
1212.136
 30
0.0
 10
-187.1832
 20
1212.136
 30
0.0
 10
-187.1832
 20
1212.136
 30
0.0
 10
-187.1832
 20
1212.136
 30
0.0
 10
-184.8831
 20
1212.136
 30
0.0
 10
-184.8831
 20
1212.136
 30
0.0
 10
-184.8831
 20
1212.136
 30
0.0
 10
-184.8831
 20
1212.136
 30
0.0
 10
-184.8831
 20
1205.7864
 30
0.0
 10
-184.8831
 20
1205.7864
 30
0.0
 10
-184.8831
 20
1205.7864
 30
0.0
 10
-184.8831
 20
1205.7864
 30
0.0
 10
-178.5328
 20
1205.7864
 30
0.0
 10
-178.5328
 20
1205.7864
 30
0.0
 10
-178.5328
 20
1205.7864
 30
0.0
 10
-178.5328
 20
1205.7864
 30
0.0
 10
-178.5328
 20
1203.4866
 30
0.0
 10
-178.5328
 20
1203.4866
 30
0.0
  0
SPLINE
  5
7F
330
1F
100
AcDbEntity
  8
Layer 1
 62
   240
370
     9
100
AcDbSpline
210
0.0
220
0.0
230
1.0
 70
    11
 71
     3
 72
   148
 73
   144
 74
     0
 42
0.000000001
 43
0.0000000001
 40
0.0
 40
0.0
 40
0.0
 40
0.0
 40
0.027027027027027
 40
0.027027027027027
 40
0.027027027027027
 40
0.027027027027027
 40
0.0540540540540541
 40
0.0540540540540541
 40
0.0540540540540541
 40
0.0540540540540541
 40
0.0810810810810811
 40
0.0810810810810811
 40
0.0810810810810811
 40
0.0810810810810811
 40
0.1081081081081081
 40
0.1081081081081081
 40
0.1081081081081081
 40
0.1081081081081081
 40
0.1351351351351351
 40
0.1351351351351351
 40
0.1351351351351351
 40
0.1351351351351351
 40
0.1621621621621622
 40
0.1621621621621622
 40
0.1621621621621622
 40
0.1621621621621622
 40
0.1891891891891892
 40
0.1891891891891892
 40
0.1891891891891892
 40
0.1891891891891892
 40
0.2162162162162162
 40
0.2162162162162162
 40
0.2162162162162162
 40
0.2162162162162162
 40
0.2432432432432433
 40
0.2432432432432433
 40
0.2432432432432433
 40
0.2432432432432433
 40
0.2702702702702703
 40
0.2702702702702703
 40
0.2702702702702703
 40
0.2702702702702703
 40
0.2972972972972973
 40
0.2972972972972973
 40
0.2972972972972973
 40
0.2972972972972973
 40
0.3243243243243243
 40
0.3243243243243243
 40
0.3243243243243243
 40
0.3243243243243243
 40
0.3513513513513514
 40
0.3513513513513514
 40
0.3513513513513514
 40
0.3513513513513514
 40
0.3783783783783784
 40
0.3783783783783784
 40
0.3783783783783784
 40
0.3783783783783784
 40
0.4054054054054054
 40
0.4054054054054054
 40
0.4054054054054054
 40
0.4054054054054054
 40
0.4324324324324325
 40
0.4324324324324325
 40
0.4324324324324325
 40
0.4324324324324325
 40
0.4594594594594595
 40
0.4594594594594595
 40
0.4594594594594595
 40
0.4594594594594595
 40
0.4864864864864865
 40
0.4864864864864865
 40
0.4864864864864865
 40
0.4864864864864865
 40
0.5135135135135135
 40
0.5135135135135135
 40
0.5135135135135135
 40
0.5135135135135135
 40
0.5405405405405406
 40
0.5405405405405406
 40
0.5405405405405406
 40
0.5405405405405406
 40
0.5675675675675675
 40
0.5675675675675675
 40
0.5675675675675675
 40
0.5675675675675675
 40
0.5945945945945946
 40
0.5945945945945946
 40
0.5945945945945946
 40
0.5945945945945946
 40
0.6216216216216216
 40
0.6216216216216216
 40
0.6216216216216216
 40
0.6216216216216216
 40
0.6486486486486487
 40
0.6486486486486487
 40
0.6486486486486487
 40
0.6486486486486487
 40
0.6756756756756757
 40
0.6756756756756757
 40
0.6756756756756757
 40
0.6756756756756757
 40
0.7027027027027027
 40
0.7027027027027027
 40
0.7027027027027027
 40
0.7027027027027027
 40
0.7297297297297297
 40
0.7297297297297297
 40
0.7297297297297297
 40
0.7297297297297297
 40
0.7567567567567568
 40
0.7567567567567568
 40
0.7567567567567568
 40
0.7567567567567568
 40
0.7837837837837838
 40
0.7837837837837838
 40
0.7837837837837838
 40
0.7837837837837838
 40
0.8108108108108109
 40
0.8108108108108109
 40
0.8108108108108109
 40
0.8108108108108109
 40
0.8378378378378378
 40
0.8378378378378378
 40
0.8378378378378378
 40
0.8378378378378378
 40
0.8648648648648649
 40
0.8648648648648649
 40
0.8648648648648649
 40
0.8648648648648649
 40
0.8918918918918919
 40
0.8918918918918919
 40
0.8918918918918919
 40
0.8918918918918919
 40
0.918918918918919
 40
0.918918918918919
 40
0.918918918918919
 40
0.918918918918919
 40
0.9459459459459459
 40
0.9459459459459459
 40
0.9459459459459459
 40
0.9459459459459459
 40
1.0
 40
1.0
 40
1.0
 40
1.0
 10
-147.283
 20
1222.0374
 30
0.0
 10
-147.283
 20
1222.0374
 30
0.0
 10
-147.2827
 20
1232.2373
 30
0.0
 10
-147.2827
 20
1232.2373
 30
0.0
 10
-147.2827
 20
1232.2373
 30
0.0
 10
-147.2827
 20
1232.2373
 30
0.0
 10
-149.7327
 20
1232.2373
 30
0.0
 10
-149.7327
 20
1232.2373
 30
0.0
 10
-149.7327
 20
1232.2373
 30
0.0
 10
-149.7327
 20
1232.2373
 30
0.0
 10
-149.7327
 20
1240.9365
 30
0.0
 10
-149.7327
 20
1240.9365
 30
0.0
 10
-149.7327
 20
1240.9365
 30
0.0
 10
-149.7327
 20
1240.9365
 30
0.0
 10
-158.4329
 20
1240.9365
 30
0.0
 10
-158.4329
 20
1240.9365
 30
0.0
 10
-158.4329
 20
1240.9365
 30
0.0
 10
-158.4329
 20
1240.9365
 30
0.0
 10
-158.4329
 20
1243.3865
 30
0.0
 10
-158.4329
 20
1243.3865
 30
0.0
 10
-158.4329
 20
1243.3865
 30
0.0
 10
-158.4329
 20
1243.3865
 30
0.0
 10
-168.6328
 20
1243.3865
 30
0.0
 10
-168.6328
 20
1243.3865
 30
0.0
 10
-168.6328
 20
1243.3865
 30
0.0
 10
-168.6328
 20
1243.3865
 30
0.0
 10
-168.6328
 20
1240.9365
 30
0.0
 10
-168.6328
 20
1240.9365
 30
0.0
 10
-168.6328
 20
1240.9365
 30
0.0
 10
-168.6328
 20
1240.9365
 30
0.0
 10
-178.4329
 20
1240.9365
 30
0.0
 10
-178.4329
 20
1240.9365
 30
0.0
 10
-178.4329
 20
1240.9365
 30
0.0
 10
-178.4329
 20
1240.9365
 30
0.0
 10
-178.4329
 20
1243.3865
 30
0.0
 10
-178.4329
 20
1243.3865
 30
0.0
 10
-178.4329
 20
1243.3865
 30
0.0
 10
-178.4329
 20
1243.3865
 30
0.0
 10
-188.6328
 20
1243.3865
 30
0.0
 10
-188.6328
 20
1243.3865
 30
0.0
 10
-188.6328
 20
1243.3865
 30
0.0
 10
-188.6328
 20
1243.3865
 30
0.0
 10
-188.6328
 20
1240.9365
 30
0.0
 10
-188.6328
 20
1240.9365
 30
0.0
 10
-188.6328
 20
1240.9365
 30
0.0
 10
-188.6328
 20
1240.9365
 30
0.0
 10
-197.3323
 20
1240.9365
 30
0.0
 10
-197.3323
 20
1240.9365
 30
0.0
 10
-197.3323
 20
1240.9365
 30
0.0
 10
-197.3323
 20
1240.9365
 30
0.0
 10
-197.3323
 20
1232.2373
 30
0.0
 10
-197.3323
 20
1232.2373
 30
0.0
 10
-197.3323
 20
1232.2373
 30
0.0
 10
-197.3323
 20
1232.2373
 30
0.0
 10
-199.7823
 20
1232.2373
 30
0.0
 10
-199.7823
 20
1232.2373
 30
0.0
 10
-199.7823
 20
1232.2373
 30
0.0
 10
-199.7823
 20
1232.2373
 30
0.0
 10
-199.7823
 20
1222.0374
 30
0.0
 10
-199.7823
 20
1222.0374
 30
0.0
 10
-199.7823
 20
1222.0374
 30
0.0
 10
-199.7823
 20
1222.0374
 30
0.0
 10
-197.3323
 20
1222.0374
 30
0.0
 10
-197.3323
 20
1222.0374
 30
0.0
 10
-197.3323
 20
1222.0374
 30
0.0
 10
-197.3323
 20
1222.0374
 30
0.0
 10
-197.3323
 20
1212.2369
 30
0.0
 10
-197.3323
 20
1212.2369
 30
0.0
 10
-197.3323
 20
1212.2369
 30
0.0
 10
-197.3323
 20
1212.2369
 30
0.0
 10
-199.7823
 20
1212.2369
 30
0.0
 10
-199.7823
 20
1212.2369
 30
0.0
 10
-199.7823
 20
1212.2369
 30
0.0
 10
-199.7823
 20
1212.2369
 30
0.0
 10
-199.7827
 20
1202.0371
 30
0.0
 10
-199.7827
 20
1202.0371
 30
0.0
 10
-199.7827
 20
1202.0371
 30
0.0
 10
-199.7827
 20
1202.0371
 30
0.0
 10
-197.3323
 20
1202.0371
 30
0.0
 10
-197.3323
 20
1202.0371
 30
0.0
 10
-197.3323
 20
1202.0371
 30
0.0
 10
-197.3323
 20
1202.0371
 30
0.0
 10
-197.3323
 20
1193.3362
 30
0.0
 10
-197.3323
 20
1193.3362
 30
0.0
 10
-197.3323
 20
1193.3362
 30
0.0
 10
-197.3323
 20
1193.3362
 30
0.0
 10
-188.6328
 20
1193.3362
 30
0.0
 10
-188.6328
 20
1193.3362
 30
0.0
 10
-188.6328
 20
1193.3362
 30
0.0
 10
-188.6328
 20
1193.3362
 30
0.0
 10
-188.6328
 20
1190.8858
 30
0.0
 10
-188.6328
 20
1190.8858
 30
0.0
 10
-188.6328
 20
1190.8858
 30
0.0
 10
-188.6328
 20
1190.8858
 30
0.0
 10
-178.4329
 20
1190.8861
 30
0.0
 10
-178.4329
 20
1190.8861
 30
0.0
 10
-178.4329
 20
1190.8861
 30
0.0
 10
-178.4329
 20
1190.8861
 30
0.0
 10
-178.4329
 20
1193.3362
 30
0.0
 10
-178.4329
 20
1193.3362
 30
0.0
 10
-178.4329
 20
1193.3362
 30
0.0
 10
-178.4329
 20
1193.3362
 30
0.0
 10
-168.6328
 20
1193.3362
 30
0.0
 10
-168.6328
 20
1193.3362
 30
0.0
 10
-168.6328
 20
1193.3362
 30
0.0
 10
-168.6328
 20
1193.3362
 30
0.0
 10
-168.6328
 20
1190.8861
 30
0.0
 10
-168.6328
 20
1190.8861
 30
0.0
 10
-168.6328
 20
1190.8861
 30
0.0
 10
-168.6328
 20
1190.8861
 30
0.0
 10
-158.4329
 20
1190.8865
 30
0.0
 10
-158.4329
 20
1190.8865
 30
0.0
 10
-158.4329
 20
1190.8865
 30
0.0
 10
-158.4329
 20
1190.8865
 30
0.0
 10
-158.4329
 20
1193.3362
 30
0.0
 10
-158.4329
 20
1193.3362
 30
0.0
 10
-158.4329
 20
1193.3362
 30
0.0
 10
-158.4329
 20
1193.3362
 30
0.0
 10
-149.7327
 20
1193.3362
 30
0.0
 10
-149.7327
 20
1193.3362
 30
0.0
 10
-149.7327
 20
1193.3362
 30
0.0
 10
-149.7327
 20
1193.3362
 30
0.0
 10
-149.7327
 20
1202.0371
 30
0.0
 10
-149.7327
 20
1202.0371
 30
0.0
 10
-149.7327
 20
1202.0371
 30
0.0
 10
-149.7327
 20
1202.0371
 30
0.0
 10
-147.283
 20
1202.0371
 30
0.0
 10
-147.283
 20
1202.0371
 30
0.0
 10
-147.283
 20
1202.0371
 30
0.0
 10
-147.283
 20
1202.0371
 30
0.0
 10
-147.283
 20
1212.2369
 30
0.0
 10
-147.283
 20
1212.2369
 30
0.0
 10
-147.283
 20
1212.2369
 30
0.0
 10
-147.283
 20
1212.2369
 30
0.0
 10
-149.7327
 20
1212.2369
 30
0.0
 10
-149.7327
 20
1212.2369
 30
0.0
 10
-149.7327
 20
1212.2369
 30
0.0
 10
-149.7327
 20
1212.2369
 30
0.0
 10
-149.7327
 20
1222.0374
 30
0.0
 10
-149.7327
 20
1222.0374
 30
0.0
 10
-149.7327
 20
1222.0374
 30
0.0
 10
-149.7327
 20
1222.0374
 30
0.0
 10
-147.283
 20
1222.0374
 30
0.0
 10
-147.283
 20
1222.0374
 30
0.0
  0
SPLINE
  5
80
330
1F
100
AcDbEntity
  8
Layer 1
 62
   240
370
     9
100
AcDbSpline
210
0.0
220
0.0
230
1.0
 70
    11
 71
     3
 72
    20
 73
    16
 74
     0
 42
0.000000001
 43
0.0000000001
 40
0.0
 40
0.0
 40
0.0
 40
0.0
 40
0.2
 40
0.2
 40
0.2
 40
0.2
 40
0.4
 40
0.4
 40
0.4
 40
0.4
 40
0.6
 40
0.6
 40
0.6
 40
0.6
 40
1.0
 40
1.0
 40
1.0
 40
1.0
 10
-167.2915
 20
1007.996
 30
0.0
 10
-167.2915
 20
1007.996
 30
0.0
 10
-157.2913
 20
1007.996
 30
0.0
 10
-157.2913
 20
1007.996
 30
0.0
 10
-157.2913
 20
1007.996
 30
0.0
 10
-157.2913
 20
1007.996
 30
0.0
 10
-157.2913
 20
1005.6959
 30
0.0
 10
-157.2913
 20
1005.6959
 30
0.0
 10
-157.2913
 20
1005.6959
 30
0.0
 10
-157.2913
 20
1005.6959
 30
0.0
 10
-167.2915
 20
1005.6959
 30
0.0
 10
-167.2915
 20
1005.6959
 30
0.0
 10
-167.2915
 20
1005.6959
 30
0.0
 10
-167.2915
 20
1005.6959
 30
0.0
 10
-167.2915
 20
1007.996
 30
0.0
 10
-167.2915
 20
1007.996
 30
0.0
  0
SPLINE
  5
81
330
1F
100
AcDbEntity
  8
Layer 1
 62
   240
370
     9
100
AcDbSpline
210
0.0
220
0.0
230
1.0
 70
    11
 71
     3
 72
    20
 73
    16
 74
     0
 42
0.000000001
 43
0.0000000001
 40
0.0
 40
0.0
 40
0.0
 40
0.0
 40
0.2
 40
0.2
 40
0.2
 40
0.2
 40
0.4
 40
0.4
 40
0.4
 40
0.4
 40
0.6
 40
0.6
 40
0.6
 40
0.6
 40
1.0
 40
1.0
 40
1.0
 40
1.0
 10
-171.1407
 20
1038.1211
 30
0.0
 10
-171.1407
 20
1038.1211
 30
0.0
 10
-173.4411
 20
1038.1211
 30
0.0
 10
-173.4411
 20
1038.1211
 30
0.0
 10
-173.4411
 20
1038.1211
 30
0.0
 10
-173.4411
 20
1038.1211
 30
0.0
 10
-173.4411
 20
1048.1212
 30
0.0
 10
-173.4411
 20
1048.1212
 30
0.0
 10
-173.4411
 20
1048.1212
 30
0.0
 10
-173.4411
 20
1048.1212
 30
0.0
 10
-171.1407
 20
1048.1212
 30
0.0
 10
-171.1407
 20
1048.1212
 30
0.0
 10
-171.1407
 20
1048.1212
 30
0.0
 10
-171.1407
 20
1048.1212
 30
0.0
 10
-171.1407
 20
1038.1211
 30
0.0
 10
-171.1407
 20
1038.1211
 30
0.0
  0
SPLINE
  5
82
330
1F
100
AcDbEntity
  8
Layer 1
 62
   240
370
     9
100
AcDbSpline
210
0.0
220
0.0
230
1.0
 70
    11
 71
     3
 72
    20
 73
    16
 74
     0
 42
0.000000001
 43
0.0000000001
 40
0.0
 40
0.0
 40
0.0
 40
0.0
 40
0.2
 40
0.2
 40
0.2
 40
0.2
 40
0.4
 40
0.4
 40
0.4
 40
0.4
 40
0.6
 40
0.6
 40
0.6
 40
0.6
 40
1.0
 40
1.0
 40
1.0
 40
1.0
 10
-171.1407
 20
1018.1214
 30
0.0
 10
-171.1407
 20
1018.1214
 30
0.0
 10
-173.4411
 20
1018.1214
 30
0.0
 10
-173.4411
 20
1018.1214
 30
0.0
 10
-173.4411
 20
1018.1214
 30
0.0
 10
-173.4411
 20
1018.1214
 30
0.0
 10
-173.4411
 20
1028.1213
 30
0.0
 10
-173.4411
 20
1028.1213
 30
0.0
 10
-173.4411
 20
1028.1213
 30
0.0
 10
-173.4411
 20
1028.1213
 30
0.0
 10
-171.1407
 20
1028.1213
 30
0.0
 10
-171.1407
 20
1028.1213
 30
0.0
 10
-171.1407
 20
1028.1213
 30
0.0
 10
-171.1407
 20
1028.1213
 30
0.0
 10
-171.1407
 20
1018.1214
 30
0.0
 10
-171.1407
 20
1018.1214
 30
0.0
  0
SPLINE
  5
83
330
1F
100
AcDbEntity
  8
Layer 1
 62
   240
370
     9
100
AcDbSpline
210
0.0
220
0.0
230
1.0
 70
    11
 71
     3
 72
    20
 73
    16
 74
     0
 42
0.000000001
 43
0.0000000001
 40
0.0
 40
0.0
 40
0.0
 40
0.0
 40
0.2
 40
0.2
 40
0.2
 40
0.2
 40
0.4
 40
0.4
 40
0.4
 40
0.4
 40
0.6
 40
0.6
 40
0.6
 40
0.6
 40
1.0
 40
1.0
 40
1.0
 40
1.0
 10
-177.2917
 20
1005.6959
 30
0.0
 10
-177.2917
 20
1005.6959
 30
0.0
 10
-187.2919
 20
1005.6959
 30
0.0
 10
-187.2919
 20
1005.6959
 30
0.0
 10
-187.2919
 20
1005.6959
 30
0.0
 10
-187.2919
 20
1005.6959
 30
0.0
 10
-187.2919
 20
1007.996
 30
0.0
 10
-187.2919
 20
1007.996
 30
0.0
 10
-187.2919
 20
1007.996
 30
0.0
 10
-187.2919
 20
1007.996
 30
0.0
 10
-177.2917
 20
1007.996
 30
0.0
 10
-177.2917
 20
1007.996
 30
0.0
 10
-177.2917
 20
1007.996
 30
0.0
 10
-177.2917
 20
1007.996
 30
0.0
 10
-177.2917
 20
1005.6959
 30
0.0
 10
-177.2917
 20
1005.6959
 30
0.0
  0
SPLINE
  5
84
330
1F
100
AcDbEntity
  8
Layer 1
 62
   240
370
     9
100
AcDbSpline
210
0.0
220
0.0
230
1.0
 70
    11
 71
     3
 72
    20
 73
    16
 74
     0
 42
0.000000001
 43
0.0000000001
 40
0.0
 40
0.0
 40
0.0
 40
0.0
 40
0.2
 40
0.2
 40
0.2
 40
0.2
 40
0.4
 40
0.4
 40
0.4
 40
0.4
 40
0.6
 40
0.6
 40
0.6
 40
0.6
 40
1.0
 40
1.0
 40
1.0
 40
1.0
 10
-185.9411
 20
1028.1213
 30
0.0
 10
-185.9411
 20
1028.1213
 30
0.0
 10
-183.6406
 20
1028.1213
 30
0.0
 10
-183.6406
 20
1028.1213
 30
0.0
 10
-183.6406
 20
1028.1213
 30
0.0
 10
-183.6406
 20
1028.1213
 30
0.0
 10
-183.6406
 20
1018.1214
 30
0.0
 10
-183.6406
 20
1018.1214
 30
0.0
 10
-183.6406
 20
1018.1214
 30
0.0
 10
-183.6406
 20
1018.1214
 30
0.0
 10
-185.9411
 20
1018.1214
 30
0.0
 10
-185.9411
 20
1018.1214
 30
0.0
 10
-185.9411
 20
1018.1214
 30
0.0
 10
-185.9411
 20
1018.1214
 30
0.0
 10
-185.9411
 20
1028.1213
 30
0.0
 10
-185.9411
 20
1028.1213
 30
0.0
  0
SPLINE
  5
85
330
1F
100
AcDbEntity
  8
Layer 1
 62
   240
370
     9
100
AcDbSpline
210
0.0
220
0.0
230
1.0
 70
    11
 71
     3
 72
    20
 73
    16
 74
     0
 42
0.000000001
 43
0.0000000001
 40
0.0
 40
0.0
 40
0.0
 40
0.0
 40
0.2
 40
0.2
 40
0.2
 40
0.2
 40
0.4
 40
0.4
 40
0.4
 40
0.4
 40
0.6
 40
0.6
 40
0.6
 40
0.6
 40
1.0
 40
1.0
 40
1.0
 40
1.0
 10
-185.9411
 20
1048.1212
 30
0.0
 10
-185.9411
 20
1048.1212
 30
0.0
 10
-183.6406
 20
1048.1212
 30
0.0
 10
-183.6406
 20
1048.1212
 30
0.0
 10
-183.6406
 20
1048.1212
 30
0.0
 10
-183.6406
 20
1048.1212
 30
0.0
 10
-183.6406
 20
1038.1211
 30
0.0
 10
-183.6406
 20
1038.1211
 30
0.0
 10
-183.6406
 20
1038.1211
 30
0.0
 10
-183.6406
 20
1038.1211
 30
0.0
 10
-185.9411
 20
1038.1211
 30
0.0
 10
-185.9411
 20
1038.1211
 30
0.0
 10
-185.9411
 20
1038.1211
 30
0.0
 10
-185.9411
 20
1038.1211
 30
0.0
 10
-185.9411
 20
1048.1212
 30
0.0
 10
-185.9411
 20
1048.1212
 30
0.0
  0
SPLINE
  5
86
330
1F
100
AcDbEntity
  8
Layer 1
 62
   240
370
     9
100
AcDbSpline
210
0.0
220
0.0
230
1.0
 70
    11
 71
     3
 72
    20
 73
    16
 74
     0
 42
0.000000001
 43
0.0000000001
 40
0.0
 40
0.0
 40
0.0
 40
0.0
 40
0.2
 40
0.2
 40
0.2
 40
0.2
 40
0.4
 40
0.4
 40
0.4
 40
0.4
 40
0.6
 40
0.6
 40
0.6
 40
0.6
 40
1.0
 40
1.0
 40
1.0
 40
1.0
 10
-160.9408
 20
1028.1213
 30
0.0
 10
-160.9408
 20
1028.1213
 30
0.0
 10
-158.6403
 20
1028.1213
 30
0.0
 10
-158.6403
 20
1028.1213
 30
0.0
 10
-158.6403
 20
1028.1213
 30
0.0
 10
-158.6403
 20
1028.1213
 30
0.0
 10
-158.6403
 20
1018.1214
 30
0.0
 10
-158.6403
 20
1018.1214
 30
0.0
 10
-158.6403
 20
1018.1214
 30
0.0
 10
-158.6403
 20
1018.1214
 30
0.0
 10
-160.9408
 20
1018.1214
 30
0.0
 10
-160.9408
 20
1018.1214
 30
0.0
 10
-160.9408
 20
1018.1214
 30
0.0
 10
-160.9408
 20
1018.1214
 30
0.0
 10
-160.9408
 20
1028.1213
 30
0.0
 10
-160.9408
 20
1028.1213
 30
0.0
  0
SPLINE
  5
87
330
1F
100
AcDbEntity
  8
Layer 1
 62
   240
370
     9
100
AcDbSpline
210
0.0
220
0.0
230
1.0
 70
    11
 71
     3
 72
    20
 73
    16
 74
     0
 42
0.000000001
 43
0.0000000001
 40
0.0
 40
0.0
 40
0.0
 40
0.0
 40
0.2
 40
0.2
 40
0.2
 40
0.2
 40
0.4
 40
0.4
 40
0.4
 40
0.4
 40
0.6
 40
0.6
 40
0.6
 40
0.6
 40
1.0
 40
1.0
 40
1.0
 40
1.0
 10
-160.9408
 20
1048.1212
 30
0.0
 10
-160.9408
 20
1048.1212
 30
0.0
 10
-158.6403
 20
1048.1212
 30
0.0
 10
-158.6403
 20
1048.1212
 30
0.0
 10
-158.6403
 20
1048.1212
 30
0.0
 10
-158.6403
 20
1048.1212
 30
0.0
 10
-158.6403
 20
1038.1211
 30
0.0
 10
-158.6403
 20
1038.1211
 30
0.0
 10
-158.6403
 20
1038.1211
 30
0.0
 10
-158.6403
 20
1038.1211
 30
0.0
 10
-160.9408
 20
1038.1211
 30
0.0
 10
-160.9408
 20
1038.1211
 30
0.0
 10
-160.9408
 20
1038.1211
 30
0.0
 10
-160.9408
 20
1038.1211
 30
0.0
 10
-160.9408
 20
1048.1212
 30
0.0
 10
-160.9408
 20
1048.1212
 30
0.0
  0
SPLINE
  5
88
330
1F
100
AcDbEntity
  8
Layer 1
 62
   240
370
     9
100
AcDbSpline
210
0.0
220
0.0
230
1.0
 70
    11
 71
     3
 72
   108
 73
   104
 74
     0
 42
0.000000001
 43
0.0000000001
 40
0.0
 40
0.0
 40
0.0
 40
0.0
 40
0.037037037037037
 40
0.037037037037037
 40
0.037037037037037
 40
0.037037037037037
 40
0.0740740740740741
 40
0.0740740740740741
 40
0.0740740740740741
 40
0.0740740740740741
 40
0.1111111111111111
 40
0.1111111111111111
 40
0.1111111111111111
 40
0.1111111111111111
 40
0.1481481481481481
 40
0.1481481481481481
 40
0.1481481481481481
 40
0.1481481481481481
 40
0.1851851851851852
 40
0.1851851851851852
 40
0.1851851851851852
 40
0.1851851851851852
 40
0.2222222222222222
 40
0.2222222222222222
 40
0.2222222222222222
 40
0.2222222222222222
 40
0.2592592592592592
 40
0.2592592592592592
 40
0.2592592592592592
 40
0.2592592592592592
 40
0.2962962962962963
 40
0.2962962962962963
 40
0.2962962962962963
 40
0.2962962962962963
 40
0.3333333333333333
 40
0.3333333333333333
 40
0.3333333333333333
 40
0.3333333333333333
 40
0.3703703703703703
 40
0.3703703703703703
 40
0.3703703703703703
 40
0.3703703703703703
 40
0.4074074074074074
 40
0.4074074074074074
 40
0.4074074074074074
 40
0.4074074074074074
 40
0.4444444444444444
 40
0.4444444444444444
 40
0.4444444444444444
 40
0.4444444444444444
 40
0.4814814814814815
 40
0.4814814814814815
 40
0.4814814814814815
 40
0.4814814814814815
 40
0.5185185185185185
 40
0.5185185185185185
 40
0.5185185185185185
 40
0.5185185185185185
 40
0.5555555555555556
 40
0.5555555555555556
 40
0.5555555555555556
 40
0.5555555555555556
 40
0.5925925925925926
 40
0.5925925925925926
 40
0.5925925925925926
 40
0.5925925925925926
 40
0.6296296296296297
 40
0.6296296296296297
 40
0.6296296296296297
 40
0.6296296296296297
 40
0.6666666666666666
 40
0.6666666666666666
 40
0.6666666666666666
 40
0.6666666666666666
 40
0.7037037037037037
 40
0.7037037037037037
 40
0.7037037037037037
 40
0.7037037037037037
 40
0.7407407407407407
 40
0.7407407407407407
 40
0.7407407407407407
 40
0.7407407407407407
 40
0.7777777777777778
 40
0.7777777777777778
 40
0.7777777777777778
 40
0.7777777777777778
 40
0.8148148148148148
 40
0.8148148148148148
 40
0.8148148148148148
 40
0.8148148148148148
 40
0.8518518518518519
 40
0.8518518518518519
 40
0.8518518518518519
 40
0.8518518518518519
 40
0.8888888888888888
 40
0.8888888888888888
 40
0.8888888888888888
 40
0.8888888888888888
 40
0.9259259259259259
 40
0.9259259259259259
 40
0.9259259259259259
 40
0.9259259259259259
 40
1.0
 40
1.0
 40
1.0
 40
1.0
 10
-148.4987
 20
1018.1214
 30
0.0
 10
-148.4987
 20
1018.1214
 30
0.0
 10
-146.049
 20
1018.1214
 30
0.0
 10
-146.049
 20
1018.1214
 30
0.0
 10
-146.049
 20
1018.1214
 30
0.0
 10
-146.049
 20
1018.1214
 30
0.0
 10
-146.0493
 20
1028.1216
 30
0.0
 10
-146.0493
 20
1028.1216
 30
0.0
 10
-146.0493
 20
1028.1216
 30
0.0
 10
-146.0493
 20
1028.1216
 30
0.0
 10
-148.4983
 20
1028.1216
 30
0.0
 10
-148.4983
 20
1028.1216
 30
0.0
 10
-148.4983
 20
1028.1216
 30
0.0
 10
-148.4983
 20
1028.1216
 30
0.0
 10
-148.4983
 20
1038.1211
 30
0.0
 10
-148.4983
 20
1038.1211
 30
0.0
 10
-148.4983
 20
1038.1211
 30
0.0
 10
-148.4983
 20
1038.1211
 30
0.0
 10
-146.0493
 20
1038.1211
 30
0.0
 10
-146.0493
 20
1038.1211
 30
0.0
 10
-146.0493
 20
1038.1211
 30
0.0
 10
-146.0493
 20
1038.1211
 30
0.0
 10
-146.0493
 20
1048.1215
 30
0.0
 10
-146.0493
 20
1048.1215
 30
0.0
 10
-146.0493
 20
1048.1215
 30
0.0
 10
-146.0493
 20
1048.1215
 30
0.0
 10
-148.4983
 20
1048.1215
 30
0.0
 10
-148.4983
 20
1048.1215
 30
0.0
 10
-148.4983
 20
1048.1215
 30
0.0
 10
-148.4983
 20
1048.1215
 30
0.0
 10
-148.4983
 20
1058.1214
 30
0.0
 10
-148.4983
 20
1058.1214
 30
0.0
 10
-148.4983
 20
1058.1214
 30
0.0
 10
-148.4983
 20
1058.1214
 30
0.0
 10
-196.0983
 20
1058.1214
 30
0.0
 10
-196.0983
 20
1058.1214
 30
0.0
 10
-196.0983
 20
1058.1214
 30
0.0
 10
-196.0983
 20
1058.1214
 30
0.0
 10
-196.0983
 20
1048.1215
 30
0.0
 10
-196.0983
 20
1048.1215
 30
0.0
 10
-196.0983
 20
1048.1215
 30
0.0
 10
-196.0983
 20
1048.1215
 30
0.0
 10
-198.5483
 20
1048.1215
 30
0.0
 10
-198.5483
 20
1048.1215
 30
0.0
 10
-198.5483
 20
1048.1215
 30
0.0
 10
-198.5483
 20
1048.1215
 30
0.0
 10
-198.5487
 20
1038.1211
 30
0.0
 10
-198.5487
 20
1038.1211
 30
0.0
 10
-198.5487
 20
1038.1211
 30
0.0
 10
-198.5487
 20
1038.1211
 30
0.0
 10
-196.0983
 20
1038.1211
 30
0.0
 10
-196.0983
 20
1038.1211
 30
0.0
 10
-196.0983
 20
1038.1211
 30
0.0
 10
-196.0983
 20
1038.1211
 30
0.0
 10
-196.0983
 20
1028.1216
 30
0.0
 10
-196.0983
 20
1028.1216
 30
0.0
 10
-196.0983
 20
1028.1216
 30
0.0
 10
-196.0983
 20
1028.1216
 30
0.0
 10
-198.5487
 20
1028.1216
 30
0.0
 10
-198.5487
 20
1028.1216
 30
0.0
 10
-198.5487
 20
1028.1216
 30
0.0
 10
-198.5487
 20
1028.1216
 30
0.0
 10
-198.5487
 20
1018.1214
 30
0.0
 10
-198.5487
 20
1018.1214
 30
0.0
 10
-198.5487
 20
1018.1214
 30
0.0
 10
-198.5487
 20
1018.1214
 30
0.0
 10
-196.0986
 20
1018.1214
 30
0.0
 10
-196.0986
 20
1018.1214
 30
0.0
 10
-196.0986
 20
1018.1214
 30
0.0
 10
-196.0986
 20
1018.1214
 30
0.0
 10
-196.0986
 20
1008.1212
 30
0.0
 10
-196.0986
 20
1008.1212
 30
0.0
 10
-196.0986
 20
1008.1212
 30
0.0
 10
-196.0986
 20
1008.1212
 30
0.0
 10
-198.5487
 20
1008.1212
 30
0.0
 10
-198.5487
 20
1008.1212
 30
0.0
 10
-198.5487
 20
1008.1212
 30
0.0
 10
-198.5487
 20
1008.1212
 30
0.0
 10
-198.549
 20
998.121
 30
0.0
 10
-198.549
 20
998.121
 30
0.0
 10
-198.549
 20
998.121
 30
0.0
 10
-198.549
 20
998.121
 30
0.0
 10
-196.0983
 20
998.121
 30
0.0
 10
-196.0983
 20
998.121
 30
0.0
 10
-196.0983
 20
998.121
 30
0.0
 10
-196.0983
 20
998.121
 30
0.0
 10
-196.0983
 20
988.1212
 30
0.0
 10
-196.0983
 20
988.1212
 30
0.0
 10
-196.0983
 20
988.1212
 30
0.0
 10
-196.0983
 20
988.1212
 30
0.0
 10
-198.549
 20
988.1212
 30
0.0
 10
-198.549
 20
988.1212
 30
0.0
 10
-198.549
 20
988.1212
 30
0.0
 10
-198.549
 20
988.1212
 30
0.0
 10
-198.549
 20
975.3101
 30
0.0
 10
-198.549
 20
975.3101
 30
0.0
 10
-198.549
 20
975.3101
 30
0.0
 10
-198.549
 20
975.3101
 30
0.0
 10
-148.4987
 20
1004.2065
 30
0.0
 10
-148.4987
 20
1004.2065
 30
0.0
 10
-148.4987
 20
1004.2065
 30
0.0
 10
-148.4987
 20
1004.2065
 30
0.0
 10
-148.4987
 20
1018.1214
 30
0.0
 10
-148.4987
 20
1018.1214
 30
0.0
  0
SPLINE
  5
89
330
1F
100
AcDbEntity
  8
Layer 1
 62
   240
370
     9
100
AcDbSpline
210
0.0
220
0.0
230
1.0
 70
    11
 71
     3
 72
    20
 73
    16
 74
     0
 42
0.000000001
 43
0.0000000001
 40
0.0
 40
0.0
 40
0.0
 40
0.0
 40
0.2
 40
0.2
 40
0.2
 40
0.2
 40
0.4
 40
0.4
 40
0.4
 40
0.4
 40
0.6
 40
0.6
 40
0.6
 40
0.6
 40
1.0
 40
1.0
 40
1.0
 40
1.0
 10
-84.2811
 20
1005.6959
 30
0.0
 10
-84.2811
 20
1005.6959
 30
0.0
 10
-94.2813
 20
1005.6959
 30
0.0
 10
-94.2813
 20
1005.6959
 30
0.0
 10
-94.2813
 20
1005.6959
 30
0.0
 10
-94.2813
 20
1005.6959
 30
0.0
 10
-94.2813
 20
1007.996
 30
0.0
 10
-94.2813
 20
1007.996
 30
0.0
 10
-94.2813
 20
1007.996
 30
0.0
 10
-94.2813
 20
1007.996
 30
0.0
 10
-84.2811
 20
1007.996
 30
0.0
 10
-84.2811
 20
1007.996
 30
0.0
 10
-84.2811
 20
1007.996
 30
0.0
 10
-84.2811
 20
1007.996
 30
0.0
 10
-84.2811
 20
1005.6959
 30
0.0
 10
-84.2811
 20
1005.6959
 30
0.0
  0
SPLINE
  5
8A
330
1F
100
AcDbEntity
  8
Layer 1
 62
   240
370
     9
100
AcDbSpline
210
0.0
220
0.0
230
1.0
 70
    11
 71
     3
 72
    20
 73
    16
 74
     0
 42
0.000000001
 43
0.0000000001
 40
0.0
 40
0.0
 40
0.0
 40
0.0
 40
0.2
 40
0.2
 40
0.2
 40
0.2
 40
0.4
 40
0.4
 40
0.4
 40
0.4
 40
0.6
 40
0.6
 40
0.6
 40
0.6
 40
1.0
 40
1.0
 40
1.0
 40
1.0
 10
-98.1319
 20
1038.1211
 30
0.0
 10
-98.1319
 20
1038.1211
 30
0.0
 10
-100.4324
 20
1038.1211
 30
0.0
 10
-100.4324
 20
1038.1211
 30
0.0
 10
-100.4324
 20
1038.1211
 30
0.0
 10
-100.4324
 20
1038.1211
 30
0.0
 10
-100.4324
 20
1048.1212
 30
0.0
 10
-100.4324
 20
1048.1212
 30
0.0
 10
-100.4324
 20
1048.1212
 30
0.0
 10
-100.4324
 20
1048.1212
 30
0.0
 10
-98.1319
 20
1048.1212
 30
0.0
 10
-98.1319
 20
1048.1212
 30
0.0
 10
-98.1319
 20
1048.1212
 30
0.0
 10
-98.1319
 20
1048.1212
 30
0.0
 10
-98.1319
 20
1038.1211
 30
0.0
 10
-98.1319
 20
1038.1211
 30
0.0
  0
SPLINE
  5
8B
330
1F
100
AcDbEntity
  8
Layer 1
 62
   240
370
     9
100
AcDbSpline
210
0.0
220
0.0
230
1.0
 70
    11
 71
     3
 72
    20
 73
    16
 74
     0
 42
0.000000001
 43
0.0000000001
 40
0.0
 40
0.0
 40
0.0
 40
0.0
 40
0.2
 40
0.2
 40
0.2
 40
0.2
 40
0.4
 40
0.4
 40
0.4
 40
0.4
 40
0.6
 40
0.6
 40
0.6
 40
0.6
 40
1.0
 40
1.0
 40
1.0
 40
1.0
 10
-98.1319
 20
1018.1211
 30
0.0
 10
-98.1319
 20
1018.1211
 30
0.0
 10
-100.4324
 20
1018.1211
 30
0.0
 10
-100.4324
 20
1018.1211
 30
0.0
 10
-100.4324
 20
1018.1211
 30
0.0
 10
-100.4324
 20
1018.1211
 30
0.0
 10
-100.4324
 20
1028.1213
 30
0.0
 10
-100.4324
 20
1028.1213
 30
0.0
 10
-100.4324
 20
1028.1213
 30
0.0
 10
-100.4324
 20
1028.1213
 30
0.0
 10
-98.1319
 20
1028.1213
 30
0.0
 10
-98.1319
 20
1028.1213
 30
0.0
 10
-98.1319
 20
1028.1213
 30
0.0
 10
-98.1319
 20
1028.1213
 30
0.0
 10
-98.1319
 20
1018.1211
 30
0.0
 10
-98.1319
 20
1018.1211
 30
0.0
  0
SPLINE
  5
8C
330
1F
100
AcDbEntity
  8
Layer 1
 62
   240
370
     9
100
AcDbSpline
210
0.0
220
0.0
230
1.0
 70
    11
 71
     3
 72
    20
 73
    16
 74
     0
 42
0.000000001
 43
0.0000000001
 40
0.0
 40
0.0
 40
0.0
 40
0.0
 40
0.2
 40
0.2
 40
0.2
 40
0.2
 40
0.4
 40
0.4
 40
0.4
 40
0.4
 40
0.6
 40
0.6
 40
0.6
 40
0.6
 40
1.0
 40
1.0
 40
1.0
 40
1.0
 10
-104.2815
 20
1005.6959
 30
0.0
 10
-104.2815
 20
1005.6959
 30
0.0
 10
-114.2817
 20
1005.6959
 30
0.0
 10
-114.2817
 20
1005.6959
 30
0.0
 10
-114.2817
 20
1005.6959
 30
0.0
 10
-114.2817
 20
1005.6959
 30
0.0
 10
-114.2817
 20
1007.996
 30
0.0
 10
-114.2817
 20
1007.996
 30
0.0
 10
-114.2817
 20
1007.996
 30
0.0
 10
-114.2817
 20
1007.996
 30
0.0
 10
-104.2815
 20
1007.996
 30
0.0
 10
-104.2815
 20
1007.996
 30
0.0
 10
-104.2815
 20
1007.996
 30
0.0
 10
-104.2815
 20
1007.996
 30
0.0
 10
-104.2815
 20
1005.6959
 30
0.0
 10
-104.2815
 20
1005.6959
 30
0.0
  0
SPLINE
  5
8D
330
1F
100
AcDbEntity
  8
Layer 1
 62
   240
370
     9
100
AcDbSpline
210
0.0
220
0.0
230
1.0
 70
    11
 71
     3
 72
    20
 73
    16
 74
     0
 42
0.000000001
 43
0.0000000001
 40
0.0
 40
0.0
 40
0.0
 40
0.0
 40
0.2
 40
0.2
 40
0.2
 40
0.2
 40
0.4
 40
0.4
 40
0.4
 40
0.4
 40
0.6
 40
0.6
 40
0.6
 40
0.6
 40
1.0
 40
1.0
 40
1.0
 40
1.0
 10
-112.9323
 20
1028.1213
 30
0.0
 10
-112.9323
 20
1028.1213
 30
0.0
 10
-110.6319
 20
1028.1213
 30
0.0
 10
-110.6319
 20
1028.1213
 30
0.0
 10
-110.6319
 20
1028.1213
 30
0.0
 10
-110.6319
 20
1028.1213
 30
0.0
 10
-110.6319
 20
1018.1211
 30
0.0
 10
-110.6319
 20
1018.1211
 30
0.0
 10
-110.6319
 20
1018.1211
 30
0.0
 10
-110.6319
 20
1018.1211
 30
0.0
 10
-112.9323
 20
1018.1211
 30
0.0
 10
-112.9323
 20
1018.1211
 30
0.0
 10
-112.9323
 20
1018.1211
 30
0.0
 10
-112.9323
 20
1018.1211
 30
0.0
 10
-112.9323
 20
1028.1213
 30
0.0
 10
-112.9323
 20
1028.1213
 30
0.0
  0
SPLINE
  5
8E
330
1F
100
AcDbEntity
  8
Layer 1
 62
   240
370
     9
100
AcDbSpline
210
0.0
220
0.0
230
1.0
 70
    11
 71
     3
 72
    20
 73
    16
 74
     0
 42
0.000000001
 43
0.0000000001
 40
0.0
 40
0.0
 40
0.0
 40
0.0
 40
0.2
 40
0.2
 40
0.2
 40
0.2
 40
0.4
 40
0.4
 40
0.4
 40
0.4
 40
0.6
 40
0.6
 40
0.6
 40
0.6
 40
1.0
 40
1.0
 40
1.0
 40
1.0
 10
-112.9323
 20
1048.1212
 30
0.0
 10
-112.9323
 20
1048.1212
 30
0.0
 10
-110.6319
 20
1048.1212
 30
0.0
 10
-110.6319
 20
1048.1212
 30
0.0
 10
-110.6319
 20
1048.1212
 30
0.0
 10
-110.6319
 20
1048.1212
 30
0.0
 10
-110.6319
 20
1038.1211
 30
0.0
 10
-110.6319
 20
1038.1211
 30
0.0
 10
-110.6319
 20
1038.1211
 30
0.0
 10
-110.6319
 20
1038.1211
 30
0.0
 10
-112.9323
 20
1038.1211
 30
0.0
 10
-112.9323
 20
1038.1211
 30
0.0
 10
-112.9323
 20
1038.1211
 30
0.0
 10
-112.9323
 20
1038.1211
 30
0.0
 10
-112.9323
 20
1048.1212
 30
0.0
 10
-112.9323
 20
1048.1212
 30
0.0
  0
SPLINE
  5
8F
330
1F
100
AcDbEntity
  8
Layer 1
 62
   240
370
     9
100
AcDbSpline
210
0.0
220
0.0
230
1.0
 70
    11
 71
     3
 72
    20
 73
    16
 74
     0
 42
0.000000001
 43
0.0000000001
 40
0.0
 40
0.0
 40
0.0
 40
0.0
 40
0.2
 40
0.2
 40
0.2
 40
0.2
 40
0.4
 40
0.4
 40
0.4
 40
0.4
 40
0.6
 40
0.6
 40
0.6
 40
0.6
 40
1.0
 40
1.0
 40
1.0
 40
1.0
 10
-87.932
 20
1028.1213
 30
0.0
 10
-87.932
 20
1028.1213
 30
0.0
 10
-85.6316
 20
1028.1213
 30
0.0
 10
-85.6316
 20
1028.1213
 30
0.0
 10
-85.6316
 20
1028.1213
 30
0.0
 10
-85.6316
 20
1028.1213
 30
0.0
 10
-85.6316
 20
1018.1211
 30
0.0
 10
-85.6316
 20
1018.1211
 30
0.0
 10
-85.6316
 20
1018.1211
 30
0.0
 10
-85.6316
 20
1018.1211
 30
0.0
 10
-87.932
 20
1018.1211
 30
0.0
 10
-87.932
 20
1018.1211
 30
0.0
 10
-87.932
 20
1018.1211
 30
0.0
 10
-87.932
 20
1018.1211
 30
0.0
 10
-87.932
 20
1028.1213
 30
0.0
 10
-87.932
 20
1028.1213
 30
0.0
  0
SPLINE
  5
90
330
1F
100
AcDbEntity
  8
Layer 1
 62
   240
370
     9
100
AcDbSpline
210
0.0
220
0.0
230
1.0
 70
    11
 71
     3
 72
    20
 73
    16
 74
     0
 42
0.000000001
 43
0.0000000001
 40
0.0
 40
0.0
 40
0.0
 40
0.0
 40
0.2
 40
0.2
 40
0.2
 40
0.2
 40
0.4
 40
0.4
 40
0.4
 40
0.4
 40
0.6
 40
0.6
 40
0.6
 40
0.6
 40
1.0
 40
1.0
 40
1.0
 40
1.0
 10
-87.932
 20
1048.1212
 30
0.0
 10
-87.932
 20
1048.1212
 30
0.0
 10
-85.6316
 20
1048.1212
 30
0.0
 10
-85.6316
 20
1048.1212
 30
0.0
 10
-85.6316
 20
1048.1212
 30
0.0
 10
-85.6316
 20
1048.1212
 30
0.0
 10
-85.6316
 20
1038.1211
 30
0.0
 10
-85.6316
 20
1038.1211
 30
0.0
 10
-85.6316
 20
1038.1211
 30
0.0
 10
-85.6316
 20
1038.1211
 30
0.0
 10
-87.932
 20
1038.1211
 30
0.0
 10
-87.932
 20
1038.1211
 30
0.0
 10
-87.932
 20
1038.1211
 30
0.0
 10
-87.932
 20
1038.1211
 30
0.0
 10
-87.932
 20
1048.1212
 30
0.0
 10
-87.932
 20
1048.1212
 30
0.0
  0
SPLINE
  5
91
330
1F
100
AcDbEntity
  8
Layer 1
 62
   240
370
     9
100
AcDbSpline
210
0.0
220
0.0
230
1.0
 70
    11
 71
     3
 72
   108
 73
   104
 74
     0
 42
0.000000001
 43
0.0000000001
 40
0.0
 40
0.0
 40
0.0
 40
0.0
 40
0.037037037037037
 40
0.037037037037037
 40
0.037037037037037
 40
0.037037037037037
 40
0.0740740740740741
 40
0.0740740740740741
 40
0.0740740740740741
 40
0.0740740740740741
 40
0.1111111111111111
 40
0.1111111111111111
 40
0.1111111111111111
 40
0.1111111111111111
 40
0.1481481481481481
 40
0.1481481481481481
 40
0.1481481481481481
 40
0.1481481481481481
 40
0.1851851851851852
 40
0.1851851851851852
 40
0.1851851851851852
 40
0.1851851851851852
 40
0.2222222222222222
 40
0.2222222222222222
 40
0.2222222222222222
 40
0.2222222222222222
 40
0.2592592592592592
 40
0.2592592592592592
 40
0.2592592592592592
 40
0.2592592592592592
 40
0.2962962962962963
 40
0.2962962962962963
 40
0.2962962962962963
 40
0.2962962962962963
 40
0.3333333333333333
 40
0.3333333333333333
 40
0.3333333333333333
 40
0.3333333333333333
 40
0.3703703703703703
 40
0.3703703703703703
 40
0.3703703703703703
 40
0.3703703703703703
 40
0.4074074074074074
 40
0.4074074074074074
 40
0.4074074074074074
 40
0.4074074074074074
 40
0.4444444444444444
 40
0.4444444444444444
 40
0.4444444444444444
 40
0.4444444444444444
 40
0.4814814814814815
 40
0.4814814814814815
 40
0.4814814814814815
 40
0.4814814814814815
 40
0.5185185185185185
 40
0.5185185185185185
 40
0.5185185185185185
 40
0.5185185185185185
 40
0.5555555555555556
 40
0.5555555555555556
 40
0.5555555555555556
 40
0.5555555555555556
 40
0.5925925925925926
 40
0.5925925925925926
 40
0.5925925925925926
 40
0.5925925925925926
 40
0.6296296296296297
 40
0.6296296296296297
 40
0.6296296296296297
 40
0.6296296296296297
 40
0.6666666666666666
 40
0.6666666666666666
 40
0.6666666666666666
 40
0.6666666666666666
 40
0.7037037037037037
 40
0.7037037037037037
 40
0.7037037037037037
 40
0.7037037037037037
 40
0.7407407407407407
 40
0.7407407407407407
 40
0.7407407407407407
 40
0.7407407407407407
 40
0.7777777777777778
 40
0.7777777777777778
 40
0.7777777777777778
 40
0.7777777777777778
 40
0.8148148148148148
 40
0.8148148148148148
 40
0.8148148148148148
 40
0.8148148148148148
 40
0.8518518518518519
 40
0.8518518518518519
 40
0.8518518518518519
 40
0.8518518518518519
 40
0.8888888888888888
 40
0.8888888888888888
 40
0.8888888888888888
 40
0.8888888888888888
 40
0.9259259259259259
 40
0.9259259259259259
 40
0.9259259259259259
 40
0.9259259259259259
 40
1.0
 40
1.0
 40
1.0
 40
1.0
 10
-75.4744
 20
988.1212
 30
0.0
 10
-75.4744
 20
988.1212
 30
0.0
 10
-75.4744
 20
998.121
 30
0.0
 10
-75.4744
 20
998.121
 30
0.0
 10
-75.4744
 20
998.121
 30
0.0
 10
-75.4744
 20
998.121
 30
0.0
 10
-73.024
 20
998.121
 30
0.0
 10
-73.024
 20
998.121
 30
0.0
 10
-73.024
 20
998.121
 30
0.0
 10
-73.024
 20
998.121
 30
0.0
 10
-73.024
 20
1008.1212
 30
0.0
 10
-73.024
 20
1008.1212
 30
0.0
 10
-73.024
 20
1008.1212
 30
0.0
 10
-73.024
 20
1008.1212
 30
0.0
 10
-75.474
 20
1008.1212
 30
0.0
 10
-75.474
 20
1008.1212
 30
0.0
 10
-75.474
 20
1008.1212
 30
0.0
 10
-75.474
 20
1008.1212
 30
0.0
 10
-75.474
 20
1018.1211
 30
0.0
 10
-75.474
 20
1018.1211
 30
0.0
 10
-75.474
 20
1018.1211
 30
0.0
 10
-75.474
 20
1018.1211
 30
0.0
 10
-73.024
 20
1018.1211
 30
0.0
 10
-73.024
 20
1018.1211
 30
0.0
 10
-73.024
 20
1018.1211
 30
0.0
 10
-73.024
 20
1018.1211
 30
0.0
 10
-73.024
 20
1028.1216
 30
0.0
 10
-73.024
 20
1028.1216
 30
0.0
 10
-73.024
 20
1028.1216
 30
0.0
 10
-73.024
 20
1028.1216
 30
0.0
 10
-75.4744
 20
1028.1216
 30
0.0
 10
-75.4744
 20
1028.1216
 30
0.0
 10
-75.4744
 20
1028.1216
 30
0.0
 10
-75.4744
 20
1028.1216
 30
0.0
 10
-75.4744
 20
1038.1211
 30
0.0
 10
-75.4744
 20
1038.1211
 30
0.0
 10
-75.4744
 20
1038.1211
 30
0.0
 10
-75.4744
 20
1038.1211
 30
0.0
 10
-73.0243
 20
1038.1211
 30
0.0
 10
-73.0243
 20
1038.1211
 30
0.0
 10
-73.0243
 20
1038.1211
 30
0.0
 10
-73.0243
 20
1038.1211
 30
0.0
 10
-73.0243
 20
1048.1215
 30
0.0
 10
-73.0243
 20
1048.1215
 30
0.0
 10
-73.0243
 20
1048.1215
 30
0.0
 10
-73.0243
 20
1048.1215
 30
0.0
 10
-75.4744
 20
1048.1215
 30
0.0
 10
-75.4744
 20
1048.1215
 30
0.0
 10
-75.4744
 20
1048.1215
 30
0.0
 10
-75.4744
 20
1048.1215
 30
0.0
 10
-75.4744
 20
1058.1214
 30
0.0
 10
-75.4744
 20
1058.1214
 30
0.0
 10
-75.4744
 20
1058.1214
 30
0.0
 10
-75.4744
 20
1058.1214
 30
0.0
 10
-123.0743
 20
1058.1214
 30
0.0
 10
-123.0743
 20
1058.1214
 30
0.0
 10
-123.0743
 20
1058.1214
 30
0.0
 10
-123.0743
 20
1058.1214
 30
0.0
 10
-123.0743
 20
1048.1215
 30
0.0
 10
-123.0743
 20
1048.1215
 30
0.0
 10
-123.0743
 20
1048.1215
 30
0.0
 10
-123.0743
 20
1048.1215
 30
0.0
 10
-125.5233
 20
1048.1215
 30
0.0
 10
-125.5233
 20
1048.1215
 30
0.0
 10
-125.5233
 20
1048.1215
 30
0.0
 10
-125.5233
 20
1048.1215
 30
0.0
 10
-125.5237
 20
1038.1211
 30
0.0
 10
-125.5237
 20
1038.1211
 30
0.0
 10
-125.5237
 20
1038.1211
 30
0.0
 10
-125.5237
 20
1038.1211
 30
0.0
 10
-123.0743
 20
1038.1211
 30
0.0
 10
-123.0743
 20
1038.1211
 30
0.0
 10
-123.0743
 20
1038.1211
 30
0.0
 10
-123.0743
 20
1038.1211
 30
0.0
 10
-123.0743
 20
1028.1216
 30
0.0
 10
-123.0743
 20
1028.1216
 30
0.0
 10
-123.0743
 20
1028.1216
 30
0.0
 10
-123.0743
 20
1028.1216
 30
0.0
 10
-125.5237
 20
1028.1216
 30
0.0
 10
-125.5237
 20
1028.1216
 30
0.0
 10
-125.5237
 20
1028.1216
 30
0.0
 10
-125.5237
 20
1028.1216
 30
0.0
 10
-125.5237
 20
1018.1211
 30
0.0
 10
-125.5237
 20
1018.1211
 30
0.0
 10
-125.5237
 20
1018.1211
 30
0.0
 10
-125.5237
 20
1018.1211
 30
0.0
 10
-123.074
 20
1018.1211
 30
0.0
 10
-123.074
 20
1018.1211
 30
0.0
 10
-123.074
 20
1018.1211
 30
0.0
 10
-123.074
 20
1018.1211
 30
0.0
 10
-123.074
 20
1004.2065
 30
0.0
 10
-123.074
 20
1004.2065
 30
0.0
 10
-123.074
 20
1004.2065
 30
0.0
 10
-123.074
 20
1004.2065
 30
0.0
 10
-73.0236
 20
975.3101
 30
0.0
 10
-73.0236
 20
975.3101
 30
0.0
 10
-73.0236
 20
975.3101
 30
0.0
 10
-73.0236
 20
975.3101
 30
0.0
 10
-73.024
 20
988.1212
 30
0.0
 10
-73.024
 20
988.1212
 30
0.0
 10
-73.024
 20
988.1212
 30
0.0
 10
-73.024
 20
988.1212
 30
0.0
 10
-75.4744
 20
988.1212
 30
0.0
 10
-75.4744
 20
988.1212
 30
0.0
  0
SPLINE
  5
92
330
1F
100
AcDbEntity
  8
Layer 1
 62
   240
370
     9
100
AcDbSpline
210
0.0
220
0.0
230
1.0
 70
    11
 71
     3
 72
    20
 73
    16
 74
     0
 42
0.000000001
 43
0.0000000001
 40
0.0
 40
0.0
 40
0.0
 40
0.0
 40
0.2
 40
0.2
 40
0.2
 40
0.2
 40
0.4
 40
0.4
 40
0.4
 40
0.4
 40
0.6
 40
0.6
 40
0.6
 40
0.6
 40
1.0
 40
1.0
 40
1.0
 40
1.0
 10
-159.3113
 20
1151.1909
 30
0.0
 10
-159.3113
 20
1151.1909
 30
0.0
 10
-161.6118
 20
1151.1909
 30
0.0
 10
-161.6118
 20
1151.1909
 30
0.0
 10
-161.6118
 20
1151.1909
 30
0.0
 10
-161.6118
 20
1151.1909
 30
0.0
 10
-161.6118
 20
1161.1911
 30
0.0
 10
-161.6118
 20
1161.1911
 30
0.0
 10
-161.6118
 20
1161.1911
 30
0.0
 10
-161.6118
 20
1161.1911
 30
0.0
 10
-159.3113
 20
1161.1911
 30
0.0
 10
-159.3113
 20
1161.1911
 30
0.0
 10
-159.3113
 20
1161.1911
 30
0.0
 10
-159.3113
 20
1161.1911
 30
0.0
 10
-159.3113
 20
1151.1909
 30
0.0
 10
-159.3113
 20
1151.1909
 30
0.0
  0
SPLINE
  5
93
330
1F
100
AcDbEntity
  8
Layer 1
 62
   240
370
     9
100
AcDbSpline
210
0.0
220
0.0
230
1.0
 70
    11
 71
     3
 72
    20
 73
    16
 74
     0
 42
0.000000001
 43
0.0000000001
 40
0.0
 40
0.0
 40
0.0
 40
0.0
 40
0.2
 40
0.2
 40
0.2
 40
0.2
 40
0.4
 40
0.4
 40
0.4
 40
0.4
 40
0.6
 40
0.6
 40
0.6
 40
0.6
 40
1.0
 40
1.0
 40
1.0
 40
1.0
 10
-159.3113
 20
1131.1908
 30
0.0
 10
-159.3113
 20
1131.1908
 30
0.0
 10
-161.6118
 20
1131.1908
 30
0.0
 10
-161.6118
 20
1131.1908
 30
0.0
 10
-161.6118
 20
1131.1908
 30
0.0
 10
-161.6118
 20
1131.1908
 30
0.0
 10
-161.6118
 20
1141.191
 30
0.0
 10
-161.6118
 20
1141.191
 30
0.0
 10
-161.6118
 20
1141.191
 30
0.0
 10
-161.6118
 20
1141.191
 30
0.0
 10
-159.3113
 20
1141.191
 30
0.0
 10
-159.3113
 20
1141.191
 30
0.0
 10
-159.3113
 20
1141.191
 30
0.0
 10
-159.3113
 20
1141.191
 30
0.0
 10
-159.3113
 20
1131.1908
 30
0.0
 10
-159.3113
 20
1131.1908
 30
0.0
  0
SPLINE
  5
94
330
1F
100
AcDbEntity
  8
Layer 1
 62
   240
370
     9
100
AcDbSpline
210
0.0
220
0.0
230
1.0
 70
    11
 71
     3
 72
    20
 73
    16
 74
     0
 42
0.000000001
 43
0.0000000001
 40
0.0
 40
0.0
 40
0.0
 40
0.0
 40
0.2
 40
0.2
 40
0.2
 40
0.2
 40
0.4
 40
0.4
 40
0.4
 40
0.4
 40
0.6
 40
0.6
 40
0.6
 40
0.6
 40
1.0
 40
1.0
 40
1.0
 40
1.0
 10
-171.8113
 20
1151.1909
 30
0.0
 10
-171.8113
 20
1151.1909
 30
0.0
 10
-174.1118
 20
1151.1909
 30
0.0
 10
-174.1118
 20
1151.1909
 30
0.0
 10
-174.1118
 20
1151.1909
 30
0.0
 10
-174.1118
 20
1151.1909
 30
0.0
 10
-174.1118
 20
1161.1911
 30
0.0
 10
-174.1118
 20
1161.1911
 30
0.0
 10
-174.1118
 20
1161.1911
 30
0.0
 10
-174.1118
 20
1161.1911
 30
0.0
 10
-171.8113
 20
1161.1911
 30
0.0
 10
-171.8113
 20
1161.1911
 30
0.0
 10
-171.8113
 20
1161.1911
 30
0.0
 10
-171.8113
 20
1161.1911
 30
0.0
 10
-171.8113
 20
1151.1909
 30
0.0
 10
-171.8113
 20
1151.1909
 30
0.0
  0
SPLINE
  5
95
330
1F
100
AcDbEntity
  8
Layer 1
 62
   240
370
     9
100
AcDbSpline
210
0.0
220
0.0
230
1.0
 70
    11
 71
     3
 72
    20
 73
    16
 74
     0
 42
0.000000001
 43
0.0000000001
 40
0.0
 40
0.0
 40
0.0
 40
0.0
 40
0.2
 40
0.2
 40
0.2
 40
0.2
 40
0.4
 40
0.4
 40
0.4
 40
0.4
 40
0.6
 40
0.6
 40
0.6
 40
0.6
 40
1.0
 40
1.0
 40
1.0
 40
1.0
 10
-171.8113
 20
1131.1908
 30
0.0
 10
-171.8113
 20
1131.1908
 30
0.0
 10
-174.1118
 20
1131.1908
 30
0.0
 10
-174.1118
 20
1131.1908
 30
0.0
 10
-174.1118
 20
1131.1908
 30
0.0
 10
-174.1118
 20
1131.1908
 30
0.0
 10
-174.1118
 20
1141.191
 30
0.0
 10
-174.1118
 20
1141.191
 30
0.0
 10
-174.1118
 20
1141.191
 30
0.0
 10
-174.1118
 20
1141.191
 30
0.0
 10
-171.8113
 20
1141.191
 30
0.0
 10
-171.8113
 20
1141.191
 30
0.0
 10
-171.8113
 20
1141.191
 30
0.0
 10
-171.8113
 20
1141.191
 30
0.0
 10
-171.8113
 20
1131.1908
 30
0.0
 10
-171.8113
 20
1131.1908
 30
0.0
  0
SPLINE
  5
96
330
1F
100
AcDbEntity
  8
Layer 1
 62
   240
370
     9
100
AcDbSpline
210
0.0
220
0.0
230
1.0
 70
    11
 71
     3
 72
    20
 73
    16
 74
     0
 42
0.000000001
 43
0.0000000001
 40
0.0
 40
0.0
 40
0.0
 40
0.0
 40
0.2
 40
0.2
 40
0.2
 40
0.2
 40
0.4
 40
0.4
 40
0.4
 40
0.4
 40
0.6
 40
0.6
 40
0.6
 40
0.6
 40
1.0
 40
1.0
 40
1.0
 40
1.0
 10
-184.3116
 20
1151.1909
 30
0.0
 10
-184.3116
 20
1151.1909
 30
0.0
 10
-186.6121
 20
1151.1909
 30
0.0
 10
-186.6121
 20
1151.1909
 30
0.0
 10
-186.6121
 20
1151.1909
 30
0.0
 10
-186.6121
 20
1151.1909
 30
0.0
 10
-186.6121
 20
1161.1911
 30
0.0
 10
-186.6121
 20
1161.1911
 30
0.0
 10
-186.6121
 20
1161.1911
 30
0.0
 10
-186.6121
 20
1161.1911
 30
0.0
 10
-184.3116
 20
1161.1911
 30
0.0
 10
-184.3116
 20
1161.1911
 30
0.0
 10
-184.3116
 20
1161.1911
 30
0.0
 10
-184.3116
 20
1161.1911
 30
0.0
 10
-184.3116
 20
1151.1909
 30
0.0
 10
-184.3116
 20
1151.1909
 30
0.0
  0
SPLINE
  5
97
330
1F
100
AcDbEntity
  8
Layer 1
 62
   240
370
     9
100
AcDbSpline
210
0.0
220
0.0
230
1.0
 70
    11
 71
     3
 72
    20
 73
    16
 74
     0
 42
0.000000001
 43
0.0000000001
 40
0.0
 40
0.0
 40
0.0
 40
0.0
 40
0.2
 40
0.2
 40
0.2
 40
0.2
 40
0.4
 40
0.4
 40
0.4
 40
0.4
 40
0.6
 40
0.6
 40
0.6
 40
0.6
 40
1.0
 40
1.0
 40
1.0
 40
1.0
 10
-184.3116
 20
1131.1908
 30
0.0
 10
-184.3116
 20
1131.1908
 30
0.0
 10
-186.6121
 20
1131.1908
 30
0.0
 10
-186.6121
 20
1131.1908
 30
0.0
 10
-186.6121
 20
1131.1908
 30
0.0
 10
-186.6121
 20
1131.1908
 30
0.0
 10
-186.6121
 20
1141.191
 30
0.0
 10
-186.6121
 20
1141.191
 30
0.0
 10
-186.6121
 20
1141.191
 30
0.0
 10
-186.6121
 20
1141.191
 30
0.0
 10
-184.3116
 20
1141.191
 30
0.0
 10
-184.3116
 20
1141.191
 30
0.0
 10
-184.3116
 20
1141.191
 30
0.0
 10
-184.3116
 20
1141.191
 30
0.0
 10
-184.3116
 20
1131.1908
 30
0.0
 10
-184.3116
 20
1131.1908
 30
0.0
  0
SPLINE
  5
98
330
1F
100
AcDbEntity
  8
Layer 1
 62
   240
370
     9
100
AcDbSpline
210
0.0
220
0.0
230
1.0
 70
    11
 71
     3
 72
   116
 73
   112
 74
     0
 42
0.000000001
 43
0.0000000001
 40
0.0
 40
0.0
 40
0.0
 40
0.0
 40
0.0344827586206897
 40
0.0344827586206897
 40
0.0344827586206897
 40
0.0344827586206897
 40
0.0689655172413793
 40
0.0689655172413793
 40
0.0689655172413793
 40
0.0689655172413793
 40
0.103448275862069
 40
0.103448275862069
 40
0.103448275862069
 40
0.103448275862069
 40
0.1379310344827586
 40
0.1379310344827586
 40
0.1379310344827586
 40
0.1379310344827586
 40
0.1724137931034483
 40
0.1724137931034483
 40
0.1724137931034483
 40
0.1724137931034483
 40
0.2068965517241379
 40
0.2068965517241379
 40
0.2068965517241379
 40
0.2068965517241379
 40
0.2413793103448276
 40
0.2413793103448276
 40
0.2413793103448276
 40
0.2413793103448276
 40
0.2758620689655172
 40
0.2758620689655172
 40
0.2758620689655172
 40
0.2758620689655172
 40
0.3103448275862069
 40
0.3103448275862069
 40
0.3103448275862069
 40
0.3103448275862069
 40
0.3448275862068966
 40
0.3448275862068966
 40
0.3448275862068966
 40
0.3448275862068966
 40
0.3793103448275862
 40
0.3793103448275862
 40
0.3793103448275862
 40
0.3793103448275862
 40
0.4137931034482759
 40
0.4137931034482759
 40
0.4137931034482759
 40
0.4137931034482759
 40
0.4482758620689655
 40
0.4482758620689655
 40
0.4482758620689655
 40
0.4482758620689655
 40
0.4827586206896552
 40
0.4827586206896552
 40
0.4827586206896552
 40
0.4827586206896552
 40
0.5172413793103449
 40
0.5172413793103449
 40
0.5172413793103449
 40
0.5172413793103449
 40
0.5517241379310345
 40
0.5517241379310345
 40
0.5517241379310345
 40
0.5517241379310345
 40
0.5862068965517241
 40
0.5862068965517241
 40
0.5862068965517241
 40
0.5862068965517241
 40
0.6206896551724138
 40
0.6206896551724138
 40
0.6206896551724138
 40
0.6206896551724138
 40
0.6551724137931034
 40
0.6551724137931034
 40
0.6551724137931034
 40
0.6551724137931034
 40
0.6896551724137931
 40
0.6896551724137931
 40
0.6896551724137931
 40
0.6896551724137931
 40
0.7241379310344828
 40
0.7241379310344828
 40
0.7241379310344828
 40
0.7241379310344828
 40
0.7586206896551724
 40
0.7586206896551724
 40
0.7586206896551724
 40
0.7586206896551724
 40
0.7931034482758621
 40
0.7931034482758621
 40
0.7931034482758621
 40
0.7931034482758621
 40
0.8275862068965517
 40
0.8275862068965517
 40
0.8275862068965517
 40
0.8275862068965517
 40
0.8620689655172413
 40
0.8620689655172413
 40
0.8620689655172413
 40
0.8620689655172413
 40
0.896551724137931
 40
0.896551724137931
 40
0.896551724137931
 40
0.896551724137931
 40
0.9310344827586207
 40
0.9310344827586207
 40
0.9310344827586207
 40
0.9310344827586207
 40
1.0
 40
1.0
 40
1.0
 40
1.0
 10
-149.1619
 20
1131.2907
 30
0.0
 10
-149.1619
 20
1131.2907
 30
0.0
 10
-149.1619
 20
1141.0908
 30
0.0
 10
-149.1619
 20
1141.0908
 30
0.0
 10
-149.1619
 20
1141.0908
 30
0.0
 10
-149.1619
 20
1141.0908
 30
0.0
 10
-146.7119
 20
1141.0908
 30
0.0
 10
-146.7119
 20
1141.0908
 30
0.0
 10
-146.7119
 20
1141.0908
 30
0.0
 10
-146.7119
 20
1141.0908
 30
0.0
 10
-146.7119
 20
1151.2907
 30
0.0
 10
-146.7119
 20
1151.2907
 30
0.0
 10
-146.7119
 20
1151.2907
 30
0.0
 10
-146.7119
 20
1151.2907
 30
0.0
 10
-149.1619
 20
1151.2907
 30
0.0
 10
-149.1619
 20
1151.2907
 30
0.0
 10
-149.1619
 20
1151.2907
 30
0.0
 10
-149.1619
 20
1151.2907
 30
0.0
 10
-149.1619
 20
1161.0909
 30
0.0
 10
-149.1619
 20
1161.0909
 30
0.0
 10
-149.1619
 20
1161.0909
 30
0.0
 10
-149.1619
 20
1161.0909
 30
0.0
 10
-146.7119
 20
1161.0909
 30
0.0
 10
-146.7119
 20
1161.0909
 30
0.0
 10
-146.7119
 20
1161.0909
 30
0.0
 10
-146.7119
 20
1161.0909
 30
0.0
 10
-146.7119
 20
1171.1909
 30
0.0
 10
-146.7119
 20
1171.1909
 30
0.0
 10
-146.7119
 20
1171.1909
 30
0.0
 10
-146.7119
 20
1171.1909
 30
0.0
 10
-199.2112
 20
1171.1909
 30
0.0
 10
-199.2112
 20
1171.1909
 30
0.0
 10
-199.2112
 20
1171.1909
 30
0.0
 10
-199.2112
 20
1171.1909
 30
0.0
 10
-199.2112
 20
1161.0909
 30
0.0
 10
-199.2112
 20
1161.0909
 30
0.0
 10
-199.2112
 20
1161.0909
 30
0.0
 10
-199.2112
 20
1161.0909
 30
0.0
 10
-196.7615
 20
1161.0909
 30
0.0
 10
-196.7615
 20
1161.0909
 30
0.0
 10
-196.7615
 20
1161.0909
 30
0.0
 10
-196.7615
 20
1161.0909
 30
0.0
 10
-196.7615
 20
1151.2907
 30
0.0
 10
-196.7615
 20
1151.2907
 30
0.0
 10
-196.7615
 20
1151.2907
 30
0.0
 10
-196.7615
 20
1151.2907
 30
0.0
 10
-199.2115
 20
1151.2907
 30
0.0
 10
-199.2115
 20
1151.2907
 30
0.0
 10
-199.2115
 20
1151.2907
 30
0.0
 10
-199.2115
 20
1151.2907
 30
0.0
 10
-199.2115
 20
1141.0908
 30
0.0
 10
-199.2115
 20
1141.0908
 30
0.0
 10
-199.2115
 20
1141.0908
 30
0.0
 10
-199.2115
 20
1141.0908
 30
0.0
 10
-196.7615
 20
1141.0908
 30
0.0
 10
-196.7615
 20
1141.0908
 30
0.0
 10
-196.7615
 20
1141.0908
 30
0.0
 10
-196.7615
 20
1141.0908
 30
0.0
 10
-196.7615
 20
1131.2907
 30
0.0
 10
-196.7615
 20
1131.2907
 30
0.0
 10
-196.7615
 20
1131.2907
 30
0.0
 10
-196.7615
 20
1131.2907
 30
0.0
 10
-199.2115
 20
1131.2907
 30
0.0
 10
-199.2115
 20
1131.2907
 30
0.0
 10
-199.2115
 20
1131.2907
 30
0.0
 10
-199.2115
 20
1131.2907
 30
0.0
 10
-199.2115
 20
1118.6912
 30
0.0
 10
-199.2115
 20
1118.6912
 30
0.0
 10
-199.2115
 20
1118.6912
 30
0.0
 10
-199.2115
 20
1118.6912
 30
0.0
 10
-187.9625
 20
1118.6912
 30
0.0
 10
-187.9625
 20
1118.6912
 30
0.0
 10
-187.9625
 20
1118.6912
 30
0.0
 10
-187.9625
 20
1118.6912
 30
0.0
 10
-187.9625
 20
1121.1405
 30
0.0
 10
-187.9625
 20
1121.1405
 30
0.0
 10
-187.9625
 20
1121.1405
 30
0.0
 10
-187.9625
 20
1121.1405
 30
0.0
 10
-177.9623
 20
1121.1405
 30
0.0
 10
-177.9623
 20
1121.1405
 30
0.0
 10
-177.9623
 20
1121.1405
 30
0.0
 10
-177.9623
 20
1121.1405
 30
0.0
 10
-177.9623
 20
1118.6912
 30
0.0
 10
-177.9623
 20
1118.6912
 30
0.0
 10
-177.9623
 20
1118.6912
 30
0.0
 10
-177.9623
 20
1118.6912
 30
0.0
 10
-167.9621
 20
1118.6909
 30
0.0
 10
-167.9621
 20
1118.6909
 30
0.0
 10
-167.9621
 20
1118.6909
 30
0.0
 10
-167.9621
 20
1118.6909
 30
0.0
 10
-167.9621
 20
1121.1405
 30
0.0
 10
-167.9621
 20
1121.1405
 30
0.0
 10
-167.9621
 20
1121.1405
 30
0.0
 10
-167.9621
 20
1121.1405
 30
0.0
 10
-157.9623
 20
1121.1405
 30
0.0
 10
-157.9623
 20
1121.1405
 30
0.0
 10
-157.9623
 20
1121.1405
 30
0.0
 10
-157.9623
 20
1121.1405
 30
0.0
 10
-157.9623
 20
1118.6909
 30
0.0
 10
-157.9623
 20
1118.6909
 30
0.0
 10
-157.9623
 20
1118.6909
 30
0.0
 10
-157.9623
 20
1118.6909
 30
0.0
 10
-146.7122
 20
1118.6909
 30
0.0
 10
-146.7122
 20
1118.6909
 30
0.0
 10
-146.7122
 20
1118.6909
 30
0.0
 10
-146.7122
 20
1118.6909
 30
0.0
 10
-146.7122
 20
1131.2907
 30
0.0
 10
-146.7122
 20
1131.2907
 30
0.0
 10
-146.7122
 20
1131.2907
 30
0.0
 10
-146.7122
 20
1131.2907
 30
0.0
 10
-149.1619
 20
1131.2907
 30
0.0
 10
-149.1619
 20
1131.2907
 30
0.0
  0
SPLINE
  5
99
330
1F
100
AcDbEntity
  8
Layer 1
 62
   240
370
     9
100
AcDbSpline
210
0.0
220
0.0
230
1.0
 70
    11
 71
     3
 72
    20
 73
    16
 74
     0
 42
0.000000001
 43
0.0000000001
 40
0.0
 40
0.0
 40
0.0
 40
0.0
 40
0.2
 40
0.2
 40
0.2
 40
0.2
 40
0.4
 40
0.4
 40
0.4
 40
0.4
 40
0.6
 40
0.6
 40
0.6
 40
0.6
 40
1.0
 40
1.0
 40
1.0
 40
1.0
 10
-10.4403
 20
1005.6952
 30
0.0
 10
-10.4403
 20
1005.6952
 30
0.0
 10
-20.4404
 20
1005.6952
 30
0.0
 10
-20.4404
 20
1005.6952
 30
0.0
 10
-20.4404
 20
1005.6952
 30
0.0
 10
-20.4404
 20
1005.6952
 30
0.0
 10
-20.4404
 20
1007.9953
 30
0.0
 10
-20.4404
 20
1007.9953
 30
0.0
 10
-20.4404
 20
1007.9953
 30
0.0
 10
-20.4404
 20
1007.9953
 30
0.0
 10
-10.4403
 20
1007.9953
 30
0.0
 10
-10.4403
 20
1007.9953
 30
0.0
 10
-10.4403
 20
1007.9953
 30
0.0
 10
-10.4403
 20
1007.9953
 30
0.0
 10
-10.4403
 20
1005.6952
 30
0.0
 10
-10.4403
 20
1005.6952
 30
0.0
  0
SPLINE
  5
9A
330
1F
100
AcDbEntity
  8
Layer 1
 62
   240
370
     9
100
AcDbSpline
210
0.0
220
0.0
230
1.0
 70
    11
 71
     3
 72
    20
 73
    16
 74
     0
 42
0.000000001
 43
0.0000000001
 40
0.0
 40
0.0
 40
0.0
 40
0.0
 40
0.2
 40
0.2
 40
0.2
 40
0.2
 40
0.4
 40
0.4
 40
0.4
 40
0.4
 40
0.6
 40
0.6
 40
0.6
 40
0.6
 40
1.0
 40
1.0
 40
1.0
 40
1.0
 10
-24.2896
 20
1038.1204
 30
0.0
 10
-24.2896
 20
1038.1204
 30
0.0
 10
-26.5901
 20
1038.1204
 30
0.0
 10
-26.5901
 20
1038.1204
 30
0.0
 10
-26.5901
 20
1038.1204
 30
0.0
 10
-26.5901
 20
1038.1204
 30
0.0
 10
-26.5901
 20
1048.1205
 30
0.0
 10
-26.5901
 20
1048.1205
 30
0.0
 10
-26.5901
 20
1048.1205
 30
0.0
 10
-26.5901
 20
1048.1205
 30
0.0
 10
-24.2896
 20
1048.1205
 30
0.0
 10
-24.2896
 20
1048.1205
 30
0.0
 10
-24.2896
 20
1048.1205
 30
0.0
 10
-24.2896
 20
1048.1205
 30
0.0
 10
-24.2896
 20
1038.1204
 30
0.0
 10
-24.2896
 20
1038.1204
 30
0.0
  0
SPLINE
  5
9B
330
1F
100
AcDbEntity
  8
Layer 1
 62
   240
370
     9
100
AcDbSpline
210
0.0
220
0.0
230
1.0
 70
    11
 71
     3
 72
    20
 73
    16
 74
     0
 42
0.000000001
 43
0.0000000001
 40
0.0
 40
0.0
 40
0.0
 40
0.0
 40
0.2
 40
0.2
 40
0.2
 40
0.2
 40
0.4
 40
0.4
 40
0.4
 40
0.4
 40
0.6
 40
0.6
 40
0.6
 40
0.6
 40
1.0
 40
1.0
 40
1.0
 40
1.0
 10
-24.2896
 20
1018.1204
 30
0.0
 10
-24.2896
 20
1018.1204
 30
0.0
 10
-26.5901
 20
1018.1204
 30
0.0
 10
-26.5901
 20
1018.1204
 30
0.0
 10
-26.5901
 20
1018.1204
 30
0.0
 10
-26.5901
 20
1018.1204
 30
0.0
 10
-26.5901
 20
1028.1206
 30
0.0
 10
-26.5901
 20
1028.1206
 30
0.0
 10
-26.5901
 20
1028.1206
 30
0.0
 10
-26.5901
 20
1028.1206
 30
0.0
 10
-24.2896
 20
1028.1206
 30
0.0
 10
-24.2896
 20
1028.1206
 30
0.0
 10
-24.2896
 20
1028.1206
 30
0.0
 10
-24.2896
 20
1028.1206
 30
0.0
 10
-24.2896
 20
1018.1204
 30
0.0
 10
-24.2896
 20
1018.1204
 30
0.0
  0
SPLINE
  5
9C
330
1F
100
AcDbEntity
  8
Layer 1
 62
   240
370
     9
100
AcDbSpline
210
0.0
220
0.0
230
1.0
 70
    11
 71
     3
 72
    20
 73
    16
 74
     0
 42
0.000000001
 43
0.0000000001
 40
0.0
 40
0.0
 40
0.0
 40
0.0
 40
0.2
 40
0.2
 40
0.2
 40
0.2
 40
0.4
 40
0.4
 40
0.4
 40
0.4
 40
0.6
 40
0.6
 40
0.6
 40
0.6
 40
1.0
 40
1.0
 40
1.0
 40
1.0
 10
-30.4403
 20
1005.6952
 30
0.0
 10
-30.4403
 20
1005.6952
 30
0.0
 10
-40.4405
 20
1005.6952
 30
0.0
 10
-40.4405
 20
1005.6952
 30
0.0
 10
-40.4405
 20
1005.6952
 30
0.0
 10
-40.4405
 20
1005.6952
 30
0.0
 10
-40.4405
 20
1007.9953
 30
0.0
 10
-40.4405
 20
1007.9953
 30
0.0
 10
-40.4405
 20
1007.9953
 30
0.0
 10
-40.4405
 20
1007.9953
 30
0.0
 10
-30.4403
 20
1007.9953
 30
0.0
 10
-30.4403
 20
1007.9953
 30
0.0
 10
-30.4403
 20
1007.9953
 30
0.0
 10
-30.4403
 20
1007.9953
 30
0.0
 10
-30.4403
 20
1005.6952
 30
0.0
 10
-30.4403
 20
1005.6952
 30
0.0
  0
SPLINE
  5
9D
330
1F
100
AcDbEntity
  8
Layer 1
 62
   240
370
     9
100
AcDbSpline
210
0.0
220
0.0
230
1.0
 70
    11
 71
     3
 72
    20
 73
    16
 74
     0
 42
0.000000001
 43
0.0000000001
 40
0.0
 40
0.0
 40
0.0
 40
0.0
 40
0.2
 40
0.2
 40
0.2
 40
0.2
 40
0.4
 40
0.4
 40
0.4
 40
0.4
 40
0.6
 40
0.6
 40
0.6
 40
0.6
 40
1.0
 40
1.0
 40
1.0
 40
1.0
 10
-39.09
 20
1028.1206
 30
0.0
 10
-39.09
 20
1028.1206
 30
0.0
 10
-36.7896
 20
1028.1206
 30
0.0
 10
-36.7896
 20
1028.1206
 30
0.0
 10
-36.7896
 20
1028.1206
 30
0.0
 10
-36.7896
 20
1028.1206
 30
0.0
 10
-36.7896
 20
1018.1204
 30
0.0
 10
-36.7896
 20
1018.1204
 30
0.0
 10
-36.7896
 20
1018.1204
 30
0.0
 10
-36.7896
 20
1018.1204
 30
0.0
 10
-39.09
 20
1018.1204
 30
0.0
 10
-39.09
 20
1018.1204
 30
0.0
 10
-39.09
 20
1018.1204
 30
0.0
 10
-39.09
 20
1018.1204
 30
0.0
 10
-39.09
 20
1028.1206
 30
0.0
 10
-39.09
 20
1028.1206
 30
0.0
  0
SPLINE
  5
9E
330
1F
100
AcDbEntity
  8
Layer 1
 62
   240
370
     9
100
AcDbSpline
210
0.0
220
0.0
230
1.0
 70
    11
 71
     3
 72
    20
 73
    16
 74
     0
 42
0.000000001
 43
0.0000000001
 40
0.0
 40
0.0
 40
0.0
 40
0.0
 40
0.2
 40
0.2
 40
0.2
 40
0.2
 40
0.4
 40
0.4
 40
0.4
 40
0.4
 40
0.6
 40
0.6
 40
0.6
 40
0.6
 40
1.0
 40
1.0
 40
1.0
 40
1.0
 10
-39.09
 20
1048.1205
 30
0.0
 10
-39.09
 20
1048.1205
 30
0.0
 10
-36.7896
 20
1048.1205
 30
0.0
 10
-36.7896
 20
1048.1205
 30
0.0
 10
-36.7896
 20
1048.1205
 30
0.0
 10
-36.7896
 20
1048.1205
 30
0.0
 10
-36.7896
 20
1038.1204
 30
0.0
 10
-36.7896
 20
1038.1204
 30
0.0
 10
-36.7896
 20
1038.1204
 30
0.0
 10
-36.7896
 20
1038.1204
 30
0.0
 10
-39.09
 20
1038.1204
 30
0.0
 10
-39.09
 20
1038.1204
 30
0.0
 10
-39.09
 20
1038.1204
 30
0.0
 10
-39.09
 20
1038.1204
 30
0.0
 10
-39.09
 20
1048.1205
 30
0.0
 10
-39.09
 20
1048.1205
 30
0.0
  0
SPLINE
  5
9F
330
1F
100
AcDbEntity
  8
Layer 1
 62
   240
370
     9
100
AcDbSpline
210
0.0
220
0.0
230
1.0
 70
    11
 71
     3
 72
    20
 73
    16
 74
     0
 42
0.000000001
 43
0.0000000001
 40
0.0
 40
0.0
 40
0.0
 40
0.0
 40
0.2
 40
0.2
 40
0.2
 40
0.2
 40
0.4
 40
0.4
 40
0.4
 40
0.4
 40
0.6
 40
0.6
 40
0.6
 40
0.6
 40
1.0
 40
1.0
 40
1.0
 40
1.0
 10
-14.0897
 20
1028.1206
 30
0.0
 10
-14.0897
 20
1028.1206
 30
0.0
 10
-11.7893
 20
1028.1206
 30
0.0
 10
-11.7893
 20
1028.1206
 30
0.0
 10
-11.7893
 20
1028.1206
 30
0.0
 10
-11.7893
 20
1028.1206
 30
0.0
 10
-11.7893
 20
1018.1204
 30
0.0
 10
-11.7893
 20
1018.1204
 30
0.0
 10
-11.7893
 20
1018.1204
 30
0.0
 10
-11.7893
 20
1018.1204
 30
0.0
 10
-14.0897
 20
1018.1204
 30
0.0
 10
-14.0897
 20
1018.1204
 30
0.0
 10
-14.0897
 20
1018.1204
 30
0.0
 10
-14.0897
 20
1018.1204
 30
0.0
 10
-14.0897
 20
1028.1206
 30
0.0
 10
-14.0897
 20
1028.1206
 30
0.0
  0
SPLINE
  5
A0
330
1F
100
AcDbEntity
  8
Layer 1
 62
   240
370
     9
100
AcDbSpline
210
0.0
220
0.0
230
1.0
 70
    11
 71
     3
 72
    20
 73
    16
 74
     0
 42
0.000000001
 43
0.0000000001
 40
0.0
 40
0.0
 40
0.0
 40
0.0
 40
0.2
 40
0.2
 40
0.2
 40
0.2
 40
0.4
 40
0.4
 40
0.4
 40
0.4
 40
0.6
 40
0.6
 40
0.6
 40
0.6
 40
1.0
 40
1.0
 40
1.0
 40
1.0
 10
-14.0897
 20
1048.1205
 30
0.0
 10
-14.0897
 20
1048.1205
 30
0.0
 10
-11.7893
 20
1048.1205
 30
0.0
 10
-11.7893
 20
1048.1205
 30
0.0
 10
-11.7893
 20
1048.1205
 30
0.0
 10
-11.7893
 20
1048.1205
 30
0.0
 10
-11.7893
 20
1038.1204
 30
0.0
 10
-11.7893
 20
1038.1204
 30
0.0
 10
-11.7893
 20
1038.1204
 30
0.0
 10
-11.7893
 20
1038.1204
 30
0.0
 10
-14.0897
 20
1038.1204
 30
0.0
 10
-14.0897
 20
1038.1204
 30
0.0
 10
-14.0897
 20
1038.1204
 30
0.0
 10
-14.0897
 20
1038.1204
 30
0.0
 10
-14.0897
 20
1048.1205
 30
0.0
 10
-14.0897
 20
1048.1205
 30
0.0
  0
SPLINE
  5
A1
330
1F
100
AcDbEntity
  8
Layer 1
 62
   240
370
     9
100
AcDbSpline
210
0.0
220
0.0
230
1.0
 70
    11
 71
     3
 72
   132
 73
   128
 74
     0
 42
0.000000001
 43
0.0000000001
 40
0.0
 40
0.0
 40
0.0
 40
0.0
 40
0.0303030303030303
 40
0.0303030303030303
 40
0.0303030303030303
 40
0.0303030303030303
 40
0.0606060606060606
 40
0.0606060606060606
 40
0.0606060606060606
 40
0.0606060606060606
 40
0.0909090909090909
 40
0.0909090909090909
 40
0.0909090909090909
 40
0.0909090909090909
 40
0.1212121212121212
 40
0.1212121212121212
 40
0.1212121212121212
 40
0.1212121212121212
 40
0.1515151515151515
 40
0.1515151515151515
 40
0.1515151515151515
 40
0.1515151515151515
 40
0.1818181818181818
 40
0.1818181818181818
 40
0.1818181818181818
 40
0.1818181818181818
 40
0.2121212121212121
 40
0.2121212121212121
 40
0.2121212121212121
 40
0.2121212121212121
 40
0.2424242424242424
 40
0.2424242424242424
 40
0.2424242424242424
 40
0.2424242424242424
 40
0.2727272727272727
 40
0.2727272727272727
 40
0.2727272727272727
 40
0.2727272727272727
 40
0.303030303030303
 40
0.303030303030303
 40
0.303030303030303
 40
0.303030303030303
 40
0.3333333333333333
 40
0.3333333333333333
 40
0.3333333333333333
 40
0.3333333333333333
 40
0.3636363636363636
 40
0.3636363636363636
 40
0.3636363636363636
 40
0.3636363636363636
 40
0.3939393939393939
 40
0.3939393939393939
 40
0.3939393939393939
 40
0.3939393939393939
 40
0.4242424242424243
 40
0.4242424242424243
 40
0.4242424242424243
 40
0.4242424242424243
 40
0.4545454545454545
 40
0.4545454545454545
 40
0.4545454545454545
 40
0.4545454545454545
 40
0.4848484848484849
 40
0.4848484848484849
 40
0.4848484848484849
 40
0.4848484848484849
 40
0.5151515151515151
 40
0.5151515151515151
 40
0.5151515151515151
 40
0.5151515151515151
 40
0.5454545454545454
 40
0.5454545454545454
 40
0.5454545454545454
 40
0.5454545454545454
 40
0.5757575757575758
 40
0.5757575757575758
 40
0.5757575757575758
 40
0.5757575757575758
 40
0.6060606060606061
 40
0.6060606060606061
 40
0.6060606060606061
 40
0.6060606060606061
 40
0.6363636363636364
 40
0.6363636363636364
 40
0.6363636363636364
 40
0.6363636363636364
 40
0.6666666666666666
 40
0.6666666666666666
 40
0.6666666666666666
 40
0.6666666666666666
 40
0.696969696969697
 40
0.696969696969697
 40
0.696969696969697
 40
0.696969696969697
 40
0.7272727272727273
 40
0.7272727272727273
 40
0.7272727272727273
 40
0.7272727272727273
 40
0.7575757575757576
 40
0.7575757575757576
 40
0.7575757575757576
 40
0.7575757575757576
 40
0.7878787878787878
 40
0.7878787878787878
 40
0.7878787878787878
 40
0.7878787878787878
 40
0.8181818181818182
 40
0.8181818181818182
 40
0.8181818181818182
 40
0.8181818181818182
 40
0.8484848484848485
 40
0.8484848484848485
 40
0.8484848484848485
 40
0.8484848484848485
 40
0.8787878787878788
 40
0.8787878787878788
 40
0.8787878787878788
 40
0.8787878787878788
 40
0.9090909090909091
 40
0.9090909090909091
 40
0.9090909090909091
 40
0.9090909090909091
 40
0.9393939393939394
 40
0.9393939393939394
 40
0.9393939393939394
 40
0.9393939393939394
 40
1.0
 40
1.0
 40
1.0
 40
1.0
 10
0.8028
 20
1048.0206
 30
0.0
 10
0.8028
 20
1048.0206
 30
0.0
 10
0.8028
 20
1058.1207
 30
0.0
 10
0.8028
 20
1058.1207
 30
0.0
 10
0.8028
 20
1058.1207
 30
0.0
 10
0.8028
 20
1058.1207
 30
0.0
 10
-51.6906
 20
1058.1214
 30
0.0
 10
-51.6906
 20
1058.1214
 30
0.0
 10
-51.6906
 20
1058.1214
 30
0.0
 10
-51.6906
 20
1058.1214
 30
0.0
 10
-51.6916
 20
1048.0206
 30
0.0
 10
-51.6916
 20
1048.0206
 30
0.0
 10
-51.6916
 20
1048.0206
 30
0.0
 10
-51.6916
 20
1048.0206
 30
0.0
 10
-49.2469
 20
1048.0206
 30
0.0
 10
-49.2469
 20
1048.0206
 30
0.0
 10
-49.2469
 20
1048.0206
 30
0.0
 10
-49.2469
 20
1048.0206
 30
0.0
 10
-49.2469
 20
1038.2202
 30
0.0
 10
-49.2469
 20
1038.2202
 30
0.0
 10
-49.2469
 20
1038.2202
 30
0.0
 10
-49.2469
 20
1038.2202
 30
0.0
 10
-51.6923
 20
1038.2202
 30
0.0
 10
-51.6923
 20
1038.2202
 30
0.0
 10
-51.6923
 20
1038.2202
 30
0.0
 10
-51.6923
 20
1038.2202
 30
0.0
 10
-51.6934
 20
1028.0204
 30
0.0
 10
-51.6934
 20
1028.0204
 30
0.0
 10
-51.6934
 20
1028.0204
 30
0.0
 10
-51.6934
 20
1028.0204
 30
0.0
 10
-49.2469
 20
1028.0204
 30
0.0
 10
-49.2469
 20
1028.0204
 30
0.0
 10
-49.2469
 20
1028.0204
 30
0.0
 10
-49.2469
 20
1028.0204
 30
0.0
 10
-49.2469
 20
1018.2202
 30
0.0
 10
-49.2469
 20
1018.2202
 30
0.0
 10
-49.2469
 20
1018.2202
 30
0.0
 10
-49.2469
 20
1018.2202
 30
0.0
 10
-51.6941
 20
1018.2202
 30
0.0
 10
-51.6941
 20
1018.2202
 30
0.0
 10
-51.6941
 20
1018.2202
 30
0.0
 10
-51.6941
 20
1018.2202
 30
0.0
 10
-51.6951
 20
1008.02
 30
0.0
 10
-51.6951
 20
1008.02
 30
0.0
 10
-51.6951
 20
1008.02
 30
0.0
 10
-51.6951
 20
1008.02
 30
0.0
 10
-49.2469
 20
1008.02
 30
0.0
 10
-49.2469
 20
1008.02
 30
0.0
 10
-49.2469
 20
1008.02
 30
0.0
 10
-49.2469
 20
1008.02
 30
0.0
 10
-49.2469
 20
998.2202
 30
0.0
 10
-49.2469
 20
998.2202
 30
0.0
 10
-49.2469
 20
998.2202
 30
0.0
 10
-49.2469
 20
998.2202
 30
0.0
 10
-51.6959
 20
998.2202
 30
0.0
 10
-51.6959
 20
998.2202
 30
0.0
 10
-51.6959
 20
998.2202
 30
0.0
 10
-51.6959
 20
998.2202
 30
0.0
 10
-51.6966
 20
988.0199
 30
0.0
 10
-51.6966
 20
988.0199
 30
0.0
 10
-51.6966
 20
988.0199
 30
0.0
 10
-51.6966
 20
988.0199
 30
0.0
 10
-49.2469
 20
988.0199
 30
0.0
 10
-49.2469
 20
988.0199
 30
0.0
 10
-49.2469
 20
988.0199
 30
0.0
 10
-49.2469
 20
988.0199
 30
0.0
 10
-49.2469
 20
976.7529
 30
0.0
 10
-49.2469
 20
976.7529
 30
0.0
 10
-49.2469
 20
976.7529
 30
0.0
 10
-49.2469
 20
976.7529
 30
0.0
 10
-1.6473
 20
976.7522
 30
0.0
 10
-1.6473
 20
976.7522
 30
0.0
 10
-1.6473
 20
976.7522
 30
0.0
 10
-1.6473
 20
976.7522
 30
0.0
 10
-1.6473
 20
988.0199
 30
0.0
 10
-1.6473
 20
988.0199
 30
0.0
 10
-1.6473
 20
988.0199
 30
0.0
 10
-1.6473
 20
988.0199
 30
0.0
 10
0.8028
 20
988.0199
 30
0.0
 10
0.8028
 20
988.0199
 30
0.0
 10
0.8028
 20
988.0199
 30
0.0
 10
0.8028
 20
988.0199
 30
0.0
 10
0.8028
 20
998.2202
 30
0.0
 10
0.8028
 20
998.2202
 30
0.0
 10
0.8028
 20
998.2202
 30
0.0
 10
0.8028
 20
998.2202
 30
0.0
 10
-1.6473
 20
998.2202
 30
0.0
 10
-1.6473
 20
998.2202
 30
0.0
 10
-1.6473
 20
998.2202
 30
0.0
 10
-1.6473
 20
998.2202
 30
0.0
 10
-1.6473
 20
1008.02
 30
0.0
 10
-1.6473
 20
1008.02
 30
0.0
 10
-1.6473
 20
1008.02
 30
0.0
 10
-1.6473
 20
1008.02
 30
0.0
 10
0.8028
 20
1008.02
 30
0.0
 10
0.8028
 20
1008.02
 30
0.0
 10
0.8028
 20
1008.02
 30
0.0
 10
0.8028
 20
1008.02
 30
0.0
 10
0.8028
 20
1018.2202
 30
0.0
 10
0.8028
 20
1018.2202
 30
0.0
 10
0.8028
 20
1018.2202
 30
0.0
 10
0.8028
 20
1018.2202
 30
0.0
 10
-1.6473
 20
1018.2202
 30
0.0
 10
-1.6473
 20
1018.2202
 30
0.0
 10
-1.6473
 20
1018.2202
 30
0.0
 10
-1.6473
 20
1018.2202
 30
0.0
 10
-1.6473
 20
1028.0204
 30
0.0
 10
-1.6473
 20
1028.0204
 30
0.0
 10
-1.6473
 20
1028.0204
 30
0.0
 10
-1.6473
 20
1028.0204
 30
0.0
 10
0.8028
 20
1028.0204
 30
0.0
 10
0.8028
 20
1028.0204
 30
0.0
 10
0.8028
 20
1028.0204
 30
0.0
 10
0.8028
 20
1028.0204
 30
0.0
 10
0.8028
 20
1038.2202
 30
0.0
 10
0.8028
 20
1038.2202
 30
0.0
 10
0.8028
 20
1038.2202
 30
0.0
 10
0.8028
 20
1038.2202
 30
0.0
 10
-1.6473
 20
1038.2202
 30
0.0
 10
-1.6473
 20
1038.2202
 30
0.0
 10
-1.6473
 20
1038.2202
 30
0.0
 10
-1.6473
 20
1038.2202
 30
0.0
 10
-1.6473
 20
1048.0206
 30
0.0
 10
-1.6473
 20
1048.0206
 30
0.0
 10
-1.6473
 20
1048.0206
 30
0.0
 10
-1.6473
 20
1048.0206
 30
0.0
 10
0.8028
 20
1048.0206
 30
0.0
 10
0.8028
 20
1048.0206
 30
0.0
  0
SPLINE
  5
A2
330
1F
100
AcDbEntity
  8
Layer 1
 62
   240
370
     9
100
AcDbSpline
210
0.0
220
0.0
230
1.0
 70
    11
 71
     3
 72
    28
 73
    24
 74
     0
 42
0.000000001
 43
0.0000000001
 40
0.0
 40
0.0
 40
0.0
 40
0.0
 40
0.1428571428571428
 40
0.1428571428571428
 40
0.1428571428571428
 40
0.1428571428571428
 40
0.2857142857142857
 40
0.2857142857142857
 40
0.2857142857142857
 40
0.2857142857142857
 40
0.4285714285714285
 40
0.4285714285714285
 40
0.4285714285714285
 40
0.4285714285714285
 40
0.5714285714285714
 40
0.5714285714285714
 40
0.5714285714285714
 40
0.5714285714285714
 40
0.7142857142857143
 40
0.7142857142857143
 40
0.7142857142857143
 40
0.7142857142857143
 40
1.0
 40
1.0
 40
1.0
 40
1.0
 10
-192.542
 20
1252.3585
 30
0.0
 10
-192.542
 20
1252.3585
 30
0.0
 10
-193.177
 20
1254.2719
 30
0.0
 10
-193.177
 20
1254.2719
 30
0.0
 10
-193.177
 20
1254.2719
 30
0.0
 10
-193.3124
 20
1254.7122
 30
0.0
 10
-193.4225
 20
1255.1189
 30
0.0
 10
-193.5072
 20
1255.4999
 30
0.0
 10
-193.5072
 20
1255.4999
 30
0.0
 10
-193.5072
 20
1255.4999
 30
0.0
 10
-193.5326
 20
1255.4999
 30
0.0
 10
-193.5326
 20
1255.4999
 30
0.0
 10
-193.5326
 20
1255.4999
 30
0.0
 10
-193.6172
 20
1255.1105
 30
0.0
 10
-193.7358
 20
1254.7037
 30
0.0
 10
-193.8543
 20
1254.2977
 30
0.0
 10
-193.8543
 20
1254.2977
 30
0.0
 10
-193.8543
 20
1254.2977
 30
0.0
 10
-194.4978
 20
1252.3585
 30
0.0
 10
-194.4978
 20
1252.3585
 30
0.0
 10
-194.4978
 20
1252.3585
 30
0.0
 10
-194.4978
 20
1252.3585
 30
0.0
 10
-192.542
 20
1252.3585
 30
0.0
 10
-192.542
 20
1252.3585
 30
0.0
  0
SPLINE
  5
A3
330
1F
100
AcDbEntity
  8
Layer 1
 62
   240
370
     9
100
AcDbSpline
210
0.0
220
0.0
230
1.0
 70
    11
 71
     3
 72
    36
 73
    32
 74
     0
 42
0.000000001
 43
0.0000000001
 40
0.0
 40
0.0
 40
0.0
 40
0.0
 40
0.1111111111111111
 40
0.1111111111111111
 40
0.1111111111111111
 40
0.1111111111111111
 40
0.2222222222222222
 40
0.2222222222222222
 40
0.2222222222222222
 40
0.2222222222222222
 40
0.3333333333333333
 40
0.3333333333333333
 40
0.3333333333333333
 40
0.3333333333333333
 40
0.4444444444444444
 40
0.4444444444444444
 40
0.4444444444444444
 40
0.4444444444444444
 40
0.5555555555555556
 40
0.5555555555555556
 40
0.5555555555555556
 40
0.5555555555555556
 40
0.6666666666666666
 40
0.6666666666666666
 40
0.6666666666666666
 40
0.6666666666666666
 40
0.7777777777777778
 40
0.7777777777777778
 40
0.7777777777777778
 40
0.7777777777777778
 40
1.0
 40
1.0
 40
1.0
 40
1.0
 10
-190.9587
 20
1249.708
 30
0.0
 10
-190.9587
 20
1249.708
 30
0.0
 10
-191.7038
 20
1249.708
 30
0.0
 10
-191.7038
 20
1249.708
 30
0.0
 10
-191.7038
 20
1249.708
 30
0.0
 10
-191.7038
 20
1249.708
 30
0.0
 10
-192.398
 20
1251.7997
 30
0.0
 10
-192.398
 20
1251.7997
 30
0.0
 10
-192.398
 20
1251.7997
 30
0.0
 10
-192.398
 20
1251.7997
 30
0.0
 10
-194.642
 20
1251.7997
 30
0.0
 10
-194.642
 20
1251.7997
 30
0.0
 10
-194.642
 20
1251.7997
 30
0.0
 10
-194.642
 20
1251.7997
 30
0.0
 10
-195.3194
 20
1249.708
 30
0.0
 10
-195.3194
 20
1249.708
 30
0.0
 10
-195.3194
 20
1249.708
 30
0.0
 10
-195.3194
 20
1249.708
 30
0.0
 10
-196.039
 20
1249.708
 30
0.0
 10
-196.039
 20
1249.708
 30
0.0
 10
-196.039
 20
1249.708
 30
0.0
 10
-196.039
 20
1249.708
 30
0.0
 10
-193.9051
 20
1256.1603
 30
0.0
 10
-193.9051
 20
1256.1603
 30
0.0
 10
-193.9051
 20
1256.1603
 30
0.0
 10
-193.9051
 20
1256.1603
 30
0.0
 10
-193.0923
 20
1256.1603
 30
0.0
 10
-193.0923
 20
1256.1603
 30
0.0
 10
-193.0923
 20
1256.1603
 30
0.0
 10
-193.0923
 20
1256.1603
 30
0.0
 10
-190.9587
 20
1249.708
 30
0.0
 10
-190.9587
 20
1249.708
 30
0.0
  0
SPLINE
  5
A4
330
1F
100
AcDbEntity
  8
Layer 1
 62
   240
370
     9
100
AcDbSpline
210
0.0
220
0.0
230
1.0
 70
    11
 71
     3
 72
    24
 73
    20
 74
     0
 42
0.000000001
 43
0.0000000001
 40
0.0
 40
0.0
 40
0.0
 40
0.0
 40
0.1666666666666667
 40
0.1666666666666667
 40
0.1666666666666667
 40
0.1666666666666667
 40
0.3333333333333333
 40
0.3333333333333333
 40
0.3333333333333333
 40
0.3333333333333333
 40
0.5
 40
0.5
 40
0.5
 40
0.5
 40
0.6666666666666666
 40
0.6666666666666666
 40
0.6666666666666666
 40
0.6666666666666666
 40
1.0
 40
1.0
 40
1.0
 40
1.0
 10
-122.5547
 20
1250.2584
 30
0.0
 10
-122.3938
 20
1250.2246
 30
0.0
 10
-122.1652
 20
1250.2162
 30
0.0
 10
-121.8689
 20
1250.2162
 30
0.0
 10
-121.8689
 20
1250.2162
 30
0.0
 10
-120.9799
 20
1250.2162
 30
0.0
 10
-120.1837
 20
1250.5633
 30
0.0
 10
-120.1837
 20
1251.5373
 30
0.0
 10
-120.1837
 20
1251.5373
 30
0.0
 10
-120.1837
 20
1252.5025
 30
0.0
 10
-121.0219
 20
1252.858
 30
0.0
 10
-121.8774
 20
1252.858
 30
0.0
 10
-121.8774
 20
1252.858
 30
0.0
 10
-121.8774
 20
1252.858
 30
0.0
 10
-122.5547
 20
1252.858
 30
0.0
 10
-122.5547
 20
1252.858
 30
0.0
 10
-122.5547
 20
1252.858
 30
0.0
 10
-122.5547
 20
1252.858
 30
0.0
 10
-122.5547
 20
1250.2584
 30
0.0
 10
-122.5547
 20
1250.2584
 30
0.0
  0
SPLINE
  5
A5
330
1F
100
AcDbEntity
  8
Layer 1
 62
   240
370
     9
100
AcDbSpline
210
0.0
220
0.0
230
1.0
 70
    11
 71
     3
 72
    28
 73
    24
 74
     0
 42
0.000000001
 43
0.0000000001
 40
0.0
 40
0.0
 40
0.0
 40
0.0
 40
0.1428571428571428
 40
0.1428571428571428
 40
0.1428571428571428
 40
0.1428571428571428
 40
0.2857142857142857
 40
0.2857142857142857
 40
0.2857142857142857
 40
0.2857142857142857
 40
0.4285714285714285
 40
0.4285714285714285
 40
0.4285714285714285
 40
0.4285714285714285
 40
0.5714285714285714
 40
0.5714285714285714
 40
0.5714285714285714
 40
0.5714285714285714
 40
0.7142857142857143
 40
0.7142857142857143
 40
0.7142857142857143
 40
0.7142857142857143
 40
1.0
 40
1.0
 40
1.0
 40
1.0
 10
-121.8012
 20
1253.4
 30
0.0
 10
-120.9457
 20
1253.4
 30
0.0
 10
-120.3953
 20
1253.8911
 30
0.0
 10
-120.3953
 20
1254.5515
 30
0.0
 10
-120.3953
 20
1254.5515
 30
0.0
 10
-120.3953
 20
1254.5515
 30
0.0
 10
-120.3953
 20
1254.5599
 30
0.0
 10
-120.3953
 20
1254.5599
 30
0.0
 10
-120.3953
 20
1254.5599
 30
0.0
 10
-120.3953
 20
1255.3223
 30
0.0
 10
-120.9541
 20
1255.6524
 30
0.0
 10
-121.8347
 20
1255.6524
 30
0.0
 10
-121.8347
 20
1255.6524
 30
0.0
 10
-122.2076
 20
1255.6524
 30
0.0
 10
-122.4277
 20
1255.6267
 30
0.0
 10
-122.5547
 20
1255.5932
 30
0.0
 10
-122.5547
 20
1255.5932
 30
0.0
 10
-122.5547
 20
1255.5932
 30
0.0
 10
-122.5547
 20
1253.4
 30
0.0
 10
-122.5547
 20
1253.4
 30
0.0
 10
-122.5547
 20
1253.4
 30
0.0
 10
-122.5547
 20
1253.4
 30
0.0
 10
-121.8012
 20
1253.4
 30
0.0
 10
-121.8012
 20
1253.4
 30
0.0
  0
SPLINE
  5
A6
330
1F
100
AcDbEntity
  8
Layer 1
 62
   240
370
     9
100
AcDbSpline
210
0.0
220
0.0
230
1.0
 70
    11
 71
     3
 72
    44
 73
    40
 74
     0
 42
0.000000001
 43
0.0000000001
 40
0.0
 40
0.0
 40
0.0
 40
0.0
 40
0.0909090909090909
 40
0.0909090909090909
 40
0.0909090909090909
 40
0.0909090909090909
 40
0.1818181818181818
 40
0.1818181818181818
 40
0.1818181818181818
 40
0.1818181818181818
 40
0.2727272727272727
 40
0.2727272727272727
 40
0.2727272727272727
 40
0.2727272727272727
 40
0.3636363636363636
 40
0.3636363636363636
 40
0.3636363636363636
 40
0.3636363636363636
 40
0.4545454545454545
 40
0.4545454545454545
 40
0.4545454545454545
 40
0.4545454545454545
 40
0.5454545454545454
 40
0.5454545454545454
 40
0.5454545454545454
 40
0.5454545454545454
 40
0.6363636363636364
 40
0.6363636363636364
 40
0.6363636363636364
 40
0.6363636363636364
 40
0.7272727272727273
 40
0.7272727272727273
 40
0.7272727272727273
 40
0.7272727272727273
 40
0.8181818181818182
 40
0.8181818181818182
 40
0.8181818181818182
 40
0.8181818181818182
 40
1.0
 40
1.0
 40
1.0
 40
1.0
 10
-120.7763
 20
1253.1629
 30
0.0
 10
-120.1667
 20
1253.019
 30
0.0
 10
-119.4471
 20
1252.511
 30
0.0
 10
-119.4471
 20
1251.5373
 30
0.0
 10
-119.4471
 20
1251.5373
 30
0.0
 10
-119.4471
 20
1250.9612
 30
0.0
 10
-119.6672
 20
1250.5548
 30
0.0
 10
-119.9635
 20
1250.267
 30
0.0
 10
-119.9635
 20
1250.267
 30
0.0
 10
-120.3953
 20
1249.8435
 30
0.0
 10
-121.09
 20
1249.6574
 30
0.0
 10
-122.0636
 20
1249.6574
 30
0.0
 10
-122.0636
 20
1249.6574
 30
0.0
 10
-122.597
 20
1249.6574
 30
0.0
 10
-122.995
 20
1249.6997
 30
0.0
 10
-123.2574
 20
1249.7251
 30
0.0
 10
-123.2574
 20
1249.7251
 30
0.0
 10
-123.2574
 20
1249.7251
 30
0.0
 10
-123.2574
 20
1256.067
 30
0.0
 10
-123.2574
 20
1256.067
 30
0.0
 10
-123.2574
 20
1256.067
 30
0.0
 10
-122.9018
 20
1256.1436
 30
0.0
 10
-122.3938
 20
1256.2028
 30
0.0
 10
-121.8689
 20
1256.2028
 30
0.0
 10
-121.8689
 20
1256.2028
 30
0.0
 10
-121.0727
 20
1256.2028
 30
0.0
 10
-120.5481
 20
1256.0501
 30
0.0
 10
-120.1667
 20
1255.7283
 30
0.0
 10
-120.1667
 20
1255.7283
 30
0.0
 10
-119.8619
 20
1255.4658
 30
0.0
 10
-119.6841
 20
1255.0933
 30
0.0
 10
-119.6841
 20
1254.6107
 30
0.0
 10
-119.6841
 20
1254.6107
 30
0.0
 10
-119.6841
 20
1253.9757
 30
0.0
 10
-120.1159
 20
1253.4254
 30
0.0
 10
-120.7763
 20
1253.1883
 30
0.0
 10
-120.7763
 20
1253.1883
 30
0.0
 10
-120.7763
 20
1253.1883
 30
0.0
 10
-120.7763
 20
1253.1629
 30
0.0
 10
-120.7763
 20
1253.1629
 30
0.0
  0
SPLINE
  5
A7
330
1F
100
AcDbEntity
  8
Layer 1
 62
   240
370
     9
100
AcDbSpline
210
0.0
220
0.0
230
1.0
 70
    11
 71
     3
 72
    44
 73
    40
 74
     0
 42
0.000000001
 43
0.0000000001
 40
0.0
 40
0.0
 40
0.0
 40
0.0
 40
0.0909090909090909
 40
0.0909090909090909
 40
0.0909090909090909
 40
0.0909090909090909
 40
0.1818181818181818
 40
0.1818181818181818
 40
0.1818181818181818
 40
0.1818181818181818
 40
0.2727272727272727
 40
0.2727272727272727
 40
0.2727272727272727
 40
0.2727272727272727
 40
0.3636363636363636
 40
0.3636363636363636
 40
0.3636363636363636
 40
0.3636363636363636
 40
0.4545454545454545
 40
0.4545454545454545
 40
0.4545454545454545
 40
0.4545454545454545
 40
0.5454545454545454
 40
0.5454545454545454
 40
0.5454545454545454
 40
0.5454545454545454
 40
0.6363636363636364
 40
0.6363636363636364
 40
0.6363636363636364
 40
0.6363636363636364
 40
0.7272727272727273
 40
0.7272727272727273
 40
0.7272727272727273
 40
0.7272727272727273
 40
0.8181818181818182
 40
0.8181818181818182
 40
0.8181818181818182
 40
0.8181818181818182
 40
1.0
 40
1.0
 40
1.0
 40
1.0
 10
-45.1207
 20
1249.903
 30
0.0
 10
-45.4171
 20
1249.7591
 30
0.0
 10
-45.9928
 20
1249.6151
 30
0.0
 10
-46.7294
 20
1249.6151
 30
0.0
 10
-46.7294
 20
1249.6151
 30
0.0
 10
-48.3892
 20
1249.6151
 30
0.0
 10
-49.727
 20
1250.6904
 30
0.0
 10
-49.727
 20
1252.8748
 30
0.0
 10
-49.727
 20
1252.8748
 30
0.0
 10
-49.727
 20
1254.9579
 30
0.0
 10
-48.4316
 20
1256.2533
 30
0.0
 10
-46.5431
 20
1256.2533
 30
0.0
 10
-46.5431
 20
1256.2533
 30
0.0
 10
-45.7727
 20
1256.2533
 30
0.0
 10
-45.3239
 20
1256.0925
 30
0.0
 10
-45.1207
 20
1255.9909
 30
0.0
 10
-45.1207
 20
1255.9909
 30
0.0
 10
-45.1207
 20
1255.9909
 30
0.0
 10
-45.307
 20
1255.3982
 30
0.0
 10
-45.307
 20
1255.3982
 30
0.0
 10
-45.307
 20
1255.3982
 30
0.0
 10
-45.6033
 20
1255.5421
 30
0.0
 10
-46.0182
 20
1255.6607
 30
0.0
 10
-46.5262
 20
1255.6607
 30
0.0
 10
-46.5262
 20
1255.6607
 30
0.0
 10
-47.9913
 20
1255.6607
 30
0.0
 10
-48.9904
 20
1254.6785
 30
0.0
 10
-48.9904
 20
1252.9005
 30
0.0
 10
-48.9904
 20
1252.9005
 30
0.0
 10
-48.9904
 20
1251.2069
 30
0.0
 10
-48.0756
 20
1250.2078
 30
0.0
 10
-46.5685
 20
1250.2078
 30
0.0
 10
-46.5685
 20
1250.2078
 30
0.0
 10
-46.0775
 20
1250.2078
 30
0.0
 10
-45.5949
 20
1250.3179
 30
0.0
 10
-45.2731
 20
1250.4703
 30
0.0
 10
-45.2731
 20
1250.4703
 30
0.0
 10
-45.2731
 20
1250.4703
 30
0.0
 10
-45.1207
 20
1249.903
 30
0.0
 10
-45.1207
 20
1249.903
 30
0.0
  0
SPLINE
  5
A8
330
1F
100
AcDbEntity
  8
Layer 1
 62
   240
370
     9
100
AcDbSpline
210
0.0
220
0.0
230
1.0
 70
    11
 71
     3
 72
    24
 73
    20
 74
     0
 42
0.000000001
 43
0.0000000001
 40
0.0
 40
0.0
 40
0.0
 40
0.0
 40
0.1666666666666667
 40
0.1666666666666667
 40
0.1666666666666667
 40
0.1666666666666667
 40
0.3333333333333333
 40
0.3333333333333333
 40
0.3333333333333333
 40
0.3333333333333333
 40
0.5
 40
0.5
 40
0.5
 40
0.5
 40
0.6666666666666666
 40
0.6666666666666666
 40
0.6666666666666666
 40
0.6666666666666666
 40
1.0
 40
1.0
 40
1.0
 40
1.0
 10
-194.8705
 20
1176.1871
 30
0.0
 10
-194.6588
 20
1176.1532
 30
0.0
 10
-194.354
 20
1176.1447
 30
0.0
 10
-194.0492
 20
1176.1447
 30
0.0
 10
-194.0492
 20
1176.1447
 30
0.0
 10
-192.3048
 20
1176.1447
 30
0.0
 10
-191.348
 20
1177.1353
 30
0.0
 10
-191.348
 20
1178.9814
 30
0.0
 10
-191.348
 20
1178.9814
 30
0.0
 10
-191.348
 20
1180.6578
 30
0.0
 10
-192.2455
 20
1181.5641
 30
0.0
 10
-193.9222
 20
1181.5641
 30
0.0
 10
-193.9222
 20
1181.5641
 30
0.0
 10
-194.3286
 20
1181.5641
 30
0.0
 10
-194.6504
 20
1181.5218
 30
0.0
 10
-194.8705
 20
1181.4791
 30
0.0
 10
-194.8705
 20
1181.4791
 30
0.0
 10
-194.8705
 20
1181.4791
 30
0.0
 10
-194.8705
 20
1176.1871
 30
0.0
 10
-194.8705
 20
1176.1871
 30
0.0
  0
SPLINE
  5
A9
330
1F
100
AcDbEntity
  8
Layer 1
 62
   240
370
     9
100
AcDbSpline
210
0.0
220
0.0
230
1.0
 70
    11
 71
     3
 72
    28
 73
    24
 74
     0
 42
0.000000001
 43
0.0000000001
 40
0.0
 40
0.0
 40
0.0
 40
0.0
 40
0.1428571428571428
 40
0.1428571428571428
 40
0.1428571428571428
 40
0.1428571428571428
 40
0.2857142857142857
 40
0.2857142857142857
 40
0.2857142857142857
 40
0.2857142857142857
 40
0.4285714285714285
 40
0.4285714285714285
 40
0.4285714285714285
 40
0.4285714285714285
 40
0.5714285714285714
 40
0.5714285714285714
 40
0.5714285714285714
 40
0.5714285714285714
 40
0.7142857142857143
 40
0.7142857142857143
 40
0.7142857142857143
 40
0.7142857142857143
 40
1.0
 40
1.0
 40
1.0
 40
1.0
 10
-195.5732
 20
1181.9959
 30
0.0
 10
-195.0991
 20
1182.0721
 30
0.0
 10
-194.5488
 20
1182.1314
 30
0.0
 10
-193.9476
 20
1182.1314
 30
0.0
 10
-193.9476
 20
1182.1314
 30
0.0
 10
-191.3565
 20
1182.1314
 30
0.0
 10
-190.6114
 20
1180.5986
 30
0.0
 10
-190.6114
 20
1179.0153
 30
0.0
 10
-190.6114
 20
1179.0153
 30
0.0
 10
-190.6114
 20
1177.9908
 30
0.0
 10
-190.8824
 20
1177.1188
 30
0.0
 10
-191.492
 20
1176.4834
 30
0.0
 10
-191.492
 20
1176.4834
 30
0.0
 10
-192.0592
 20
1175.8992
 30
0.0
 10
-192.999
 20
1175.5775
 30
0.0
 10
-194.1762
 20
1175.5775
 30
0.0
 10
-194.1762
 20
1175.5775
 30
0.0
 10
-194.7096
 20
1175.5775
 30
0.0
 10
-195.1668
 20
1175.5944
 30
0.0
 10
-195.5732
 20
1175.6452
 30
0.0
 10
-195.5732
 20
1175.6452
 30
0.0
 10
-195.5732
 20
1175.6452
 30
0.0
 10
-195.5732
 20
1181.9959
 30
0.0
 10
-195.5732
 20
1181.9959
 30
0.0
  0
SPLINE
  5
AA
330
1F
100
AcDbEntity
  8
Layer 1
 62
   240
370
     9
100
AcDbSpline
210
0.0
220
0.0
230
1.0
 70
    11
 71
     3
 72
    44
 73
    40
 74
     0
 42
0.000000001
 43
0.0000000001
 40
0.0
 40
0.0
 40
0.0
 40
0.0
 40
0.0909090909090909
 40
0.0909090909090909
 40
0.0909090909090909
 40
0.0909090909090909
 40
0.1818181818181818
 40
0.1818181818181818
 40
0.1818181818181818
 40
0.1818181818181818
 40
0.2727272727272727
 40
0.2727272727272727
 40
0.2727272727272727
 40
0.2727272727272727
 40
0.3636363636363636
 40
0.3636363636363636
 40
0.3636363636363636
 40
0.3636363636363636
 40
0.4545454545454545
 40
0.4545454545454545
 40
0.4545454545454545
 40
0.4545454545454545
 40
0.5454545454545454
 40
0.5454545454545454
 40
0.5454545454545454
 40
0.5454545454545454
 40
0.6363636363636364
 40
0.6363636363636364
 40
0.6363636363636364
 40
0.6363636363636364
 40
0.7272727272727273
 40
0.7272727272727273
 40
0.7272727272727273
 40
0.7272727272727273
 40
0.8181818181818182
 40
0.8181818181818182
 40
0.8181818181818182
 40
0.8181818181818182
 40
1.0
 40
1.0
 40
1.0
 40
1.0
 10
-123.2575
 20
1061.6859
 30
0.0
 10
-123.2575
 20
1061.6859
 30
0.0
 10
-123.2575
 20
1068.1378
 30
0.0
 10
-123.2575
 20
1068.1378
 30
0.0
 10
-123.2575
 20
1068.1378
 30
0.0
 10
-123.2575
 20
1068.1378
 30
0.0
 10
-120.0059
 20
1068.1378
 30
0.0
 10
-120.0059
 20
1068.1378
 30
0.0
 10
-120.0059
 20
1068.1378
 30
0.0
 10
-120.0059
 20
1068.1378
 30
0.0
 10
-120.0059
 20
1067.5452
 30
0.0
 10
-120.0059
 20
1067.5452
 30
0.0
 10
-120.0059
 20
1067.5452
 30
0.0
 10
-120.0059
 20
1067.5452
 30
0.0
 10
-122.5547
 20
1067.5452
 30
0.0
 10
-122.5547
 20
1067.5452
 30
0.0
 10
-122.5547
 20
1067.5452
 30
0.0
 10
-122.5547
 20
1067.5452
 30
0.0
 10
-122.5547
 20
1065.2507
 30
0.0
 10
-122.5547
 20
1065.2507
 30
0.0
 10
-122.5547
 20
1065.2507
 30
0.0
 10
-122.5547
 20
1065.2507
 30
0.0
 10
-120.2091
 20
1065.2507
 30
0.0
 10
-120.2091
 20
1065.2507
 30
0.0
 10
-120.2091
 20
1065.2507
 30
0.0
 10
-120.2091
 20
1065.2507
 30
0.0
 10
-120.2091
 20
1064.6665
 30
0.0
 10
-120.2091
 20
1064.6665
 30
0.0
 10
-120.2091
 20
1064.6665
 30
0.0
 10
-120.2091
 20
1064.6665
 30
0.0
 10
-122.5547
 20
1064.6665
 30
0.0
 10
-122.5547
 20
1064.6665
 30
0.0
 10
-122.5547
 20
1064.6665
 30
0.0
 10
-122.5547
 20
1064.6665
 30
0.0
 10
-122.5547
 20
1061.6859
 30
0.0
 10
-122.5547
 20
1061.6859
 30
0.0
 10
-122.5547
 20
1061.6859
 30
0.0
 10
-122.5547
 20
1061.6859
 30
0.0
 10
-123.2575
 20
1061.6859
 30
0.0
 10
-123.2575
 20
1061.6859
 30
0.0
  0
SPLINE
  5
AB
330
1F
100
AcDbEntity
  8
Layer 1
 62
   240
370
     9
100
AcDbSpline
210
0.0
220
0.0
230
1.0
 70
    11
 71
     3
 72
    60
 73
    56
 74
     0
 42
0.000000001
 43
0.0000000001
 40
0.0
 40
0.0
 40
0.0
 40
0.0
 40
0.0666666666666667
 40
0.0666666666666667
 40
0.0666666666666667
 40
0.0666666666666667
 40
0.1333333333333333
 40
0.1333333333333333
 40
0.1333333333333333
 40
0.1333333333333333
 40
0.2
 40
0.2
 40
0.2
 40
0.2
 40
0.2666666666666667
 40
0.2666666666666667
 40
0.2666666666666667
 40
0.2666666666666667
 40
0.3333333333333333
 40
0.3333333333333333
 40
0.3333333333333333
 40
0.3333333333333333
 40
0.4
 40
0.4
 40
0.4
 40
0.4
 40
0.4666666666666667
 40
0.4666666666666667
 40
0.4666666666666667
 40
0.4666666666666667
 40
0.5333333333333333
 40
0.5333333333333333
 40
0.5333333333333333
 40
0.5333333333333333
 40
0.6
 40
0.6
 40
0.6
 40
0.6
 40
0.6666666666666666
 40
0.6666666666666666
 40
0.6666666666666666
 40
0.6666666666666666
 40
0.7333333333333333
 40
0.7333333333333333
 40
0.7333333333333333
 40
0.7333333333333333
 40
0.8
 40
0.8
 40
0.8
 40
0.8
 40
0.8666666666666667
 40
0.8666666666666667
 40
0.8666666666666667
 40
0.8666666666666667
 40
1.0
 40
1.0
 40
1.0
 40
1.0
 10
-44.7566
 20
1061.9484
 30
0.0
 10
-45.1037
 20
1061.8126
 30
0.0
 10
-45.7811
 20
1061.6182
 30
0.0
 10
-46.5939
 20
1061.6182
 30
0.0
 10
-46.5939
 20
1061.6182
 30
0.0
 10
-49.1258
 20
1061.6182
 30
0.0
 10
-49.7269
 20
1063.5063
 30
0.0
 10
-49.7269
 20
1064.8697
 30
0.0
 10
-49.7269
 20
1064.8697
 30
0.0
 10
-49.7269
 20
1066.8344
 30
0.0
 10
-48.4484
 20
1068.1971
 30
0.0
 10
-46.4249
 20
1068.1971
 30
0.0
 10
-46.4249
 20
1068.1971
 30
0.0
 10
-45.8065
 20
1068.1971
 30
0.0
 10
-45.2561
 20
1068.0786
 30
0.0
 10
-44.9344
 20
1067.9262
 30
0.0
 10
-44.9344
 20
1067.9262
 30
0.0
 10
-44.9344
 20
1067.9262
 30
0.0
 10
-45.1207
 20
1067.342
 30
0.0
 10
-45.1207
 20
1067.342
 30
0.0
 10
-45.1207
 20
1067.342
 30
0.0
 10
-45.4339
 20
1067.4859
 30
0.0
 10
-45.8403
 20
1067.6045
 30
0.0
 10
-46.4415
 20
1067.6045
 30
0.0
 10
-46.4415
 20
1067.6045
 30
0.0
 10
-47.9658
 20
1067.6045
 30
0.0
 10
-48.9903
 20
1066.6223
 30
0.0
 10
-48.9903
 20
1064.9117
 30
0.0
 10
-48.9903
 20
1064.9117
 30
0.0
 10
-48.9903
 20
1063.1676
 30
0.0
 10
-48.0166
 20
1062.1936
 30
0.0
 10
-46.5431
 20
1062.1936
 30
0.0
 10
-46.5431
 20
1062.1936
 30
0.0
 10
-46.0012
 20
1062.1936
 30
0.0
 10
-45.6371
 20
1062.2786
 30
0.0
 10
-45.4509
 20
1062.3805
 30
0.0
 10
-45.4509
 20
1062.3805
 30
0.0
 10
-45.4509
 20
1062.3805
 30
0.0
 10
-45.4509
 20
1064.4461
 30
0.0
 10
-45.4509
 20
1064.4461
 30
0.0
 10
-45.4509
 20
1064.4461
 30
0.0
 10
-45.4509
 20
1064.4461
 30
0.0
 10
-46.7551
 20
1064.4461
 30
0.0
 10
-46.7551
 20
1064.4461
 30
0.0
 10
-46.7551
 20
1064.4461
 30
0.0
 10
-46.7551
 20
1064.4461
 30
0.0
 10
-46.7551
 20
1065.0133
 30
0.0
 10
-46.7551
 20
1065.0133
 30
0.0
 10
-46.7551
 20
1065.0133
 30
0.0
 10
-46.7551
 20
1065.0133
 30
0.0
 10
-44.7566
 20
1065.0133
 30
0.0
 10
-44.7566
 20
1065.0133
 30
0.0
 10
-44.7566
 20
1065.0133
 30
0.0
 10
-44.7566
 20
1065.0133
 30
0.0
 10
-44.7566
 20
1061.9484
 30
0.0
 10
-44.7566
 20
1061.9484
 30
0.0
  0
SPLINE
  5
AC
330
1F
100
AcDbEntity
  8
Layer 1
 62
   240
370
     9
100
AcDbSpline
210
0.0
220
0.0
230
1.0
 70
    11
 71
     3
 72
    52
 73
    48
 74
     0
 42
0.000000001
 43
0.0000000001
 40
0.0
 40
0.0
 40
0.0
 40
0.0
 40
0.0769230769230769
 40
0.0769230769230769
 40
0.0769230769230769
 40
0.0769230769230769
 40
0.1538461538461539
 40
0.1538461538461539
 40
0.1538461538461539
 40
0.1538461538461539
 40
0.2307692307692308
 40
0.2307692307692308
 40
0.2307692307692308
 40
0.2307692307692308
 40
0.3076923076923077
 40
0.3076923076923077
 40
0.3076923076923077
 40
0.3076923076923077
 40
0.3846153846153846
 40
0.3846153846153846
 40
0.3846153846153846
 40
0.3846153846153846
 40
0.4615384615384616
 40
0.4615384615384616
 40
0.4615384615384616
 40
0.4615384615384616
 40
0.5384615384615384
 40
0.5384615384615384
 40
0.5384615384615384
 40
0.5384615384615384
 40
0.6153846153846154
 40
0.6153846153846154
 40
0.6153846153846154
 40
0.6153846153846154
 40
0.6923076923076923
 40
0.6923076923076923
 40
0.6923076923076923
 40
0.6923076923076923
 40
0.7692307692307693
 40
0.7692307692307693
 40
0.7692307692307693
 40
0.7692307692307693
 40
0.8461538461538461
 40
0.8461538461538461
 40
0.8461538461538461
 40
0.8461538461538461
 40
1.0
 40
1.0
 40
1.0
 40
1.0
 10
-192.1694
 20
1061.6859
 30
0.0
 10
-192.1694
 20
1061.6859
 30
0.0
 10
-195.5733
 20
1061.6859
 30
0.0
 10
-195.5733
 20
1061.6859
 30
0.0
 10
-195.5733
 20
1061.6859
 30
0.0
 10
-195.5733
 20
1061.6859
 30
0.0
 10
-195.5733
 20
1068.1378
 30
0.0
 10
-195.5733
 20
1068.1378
 30
0.0
 10
-195.5733
 20
1068.1378
 30
0.0
 10
-195.5733
 20
1068.1378
 30
0.0
 10
-192.3133
 20
1068.1378
 30
0.0
 10
-192.3133
 20
1068.1378
 30
0.0
 10
-192.3133
 20
1068.1378
 30
0.0
 10
-192.3133
 20
1068.1378
 30
0.0
 10
-192.3133
 20
1067.5452
 30
0.0
 10
-192.3133
 20
1067.5452
 30
0.0
 10
-192.3133
 20
1067.5452
 30
0.0
 10
-192.3133
 20
1067.5452
 30
0.0
 10
-194.8706
 20
1067.5452
 30
0.0
 10
-194.8706
 20
1067.5452
 30
0.0
 10
-194.8706
 20
1067.5452
 30
0.0
 10
-194.8706
 20
1067.5452
 30
0.0
 10
-194.8706
 20
1065.3608
 30
0.0
 10
-194.8706
 20
1065.3608
 30
0.0
 10
-194.8706
 20
1065.3608
 30
0.0
 10
-194.8706
 20
1065.3608
 30
0.0
 10
-192.4657
 20
1065.3608
 30
0.0
 10
-192.4657
 20
1065.3608
 30
0.0
 10
-192.4657
 20
1065.3608
 30
0.0
 10
-192.4657
 20
1065.3608
 30
0.0
 10
-192.4657
 20
1064.7766
 30
0.0
 10
-192.4657
 20
1064.7766
 30
0.0
 10
-192.4657
 20
1064.7766
 30
0.0
 10
-192.4657
 20
1064.7766
 30
0.0
 10
-194.8706
 20
1064.7766
 30
0.0
 10
-194.8706
 20
1064.7766
 30
0.0
 10
-194.8706
 20
1064.7766
 30
0.0
 10
-194.8706
 20
1064.7766
 30
0.0
 10
-194.8706
 20
1062.2785
 30
0.0
 10
-194.8706
 20
1062.2785
 30
0.0
 10
-194.8706
 20
1062.2785
 30
0.0
 10
-194.8706
 20
1062.2785
 30
0.0
 10
-192.1694
 20
1062.2785
 30
0.0
 10
-192.1694
 20
1062.2785
 30
0.0
 10
-192.1694
 20
1062.2785
 30
0.0
 10
-192.1694
 20
1062.2785
 30
0.0
 10
-192.1694
 20
1061.6859
 30
0.0
 10
-192.1694
 20
1061.6859
 30
0.0
  0
ENDSEC
  0
SECTION
  2
OBJECTS
  0
DICTIONARY
  5
C
330
0
100
AcDbDictionary
281
     1
  3
ACAD_GROUP
350
D
  3
ACAD_LAYOUT
350
1A
  3
ACAD_MATERIAL
350
43
  3
ACAD_MLEADERSTYLE
350
6B
  3
ACAD_MLINESTYLE
350
17
  3
ACAD_PLOTSETTINGS
350
19
  3
ACAD_PLOTSTYLENAME
350
E
  3
ACAD_SCALELIST
350
47
  3
ACAD_TABLESTYLE
350
69
  3
ACAD_VISUALSTYLE
350
2A
  3
AcDbVariableDictionary
350
AD
  0
DICTIONARY
  5
B4
330
8
100
AcDbDictionary
280
     1
281
     1
  3
ACAD_XREC_ROUNDTRIP
360
B5
  0
DICTIONARY
  5
D
102
{ACAD_REACTORS
330
C
102
}
330
C
100
AcDbDictionary
281
     1
  0
DICTIONARY
  5
1A
102
{ACAD_REACTORS
330
C
102
}
330
C
100
AcDbDictionary
281
     1
  3
Layout1
350
1E
  3
Layout2
350
26
  3
Model
350
22
  0
DICTIONARY
  5
43
102
{ACAD_REACTORS
330
C
102
}
330
C
100
AcDbDictionary
281
     1
  3
ByBlock
350
45
  3
ByLayer
350
44
  3
Global
350
46
  0
DICTIONARY
  5
6B
102
{ACAD_REACTORS
330
C
102
}
330
C
100
AcDbDictionary
281
     1
  3
Standard
350
6C
  0
DICTIONARY
  5
17
102
{ACAD_REACTORS
330
C
102
}
330
C
100
AcDbDictionary
281
     1
  3
Standard
350
18
  0
DICTIONARY
  5
19
102
{ACAD_REACTORS
330
C
102
}
330
C
100
AcDbDictionary
281
     1
  0
ACDBDICTIONARYWDFLT
  5
E
102
{ACAD_REACTORS
330
C
102
}
330
C
100
AcDbDictionary
281
     1
  3
Normal
350
F
100
AcDbDictionaryWithDefault
340
F
  0
DICTIONARY
  5
47
102
{ACAD_REACTORS
330
C
102
}
330
C
100
AcDbDictionary
281
     1
  3
A0
350
48
  3
A1
350
49
  3
A2
350
4A
  3
A3
350
4B
  3
A4
350
4C
  3
A5
350
4D
  3
A6
350
4E
  3
A7
350
4F
  3
A8
350
50
  3
A9
350
51
  3
B0
350
52
  3
B1
350
53
  3
B2
350
54
  3
B3
350
55
  3
B4
350
56
  3
B5
350
57
  3
B6
350
58
  3
B7
350
59
  3
B8
350
5A
  3
B9
350
5B
  3
C0
350
5C
  3
C1
350
5D
  3
C2
350
5E
  3
C3
350
5F
  3
C4
350
60
  3
C5
350
61
  3
C6
350
62
  3
C7
350
63
  3
C8
350
64
  3
C9
350
65
  3
D0
350
66
  3
D1
350
67
  3
D2
350
68
  0
DICTIONARY
  5
69
102
{ACAD_REACTORS
330
C
102
}
330
C
100
AcDbDictionary
281
     1
  3
Standard
350
6A
  0
DICTIONARY
  5
2A
102
{ACAD_REACTORS
330
C
102
}
330
C
100
AcDbDictionary
281
     1
  3
2dWireframe
350
2F
  3
Basic
350
32
  3
Brighten
350
36
  3
ColorChange
350
3A
  3
Conceptual
350
34
  3
Dim
350
35
  3
EdgeColorOff
350
3D
  3
Facepattern
350
39
  3
Flat
350
2B
  3
FlatWithEdges
350
2C
  3
Gouraud
350
2D
  3
GouraudWithEdges
350
2E
  3
Hidden
350
31
  3
JitterOff
350
3B
  3
Linepattern
350
38
  3
OverhangOff
350
3C
  3
Realistic
350
33
  3
Shaded
350
42
  3
Shaded with edges
350
41
  3
Shades of Gray
350
3E
  3
Sketchy
350
3F
  3
Thicken
350
37
  3
Wireframe
350
30
  3
X-Ray
350
40
  0
DICTIONARY
  5
AD
102
{ACAD_REACTORS
330
C
102
}
330
C
100
AcDbDictionary
281
     1
  3
CANNOSCALE
350
B6
  3
CMLEADERSTYLE
350
AF
  3
CTABLESTYLE
350
AE
  3
DIMASSOC
350
B2
  3
HIDETEXT
350
B3
  3
MSLTSCALE
350
B7
  0
XRECORD
  5
B5
102
{ACAD_REACTORS
330
B4
102
}
330
B4
100
AcDbXrecord
280
     1
102
VTR_0.000_0.000_1.000_1.000_VISUALSTYLE
340
2F
102
VTR_0.000_0.000_1.000_1.000_GRIDDISPLAY
 70
     3
102
VTR_0.000_0.000_1.000_1.000_GRIDMAJOR
 70
     5
102
VTR_0.000_0.000_1.000_1.000_DEFAULTLIGHTING
280
     1
102
VTR_0.000_0.000_1.000_1.000_DEFAULTLIGHTINGTYPE
 70
     1
102
VTR_0.000_0.000_1.000_1.000_BRIGHTNESS
141
0.0
102
VTR_0.000_0.000_1.000_1.000_CONTRAST
142
0.0
  0
LAYOUT
  5
1E
102
{ACAD_REACTORS
330
1A
102
}
330
1A
100
AcDbPlotSettings
  1

  2
none_device
  4

  6

 40
0.0
 41
0.0
 42
0.0
 43
0.0
 44
0.0
 45
0.0
 46
0.0
 47
0.0
 48
0.0
 49
0.0
140
0.0
141
0.0
142
1.0
143
1.0
 70
   688
 72
     0
 73
     0
 74
     5
  7

 75
    16
147
1.0
148
0.0
149
0.0
100
AcDbLayout
  1
Layout1
 70
     1
 71
     1
 10
0.0
 20
0.0
 11
12.0
 21
9.0
 12
0.0
 22
0.0
 32
0.0
 14
1.000000000000000E+20
 24
1.000000000000000E+20
 34
1.000000000000000E+20
 15
-1.000000000000000E+20
 25
-1.000000000000000E+20
 35
-1.000000000000000E+20
146
0.0
 13
0.0
 23
0.0
 33
0.0
 16
1.0
 26
0.0
 36
0.0
 17
0.0
 27
1.0
 37
0.0
 76
     0
330
1B
  0
LAYOUT
  5
26
102
{ACAD_REACTORS
330
1A
102
}
330
1A
100
AcDbPlotSettings
  1

  2
none_device
  4

  6

 40
0.0
 41
0.0
 42
0.0
 43
0.0
 44
0.0
 45
0.0
 46
0.0
 47
0.0
 48
0.0
 49
0.0
140
0.0
141
0.0
142
1.0
143
1.0
 70
   688
 72
     0
 73
     0
 74
     5
  7

 75
    16
147
1.0
148
0.0
149
0.0
100
AcDbLayout
  1
Layout2
 70
     1
 71
     2
 10
0.0
 20
0.0
 11
0.0
 21
0.0
 12
0.0
 22
0.0
 32
0.0
 14
0.0
 24
0.0
 34
0.0
 15
0.0
 25
0.0
 35
0.0
146
0.0
 13
0.0
 23
0.0
 33
0.0
 16
1.0
 26
0.0
 36
0.0
 17
0.0
 27
1.0
 37
0.0
 76
     0
330
23
  0
LAYOUT
  5
22
102
{ACAD_REACTORS
330
1A
102
}
330
1A
100
AcDbPlotSettings
  1

  2
none_device
  4
Letter_(8.50_x_11.00_Inches)
  6

 40
6.35
 41
6.35
 42
6.35000508
 43
6.35000508
 44
215.9
 45
279.4
 46
0.0
 47
0.0
 48
0.0
 49
0.0
140
0.0
141
0.0
142
1.0
143
1.0
 70
  1712
 72
     0
 73
     0
 74
     0
  7

 75
     0
147
1.0
148
0.0
149
0.0
100
AcDbLayout
  1
Model
 70
     1
 71
     0
 10
0.0
 20
0.0
 11
12.0
 21
9.0
 12
0.0
 22
0.0
 32
0.0
 14
-199.8277
 24
975.2711
 34
0.0
 15
0.8478
 25
1256.2983
 35
0.0
146
0.0
 13
0.0
 23
0.0
 33
0.0
 16
1.0
 26
0.0
 36
0.0
 17
0.0
 27
1.0
 37
0.0
 76
     0
330
1F
331
29
  0
MATERIAL
  5
45
102
{ACAD_REACTORS
330
43
102
}
102
{ACAD_XDICTIONARY
360
EA
102
}
330
43
100
AcDbMaterial
  1
ByBlock
  0
MATERIAL
  5
44
102
{ACAD_REACTORS
330
43
102
}
102
{ACAD_XDICTIONARY
360
E8
102
}
330
43
100
AcDbMaterial
  1
ByLayer
  0
MATERIAL
  5
46
102
{ACAD_REACTORS
330
43
102
}
102
{ACAD_XDICTIONARY
360
EC
102
}
330
43
100
AcDbMaterial
  1
Global
  0
MLEADERSTYLE
  5
6C
102
{ACAD_REACTORS
330
6B
102
}
102
{ACAD_XDICTIONARY
360
EF
102
}
330
6B
100
AcDbMLeaderStyle
170
     2
171
     1
172
     0
 90
        2
 40
0.0
 41
0.0
173
     1
 91
-1056964608
340
14
 92
       -2
290
     1
 42
0.09
291
     1
 43
0.36
  3
Standard
341
0
 44
0.18
300

342
11
174
     1
178
     6
175
     1
176
     0
 93
-1056964608
 45
0.18
292
     0
297
     0
 46
0.18
343
0
 94
-1056964608
 47
1.0
 49
1.0
140
1.0
293
     1
141
0.0
294
     1
177
     0
142
1.0
295
     0
296
     0
143
0.125
1001
ACAD_MLEADERVER
1070
     2
  0
MLINESTYLE
  5
18
102
{ACAD_REACTORS
330
17
102
}
330
17
100
AcDbMlineStyle
  2
Standard
 70
     0
  3

 62
   256
 51
90.0
 52
90.0
 71
     2
 49
0.5
 62
   256
  6
BYLAYER
 49
-0.5
 62
   256
  6
BYLAYER
  0
ACDBPLACEHOLDER
  5
F
102
{ACAD_REACTORS
330
E
102
}
330
E
  0
SCALE
  5
48
102
{ACAD_REACTORS
330
47
102
}
330
47
100
AcDbScale
 70
     0
300
1:1
140
1.0
141
1.0
290
     1
  0
SCALE
  5
49
102
{ACAD_REACTORS
330
47
102
}
330
47
100
AcDbScale
 70
     0
300
1:2
140
1.0
141
2.0
290
     0
  0
SCALE
  5
4A
102
{ACAD_REACTORS
330
47
102
}
330
47
100
AcDbScale
 70
     0
300
1:4
140
1.0
141
4.0
290
     0
  0
SCALE
  5
4B
102
{ACAD_REACTORS
330
47
102
}
330
47
100
AcDbScale
 70
     0
300
1:5
140
1.0
141
5.0
290
     0
  0
SCALE
  5
4C
102
{ACAD_REACTORS
330
47
102
}
330
47
100
AcDbScale
 70
     0
300
1:8
140
1.0
141
8.0
290
     0
  0
SCALE
  5
4D
102
{ACAD_REACTORS
330
47
102
}
330
47
100
AcDbScale
 70
     0
300
1:10
140
1.0
141
10.0
290
     0
  0
SCALE
  5
4E
102
{ACAD_REACTORS
330
47
102
}
330
47
100
AcDbScale
 70
     0
300
1:16
140
1.0
141
16.0
290
     0
  0
SCALE
  5
4F
102
{ACAD_REACTORS
330
47
102
}
330
47
100
AcDbScale
 70
     0
300
1:20
140
1.0
141
20.0
290
     0
  0
SCALE
  5
50
102
{ACAD_REACTORS
330
47
102
}
330
47
100
AcDbScale
 70
     0
300
1:30
140
1.0
141
30.0
290
     0
  0
SCALE
  5
51
102
{ACAD_REACTORS
330
47
102
}
330
47
100
AcDbScale
 70
     0
300
1:40
140
1.0
141
40.0
290
     0
  0
SCALE
  5
52
102
{ACAD_REACTORS
330
47
102
}
330
47
100
AcDbScale
 70
     0
300
1:50
140
1.0
141
50.0
290
     0
  0
SCALE
  5
53
102
{ACAD_REACTORS
330
47
102
}
330
47
100
AcDbScale
 70
     0
300
1:100
140
1.0
141
100.0
290
     0
  0
SCALE
  5
54
102
{ACAD_REACTORS
330
47
102
}
330
47
100
AcDbScale
 70
     0
300
2:1
140
2.0
141
1.0
290
     0
  0
SCALE
  5
55
102
{ACAD_REACTORS
330
47
102
}
330
47
100
AcDbScale
 70
     0
300
4:1
140
4.0
141
1.0
290
     0
  0
SCALE
  5
56
102
{ACAD_REACTORS
330
47
102
}
330
47
100
AcDbScale
 70
     0
300
8:1
140
8.0
141
1.0
290
     0
  0
SCALE
  5
57
102
{ACAD_REACTORS
330
47
102
}
330
47
100
AcDbScale
 70
     0
300
10:1
140
10.0
141
1.0
290
     0
  0
SCALE
  5
58
102
{ACAD_REACTORS
330
47
102
}
330
47
100
AcDbScale
 70
     0
300
100:1
140
100.0
141
1.0
290
     0
  0
SCALE
  5
59
102
{ACAD_REACTORS
330
47
102
}
330
47
100
AcDbScale
 70
     0
300
1/128\" = 1\'-0\"
140
0.0078125
141
12.0
290
     0
  0
SCALE
  5
5A
102
{ACAD_REACTORS
330
47
102
}
330
47
100
AcDbScale
 70
     0
300
1/64\" = 1\'-0\"
140
0.015625
141
12.0
290
     0
  0
SCALE
  5
5B
102
{ACAD_REACTORS
330
47
102
}
330
47
100
AcDbScale
 70
     0
300
1/32\" = 1\'-0\"
140
0.03125
141
12.0
290
     0
  0
SCALE
  5
5C
102
{ACAD_REACTORS
330
47
102
}
330
47
100
AcDbScale
 70
     0
300
1/16\" = 1\'-0\"
140
0.0625
141
12.0
290
     0
  0
SCALE
  5
5D
102
{ACAD_REACTORS
330
47
102
}
330
47
100
AcDbScale
 70
     0
300
3/32\" = 1\'-0\"
140
0.09375
141
12.0
290
     0
  0
SCALE
  5
5E
102
{ACAD_REACTORS
330
47
102
}
330
47
100
AcDbScale
 70
     0
300
1/8\" = 1\'-0\"
140
0.125
141
12.0
290
     0
  0
SCALE
  5
5F
102
{ACAD_REACTORS
330
47
102
}
330
47
100
AcDbScale
 70
     0
300
3/16\" = 1\'-0\"
140
0.1875
141
12.0
290
     0
  0
SCALE
  5
60
102
{ACAD_REACTORS
330
47
102
}
330
47
100
AcDbScale
 70
     0
300
1/4\" = 1\'-0\"
140
0.25
141
12.0
290
     0
  0
SCALE
  5
61
102
{ACAD_REACTORS
330
47
102
}
330
47
100
AcDbScale
 70
     0
300
3/8\" = 1\'-0\"
140
0.375
141
12.0
290
     0
  0
SCALE
  5
62
102
{ACAD_REACTORS
330
47
102
}
330
47
100
AcDbScale
 70
     0
300
1/2\" = 1\'-0\"
140
0.5
141
12.0
290
     0
  0
SCALE
  5
63
102
{ACAD_REACTORS
330
47
102
}
330
47
100
AcDbScale
 70
     0
300
3/4\" = 1\'-0\"
140
0.75
141
12.0
290
     0
  0
SCALE
  5
64
102
{ACAD_REACTORS
330
47
102
}
330
47
100
AcDbScale
 70
     0
300
1\" = 1\'-0\"
140
1.0
141
12.0
290
     0
  0
SCALE
  5
65
102
{ACAD_REACTORS
330
47
102
}
330
47
100
AcDbScale
 70
     0
300
1-1/2\" = 1\'-0\"
140
1.5
141
12.0
290
     0
  0
SCALE
  5
66
102
{ACAD_REACTORS
330
47
102
}
330
47
100
AcDbScale
 70
     0
300
3\" = 1\'-0\"
140
3.0
141
12.0
290
     0
  0
SCALE
  5
67
102
{ACAD_REACTORS
330
47
102
}
330
47
100
AcDbScale
 70
     0
300
6\" = 1\'-0\"
140
6.0
141
12.0
290
     0
  0
SCALE
  5
68
102
{ACAD_REACTORS
330
47
102
}
330
47
100
AcDbScale
 70
     0
300
1\'-0\" = 1\'-0\"
140
12.0
141
12.0
290
     0
  0
TABLESTYLE
  5
6A
102
{ACAD_REACTORS
330
69
102
}
330
69
100
AcDbTableStyle
  3
Standard
 70
     0
 71
     0
 40
0.06
 41
0.06
280
     0
281
     0
  7
Standard
140
0.18
170
     2
 62
     0
 63
   257
283
     0
274
    -2
284
     1
 64
     0
275
    -2
285
     1
 65
     0
276
    -2
286
     1
 66
     0
277
    -2
287
     1
 67
     0
278
    -2
288
     1
 68
     0
279
    -2
289
     1
 69
     0
  7
Standard
140
0.25
170
     5
 62
     0
 63
   257
283
     0
274
    -2
284
     1
 64
     0
275
    -2
285
     1
 65
     0
276
    -2
286
     1
 66
     0
277
    -2
287
     1
 67
     0
278
    -2
288
     1
 68
     0
279
    -2
289
     1
 69
     0
  7
Standard
140
0.18
170
     5
 62
     0
 63
   257
283
     0
274
    -2
284
     1
 64
     0
275
    -2
285
     1
 65
     0
276
    -2
286
     1
 66
     0
277
    -2
287
     1
 67
     0
278
    -2
288
     1
 68
     0
279
    -2
289
     1
 69
     0
  0
VISUALSTYLE
  5
2F
102
{ACAD_REACTORS
330
2A
102
}
102
{ACAD_XDICTIONARY
360
C0
102
}
330
2A
100
AcDbVisualStyle
  2
2dWireframe
 70
     4
 71
     0
 72
     2
 73
     0
 90
        0
 40
0.6
 41
30.0
 62
     5
 63
     7
 74
     1
 91
        4
 64
     7
 65
   257
 75
     1
175
     1
 42
1.0
 92
        0
 66
   257
 43
1.0
 76
     1
 77
     6
 78
     2
 67
     7
 79
     5
170
     0
171
     0
290
     0
174
     0
 93
        1
 44
0.0
173
     0
291
     0
 45
0.0
1001
ACAD
1000
AcDbSavedByObjectVersion
1070
     0
  0
VISUALSTYLE
  5
32
102
{ACAD_REACTORS
330
2A
102
}
102
{ACAD_XDICTIONARY
360
C6
102
}
330
2A
100
AcDbVisualStyle
  2
Basic
 70
     7
 71
     1
 72
     0
 73
     1
 90
        0
 40
0.6
 41
30.0
 62
     5
 63
     7
 74
     0
 91
        4
 64
     7
 65
   257
 75
     1
175
     1
 42
1.0
 92
        8
 66
     7
 43
1.0
 76
     1
 77
     6
 78
     2
 67
     7
 79
     5
170
     0
171
     0
290
     0
174
     0
 93
        1
 44
0.0
173
     0
291
     1
 45
0.0
1001
ACAD
1000
AcDbSavedByObjectVersion
1070
     0
  0
VISUALSTYLE
  5
36
102
{ACAD_REACTORS
330
2A
102
}
102
{ACAD_XDICTIONARY
360
CE
102
}
330
2A
100
AcDbVisualStyle
  2
Brighten
 70
    12
 71
     2
 72
     2
 73
     0
 90
        0
 40
0.6
 41
30.0
 62
     5
 63
     7
 74
     1
 91
        4
 64
     7
 65
   257
 75
     1
175
     1
 42
1.0
 92
        8
 66
     7
 43
1.0
 76
     1
 77
     6
 78
     2
 67
     7
 79
     5
170
     0
171
     0
290
     0
174
     0
 93
        1
 44
50.0
173
     0
291
     1
 45
0.0
1001
ACAD
1000
AcDbSavedByObjectVersion
1070
     0
  0
VISUALSTYLE
  5
3A
102
{ACAD_REACTORS
330
2A
102
}
102
{ACAD_XDICTIONARY
360
D6
102
}
330
2A
100
AcDbVisualStyle
  2
ColorChange
 70
    16
 71
     2
 72
     2
 73
     3
 90
        0
 40
0.6
 41
30.0
 62
     5
 63
     8
 74
     1
 91
        4
 64
     7
 65
   257
 75
     1
175
     1
 42
1.0
 92
        8
 66
     8
 43
1.0
 76
     1
 77
     6
 78
     2
 67
     7
 79
     5
170
     0
171
     0
290
     0
174
     0
 93
        1
 44
0.0
173
     0
291
     1
 45
0.0
1001
ACAD
1000
AcDbSavedByObjectVersion
1070
     0
  0
VISUALSTYLE
  5
34
102
{ACAD_REACTORS
330
2A
102
}
102
{ACAD_XDICTIONARY
360
CA
102
}
330
2A
100
AcDbVisualStyle
  2
Conceptual
 70
     9
 71
     3
 72
     2
 73
     0
 90
        0
 40
0.6
 41
30.0
 62
     5
 63
     7
 74
     2
 91
        2
 64
     7
 65
   257
 75
     1
175
     1
 42
179.0
 92
        8
 66
     7
 43
1.0
 76
     1
 77
     6
 78
     2
 67
     7
 79
     3
170
     0
171
     0
290
     0
174
     0
 93
        1
 44
0.0
173
     0
291
     0
 45
0.0
1001
ACAD
1000
AcDbSavedByObjectVersion
1070
     0
  0
VISUALSTYLE
  5
35
102
{ACAD_REACTORS
330
2A
102
}
102
{ACAD_XDICTIONARY
360
CC
102
}
330
2A
100
AcDbVisualStyle
  2
Dim
 70
    11
 71
     2
 72
     2
 73
     0
 90
        0
 40
0.6
 41
30.0
 62
     5
 63
     7
 74
     1
 91
        4
 64
     7
 65
   257
 75
     1
175
     1
 42
1.0
 92
        8
 66
     7
 43
1.0
 76
     1
 77
     6
 78
     2
 67
     7
 79
     5
170
     0
171
     0
290
     0
174
     0
 93
        1
 44
-50.0
173
     0
291
     1
 45
0.0
1001
ACAD
1000
AcDbSavedByObjectVersion
1070
     0
  0
VISUALSTYLE
  5
3D
102
{ACAD_REACTORS
330
2A
102
}
102
{ACAD_XDICTIONARY
360
DC
102
}
330
2A
100
AcDbVisualStyle
  2
EdgeColorOff
 70
    22
 71
     2
 72
     2
 73
     0
 90
        0
 40
0.6
 41
30.0
 62
     5
 63
     7
 74
     1
 91
        4
 64
     7
 65
   257
 75
     1
175
     1
 42
1.0
 92
        8
 66
     7
 43
1.0
 76
     1
 77
     6
 78
     2
 67
     7
 79
     5
170
     0
171
     0
290
     0
174
     0
 93
        1
 44
0.0
173
     0
291
     1
 45
0.0
1001
ACAD
1000
AcDbSavedByObjectVersion
1070
     0
  0
VISUALSTYLE
  5
39
102
{ACAD_REACTORS
330
2A
102
}
102
{ACAD_XDICTIONARY
360
D4
102
}
330
2A
100
AcDbVisualStyle
  2
Facepattern
 70
    15
 71
     2
 72
     2
 73
     0
 90
        0
 40
0.6
 41
30.0
 62
     5
 63
     7
 74
     1
 91
        4
 64
     7
 65
   257
 75
     1
175
     1
 42
1.0
 92
        8
 66
     7
 43
1.0
 76
     1
 77
     6
 78
     2
 67
     7
 79
     5
170
     0
171
     0
290
     0
174
     0
 93
        1
 44
0.0
173
     0
291
     1
 45
0.0
1001
ACAD
1000
AcDbSavedByObjectVersion
1070
     0
  0
VISUALSTYLE
  5
2B
102
{ACAD_REACTORS
330
2A
102
}
102
{ACAD_XDICTIONARY
360
B8
102
}
330
2A
100
AcDbVisualStyle
  2
Flat
 70
     0
 71
     2
 72
     1
 73
     1
 90
        2
 40
0.6
 41
30.0
 62
     5
 63
     7
 74
     0
 91
        0
 64
     7
 65
   257
 75
     1
175
     1
 42
1.0
 92
        8
 66
     7
 43
1.0
 76
     1
 77
     6
 78
     2
 67
     7
 79
     5
170
     0
171
     0
290
     0
174
     0
 93
       13
 44
0.0
173
     0
291
     1
 45
0.0
1001
ACAD
1000
AcDbSavedByObjectVersion
1070
     0
  0
VISUALSTYLE
  5
2C
102
{ACAD_REACTORS
330
2A
102
}
102
{ACAD_XDICTIONARY
360
BA
102
}
330
2A
100
AcDbVisualStyle
  2
FlatWithEdges
 70
     1
 71
     2
 72
     1
 73
     1
 90
        2
 40
0.6
 41
30.0
 62
     5
 63
     7
 74
     1
 91
        0
 64
     7
 65
   257
 75
     1
175
     1
 42
1.0
 92
        0
 66
   257
 43
1.0
 76
     1
 77
     6
 78
     2
 67
     7
 79
     5
170
     0
171
     0
290
     0
174
     0
 93
       13
 44
0.0
173
     0
291
     1
 45
0.0
1001
ACAD
1000
AcDbSavedByObjectVersion
1070
     0
  0
VISUALSTYLE
  5
2D
102
{ACAD_REACTORS
330
2A
102
}
102
{ACAD_XDICTIONARY
360
BC
102
}
330
2A
100
AcDbVisualStyle
  2
Gouraud
 70
     2
 71
     2
 72
     2
 73
     1
 90
        2
 40
0.6
 41
30.0
 62
     5
 63
     7
 74
     0
 91
        0
 64
     7
 65
   257
 75
     1
175
     1
 42
1.0
 92
        0
 66
     7
 43
1.0
 76
     1
 77
     6
 78
     2
 67
     7
 79
     5
170
     0
171
     0
290
     0
174
     0
 93
       13
 44
0.0
173
     0
291
     1
 45
0.0
1001
ACAD
1000
AcDbSavedByObjectVersion
1070
     0
  0
VISUALSTYLE
  5
2E
102
{ACAD_REACTORS
330
2A
102
}
102
{ACAD_XDICTIONARY
360
BE
102
}
330
2A
100
AcDbVisualStyle
  2
GouraudWithEdges
 70
     3
 71
     2
 72
     2
 73
     1
 90
        2
 40
0.6
 41
30.0
 62
     5
 63
     7
 74
     1
 91
        0
 64
     7
 65
   257
 75
     1
175
     1
 42
1.0
 92
        0
 66
   257
 43
1.0
 76
     1
 77
     6
 78
     2
 67
     7
 79
     5
170
     0
171
     0
290
     0
174
     0
 93
       13
 44
0.0
173
     0
291
     1
 45
0.0
1001
ACAD
1000
AcDbSavedByObjectVersion
1070
     0
  0
VISUALSTYLE
  5
31
102
{ACAD_REACTORS
330
2A
102
}
102
{ACAD_XDICTIONARY
360
C4
102
}
330
2A
100
AcDbVisualStyle
  2
Hidden
 70
     6
 71
     1
 72
     2
 73
     2
 90
        0
 40
0.6
 41
30.0
 62
     5
 63
     7
 74
     2
 91
        2
 64
     7
 65
   257
 75
     2
175
     1
 42
40.0
 92
        0
 66
   257
 43
1.0
 76
     1
 77
     6
 78
     2
 67
     7
 79
     3
170
     0
171
     0
290
     0
174
     0
 93
        1
 44
0.0
173
     0
291
     0
 45
0.0
1001
ACAD
1000
AcDbSavedByObjectVersion
1070
     0
  0
VISUALSTYLE
  5
3B
102
{ACAD_REACTORS
330
2A
102
}
102
{ACAD_XDICTIONARY
360
D8
102
}
330
2A
100
AcDbVisualStyle
  2
JitterOff
 70
    20
 71
     2
 72
     2
 73
     0
 90
        0
 40
0.6
 41
30.0
 62
     5
 63
     7
 74
     1
 91
        4
 64
     7
 65
   257
 75
     1
175
     1
 42
1.0
 92
       10
 66
     7
 43
1.0
 76
     1
 77
     6
 78
     2
 67
     7
 79
     5
170
     0
171
     0
290
     0
174
     0
 93
        1
 44
0.0
173
     0
291
     1
 45
0.0
1001
ACAD
1000
AcDbSavedByObjectVersion
1070
     0
  0
VISUALSTYLE
  5
38
102
{ACAD_REACTORS
330
2A
102
}
102
{ACAD_XDICTIONARY
360
D2
102
}
330
2A
100
AcDbVisualStyle
  2
Linepattern
 70
    14
 71
     2
 72
     2
 73
     0
 90
        0
 40
0.6
 41
30.0
 62
     5
 63
     7
 74
     1
 91
        4
 64
     7
 65
   257
 75
     7
175
     7
 42
1.0
 92
        8
 66
     7
 43
1.0
 76
     1
 77
     6
 78
     2
 67
     7
 79
     5
170
     0
171
     0
290
     0
174
     0
 93
        1
 44
0.0
173
     0
291
     1
 45
0.0
1001
ACAD
1000
AcDbSavedByObjectVersion
1070
     0
  0
VISUALSTYLE
  5
3C
102
{ACAD_REACTORS
330
2A
102
}
102
{ACAD_XDICTIONARY
360
DA
102
}
330
2A
100
AcDbVisualStyle
  2
OverhangOff
 70
    21
 71
     2
 72
     2
 73
     0
 90
        0
 40
0.6
 41
30.0
 62
     5
 63
     7
 74
     1
 91
        4
 64
     7
 65
   257
 75
     1
175
     1
 42
1.0
 92
        9
 66
     7
 43
1.0
 76
     1
 77
     6
 78
     2
 67
     7
 79
     5
170
     0
171
     0
290
     0
174
     0
 93
        1
 44
0.0
173
     0
291
     1
 45
0.0
1001
ACAD
1000
AcDbSavedByObjectVersion
1070
     0
  0
VISUALSTYLE
  5
33
102
{ACAD_REACTORS
330
2A
102
}
102
{ACAD_XDICTIONARY
360
C8
102
}
330
2A
100
AcDbVisualStyle
  2
Realistic
 70
     8
 71
     2
 72
     3
 73
     0
 90
        2
 40
0.6
 41
30.0
 62
     5
 63
     7
 74
     0
 91
        0
 64
     7
 65
   257
 75
     1
175
     1
 42
1.0
 92
        8
 66
   257
 43
1.0
 76
     1
 77
     6
 78
     2
 67
     7
 79
     3
170
     0
171
     0
290
     0
174
     0
 93
       13
 44
0.0
173
     0
291
     0
 45
0.0
1001
ACAD
1000
AcDbSavedByObjectVersion
1070
     0
  0
VISUALSTYLE
  5
42
102
{ACAD_REACTORS
330
2A
102
}
102
{ACAD_XDICTIONARY
360
E6
102
}
330
2A
100
AcDbVisualStyle
  2
Shaded
 70
    27
 71
     2
 72
     2
 73
     1
 90
        2
 40
0.6
 41
30.0
 62
     5
 63
     7
 74
     0
 91
        4
 64
     7
 65
   257
 75
     1
175
     1
 42
1.0
 92
        8
 66
   257
 43
1.0
 76
     1
 77
     6
 78
     2
 67
     8
 79
     3
170
     0
171
     0
290
     0
174
     0
 93
        5
 44
0.0
173
     0
291
     0
 45
0.0
1001
ACAD
1000
AcDbSavedByObjectVersion
1070
     0
  0
VISUALSTYLE
  5
41
102
{ACAD_REACTORS
330
2A
102
}
102
{ACAD_XDICTIONARY
360
E4
102
}
330
2A
100
AcDbVisualStyle
  2
Shaded with edges
 70
    26
 71
     2
 72
     2
 73
     1
 90
        2
 40
0.6
 41
30.0
 62
     5
 63
     7
 74
     1
 91
       10
 64
     7
 65
   257
 75
     2
175
     1
 42
1.0
 92
        8
 66
   257
 43
1.0
 76
     1
 77
     6
 78
     2
 67
     7
 79
     3
170
     0
171
     0
290
     0
174
     0
 93
        5
 44
0.0
173
     0
291
     0
 45
0.0
1001
ACAD
1000
AcDbSavedByObjectVersion
1070
     0
  0
VISUALSTYLE
  5
3E
102
{ACAD_REACTORS
330
2A
102
}
102
{ACAD_XDICTIONARY
360
DE
102
}
330
2A
100
AcDbVisualStyle
  2
Shades of Gray
 70
    23
 71
     2
 72
     2
 73
     3
 90
        0
 40
0.6
 41
30.0
 62
     5
 63
     7
 74
     2
 91
        2
 64
     7
 65
     7
 75
     1
175
     1
 42
40.0
 92
        8
 66
     7
 43
1.0
 76
     1
 77
     6
 78
     2
 67
     7
 79
     3
170
     0
171
     0
290
     0
174
     0
 93
        1
 44
0.0
173
     0
291
     0
 45
0.0
1001
ACAD
1000
AcDbSavedByObjectVersion
1070
     0
  0
VISUALSTYLE
  5
3F
102
{ACAD_REACTORS
330
2A
102
}
102
{ACAD_XDICTIONARY
360
E0
102
}
330
2A
100
AcDbVisualStyle
  2
Sketchy
 70
    24
 71
     1
 72
     2
 73
     2
 90
        0
 40
0.6
 41
30.0
 62
     5
 63
     7
 74
     2
 91
        2
 64
     7
 65
     7
 75
     1
175
     1
 42
40.0
 92
       11
 66
     7
 43
1.0
 76
     1
 77
     6
 78
     2
 67
     7
 79
     6
170
     0
171
     0
290
     0
174
     0
 93
        1
 44
0.0
173
     0
291
     0
 45
0.0
1001
ACAD
1000
AcDbSavedByObjectVersion
1070
     0
  0
VISUALSTYLE
  5
37
102
{ACAD_REACTORS
330
2A
102
}
102
{ACAD_XDICTIONARY
360
D0
102
}
330
2A
100
AcDbVisualStyle
  2
Thicken
 70
    13
 71
     2
 72
     2
 73
     0
 90
        0
 40
0.6
 41
30.0
 62
     5
 63
     7
 74
     1
 91
        4
 64
     7
 65
   257
 75
     1
175
     1
 42
1.0
 92
       12
 66
     7
 43
1.0
 76
     1
 77
     6
 78
     2
 67
     7
 79
     5
170
     0
171
     0
290
     0
174
     0
 93
        1
 44
0.0
173
     0
291
     1
 45
0.0
1001
ACAD
1000
AcDbSavedByObjectVersion
1070
     0
  0
VISUALSTYLE
  5
30
102
{ACAD_REACTORS
330
2A
102
}
102
{ACAD_XDICTIONARY
360
C2
102
}
330
2A
100
AcDbVisualStyle
  2
Wireframe
 70
     5
 71
     0
 72
     2
 73
     0
 90
        0
 40
0.6
 41
30.0
 62
     5
 63
     7
 74
     1
 91
        4
 64
     7
 65
   257
 75
     1
175
     1
 42
1.0
 92
        0
 66
   257
 43
1.0
 76
     1
 77
     6
 78
     2
 67
     7
 79
     3
170
     0
171
     0
290
     0
174
     0
 93
        1
 44
0.0
173
     0
291
     0
 45
0.0
1001
ACAD
1000
AcDbSavedByObjectVersion
1070
     0
  0
VISUALSTYLE
  5
40
102
{ACAD_REACTORS
330
2A
102
}
102
{ACAD_XDICTIONARY
360
E2
102
}
330
2A
100
AcDbVisualStyle
  2
X-Ray
 70
    25
 71
     2
 72
     2
 73
     1
 90
        1
 40
0.5
 41
30.0
 62
     5
 63
     7
 74
     1
 91
        0
 64
     7
 65
   257
 75
     1
175
     1
 42
1.0
 92
        8
 66
     7
 43
1.0
 76
     1
 77
     6
 78
     2
 67
     7
 79
     3
170
     0
171
     0
290
     0
174
     0
 93
       13
 44
0.0
173
     0
291
     0
 45
0.0
1001
ACAD
1000
AcDbSavedByObjectVersion
1070
     0
  0
DICTIONARYVAR
  5
B6
102
{ACAD_REACTORS
330
AD
102
}
330
AD
100
DictionaryVariables
280
     0
  1
1:1
  0
DICTIONARYVAR
  5
AF
102
{ACAD_REACTORS
330
AD
102
}
330
AD
100
DictionaryVariables
280
     0
  1
Standard
  0
DICTIONARYVAR
  5
AE
102
{ACAD_REACTORS
330
AD
102
}
330
AD
100
DictionaryVariables
280
     0
  1
Standard
  0
DICTIONARYVAR
  5
B2
102
{ACAD_REACTORS
330
AD
102
}
330
AD
100
DictionaryVariables
280
     0
  1
2
  0
DICTIONARYVAR
  5
B3
102
{ACAD_REACTORS
330
AD
102
}
330
AD
100
DictionaryVariables
280
     0
  1
1
  0
DICTIONARYVAR
  5
B7
102
{ACAD_REACTORS
330
AD
102
}
330
AD
100
DictionaryVariables
280
     0
  1
1
  0
DICTIONARY
  5
EA
330
45
100
AcDbDictionary
280
     1
281
     1
  3
ACAD_XREC_ROUNDTRIP
360
EB
  0
DICTIONARY
  5
E8
330
44
100
AcDbDictionary
280
     1
281
     1
  3
ACAD_XREC_ROUNDTRIP
360
E9
  0
DICTIONARY
  5
EC
330
46
100
AcDbDictionary
280
     1
281
     1
  3
ACAD_XREC_ROUNDTRIP
360
ED
  0
DICTIONARY
  5
EF
330
6C
100
AcDbDictionary
280
     1
281
     1
  3
ACAD_XREC_ROUNDTRIP
360
F0
  0
DICTIONARY
  5
C0
330
2F
100
AcDbDictionary
280
     1
281
     1
  3
ACAD_XREC_ROUNDTRIP
360
C1
  0
DICTIONARY
  5
C6
330
32
100
AcDbDictionary
280
     1
281
     1
  3
ACAD_XREC_ROUNDTRIP
360
C7
  0
DICTIONARY
  5
CE
330
36
100
AcDbDictionary
280
     1
281
     1
  3
ACAD_XREC_ROUNDTRIP
360
CF
  0
DICTIONARY
  5
D6
330
3A
100
AcDbDictionary
280
     1
281
     1
  3
ACAD_XREC_ROUNDTRIP
360
D7
  0
DICTIONARY
  5
CA
330
34
100
AcDbDictionary
280
     1
281
     1
  3
ACAD_XREC_ROUNDTRIP
360
CB
  0
DICTIONARY
  5
CC
330
35
100
AcDbDictionary
280
     1
281
     1
  3
ACAD_XREC_ROUNDTRIP
360
CD
  0
DICTIONARY
  5
DC
330
3D
100
AcDbDictionary
280
     1
281
     1
  3
ACAD_XREC_ROUNDTRIP
360
DD
  0
DICTIONARY
  5
D4
330
39
100
AcDbDictionary
280
     1
281
     1
  3
ACAD_XREC_ROUNDTRIP
360
D5
  0
DICTIONARY
  5
B8
330
2B
100
AcDbDictionary
280
     1
281
     1
  3
ACAD_XREC_ROUNDTRIP
360
B9
  0
DICTIONARY
  5
BA
330
2C
100
AcDbDictionary
280
     1
281
     1
  3
ACAD_XREC_ROUNDTRIP
360
BB
  0
DICTIONARY
  5
BC
330
2D
100
AcDbDictionary
280
     1
281
     1
  3
ACAD_XREC_ROUNDTRIP
360
BD
  0
DICTIONARY
  5
BE
330
2E
100
AcDbDictionary
280
     1
281
     1
  3
ACAD_XREC_ROUNDTRIP
360
BF
  0
DICTIONARY
  5
C4
330
31
100
AcDbDictionary
280
     1
281
     1
  3
ACAD_XREC_ROUNDTRIP
360
C5
  0
DICTIONARY
  5
D8
330
3B
100
AcDbDictionary
280
     1
281
     1
  3
ACAD_XREC_ROUNDTRIP
360
D9
  0
DICTIONARY
  5
D2
330
38
100
AcDbDictionary
280
     1
281
     1
  3
ACAD_XREC_ROUNDTRIP
360
D3
  0
DICTIONARY
  5
DA
330
3C
100
AcDbDictionary
280
     1
281
     1
  3
ACAD_XREC_ROUNDTRIP
360
DB
  0
DICTIONARY
  5
C8
330
33
100
AcDbDictionary
280
     1
281
     1
  3
ACAD_XREC_ROUNDTRIP
360
C9
  0
DICTIONARY
  5
E6
330
42
100
AcDbDictionary
280
     1
281
     1
  3
ACAD_XREC_ROUNDTRIP
360
E7
  0
DICTIONARY
  5
E4
330
41
100
AcDbDictionary
280
     1
281
     1
  3
ACAD_XREC_ROUNDTRIP
360
E5
  0
DICTIONARY
  5
DE
330
3E
100
AcDbDictionary
280
     1
281
     1
  3
ACAD_XREC_ROUNDTRIP
360
DF
  0
DICTIONARY
  5
E0
330
3F
100
AcDbDictionary
280
     1
281
     1
  3
ACAD_XREC_ROUNDTRIP
360
E1
  0
DICTIONARY
  5
D0
330
37
100
AcDbDictionary
280
     1
281
     1
  3
ACAD_XREC_ROUNDTRIP
360
D1
  0
DICTIONARY
  5
C2
330
30
100
AcDbDictionary
280
     1
281
     1
  3
ACAD_XREC_ROUNDTRIP
360
C3
  0
DICTIONARY
  5
E2
330
40
100
AcDbDictionary
280
     1
281
     1
  3
ACAD_XREC_ROUNDTRIP
360
E3
  0
XRECORD
  5
EB
102
{ACAD_REACTORS
330
EA
102
}
330
EA
100
AcDbXrecord
280
     1
102
MATERIAL
148
0.0
149
0.0
149
0.0
 93
        0
 94
      127
282
     0
 72
     1
 77
     1
171
     1
175
     1
179
     1
273
     0
  0
XRECORD
  5
E9
102
{ACAD_REACTORS
330
E8
102
}
330
E8
100
AcDbXrecord
280
     1
102
MATERIAL
148
0.0
149
0.0
149
0.0
 93
        0
 94
      127
282
     0
 72
     1
 77
     1
171
     1
175
     1
179
     1
273
     0
  0
XRECORD
  5
ED
102
{ACAD_REACTORS
330
EC
102
}
330
EC
100
AcDbXrecord
280
     1
102
MATERIAL
148
0.0
149
0.0
149
0.0
 93
        0
 94
      127
282
     0
 72
     1
 77
     1
171
     1
175
     1
179
     1
273
     0
  0
XRECORD
  5
F0
102
{ACAD_REACTORS
330
EF
102
}
330
EF
100
AcDbXrecord
280
     1
102
ACAD_ROUNDTRIP_2010_MLEADER_STYLE
  0
XRECORD
  5
C1
102
{ACAD_REACTORS
330
C0
102
}
330
C0
100
AcDbXrecord
280
     1
102
RTVSPropertyOp0
 70
     1
102
RTVSPropertyOp1
 70
     1
102
RTVSPropertyOp2
 70
     1
102
RTVSPropertyOp3
 70
     1
102
RTVSPropertyOp4
 70
     1
102
RTVSPropertyOp5
 70
     1
102
RTVSPropertyOp6
 70
     1
102
RTVSPropertyOp7
 70
     1
102
RTVSPropertyOp8
 70
     1
102
RTVSPropertyOp9
 70
     1
102
RTVSPropertyOp10
 70
     1
102
RTVSPropertyOp11
 70
     1
102
RTVSPropertyOp12
 70
     1
102
RTVSPropertyOp13
 70
     1
102
RTVSPropertyOp14
 70
     1
102
RTVSPropertyOp15
 70
     1
102
RTVSPropertyOp16
 70
     1
102
RTVSPropertyOp17
 70
     1
102
RTVSPropertyOp18
 70
     1
102
RTVSPropertyOp19
 70
     1
102
RTVSPropertyOp20
 70
     1
102
RTVSPropertyOp21
 70
     1
102
RTVSPropertyOp22
 70
     1
102
RTVSPropertyOp23
 70
     1
102
RTVSPropertyOp24
 70
     1
102
RTVSPropertyOp25
 70
     1
102
RTVSPropertyOp26
 70
     1
102
RTVSPropertyOp27
 70
     1
102
RTVSPropertyOp28
 70
     1
102
RTVSPropertyOp29
 70
     1
102
RTVSPropertyOp30
 70
     1
102
RTVSPropertyOp31
 70
     1
102
RTVSPropertyOp32
 70
     1
102
RTVSPropertyOp33
 70
     1
102
RTVSPropertyOp34
 70
     1
102
RTVSPropertyOp35
 70
     1
102
RTVSPropertyOp36
 70
     1
102
RTVSPropertyOp37
 70
     1
102
RTVSPropertyOp38
 70
     1
102
RTVSPropertyOp39
 70
     1
102
RTVSPropertyOp40
 70
     1
102
RTVSPropertyOp41
 70
     1
102
RTVSPropertyOp42
 70
     1
102
RTVSPropertyOp43
 70
     1
102
RTVSPropertyOp44
 70
     1
102
RTVSPropertyOp45
 70
     1
102
RTVSPropertyOp46
 70
     1
102
RTVSPropertyOp47
 70
     1
102
RTVSPropertyOp48
 70
     1
102
RTVSPropertyOp49
 70
     1
102
RTVSPropertyOp50
 70
     1
102
RTVSPropertyOp51
 70
     0
102
RTVSPropertyOp52
 70
     0
102
RTVSPropertyOp53
 70
     1
102
RTVSPropertyOp54
 70
     1
102
RTVSPropertyOp55
 70
     1
102
RTVSPropertyOp56
 70
     1
102
RTVSPropertyOp57
 70
     1
102
RTVSPost2010Prop28
280
     1
102
RTVSPost2010PropOp28
 70
     1
102
RTVSPost2010Prop29
280
     1
102
RTVSPost2010PropOp29
 70
     1
102
RTVSPost2010Prop30
280
     0
102
RTVSPost2010PropOp30
 70
     1
102
RTVSPost2010Prop31
280
     0
102
RTVSPost2010PropOp31
 70
     1
102
RTVSPost2010Prop32
280
     0
102
RTVSPost2010PropOp32
 70
     1
102
RTVSPost2010Prop33
280
     0
102
RTVSPost2010PropOp33
 70
     1
102
RTVSPost2010Prop34
280
     0
102
RTVSPost2010PropOp34
 70
     1
102
RTVSPost2010Prop35
280
     0
102
RTVSPost2010PropOp35
 70
     1
102
RTVSPost2010Prop36
280
     0
102
RTVSPost2010PropOp36
 70
     1
102
RTVSPost2010Prop37
 90
       50
102
RTVSPost2010PropOp37
 70
     1
102
RTVSPost2010Prop38
140
0.0
102
RTVSPost2010PropOp38
 70
     1
102
RTVSPost2010Prop39
140
1.0
102
RTVSPost2010PropOp39
 70
     1
102
RTVSPost2010Prop40
 90
        0
102
RTVSPost2010PropOp40
 70
     1
102
RTVSPost2010Prop41ColorIndex
 90
       18
102
RTVSPost2010Prop41ColorRGB
 90
        0
102
RTVSPost2010PropOp41
 70
     1
102
RTVSPost2010Prop42
 90
       50
102
RTVSPost2010PropOp42
 70
     1
102
RTVSPost2010Prop43
 90
        3
102
RTVSPost2010PropOp43
 70
     1
102
RTVSPost2010Prop44ColorIndex
 90
        5
102
RTVSPost2010Prop44ColorRGB
 90
      255
102
RTVSPost2010PropOp44
 70
     1
102
RTVSPost2010Prop45
280
     0
102
RTVSPost2010PropOp45
 70
     1
102
RTVSPost2010Prop46
 90
       50
102
RTVSPost2010PropOp46
 70
     1
102
RTVSPost2010Prop47
 90
       50
102
RTVSPost2010PropOp47
 70
     1
102
RTVSPost2010Prop48
 90
       50
102
RTVSPost2010PropOp48
 70
     1
102
RTVSPost2010Prop49
280
     0
102
RTVSPost2010PropOp49
 70
     1
102
RTVSPost2010Prop50
 90
       50
102
RTVSPost2010PropOp50
 70
     1
102
RTVSPost2010Prop51ColorIndex
 90
      256
102
RTVSPost2010Prop51ColorRGB
 90
-16777216
102
RTVSPost2010PropOp51
 70
     0
102
RTVSPost2010Prop52
140
1.0
102
RTVSPost2010PropOp52
 70
     0
102
RTVSPost2010Prop53
 90
        2
102
RTVSPost2010PropOp53
 70
     1
102
RTVSPost2010Prop54
  1
strokes_ogs.tif
102
RTVSPost2010PropOp54
 70
     1
102
RTVSPost2010Prop55
280
     0
102
RTVSPost2010PropOp55
 70
     1
102
RTVSPost2010Prop56
140
1.0
102
RTVSPost2010PropOp56
 70
     1
102
RTVSPost2010Prop57
140
1.0
102
RTVSPost2010PropOp57
 70
     1
  0
XRECORD
  5
C7
102
{ACAD_REACTORS
330
C6
102
}
330
C6
100
AcDbXrecord
280
     1
102
RTVSPropertyOp0
 70
     1
102
RTVSPropertyOp1
 70
     1
102
RTVSPropertyOp2
 70
     1
102
RTVSPropertyOp3
 70
     1
102
RTVSPropertyOp4
 70
     1
102
RTVSPropertyOp5
 70
     1
102
RTVSPropertyOp6
 70
     1
102
RTVSPropertyOp7
 70
     1
102
RTVSPropertyOp8
 70
     1
102
RTVSPropertyOp9
 70
     1
102
RTVSPropertyOp10
 70
     1
102
RTVSPropertyOp11
 70
     1
102
RTVSPropertyOp12
 70
     1
102
RTVSPropertyOp13
 70
     1
102
RTVSPropertyOp14
 70
     1
102
RTVSPropertyOp15
 70
     1
102
RTVSPropertyOp16
 70
     1
102
RTVSPropertyOp17
 70
     1
102
RTVSPropertyOp18
 70
     1
102
RTVSPropertyOp19
 70
     1
102
RTVSPropertyOp20
 70
     1
102
RTVSPropertyOp21
 70
     1
102
RTVSPropertyOp22
 70
     1
102
RTVSPropertyOp23
 70
     1
102
RTVSPropertyOp24
 70
     1
102
RTVSPropertyOp25
 70
     1
102
RTVSPropertyOp26
 70
     1
102
RTVSPropertyOp27
 70
     1
102
RTVSPropertyOp28
 70
     1
102
RTVSPropertyOp29
 70
     1
102
RTVSPropertyOp30
 70
     1
102
RTVSPropertyOp31
 70
     1
102
RTVSPropertyOp32
 70
     1
102
RTVSPropertyOp33
 70
     1
102
RTVSPropertyOp34
 70
     1
102
RTVSPropertyOp35
 70
     1
102
RTVSPropertyOp36
 70
     1
102
RTVSPropertyOp37
 70
     1
102
RTVSPropertyOp38
 70
     1
102
RTVSPropertyOp39
 70
     1
102
RTVSPropertyOp40
 70
     1
102
RTVSPropertyOp41
 70
     1
102
RTVSPropertyOp42
 70
     1
102
RTVSPropertyOp43
 70
     1
102
RTVSPropertyOp44
 70
     1
102
RTVSPropertyOp45
 70
     1
102
RTVSPropertyOp46
 70
     1
102
RTVSPropertyOp47
 70
     1
102
RTVSPropertyOp48
 70
     1
102
RTVSPropertyOp49
 70
     1
102
RTVSPropertyOp50
 70
     1
102
RTVSPropertyOp51
 70
     0
102
RTVSPropertyOp52
 70
     0
102
RTVSPropertyOp53
 70
     1
102
RTVSPropertyOp54
 70
     1
102
RTVSPropertyOp55
 70
     1
102
RTVSPropertyOp56
 70
     1
102
RTVSPropertyOp57
 70
     1
102
RTVSPost2010Prop28
280
     0
102
RTVSPost2010PropOp28
 70
     1
102
RTVSPost2010Prop29
280
     1
102
RTVSPost2010PropOp29
 70
     1
102
RTVSPost2010Prop30
280
     1
102
RTVSPost2010PropOp30
 70
     1
102
RTVSPost2010Prop31
280
     0
102
RTVSPost2010PropOp31
 70
     1
102
RTVSPost2010Prop32
280
     0
102
RTVSPost2010PropOp32
 70
     1
102
RTVSPost2010Prop33
280
     0
102
RTVSPost2010PropOp33
 70
     1
102
RTVSPost2010Prop34
280
     0
102
RTVSPost2010PropOp34
 70
     1
102
RTVSPost2010Prop35
280
     0
102
RTVSPost2010PropOp35
 70
     1
102
RTVSPost2010Prop36
280
     0
102
RTVSPost2010PropOp36
 70
     1
102
RTVSPost2010Prop37
 90
       50
102
RTVSPost2010PropOp37
 70
     1
102
RTVSPost2010Prop38
140
0.0
102
RTVSPost2010PropOp38
 70
     1
102
RTVSPost2010Prop39
140
1.0
102
RTVSPost2010PropOp39
 70
     1
102
RTVSPost2010Prop40
 90
        0
102
RTVSPost2010PropOp40
 70
     1
102
RTVSPost2010Prop41ColorIndex
 90
       18
102
RTVSPost2010Prop41ColorRGB
 90
        0
102
RTVSPost2010PropOp41
 70
     1
102
RTVSPost2010Prop42
 90
       50
102
RTVSPost2010PropOp42
 70
     1
102
RTVSPost2010Prop43
 90
        3
102
RTVSPost2010PropOp43
 70
     1
102
RTVSPost2010Prop44ColorIndex
 90
        5
102
RTVSPost2010Prop44ColorRGB
 90
      255
102
RTVSPost2010PropOp44
 70
     1
102
RTVSPost2010Prop45
280
     0
102
RTVSPost2010PropOp45
 70
     1
102
RTVSPost2010Prop46
 90
       50
102
RTVSPost2010PropOp46
 70
     1
102
RTVSPost2010Prop47
 90
       50
102
RTVSPost2010PropOp47
 70
     1
102
RTVSPost2010Prop48
 90
       50
102
RTVSPost2010PropOp48
 70
     1
102
RTVSPost2010Prop49
280
     0
102
RTVSPost2010PropOp49
 70
     1
102
RTVSPost2010Prop50
 90
       50
102
RTVSPost2010PropOp50
 70
     1
102
RTVSPost2010Prop51ColorIndex
 90
      256
102
RTVSPost2010Prop51ColorRGB
 90
-16777216
102
RTVSPost2010PropOp51
 70
     0
102
RTVSPost2010Prop52
140
1.0
102
RTVSPost2010PropOp52
 70
     0
102
RTVSPost2010Prop53
 90
        2
102
RTVSPost2010PropOp53
 70
     1
102
RTVSPost2010Prop54
  1
strokes_ogs.tif
102
RTVSPost2010PropOp54
 70
     1
102
RTVSPost2010Prop55
280
     0
102
RTVSPost2010PropOp55
 70
     1
102
RTVSPost2010Prop56
140
1.0
102
RTVSPost2010PropOp56
 70
     1
102
RTVSPost2010Prop57
140
1.0
102
RTVSPost2010PropOp57
 70
     1
  0
XRECORD
  5
CF
102
{ACAD_REACTORS
330
CE
102
}
330
CE
100
AcDbXrecord
280
     1
102
RTVSPropertyOp0
 70
     1
102
RTVSPropertyOp1
 70
     1
102
RTVSPropertyOp2
 70
     1
102
RTVSPropertyOp3
 70
     1
102
RTVSPropertyOp4
 70
     1
102
RTVSPropertyOp5
 70
     1
102
RTVSPropertyOp6
 70
     1
102
RTVSPropertyOp7
 70
     1
102
RTVSPropertyOp8
 70
     1
102
RTVSPropertyOp9
 70
     1
102
RTVSPropertyOp10
 70
     1
102
RTVSPropertyOp11
 70
     1
102
RTVSPropertyOp12
 70
     1
102
RTVSPropertyOp13
 70
     1
102
RTVSPropertyOp14
 70
     1
102
RTVSPropertyOp15
 70
     1
102
RTVSPropertyOp16
 70
     1
102
RTVSPropertyOp17
 70
     1
102
RTVSPropertyOp18
 70
     1
102
RTVSPropertyOp19
 70
     1
102
RTVSPropertyOp20
 70
     1
102
RTVSPropertyOp21
 70
     1
102
RTVSPropertyOp22
 70
     1
102
RTVSPropertyOp23
 70
     1
102
RTVSPropertyOp24
 70
     1
102
RTVSPropertyOp25
 70
     1
102
RTVSPropertyOp26
 70
     1
102
RTVSPropertyOp27
 70
     1
102
RTVSPropertyOp28
 70
     1
102
RTVSPropertyOp29
 70
     1
102
RTVSPropertyOp30
 70
     1
102
RTVSPropertyOp31
 70
     1
102
RTVSPropertyOp32
 70
     1
102
RTVSPropertyOp33
 70
     1
102
RTVSPropertyOp34
 70
     1
102
RTVSPropertyOp35
 70
     1
102
RTVSPropertyOp36
 70
     1
102
RTVSPropertyOp37
 70
     1
102
RTVSPropertyOp38
 70
     1
102
RTVSPropertyOp39
 70
     1
102
RTVSPropertyOp40
 70
     1
102
RTVSPropertyOp41
 70
     1
102
RTVSPropertyOp42
 70
     1
102
RTVSPropertyOp43
 70
     1
102
RTVSPropertyOp44
 70
     1
102
RTVSPropertyOp45
 70
     1
102
RTVSPropertyOp46
 70
     1
102
RTVSPropertyOp47
 70
     1
102
RTVSPropertyOp48
 70
     1
102
RTVSPropertyOp49
 70
     1
102
RTVSPropertyOp50
 70
     1
102
RTVSPropertyOp51
 70
     0
102
RTVSPropertyOp52
 70
     0
102
RTVSPropertyOp53
 70
     1
102
RTVSPropertyOp54
 70
     1
102
RTVSPropertyOp55
 70
     1
102
RTVSPropertyOp56
 70
     1
102
RTVSPropertyOp57
 70
     1
102
RTVSPost2010Prop28
280
     0
102
RTVSPost2010PropOp28
 70
     1
102
RTVSPost2010Prop29
280
     1
102
RTVSPost2010PropOp29
 70
     1
102
RTVSPost2010Prop30
280
     1
102
RTVSPost2010PropOp30
 70
     1
102
RTVSPost2010Prop31
280
     0
102
RTVSPost2010PropOp31
 70
     1
102
RTVSPost2010Prop32
280
     0
102
RTVSPost2010PropOp32
 70
     1
102
RTVSPost2010Prop33
280
     0
102
RTVSPost2010PropOp33
 70
     1
102
RTVSPost2010Prop34
280
     0
102
RTVSPost2010PropOp34
 70
     1
102
RTVSPost2010Prop35
280
     0
102
RTVSPost2010PropOp35
 70
     1
102
RTVSPost2010Prop36
280
     0
102
RTVSPost2010PropOp36
 70
     1
102
RTVSPost2010Prop37
 90
       50
102
RTVSPost2010PropOp37
 70
     1
102
RTVSPost2010Prop38
140
0.0
102
RTVSPost2010PropOp38
 70
     1
102
RTVSPost2010Prop39
140
1.0
102
RTVSPost2010PropOp39
 70
     1
102
RTVSPost2010Prop40
 90
        0
102
RTVSPost2010PropOp40
 70
     1
102
RTVSPost2010Prop41ColorIndex
 90
       18
102
RTVSPost2010Prop41ColorRGB
 90
        0
102
RTVSPost2010PropOp41
 70
     1
102
RTVSPost2010Prop42
 90
       50
102
RTVSPost2010PropOp42
 70
     1
102
RTVSPost2010Prop43
 90
        3
102
RTVSPost2010PropOp43
 70
     1
102
RTVSPost2010Prop44ColorIndex
 90
        5
102
RTVSPost2010Prop44ColorRGB
 90
      255
102
RTVSPost2010PropOp44
 70
     1
102
RTVSPost2010Prop45
280
     0
102
RTVSPost2010PropOp45
 70
     1
102
RTVSPost2010Prop46
 90
       50
102
RTVSPost2010PropOp46
 70
     1
102
RTVSPost2010Prop47
 90
       50
102
RTVSPost2010PropOp47
 70
     1
102
RTVSPost2010Prop48
 90
       50
102
RTVSPost2010PropOp48
 70
     1
102
RTVSPost2010Prop49
280
     0
102
RTVSPost2010PropOp49
 70
     1
102
RTVSPost2010Prop50
 90
       50
102
RTVSPost2010PropOp50
 70
     1
102
RTVSPost2010Prop51ColorIndex
 90
      256
102
RTVSPost2010Prop51ColorRGB
 90
-16777216
102
RTVSPost2010PropOp51
 70
     0
102
RTVSPost2010Prop52
140
1.0
102
RTVSPost2010PropOp52
 70
     0
102
RTVSPost2010Prop53
 90
        2
102
RTVSPost2010PropOp53
 70
     1
102
RTVSPost2010Prop54
  1
strokes_ogs.tif
102
RTVSPost2010PropOp54
 70
     1
102
RTVSPost2010Prop55
280
     0
102
RTVSPost2010PropOp55
 70
     1
102
RTVSPost2010Prop56
140
1.0
102
RTVSPost2010PropOp56
 70
     1
102
RTVSPost2010Prop57
140
1.0
102
RTVSPost2010PropOp57
 70
     1
  0
XRECORD
  5
D7
102
{ACAD_REACTORS
330
D6
102
}
330
D6
100
AcDbXrecord
280
     1
102
RTVSPropertyOp0
 70
     1
102
RTVSPropertyOp1
 70
     1
102
RTVSPropertyOp2
 70
     1
102
RTVSPropertyOp3
 70
     1
102
RTVSPropertyOp4
 70
     1
102
RTVSPropertyOp5
 70
     1
102
RTVSPropertyOp6
 70
     1
102
RTVSPropertyOp7
 70
     1
102
RTVSPropertyOp8
 70
     1
102
RTVSPropertyOp9
 70
     1
102
RTVSPropertyOp10
 70
     1
102
RTVSPropertyOp11
 70
     1
102
RTVSPropertyOp12
 70
     1
102
RTVSPropertyOp13
 70
     1
102
RTVSPropertyOp14
 70
     1
102
RTVSPropertyOp15
 70
     1
102
RTVSPropertyOp16
 70
     1
102
RTVSPropertyOp17
 70
     1
102
RTVSPropertyOp18
 70
     1
102
RTVSPropertyOp19
 70
     1
102
RTVSPropertyOp20
 70
     1
102
RTVSPropertyOp21
 70
     1
102
RTVSPropertyOp22
 70
     1
102
RTVSPropertyOp23
 70
     1
102
RTVSPropertyOp24
 70
     1
102
RTVSPropertyOp25
 70
     1
102
RTVSPropertyOp26
 70
     1
102
RTVSPropertyOp27
 70
     1
102
RTVSPropertyOp28
 70
     1
102
RTVSPropertyOp29
 70
     1
102
RTVSPropertyOp30
 70
     1
102
RTVSPropertyOp31
 70
     1
102
RTVSPropertyOp32
 70
     1
102
RTVSPropertyOp33
 70
     1
102
RTVSPropertyOp34
 70
     1
102
RTVSPropertyOp35
 70
     1
102
RTVSPropertyOp36
 70
     1
102
RTVSPropertyOp37
 70
     1
102
RTVSPropertyOp38
 70
     1
102
RTVSPropertyOp39
 70
     1
102
RTVSPropertyOp40
 70
     1
102
RTVSPropertyOp41
 70
     1
102
RTVSPropertyOp42
 70
     1
102
RTVSPropertyOp43
 70
     1
102
RTVSPropertyOp44
 70
     1
102
RTVSPropertyOp45
 70
     1
102
RTVSPropertyOp46
 70
     1
102
RTVSPropertyOp47
 70
     1
102
RTVSPropertyOp48
 70
     1
102
RTVSPropertyOp49
 70
     1
102
RTVSPropertyOp50
 70
     1
102
RTVSPropertyOp51
 70
     0
102
RTVSPropertyOp52
 70
     0
102
RTVSPropertyOp53
 70
     1
102
RTVSPropertyOp54
 70
     1
102
RTVSPropertyOp55
 70
     1
102
RTVSPropertyOp56
 70
     1
102
RTVSPropertyOp57
 70
     1
102
RTVSPost2010Prop28
280
     0
102
RTVSPost2010PropOp28
 70
     1
102
RTVSPost2010Prop29
280
     1
102
RTVSPost2010PropOp29
 70
     1
102
RTVSPost2010Prop30
280
     1
102
RTVSPost2010PropOp30
 70
     1
102
RTVSPost2010Prop31
280
     0
102
RTVSPost2010PropOp31
 70
     1
102
RTVSPost2010Prop32
280
     0
102
RTVSPost2010PropOp32
 70
     1
102
RTVSPost2010Prop33
280
     0
102
RTVSPost2010PropOp33
 70
     1
102
RTVSPost2010Prop34
280
     0
102
RTVSPost2010PropOp34
 70
     1
102
RTVSPost2010Prop35
280
     0
102
RTVSPost2010PropOp35
 70
     1
102
RTVSPost2010Prop36
280
     0
102
RTVSPost2010PropOp36
 70
     1
102
RTVSPost2010Prop37
 90
       50
102
RTVSPost2010PropOp37
 70
     1
102
RTVSPost2010Prop38
140
0.0
102
RTVSPost2010PropOp38
 70
     1
102
RTVSPost2010Prop39
140
1.0
102
RTVSPost2010PropOp39
 70
     1
102
RTVSPost2010Prop40
 90
        0
102
RTVSPost2010PropOp40
 70
     1
102
RTVSPost2010Prop41ColorIndex
 90
       18
102
RTVSPost2010Prop41ColorRGB
 90
        0
102
RTVSPost2010PropOp41
 70
     1
102
RTVSPost2010Prop42
 90
       50
102
RTVSPost2010PropOp42
 70
     1
102
RTVSPost2010Prop43
 90
        3
102
RTVSPost2010PropOp43
 70
     1
102
RTVSPost2010Prop44ColorIndex
 90
        5
102
RTVSPost2010Prop44ColorRGB
 90
      255
102
RTVSPost2010PropOp44
 70
     1
102
RTVSPost2010Prop45
280
     0
102
RTVSPost2010PropOp45
 70
     1
102
RTVSPost2010Prop46
 90
       50
102
RTVSPost2010PropOp46
 70
     1
102
RTVSPost2010Prop47
 90
       50
102
RTVSPost2010PropOp47
 70
     1
102
RTVSPost2010Prop48
 90
       50
102
RTVSPost2010PropOp48
 70
     1
102
RTVSPost2010Prop49
280
     0
102
RTVSPost2010PropOp49
 70
     1
102
RTVSPost2010Prop50
 90
       50
102
RTVSPost2010PropOp50
 70
     1
102
RTVSPost2010Prop51ColorIndex
 90
      256
102
RTVSPost2010Prop51ColorRGB
 90
-16777216
102
RTVSPost2010PropOp51
 70
     0
102
RTVSPost2010Prop52
140
1.0
102
RTVSPost2010PropOp52
 70
     0
102
RTVSPost2010Prop53
 90
        2
102
RTVSPost2010PropOp53
 70
     1
102
RTVSPost2010Prop54
  1
strokes_ogs.tif
102
RTVSPost2010PropOp54
 70
     1
102
RTVSPost2010Prop55
280
     0
102
RTVSPost2010PropOp55
 70
     1
102
RTVSPost2010Prop56
140
1.0
102
RTVSPost2010PropOp56
 70
     1
102
RTVSPost2010Prop57
140
1.0
102
RTVSPost2010PropOp57
 70
     1
  0
XRECORD
  5
CB
102
{ACAD_REACTORS
330
CA
102
}
330
CA
100
AcDbXrecord
280
     1
102
RTVSPropertyOp0
 70
     1
102
RTVSPropertyOp1
 70
     1
102
RTVSPropertyOp2
 70
     1
102
RTVSPropertyOp3
 70
     1
102
RTVSPropertyOp4
 70
     1
102
RTVSPropertyOp5
 70
     1
102
RTVSPropertyOp6
 70
     1
102
RTVSPropertyOp7
 70
     1
102
RTVSPropertyOp8
 70
     1
102
RTVSPropertyOp9
 70
     1
102
RTVSPropertyOp10
 70
     1
102
RTVSPropertyOp11
 70
     1
102
RTVSPropertyOp12
 70
     1
102
RTVSPropertyOp13
 70
     1
102
RTVSPropertyOp14
 70
     1
102
RTVSPropertyOp15
 70
     1
102
RTVSPropertyOp16
 70
     1
102
RTVSPropertyOp17
 70
     1
102
RTVSPropertyOp18
 70
     1
102
RTVSPropertyOp19
 70
     1
102
RTVSPropertyOp20
 70
     1
102
RTVSPropertyOp21
 70
     1
102
RTVSPropertyOp22
 70
     1
102
RTVSPropertyOp23
 70
     1
102
RTVSPropertyOp24
 70
     1
102
RTVSPropertyOp25
 70
     1
102
RTVSPropertyOp26
 70
     1
102
RTVSPropertyOp27
 70
     1
102
RTVSPropertyOp28
 70
     1
102
RTVSPropertyOp29
 70
     1
102
RTVSPropertyOp30
 70
     1
102
RTVSPropertyOp31
 70
     1
102
RTVSPropertyOp32
 70
     1
102
RTVSPropertyOp33
 70
     1
102
RTVSPropertyOp34
 70
     1
102
RTVSPropertyOp35
 70
     1
102
RTVSPropertyOp36
 70
     1
102
RTVSPropertyOp37
 70
     1
102
RTVSPropertyOp38
 70
     1
102
RTVSPropertyOp39
 70
     1
102
RTVSPropertyOp40
 70
     1
102
RTVSPropertyOp41
 70
     1
102
RTVSPropertyOp42
 70
     1
102
RTVSPropertyOp43
 70
     1
102
RTVSPropertyOp44
 70
     1
102
RTVSPropertyOp45
 70
     1
102
RTVSPropertyOp46
 70
     1
102
RTVSPropertyOp47
 70
     1
102
RTVSPropertyOp48
 70
     1
102
RTVSPropertyOp49
 70
     1
102
RTVSPropertyOp50
 70
     1
102
RTVSPropertyOp51
 70
     0
102
RTVSPropertyOp52
 70
     0
102
RTVSPropertyOp53
 70
     1
102
RTVSPropertyOp54
 70
     1
102
RTVSPropertyOp55
 70
     1
102
RTVSPropertyOp56
 70
     1
102
RTVSPropertyOp57
 70
     1
102
RTVSPost2010Prop28
280
     0
102
RTVSPost2010PropOp28
 70
     1
102
RTVSPost2010Prop29
280
     1
102
RTVSPost2010PropOp29
 70
     1
102
RTVSPost2010Prop30
280
     1
102
RTVSPost2010PropOp30
 70
     1
102
RTVSPost2010Prop31
280
     0
102
RTVSPost2010PropOp31
 70
     1
102
RTVSPost2010Prop32
280
     0
102
RTVSPost2010PropOp32
 70
     1
102
RTVSPost2010Prop33
280
     0
102
RTVSPost2010PropOp33
 70
     1
102
RTVSPost2010Prop34
280
     0
102
RTVSPost2010PropOp34
 70
     1
102
RTVSPost2010Prop35
280
     0
102
RTVSPost2010PropOp35
 70
     1
102
RTVSPost2010Prop36
280
     0
102
RTVSPost2010PropOp36
 70
     1
102
RTVSPost2010Prop37
 90
       50
102
RTVSPost2010PropOp37
 70
     1
102
RTVSPost2010Prop38
140
0.0
102
RTVSPost2010PropOp38
 70
     1
102
RTVSPost2010Prop39
140
1.0
102
RTVSPost2010PropOp39
 70
     1
102
RTVSPost2010Prop40
 90
        0
102
RTVSPost2010PropOp40
 70
     1
102
RTVSPost2010Prop41ColorIndex
 90
       18
102
RTVSPost2010Prop41ColorRGB
 90
        0
102
RTVSPost2010PropOp41
 70
     1
102
RTVSPost2010Prop42
 90
       50
102
RTVSPost2010PropOp42
 70
     1
102
RTVSPost2010Prop43
 90
        3
102
RTVSPost2010PropOp43
 70
     1
102
RTVSPost2010Prop44ColorIndex
 90
        5
102
RTVSPost2010Prop44ColorRGB
 90
      255
102
RTVSPost2010PropOp44
 70
     1
102
RTVSPost2010Prop45
280
     0
102
RTVSPost2010PropOp45
 70
     1
102
RTVSPost2010Prop46
 90
       50
102
RTVSPost2010PropOp46
 70
     1
102
RTVSPost2010Prop47
 90
       50
102
RTVSPost2010PropOp47
 70
     1
102
RTVSPost2010Prop48
 90
       50
102
RTVSPost2010PropOp48
 70
     1
102
RTVSPost2010Prop49
280
     0
102
RTVSPost2010PropOp49
 70
     1
102
RTVSPost2010Prop50
 90
       50
102
RTVSPost2010PropOp50
 70
     1
102
RTVSPost2010Prop51ColorIndex
 90
      256
102
RTVSPost2010Prop51ColorRGB
 90
-16777216
102
RTVSPost2010PropOp51
 70
     0
102
RTVSPost2010Prop52
140
1.0
102
RTVSPost2010PropOp52
 70
     0
102
RTVSPost2010Prop53
 90
        2
102
RTVSPost2010PropOp53
 70
     1
102
RTVSPost2010Prop54
  1
strokes_ogs.tif
102
RTVSPost2010PropOp54
 70
     1
102
RTVSPost2010Prop55
280
     0
102
RTVSPost2010PropOp55
 70
     1
102
RTVSPost2010Prop56
140
1.0
102
RTVSPost2010PropOp56
 70
     1
102
RTVSPost2010Prop57
140
1.0
102
RTVSPost2010PropOp57
 70
     1
  0
XRECORD
  5
CD
102
{ACAD_REACTORS
330
CC
102
}
330
CC
100
AcDbXrecord
280
     1
102
RTVSPropertyOp0
 70
     1
102
RTVSPropertyOp1
 70
     1
102
RTVSPropertyOp2
 70
     1
102
RTVSPropertyOp3
 70
     1
102
RTVSPropertyOp4
 70
     1
102
RTVSPropertyOp5
 70
     1
102
RTVSPropertyOp6
 70
     1
102
RTVSPropertyOp7
 70
     1
102
RTVSPropertyOp8
 70
     1
102
RTVSPropertyOp9
 70
     1
102
RTVSPropertyOp10
 70
     1
102
RTVSPropertyOp11
 70
     1
102
RTVSPropertyOp12
 70
     1
102
RTVSPropertyOp13
 70
     1
102
RTVSPropertyOp14
 70
     1
102
RTVSPropertyOp15
 70
     1
102
RTVSPropertyOp16
 70
     1
102
RTVSPropertyOp17
 70
     1
102
RTVSPropertyOp18
 70
     1
102
RTVSPropertyOp19
 70
     1
102
RTVSPropertyOp20
 70
     1
102
RTVSPropertyOp21
 70
     1
102
RTVSPropertyOp22
 70
     1
102
RTVSPropertyOp23
 70
     1
102
RTVSPropertyOp24
 70
     1
102
RTVSPropertyOp25
 70
     1
102
RTVSPropertyOp26
 70
     1
102
RTVSPropertyOp27
 70
     1
102
RTVSPropertyOp28
 70
     1
102
RTVSPropertyOp29
 70
     1
102
RTVSPropertyOp30
 70
     1
102
RTVSPropertyOp31
 70
     1
102
RTVSPropertyOp32
 70
     1
102
RTVSPropertyOp33
 70
     1
102
RTVSPropertyOp34
 70
     1
102
RTVSPropertyOp35
 70
     1
102
RTVSPropertyOp36
 70
     1
102
RTVSPropertyOp37
 70
     1
102
RTVSPropertyOp38
 70
     1
102
RTVSPropertyOp39
 70
     1
102
RTVSPropertyOp40
 70
     1
102
RTVSPropertyOp41
 70
     1
102
RTVSPropertyOp42
 70
     1
102
RTVSPropertyOp43
 70
     1
102
RTVSPropertyOp44
 70
     1
102
RTVSPropertyOp45
 70
     1
102
RTVSPropertyOp46
 70
     1
102
RTVSPropertyOp47
 70
     1
102
RTVSPropertyOp48
 70
     1
102
RTVSPropertyOp49
 70
     1
102
RTVSPropertyOp50
 70
     1
102
RTVSPropertyOp51
 70
     0
102
RTVSPropertyOp52
 70
     0
102
RTVSPropertyOp53
 70
     1
102
RTVSPropertyOp54
 70
     1
102
RTVSPropertyOp55
 70
     1
102
RTVSPropertyOp56
 70
     1
102
RTVSPropertyOp57
 70
     1
102
RTVSPost2010Prop28
280
     0
102
RTVSPost2010PropOp28
 70
     1
102
RTVSPost2010Prop29
280
     1
102
RTVSPost2010PropOp29
 70
     1
102
RTVSPost2010Prop30
280
     1
102
RTVSPost2010PropOp30
 70
     1
102
RTVSPost2010Prop31
280
     0
102
RTVSPost2010PropOp31
 70
     1
102
RTVSPost2010Prop32
280
     0
102
RTVSPost2010PropOp32
 70
     1
102
RTVSPost2010Prop33
280
     0
102
RTVSPost2010PropOp33
 70
     1
102
RTVSPost2010Prop34
280
     0
102
RTVSPost2010PropOp34
 70
     1
102
RTVSPost2010Prop35
280
     0
102
RTVSPost2010PropOp35
 70
     1
102
RTVSPost2010Prop36
280
     0
102
RTVSPost2010PropOp36
 70
     1
102
RTVSPost2010Prop37
 90
       50
102
RTVSPost2010PropOp37
 70
     1
102
RTVSPost2010Prop38
140
0.0
102
RTVSPost2010PropOp38
 70
     1
102
RTVSPost2010Prop39
140
1.0
102
RTVSPost2010PropOp39
 70
     1
102
RTVSPost2010Prop40
 90
        0
102
RTVSPost2010PropOp40
 70
     1
102
RTVSPost2010Prop41ColorIndex
 90
       18
102
RTVSPost2010Prop41ColorRGB
 90
        0
102
RTVSPost2010PropOp41
 70
     1
102
RTVSPost2010Prop42
 90
       50
102
RTVSPost2010PropOp42
 70
     1
102
RTVSPost2010Prop43
 90
        3
102
RTVSPost2010PropOp43
 70
     1
102
RTVSPost2010Prop44ColorIndex
 90
        5
102
RTVSPost2010Prop44ColorRGB
 90
      255
102
RTVSPost2010PropOp44
 70
     1
102
RTVSPost2010Prop45
280
     0
102
RTVSPost2010PropOp45
 70
     1
102
RTVSPost2010Prop46
 90
       50
102
RTVSPost2010PropOp46
 70
     1
102
RTVSPost2010Prop47
 90
       50
102
RTVSPost2010PropOp47
 70
     1
102
RTVSPost2010Prop48
 90
       50
102
RTVSPost2010PropOp48
 70
     1
102
RTVSPost2010Prop49
280
     0
102
RTVSPost2010PropOp49
 70
     1
102
RTVSPost2010Prop50
 90
       50
102
RTVSPost2010PropOp50
 70
     1
102
RTVSPost2010Prop51ColorIndex
 90
      256
102
RTVSPost2010Prop51ColorRGB
 90
-16777216
102
RTVSPost2010PropOp51
 70
     0
102
RTVSPost2010Prop52
140
1.0
102
RTVSPost2010PropOp52
 70
     0
102
RTVSPost2010Prop53
 90
        2
102
RTVSPost2010PropOp53
 70
     1
102
RTVSPost2010Prop54
  1
strokes_ogs.tif
102
RTVSPost2010PropOp54
 70
     1
102
RTVSPost2010Prop55
280
     0
102
RTVSPost2010PropOp55
 70
     1
102
RTVSPost2010Prop56
140
1.0
102
RTVSPost2010PropOp56
 70
     1
102
RTVSPost2010Prop57
140
1.0
102
RTVSPost2010PropOp57
 70
     1
  0
XRECORD
  5
DD
102
{ACAD_REACTORS
330
DC
102
}
330
DC
100
AcDbXrecord
280
     1
102
RTVSPropertyOp0
 70
     0
102
RTVSPropertyOp1
 70
     0
102
RTVSPropertyOp2
 70
     0
102
RTVSPropertyOp3
 70
     0
102
RTVSPropertyOp4
 70
     0
102
RTVSPropertyOp5
 70
     0
102
RTVSPropertyOp6
 70
     0
102
RTVSPropertyOp7
 70
     0
102
RTVSPropertyOp8
 70
     0
102
RTVSPropertyOp9
 70
     0
102
RTVSPropertyOp10
 70
     0
102
RTVSPropertyOp11
 70
     0
102
RTVSPropertyOp12
 70
     0
102
RTVSPropertyOp13
 70
     0
102
RTVSPropertyOp14
 70
     2
102
RTVSPropertyOp15
 70
     0
102
RTVSPropertyOp16
 70
     0
102
RTVSPropertyOp17
 70
     0
102
RTVSPropertyOp18
 70
     0
102
RTVSPropertyOp19
 70
     0
102
RTVSPropertyOp20
 70
     0
102
RTVSPropertyOp21
 70
     0
102
RTVSPropertyOp22
 70
     0
102
RTVSPropertyOp23
 70
     0
102
RTVSPropertyOp24
 70
     0
102
RTVSPropertyOp25
 70
     0
102
RTVSPropertyOp26
 70
     0
102
RTVSPropertyOp27
 70
     0
102
RTVSPropertyOp28
 70
     0
102
RTVSPropertyOp29
 70
     0
102
RTVSPropertyOp30
 70
     0
102
RTVSPropertyOp31
 70
     0
102
RTVSPropertyOp32
 70
     0
102
RTVSPropertyOp33
 70
     0
102
RTVSPropertyOp34
 70
     0
102
RTVSPropertyOp35
 70
     0
102
RTVSPropertyOp36
 70
     0
102
RTVSPropertyOp37
 70
     0
102
RTVSPropertyOp38
 70
     0
102
RTVSPropertyOp39
 70
     0
102
RTVSPropertyOp40
 70
     0
102
RTVSPropertyOp41
 70
     0
102
RTVSPropertyOp42
 70
     0
102
RTVSPropertyOp43
 70
     0
102
RTVSPropertyOp44
 70
     0
102
RTVSPropertyOp45
 70
     0
102
RTVSPropertyOp46
 70
     0
102
RTVSPropertyOp47
 70
     0
102
RTVSPropertyOp48
 70
     0
102
RTVSPropertyOp49
 70
     0
102
RTVSPropertyOp50
 70
     0
102
RTVSPropertyOp51
 70
     0
102
RTVSPropertyOp52
 70
     0
102
RTVSPropertyOp53
 70
     0
102
RTVSPropertyOp54
 70
     0
102
RTVSPropertyOp55
 70
     0
102
RTVSPropertyOp56
 70
     0
102
RTVSPropertyOp57
 70
     0
102
RTVSPost2010Prop28
280
     0
102
RTVSPost2010PropOp28
 70
     0
102
RTVSPost2010Prop29
280
     1
102
RTVSPost2010PropOp29
 70
     0
102
RTVSPost2010Prop30
280
     1
102
RTVSPost2010PropOp30
 70
     0
102
RTVSPost2010Prop31
280
     0
102
RTVSPost2010PropOp31
 70
     0
102
RTVSPost2010Prop32
280
     0
102
RTVSPost2010PropOp32
 70
     0
102
RTVSPost2010Prop33
280
     0
102
RTVSPost2010PropOp33
 70
     0
102
RTVSPost2010Prop34
280
     0
102
RTVSPost2010PropOp34
 70
     0
102
RTVSPost2010Prop35
280
     0
102
RTVSPost2010PropOp35
 70
     0
102
RTVSPost2010Prop36
280
     0
102
RTVSPost2010PropOp36
 70
     0
102
RTVSPost2010Prop37
 90
       50
102
RTVSPost2010PropOp37
 70
     0
102
RTVSPost2010Prop38
140
0.0
102
RTVSPost2010PropOp38
 70
     0
102
RTVSPost2010Prop39
140
1.0
102
RTVSPost2010PropOp39
 70
     0
102
RTVSPost2010Prop40
 90
        0
102
RTVSPost2010PropOp40
 70
     0
102
RTVSPost2010Prop41ColorIndex
 90
       18
102
RTVSPost2010Prop41ColorRGB
 90
        0
102
RTVSPost2010PropOp41
 70
     0
102
RTVSPost2010Prop42
 90
       50
102
RTVSPost2010PropOp42
 70
     0
102
RTVSPost2010Prop43
 90
        3
102
RTVSPost2010PropOp43
 70
     0
102
RTVSPost2010Prop44ColorIndex
 90
        5
102
RTVSPost2010Prop44ColorRGB
 90
      255
102
RTVSPost2010PropOp44
 70
     0
102
RTVSPost2010Prop45
280
     0
102
RTVSPost2010PropOp45
 70
     0
102
RTVSPost2010Prop46
 90
       50
102
RTVSPost2010PropOp46
 70
     0
102
RTVSPost2010Prop47
 90
       50
102
RTVSPost2010PropOp47
 70
     0
102
RTVSPost2010Prop48
 90
       50
102
RTVSPost2010PropOp48
 70
     0
102
RTVSPost2010Prop49
280
     0
102
RTVSPost2010PropOp49
 70
     0
102
RTVSPost2010Prop50
 90
       50
102
RTVSPost2010PropOp50
 70
     0
102
RTVSPost2010Prop51ColorIndex
 90
      256
102
RTVSPost2010Prop51ColorRGB
 90
-16777216
102
RTVSPost2010PropOp51
 70
     0
102
RTVSPost2010Prop52
140
1.0
102
RTVSPost2010PropOp52
 70
     0
102
RTVSPost2010Prop53
 90
        2
102
RTVSPost2010PropOp53
 70
     0
102
RTVSPost2010Prop54
  1
strokes_ogs.tif
102
RTVSPost2010PropOp54
 70
     0
102
RTVSPost2010Prop55
280
     0
102
RTVSPost2010PropOp55
 70
     0
102
RTVSPost2010Prop56
140
1.0
102
RTVSPost2010PropOp56
 70
     0
102
RTVSPost2010Prop57
140
1.0
102
RTVSPost2010PropOp57
 70
     0
  0
XRECORD
  5
D5
102
{ACAD_REACTORS
330
D4
102
}
330
D4
100
AcDbXrecord
280
     1
102
RTVSPropertyOp0
 70
     1
102
RTVSPropertyOp1
 70
     1
102
RTVSPropertyOp2
 70
     1
102
RTVSPropertyOp3
 70
     1
102
RTVSPropertyOp4
 70
     1
102
RTVSPropertyOp5
 70
     1
102
RTVSPropertyOp6
 70
     1
102
RTVSPropertyOp7
 70
     1
102
RTVSPropertyOp8
 70
     1
102
RTVSPropertyOp9
 70
     1
102
RTVSPropertyOp10
 70
     1
102
RTVSPropertyOp11
 70
     1
102
RTVSPropertyOp12
 70
     1
102
RTVSPropertyOp13
 70
     1
102
RTVSPropertyOp14
 70
     1
102
RTVSPropertyOp15
 70
     1
102
RTVSPropertyOp16
 70
     1
102
RTVSPropertyOp17
 70
     1
102
RTVSPropertyOp18
 70
     1
102
RTVSPropertyOp19
 70
     1
102
RTVSPropertyOp20
 70
     1
102
RTVSPropertyOp21
 70
     1
102
RTVSPropertyOp22
 70
     1
102
RTVSPropertyOp23
 70
     1
102
RTVSPropertyOp24
 70
     1
102
RTVSPropertyOp25
 70
     1
102
RTVSPropertyOp26
 70
     1
102
RTVSPropertyOp27
 70
     1
102
RTVSPropertyOp28
 70
     1
102
RTVSPropertyOp29
 70
     1
102
RTVSPropertyOp30
 70
     1
102
RTVSPropertyOp31
 70
     1
102
RTVSPropertyOp32
 70
     1
102
RTVSPropertyOp33
 70
     1
102
RTVSPropertyOp34
 70
     1
102
RTVSPropertyOp35
 70
     1
102
RTVSPropertyOp36
 70
     1
102
RTVSPropertyOp37
 70
     1
102
RTVSPropertyOp38
 70
     1
102
RTVSPropertyOp39
 70
     1
102
RTVSPropertyOp40
 70
     1
102
RTVSPropertyOp41
 70
     1
102
RTVSPropertyOp42
 70
     1
102
RTVSPropertyOp43
 70
     1
102
RTVSPropertyOp44
 70
     1
102
RTVSPropertyOp45
 70
     1
102
RTVSPropertyOp46
 70
     1
102
RTVSPropertyOp47
 70
     1
102
RTVSPropertyOp48
 70
     1
102
RTVSPropertyOp49
 70
     1
102
RTVSPropertyOp50
 70
     1
102
RTVSPropertyOp51
 70
     0
102
RTVSPropertyOp52
 70
     0
102
RTVSPropertyOp53
 70
     1
102
RTVSPropertyOp54
 70
     1
102
RTVSPropertyOp55
 70
     1
102
RTVSPropertyOp56
 70
     1
102
RTVSPropertyOp57
 70
     1
102
RTVSPost2010Prop28
280
     0
102
RTVSPost2010PropOp28
 70
     1
102
RTVSPost2010Prop29
280
     1
102
RTVSPost2010PropOp29
 70
     1
102
RTVSPost2010Prop30
280
     1
102
RTVSPost2010PropOp30
 70
     1
102
RTVSPost2010Prop31
280
     0
102
RTVSPost2010PropOp31
 70
     1
102
RTVSPost2010Prop32
280
     0
102
RTVSPost2010PropOp32
 70
     1
102
RTVSPost2010Prop33
280
     0
102
RTVSPost2010PropOp33
 70
     1
102
RTVSPost2010Prop34
280
     0
102
RTVSPost2010PropOp34
 70
     1
102
RTVSPost2010Prop35
280
     0
102
RTVSPost2010PropOp35
 70
     1
102
RTVSPost2010Prop36
280
     0
102
RTVSPost2010PropOp36
 70
     1
102
RTVSPost2010Prop37
 90
       50
102
RTVSPost2010PropOp37
 70
     1
102
RTVSPost2010Prop38
140
0.0
102
RTVSPost2010PropOp38
 70
     1
102
RTVSPost2010Prop39
140
1.0
102
RTVSPost2010PropOp39
 70
     1
102
RTVSPost2010Prop40
 90
        0
102
RTVSPost2010PropOp40
 70
     1
102
RTVSPost2010Prop41ColorIndex
 90
       18
102
RTVSPost2010Prop41ColorRGB
 90
        0
102
RTVSPost2010PropOp41
 70
     1
102
RTVSPost2010Prop42
 90
       50
102
RTVSPost2010PropOp42
 70
     1
102
RTVSPost2010Prop43
 90
        3
102
RTVSPost2010PropOp43
 70
     1
102
RTVSPost2010Prop44ColorIndex
 90
        5
102
RTVSPost2010Prop44ColorRGB
 90
      255
102
RTVSPost2010PropOp44
 70
     1
102
RTVSPost2010Prop45
280
     0
102
RTVSPost2010PropOp45
 70
     1
102
RTVSPost2010Prop46
 90
       50
102
RTVSPost2010PropOp46
 70
     1
102
RTVSPost2010Prop47
 90
       50
102
RTVSPost2010PropOp47
 70
     1
102
RTVSPost2010Prop48
 90
       50
102
RTVSPost2010PropOp48
 70
     1
102
RTVSPost2010Prop49
280
     0
102
RTVSPost2010PropOp49
 70
     1
102
RTVSPost2010Prop50
 90
       50
102
RTVSPost2010PropOp50
 70
     1
102
RTVSPost2010Prop51ColorIndex
 90
      256
102
RTVSPost2010Prop51ColorRGB
 90
-16777216
102
RTVSPost2010PropOp51
 70
     0
102
RTVSPost2010Prop52
140
1.0
102
RTVSPost2010PropOp52
 70
     0
102
RTVSPost2010Prop53
 90
        2
102
RTVSPost2010PropOp53
 70
     1
102
RTVSPost2010Prop54
  1
strokes_ogs.tif
102
RTVSPost2010PropOp54
 70
     1
102
RTVSPost2010Prop55
280
     0
102
RTVSPost2010PropOp55
 70
     1
102
RTVSPost2010Prop56
140
1.0
102
RTVSPost2010PropOp56
 70
     1
102
RTVSPost2010Prop57
140
1.0
102
RTVSPost2010PropOp57
 70
     1
  0
XRECORD
  5
B9
102
{ACAD_REACTORS
330
B8
102
}
330
B8
100
AcDbXrecord
280
     1
102
RTVSPropertyOp0
 70
     1
102
RTVSPropertyOp1
 70
     1
102
RTVSPropertyOp2
 70
     1
102
RTVSPropertyOp3
 70
     1
102
RTVSPropertyOp4
 70
     1
102
RTVSPropertyOp5
 70
     1
102
RTVSPropertyOp6
 70
     1
102
RTVSPropertyOp7
 70
     1
102
RTVSPropertyOp8
 70
     1
102
RTVSPropertyOp9
 70
     1
102
RTVSPropertyOp10
 70
     1
102
RTVSPropertyOp11
 70
     1
102
RTVSPropertyOp12
 70
     1
102
RTVSPropertyOp13
 70
     1
102
RTVSPropertyOp14
 70
     1
102
RTVSPropertyOp15
 70
     1
102
RTVSPropertyOp16
 70
     1
102
RTVSPropertyOp17
 70
     1
102
RTVSPropertyOp18
 70
     1
102
RTVSPropertyOp19
 70
     1
102
RTVSPropertyOp20
 70
     1
102
RTVSPropertyOp21
 70
     1
102
RTVSPropertyOp22
 70
     1
102
RTVSPropertyOp23
 70
     1
102
RTVSPropertyOp24
 70
     1
102
RTVSPropertyOp25
 70
     1
102
RTVSPropertyOp26
 70
     1
102
RTVSPropertyOp27
 70
     1
102
RTVSPropertyOp28
 70
     1
102
RTVSPropertyOp29
 70
     1
102
RTVSPropertyOp30
 70
     1
102
RTVSPropertyOp31
 70
     1
102
RTVSPropertyOp32
 70
     1
102
RTVSPropertyOp33
 70
     1
102
RTVSPropertyOp34
 70
     1
102
RTVSPropertyOp35
 70
     1
102
RTVSPropertyOp36
 70
     1
102
RTVSPropertyOp37
 70
     1
102
RTVSPropertyOp38
 70
     1
102
RTVSPropertyOp39
 70
     1
102
RTVSPropertyOp40
 70
     1
102
RTVSPropertyOp41
 70
     1
102
RTVSPropertyOp42
 70
     1
102
RTVSPropertyOp43
 70
     1
102
RTVSPropertyOp44
 70
     1
102
RTVSPropertyOp45
 70
     1
102
RTVSPropertyOp46
 70
     1
102
RTVSPropertyOp47
 70
     1
102
RTVSPropertyOp48
 70
     1
102
RTVSPropertyOp49
 70
     1
102
RTVSPropertyOp50
 70
     1
102
RTVSPropertyOp51
 70
     0
102
RTVSPropertyOp52
 70
     0
102
RTVSPropertyOp53
 70
     1
102
RTVSPropertyOp54
 70
     1
102
RTVSPropertyOp55
 70
     1
102
RTVSPropertyOp56
 70
     1
102
RTVSPropertyOp57
 70
     1
102
RTVSPost2010Prop28
280
     0
102
RTVSPost2010PropOp28
 70
     1
102
RTVSPost2010Prop29
280
     1
102
RTVSPost2010PropOp29
 70
     1
102
RTVSPost2010Prop30
280
     1
102
RTVSPost2010PropOp30
 70
     1
102
RTVSPost2010Prop31
280
     0
102
RTVSPost2010PropOp31
 70
     1
102
RTVSPost2010Prop32
280
     0
102
RTVSPost2010PropOp32
 70
     1
102
RTVSPost2010Prop33
280
     0
102
RTVSPost2010PropOp33
 70
     1
102
RTVSPost2010Prop34
280
     0
102
RTVSPost2010PropOp34
 70
     1
102
RTVSPost2010Prop35
280
     0
102
RTVSPost2010PropOp35
 70
     1
102
RTVSPost2010Prop36
280
     0
102
RTVSPost2010PropOp36
 70
     1
102
RTVSPost2010Prop37
 90
       50
102
RTVSPost2010PropOp37
 70
     1
102
RTVSPost2010Prop38
140
0.0
102
RTVSPost2010PropOp38
 70
     1
102
RTVSPost2010Prop39
140
1.0
102
RTVSPost2010PropOp39
 70
     1
102
RTVSPost2010Prop40
 90
        0
102
RTVSPost2010PropOp40
 70
     1
102
RTVSPost2010Prop41ColorIndex
 90
       18
102
RTVSPost2010Prop41ColorRGB
 90
        0
102
RTVSPost2010PropOp41
 70
     1
102
RTVSPost2010Prop42
 90
       50
102
RTVSPost2010PropOp42
 70
     1
102
RTVSPost2010Prop43
 90
        3
102
RTVSPost2010PropOp43
 70
     1
102
RTVSPost2010Prop44ColorIndex
 90
        5
102
RTVSPost2010Prop44ColorRGB
 90
      255
102
RTVSPost2010PropOp44
 70
     1
102
RTVSPost2010Prop45
280
     0
102
RTVSPost2010PropOp45
 70
     1
102
RTVSPost2010Prop46
 90
       50
102
RTVSPost2010PropOp46
 70
     1
102
RTVSPost2010Prop47
 90
       50
102
RTVSPost2010PropOp47
 70
     1
102
RTVSPost2010Prop48
 90
       50
102
RTVSPost2010PropOp48
 70
     1
102
RTVSPost2010Prop49
280
     0
102
RTVSPost2010PropOp49
 70
     1
102
RTVSPost2010Prop50
 90
       50
102
RTVSPost2010PropOp50
 70
     1
102
RTVSPost2010Prop51ColorIndex
 90
      256
102
RTVSPost2010Prop51ColorRGB
 90
-16777216
102
RTVSPost2010PropOp51
 70
     0
102
RTVSPost2010Prop52
140
1.0
102
RTVSPost2010PropOp52
 70
     0
102
RTVSPost2010Prop53
 90
        2
102
RTVSPost2010PropOp53
 70
     1
102
RTVSPost2010Prop54
  1
strokes_ogs.tif
102
RTVSPost2010PropOp54
 70
     1
102
RTVSPost2010Prop55
280
     0
102
RTVSPost2010PropOp55
 70
     1
102
RTVSPost2010Prop56
140
1.0
102
RTVSPost2010PropOp56
 70
     1
102
RTVSPost2010Prop57
140
1.0
102
RTVSPost2010PropOp57
 70
     1
  0
XRECORD
  5
BB
102
{ACAD_REACTORS
330
BA
102
}
330
BA
100
AcDbXrecord
280
     1
102
RTVSPropertyOp0
 70
     1
102
RTVSPropertyOp1
 70
     1
102
RTVSPropertyOp2
 70
     1
102
RTVSPropertyOp3
 70
     1
102
RTVSPropertyOp4
 70
     1
102
RTVSPropertyOp5
 70
     1
102
RTVSPropertyOp6
 70
     1
102
RTVSPropertyOp7
 70
     1
102
RTVSPropertyOp8
 70
     1
102
RTVSPropertyOp9
 70
     1
102
RTVSPropertyOp10
 70
     1
102
RTVSPropertyOp11
 70
     1
102
RTVSPropertyOp12
 70
     1
102
RTVSPropertyOp13
 70
     1
102
RTVSPropertyOp14
 70
     1
102
RTVSPropertyOp15
 70
     1
102
RTVSPropertyOp16
 70
     1
102
RTVSPropertyOp17
 70
     1
102
RTVSPropertyOp18
 70
     1
102
RTVSPropertyOp19
 70
     1
102
RTVSPropertyOp20
 70
     1
102
RTVSPropertyOp21
 70
     1
102
RTVSPropertyOp22
 70
     1
102
RTVSPropertyOp23
 70
     1
102
RTVSPropertyOp24
 70
     1
102
RTVSPropertyOp25
 70
     1
102
RTVSPropertyOp26
 70
     1
102
RTVSPropertyOp27
 70
     1
102
RTVSPropertyOp28
 70
     1
102
RTVSPropertyOp29
 70
     1
102
RTVSPropertyOp30
 70
     1
102
RTVSPropertyOp31
 70
     1
102
RTVSPropertyOp32
 70
     1
102
RTVSPropertyOp33
 70
     1
102
RTVSPropertyOp34
 70
     1
102
RTVSPropertyOp35
 70
     1
102
RTVSPropertyOp36
 70
     1
102
RTVSPropertyOp37
 70
     1
102
RTVSPropertyOp38
 70
     1
102
RTVSPropertyOp39
 70
     1
102
RTVSPropertyOp40
 70
     1
102
RTVSPropertyOp41
 70
     1
102
RTVSPropertyOp42
 70
     1
102
RTVSPropertyOp43
 70
     1
102
RTVSPropertyOp44
 70
     1
102
RTVSPropertyOp45
 70
     1
102
RTVSPropertyOp46
 70
     1
102
RTVSPropertyOp47
 70
     1
102
RTVSPropertyOp48
 70
     1
102
RTVSPropertyOp49
 70
     1
102
RTVSPropertyOp50
 70
     1
102
RTVSPropertyOp51
 70
     0
102
RTVSPropertyOp52
 70
     0
102
RTVSPropertyOp53
 70
     1
102
RTVSPropertyOp54
 70
     1
102
RTVSPropertyOp55
 70
     1
102
RTVSPropertyOp56
 70
     1
102
RTVSPropertyOp57
 70
     1
102
RTVSPost2010Prop28
280
     0
102
RTVSPost2010PropOp28
 70
     1
102
RTVSPost2010Prop29
280
     1
102
RTVSPost2010PropOp29
 70
     1
102
RTVSPost2010Prop30
280
     1
102
RTVSPost2010PropOp30
 70
     1
102
RTVSPost2010Prop31
280
     0
102
RTVSPost2010PropOp31
 70
     1
102
RTVSPost2010Prop32
280
     0
102
RTVSPost2010PropOp32
 70
     1
102
RTVSPost2010Prop33
280
     0
102
RTVSPost2010PropOp33
 70
     1
102
RTVSPost2010Prop34
280
     0
102
RTVSPost2010PropOp34
 70
     1
102
RTVSPost2010Prop35
280
     0
102
RTVSPost2010PropOp35
 70
     1
102
RTVSPost2010Prop36
280
     0
102
RTVSPost2010PropOp36
 70
     1
102
RTVSPost2010Prop37
 90
       50
102
RTVSPost2010PropOp37
 70
     1
102
RTVSPost2010Prop38
140
0.0
102
RTVSPost2010PropOp38
 70
     1
102
RTVSPost2010Prop39
140
1.0
102
RTVSPost2010PropOp39
 70
     1
102
RTVSPost2010Prop40
 90
        0
102
RTVSPost2010PropOp40
 70
     1
102
RTVSPost2010Prop41ColorIndex
 90
       18
102
RTVSPost2010Prop41ColorRGB
 90
        0
102
RTVSPost2010PropOp41
 70
     1
102
RTVSPost2010Prop42
 90
       50
102
RTVSPost2010PropOp42
 70
     1
102
RTVSPost2010Prop43
 90
        3
102
RTVSPost2010PropOp43
 70
     1
102
RTVSPost2010Prop44ColorIndex
 90
        5
102
RTVSPost2010Prop44ColorRGB
 90
      255
102
RTVSPost2010PropOp44
 70
     1
102
RTVSPost2010Prop45
280
     0
102
RTVSPost2010PropOp45
 70
     1
102
RTVSPost2010Prop46
 90
       50
102
RTVSPost2010PropOp46
 70
     1
102
RTVSPost2010Prop47
 90
       50
102
RTVSPost2010PropOp47
 70
     1
102
RTVSPost2010Prop48
 90
       50
102
RTVSPost2010PropOp48
 70
     1
102
RTVSPost2010Prop49
280
     0
102
RTVSPost2010PropOp49
 70
     1
102
RTVSPost2010Prop50
 90
       50
102
RTVSPost2010PropOp50
 70
     1
102
RTVSPost2010Prop51ColorIndex
 90
      256
102
RTVSPost2010Prop51ColorRGB
 90
-16777216
102
RTVSPost2010PropOp51
 70
     0
102
RTVSPost2010Prop52
140
1.0
102
RTVSPost2010PropOp52
 70
     0
102
RTVSPost2010Prop53
 90
        2
102
RTVSPost2010PropOp53
 70
     1
102
RTVSPost2010Prop54
  1
strokes_ogs.tif
102
RTVSPost2010PropOp54
 70
     1
102
RTVSPost2010Prop55
280
     0
102
RTVSPost2010PropOp55
 70
     1
102
RTVSPost2010Prop56
140
1.0
102
RTVSPost2010PropOp56
 70
     1
102
RTVSPost2010Prop57
140
1.0
102
RTVSPost2010PropOp57
 70
     1
  0
XRECORD
  5
BD
102
{ACAD_REACTORS
330
BC
102
}
330
BC
100
AcDbXrecord
280
     1
102
RTVSPropertyOp0
 70
     1
102
RTVSPropertyOp1
 70
     1
102
RTVSPropertyOp2
 70
     1
102
RTVSPropertyOp3
 70
     1
102
RTVSPropertyOp4
 70
     1
102
RTVSPropertyOp5
 70
     1
102
RTVSPropertyOp6
 70
     1
102
RTVSPropertyOp7
 70
     1
102
RTVSPropertyOp8
 70
     1
102
RTVSPropertyOp9
 70
     1
102
RTVSPropertyOp10
 70
     1
102
RTVSPropertyOp11
 70
     1
102
RTVSPropertyOp12
 70
     1
102
RTVSPropertyOp13
 70
     1
102
RTVSPropertyOp14
 70
     1
102
RTVSPropertyOp15
 70
     1
102
RTVSPropertyOp16
 70
     1
102
RTVSPropertyOp17
 70
     1
102
RTVSPropertyOp18
 70
     1
102
RTVSPropertyOp19
 70
     1
102
RTVSPropertyOp20
 70
     1
102
RTVSPropertyOp21
 70
     1
102
RTVSPropertyOp22
 70
     1
102
RTVSPropertyOp23
 70
     1
102
RTVSPropertyOp24
 70
     1
102
RTVSPropertyOp25
 70
     1
102
RTVSPropertyOp26
 70
     1
102
RTVSPropertyOp27
 70
     1
102
RTVSPropertyOp28
 70
     1
102
RTVSPropertyOp29
 70
     1
102
RTVSPropertyOp30
 70
     1
102
RTVSPropertyOp31
 70
     1
102
RTVSPropertyOp32
 70
     1
102
RTVSPropertyOp33
 70
     1
102
RTVSPropertyOp34
 70
     1
102
RTVSPropertyOp35
 70
     1
102
RTVSPropertyOp36
 70
     1
102
RTVSPropertyOp37
 70
     1
102
RTVSPropertyOp38
 70
     1
102
RTVSPropertyOp39
 70
     1
102
RTVSPropertyOp40
 70
     1
102
RTVSPropertyOp41
 70
     1
102
RTVSPropertyOp42
 70
     1
102
RTVSPropertyOp43
 70
     1
102
RTVSPropertyOp44
 70
     1
102
RTVSPropertyOp45
 70
     1
102
RTVSPropertyOp46
 70
     1
102
RTVSPropertyOp47
 70
     1
102
RTVSPropertyOp48
 70
     1
102
RTVSPropertyOp49
 70
     1
102
RTVSPropertyOp50
 70
     1
102
RTVSPropertyOp51
 70
     0
102
RTVSPropertyOp52
 70
     0
102
RTVSPropertyOp53
 70
     1
102
RTVSPropertyOp54
 70
     1
102
RTVSPropertyOp55
 70
     1
102
RTVSPropertyOp56
 70
     1
102
RTVSPropertyOp57
 70
     1
102
RTVSPost2010Prop28
280
     0
102
RTVSPost2010PropOp28
 70
     1
102
RTVSPost2010Prop29
280
     1
102
RTVSPost2010PropOp29
 70
     1
102
RTVSPost2010Prop30
280
     1
102
RTVSPost2010PropOp30
 70
     1
102
RTVSPost2010Prop31
280
     0
102
RTVSPost2010PropOp31
 70
     1
102
RTVSPost2010Prop32
280
     0
102
RTVSPost2010PropOp32
 70
     1
102
RTVSPost2010Prop33
280
     0
102
RTVSPost2010PropOp33
 70
     1
102
RTVSPost2010Prop34
280
     0
102
RTVSPost2010PropOp34
 70
     1
102
RTVSPost2010Prop35
280
     0
102
RTVSPost2010PropOp35
 70
     1
102
RTVSPost2010Prop36
280
     0
102
RTVSPost2010PropOp36
 70
     1
102
RTVSPost2010Prop37
 90
       50
102
RTVSPost2010PropOp37
 70
     1
102
RTVSPost2010Prop38
140
0.0
102
RTVSPost2010PropOp38
 70
     1
102
RTVSPost2010Prop39
140
1.0
102
RTVSPost2010PropOp39
 70
     1
102
RTVSPost2010Prop40
 90
        0
102
RTVSPost2010PropOp40
 70
     1
102
RTVSPost2010Prop41ColorIndex
 90
       18
102
RTVSPost2010Prop41ColorRGB
 90
        0
102
RTVSPost2010PropOp41
 70
     1
102
RTVSPost2010Prop42
 90
       50
102
RTVSPost2010PropOp42
 70
     1
102
RTVSPost2010Prop43
 90
        3
102
RTVSPost2010PropOp43
 70
     1
102
RTVSPost2010Prop44ColorIndex
 90
        5
102
RTVSPost2010Prop44ColorRGB
 90
      255
102
RTVSPost2010PropOp44
 70
     1
102
RTVSPost2010Prop45
280
     0
102
RTVSPost2010PropOp45
 70
     1
102
RTVSPost2010Prop46
 90
       50
102
RTVSPost2010PropOp46
 70
     1
102
RTVSPost2010Prop47
 90
       50
102
RTVSPost2010PropOp47
 70
     1
102
RTVSPost2010Prop48
 90
       50
102
RTVSPost2010PropOp48
 70
     1
102
RTVSPost2010Prop49
280
     0
102
RTVSPost2010PropOp49
 70
     1
102
RTVSPost2010Prop50
 90
       50
102
RTVSPost2010PropOp50
 70
     1
102
RTVSPost2010Prop51ColorIndex
 90
      256
102
RTVSPost2010Prop51ColorRGB
 90
-16777216
102
RTVSPost2010PropOp51
 70
     0
102
RTVSPost2010Prop52
140
1.0
102
RTVSPost2010PropOp52
 70
     0
102
RTVSPost2010Prop53
 90
        2
102
RTVSPost2010PropOp53
 70
     1
102
RTVSPost2010Prop54
  1
strokes_ogs.tif
102
RTVSPost2010PropOp54
 70
     1
102
RTVSPost2010Prop55
280
     0
102
RTVSPost2010PropOp55
 70
     1
102
RTVSPost2010Prop56
140
1.0
102
RTVSPost2010PropOp56
 70
     1
102
RTVSPost2010Prop57
140
1.0
102
RTVSPost2010PropOp57
 70
     1
  0
XRECORD
  5
BF
102
{ACAD_REACTORS
330
BE
102
}
330
BE
100
AcDbXrecord
280
     1
102
RTVSPropertyOp0
 70
     1
102
RTVSPropertyOp1
 70
     1
102
RTVSPropertyOp2
 70
     1
102
RTVSPropertyOp3
 70
     1
102
RTVSPropertyOp4
 70
     1
102
RTVSPropertyOp5
 70
     1
102
RTVSPropertyOp6
 70
     1
102
RTVSPropertyOp7
 70
     1
102
RTVSPropertyOp8
 70
     1
102
RTVSPropertyOp9
 70
     1
102
RTVSPropertyOp10
 70
     1
102
RTVSPropertyOp11
 70
     1
102
RTVSPropertyOp12
 70
     1
102
RTVSPropertyOp13
 70
     1
102
RTVSPropertyOp14
 70
     1
102
RTVSPropertyOp15
 70
     1
102
RTVSPropertyOp16
 70
     1
102
RTVSPropertyOp17
 70
     1
102
RTVSPropertyOp18
 70
     1
102
RTVSPropertyOp19
 70
     1
102
RTVSPropertyOp20
 70
     1
102
RTVSPropertyOp21
 70
     1
102
RTVSPropertyOp22
 70
     1
102
RTVSPropertyOp23
 70
     1
102
RTVSPropertyOp24
 70
     1
102
RTVSPropertyOp25
 70
     1
102
RTVSPropertyOp26
 70
     1
102
RTVSPropertyOp27
 70
     1
102
RTVSPropertyOp28
 70
     1
102
RTVSPropertyOp29
 70
     1
102
RTVSPropertyOp30
 70
     1
102
RTVSPropertyOp31
 70
     1
102
RTVSPropertyOp32
 70
     1
102
RTVSPropertyOp33
 70
     1
102
RTVSPropertyOp34
 70
     1
102
RTVSPropertyOp35
 70
     1
102
RTVSPropertyOp36
 70
     1
102
RTVSPropertyOp37
 70
     1
102
RTVSPropertyOp38
 70
     1
102
RTVSPropertyOp39
 70
     1
102
RTVSPropertyOp40
 70
     1
102
RTVSPropertyOp41
 70
     1
102
RTVSPropertyOp42
 70
     1
102
RTVSPropertyOp43
 70
     1
102
RTVSPropertyOp44
 70
     1
102
RTVSPropertyOp45
 70
     1
102
RTVSPropertyOp46
 70
     1
102
RTVSPropertyOp47
 70
     1
102
RTVSPropertyOp48
 70
     1
102
RTVSPropertyOp49
 70
     1
102
RTVSPropertyOp50
 70
     1
102
RTVSPropertyOp51
 70
     0
102
RTVSPropertyOp52
 70
     0
102
RTVSPropertyOp53
 70
     1
102
RTVSPropertyOp54
 70
     1
102
RTVSPropertyOp55
 70
     1
102
RTVSPropertyOp56
 70
     1
102
RTVSPropertyOp57
 70
     1
102
RTVSPost2010Prop28
280
     0
102
RTVSPost2010PropOp28
 70
     1
102
RTVSPost2010Prop29
280
     1
102
RTVSPost2010PropOp29
 70
     1
102
RTVSPost2010Prop30
280
     1
102
RTVSPost2010PropOp30
 70
     1
102
RTVSPost2010Prop31
280
     0
102
RTVSPost2010PropOp31
 70
     1
102
RTVSPost2010Prop32
280
     0
102
RTVSPost2010PropOp32
 70
     1
102
RTVSPost2010Prop33
280
     0
102
RTVSPost2010PropOp33
 70
     1
102
RTVSPost2010Prop34
280
     0
102
RTVSPost2010PropOp34
 70
     1
102
RTVSPost2010Prop35
280
     0
102
RTVSPost2010PropOp35
 70
     1
102
RTVSPost2010Prop36
280
     0
102
RTVSPost2010PropOp36
 70
     1
102
RTVSPost2010Prop37
 90
       50
102
RTVSPost2010PropOp37
 70
     1
102
RTVSPost2010Prop38
140
0.0
102
RTVSPost2010PropOp38
 70
     1
102
RTVSPost2010Prop39
140
1.0
102
RTVSPost2010PropOp39
 70
     1
102
RTVSPost2010Prop40
 90
        0
102
RTVSPost2010PropOp40
 70
     1
102
RTVSPost2010Prop41ColorIndex
 90
       18
102
RTVSPost2010Prop41ColorRGB
 90
        0
102
RTVSPost2010PropOp41
 70
     1
102
RTVSPost2010Prop42
 90
       50
102
RTVSPost2010PropOp42
 70
     1
102
RTVSPost2010Prop43
 90
        3
102
RTVSPost2010PropOp43
 70
     1
102
RTVSPost2010Prop44ColorIndex
 90
        5
102
RTVSPost2010Prop44ColorRGB
 90
      255
102
RTVSPost2010PropOp44
 70
     1
102
RTVSPost2010Prop45
280
     0
102
RTVSPost2010PropOp45
 70
     1
102
RTVSPost2010Prop46
 90
       50
102
RTVSPost2010PropOp46
 70
     1
102
RTVSPost2010Prop47
 90
       50
102
RTVSPost2010PropOp47
 70
     1
102
RTVSPost2010Prop48
 90
       50
102
RTVSPost2010PropOp48
 70
     1
102
RTVSPost2010Prop49
280
     0
102
RTVSPost2010PropOp49
 70
     1
102
RTVSPost2010Prop50
 90
       50
102
RTVSPost2010PropOp50
 70
     1
102
RTVSPost2010Prop51ColorIndex
 90
      256
102
RTVSPost2010Prop51ColorRGB
 90
-16777216
102
RTVSPost2010PropOp51
 70
     0
102
RTVSPost2010Prop52
140
1.0
102
RTVSPost2010PropOp52
 70
     0
102
RTVSPost2010Prop53
 90
        2
102
RTVSPost2010PropOp53
 70
     1
102
RTVSPost2010Prop54
  1
strokes_ogs.tif
102
RTVSPost2010PropOp54
 70
     1
102
RTVSPost2010Prop55
280
     0
102
RTVSPost2010PropOp55
 70
     1
102
RTVSPost2010Prop56
140
1.0
102
RTVSPost2010PropOp56
 70
     1
102
RTVSPost2010Prop57
140
1.0
102
RTVSPost2010PropOp57
 70
     1
  0
XRECORD
  5
C5
102
{ACAD_REACTORS
330
C4
102
}
330
C4
100
AcDbXrecord
280
     1
102
RTVSPropertyOp0
 70
     1
102
RTVSPropertyOp1
 70
     1
102
RTVSPropertyOp2
 70
     1
102
RTVSPropertyOp3
 70
     1
102
RTVSPropertyOp4
 70
     1
102
RTVSPropertyOp5
 70
     1
102
RTVSPropertyOp6
 70
     1
102
RTVSPropertyOp7
 70
     1
102
RTVSPropertyOp8
 70
     1
102
RTVSPropertyOp9
 70
     1
102
RTVSPropertyOp10
 70
     1
102
RTVSPropertyOp11
 70
     1
102
RTVSPropertyOp12
 70
     1
102
RTVSPropertyOp13
 70
     1
102
RTVSPropertyOp14
 70
     1
102
RTVSPropertyOp15
 70
     1
102
RTVSPropertyOp16
 70
     1
102
RTVSPropertyOp17
 70
     1
102
RTVSPropertyOp18
 70
     1
102
RTVSPropertyOp19
 70
     1
102
RTVSPropertyOp20
 70
     1
102
RTVSPropertyOp21
 70
     1
102
RTVSPropertyOp22
 70
     1
102
RTVSPropertyOp23
 70
     1
102
RTVSPropertyOp24
 70
     1
102
RTVSPropertyOp25
 70
     1
102
RTVSPropertyOp26
 70
     1
102
RTVSPropertyOp27
 70
     1
102
RTVSPropertyOp28
 70
     1
102
RTVSPropertyOp29
 70
     1
102
RTVSPropertyOp30
 70
     1
102
RTVSPropertyOp31
 70
     1
102
RTVSPropertyOp32
 70
     1
102
RTVSPropertyOp33
 70
     1
102
RTVSPropertyOp34
 70
     1
102
RTVSPropertyOp35
 70
     1
102
RTVSPropertyOp36
 70
     1
102
RTVSPropertyOp37
 70
     1
102
RTVSPropertyOp38
 70
     1
102
RTVSPropertyOp39
 70
     1
102
RTVSPropertyOp40
 70
     1
102
RTVSPropertyOp41
 70
     1
102
RTVSPropertyOp42
 70
     1
102
RTVSPropertyOp43
 70
     1
102
RTVSPropertyOp44
 70
     1
102
RTVSPropertyOp45
 70
     1
102
RTVSPropertyOp46
 70
     1
102
RTVSPropertyOp47
 70
     1
102
RTVSPropertyOp48
 70
     1
102
RTVSPropertyOp49
 70
     1
102
RTVSPropertyOp50
 70
     1
102
RTVSPropertyOp51
 70
     0
102
RTVSPropertyOp52
 70
     0
102
RTVSPropertyOp53
 70
     1
102
RTVSPropertyOp54
 70
     1
102
RTVSPropertyOp55
 70
     1
102
RTVSPropertyOp56
 70
     1
102
RTVSPropertyOp57
 70
     1
102
RTVSPost2010Prop28
280
     0
102
RTVSPost2010PropOp28
 70
     1
102
RTVSPost2010Prop29
280
     1
102
RTVSPost2010PropOp29
 70
     1
102
RTVSPost2010Prop30
280
     1
102
RTVSPost2010PropOp30
 70
     1
102
RTVSPost2010Prop31
280
     0
102
RTVSPost2010PropOp31
 70
     1
102
RTVSPost2010Prop32
280
     0
102
RTVSPost2010PropOp32
 70
     1
102
RTVSPost2010Prop33
280
     0
102
RTVSPost2010PropOp33
 70
     1
102
RTVSPost2010Prop34
280
     0
102
RTVSPost2010PropOp34
 70
     1
102
RTVSPost2010Prop35
280
     0
102
RTVSPost2010PropOp35
 70
     1
102
RTVSPost2010Prop36
280
     0
102
RTVSPost2010PropOp36
 70
     1
102
RTVSPost2010Prop37
 90
       50
102
RTVSPost2010PropOp37
 70
     1
102
RTVSPost2010Prop38
140
0.0
102
RTVSPost2010PropOp38
 70
     1
102
RTVSPost2010Prop39
140
1.0
102
RTVSPost2010PropOp39
 70
     1
102
RTVSPost2010Prop40
 90
        0
102
RTVSPost2010PropOp40
 70
     1
102
RTVSPost2010Prop41ColorIndex
 90
       18
102
RTVSPost2010Prop41ColorRGB
 90
        0
102
RTVSPost2010PropOp41
 70
     1
102
RTVSPost2010Prop42
 90
       50
102
RTVSPost2010PropOp42
 70
     1
102
RTVSPost2010Prop43
 90
        3
102
RTVSPost2010PropOp43
 70
     1
102
RTVSPost2010Prop44ColorIndex
 90
        5
102
RTVSPost2010Prop44ColorRGB
 90
      255
102
RTVSPost2010PropOp44
 70
     1
102
RTVSPost2010Prop45
280
     0
102
RTVSPost2010PropOp45
 70
     1
102
RTVSPost2010Prop46
 90
       50
102
RTVSPost2010PropOp46
 70
     1
102
RTVSPost2010Prop47
 90
       50
102
RTVSPost2010PropOp47
 70
     1
102
RTVSPost2010Prop48
 90
       50
102
RTVSPost2010PropOp48
 70
     1
102
RTVSPost2010Prop49
280
     0
102
RTVSPost2010PropOp49
 70
     1
102
RTVSPost2010Prop50
 90
       50
102
RTVSPost2010PropOp50
 70
     1
102
RTVSPost2010Prop51ColorIndex
 90
      256
102
RTVSPost2010Prop51ColorRGB
 90
-16777216
102
RTVSPost2010PropOp51
 70
     0
102
RTVSPost2010Prop52
140
1.0
102
RTVSPost2010PropOp52
 70
     0
102
RTVSPost2010Prop53
 90
        2
102
RTVSPost2010PropOp53
 70
     1
102
RTVSPost2010Prop54
  1
strokes_ogs.tif
102
RTVSPost2010PropOp54
 70
     1
102
RTVSPost2010Prop55
280
     0
102
RTVSPost2010PropOp55
 70
     1
102
RTVSPost2010Prop56
140
1.0
102
RTVSPost2010PropOp56
 70
     1
102
RTVSPost2010Prop57
140
1.0
102
RTVSPost2010PropOp57
 70
     1
  0
XRECORD
  5
D9
102
{ACAD_REACTORS
330
D8
102
}
330
D8
100
AcDbXrecord
280
     1
102
RTVSPropertyOp0
 70
     0
102
RTVSPropertyOp1
 70
     0
102
RTVSPropertyOp2
 70
     0
102
RTVSPropertyOp3
 70
     0
102
RTVSPropertyOp4
 70
     0
102
RTVSPropertyOp5
 70
     0
102
RTVSPropertyOp6
 70
     0
102
RTVSPropertyOp7
 70
     0
102
RTVSPropertyOp8
 70
     0
102
RTVSPropertyOp9
 70
     0
102
RTVSPropertyOp10
 70
     0
102
RTVSPropertyOp11
 70
     0
102
RTVSPropertyOp12
 70
     0
102
RTVSPropertyOp13
 70
     0
102
RTVSPropertyOp14
 70
     2
102
RTVSPropertyOp15
 70
     0
102
RTVSPropertyOp16
 70
     0
102
RTVSPropertyOp17
 70
     0
102
RTVSPropertyOp18
 70
     0
102
RTVSPropertyOp19
 70
     0
102
RTVSPropertyOp20
 70
     0
102
RTVSPropertyOp21
 70
     0
102
RTVSPropertyOp22
 70
     0
102
RTVSPropertyOp23
 70
     0
102
RTVSPropertyOp24
 70
     0
102
RTVSPropertyOp25
 70
     0
102
RTVSPropertyOp26
 70
     0
102
RTVSPropertyOp27
 70
     0
102
RTVSPropertyOp28
 70
     0
102
RTVSPropertyOp29
 70
     0
102
RTVSPropertyOp30
 70
     0
102
RTVSPropertyOp31
 70
     0
102
RTVSPropertyOp32
 70
     0
102
RTVSPropertyOp33
 70
     0
102
RTVSPropertyOp34
 70
     0
102
RTVSPropertyOp35
 70
     0
102
RTVSPropertyOp36
 70
     0
102
RTVSPropertyOp37
 70
     0
102
RTVSPropertyOp38
 70
     0
102
RTVSPropertyOp39
 70
     0
102
RTVSPropertyOp40
 70
     0
102
RTVSPropertyOp41
 70
     0
102
RTVSPropertyOp42
 70
     0
102
RTVSPropertyOp43
 70
     0
102
RTVSPropertyOp44
 70
     0
102
RTVSPropertyOp45
 70
     0
102
RTVSPropertyOp46
 70
     0
102
RTVSPropertyOp47
 70
     0
102
RTVSPropertyOp48
 70
     0
102
RTVSPropertyOp49
 70
     0
102
RTVSPropertyOp50
 70
     0
102
RTVSPropertyOp51
 70
     0
102
RTVSPropertyOp52
 70
     0
102
RTVSPropertyOp53
 70
     0
102
RTVSPropertyOp54
 70
     0
102
RTVSPropertyOp55
 70
     0
102
RTVSPropertyOp56
 70
     0
102
RTVSPropertyOp57
 70
     0
102
RTVSPost2010Prop28
280
     0
102
RTVSPost2010PropOp28
 70
     0
102
RTVSPost2010Prop29
280
     1
102
RTVSPost2010PropOp29
 70
     0
102
RTVSPost2010Prop30
280
     1
102
RTVSPost2010PropOp30
 70
     0
102
RTVSPost2010Prop31
280
     0
102
RTVSPost2010PropOp31
 70
     0
102
RTVSPost2010Prop32
280
     0
102
RTVSPost2010PropOp32
 70
     0
102
RTVSPost2010Prop33
280
     0
102
RTVSPost2010PropOp33
 70
     0
102
RTVSPost2010Prop34
280
     0
102
RTVSPost2010PropOp34
 70
     0
102
RTVSPost2010Prop35
280
     0
102
RTVSPost2010PropOp35
 70
     0
102
RTVSPost2010Prop36
280
     0
102
RTVSPost2010PropOp36
 70
     0
102
RTVSPost2010Prop37
 90
       50
102
RTVSPost2010PropOp37
 70
     0
102
RTVSPost2010Prop38
140
0.0
102
RTVSPost2010PropOp38
 70
     0
102
RTVSPost2010Prop39
140
1.0
102
RTVSPost2010PropOp39
 70
     0
102
RTVSPost2010Prop40
 90
        0
102
RTVSPost2010PropOp40
 70
     0
102
RTVSPost2010Prop41ColorIndex
 90
       18
102
RTVSPost2010Prop41ColorRGB
 90
        0
102
RTVSPost2010PropOp41
 70
     0
102
RTVSPost2010Prop42
 90
       50
102
RTVSPost2010PropOp42
 70
     0
102
RTVSPost2010Prop43
 90
        3
102
RTVSPost2010PropOp43
 70
     0
102
RTVSPost2010Prop44ColorIndex
 90
        5
102
RTVSPost2010Prop44ColorRGB
 90
      255
102
RTVSPost2010PropOp44
 70
     0
102
RTVSPost2010Prop45
280
     0
102
RTVSPost2010PropOp45
 70
     0
102
RTVSPost2010Prop46
 90
       50
102
RTVSPost2010PropOp46
 70
     0
102
RTVSPost2010Prop47
 90
       50
102
RTVSPost2010PropOp47
 70
     0
102
RTVSPost2010Prop48
 90
       50
102
RTVSPost2010PropOp48
 70
     0
102
RTVSPost2010Prop49
280
     0
102
RTVSPost2010PropOp49
 70
     0
102
RTVSPost2010Prop50
 90
       50
102
RTVSPost2010PropOp50
 70
     0
102
RTVSPost2010Prop51ColorIndex
 90
      256
102
RTVSPost2010Prop51ColorRGB
 90
-16777216
102
RTVSPost2010PropOp51
 70
     0
102
RTVSPost2010Prop52
140
1.0
102
RTVSPost2010PropOp52
 70
     0
102
RTVSPost2010Prop53
 90
        2
102
RTVSPost2010PropOp53
 70
     0
102
RTVSPost2010Prop54
  1
strokes_ogs.tif
102
RTVSPost2010PropOp54
 70
     0
102
RTVSPost2010Prop55
280
     0
102
RTVSPost2010PropOp55
 70
     0
102
RTVSPost2010Prop56
140
1.0
102
RTVSPost2010PropOp56
 70
     0
102
RTVSPost2010Prop57
140
1.0
102
RTVSPost2010PropOp57
 70
     0
  0
XRECORD
  5
D3
102
{ACAD_REACTORS
330
D2
102
}
330
D2
100
AcDbXrecord
280
     1
102
RTVSPropertyOp0
 70
     1
102
RTVSPropertyOp1
 70
     1
102
RTVSPropertyOp2
 70
     1
102
RTVSPropertyOp3
 70
     1
102
RTVSPropertyOp4
 70
     1
102
RTVSPropertyOp5
 70
     1
102
RTVSPropertyOp6
 70
     1
102
RTVSPropertyOp7
 70
     1
102
RTVSPropertyOp8
 70
     1
102
RTVSPropertyOp9
 70
     1
102
RTVSPropertyOp10
 70
     1
102
RTVSPropertyOp11
 70
     1
102
RTVSPropertyOp12
 70
     1
102
RTVSPropertyOp13
 70
     1
102
RTVSPropertyOp14
 70
     1
102
RTVSPropertyOp15
 70
     1
102
RTVSPropertyOp16
 70
     1
102
RTVSPropertyOp17
 70
     1
102
RTVSPropertyOp18
 70
     1
102
RTVSPropertyOp19
 70
     1
102
RTVSPropertyOp20
 70
     1
102
RTVSPropertyOp21
 70
     1
102
RTVSPropertyOp22
 70
     1
102
RTVSPropertyOp23
 70
     1
102
RTVSPropertyOp24
 70
     1
102
RTVSPropertyOp25
 70
     1
102
RTVSPropertyOp26
 70
     1
102
RTVSPropertyOp27
 70
     1
102
RTVSPropertyOp28
 70
     1
102
RTVSPropertyOp29
 70
     1
102
RTVSPropertyOp30
 70
     1
102
RTVSPropertyOp31
 70
     1
102
RTVSPropertyOp32
 70
     1
102
RTVSPropertyOp33
 70
     1
102
RTVSPropertyOp34
 70
     1
102
RTVSPropertyOp35
 70
     1
102
RTVSPropertyOp36
 70
     1
102
RTVSPropertyOp37
 70
     1
102
RTVSPropertyOp38
 70
     1
102
RTVSPropertyOp39
 70
     1
102
RTVSPropertyOp40
 70
     1
102
RTVSPropertyOp41
 70
     1
102
RTVSPropertyOp42
 70
     1
102
RTVSPropertyOp43
 70
     1
102
RTVSPropertyOp44
 70
     1
102
RTVSPropertyOp45
 70
     1
102
RTVSPropertyOp46
 70
     1
102
RTVSPropertyOp47
 70
     1
102
RTVSPropertyOp48
 70
     1
102
RTVSPropertyOp49
 70
     1
102
RTVSPropertyOp50
 70
     1
102
RTVSPropertyOp51
 70
     0
102
RTVSPropertyOp52
 70
     0
102
RTVSPropertyOp53
 70
     1
102
RTVSPropertyOp54
 70
     1
102
RTVSPropertyOp55
 70
     1
102
RTVSPropertyOp56
 70
     1
102
RTVSPropertyOp57
 70
     1
102
RTVSPost2010Prop28
280
     0
102
RTVSPost2010PropOp28
 70
     1
102
RTVSPost2010Prop29
280
     1
102
RTVSPost2010PropOp29
 70
     1
102
RTVSPost2010Prop30
280
     1
102
RTVSPost2010PropOp30
 70
     1
102
RTVSPost2010Prop31
280
     0
102
RTVSPost2010PropOp31
 70
     1
102
RTVSPost2010Prop32
280
     0
102
RTVSPost2010PropOp32
 70
     1
102
RTVSPost2010Prop33
280
     0
102
RTVSPost2010PropOp33
 70
     1
102
RTVSPost2010Prop34
280
     0
102
RTVSPost2010PropOp34
 70
     1
102
RTVSPost2010Prop35
280
     0
102
RTVSPost2010PropOp35
 70
     1
102
RTVSPost2010Prop36
280
     0
102
RTVSPost2010PropOp36
 70
     1
102
RTVSPost2010Prop37
 90
       50
102
RTVSPost2010PropOp37
 70
     1
102
RTVSPost2010Prop38
140
0.0
102
RTVSPost2010PropOp38
 70
     1
102
RTVSPost2010Prop39
140
1.0
102
RTVSPost2010PropOp39
 70
     1
102
RTVSPost2010Prop40
 90
        0
102
RTVSPost2010PropOp40
 70
     1
102
RTVSPost2010Prop41ColorIndex
 90
       18
102
RTVSPost2010Prop41ColorRGB
 90
        0
102
RTVSPost2010PropOp41
 70
     1
102
RTVSPost2010Prop42
 90
       50
102
RTVSPost2010PropOp42
 70
     1
102
RTVSPost2010Prop43
 90
        3
102
RTVSPost2010PropOp43
 70
     1
102
RTVSPost2010Prop44ColorIndex
 90
        5
102
RTVSPost2010Prop44ColorRGB
 90
      255
102
RTVSPost2010PropOp44
 70
     1
102
RTVSPost2010Prop45
280
     0
102
RTVSPost2010PropOp45
 70
     1
102
RTVSPost2010Prop46
 90
       50
102
RTVSPost2010PropOp46
 70
     1
102
RTVSPost2010Prop47
 90
       50
102
RTVSPost2010PropOp47
 70
     1
102
RTVSPost2010Prop48
 90
       50
102
RTVSPost2010PropOp48
 70
     1
102
RTVSPost2010Prop49
280
     0
102
RTVSPost2010PropOp49
 70
     1
102
RTVSPost2010Prop50
 90
       50
102
RTVSPost2010PropOp50
 70
     1
102
RTVSPost2010Prop51ColorIndex
 90
      256
102
RTVSPost2010Prop51ColorRGB
 90
-16777216
102
RTVSPost2010PropOp51
 70
     0
102
RTVSPost2010Prop52
140
1.0
102
RTVSPost2010PropOp52
 70
     0
102
RTVSPost2010Prop53
 90
        2
102
RTVSPost2010PropOp53
 70
     1
102
RTVSPost2010Prop54
  1
strokes_ogs.tif
102
RTVSPost2010PropOp54
 70
     1
102
RTVSPost2010Prop55
280
     0
102
RTVSPost2010PropOp55
 70
     1
102
RTVSPost2010Prop56
140
1.0
102
RTVSPost2010PropOp56
 70
     1
102
RTVSPost2010Prop57
140
1.0
102
RTVSPost2010PropOp57
 70
     1
  0
XRECORD
  5
DB
102
{ACAD_REACTORS
330
DA
102
}
330
DA
100
AcDbXrecord
280
     1
102
RTVSPropertyOp0
 70
     0
102
RTVSPropertyOp1
 70
     0
102
RTVSPropertyOp2
 70
     0
102
RTVSPropertyOp3
 70
     0
102
RTVSPropertyOp4
 70
     0
102
RTVSPropertyOp5
 70
     0
102
RTVSPropertyOp6
 70
     0
102
RTVSPropertyOp7
 70
     0
102
RTVSPropertyOp8
 70
     0
102
RTVSPropertyOp9
 70
     0
102
RTVSPropertyOp10
 70
     0
102
RTVSPropertyOp11
 70
     0
102
RTVSPropertyOp12
 70
     0
102
RTVSPropertyOp13
 70
     0
102
RTVSPropertyOp14
 70
     2
102
RTVSPropertyOp15
 70
     0
102
RTVSPropertyOp16
 70
     0
102
RTVSPropertyOp17
 70
     0
102
RTVSPropertyOp18
 70
     0
102
RTVSPropertyOp19
 70
     0
102
RTVSPropertyOp20
 70
     0
102
RTVSPropertyOp21
 70
     0
102
RTVSPropertyOp22
 70
     0
102
RTVSPropertyOp23
 70
     0
102
RTVSPropertyOp24
 70
     0
102
RTVSPropertyOp25
 70
     0
102
RTVSPropertyOp26
 70
     0
102
RTVSPropertyOp27
 70
     0
102
RTVSPropertyOp28
 70
     0
102
RTVSPropertyOp29
 70
     0
102
RTVSPropertyOp30
 70
     0
102
RTVSPropertyOp31
 70
     0
102
RTVSPropertyOp32
 70
     0
102
RTVSPropertyOp33
 70
     0
102
RTVSPropertyOp34
 70
     0
102
RTVSPropertyOp35
 70
     0
102
RTVSPropertyOp36
 70
     0
102
RTVSPropertyOp37
 70
     0
102
RTVSPropertyOp38
 70
     0
102
RTVSPropertyOp39
 70
     0
102
RTVSPropertyOp40
 70
     0
102
RTVSPropertyOp41
 70
     0
102
RTVSPropertyOp42
 70
     0
102
RTVSPropertyOp43
 70
     0
102
RTVSPropertyOp44
 70
     0
102
RTVSPropertyOp45
 70
     0
102
RTVSPropertyOp46
 70
     0
102
RTVSPropertyOp47
 70
     0
102
RTVSPropertyOp48
 70
     0
102
RTVSPropertyOp49
 70
     0
102
RTVSPropertyOp50
 70
     0
102
RTVSPropertyOp51
 70
     0
102
RTVSPropertyOp52
 70
     0
102
RTVSPropertyOp53
 70
     0
102
RTVSPropertyOp54
 70
     0
102
RTVSPropertyOp55
 70
     0
102
RTVSPropertyOp56
 70
     0
102
RTVSPropertyOp57
 70
     0
102
RTVSPost2010Prop28
280
     0
102
RTVSPost2010PropOp28
 70
     0
102
RTVSPost2010Prop29
280
     1
102
RTVSPost2010PropOp29
 70
     0
102
RTVSPost2010Prop30
280
     1
102
RTVSPost2010PropOp30
 70
     0
102
RTVSPost2010Prop31
280
     0
102
RTVSPost2010PropOp31
 70
     0
102
RTVSPost2010Prop32
280
     0
102
RTVSPost2010PropOp32
 70
     0
102
RTVSPost2010Prop33
280
     0
102
RTVSPost2010PropOp33
 70
     0
102
RTVSPost2010Prop34
280
     0
102
RTVSPost2010PropOp34
 70
     0
102
RTVSPost2010Prop35
280
     0
102
RTVSPost2010PropOp35
 70
     0
102
RTVSPost2010Prop36
280
     0
102
RTVSPost2010PropOp36
 70
     0
102
RTVSPost2010Prop37
 90
       50
102
RTVSPost2010PropOp37
 70
     0
102
RTVSPost2010Prop38
140
0.0
102
RTVSPost2010PropOp38
 70
     0
102
RTVSPost2010Prop39
140
1.0
102
RTVSPost2010PropOp39
 70
     0
102
RTVSPost2010Prop40
 90
        0
102
RTVSPost2010PropOp40
 70
     0
102
RTVSPost2010Prop41ColorIndex
 90
       18
102
RTVSPost2010Prop41ColorRGB
 90
        0
102
RTVSPost2010PropOp41
 70
     0
102
RTVSPost2010Prop42
 90
       50
102
RTVSPost2010PropOp42
 70
     0
102
RTVSPost2010Prop43
 90
        3
102
RTVSPost2010PropOp43
 70
     0
102
RTVSPost2010Prop44ColorIndex
 90
        5
102
RTVSPost2010Prop44ColorRGB
 90
      255
102
RTVSPost2010PropOp44
 70
     0
102
RTVSPost2010Prop45
280
     0
102
RTVSPost2010PropOp45
 70
     0
102
RTVSPost2010Prop46
 90
       50
102
RTVSPost2010PropOp46
 70
     0
102
RTVSPost2010Prop47
 90
       50
102
RTVSPost2010PropOp47
 70
     0
102
RTVSPost2010Prop48
 90
       50
102
RTVSPost2010PropOp48
 70
     0
102
RTVSPost2010Prop49
280
     0
102
RTVSPost2010PropOp49
 70
     0
102
RTVSPost2010Prop50
 90
       50
102
RTVSPost2010PropOp50
 70
     0
102
RTVSPost2010Prop51ColorIndex
 90
      256
102
RTVSPost2010Prop51ColorRGB
 90
-16777216
102
RTVSPost2010PropOp51
 70
     0
102
RTVSPost2010Prop52
140
1.0
102
RTVSPost2010PropOp52
 70
     0
102
RTVSPost2010Prop53
 90
        2
102
RTVSPost2010PropOp53
 70
     0
102
RTVSPost2010Prop54
  1
strokes_ogs.tif
102
RTVSPost2010PropOp54
 70
     0
102
RTVSPost2010Prop55
280
     0
102
RTVSPost2010PropOp55
 70
     0
102
RTVSPost2010Prop56
140
1.0
102
RTVSPost2010PropOp56
 70
     0
102
RTVSPost2010Prop57
140
1.0
102
RTVSPost2010PropOp57
 70
     0
  0
XRECORD
  5
C9
102
{ACAD_REACTORS
330
C8
102
}
330
C8
100
AcDbXrecord
280
     1
102
RTVSPropertyOp0
 70
     1
102
RTVSPropertyOp1
 70
     1
102
RTVSPropertyOp2
 70
     1
102
RTVSPropertyOp3
 70
     1
102
RTVSPropertyOp4
 70
     1
102
RTVSPropertyOp5
 70
     1
102
RTVSPropertyOp6
 70
     1
102
RTVSPropertyOp7
 70
     1
102
RTVSPropertyOp8
 70
     1
102
RTVSPropertyOp9
 70
     1
102
RTVSPropertyOp10
 70
     1
102
RTVSPropertyOp11
 70
     1
102
RTVSPropertyOp12
 70
     1
102
RTVSPropertyOp13
 70
     1
102
RTVSPropertyOp14
 70
     1
102
RTVSPropertyOp15
 70
     1
102
RTVSPropertyOp16
 70
     1
102
RTVSPropertyOp17
 70
     1
102
RTVSPropertyOp18
 70
     1
102
RTVSPropertyOp19
 70
     1
102
RTVSPropertyOp20
 70
     1
102
RTVSPropertyOp21
 70
     1
102
RTVSPropertyOp22
 70
     1
102
RTVSPropertyOp23
 70
     1
102
RTVSPropertyOp24
 70
     1
102
RTVSPropertyOp25
 70
     1
102
RTVSPropertyOp26
 70
     1
102
RTVSPropertyOp27
 70
     1
102
RTVSPropertyOp28
 70
     1
102
RTVSPropertyOp29
 70
     1
102
RTVSPropertyOp30
 70
     1
102
RTVSPropertyOp31
 70
     1
102
RTVSPropertyOp32
 70
     1
102
RTVSPropertyOp33
 70
     1
102
RTVSPropertyOp34
 70
     1
102
RTVSPropertyOp35
 70
     1
102
RTVSPropertyOp36
 70
     1
102
RTVSPropertyOp37
 70
     1
102
RTVSPropertyOp38
 70
     1
102
RTVSPropertyOp39
 70
     1
102
RTVSPropertyOp40
 70
     1
102
RTVSPropertyOp41
 70
     1
102
RTVSPropertyOp42
 70
     1
102
RTVSPropertyOp43
 70
     1
102
RTVSPropertyOp44
 70
     1
102
RTVSPropertyOp45
 70
     1
102
RTVSPropertyOp46
 70
     1
102
RTVSPropertyOp47
 70
     1
102
RTVSPropertyOp48
 70
     1
102
RTVSPropertyOp49
 70
     1
102
RTVSPropertyOp50
 70
     1
102
RTVSPropertyOp51
 70
     0
102
RTVSPropertyOp52
 70
     0
102
RTVSPropertyOp53
 70
     1
102
RTVSPropertyOp54
 70
     1
102
RTVSPropertyOp55
 70
     1
102
RTVSPropertyOp56
 70
     1
102
RTVSPropertyOp57
 70
     1
102
RTVSPost2010Prop28
280
     0
102
RTVSPost2010PropOp28
 70
     1
102
RTVSPost2010Prop29
280
     1
102
RTVSPost2010PropOp29
 70
     1
102
RTVSPost2010Prop30
280
     1
102
RTVSPost2010PropOp30
 70
     1
102
RTVSPost2010Prop31
280
     0
102
RTVSPost2010PropOp31
 70
     1
102
RTVSPost2010Prop32
280
     0
102
RTVSPost2010PropOp32
 70
     1
102
RTVSPost2010Prop33
280
     0
102
RTVSPost2010PropOp33
 70
     1
102
RTVSPost2010Prop34
280
     0
102
RTVSPost2010PropOp34
 70
     1
102
RTVSPost2010Prop35
280
     0
102
RTVSPost2010PropOp35
 70
     1
102
RTVSPost2010Prop36
280
     0
102
RTVSPost2010PropOp36
 70
     1
102
RTVSPost2010Prop37
 90
       50
102
RTVSPost2010PropOp37
 70
     1
102
RTVSPost2010Prop38
140
0.0
102
RTVSPost2010PropOp38
 70
     1
102
RTVSPost2010Prop39
140
1.0
102
RTVSPost2010PropOp39
 70
     1
102
RTVSPost2010Prop40
 90
        0
102
RTVSPost2010PropOp40
 70
     1
102
RTVSPost2010Prop41ColorIndex
 90
       18
102
RTVSPost2010Prop41ColorRGB
 90
        0
102
RTVSPost2010PropOp41
 70
     1
102
RTVSPost2010Prop42
 90
       50
102
RTVSPost2010PropOp42
 70
     1
102
RTVSPost2010Prop43
 90
        3
102
RTVSPost2010PropOp43
 70
     1
102
RTVSPost2010Prop44ColorIndex
 90
        5
102
RTVSPost2010Prop44ColorRGB
 90
      255
102
RTVSPost2010PropOp44
 70
     1
102
RTVSPost2010Prop45
280
     0
102
RTVSPost2010PropOp45
 70
     1
102
RTVSPost2010Prop46
 90
       50
102
RTVSPost2010PropOp46
 70
     1
102
RTVSPost2010Prop47
 90
       50
102
RTVSPost2010PropOp47
 70
     1
102
RTVSPost2010Prop48
 90
       50
102
RTVSPost2010PropOp48
 70
     1
102
RTVSPost2010Prop49
280
     0
102
RTVSPost2010PropOp49
 70
     1
102
RTVSPost2010Prop50
 90
       50
102
RTVSPost2010PropOp50
 70
     1
102
RTVSPost2010Prop51ColorIndex
 90
      256
102
RTVSPost2010Prop51ColorRGB
 90
-16777216
102
RTVSPost2010PropOp51
 70
     0
102
RTVSPost2010Prop52
140
1.0
102
RTVSPost2010PropOp52
 70
     0
102
RTVSPost2010Prop53
 90
        2
102
RTVSPost2010PropOp53
 70
     1
102
RTVSPost2010Prop54
  1
strokes_ogs.tif
102
RTVSPost2010PropOp54
 70
     1
102
RTVSPost2010Prop55
280
     0
102
RTVSPost2010PropOp55
 70
     1
102
RTVSPost2010Prop56
140
1.0
102
RTVSPost2010PropOp56
 70
     1
102
RTVSPost2010Prop57
140
1.0
102
RTVSPost2010PropOp57
 70
     1
  0
XRECORD
  5
E7
102
{ACAD_REACTORS
330
E6
102
}
330
E6
100
AcDbXrecord
280
     1
102
RTVSPropertyOp0
 70
     1
102
RTVSPropertyOp1
 70
     1
102
RTVSPropertyOp2
 70
     1
102
RTVSPropertyOp3
 70
     1
102
RTVSPropertyOp4
 70
     1
102
RTVSPropertyOp5
 70
     1
102
RTVSPropertyOp6
 70
     1
102
RTVSPropertyOp7
 70
     1
102
RTVSPropertyOp8
 70
     1
102
RTVSPropertyOp9
 70
     1
102
RTVSPropertyOp10
 70
     1
102
RTVSPropertyOp11
 70
     1
102
RTVSPropertyOp12
 70
     1
102
RTVSPropertyOp13
 70
     1
102
RTVSPropertyOp14
 70
     1
102
RTVSPropertyOp15
 70
     1
102
RTVSPropertyOp16
 70
     1
102
RTVSPropertyOp17
 70
     1
102
RTVSPropertyOp18
 70
     1
102
RTVSPropertyOp19
 70
     1
102
RTVSPropertyOp20
 70
     1
102
RTVSPropertyOp21
 70
     1
102
RTVSPropertyOp22
 70
     1
102
RTVSPropertyOp23
 70
     1
102
RTVSPropertyOp24
 70
     1
102
RTVSPropertyOp25
 70
     1
102
RTVSPropertyOp26
 70
     1
102
RTVSPropertyOp27
 70
     1
102
RTVSPropertyOp28
 70
     1
102
RTVSPropertyOp29
 70
     1
102
RTVSPropertyOp30
 70
     1
102
RTVSPropertyOp31
 70
     1
102
RTVSPropertyOp32
 70
     1
102
RTVSPropertyOp33
 70
     1
102
RTVSPropertyOp34
 70
     1
102
RTVSPropertyOp35
 70
     1
102
RTVSPropertyOp36
 70
     1
102
RTVSPropertyOp37
 70
     1
102
RTVSPropertyOp38
 70
     1
102
RTVSPropertyOp39
 70
     1
102
RTVSPropertyOp40
 70
     1
102
RTVSPropertyOp41
 70
     1
102
RTVSPropertyOp42
 70
     1
102
RTVSPropertyOp43
 70
     1
102
RTVSPropertyOp44
 70
     1
102
RTVSPropertyOp45
 70
     1
102
RTVSPropertyOp46
 70
     1
102
RTVSPropertyOp47
 70
     1
102
RTVSPropertyOp48
 70
     1
102
RTVSPropertyOp49
 70
     1
102
RTVSPropertyOp50
 70
     1
102
RTVSPropertyOp51
 70
     0
102
RTVSPropertyOp52
 70
     0
102
RTVSPropertyOp53
 70
     1
102
RTVSPropertyOp54
 70
     1
102
RTVSPropertyOp55
 70
     1
102
RTVSPropertyOp56
 70
     1
102
RTVSPropertyOp57
 70
     1
102
RTVSPost2010Prop28
280
     0
102
RTVSPost2010PropOp28
 70
     1
102
RTVSPost2010Prop29
280
     1
102
RTVSPost2010PropOp29
 70
     1
102
RTVSPost2010Prop30
280
     1
102
RTVSPost2010PropOp30
 70
     1
102
RTVSPost2010Prop31
280
     0
102
RTVSPost2010PropOp31
 70
     1
102
RTVSPost2010Prop32
280
     0
102
RTVSPost2010PropOp32
 70
     1
102
RTVSPost2010Prop33
280
     0
102
RTVSPost2010PropOp33
 70
     1
102
RTVSPost2010Prop34
280
     0
102
RTVSPost2010PropOp34
 70
     1
102
RTVSPost2010Prop35
280
     0
102
RTVSPost2010PropOp35
 70
     1
102
RTVSPost2010Prop36
280
     0
102
RTVSPost2010PropOp36
 70
     1
102
RTVSPost2010Prop37
 90
       50
102
RTVSPost2010PropOp37
 70
     1
102
RTVSPost2010Prop38
140
0.0
102
RTVSPost2010PropOp38
 70
     1
102
RTVSPost2010Prop39
140
1.0
102
RTVSPost2010PropOp39
 70
     1
102
RTVSPost2010Prop40
 90
        0
102
RTVSPost2010PropOp40
 70
     1
102
RTVSPost2010Prop41ColorIndex
 90
       18
102
RTVSPost2010Prop41ColorRGB
 90
        0
102
RTVSPost2010PropOp41
 70
     1
102
RTVSPost2010Prop42
 90
       50
102
RTVSPost2010PropOp42
 70
     1
102
RTVSPost2010Prop43
 90
        3
102
RTVSPost2010PropOp43
 70
     1
102
RTVSPost2010Prop44ColorIndex
 90
        5
102
RTVSPost2010Prop44ColorRGB
 90
      255
102
RTVSPost2010PropOp44
 70
     1
102
RTVSPost2010Prop45
280
     0
102
RTVSPost2010PropOp45
 70
     1
102
RTVSPost2010Prop46
 90
       50
102
RTVSPost2010PropOp46
 70
     1
102
RTVSPost2010Prop47
 90
       50
102
RTVSPost2010PropOp47
 70
     1
102
RTVSPost2010Prop48
 90
       50
102
RTVSPost2010PropOp48
 70
     1
102
RTVSPost2010Prop49
280
     0
102
RTVSPost2010PropOp49
 70
     1
102
RTVSPost2010Prop50
 90
       50
102
RTVSPost2010PropOp50
 70
     1
102
RTVSPost2010Prop51ColorIndex
 90
      256
102
RTVSPost2010Prop51ColorRGB
 90
-16777216
102
RTVSPost2010PropOp51
 70
     0
102
RTVSPost2010Prop52
140
1.0
102
RTVSPost2010PropOp52
 70
     0
102
RTVSPost2010Prop53
 90
        2
102
RTVSPost2010PropOp53
 70
     1
102
RTVSPost2010Prop54
  1
strokes_ogs.tif
102
RTVSPost2010PropOp54
 70
     1
102
RTVSPost2010Prop55
280
     0
102
RTVSPost2010PropOp55
 70
     1
102
RTVSPost2010Prop56
140
1.0
102
RTVSPost2010PropOp56
 70
     1
102
RTVSPost2010Prop57
140
1.0
102
RTVSPost2010PropOp57
 70
     1
  0
XRECORD
  5
E5
102
{ACAD_REACTORS
330
E4
102
}
330
E4
100
AcDbXrecord
280
     1
102
RTVSPropertyOp0
 70
     1
102
RTVSPropertyOp1
 70
     1
102
RTVSPropertyOp2
 70
     1
102
RTVSPropertyOp3
 70
     1
102
RTVSPropertyOp4
 70
     1
102
RTVSPropertyOp5
 70
     1
102
RTVSPropertyOp6
 70
     1
102
RTVSPropertyOp7
 70
     1
102
RTVSPropertyOp8
 70
     1
102
RTVSPropertyOp9
 70
     1
102
RTVSPropertyOp10
 70
     1
102
RTVSPropertyOp11
 70
     1
102
RTVSPropertyOp12
 70
     1
102
RTVSPropertyOp13
 70
     1
102
RTVSPropertyOp14
 70
     1
102
RTVSPropertyOp15
 70
     1
102
RTVSPropertyOp16
 70
     1
102
RTVSPropertyOp17
 70
     1
102
RTVSPropertyOp18
 70
     1
102
RTVSPropertyOp19
 70
     1
102
RTVSPropertyOp20
 70
     1
102
RTVSPropertyOp21
 70
     1
102
RTVSPropertyOp22
 70
     1
102
RTVSPropertyOp23
 70
     1
102
RTVSPropertyOp24
 70
     1
102
RTVSPropertyOp25
 70
     1
102
RTVSPropertyOp26
 70
     1
102
RTVSPropertyOp27
 70
     1
102
RTVSPropertyOp28
 70
     1
102
RTVSPropertyOp29
 70
     1
102
RTVSPropertyOp30
 70
     1
102
RTVSPropertyOp31
 70
     1
102
RTVSPropertyOp32
 70
     1
102
RTVSPropertyOp33
 70
     1
102
RTVSPropertyOp34
 70
     1
102
RTVSPropertyOp35
 70
     1
102
RTVSPropertyOp36
 70
     1
102
RTVSPropertyOp37
 70
     1
102
RTVSPropertyOp38
 70
     1
102
RTVSPropertyOp39
 70
     1
102
RTVSPropertyOp40
 70
     1
102
RTVSPropertyOp41
 70
     1
102
RTVSPropertyOp42
 70
     1
102
RTVSPropertyOp43
 70
     1
102
RTVSPropertyOp44
 70
     1
102
RTVSPropertyOp45
 70
     1
102
RTVSPropertyOp46
 70
     1
102
RTVSPropertyOp47
 70
     1
102
RTVSPropertyOp48
 70
     1
102
RTVSPropertyOp49
 70
     1
102
RTVSPropertyOp50
 70
     1
102
RTVSPropertyOp51
 70
     0
102
RTVSPropertyOp52
 70
     0
102
RTVSPropertyOp53
 70
     1
102
RTVSPropertyOp54
 70
     1
102
RTVSPropertyOp55
 70
     1
102
RTVSPropertyOp56
 70
     1
102
RTVSPropertyOp57
 70
     1
102
RTVSPost2010Prop28
280
     0
102
RTVSPost2010PropOp28
 70
     1
102
RTVSPost2010Prop29
280
     1
102
RTVSPost2010PropOp29
 70
     1
102
RTVSPost2010Prop30
280
     1
102
RTVSPost2010PropOp30
 70
     1
102
RTVSPost2010Prop31
280
     0
102
RTVSPost2010PropOp31
 70
     1
102
RTVSPost2010Prop32
280
     0
102
RTVSPost2010PropOp32
 70
     1
102
RTVSPost2010Prop33
280
     0
102
RTVSPost2010PropOp33
 70
     1
102
RTVSPost2010Prop34
280
     0
102
RTVSPost2010PropOp34
 70
     1
102
RTVSPost2010Prop35
280
     0
102
RTVSPost2010PropOp35
 70
     1
102
RTVSPost2010Prop36
280
     0
102
RTVSPost2010PropOp36
 70
     1
102
RTVSPost2010Prop37
 90
       50
102
RTVSPost2010PropOp37
 70
     1
102
RTVSPost2010Prop38
140
0.0
102
RTVSPost2010PropOp38
 70
     1
102
RTVSPost2010Prop39
140
1.0
102
RTVSPost2010PropOp39
 70
     1
102
RTVSPost2010Prop40
 90
        0
102
RTVSPost2010PropOp40
 70
     1
102
RTVSPost2010Prop41ColorIndex
 90
       18
102
RTVSPost2010Prop41ColorRGB
 90
        0
102
RTVSPost2010PropOp41
 70
     1
102
RTVSPost2010Prop42
 90
       50
102
RTVSPost2010PropOp42
 70
     1
102
RTVSPost2010Prop43
 90
        3
102
RTVSPost2010PropOp43
 70
     1
102
RTVSPost2010Prop44ColorIndex
 90
        5
102
RTVSPost2010Prop44ColorRGB
 90
      255
102
RTVSPost2010PropOp44
 70
     1
102
RTVSPost2010Prop45
280
     0
102
RTVSPost2010PropOp45
 70
     1
102
RTVSPost2010Prop46
 90
       50
102
RTVSPost2010PropOp46
 70
     1
102
RTVSPost2010Prop47
 90
       50
102
RTVSPost2010PropOp47
 70
     1
102
RTVSPost2010Prop48
 90
       50
102
RTVSPost2010PropOp48
 70
     1
102
RTVSPost2010Prop49
280
     0
102
RTVSPost2010PropOp49
 70
     1
102
RTVSPost2010Prop50
 90
       50
102
RTVSPost2010PropOp50
 70
     1
102
RTVSPost2010Prop51ColorIndex
 90
      256
102
RTVSPost2010Prop51ColorRGB
 90
-16777216
102
RTVSPost2010PropOp51
 70
     0
102
RTVSPost2010Prop52
140
1.0
102
RTVSPost2010PropOp52
 70
     0
102
RTVSPost2010Prop53
 90
        2
102
RTVSPost2010PropOp53
 70
     1
102
RTVSPost2010Prop54
  1
strokes_ogs.tif
102
RTVSPost2010PropOp54
 70
     1
102
RTVSPost2010Prop55
280
     0
102
RTVSPost2010PropOp55
 70
     1
102
RTVSPost2010Prop56
140
1.0
102
RTVSPost2010PropOp56
 70
     1
102
RTVSPost2010Prop57
140
1.0
102
RTVSPost2010PropOp57
 70
     1
  0
XRECORD
  5
DF
102
{ACAD_REACTORS
330
DE
102
}
330
DE
100
AcDbXrecord
280
     1
102
RTVSPropertyOp0
 70
     1
102
RTVSPropertyOp1
 70
     1
102
RTVSPropertyOp2
 70
     1
102
RTVSPropertyOp3
 70
     1
102
RTVSPropertyOp4
 70
     1
102
RTVSPropertyOp5
 70
     1
102
RTVSPropertyOp6
 70
     1
102
RTVSPropertyOp7
 70
     1
102
RTVSPropertyOp8
 70
     1
102
RTVSPropertyOp9
 70
     1
102
RTVSPropertyOp10
 70
     1
102
RTVSPropertyOp11
 70
     1
102
RTVSPropertyOp12
 70
     1
102
RTVSPropertyOp13
 70
     1
102
RTVSPropertyOp14
 70
     1
102
RTVSPropertyOp15
 70
     1
102
RTVSPropertyOp16
 70
     1
102
RTVSPropertyOp17
 70
     1
102
RTVSPropertyOp18
 70
     1
102
RTVSPropertyOp19
 70
     1
102
RTVSPropertyOp20
 70
     1
102
RTVSPropertyOp21
 70
     1
102
RTVSPropertyOp22
 70
     1
102
RTVSPropertyOp23
 70
     1
102
RTVSPropertyOp24
 70
     1
102
RTVSPropertyOp25
 70
     1
102
RTVSPropertyOp26
 70
     1
102
RTVSPropertyOp27
 70
     1
102
RTVSPropertyOp28
 70
     1
102
RTVSPropertyOp29
 70
     1
102
RTVSPropertyOp30
 70
     1
102
RTVSPropertyOp31
 70
     1
102
RTVSPropertyOp32
 70
     1
102
RTVSPropertyOp33
 70
     1
102
RTVSPropertyOp34
 70
     1
102
RTVSPropertyOp35
 70
     1
102
RTVSPropertyOp36
 70
     1
102
RTVSPropertyOp37
 70
     1
102
RTVSPropertyOp38
 70
     1
102
RTVSPropertyOp39
 70
     1
102
RTVSPropertyOp40
 70
     1
102
RTVSPropertyOp41
 70
     1
102
RTVSPropertyOp42
 70
     1
102
RTVSPropertyOp43
 70
     1
102
RTVSPropertyOp44
 70
     1
102
RTVSPropertyOp45
 70
     1
102
RTVSPropertyOp46
 70
     1
102
RTVSPropertyOp47
 70
     1
102
RTVSPropertyOp48
 70
     1
102
RTVSPropertyOp49
 70
     1
102
RTVSPropertyOp50
 70
     1
102
RTVSPropertyOp51
 70
     0
102
RTVSPropertyOp52
 70
     0
102
RTVSPropertyOp53
 70
     1
102
RTVSPropertyOp54
 70
     1
102
RTVSPropertyOp55
 70
     1
102
RTVSPropertyOp56
 70
     1
102
RTVSPropertyOp57
 70
     1
102
RTVSPost2010Prop28
280
     0
102
RTVSPost2010PropOp28
 70
     1
102
RTVSPost2010Prop29
280
     1
102
RTVSPost2010PropOp29
 70
     1
102
RTVSPost2010Prop30
280
     1
102
RTVSPost2010PropOp30
 70
     1
102
RTVSPost2010Prop31
280
     0
102
RTVSPost2010PropOp31
 70
     1
102
RTVSPost2010Prop32
280
     0
102
RTVSPost2010PropOp32
 70
     1
102
RTVSPost2010Prop33
280
     0
102
RTVSPost2010PropOp33
 70
     1
102
RTVSPost2010Prop34
280
     0
102
RTVSPost2010PropOp34
 70
     1
102
RTVSPost2010Prop35
280
     0
102
RTVSPost2010PropOp35
 70
     1
102
RTVSPost2010Prop36
280
     0
102
RTVSPost2010PropOp36
 70
     1
102
RTVSPost2010Prop37
 90
       50
102
RTVSPost2010PropOp37
 70
     1
102
RTVSPost2010Prop38
140
0.0
102
RTVSPost2010PropOp38
 70
     1
102
RTVSPost2010Prop39
140
1.0
102
RTVSPost2010PropOp39
 70
     1
102
RTVSPost2010Prop40
 90
        0
102
RTVSPost2010PropOp40
 70
     1
102
RTVSPost2010Prop41ColorIndex
 90
       18
102
RTVSPost2010Prop41ColorRGB
 90
        0
102
RTVSPost2010PropOp41
 70
     1
102
RTVSPost2010Prop42
 90
       50
102
RTVSPost2010PropOp42
 70
     1
102
RTVSPost2010Prop43
 90
        3
102
RTVSPost2010PropOp43
 70
     1
102
RTVSPost2010Prop44ColorIndex
 90
        5
102
RTVSPost2010Prop44ColorRGB
 90
      255
102
RTVSPost2010PropOp44
 70
     1
102
RTVSPost2010Prop45
280
     0
102
RTVSPost2010PropOp45
 70
     1
102
RTVSPost2010Prop46
 90
       50
102
RTVSPost2010PropOp46
 70
     1
102
RTVSPost2010Prop47
 90
       50
102
RTVSPost2010PropOp47
 70
     1
102
RTVSPost2010Prop48
 90
       50
102
RTVSPost2010PropOp48
 70
     1
102
RTVSPost2010Prop49
280
     0
102
RTVSPost2010PropOp49
 70
     1
102
RTVSPost2010Prop50
 90
       50
102
RTVSPost2010PropOp50
 70
     1
102
RTVSPost2010Prop51ColorIndex
 90
      256
102
RTVSPost2010Prop51ColorRGB
 90
-16777216
102
RTVSPost2010PropOp51
 70
     0
102
RTVSPost2010Prop52
140
1.0
102
RTVSPost2010PropOp52
 70
     0
102
RTVSPost2010Prop53
 90
        2
102
RTVSPost2010PropOp53
 70
     1
102
RTVSPost2010Prop54
  1
strokes_ogs.tif
102
RTVSPost2010PropOp54
 70
     1
102
RTVSPost2010Prop55
280
     0
102
RTVSPost2010PropOp55
 70
     1
102
RTVSPost2010Prop56
140
1.0
102
RTVSPost2010PropOp56
 70
     1
102
RTVSPost2010Prop57
140
1.0
102
RTVSPost2010PropOp57
 70
     1
  0
XRECORD
  5
E1
102
{ACAD_REACTORS
330
E0
102
}
330
E0
100
AcDbXrecord
280
     1
102
RTVSPropertyOp0
 70
     1
102
RTVSPropertyOp1
 70
     1
102
RTVSPropertyOp2
 70
     1
102
RTVSPropertyOp3
 70
     1
102
RTVSPropertyOp4
 70
     1
102
RTVSPropertyOp5
 70
     1
102
RTVSPropertyOp6
 70
     1
102
RTVSPropertyOp7
 70
     1
102
RTVSPropertyOp8
 70
     1
102
RTVSPropertyOp9
 70
     1
102
RTVSPropertyOp10
 70
     1
102
RTVSPropertyOp11
 70
     1
102
RTVSPropertyOp12
 70
     1
102
RTVSPropertyOp13
 70
     1
102
RTVSPropertyOp14
 70
     1
102
RTVSPropertyOp15
 70
     1
102
RTVSPropertyOp16
 70
     1
102
RTVSPropertyOp17
 70
     1
102
RTVSPropertyOp18
 70
     1
102
RTVSPropertyOp19
 70
     1
102
RTVSPropertyOp20
 70
     1
102
RTVSPropertyOp21
 70
     1
102
RTVSPropertyOp22
 70
     1
102
RTVSPropertyOp23
 70
     1
102
RTVSPropertyOp24
 70
     1
102
RTVSPropertyOp25
 70
     1
102
RTVSPropertyOp26
 70
     1
102
RTVSPropertyOp27
 70
     1
102
RTVSPropertyOp28
 70
     1
102
RTVSPropertyOp29
 70
     1
102
RTVSPropertyOp30
 70
     1
102
RTVSPropertyOp31
 70
     1
102
RTVSPropertyOp32
 70
     1
102
RTVSPropertyOp33
 70
     1
102
RTVSPropertyOp34
 70
     1
102
RTVSPropertyOp35
 70
     1
102
RTVSPropertyOp36
 70
     1
102
RTVSPropertyOp37
 70
     1
102
RTVSPropertyOp38
 70
     1
102
RTVSPropertyOp39
 70
     1
102
RTVSPropertyOp40
 70
     1
102
RTVSPropertyOp41
 70
     1
102
RTVSPropertyOp42
 70
     1
102
RTVSPropertyOp43
 70
     1
102
RTVSPropertyOp44
 70
     1
102
RTVSPropertyOp45
 70
     1
102
RTVSPropertyOp46
 70
     1
102
RTVSPropertyOp47
 70
     1
102
RTVSPropertyOp48
 70
     1
102
RTVSPropertyOp49
 70
     1
102
RTVSPropertyOp50
 70
     1
102
RTVSPropertyOp51
 70
     0
102
RTVSPropertyOp52
 70
     0
102
RTVSPropertyOp53
 70
     1
102
RTVSPropertyOp54
 70
     1
102
RTVSPropertyOp55
 70
     1
102
RTVSPropertyOp56
 70
     1
102
RTVSPropertyOp57
 70
     1
102
RTVSPost2010Prop28
280
     0
102
RTVSPost2010PropOp28
 70
     1
102
RTVSPost2010Prop29
280
     1
102
RTVSPost2010PropOp29
 70
     1
102
RTVSPost2010Prop30
280
     1
102
RTVSPost2010PropOp30
 70
     1
102
RTVSPost2010Prop31
280
     0
102
RTVSPost2010PropOp31
 70
     1
102
RTVSPost2010Prop32
280
     0
102
RTVSPost2010PropOp32
 70
     1
102
RTVSPost2010Prop33
280
     0
102
RTVSPost2010PropOp33
 70
     1
102
RTVSPost2010Prop34
280
     0
102
RTVSPost2010PropOp34
 70
     1
102
RTVSPost2010Prop35
280
     0
102
RTVSPost2010PropOp35
 70
     1
102
RTVSPost2010Prop36
280
     0
102
RTVSPost2010PropOp36
 70
     1
102
RTVSPost2010Prop37
 90
       50
102
RTVSPost2010PropOp37
 70
     1
102
RTVSPost2010Prop38
140
0.0
102
RTVSPost2010PropOp38
 70
     1
102
RTVSPost2010Prop39
140
1.0
102
RTVSPost2010PropOp39
 70
     1
102
RTVSPost2010Prop40
 90
        0
102
RTVSPost2010PropOp40
 70
     1
102
RTVSPost2010Prop41ColorIndex
 90
       18
102
RTVSPost2010Prop41ColorRGB
 90
        0
102
RTVSPost2010PropOp41
 70
     1
102
RTVSPost2010Prop42
 90
       50
102
RTVSPost2010PropOp42
 70
     1
102
RTVSPost2010Prop43
 90
        3
102
RTVSPost2010PropOp43
 70
     1
102
RTVSPost2010Prop44ColorIndex
 90
        5
102
RTVSPost2010Prop44ColorRGB
 90
      255
102
RTVSPost2010PropOp44
 70
     1
102
RTVSPost2010Prop45
280
     0
102
RTVSPost2010PropOp45
 70
     1
102
RTVSPost2010Prop46
 90
       50
102
RTVSPost2010PropOp46
 70
     1
102
RTVSPost2010Prop47
 90
       50
102
RTVSPost2010PropOp47
 70
     1
102
RTVSPost2010Prop48
 90
       50
102
RTVSPost2010PropOp48
 70
     1
102
RTVSPost2010Prop49
280
     0
102
RTVSPost2010PropOp49
 70
     1
102
RTVSPost2010Prop50
 90
       50
102
RTVSPost2010PropOp50
 70
     1
102
RTVSPost2010Prop51ColorIndex
 90
      256
102
RTVSPost2010Prop51ColorRGB
 90
-16777216
102
RTVSPost2010PropOp51
 70
     0
102
RTVSPost2010Prop52
140
1.0
102
RTVSPost2010PropOp52
 70
     0
102
RTVSPost2010Prop53
 90
        2
102
RTVSPost2010PropOp53
 70
     1
102
RTVSPost2010Prop54
  1
strokes_ogs.tif
102
RTVSPost2010PropOp54
 70
     1
102
RTVSPost2010Prop55
280
     0
102
RTVSPost2010PropOp55
 70
     1
102
RTVSPost2010Prop56
140
1.0
102
RTVSPost2010PropOp56
 70
     1
102
RTVSPost2010Prop57
140
1.0
102
RTVSPost2010PropOp57
 70
     1
  0
XRECORD
  5
D1
102
{ACAD_REACTORS
330
D0
102
}
330
D0
100
AcDbXrecord
280
     1
102
RTVSPropertyOp0
 70
     1
102
RTVSPropertyOp1
 70
     1
102
RTVSPropertyOp2
 70
     1
102
RTVSPropertyOp3
 70
     1
102
RTVSPropertyOp4
 70
     1
102
RTVSPropertyOp5
 70
     1
102
RTVSPropertyOp6
 70
     1
102
RTVSPropertyOp7
 70
     1
102
RTVSPropertyOp8
 70
     1
102
RTVSPropertyOp9
 70
     1
102
RTVSPropertyOp10
 70
     1
102
RTVSPropertyOp11
 70
     1
102
RTVSPropertyOp12
 70
     1
102
RTVSPropertyOp13
 70
     1
102
RTVSPropertyOp14
 70
     1
102
RTVSPropertyOp15
 70
     1
102
RTVSPropertyOp16
 70
     1
102
RTVSPropertyOp17
 70
     1
102
RTVSPropertyOp18
 70
     1
102
RTVSPropertyOp19
 70
     1
102
RTVSPropertyOp20
 70
     1
102
RTVSPropertyOp21
 70
     1
102
RTVSPropertyOp22
 70
     1
102
RTVSPropertyOp23
 70
     1
102
RTVSPropertyOp24
 70
     1
102
RTVSPropertyOp25
 70
     1
102
RTVSPropertyOp26
 70
     1
102
RTVSPropertyOp27
 70
     1
102
RTVSPropertyOp28
 70
     1
102
RTVSPropertyOp29
 70
     1
102
RTVSPropertyOp30
 70
     1
102
RTVSPropertyOp31
 70
     1
102
RTVSPropertyOp32
 70
     1
102
RTVSPropertyOp33
 70
     1
102
RTVSPropertyOp34
 70
     1
102
RTVSPropertyOp35
 70
     1
102
RTVSPropertyOp36
 70
     1
102
RTVSPropertyOp37
 70
     1
102
RTVSPropertyOp38
 70
     1
102
RTVSPropertyOp39
 70
     1
102
RTVSPropertyOp40
 70
     1
102
RTVSPropertyOp41
 70
     1
102
RTVSPropertyOp42
 70
     1
102
RTVSPropertyOp43
 70
     1
102
RTVSPropertyOp44
 70
     1
102
RTVSPropertyOp45
 70
     1
102
RTVSPropertyOp46
 70
     1
102
RTVSPropertyOp47
 70
     1
102
RTVSPropertyOp48
 70
     1
102
RTVSPropertyOp49
 70
     1
102
RTVSPropertyOp50
 70
     1
102
RTVSPropertyOp51
 70
     0
102
RTVSPropertyOp52
 70
     0
102
RTVSPropertyOp53
 70
     1
102
RTVSPropertyOp54
 70
     1
102
RTVSPropertyOp55
 70
     1
102
RTVSPropertyOp56
 70
     1
102
RTVSPropertyOp57
 70
     1
102
RTVSPost2010Prop28
280
     0
102
RTVSPost2010PropOp28
 70
     1
102
RTVSPost2010Prop29
280
     1
102
RTVSPost2010PropOp29
 70
     1
102
RTVSPost2010Prop30
280
     1
102
RTVSPost2010PropOp30
 70
     1
102
RTVSPost2010Prop31
280
     0
102
RTVSPost2010PropOp31
 70
     1
102
RTVSPost2010Prop32
280
     0
102
RTVSPost2010PropOp32
 70
     1
102
RTVSPost2010Prop33
280
     0
102
RTVSPost2010PropOp33
 70
     1
102
RTVSPost2010Prop34
280
     0
102
RTVSPost2010PropOp34
 70
     1
102
RTVSPost2010Prop35
280
     0
102
RTVSPost2010PropOp35
 70
     1
102
RTVSPost2010Prop36
280
     0
102
RTVSPost2010PropOp36
 70
     1
102
RTVSPost2010Prop37
 90
       50
102
RTVSPost2010PropOp37
 70
     1
102
RTVSPost2010Prop38
140
0.0
102
RTVSPost2010PropOp38
 70
     1
102
RTVSPost2010Prop39
140
1.0
102
RTVSPost2010PropOp39
 70
     1
102
RTVSPost2010Prop40
 90
        0
102
RTVSPost2010PropOp40
 70
     1
102
RTVSPost2010Prop41ColorIndex
 90
       18
102
RTVSPost2010Prop41ColorRGB
 90
        0
102
RTVSPost2010PropOp41
 70
     1
102
RTVSPost2010Prop42
 90
       50
102
RTVSPost2010PropOp42
 70
     1
102
RTVSPost2010Prop43
 90
        3
102
RTVSPost2010PropOp43
 70
     1
102
RTVSPost2010Prop44ColorIndex
 90
        5
102
RTVSPost2010Prop44ColorRGB
 90
      255
102
RTVSPost2010PropOp44
 70
     1
102
RTVSPost2010Prop45
280
     0
102
RTVSPost2010PropOp45
 70
     1
102
RTVSPost2010Prop46
 90
       50
102
RTVSPost2010PropOp46
 70
     1
102
RTVSPost2010Prop47
 90
       50
102
RTVSPost2010PropOp47
 70
     1
102
RTVSPost2010Prop48
 90
       50
102
RTVSPost2010PropOp48
 70
     1
102
RTVSPost2010Prop49
280
     0
102
RTVSPost2010PropOp49
 70
     1
102
RTVSPost2010Prop50
 90
       50
102
RTVSPost2010PropOp50
 70
     1
102
RTVSPost2010Prop51ColorIndex
 90
      256
102
RTVSPost2010Prop51ColorRGB
 90
-16777216
102
RTVSPost2010PropOp51
 70
     0
102
RTVSPost2010Prop52
140
1.0
102
RTVSPost2010PropOp52
 70
     0
102
RTVSPost2010Prop53
 90
        2
102
RTVSPost2010PropOp53
 70
     1
102
RTVSPost2010Prop54
  1
strokes_ogs.tif
102
RTVSPost2010PropOp54
 70
     1
102
RTVSPost2010Prop55
280
     0
102
RTVSPost2010PropOp55
 70
     1
102
RTVSPost2010Prop56
140
1.0
102
RTVSPost2010PropOp56
 70
     1
102
RTVSPost2010Prop57
140
1.0
102
RTVSPost2010PropOp57
 70
     1
  0
XRECORD
  5
C3
102
{ACAD_REACTORS
330
C2
102
}
330
C2
100
AcDbXrecord
280
     1
102
RTVSPropertyOp0
 70
     1
102
RTVSPropertyOp1
 70
     1
102
RTVSPropertyOp2
 70
     1
102
RTVSPropertyOp3
 70
     1
102
RTVSPropertyOp4
 70
     1
102
RTVSPropertyOp5
 70
     1
102
RTVSPropertyOp6
 70
     1
102
RTVSPropertyOp7
 70
     1
102
RTVSPropertyOp8
 70
     1
102
RTVSPropertyOp9
 70
     1
102
RTVSPropertyOp10
 70
     1
102
RTVSPropertyOp11
 70
     1
102
RTVSPropertyOp12
 70
     1
102
RTVSPropertyOp13
 70
     1
102
RTVSPropertyOp14
 70
     1
102
RTVSPropertyOp15
 70
     1
102
RTVSPropertyOp16
 70
     1
102
RTVSPropertyOp17
 70
     1
102
RTVSPropertyOp18
 70
     1
102
RTVSPropertyOp19
 70
     1
102
RTVSPropertyOp20
 70
     1
102
RTVSPropertyOp21
 70
     1
102
RTVSPropertyOp22
 70
     1
102
RTVSPropertyOp23
 70
     1
102
RTVSPropertyOp24
 70
     1
102
RTVSPropertyOp25
 70
     1
102
RTVSPropertyOp26
 70
     1
102
RTVSPropertyOp27
 70
     1
102
RTVSPropertyOp28
 70
     1
102
RTVSPropertyOp29
 70
     1
102
RTVSPropertyOp30
 70
     1
102
RTVSPropertyOp31
 70
     1
102
RTVSPropertyOp32
 70
     1
102
RTVSPropertyOp33
 70
     1
102
RTVSPropertyOp34
 70
     1
102
RTVSPropertyOp35
 70
     1
102
RTVSPropertyOp36
 70
     1
102
RTVSPropertyOp37
 70
     1
102
RTVSPropertyOp38
 70
     1
102
RTVSPropertyOp39
 70
     1
102
RTVSPropertyOp40
 70
     1
102
RTVSPropertyOp41
 70
     1
102
RTVSPropertyOp42
 70
     1
102
RTVSPropertyOp43
 70
     1
102
RTVSPropertyOp44
 70
     1
102
RTVSPropertyOp45
 70
     1
102
RTVSPropertyOp46
 70
     1
102
RTVSPropertyOp47
 70
     1
102
RTVSPropertyOp48
 70
     1
102
RTVSPropertyOp49
 70
     1
102
RTVSPropertyOp50
 70
     1
102
RTVSPropertyOp51
 70
     0
102
RTVSPropertyOp52
 70
     0
102
RTVSPropertyOp53
 70
     1
102
RTVSPropertyOp54
 70
     1
102
RTVSPropertyOp55
 70
     1
102
RTVSPropertyOp56
 70
     1
102
RTVSPropertyOp57
 70
     1
102
RTVSPost2010Prop28
280
     0
102
RTVSPost2010PropOp28
 70
     1
102
RTVSPost2010Prop29
280
     1
102
RTVSPost2010PropOp29
 70
     1
102
RTVSPost2010Prop30
280
     1
102
RTVSPost2010PropOp30
 70
     1
102
RTVSPost2010Prop31
280
     0
102
RTVSPost2010PropOp31
 70
     1
102
RTVSPost2010Prop32
280
     0
102
RTVSPost2010PropOp32
 70
     1
102
RTVSPost2010Prop33
280
     0
102
RTVSPost2010PropOp33
 70
     1
102
RTVSPost2010Prop34
280
     0
102
RTVSPost2010PropOp34
 70
     1
102
RTVSPost2010Prop35
280
     0
102
RTVSPost2010PropOp35
 70
     1
102
RTVSPost2010Prop36
280
     0
102
RTVSPost2010PropOp36
 70
     1
102
RTVSPost2010Prop37
 90
       50
102
RTVSPost2010PropOp37
 70
     1
102
RTVSPost2010Prop38
140
0.0
102
RTVSPost2010PropOp38
 70
     1
102
RTVSPost2010Prop39
140
1.0
102
RTVSPost2010PropOp39
 70
     1
102
RTVSPost2010Prop40
 90
        0
102
RTVSPost2010PropOp40
 70
     1
102
RTVSPost2010Prop41ColorIndex
 90
       18
102
RTVSPost2010Prop41ColorRGB
 90
        0
102
RTVSPost2010PropOp41
 70
     1
102
RTVSPost2010Prop42
 90
       50
102
RTVSPost2010PropOp42
 70
     1
102
RTVSPost2010Prop43
 90
        3
102
RTVSPost2010PropOp43
 70
     1
102
RTVSPost2010Prop44ColorIndex
 90
        5
102
RTVSPost2010Prop44ColorRGB
 90
      255
102
RTVSPost2010PropOp44
 70
     1
102
RTVSPost2010Prop45
280
     0
102
RTVSPost2010PropOp45
 70
     1
102
RTVSPost2010Prop46
 90
       50
102
RTVSPost2010PropOp46
 70
     1
102
RTVSPost2010Prop47
 90
       50
102
RTVSPost2010PropOp47
 70
     1
102
RTVSPost2010Prop48
 90
       50
102
RTVSPost2010PropOp48
 70
     1
102
RTVSPost2010Prop49
280
     0
102
RTVSPost2010PropOp49
 70
     1
102
RTVSPost2010Prop50
 90
       50
102
RTVSPost2010PropOp50
 70
     1
102
RTVSPost2010Prop51ColorIndex
 90
      256
102
RTVSPost2010Prop51ColorRGB
 90
-16777216
102
RTVSPost2010PropOp51
 70
     0
102
RTVSPost2010Prop52
140
1.0
102
RTVSPost2010PropOp52
 70
     0
102
RTVSPost2010Prop53
 90
        2
102
RTVSPost2010PropOp53
 70
     1
102
RTVSPost2010Prop54
  1
strokes_ogs.tif
102
RTVSPost2010PropOp54
 70
     1
102
RTVSPost2010Prop55
280
     0
102
RTVSPost2010PropOp55
 70
     1
102
RTVSPost2010Prop56
140
1.0
102
RTVSPost2010PropOp56
 70
     1
102
RTVSPost2010Prop57
140
1.0
102
RTVSPost2010PropOp57
 70
     1
  0
XRECORD
  5
E3
102
{ACAD_REACTORS
330
E2
102
}
330
E2
100
AcDbXrecord
280
     1
102
RTVSPropertyOp0
 70
     1
102
RTVSPropertyOp1
 70
     1
102
RTVSPropertyOp2
 70
     1
102
RTVSPropertyOp3
 70
     1
102
RTVSPropertyOp4
 70
     1
102
RTVSPropertyOp5
 70
     1
102
RTVSPropertyOp6
 70
     1
102
RTVSPropertyOp7
 70
     1
102
RTVSPropertyOp8
 70
     1
102
RTVSPropertyOp9
 70
     1
102
RTVSPropertyOp10
 70
     1
102
RTVSPropertyOp11
 70
     1
102
RTVSPropertyOp12
 70
     1
102
RTVSPropertyOp13
 70
     1
102
RTVSPropertyOp14
 70
     1
102
RTVSPropertyOp15
 70
     1
102
RTVSPropertyOp16
 70
     1
102
RTVSPropertyOp17
 70
     1
102
RTVSPropertyOp18
 70
     1
102
RTVSPropertyOp19
 70
     1
102
RTVSPropertyOp20
 70
     1
102
RTVSPropertyOp21
 70
     1
102
RTVSPropertyOp22
 70
     1
102
RTVSPropertyOp23
 70
     1
102
RTVSPropertyOp24
 70
     1
102
RTVSPropertyOp25
 70
     1
102
RTVSPropertyOp26
 70
     1
102
RTVSPropertyOp27
 70
     1
102
RTVSPropertyOp28
 70
     1
102
RTVSPropertyOp29
 70
     1
102
RTVSPropertyOp30
 70
     1
102
RTVSPropertyOp31
 70
     1
102
RTVSPropertyOp32
 70
     1
102
RTVSPropertyOp33
 70
     1
102
RTVSPropertyOp34
 70
     1
102
RTVSPropertyOp35
 70
     1
102
RTVSPropertyOp36
 70
     1
102
RTVSPropertyOp37
 70
     1
102
RTVSPropertyOp38
 70
     1
102
RTVSPropertyOp39
 70
     1
102
RTVSPropertyOp40
 70
     1
102
RTVSPropertyOp41
 70
     1
102
RTVSPropertyOp42
 70
     1
102
RTVSPropertyOp43
 70
     1
102
RTVSPropertyOp44
 70
     1
102
RTVSPropertyOp45
 70
     1
102
RTVSPropertyOp46
 70
     1
102
RTVSPropertyOp47
 70
     1
102
RTVSPropertyOp48
 70
     1
102
RTVSPropertyOp49
 70
     1
102
RTVSPropertyOp50
 70
     1
102
RTVSPropertyOp51
 70
     0
102
RTVSPropertyOp52
 70
     0
102
RTVSPropertyOp53
 70
     1
102
RTVSPropertyOp54
 70
     1
102
RTVSPropertyOp55
 70
     1
102
RTVSPropertyOp56
 70
     1
102
RTVSPropertyOp57
 70
     1
102
RTVSPost2010Prop28
280
     0
102
RTVSPost2010PropOp28
 70
     1
102
RTVSPost2010Prop29
280
     1
102
RTVSPost2010PropOp29
 70
     1
102
RTVSPost2010Prop30
280
     1
102
RTVSPost2010PropOp30
 70
     1
102
RTVSPost2010Prop31
280
     0
102
RTVSPost2010PropOp31
 70
     1
102
RTVSPost2010Prop32
280
     0
102
RTVSPost2010PropOp32
 70
     1
102
RTVSPost2010Prop33
280
     0
102
RTVSPost2010PropOp33
 70
     1
102
RTVSPost2010Prop34
280
     0
102
RTVSPost2010PropOp34
 70
     1
102
RTVSPost2010Prop35
280
     0
102
RTVSPost2010PropOp35
 70
     1
102
RTVSPost2010Prop36
280
     0
102
RTVSPost2010PropOp36
 70
     1
102
RTVSPost2010Prop37
 90
       50
102
RTVSPost2010PropOp37
 70
     1
102
RTVSPost2010Prop38
140
0.0
102
RTVSPost2010PropOp38
 70
     1
102
RTVSPost2010Prop39
140
1.0
102
RTVSPost2010PropOp39
 70
     1
102
RTVSPost2010Prop40
 90
        0
102
RTVSPost2010PropOp40
 70
     1
102
RTVSPost2010Prop41ColorIndex
 90
       18
102
RTVSPost2010Prop41ColorRGB
 90
        0
102
RTVSPost2010PropOp41
 70
     1
102
RTVSPost2010Prop42
 90
       50
102
RTVSPost2010PropOp42
 70
     1
102
RTVSPost2010Prop43
 90
        3
102
RTVSPost2010PropOp43
 70
     1
102
RTVSPost2010Prop44ColorIndex
 90
        5
102
RTVSPost2010Prop44ColorRGB
 90
      255
102
RTVSPost2010PropOp44
 70
     1
102
RTVSPost2010Prop45
280
     0
102
RTVSPost2010PropOp45
 70
     1
102
RTVSPost2010Prop46
 90
       50
102
RTVSPost2010PropOp46
 70
     1
102
RTVSPost2010Prop47
 90
       50
102
RTVSPost2010PropOp47
 70
     1
102
RTVSPost2010Prop48
 90
       50
102
RTVSPost2010PropOp48
 70
     1
102
RTVSPost2010Prop49
280
     0
102
RTVSPost2010PropOp49
 70
     1
102
RTVSPost2010Prop50
 90
       50
102
RTVSPost2010PropOp50
 70
     1
102
RTVSPost2010Prop51ColorIndex
 90
      256
102
RTVSPost2010Prop51ColorRGB
 90
-16777216
102
RTVSPost2010PropOp51
 70
     0
102
RTVSPost2010Prop52
140
1.0
102
RTVSPost2010PropOp52
 70
     0
102
RTVSPost2010Prop53
 90
        2
102
RTVSPost2010PropOp53
 70
     1
102
RTVSPost2010Prop54
  1
strokes_ogs.tif
102
RTVSPost2010PropOp54
 70
     1
102
RTVSPost2010Prop55
280
     0
102
RTVSPost2010PropOp55
 70
     1
102
RTVSPost2010Prop56
140
1.0
102
RTVSPost2010PropOp56
 70
     1
102
RTVSPost2010Prop57
140
1.0
102
RTVSPost2010PropOp57
 70
     1
  0
ENDSEC
  0
EOF
