  0
SECTION
  2
HEADER
  9
$ACADVER
  1
AC1021
  9
$ACADMAINTVER
 70
    25
  9
$DWGCODEPAGE
  3
ANSI_1251
  9
$INSBASE
 10
0.0
 20
0.0
 30
0.0
  9
$EXTMIN
 10
-454.3021
 20
280.6584
 30
0.0
  9
$EXTMAX
 10
990.3893
 20
1604.5206
 30
0.0
  9
$LIMMIN
 10
0.0
 20
0.0
  9
$LIMMAX
 10
12.0
 20
9.0
  9
$ORTHOMODE
 70
     0
  9
$REGENMODE
 70
     1
  9
$FILLMODE
 70
     1
  9
$QTEXTMODE
 70
     0
  9
$MIRRTEXT
 70
     1
  9
$LTSCALE
 40
1.0
  9
$ATTMODE
 70
     1
  9
$TEXTSIZE
 40
0.2
  9
$TRACEWID
 40
0.05
  9
$TEXTSTYLE
  7
Standard
  9
$CLAYER
  8
0
  9
$CELTYPE
  6
ByLayer
  9
$CECOLOR
 62
   256
  9
$CELTSCALE
 40
1.0
  9
$DISPSILH
 70
     0
  9
$DIMSCALE
 40
1.0
  9
$DIMASZ
 40
0.18
  9
$DIMEXO
 40
0.0625
  9
$DIMDLI
 40
0.38
  9
$DIMRND
 40
0.0
  9
$DIMDLE
 40
0.0
  9
$DIMEXE
 40
0.18
  9
$DIMTP
 40
0.0
  9
$DIMTM
 40
0.0
  9
$DIMTXT
 40
0.18
  9
$DIMCEN
 40
0.09
  9
$DIMTSZ
 40
0.0
  9
$DIMTOL
 70
     0
  9
$DIMLIM
 70
     0
  9
$DIMTIH
 70
     1
  9
$DIMTOH
 70
     1
  9
$DIMSE1
 70
     0
  9
$DIMSE2
 70
     0
  9
$DIMTAD
 70
     0
  9
$DIMZIN
 70
     0
  9
$DIMBLK
  1

  9
$DIMASO
 70
     1
  9
$DIMSHO
 70
     1
  9
$DIMPOST
  1

  9
$DIMAPOST
  1

  9
$DIMALT
 70
     0
  9
$DIMALTD
 70
     2
  9
$DIMALTF
 40
25.4
  9
$DIMLFAC
 40
1.0
  9
$DIMTOFL
 70
     0
  9
$DIMTVP
 40
0.0
  9
$DIMTIX
 70
     0
  9
$DIMSOXD
 70
     0
  9
$DIMSAH
 70
     0
  9
$DIMBLK1
  1

  9
$DIMBLK2
  1

  9
$DIMSTYLE
  2
Standard
  9
$DIMCLRD
 70
     0
  9
$DIMCLRE
 70
     0
  9
$DIMCLRT
 70
     0
  9
$DIMTFAC
 40
1.0
  9
$DIMGAP
 40
0.09
  9
$DIMJUST
 70
     0
  9
$DIMSD1
 70
     0
  9
$DIMSD2
 70
     0
  9
$DIMTOLJ
 70
     1
  9
$DIMTZIN
 70
     0
  9
$DIMALTZ
 70
     0
  9
$DIMALTTZ
 70
     0
  9
$DIMUPT
 70
     0
  9
$DIMDEC
 70
     4
  9
$DIMTDEC
 70
     4
  9
$DIMALTU
 70
     2
  9
$DIMALTTD
 70
     2
  9
$DIMTXSTY
  7
Standard
  9
$DIMAUNIT
 70
     0
  9
$DIMADEC
 70
     0
  9
$DIMALTRND
 40
0.0
  9
$DIMAZIN
 70
     0
  9
$DIMDSEP
 70
    46
  9
$DIMATFIT
 70
     3
  9
$DIMFRAC
 70
     0
  9
$DIMLDRBLK
  1

  9
$DIMLUNIT
 70
     2
  9
$DIMLWD
 70
    -2
  9
$DIMLWE
 70
    -2
  9
$DIMTMOVE
 70
     0
  9
$DIMFXL
 40
1.0
  9
$DIMFXLON
 70
     0
  9
$DIMJOGANG
 40
0.7853981633974483
  9
$DIMTFILL
 70
     0
  9
$DIMTFILLCLR
 70
     0
  9
$DIMARCSYM
 70
     0
  9
$DIMLTYPE
  6

  9
$DIMLTEX1
  6

  9
$DIMLTEX2
  6

  9
$LUNITS
 70
     2
  9
$LUPREC
 70
     4
  9
$SKETCHINC
 40
0.1
  9
$FILLETRAD
 40
0.5
  9
$AUNITS
 70
     0
  9
$AUPREC
 70
     0
  9
$MENU
  1
.
  9
$ELEVATION
 40
0.0
  9
$PELEVATION
 40
0.0
  9
$THICKNESS
 40
0.0
  9
$LIMCHECK
 70
     0
  9
$CHAMFERA
 40
0.0
  9
$CHAMFERB
 40
0.0
  9
$CHAMFERC
 40
0.0
  9
$CHAMFERD
 40
0.0
  9
$SKPOLY
 70
     0
  9
$TDCREATE
 40
2458295.004922419
  9
$TDUCREATE
 40
2458294.879922419
  9
$TDUPDATE
 40
2458295.004922523
  9
$TDUUPDATE
 40
2458294.879922523
  9
$TDINDWG
 40
0.0000000116
  9
$TDUSRTIMER
 40
0.0000000116
  9
$USRTIMER
 70
     1
  9
$ANGBASE
 50
0.0
  9
$ANGDIR
 70
     0
  9
$PDMODE
 70
     0
  9
$PDSIZE
 40
0.0
  9
$PLINEWID
 40
0.0
  9
$SPLFRAME
 70
     0
  9
$SPLINETYPE
 70
     6
  9
$SPLINESEGS
 70
     8
  9
$HANDSEED
  5
C8
  9
$SURFTAB1
 70
     6
  9
$SURFTAB2
 70
     6
  9
$SURFTYPE
 70
     6
  9
$SURFU
 70
     6
  9
$SURFV
 70
     6
  9
$UCSBASE
  2

  9
$UCSNAME
  2

  9
$UCSORG
 10
0.0
 20
0.0
 30
0.0
  9
$UCSXDIR
 10
1.0
 20
0.0
 30
0.0
  9
$UCSYDIR
 10
0.0
 20
1.0
 30
0.0
  9
$UCSORTHOREF
  2

  9
$UCSORTHOVIEW
 70
     0
  9
$UCSORGTOP
 10
0.0
 20
0.0
 30
0.0
  9
$UCSORGBOTTOM
 10
0.0
 20
0.0
 30
0.0
  9
$UCSORGLEFT
 10
0.0
 20
0.0
 30
0.0
  9
$UCSORGRIGHT
 10
0.0
 20
0.0
 30
0.0
  9
$UCSORGFRONT
 10
0.0
 20
0.0
 30
0.0
  9
$UCSORGBACK
 10
0.0
 20
0.0
 30
0.0
  9
$PUCSBASE
  2

  9
$PUCSNAME
  2

  9
$PUCSORG
 10
0.0
 20
0.0
 30
0.0
  9
$PUCSXDIR
 10
1.0
 20
0.0
 30
0.0
  9
$PUCSYDIR
 10
0.0
 20
1.0
 30
0.0
  9
$PUCSORTHOREF
  2

  9
$PUCSORTHOVIEW
 70
     0
  9
$PUCSORGTOP
 10
0.0
 20
0.0
 30
0.0
  9
$PUCSORGBOTTOM
 10
0.0
 20
0.0
 30
0.0
  9
$PUCSORGLEFT
 10
0.0
 20
0.0
 30
0.0
  9
$PUCSORGRIGHT
 10
0.0
 20
0.0
 30
0.0
  9
$PUCSORGFRONT
 10
0.0
 20
0.0
 30
0.0
  9
$PUCSORGBACK
 10
0.0
 20
0.0
 30
0.0
  9
$USERI1
 70
     0
  9
$USERI2
 70
     0
  9
$USERI3
 70
     0
  9
$USERI4
 70
     0
  9
$USERI5
 70
     0
  9
$USERR1
 40
0.0
  9
$USERR2
 40
0.0
  9
$USERR3
 40
0.0
  9
$USERR4
 40
0.0
  9
$USERR5
 40
0.0
  9
$WORLDVIEW
 70
     1
  9
$SHADEDGE
 70
     3
  9
$SHADEDIF
 70
    70
  9
$TILEMODE
 70
     1
  9
$MAXACTVP
 70
    64
  9
$PINSBASE
 10
0.0
 20
0.0
 30
0.0
  9
$PLIMCHECK
 70
     0
  9
$PEXTMIN
 10
1.000000000000000E+20
 20
1.000000000000000E+20
 30
1.000000000000000E+20
  9
$PEXTMAX
 10
-1.000000000000000E+20
 20
-1.000000000000000E+20
 30
-1.000000000000000E+20
  9
$PLIMMIN
 10
0.0
 20
0.0
  9
$PLIMMAX
 10
12.0
 20
9.0
  9
$UNITMODE
 70
     0
  9
$VISRETAIN
 70
     1
  9
$PLINEGEN
 70
     0
  9
$PSLTSCALE
 70
     1
  9
$TREEDEPTH
 70
  3020
  9
$CMLSTYLE
  2
Standard
  9
$CMLJUST
 70
     0
  9
$CMLSCALE
 40
1.0
  9
$PROXYGRAPHICS
 70
     1
  9
$MEASUREMENT
 70
     0
  9
$CELWEIGHT
370
    -1
  9
$ENDCAPS
280
     0
  9
$JOINSTYLE
280
     0
  9
$LWDISPLAY
290
     0
  9
$INSUNITS
 70
     4
  9
$HYPERLINKBASE
  1

  9
$STYLESHEET
  1

  9
$XEDIT
290
     1
  9
$CEPSNTYPE
380
     0
  9
$PSTYLEMODE
290
     1
  9
$FINGERPRINTGUID
  2
{ABE156AF-1C64-478B-8988-9FDBA1203B53}
  9
$VERSIONGUID
  2
{FAEB1C32-E019-11D5-929B-00C0DF256EC4}
  9
$EXTNAMES
290
     1
  9
$PSVPSCALE
 40
0.0
  9
$OLESTARTUP
290
     0
  9
$SORTENTS
280
   127
  9
$INDEXCTL
280
     0
  9
$HIDETEXT
280
     1
  9
$XCLIPFRAME
290
     0
  9
$HALOGAP
280
     0
  9
$OBSCOLOR
 70
   257
  9
$OBSLTYPE
280
     0
  9
$INTERSECTIONDISPLAY
280
     0
  9
$INTERSECTIONCOLOR
 70
   257
  9
$DIMASSOC
280
     2
  9
$PROJECTNAME
  1

  9
$CAMERADISPLAY
290
     0
  9
$LENSLENGTH
 40
50.0
  9
$CAMERAHEIGHT
 40
0.0
  9
$STEPSPERSEC
 40
2.0
  9
$STEPSIZE
 40
6.0
  9
$3DDWFPREC
 40
2.0
  9
$PSOLWIDTH
 40
0.25
  9
$PSOLHEIGHT
 40
4.0
  9
$LOFTANG1
 40
1.570796326794897
  9
$LOFTANG2
 40
1.570796326794897
  9
$LOFTMAG1
 40
0.0
  9
$LOFTMAG2
 40
0.0
  9
$LOFTPARAM
 70
     7
  9
$LOFTNORMALS
280
     1
  9
$LATITUDE
 40
37.795
  9
$LONGITUDE
 40
-122.394
  9
$NORTHDIRECTION
 40
0.0
  9
$TIMEZONE
 70
 -8000
  9
$LIGHTGLYPHDISPLAY
280
     1
  9
$TILEMODELIGHTSYNCH
280
     1
  9
$CMATERIAL
347
44
  9
$SOLIDHIST
280
     0
  9
$SHOWHIST
280
     1
  9
$DWFFRAME
280
     2
  9
$DGNFRAME
280
     2
  9
$REALWORLDSCALE
290
     1
  9
$INTERFERECOLOR
 62
   256
  9
$CSHADOW
280
     0
  9
$SHADOWPLANELOCATION
 40
0.0
  0
ENDSEC
  0
SECTION
  2
CLASSES
  0
CLASS
  1
ACDBDICTIONARYWDFLT
  2
AcDbDictionaryWithDefault
  3
ObjectDBX Classes
 90
        0
 91
        4
280
     0
281
     0
  0
CLASS
  1
VISUALSTYLE
  2
AcDbVisualStyle
  3
ObjectDBX Classes
 90
     4095
 91
        4
280
     0
281
     0
  0
CLASS
  1
MATERIAL
  2
AcDbMaterial
  3
ObjectDBX Classes
 90
     1153
 91
        4
280
     0
281
     0
  0
CLASS
  1
SCALE
  2
AcDbScale
  3
ObjectDBX Classes
 90
     1153
 91
        4
280
     0
281
     0
  0
CLASS
  1
TABLESTYLE
  2
AcDbTableStyle
  3
ObjectDBX Classes
 90
     4095
 91
        4
280
     0
281
     0
  0
CLASS
  1
MLEADERSTYLE
  2
AcDbMLeaderStyle
  3
ACDB_MLEADERSTYLE_CLASS
 90
     4095
 91
        4
280
     0
281
     0
  0
CLASS
  1
SUN
  2
AcDbSun
  3
SCENEOE
 90
     1153
 91
        4
280
     0
281
     0
  0
CLASS
  1
DICTIONARYVAR
  2
AcDbDictionaryVar
  3
ObjectDBX Classes
 90
        0
 91
        4
280
     0
281
     0
  0
CLASS
  1
CELLSTYLEMAP
  2
AcDbCellStyleMap
  3
ObjectDBX Classes
 90
     1152
 91
        4
280
     0
281
     0
  0
ENDSEC
  0
SECTION
  2
TABLES
  0
TABLE
  2
VPORT
  5
8
330
0
100
AcDbSymbolTable
 70
     1
  0
VPORT
  5
29
330
8
100
AcDbSymbolTableRecord
100
AcDbViewportTableRecord
  2
*Active
 70
     0
 10
0.0
 20
0.0
 11
1.0
 21
1.0
 12
10.42990654205607
 22
4.5
 13
0.0
 23
0.0
 14
0.5
 24
0.5
 15
0.5
 25
0.5
 16
0.0
 26
0.0
 36
1.0
 17
0.0
 27
0.0
 37
0.0
 40
9.0
 41
1.972972972850329
 42
50.0
 43
0.0
 44
0.0
 50
0.0
 51
0.0
 71
     0
 72
   100
 73
     1
 74
     3
 75
     0
 76
     0
 77
     0
 78
     0
281
     0
 65
     1
110
0.0
120
0.0
130
0.0
111
1.0
121
0.0
131
0.0
112
0.0
122
1.0
132
0.0
 79
     0
146
0.0
348
2F
 60
     3
 61
     5
292
     1
282
     1
141
0.0
142
0.0
 63
   250
361
6D
  0
ENDTAB
  0
TABLE
  2
LTYPE
  5
5
330
0
100
AcDbSymbolTable
 70
     1
  0
LTYPE
  5
14
330
5
100
AcDbSymbolTableRecord
100
AcDbLinetypeTableRecord
  2
ByBlock
 70
     0
  3

 72
    65
 73
     0
 40
0.0
  0
LTYPE
  5
15
330
5
100
AcDbSymbolTableRecord
100
AcDbLinetypeTableRecord
  2
ByLayer
 70
     0
  3

 72
    65
 73
     0
 40
0.0
  0
LTYPE
  5
16
330
5
100
AcDbSymbolTableRecord
100
AcDbLinetypeTableRecord
  2
Continuous
 70
     0
  3
Solid line
 72
    65
 73
     0
 40
0.0
  0
ENDTAB
  0
TABLE
  2
LAYER
  5
2
330
0
100
AcDbSymbolTable
 70
     2
  0
LAYER
  5
10
330
2
100
AcDbSymbolTableRecord
100
AcDbLayerTableRecord
  2
0
 70
     0
 62
     7
  6
Continuous
370
    -3
390
F
347
46
  0
LAYER
  5
6F
330
2
100
AcDbSymbolTableRecord
100
AcDbLayerTableRecord
  2
layer 1
 70
     0
 62
     7
  6
Continuous
370
    -3
390
F
347
46
  0
ENDTAB
  0
TABLE
  2
STYLE
  5
3
330
0
100
AcDbSymbolTable
 70
     1
  0
STYLE
  5
11
330
3
100
AcDbSymbolTableRecord
100
AcDbTextStyleTableRecord
  2
Standard
 70
     0
 40
0.0
 41
1.0
 50
0.0
 71
     0
 42
0.2
  3
txt
  4

  0
ENDTAB
  0
TABLE
  2
VIEW
  5
6
330
0
100
AcDbSymbolTable
 70
     0
  0
ENDTAB
  0
TABLE
  2
UCS
  5
7
330
0
100
AcDbSymbolTable
 70
     0
  0
ENDTAB
  0
TABLE
  2
APPID
  5
9
330
0
100
AcDbSymbolTable
 70
     3
  0
APPID
  5
12
330
9
100
AcDbSymbolTableRecord
100
AcDbRegAppTableRecord
  2
ACAD
 70
     0
  0
APPID
  5
6E
330
9
100
AcDbSymbolTableRecord
100
AcDbRegAppTableRecord
  2
ODA
 70
     0
  0
APPID
  5
C0
330
9
100
AcDbSymbolTableRecord
100
AcDbRegAppTableRecord
  2
ACAD_MLEADERVER
 70
     0
  0
ENDTAB
  0
TABLE
  2
DIMSTYLE
  5
A
330
0
100
AcDbSymbolTable
 70
     1
100
AcDbDimStyleTable
  0
DIMSTYLE
105
27
330
A
100
AcDbSymbolTableRecord
100
AcDbDimStyleTableRecord
  2
Standard
 70
     0
178
     0
340
11
  0
ENDTAB
  0
TABLE
  2
BLOCK_RECORD
  5
1
330
0
100
AcDbSymbolTable
 70
     1
  0
BLOCK_RECORD
  5
1F
330
1
100
AcDbSymbolTableRecord
100
AcDbBlockTableRecord
  2
*Model_Space
340
22
 70
     0
280
     1
281
     0
  0
BLOCK_RECORD
  5
1B
330
1
100
AcDbSymbolTableRecord
100
AcDbBlockTableRecord
  2
*Paper_Space
340
1E
 70
     0
280
     1
281
     0
  0
BLOCK_RECORD
  5
23
330
1
100
AcDbSymbolTableRecord
100
AcDbBlockTableRecord
  2
*Paper_Space0
340
26
 70
     0
280
     1
281
     0
  0
ENDTAB
  0
ENDSEC
  0
SECTION
  2
BLOCKS
  0
BLOCK
  5
20
330
1F
100
AcDbEntity
  8
0
100
AcDbBlockBegin
  2
*Model_Space
 70
     0
 10
0.0
 20
0.0
 30
0.0
  3
*Model_Space
  1

  0
ENDBLK
  5
21
330
1F
100
AcDbEntity
  8
0
100
AcDbBlockEnd
  0
BLOCK
  5
1C
330
1B
100
AcDbEntity
 67
     1
  8
0
100
AcDbBlockBegin
  2
*Paper_Space
 70
     0
 10
0.0
 20
0.0
 30
0.0
  3
*Paper_Space
  1

  0
ENDBLK
  5
1D
330
1B
100
AcDbEntity
 67
     1
  8
0
100
AcDbBlockEnd
  0
BLOCK
  5
24
330
23
100
AcDbEntity
  8
0
100
AcDbBlockBegin
  2
*Paper_Space0
 70
     0
 10
0.0
 20
0.0
 30
0.0
  3
*Paper_Space0
  1

  0
ENDBLK
  5
25
330
23
100
AcDbEntity
  8
0
100
AcDbBlockEnd
  0
ENDSEC
  0
SECTION
  2
ENTITIES
  0
SPLINE
  5
70
330
1F
100
AcDbEntity
  8
layer 1
 62
   250
370
     9
100
AcDbSpline
210
0.0
220
0.0
230
1.0
 70
    11
 71
     3
 72
    76
 73
    72
 74
     0
 42
0.000000001
 43
0.0000000001
 40
0.0
 40
0.0
 40
0.0
 40
0.0
 40
0.0526315789473684
 40
0.0526315789473684
 40
0.0526315789473684
 40
0.0526315789473684
 40
0.1052631578947368
 40
0.1052631578947368
 40
0.1052631578947368
 40
0.1052631578947368
 40
0.1578947368421053
 40
0.1578947368421053
 40
0.1578947368421053
 40
0.1578947368421053
 40
0.2105263157894737
 40
0.2105263157894737
 40
0.2105263157894737
 40
0.2105263157894737
 40
0.2631578947368421
 40
0.2631578947368421
 40
0.2631578947368421
 40
0.2631578947368421
 40
0.3157894736842105
 40
0.3157894736842105
 40
0.3157894736842105
 40
0.3157894736842105
 40
0.3684210526315789
 40
0.3684210526315789
 40
0.3684210526315789
 40
0.3684210526315789
 40
0.4210526315789473
 40
0.4210526315789473
 40
0.4210526315789473
 40
0.4210526315789473
 40
0.4736842105263158
 40
0.4736842105263158
 40
0.4736842105263158
 40
0.4736842105263158
 40
0.5263157894736842
 40
0.5263157894736842
 40
0.5263157894736842
 40
0.5263157894736842
 40
0.5789473684210527
 40
0.5789473684210527
 40
0.5789473684210527
 40
0.5789473684210527
 40
0.631578947368421
 40
0.631578947368421
 40
0.631578947368421
 40
0.631578947368421
 40
0.6842105263157895
 40
0.6842105263157895
 40
0.6842105263157895
 40
0.6842105263157895
 40
0.7368421052631579
 40
0.7368421052631579
 40
0.7368421052631579
 40
0.7368421052631579
 40
0.7894736842105263
 40
0.7894736842105263
 40
0.7894736842105263
 40
0.7894736842105263
 40
0.8421052631578947
 40
0.8421052631578947
 40
0.8421052631578947
 40
0.8421052631578947
 40
0.8947368421052632
 40
0.8947368421052632
 40
0.8947368421052632
 40
0.8947368421052632
 40
1.0
 40
1.0
 40
1.0
 40
1.0
 10
217.6446
 20
1208.3431
 30
0.0
 10
217.6446
 20
1208.3431
 30
0.0
 10
-322.7554
 20
1208.3431
 30
0.0
 10
-322.7554
 20
1208.3431
 30
0.0
 10
-322.7554
 20
1208.3431
 30
0.0
 10
-322.7554
 20
1208.3431
 30
0.0
 10
-322.7554
 20
1233.3431
 30
0.0
 10
-322.7554
 20
1233.3431
 30
0.0
 10
-322.7554
 20
1233.3431
 30
0.0
 10
-322.7554
 20
1233.3431
 30
0.0
 10
-323.8633
 20
1233.3431
 30
0.0
 10
-323.8633
 20
1233.3431
 30
0.0
 10
-323.8633
 20
1233.3431
 30
0.0
 10
-323.8633
 20
1233.3431
 30
0.0
 10
-327.5633
 20
1233.3431
 30
0.0
 10
-327.5633
 20
1233.3431
 30
0.0
 10
-327.5633
 20
1233.3431
 30
0.0
 10
-327.5633
 20
1233.3431
 30
0.0
 10
-328.6554
 20
1233.3431
 30
0.0
 10
-328.6554
 20
1233.3431
 30
0.0
 10
-328.6554
 20
1233.3431
 30
0.0
 10
-328.6554
 20
1233.3431
 30
0.0
 10
-328.6554
 20
1208.3431
 30
0.0
 10
-328.6554
 20
1208.3431
 30
0.0
 10
-328.6554
 20
1208.3431
 30
0.0
 10
-328.6554
 20
1208.3431
 30
0.0
 10
-337.5633
 20
1208.3431
 30
0.0
 10
-337.5633
 20
1208.3431
 30
0.0
 10
-337.5633
 20
1208.3431
 30
0.0
 10
-337.5633
 20
1208.3431
 30
0.0
 10
-337.5633
 20
1564.4756
 30
0.0
 10
-337.5633
 20
1564.4756
 30
0.0
 10
-337.5633
 20
1564.4756
 30
0.0
 10
-337.5633
 20
1586.4756
 30
0.0
 10
-319.5633
 20
1604.4756
 30
0.0
 10
-297.5633
 20
1604.4756
 30
0.0
 10
-297.5633
 20
1604.4756
 30
0.0
 10
-297.5633
 20
1604.4756
 30
0.0
 10
192.4367
 20
1604.4756
 30
0.0
 10
192.4367
 20
1604.4756
 30
0.0
 10
192.4367
 20
1604.4756
 30
0.0
 10
214.4366
 20
1604.4756
 30
0.0
 10
232.4367
 20
1586.4755
 30
0.0
 10
232.4367
 20
1564.4756
 30
0.0
 10
232.4367
 20
1564.4756
 30
0.0
 10
232.4367
 20
1564.4756
 30
0.0
 10
232.4367
 20
1208.3431
 30
0.0
 10
232.4367
 20
1208.3431
 30
0.0
 10
232.4367
 20
1208.3431
 30
0.0
 10
232.4367
 20
1208.3431
 30
0.0
 10
223.5446
 20
1208.3431
 30
0.0
 10
223.5446
 20
1208.3431
 30
0.0
 10
223.5446
 20
1208.3431
 30
0.0
 10
223.5446
 20
1208.3431
 30
0.0
 10
223.5446
 20
1233.3431
 30
0.0
 10
223.5446
 20
1233.3431
 30
0.0
 10
223.5446
 20
1233.3431
 30
0.0
 10
223.5446
 20
1233.3431
 30
0.0
 10
222.4367
 20
1233.3431
 30
0.0
 10
222.4367
 20
1233.3431
 30
0.0
 10
222.4367
 20
1233.3431
 30
0.0
 10
222.4367
 20
1233.3431
 30
0.0
 10
218.7366
 20
1233.3431
 30
0.0
 10
218.7366
 20
1233.3431
 30
0.0
 10
218.7366
 20
1233.3431
 30
0.0
 10
218.7366
 20
1233.3431
 30
0.0
 10
217.6446
 20
1233.3431
 30
0.0
 10
217.6446
 20
1233.3431
 30
0.0
 10
217.6446
 20
1233.3431
 30
0.0
 10
217.6446
 20
1233.3431
 30
0.0
 10
217.6446
 20
1208.3431
 30
0.0
 10
217.6446
 20
1208.3431
 30
0.0
  0
SPLINE
  5
71
330
1F
100
AcDbEntity
  8
layer 1
 62
   250
100
AcDbSpline
210
0.0
220
0.0
230
1.0
 70
    11
 71
     3
 72
    60
 73
    56
 74
     0
 42
0.000000001
 43
0.0000000001
 40
0.0
 40
0.0
 40
0.0
 40
0.0
 40
0.0666666666666667
 40
0.0666666666666667
 40
0.0666666666666667
 40
0.0666666666666667
 40
0.1333333333333333
 40
0.1333333333333333
 40
0.1333333333333333
 40
0.1333333333333333
 40
0.2
 40
0.2
 40
0.2
 40
0.2
 40
0.2666666666666667
 40
0.2666666666666667
 40
0.2666666666666667
 40
0.2666666666666667
 40
0.3333333333333333
 40
0.3333333333333333
 40
0.3333333333333333
 40
0.3333333333333333
 40
0.4
 40
0.4
 40
0.4
 40
0.4
 40
0.4666666666666667
 40
0.4666666666666667
 40
0.4666666666666667
 40
0.4666666666666667
 40
0.5333333333333333
 40
0.5333333333333333
 40
0.5333333333333333
 40
0.5333333333333333
 40
0.6
 40
0.6
 40
0.6
 40
0.6
 40
0.6666666666666666
 40
0.6666666666666666
 40
0.6666666666666666
 40
0.6666666666666666
 40
0.7333333333333333
 40
0.7333333333333333
 40
0.7333333333333333
 40
0.7333333333333333
 40
0.8
 40
0.8
 40
0.8
 40
0.8
 40
0.8666666666666667
 40
0.8666666666666667
 40
0.8666666666666667
 40
0.8666666666666667
 40
1.0
 40
1.0
 40
1.0
 40
1.0
 10
605.4301
 20
1162.8854
 30
0.0
 10
605.4301
 20
1162.8854
 30
0.0
 10
605.4301
 20
1197.9985
 30
0.0
 10
605.4301
 20
1197.9985
 30
0.0
 10
605.4301
 20
1197.9985
 30
0.0
 10
605.4301
 20
1197.9985
 30
0.0
 10
618.6056
 20
1197.9985
 30
0.0
 10
618.6056
 20
1197.9985
 30
0.0
 10
618.6056
 20
1197.9985
 30
0.0
 10
621.2865
 20
1197.9985
 30
0.0
 10
623.4361
 20
1197.647
 30
0.0
 10
625.0627
 20
1196.9359
 30
0.0
 10
625.0627
 20
1196.9359
 30
0.0
 10
626.681
 20
1196.2248
 30
0.0
 10
627.9479
 20
1195.1296
 30
0.0
 10
628.8633
 20
1193.6502
 30
0.0
 10
628.8633
 20
1193.6502
 30
0.0
 10
629.7869
 20
1192.179
 30
0.0
 10
630.2446
 20
1190.6342
 30
0.0
 10
630.2446
 20
1189.0159
 30
0.0
 10
630.2446
 20
1189.0159
 30
0.0
 10
630.2446
 20
1187.5201
 30
0.0
 10
629.8359
 20
1186.1061
 30
0.0
 10
629.0268
 20
1184.782
 30
0.0
 10
629.0268
 20
1184.782
 30
0.0
 10
628.2176
 20
1183.4579
 30
0.0
 10
626.9916
 20
1182.3872
 30
0.0
 10
625.3487
 20
1181.5699
 30
0.0
 10
625.3487
 20
1181.5699
 30
0.0
 10
627.4738
 20
1180.9487
 30
0.0
 10
629.1085
 20
1179.8861
 30
0.0
 10
630.2446
 20
1178.3822
 30
0.0
 10
630.2446
 20
1178.3822
 30
0.0
 10
631.3889
 20
1176.8865
 30
0.0
 10
631.961
 20
1175.1129
 30
0.0
 10
631.961
 20
1173.0695
 30
0.0
 10
631.961
 20
1173.0695
 30
0.0
 10
631.961
 20
1171.4185
 30
0.0
 10
631.6096
 20
1169.89
 30
0.0
 10
630.9148
 20
1168.476
 30
0.0
 10
630.9148
 20
1168.476
 30
0.0
 10
630.2201
 20
1167.062
 30
0.0
 10
629.3619
 20
1165.975
 30
0.0
 10
628.3402
 20
1165.2067
 30
0.0
 10
628.3402
 20
1165.2067
 30
0.0
 10
627.3185
 20
1164.4465
 30
0.0
 10
626.0353
 20
1163.8662
 30
0.0
 10
624.4987
 20
1163.4739
 30
0.0
 10
624.4987
 20
1163.4739
 30
0.0
 10
622.9539
 20
1163.0816
 30
0.0
 10
621.0658
 20
1162.8854
 30
0.0
 10
618.8263
 20
1162.8854
 30
0.0
 10
618.8263
 20
1162.8854
 30
0.0
 10
618.8263
 20
1162.8854
 30
0.0
 10
605.4301
 20
1162.8854
 30
0.0
 10
605.4301
 20
1162.8854
 30
0.0
  0
SPLINE
  5
72
330
1F
100
AcDbEntity
  8
layer 1
 62
   250
100
AcDbSpline
210
0.0
220
0.0
230
1.0
 70
    11
 71
     3
 72
    40
 73
    36
 74
     0
 42
0.000000001
 43
0.0000000001
 40
0.0
 40
0.0
 40
0.0
 40
0.0
 40
0.1
 40
0.1
 40
0.1
 40
0.1
 40
0.2
 40
0.2
 40
0.2
 40
0.2
 40
0.3
 40
0.3
 40
0.3
 40
0.3
 40
0.4
 40
0.4
 40
0.4
 40
0.4
 40
0.5
 40
0.5
 40
0.5
 40
0.5
 40
0.6
 40
0.6
 40
0.6
 40
0.6
 40
0.7
 40
0.7
 40
0.7
 40
0.7
 40
0.8
 40
0.8
 40
0.8
 40
0.8
 40
1.0
 40
1.0
 40
1.0
 40
1.0
 10
610.0889
 20
1183.2372
 30
0.0
 10
610.0889
 20
1183.2372
 30
0.0
 10
617.682
 20
1183.2372
 30
0.0
 10
617.682
 20
1183.2372
 30
0.0
 10
617.682
 20
1183.2372
 30
0.0
 10
619.7417
 20
1183.2372
 30
0.0
 10
621.2211
 20
1183.3762
 30
0.0
 10
622.112
 20
1183.6459
 30
0.0
 10
622.112
 20
1183.6459
 30
0.0
 10
623.2972
 20
1183.9974
 30
0.0
 10
624.1881
 20
1184.5859
 30
0.0
 10
624.7848
 20
1185.4032
 30
0.0
 10
624.7848
 20
1185.4032
 30
0.0
 10
625.3814
 20
1186.2206
 30
0.0
 10
625.6838
 20
1187.2422
 30
0.0
 10
625.6838
 20
1188.4764
 30
0.0
 10
625.6838
 20
1188.4764
 30
0.0
 10
625.6838
 20
1189.6452
 30
0.0
 10
625.4059
 20
1190.6751
 30
0.0
 10
624.842
 20
1191.5578
 30
0.0
 10
624.842
 20
1191.5578
 30
0.0
 10
624.2862
 20
1192.4487
 30
0.0
 10
623.4852
 20
1193.0617
 30
0.0
 10
622.4472
 20
1193.3887
 30
0.0
 10
622.4472
 20
1193.3887
 30
0.0
 10
621.4091
 20
1193.7156
 30
0.0
 10
619.6273
 20
1193.8791
 30
0.0
 10
617.1099
 20
1193.8791
 30
0.0
 10
617.1099
 20
1193.8791
 30
0.0
 10
617.1099
 20
1193.8791
 30
0.0
 10
610.0889
 20
1193.8791
 30
0.0
 10
610.0889
 20
1193.8791
 30
0.0
 10
610.0889
 20
1193.8791
 30
0.0
 10
610.0889
 20
1193.8791
 30
0.0
 10
610.0889
 20
1183.2372
 30
0.0
 10
610.0889
 20
1183.2372
 30
0.0
  0
SPLINE
  5
73
330
1F
100
AcDbEntity
  8
layer 1
 62
   250
100
AcDbSpline
210
0.0
220
0.0
230
1.0
 70
    11
 71
     3
 72
    44
 73
    40
 74
     0
 42
0.000000001
 43
0.0000000001
 40
0.0
 40
0.0
 40
0.0
 40
0.0
 40
0.0909090909090909
 40
0.0909090909090909
 40
0.0909090909090909
 40
0.0909090909090909
 40
0.1818181818181818
 40
0.1818181818181818
 40
0.1818181818181818
 40
0.1818181818181818
 40
0.2727272727272727
 40
0.2727272727272727
 40
0.2727272727272727
 40
0.2727272727272727
 40
0.3636363636363636
 40
0.3636363636363636
 40
0.3636363636363636
 40
0.3636363636363636
 40
0.4545454545454545
 40
0.4545454545454545
 40
0.4545454545454545
 40
0.4545454545454545
 40
0.5454545454545454
 40
0.5454545454545454
 40
0.5454545454545454
 40
0.5454545454545454
 40
0.6363636363636364
 40
0.6363636363636364
 40
0.6363636363636364
 40
0.6363636363636364
 40
0.7272727272727273
 40
0.7272727272727273
 40
0.7272727272727273
 40
0.7272727272727273
 40
0.8181818181818182
 40
0.8181818181818182
 40
0.8181818181818182
 40
0.8181818181818182
 40
1.0
 40
1.0
 40
1.0
 40
1.0
 10
610.0889
 20
1167.0048
 30
0.0
 10
610.0889
 20
1167.0048
 30
0.0
 10
618.8345
 20
1167.0048
 30
0.0
 10
618.8345
 20
1167.0048
 30
0.0
 10
618.8345
 20
1167.0048
 30
0.0
 10
620.3384
 20
1167.0048
 30
0.0
 10
621.3928
 20
1167.062
 30
0.0
 10
622.0058
 20
1167.1765
 30
0.0
 10
622.0058
 20
1167.1765
 30
0.0
 10
623.0683
 20
1167.3644
 30
0.0
 10
623.9674
 20
1167.6832
 30
0.0
 10
624.6867
 20
1168.1327
 30
0.0
 10
624.6867
 20
1168.1327
 30
0.0
 10
625.4059
 20
1168.5823
 30
0.0
 10
625.9944
 20
1169.2362
 30
0.0
 10
626.4603
 20
1170.0944
 30
0.0
 10
626.4603
 20
1170.0944
 30
0.0
 10
626.9262
 20
1170.9526
 30
0.0
 10
627.155
 20
1171.9416
 30
0.0
 10
627.155
 20
1173.0613
 30
0.0
 10
627.155
 20
1173.0613
 30
0.0
 10
627.155
 20
1174.3772
 30
0.0
 10
626.8199
 20
1175.5134
 30
0.0
 10
626.1415
 20
1176.486
 30
0.0
 10
626.1415
 20
1176.486
 30
0.0
 10
625.4713
 20
1177.4586
 30
0.0
 10
624.5396
 20
1178.137
 30
0.0
 10
623.3462
 20
1178.5294
 30
0.0
 10
623.3462
 20
1178.5294
 30
0.0
 10
622.1611
 20
1178.9217
 30
0.0
 10
620.4447
 20
1179.1178
 30
0.0
 10
618.2133
 20
1179.1178
 30
0.0
 10
618.2133
 20
1179.1178
 30
0.0
 10
618.2133
 20
1179.1178
 30
0.0
 10
610.0889
 20
1179.1178
 30
0.0
 10
610.0889
 20
1179.1178
 30
0.0
 10
610.0889
 20
1179.1178
 30
0.0
 10
610.0889
 20
1179.1178
 30
0.0
 10
610.0889
 20
1167.0048
 30
0.0
 10
610.0889
 20
1167.0048
 30
0.0
  0
SPLINE
  5
74
330
1F
100
AcDbEntity
  8
layer 1
 62
   250
100
AcDbSpline
210
0.0
220
0.0
230
1.0
 70
    11
 71
     3
 72
    64
 73
    60
 74
     0
 42
0.000000001
 43
0.0000000001
 40
0.0
 40
0.0
 40
0.0
 40
0.0
 40
0.0625
 40
0.0625
 40
0.0625
 40
0.0625
 40
0.125
 40
0.125
 40
0.125
 40
0.125
 40
0.1875
 40
0.1875
 40
0.1875
 40
0.1875
 40
0.25
 40
0.25
 40
0.25
 40
0.25
 40
0.3125
 40
0.3125
 40
0.3125
 40
0.3125
 40
0.375
 40
0.375
 40
0.375
 40
0.375
 40
0.4375
 40
0.4375
 40
0.4375
 40
0.4375
 40
0.5
 40
0.5
 40
0.5
 40
0.5
 40
0.5625
 40
0.5625
 40
0.5625
 40
0.5625
 40
0.625
 40
0.625
 40
0.625
 40
0.625
 40
0.6875
 40
0.6875
 40
0.6875
 40
0.6875
 40
0.75
 40
0.75
 40
0.75
 40
0.75
 40
0.8125
 40
0.8125
 40
0.8125
 40
0.8125
 40
0.875
 40
0.875
 40
0.875
 40
0.875
 40
1.0
 40
1.0
 40
1.0
 40
1.0
 10
655.1573
 20
1171.1242
 30
0.0
 10
655.1573
 20
1171.1242
 30
0.0
 10
659.6199
 20
1170.5357
 30
0.0
 10
659.6199
 20
1170.5357
 30
0.0
 10
659.6199
 20
1170.5357
 30
0.0
 10
658.9252
 20
1167.9448
 30
0.0
 10
657.6256
 20
1165.9259
 30
0.0
 10
655.7294
 20
1164.4956
 30
0.0
 10
655.7294
 20
1164.4956
 30
0.0
 10
653.8332
 20
1163.0652
 30
0.0
 10
651.4138
 20
1162.346
 30
0.0
 10
648.4632
 20
1162.346
 30
0.0
 10
648.4632
 20
1162.346
 30
0.0
 10
644.7525
 20
1162.346
 30
0.0
 10
641.81
 20
1163.4902
 30
0.0
 10
639.6359
 20
1165.7788
 30
0.0
 10
639.6359
 20
1165.7788
 30
0.0
 10
637.4618
 20
1168.0592
 30
0.0
 10
636.3747
 20
1171.2713
 30
0.0
 10
636.3747
 20
1175.3989
 30
0.0
 10
636.3747
 20
1175.3989
 30
0.0
 10
636.3747
 20
1179.6655
 30
0.0
 10
637.4699
 20
1182.9839
 30
0.0
 10
639.6686
 20
1185.3378
 30
0.0
 10
639.6686
 20
1185.3378
 30
0.0
 10
641.8672
 20
1187.6999
 30
0.0
 10
644.7198
 20
1188.8769
 30
0.0
 10
648.2262
 20
1188.8769
 30
0.0
 10
648.2262
 20
1188.8769
 30
0.0
 10
651.6182
 20
1188.8769
 30
0.0
 10
654.3889
 20
1187.7245
 30
0.0
 10
656.5386
 20
1185.4114
 30
0.0
 10
656.5386
 20
1185.4114
 30
0.0
 10
658.6882
 20
1183.0983
 30
0.0
 10
659.7671
 20
1179.8453
 30
0.0
 10
659.7671
 20
1175.6523
 30
0.0
 10
659.7671
 20
1175.6523
 30
0.0
 10
659.7671
 20
1175.3989
 30
0.0
 10
659.7589
 20
1175.0148
 30
0.0
 10
659.7425
 20
1174.508
 30
0.0
 10
659.7425
 20
1174.508
 30
0.0
 10
659.7425
 20
1174.508
 30
0.0
 10
640.7884
 20
1174.508
 30
0.0
 10
640.7884
 20
1174.508
 30
0.0
 10
640.7884
 20
1174.508
 30
0.0
 10
640.9518
 20
1171.7209
 30
0.0
 10
641.7365
 20
1169.5794
 30
0.0
 10
643.1587
 20
1168.1001
 30
0.0
 10
643.1587
 20
1168.1001
 30
0.0
 10
644.5727
 20
1166.6207
 30
0.0
 10
646.3463
 20
1165.8769
 30
0.0
 10
648.4632
 20
1165.8769
 30
0.0
 10
648.4632
 20
1165.8769
 30
0.0
 10
650.0407
 20
1165.8769
 30
0.0
 10
651.3893
 20
1166.2937
 30
0.0
 10
652.5009
 20
1167.1274
 30
0.0
 10
652.5009
 20
1167.1274
 30
0.0
 10
653.6206
 20
1167.9611
 30
0.0
 10
654.5034
 20
1169.2934
 30
0.0
 10
655.1573
 20
1171.1242
 30
0.0
  0
SPLINE
  5
75
330
1F
100
AcDbEntity
  8
layer 1
 62
   250
100
AcDbSpline
210
0.0
220
0.0
230
1.0
 70
    11
 71
     3
 72
    24
 73
    20
 74
     0
 42
0.000000001
 43
0.0000000001
 40
0.0
 40
0.0
 40
0.0
 40
0.0
 40
0.1666666666666667
 40
0.1666666666666667
 40
0.1666666666666667
 40
0.1666666666666667
 40
0.3333333333333333
 40
0.3333333333333333
 40
0.3333333333333333
 40
0.3333333333333333
 40
0.5
 40
0.5
 40
0.5
 40
0.5
 40
0.6666666666666666
 40
0.6666666666666666
 40
0.6666666666666666
 40
0.6666666666666666
 40
1.0
 40
1.0
 40
1.0
 40
1.0
 10
641.0336
 20
1178.0389
 30
0.0
 10
641.0336
 20
1178.0389
 30
0.0
 10
655.2063
 20
1178.0389
 30
0.0
 10
655.2063
 20
1178.0389
 30
0.0
 10
655.2063
 20
1178.0389
 30
0.0
 10
655.0183
 20
1180.1804
 30
0.0
 10
654.4707
 20
1181.7824
 30
0.0
 10
653.5798
 20
1182.8531
 30
0.0
 10
653.5798
 20
1182.8531
 30
0.0
 10
652.2148
 20
1184.5123
 30
0.0
 10
650.433
 20
1185.346
 30
0.0
 10
648.2507
 20
1185.346
 30
0.0
 10
648.2507
 20
1185.346
 30
0.0
 10
646.2727
 20
1185.346
 30
0.0
 10
644.6135
 20
1184.6839
 30
0.0
 10
643.2649
 20
1183.3599
 30
0.0
 10
643.2649
 20
1183.3599
 30
0.0
 10
641.9245
 20
1182.0358
 30
0.0
 10
641.1807
 20
1180.2621
 30
0.0
 10
641.0336
 20
1178.0389
 30
0.0
  0
SPLINE
  5
76
330
1F
100
AcDbEntity
  8
layer 1
 62
   250
100
AcDbSpline
210
0.0
220
0.0
230
1.0
 70
    11
 71
     3
 72
    64
 73
    60
 74
     0
 42
0.000000001
 43
0.0000000001
 40
0.0
 40
0.0
 40
0.0
 40
0.0
 40
0.0625
 40
0.0625
 40
0.0625
 40
0.0625
 40
0.125
 40
0.125
 40
0.125
 40
0.125
 40
0.1875
 40
0.1875
 40
0.1875
 40
0.1875
 40
0.25
 40
0.25
 40
0.25
 40
0.25
 40
0.3125
 40
0.3125
 40
0.3125
 40
0.3125
 40
0.375
 40
0.375
 40
0.375
 40
0.375
 40
0.4375
 40
0.4375
 40
0.4375
 40
0.4375
 40
0.5
 40
0.5
 40
0.5
 40
0.5
 40
0.5625
 40
0.5625
 40
0.5625
 40
0.5625
 40
0.625
 40
0.625
 40
0.625
 40
0.625
 40
0.6875
 40
0.6875
 40
0.6875
 40
0.6875
 40
0.75
 40
0.75
 40
0.75
 40
0.75
 40
0.8125
 40
0.8125
 40
0.8125
 40
0.8125
 40
0.875
 40
0.875
 40
0.875
 40
0.875
 40
1.0
 40
1.0
 40
1.0
 40
1.0
 10
665.0716
 20
1153.1263
 30
0.0
 10
665.0716
 20
1153.1263
 30
0.0
 10
665.0716
 20
1188.3375
 30
0.0
 10
665.0716
 20
1188.3375
 30
0.0
 10
665.0716
 20
1188.3375
 30
0.0
 10
665.0716
 20
1188.3375
 30
0.0
 10
668.9948
 20
1188.3375
 30
0.0
 10
668.9948
 20
1188.3375
 30
0.0
 10
668.9948
 20
1188.3375
 30
0.0
 10
668.9948
 20
1188.3375
 30
0.0
 10
668.9948
 20
1184.9945
 30
0.0
 10
668.9948
 20
1184.9945
 30
0.0
 10
668.9948
 20
1184.9945
 30
0.0
 10
669.9184
 20
1186.2859
 30
0.0
 10
670.9646
 20
1187.2586
 30
0.0
 10
672.1334
 20
1187.9043
 30
0.0
 10
672.1334
 20
1187.9043
 30
0.0
 10
673.2941
 20
1188.55
 30
0.0
 10
674.7081
 20
1188.8769
 30
0.0
 10
676.3673
 20
1188.8769
 30
0.0
 10
676.3673
 20
1188.8769
 30
0.0
 10
678.5414
 20
1188.8769
 30
0.0
 10
680.454
 20
1188.3211
 30
0.0
 10
682.1132
 20
1187.2014
 30
0.0
 10
682.1132
 20
1187.2014
 30
0.0
 10
683.7724
 20
1186.0898
 30
0.0
 10
685.0229
 20
1184.5123
 30
0.0
 10
685.873
 20
1182.4853
 30
0.0
 10
685.873
 20
1182.4853
 30
0.0
 10
686.7148
 20
1180.4501
 30
0.0
 10
687.1398
 20
1178.2269
 30
0.0
 10
687.1398
 20
1175.7994
 30
0.0
 10
687.1398
 20
1175.7994
 30
0.0
 10
687.1398
 20
1173.2084
 30
0.0
 10
686.674
 20
1170.8708
 30
0.0
 10
685.7422
 20
1168.7866
 30
0.0
 10
685.7422
 20
1168.7866
 30
0.0
 10
684.8104
 20
1166.7106
 30
0.0
 10
683.4536
 20
1165.1167
 30
0.0
 10
681.6718
 20
1164.0052
 30
0.0
 10
681.6718
 20
1164.0052
 30
0.0
 10
679.8982
 20
1162.9017
 30
0.0
 10
678.0265
 20
1162.346
 30
0.0
 10
676.0648
 20
1162.346
 30
0.0
 10
676.0648
 20
1162.346
 30
0.0
 10
674.6263
 20
1162.346
 30
0.0
 10
673.3349
 20
1162.6484
 30
0.0
 10
672.1988
 20
1163.2532
 30
0.0
 10
672.1988
 20
1163.2532
 30
0.0
 10
671.0545
 20
1163.858
 30
0.0
 10
670.1228
 20
1164.6182
 30
0.0
 10
669.3872
 20
1165.5418
 30
0.0
 10
669.3872
 20
1165.5418
 30
0.0
 10
669.3872
 20
1165.5418
 30
0.0
 10
669.3872
 20
1153.1263
 30
0.0
 10
669.3872
 20
1153.1263
 30
0.0
 10
669.3872
 20
1153.1263
 30
0.0
 10
669.3872
 20
1153.1263
 30
0.0
 10
665.0716
 20
1153.1263
 30
0.0
 10
665.0716
 20
1153.1263
 30
0.0
  0
SPLINE
  5
77
330
1F
100
AcDbEntity
  8
layer 1
 62
   250
100
AcDbSpline
210
0.0
220
0.0
230
1.0
 70
    11
 71
     3
 72
    36
 73
    32
 74
     0
 42
0.000000001
 43
0.0000000001
 40
0.0
 40
0.0
 40
0.0
 40
0.0
 40
0.1111111111111111
 40
0.1111111111111111
 40
0.1111111111111111
 40
0.1111111111111111
 40
0.2222222222222222
 40
0.2222222222222222
 40
0.2222222222222222
 40
0.2222222222222222
 40
0.3333333333333333
 40
0.3333333333333333
 40
0.3333333333333333
 40
0.3333333333333333
 40
0.4444444444444444
 40
0.4444444444444444
 40
0.4444444444444444
 40
0.4444444444444444
 40
0.5555555555555556
 40
0.5555555555555556
 40
0.5555555555555556
 40
0.5555555555555556
 40
0.6666666666666666
 40
0.6666666666666666
 40
0.6666666666666666
 40
0.6666666666666666
 40
0.7777777777777778
 40
0.7777777777777778
 40
0.7777777777777778
 40
0.7777777777777778
 40
1.0
 40
1.0
 40
1.0
 40
1.0
 10
668.9948
 20
1175.4561
 30
0.0
 10
668.9948
 20
1172.1949
 30
0.0
 10
669.6569
 20
1169.7838
 30
0.0
 10
670.9728
 20
1168.2227
 30
0.0
 10
670.9728
 20
1168.2227
 30
0.0
 10
672.2969
 20
1166.6615
 30
0.0
 10
673.8989
 20
1165.8769
 30
0.0
 10
675.7788
 20
1165.8769
 30
0.0
 10
675.7788
 20
1165.8769
 30
0.0
 10
677.6914
 20
1165.8769
 30
0.0
 10
679.326
 20
1166.686
 30
0.0
 10
680.6828
 20
1168.3044
 30
0.0
 10
680.6828
 20
1168.3044
 30
0.0
 10
682.0478
 20
1169.9227
 30
0.0
 10
682.7262
 20
1172.4238
 30
0.0
 10
682.7262
 20
1175.8158
 30
0.0
 10
682.7262
 20
1175.8158
 30
0.0
 10
682.7262
 20
1179.0525
 30
0.0
 10
682.0641
 20
1181.4718
 30
0.0
 10
680.7319
 20
1183.082
 30
0.0
 10
680.7319
 20
1183.082
 30
0.0
 10
679.3996
 20
1184.6921
 30
0.0
 10
677.814
 20
1185.4931
 30
0.0
 10
675.9668
 20
1185.4931
 30
0.0
 10
675.9668
 20
1185.4931
 30
0.0
 10
674.1359
 20
1185.4931
 30
0.0
 10
672.5176
 20
1184.6349
 30
0.0
 10
671.1117
 20
1182.9267
 30
0.0
 10
671.1117
 20
1182.9267
 30
0.0
 10
669.6977
 20
1181.2102
 30
0.0
 10
668.9948
 20
1178.7255
 30
0.0
 10
668.9948
 20
1175.4561
 30
0.0
  0
SPLINE
  5
78
330
1F
100
AcDbEntity
  8
layer 1
 62
   250
100
AcDbSpline
210
0.0
220
0.0
230
1.0
 70
    11
 71
     3
 72
    64
 73
    60
 74
     0
 42
0.000000001
 43
0.0000000001
 40
0.0
 40
0.0
 40
0.0
 40
0.0
 40
0.0625
 40
0.0625
 40
0.0625
 40
0.0625
 40
0.125
 40
0.125
 40
0.125
 40
0.125
 40
0.1875
 40
0.1875
 40
0.1875
 40
0.1875
 40
0.25
 40
0.25
 40
0.25
 40
0.25
 40
0.3125
 40
0.3125
 40
0.3125
 40
0.3125
 40
0.375
 40
0.375
 40
0.375
 40
0.375
 40
0.4375
 40
0.4375
 40
0.4375
 40
0.4375
 40
0.5
 40
0.5
 40
0.5
 40
0.5
 40
0.5625
 40
0.5625
 40
0.5625
 40
0.5625
 40
0.625
 40
0.625
 40
0.625
 40
0.625
 40
0.6875
 40
0.6875
 40
0.6875
 40
0.6875
 40
0.75
 40
0.75
 40
0.75
 40
0.75
 40
0.8125
 40
0.8125
 40
0.8125
 40
0.8125
 40
0.875
 40
0.875
 40
0.875
 40
0.875
 40
1.0
 40
1.0
 40
1.0
 40
1.0
 10
688.8562
 20
1162.8854
 30
0.0
 10
688.8562
 20
1162.8854
 30
0.0
 10
698.1494
 20
1176.0691
 30
0.0
 10
698.1494
 20
1176.0691
 30
0.0
 10
698.1494
 20
1176.0691
 30
0.0
 10
698.1494
 20
1176.0691
 30
0.0
 10
689.5428
 20
1188.3375
 30
0.0
 10
689.5428
 20
1188.3375
 30
0.0
 10
689.5428
 20
1188.3375
 30
0.0
 10
689.5428
 20
1188.3375
 30
0.0
 10
694.8474
 20
1188.3375
 30
0.0
 10
694.8474
 20
1188.3375
 30
0.0
 10
694.8474
 20
1188.3375
 30
0.0
 10
694.8474
 20
1188.3375
 30
0.0
 10
698.8687
 20
1182.33
 30
0.0
 10
698.8687
 20
1182.33
 30
0.0
 10
698.8687
 20
1182.33
 30
0.0
 10
699.6125
 20
1181.2021
 30
0.0
 10
700.201
 20
1180.2866
 30
0.0
 10
700.6178
 20
1179.5674
 30
0.0
 10
700.6178
 20
1179.5674
 30
0.0
 10
701.3452
 20
1180.5891
 30
0.0
 10
701.991
 20
1181.5127
 30
0.0
 10
702.5713
 20
1182.3382
 30
0.0
 10
702.5713
 20
1182.3382
 30
0.0
 10
702.5713
 20
1182.3382
 30
0.0
 10
706.8051
 20
1188.3375
 30
0.0
 10
706.8051
 20
1188.3375
 30
0.0
 10
706.8051
 20
1188.3375
 30
0.0
 10
706.8051
 20
1188.3375
 30
0.0
 10
712.077
 20
1188.3375
 30
0.0
 10
712.077
 20
1188.3375
 30
0.0
 10
712.077
 20
1188.3375
 30
0.0
 10
712.077
 20
1188.3375
 30
0.0
 10
703.4213
 20
1176.0691
 30
0.0
 10
703.4213
 20
1176.0691
 30
0.0
 10
703.4213
 20
1176.0691
 30
0.0
 10
703.4213
 20
1176.0691
 30
0.0
 10
712.6409
 20
1162.8854
 30
0.0
 10
712.6409
 20
1162.8854
 30
0.0
 10
712.6409
 20
1162.8854
 30
0.0
 10
712.6409
 20
1162.8854
 30
0.0
 10
707.3936
 20
1162.8854
 30
0.0
 10
707.3936
 20
1162.8854
 30
0.0
 10
707.3936
 20
1162.8854
 30
0.0
 10
707.3936
 20
1162.8854
 30
0.0
 10
702.1299
 20
1170.7319
 30
0.0
 10
702.1299
 20
1170.7319
 30
0.0
 10
702.1299
 20
1170.7319
 30
0.0
 10
702.1299
 20
1170.7319
 30
0.0
 10
700.9284
 20
1172.62
 30
0.0
 10
700.9284
 20
1172.62
 30
0.0
 10
700.9284
 20
1172.62
 30
0.0
 10
700.9284
 20
1172.62
 30
0.0
 10
694.1281
 20
1162.8854
 30
0.0
 10
694.1281
 20
1162.8854
 30
0.0
 10
694.1281
 20
1162.8854
 30
0.0
 10
694.1281
 20
1162.8854
 30
0.0
 10
688.8562
 20
1162.8854
 30
0.0
 10
688.8562
 20
1162.8854
 30
0.0
  0
SPLINE
  5
79
330
1F
100
AcDbEntity
  8
layer 1
 62
   250
100
AcDbSpline
210
0.0
220
0.0
230
1.0
 70
    11
 71
     3
 72
    52
 73
    48
 74
     0
 42
0.000000001
 43
0.0000000001
 40
0.0
 40
0.0
 40
0.0
 40
0.0
 40
0.0769230769230769
 40
0.0769230769230769
 40
0.0769230769230769
 40
0.0769230769230769
 40
0.1538461538461539
 40
0.1538461538461539
 40
0.1538461538461539
 40
0.1538461538461539
 40
0.2307692307692308
 40
0.2307692307692308
 40
0.2307692307692308
 40
0.2307692307692308
 40
0.3076923076923077
 40
0.3076923076923077
 40
0.3076923076923077
 40
0.3076923076923077
 40
0.3846153846153846
 40
0.3846153846153846
 40
0.3846153846153846
 40
0.3846153846153846
 40
0.4615384615384616
 40
0.4615384615384616
 40
0.4615384615384616
 40
0.4615384615384616
 40
0.5384615384615384
 40
0.5384615384615384
 40
0.5384615384615384
 40
0.5384615384615384
 40
0.6153846153846154
 40
0.6153846153846154
 40
0.6153846153846154
 40
0.6153846153846154
 40
0.6923076923076923
 40
0.6923076923076923
 40
0.6923076923076923
 40
0.6923076923076923
 40
0.7692307692307693
 40
0.7692307692307693
 40
0.7692307692307693
 40
0.7692307692307693
 40
0.8461538461538461
 40
0.8461538461538461
 40
0.8461538461538461
 40
0.8461538461538461
 40
1.0
 40
1.0
 40
1.0
 40
1.0
 10
716.319
 20
1188.3375
 30
0.0
 10
716.319
 20
1188.3375
 30
0.0
 10
720.6346
 20
1188.3375
 30
0.0
 10
720.6346
 20
1188.3375
 30
0.0
 10
720.6346
 20
1188.3375
 30
0.0
 10
720.6346
 20
1188.3375
 30
0.0
 10
720.6346
 20
1177.7447
 30
0.0
 10
720.6346
 20
1177.7447
 30
0.0
 10
720.6346
 20
1177.7447
 30
0.0
 10
720.6346
 20
1177.7447
 30
0.0
 10
732.6005
 20
1177.7447
 30
0.0
 10
732.6005
 20
1177.7447
 30
0.0
 10
732.6005
 20
1177.7447
 30
0.0
 10
732.6005
 20
1177.7447
 30
0.0
 10
732.6005
 20
1188.3375
 30
0.0
 10
732.6005
 20
1188.3375
 30
0.0
 10
732.6005
 20
1188.3375
 30
0.0
 10
732.6005
 20
1188.3375
 30
0.0
 10
736.916
 20
1188.3375
 30
0.0
 10
736.916
 20
1188.3375
 30
0.0
 10
736.916
 20
1188.3375
 30
0.0
 10
736.916
 20
1188.3375
 30
0.0
 10
736.916
 20
1162.8854
 30
0.0
 10
736.916
 20
1162.8854
 30
0.0
 10
736.916
 20
1162.8854
 30
0.0
 10
736.916
 20
1162.8854
 30
0.0
 10
732.6005
 20
1162.8854
 30
0.0
 10
732.6005
 20
1162.8854
 30
0.0
 10
732.6005
 20
1162.8854
 30
0.0
 10
732.6005
 20
1162.8854
 30
0.0
 10
732.6005
 20
1174.1647
 30
0.0
 10
732.6005
 20
1174.1647
 30
0.0
 10
732.6005
 20
1174.1647
 30
0.0
 10
732.6005
 20
1174.1647
 30
0.0
 10
720.6346
 20
1174.1647
 30
0.0
 10
720.6346
 20
1174.1647
 30
0.0
 10
720.6346
 20
1174.1647
 30
0.0
 10
720.6346
 20
1174.1647
 30
0.0
 10
720.6346
 20
1162.8854
 30
0.0
 10
720.6346
 20
1162.8854
 30
0.0
 10
720.6346
 20
1162.8854
 30
0.0
 10
720.6346
 20
1162.8854
 30
0.0
 10
716.319
 20
1162.8854
 30
0.0
 10
716.319
 20
1162.8854
 30
0.0
 10
716.319
 20
1162.8854
 30
0.0
 10
716.319
 20
1162.8854
 30
0.0
 10
716.319
 20
1188.3375
 30
0.0
 10
716.319
 20
1188.3375
 30
0.0
  0
SPLINE
  5
7A
330
1F
100
AcDbEntity
  8
layer 1
 62
   250
100
AcDbSpline
210
0.0
220
0.0
230
1.0
 70
    11
 71
     3
 72
    64
 73
    60
 74
     0
 42
0.000000001
 43
0.0000000001
 40
0.0
 40
0.0
 40
0.0
 40
0.0
 40
0.0625
 40
0.0625
 40
0.0625
 40
0.0625
 40
0.125
 40
0.125
 40
0.125
 40
0.125
 40
0.1875
 40
0.1875
 40
0.1875
 40
0.1875
 40
0.25
 40
0.25
 40
0.25
 40
0.25
 40
0.3125
 40
0.3125
 40
0.3125
 40
0.3125
 40
0.375
 40
0.375
 40
0.375
 40
0.375
 40
0.4375
 40
0.4375
 40
0.4375
 40
0.4375
 40
0.5
 40
0.5
 40
0.5
 40
0.5
 40
0.5625
 40
0.5625
 40
0.5625
 40
0.5625
 40
0.625
 40
0.625
 40
0.625
 40
0.625
 40
0.6875
 40
0.6875
 40
0.6875
 40
0.6875
 40
0.75
 40
0.75
 40
0.75
 40
0.75
 40
0.8125
 40
0.8125
 40
0.8125
 40
0.8125
 40
0.875
 40
0.875
 40
0.875
 40
0.875
 40
1.0
 40
1.0
 40
1.0
 40
1.0
 10
763.4552
 20
1188.3375
 30
0.0
 10
763.4552
 20
1188.3375
 30
0.0
 10
763.4552
 20
1162.8854
 30
0.0
 10
763.4552
 20
1162.8854
 30
0.0
 10
763.4552
 20
1162.8854
 30
0.0
 10
763.4552
 20
1162.8854
 30
0.0
 10
759.1396
 20
1162.8854
 30
0.0
 10
759.1396
 20
1162.8854
 30
0.0
 10
759.1396
 20
1162.8854
 30
0.0
 10
759.1396
 20
1162.8854
 30
0.0
 10
759.1396
 20
1172.7916
 30
0.0
 10
759.1396
 20
1172.7916
 30
0.0
 10
759.1396
 20
1172.7916
 30
0.0
 10
759.1396
 20
1172.7916
 30
0.0
 10
756.6549
 20
1172.7916
 30
0.0
 10
756.6549
 20
1172.7916
 30
0.0
 10
756.6549
 20
1172.7916
 30
0.0
 10
755.1428
 20
1172.7916
 30
0.0
 10
754.0149
 20
1172.5954
 30
0.0
 10
753.2711
 20
1172.1949
 30
0.0
 10
753.2711
 20
1172.1949
 30
0.0
 10
752.5273
 20
1171.7944
 30
0.0
 10
751.4402
 20
1170.5439
 30
0.0
 10
750.0099
 20
1168.427
 30
0.0
 10
750.0099
 20
1168.427
 30
0.0
 10
750.0099
 20
1168.427
 30
0.0
 10
746.2174
 20
1162.8854
 30
0.0
 10
746.2174
 20
1162.8854
 30
0.0
 10
746.2174
 20
1162.8854
 30
0.0
 10
746.2174
 20
1162.8854
 30
0.0
 10
740.872
 20
1162.8854
 30
0.0
 10
740.872
 20
1162.8854
 30
0.0
 10
740.872
 20
1162.8854
 30
0.0
 10
740.872
 20
1162.8854
 30
0.0
 10
745.5308
 20
1169.7184
 30
0.0
 10
745.5308
 20
1169.7184
 30
0.0
 10
745.5308
 20
1169.7184
 30
0.0
 10
746.953
 20
1171.8108
 30
0.0
 10
748.3752
 20
1172.9878
 30
0.0
 10
749.7892
 20
1173.2575
 30
0.0
 10
749.7892
 20
1173.2575
 30
0.0
 10
747.329
 20
1173.5926
 30
0.0
 10
745.4982
 20
1174.4835
 30
0.0
 10
744.3048
 20
1175.922
 30
0.0
 10
744.3048
 20
1175.922
 30
0.0
 10
743.1115
 20
1177.3606
 30
0.0
 10
742.5148
 20
1179.0198
 30
0.0
 10
742.5148
 20
1180.8915
 30
0.0
 10
742.5148
 20
1180.8915
 30
0.0
 10
742.5148
 20
1183.1065
 30
0.0
 10
743.2913
 20
1184.8965
 30
0.0
 10
744.8525
 20
1186.2696
 30
0.0
 10
744.8525
 20
1186.2696
 30
0.0
 10
746.4136
 20
1187.6509
 30
0.0
 10
748.6776
 20
1188.3375
 30
0.0
 10
751.6364
 20
1188.3375
 30
0.0
 10
751.6364
 20
1188.3375
 30
0.0
 10
751.6364
 20
1188.3375
 30
0.0
 10
763.4552
 20
1188.3375
 30
0.0
 10
763.4552
 20
1188.3375
 30
0.0
  0
SPLINE
  5
7B
330
1F
100
AcDbEntity
  8
layer 1
 62
   250
100
AcDbSpline
210
0.0
220
0.0
230
1.0
 70
    11
 71
     3
 72
    32
 73
    28
 74
     0
 42
0.000000001
 43
0.0000000001
 40
0.0
 40
0.0
 40
0.0
 40
0.0
 40
0.125
 40
0.125
 40
0.125
 40
0.125
 40
0.25
 40
0.25
 40
0.25
 40
0.25
 40
0.375
 40
0.375
 40
0.375
 40
0.375
 40
0.5
 40
0.5
 40
0.5
 40
0.5
 40
0.625
 40
0.625
 40
0.625
 40
0.625
 40
0.75
 40
0.75
 40
0.75
 40
0.75
 40
1.0
 40
1.0
 40
1.0
 40
1.0
 10
759.1396
 20
1184.7575
 30
0.0
 10
759.1396
 20
1184.7575
 30
0.0
 10
753.0095
 20
1184.7575
 30
0.0
 10
753.0095
 20
1184.7575
 30
0.0
 10
753.0095
 20
1184.7575
 30
0.0
 10
750.4431
 20
1184.7575
 30
0.0
 10
748.7839
 20
1184.357
 30
0.0
 10
748.0401
 20
1183.556
 30
0.0
 10
748.0401
 20
1183.556
 30
0.0
 10
747.2963
 20
1182.755
 30
0.0
 10
746.9285
 20
1181.8151
 30
0.0
 10
746.9285
 20
1180.7444
 30
0.0
 10
746.9285
 20
1180.7444
 30
0.0
 10
746.9285
 20
1179.2241
 30
0.0
 10
747.4761
 20
1178.1043
 30
0.0
 10
748.5714
 20
1177.3932
 30
0.0
 10
748.5714
 20
1177.3932
 30
0.0
 10
749.6584
 20
1176.6822
 30
0.0
 10
751.5955
 20
1176.3225
 30
0.0
 10
754.3745
 20
1176.3225
 30
0.0
 10
754.3745
 20
1176.3225
 30
0.0
 10
754.3745
 20
1176.3225
 30
0.0
 10
759.1396
 20
1176.3225
 30
0.0
 10
759.1396
 20
1176.3225
 30
0.0
 10
759.1396
 20
1176.3225
 30
0.0
 10
759.1396
 20
1176.3225
 30
0.0
 10
759.1396
 20
1184.7575
 30
0.0
 10
759.1396
 20
1184.7575
 30
0.0
  0
SPLINE
  5
7C
330
1F
100
AcDbEntity
  8
layer 1
 62
   250
100
AcDbSpline
210
0.0
220
0.0
230
1.0
 70
    11
 71
     3
 72
    64
 73
    60
 74
     0
 42
0.000000001
 43
0.0000000001
 40
0.0
 40
0.0
 40
0.0
 40
0.0
 40
0.0625
 40
0.0625
 40
0.0625
 40
0.0625
 40
0.125
 40
0.125
 40
0.125
 40
0.125
 40
0.1875
 40
0.1875
 40
0.1875
 40
0.1875
 40
0.25
 40
0.25
 40
0.25
 40
0.25
 40
0.3125
 40
0.3125
 40
0.3125
 40
0.3125
 40
0.375
 40
0.375
 40
0.375
 40
0.375
 40
0.4375
 40
0.4375
 40
0.4375
 40
0.4375
 40
0.5
 40
0.5
 40
0.5
 40
0.5
 40
0.5625
 40
0.5625
 40
0.5625
 40
0.5625
 40
0.625
 40
0.625
 40
0.625
 40
0.625
 40
0.6875
 40
0.6875
 40
0.6875
 40
0.6875
 40
0.75
 40
0.75
 40
0.75
 40
0.75
 40
0.8125
 40
0.8125
 40
0.8125
 40
0.8125
 40
0.875
 40
0.875
 40
0.875
 40
0.875
 40
1.0
 40
1.0
 40
1.0
 40
1.0
 10
790.0107
 20
1188.3375
 30
0.0
 10
790.0107
 20
1188.3375
 30
0.0
 10
790.0107
 20
1162.8854
 30
0.0
 10
790.0107
 20
1162.8854
 30
0.0
 10
790.0107
 20
1162.8854
 30
0.0
 10
790.0107
 20
1162.8854
 30
0.0
 10
785.6951
 20
1162.8854
 30
0.0
 10
785.6951
 20
1162.8854
 30
0.0
 10
785.6951
 20
1162.8854
 30
0.0
 10
785.6951
 20
1162.8854
 30
0.0
 10
785.6951
 20
1172.7916
 30
0.0
 10
785.6951
 20
1172.7916
 30
0.0
 10
785.6951
 20
1172.7916
 30
0.0
 10
785.6951
 20
1172.7916
 30
0.0
 10
783.2104
 20
1172.7916
 30
0.0
 10
783.2104
 20
1172.7916
 30
0.0
 10
783.2104
 20
1172.7916
 30
0.0
 10
781.6983
 20
1172.7916
 30
0.0
 10
780.5704
 20
1172.5954
 30
0.0
 10
779.8266
 20
1172.1949
 30
0.0
 10
779.8266
 20
1172.1949
 30
0.0
 10
779.0828
 20
1171.7944
 30
0.0
 10
777.9957
 20
1170.5439
 30
0.0
 10
776.5654
 20
1168.427
 30
0.0
 10
776.5654
 20
1168.427
 30
0.0
 10
776.5654
 20
1168.427
 30
0.0
 10
772.7729
 20
1162.8854
 30
0.0
 10
772.7729
 20
1162.8854
 30
0.0
 10
772.7729
 20
1162.8854
 30
0.0
 10
772.7729
 20
1162.8854
 30
0.0
 10
767.4275
 20
1162.8854
 30
0.0
 10
767.4275
 20
1162.8854
 30
0.0
 10
767.4275
 20
1162.8854
 30
0.0
 10
767.4275
 20
1162.8854
 30
0.0
 10
772.0863
 20
1169.7184
 30
0.0
 10
772.0863
 20
1169.7184
 30
0.0
 10
772.0863
 20
1169.7184
 30
0.0
 10
773.5085
 20
1171.8108
 30
0.0
 10
774.9307
 20
1172.9878
 30
0.0
 10
776.3447
 20
1173.2575
 30
0.0
 10
776.3447
 20
1173.2575
 30
0.0
 10
773.8845
 20
1173.5926
 30
0.0
 10
772.0537
 20
1174.4835
 30
0.0
 10
770.8603
 20
1175.922
 30
0.0
 10
770.8603
 20
1175.922
 30
0.0
 10
769.667
 20
1177.3606
 30
0.0
 10
769.0703
 20
1179.0198
 30
0.0
 10
769.0703
 20
1180.8915
 30
0.0
 10
769.0703
 20
1180.8915
 30
0.0
 10
769.0703
 20
1183.1065
 30
0.0
 10
769.8468
 20
1184.8965
 30
0.0
 10
771.408
 20
1186.2696
 30
0.0
 10
771.408
 20
1186.2696
 30
0.0
 10
772.9691
 20
1187.6509
 30
0.0
 10
775.2331
 20
1188.3375
 30
0.0
 10
778.1919
 20
1188.3375
 30
0.0
 10
778.1919
 20
1188.3375
 30
0.0
 10
778.1919
 20
1188.3375
 30
0.0
 10
790.0107
 20
1188.3375
 30
0.0
 10
790.0107
 20
1188.3375
 30
0.0
  0
SPLINE
  5
7D
330
1F
100
AcDbEntity
  8
layer 1
 62
   250
100
AcDbSpline
210
0.0
220
0.0
230
1.0
 70
    11
 71
     3
 72
    32
 73
    28
 74
     0
 42
0.000000001
 43
0.0000000001
 40
0.0
 40
0.0
 40
0.0
 40
0.0
 40
0.125
 40
0.125
 40
0.125
 40
0.125
 40
0.25
 40
0.25
 40
0.25
 40
0.25
 40
0.375
 40
0.375
 40
0.375
 40
0.375
 40
0.5
 40
0.5
 40
0.5
 40
0.5
 40
0.625
 40
0.625
 40
0.625
 40
0.625
 40
0.75
 40
0.75
 40
0.75
 40
0.75
 40
1.0
 40
1.0
 40
1.0
 40
1.0
 10
785.6951
 20
1184.7575
 30
0.0
 10
785.6951
 20
1184.7575
 30
0.0
 10
779.565
 20
1184.7575
 30
0.0
 10
779.565
 20
1184.7575
 30
0.0
 10
779.565
 20
1184.7575
 30
0.0
 10
776.9986
 20
1184.7575
 30
0.0
 10
775.3394
 20
1184.357
 30
0.0
 10
774.5956
 20
1183.556
 30
0.0
 10
774.5956
 20
1183.556
 30
0.0
 10
773.8518
 20
1182.755
 30
0.0
 10
773.484
 20
1181.8151
 30
0.0
 10
773.484
 20
1180.7444
 30
0.0
 10
773.484
 20
1180.7444
 30
0.0
 10
773.484
 20
1179.2241
 30
0.0
 10
774.0316
 20
1178.1043
 30
0.0
 10
775.1269
 20
1177.3932
 30
0.0
 10
775.1269
 20
1177.3932
 30
0.0
 10
776.2139
 20
1176.6822
 30
0.0
 10
778.151
 20
1176.3225
 30
0.0
 10
780.93
 20
1176.3225
 30
0.0
 10
780.93
 20
1176.3225
 30
0.0
 10
780.93
 20
1176.3225
 30
0.0
 10
785.6951
 20
1176.3225
 30
0.0
 10
785.6951
 20
1176.3225
 30
0.0
 10
785.6951
 20
1176.3225
 30
0.0
 10
785.6951
 20
1176.3225
 30
0.0
 10
785.6951
 20
1184.7575
 30
0.0
 10
785.6951
 20
1184.7575
 30
0.0
  0
SPLINE
  5
7E
330
1F
100
AcDbEntity
  8
layer 1
 62
   250
370
     9
100
AcDbSpline
210
0.0
220
0.0
230
1.0
 70
    11
 71
     3
 72
   444
 73
   440
 74
     0
 42
0.000000001
 43
0.0000000001
 40
0.0
 40
0.0
 40
0.0
 40
0.0
 40
0.009009009009009
 40
0.009009009009009
 40
0.009009009009009
 40
0.009009009009009
 40
0.018018018018018
 40
0.018018018018018
 40
0.018018018018018
 40
0.018018018018018
 40
0.027027027027027
 40
0.027027027027027
 40
0.027027027027027
 40
0.027027027027027
 40
0.036036036036036
 40
0.036036036036036
 40
0.036036036036036
 40
0.036036036036036
 40
0.045045045045045
 40
0.045045045045045
 40
0.045045045045045
 40
0.045045045045045
 40
0.0540540540540541
 40
0.0540540540540541
 40
0.0540540540540541
 40
0.0540540540540541
 40
0.0630630630630631
 40
0.0630630630630631
 40
0.0630630630630631
 40
0.0630630630630631
 40
0.0720720720720721
 40
0.0720720720720721
 40
0.0720720720720721
 40
0.0720720720720721
 40
0.0810810810810811
 40
0.0810810810810811
 40
0.0810810810810811
 40
0.0810810810810811
 40
0.0900900900900901
 40
0.0900900900900901
 40
0.0900900900900901
 40
0.0900900900900901
 40
0.0990990990990991
 40
0.0990990990990991
 40
0.0990990990990991
 40
0.0990990990990991
 40
0.1081081081081081
 40
0.1081081081081081
 40
0.1081081081081081
 40
0.1081081081081081
 40
0.1171171171171171
 40
0.1171171171171171
 40
0.1171171171171171
 40
0.1171171171171171
 40
0.1261261261261261
 40
0.1261261261261261
 40
0.1261261261261261
 40
0.1261261261261261
 40
0.1351351351351351
 40
0.1351351351351351
 40
0.1351351351351351
 40
0.1351351351351351
 40
0.1441441441441441
 40
0.1441441441441441
 40
0.1441441441441441
 40
0.1441441441441441
 40
0.1531531531531531
 40
0.1531531531531531
 40
0.1531531531531531
 40
0.1531531531531531
 40
0.1621621621621622
 40
0.1621621621621622
 40
0.1621621621621622
 40
0.1621621621621622
 40
0.1711711711711712
 40
0.1711711711711712
 40
0.1711711711711712
 40
0.1711711711711712
 40
0.1801801801801802
 40
0.1801801801801802
 40
0.1801801801801802
 40
0.1801801801801802
 40
0.1891891891891892
 40
0.1891891891891892
 40
0.1891891891891892
 40
0.1891891891891892
 40
0.1981981981981982
 40
0.1981981981981982
 40
0.1981981981981982
 40
0.1981981981981982
 40
0.2072072072072072
 40
0.2072072072072072
 40
0.2072072072072072
 40
0.2072072072072072
 40
0.2162162162162162
 40
0.2162162162162162
 40
0.2162162162162162
 40
0.2162162162162162
 40
0.2252252252252252
 40
0.2252252252252252
 40
0.2252252252252252
 40
0.2252252252252252
 40
0.2342342342342342
 40
0.2342342342342342
 40
0.2342342342342342
 40
0.2342342342342342
 40
0.2432432432432433
 40
0.2432432432432433
 40
0.2432432432432433
 40
0.2432432432432433
 40
0.2522522522522522
 40
0.2522522522522522
 40
0.2522522522522522
 40
0.2522522522522522
 40
0.2612612612612613
 40
0.2612612612612613
 40
0.2612612612612613
 40
0.2612612612612613
 40
0.2702702702702703
 40
0.2702702702702703
 40
0.2702702702702703
 40
0.2702702702702703
 40
0.2792792792792793
 40
0.2792792792792793
 40
0.2792792792792793
 40
0.2792792792792793
 40
0.2882882882882883
 40
0.2882882882882883
 40
0.2882882882882883
 40
0.2882882882882883
 40
0.2972972972972973
 40
0.2972972972972973
 40
0.2972972972972973
 40
0.2972972972972973
 40
0.3063063063063063
 40
0.3063063063063063
 40
0.3063063063063063
 40
0.3063063063063063
 40
0.3153153153153153
 40
0.3153153153153153
 40
0.3153153153153153
 40
0.3153153153153153
 40
0.3243243243243243
 40
0.3243243243243243
 40
0.3243243243243243
 40
0.3243243243243243
 40
0.3333333333333333
 40
0.3333333333333333
 40
0.3333333333333333
 40
0.3333333333333333
 40
0.3423423423423423
 40
0.3423423423423423
 40
0.3423423423423423
 40
0.3423423423423423
 40
0.3513513513513514
 40
0.3513513513513514
 40
0.3513513513513514
 40
0.3513513513513514
 40
0.3603603603603603
 40
0.3603603603603603
 40
0.3603603603603603
 40
0.3603603603603603
 40
0.3693693693693694
 40
0.3693693693693694
 40
0.3693693693693694
 40
0.3693693693693694
 40
0.3783783783783784
 40
0.3783783783783784
 40
0.3783783783783784
 40
0.3783783783783784
 40
0.3873873873873874
 40
0.3873873873873874
 40
0.3873873873873874
 40
0.3873873873873874
 40
0.3963963963963964
 40
0.3963963963963964
 40
0.3963963963963964
 40
0.3963963963963964
 40
0.4054054054054054
 40
0.4054054054054054
 40
0.4054054054054054
 40
0.4054054054054054
 40
0.4144144144144144
 40
0.4144144144144144
 40
0.4144144144144144
 40
0.4144144144144144
 40
0.4234234234234234
 40
0.4234234234234234
 40
0.4234234234234234
 40
0.4234234234234234
 40
0.4324324324324325
 40
0.4324324324324325
 40
0.4324324324324325
 40
0.4324324324324325
 40
0.4414414414414414
 40
0.4414414414414414
 40
0.4414414414414414
 40
0.4414414414414414
 40
0.4504504504504505
 40
0.4504504504504505
 40
0.4504504504504505
 40
0.4504504504504505
 40
0.4594594594594595
 40
0.4594594594594595
 40
0.4594594594594595
 40
0.4594594594594595
 40
0.4684684684684685
 40
0.4684684684684685
 40
0.4684684684684685
 40
0.4684684684684685
 40
0.4774774774774775
 40
0.4774774774774775
 40
0.4774774774774775
 40
0.4774774774774775
 40
0.4864864864864865
 40
0.4864864864864865
 40
0.4864864864864865
 40
0.4864864864864865
 40
0.4954954954954955
 40
0.4954954954954955
 40
0.4954954954954955
 40
0.4954954954954955
 40
0.5045045045045045
 40
0.5045045045045045
 40
0.5045045045045045
 40
0.5045045045045045
 40
0.5135135135135135
 40
0.5135135135135135
 40
0.5135135135135135
 40
0.5135135135135135
 40
0.5225225225225225
 40
0.5225225225225225
 40
0.5225225225225225
 40
0.5225225225225225
 40
0.5315315315315315
 40
0.5315315315315315
 40
0.5315315315315315
 40
0.5315315315315315
 40
0.5405405405405406
 40
0.5405405405405406
 40
0.5405405405405406
 40
0.5405405405405406
 40
0.5495495495495496
 40
0.5495495495495496
 40
0.5495495495495496
 40
0.5495495495495496
 40
0.5585585585585585
 40
0.5585585585585585
 40
0.5585585585585585
 40
0.5585585585585585
 40
0.5675675675675675
 40
0.5675675675675675
 40
0.5675675675675675
 40
0.5675675675675675
 40
0.5765765765765766
 40
0.5765765765765766
 40
0.5765765765765766
 40
0.5765765765765766
 40
0.5855855855855856
 40
0.5855855855855856
 40
0.5855855855855856
 40
0.5855855855855856
 40
0.5945945945945946
 40
0.5945945945945946
 40
0.5945945945945946
 40
0.5945945945945946
 40
0.6036036036036037
 40
0.6036036036036037
 40
0.6036036036036037
 40
0.6036036036036037
 40
0.6126126126126126
 40
0.6126126126126126
 40
0.6126126126126126
 40
0.6126126126126126
 40
0.6216216216216216
 40
0.6216216216216216
 40
0.6216216216216216
 40
0.6216216216216216
 40
0.6306306306306306
 40
0.6306306306306306
 40
0.6306306306306306
 40
0.6306306306306306
 40
0.6396396396396397
 40
0.6396396396396397
 40
0.6396396396396397
 40
0.6396396396396397
 40
0.6486486486486487
 40
0.6486486486486487
 40
0.6486486486486487
 40
0.6486486486486487
 40
0.6576576576576577
 40
0.6576576576576577
 40
0.6576576576576577
 40
0.6576576576576577
 40
0.6666666666666666
 40
0.6666666666666666
 40
0.6666666666666666
 40
0.6666666666666666
 40
0.6756756756756757
 40
0.6756756756756757
 40
0.6756756756756757
 40
0.6756756756756757
 40
0.6846846846846847
 40
0.6846846846846847
 40
0.6846846846846847
 40
0.6846846846846847
 40
0.6936936936936937
 40
0.6936936936936937
 40
0.6936936936936937
 40
0.6936936936936937
 40
0.7027027027027027
 40
0.7027027027027027
 40
0.7027027027027027
 40
0.7027027027027027
 40
0.7117117117117117
 40
0.7117117117117117
 40
0.7117117117117117
 40
0.7117117117117117
 40
0.7207207207207207
 40
0.7207207207207207
 40
0.7207207207207207
 40
0.7207207207207207
 40
0.7297297297297297
 40
0.7297297297297297
 40
0.7297297297297297
 40
0.7297297297297297
 40
0.7387387387387387
 40
0.7387387387387387
 40
0.7387387387387387
 40
0.7387387387387387
 40
0.7477477477477478
 40
0.7477477477477478
 40
0.7477477477477478
 40
0.7477477477477478
 40
0.7567567567567568
 40
0.7567567567567568
 40
0.7567567567567568
 40
0.7567567567567568
 40
0.7657657657657657
 40
0.7657657657657657
 40
0.7657657657657657
 40
0.7657657657657657
 40
0.7747747747747747
 40
0.7747747747747747
 40
0.7747747747747747
 40
0.7747747747747747
 40
0.7837837837837838
 40
0.7837837837837838
 40
0.7837837837837838
 40
0.7837837837837838
 40
0.7927927927927928
 40
0.7927927927927928
 40
0.7927927927927928
 40
0.7927927927927928
 40
0.8018018018018018
 40
0.8018018018018018
 40
0.8018018018018018
 40
0.8018018018018018
 40
0.8108108108108109
 40
0.8108108108108109
 40
0.8108108108108109
 40
0.8108108108108109
 40
0.8198198198198198
 40
0.8198198198198198
 40
0.8198198198198198
 40
0.8198198198198198
 40
0.8288288288288288
 40
0.8288288288288288
 40
0.8288288288288288
 40
0.8288288288288288
 40
0.8378378378378378
 40
0.8378378378378378
 40
0.8378378378378378
 40
0.8378378378378378
 40
0.8468468468468469
 40
0.8468468468468469
 40
0.8468468468468469
 40
0.8468468468468469
 40
0.8558558558558559
 40
0.8558558558558559
 40
0.8558558558558559
 40
0.8558558558558559
 40
0.8648648648648649
 40
0.8648648648648649
 40
0.8648648648648649
 40
0.8648648648648649
 40
0.8738738738738738
 40
0.8738738738738738
 40
0.8738738738738738
 40
0.8738738738738738
 40
0.8828828828828829
 40
0.8828828828828829
 40
0.8828828828828829
 40
0.8828828828828829
 40
0.8918918918918919
 40
0.8918918918918919
 40
0.8918918918918919
 40
0.8918918918918919
 40
0.9009009009009009
 40
0.9009009009009009
 40
0.9009009009009009
 40
0.9009009009009009
 40
0.9099099099099099
 40
0.9099099099099099
 40
0.9099099099099099
 40
0.9099099099099099
 40
0.918918918918919
 40
0.918918918918919
 40
0.918918918918919
 40
0.918918918918919
 40
0.9279279279279279
 40
0.9279279279279279
 40
0.9279279279279279
 40
0.9279279279279279
 40
0.9369369369369369
 40
0.9369369369369369
 40
0.9369369369369369
 40
0.9369369369369369
 40
0.9459459459459459
 40
0.9459459459459459
 40
0.9459459459459459
 40
0.9459459459459459
 40
0.954954954954955
 40
0.954954954954955
 40
0.954954954954955
 40
0.954954954954955
 40
0.963963963963964
 40
0.963963963963964
 40
0.963963963963964
 40
0.963963963963964
 40
0.972972972972973
 40
0.972972972972973
 40
0.972972972972973
 40
0.972972972972973
 40
0.9819819819819819
 40
0.9819819819819819
 40
0.9819819819819819
 40
0.9819819819819819
 40
1.0
 40
1.0
 40
1.0
 40
1.0
 10
-363.5497
 20
573.9933
 30
0.0
 10
-363.5497
 20
573.9933
 30
0.0
 10
-363.5497
 20
625.8889
 30
0.0
 10
-363.5497
 20
625.8889
 30
0.0
 10
-363.5497
 20
625.8889
 30
0.0
 10
-363.5497
 20
625.8889
 30
0.0
 10
-353.8828
 20
625.8889
 30
0.0
 10
-353.8828
 20
625.8889
 30
0.0
 10
-353.8828
 20
625.8889
 30
0.0
 10
-353.8828
 20
625.8889
 30
0.0
 10
-353.8828
 20
623.9943
 30
0.0
 10
-353.8828
 20
623.9943
 30
0.0
 10
-353.8828
 20
623.9943
 30
0.0
 10
-353.8828
 20
623.9943
 30
0.0
 10
-353.8828
 20
605.1807
 30
0.0
 10
-353.8828
 20
605.1807
 30
0.0
 10
-353.8828
 20
605.1807
 30
0.0
 10
-353.8828
 20
605.1807
 30
0.0
 10
-352.7826
 20
605.1807
 30
0.0
 10
-352.7826
 20
605.1807
 30
0.0
 10
-352.7826
 20
605.1807
 30
0.0
 10
-352.7826
 20
605.1807
 30
0.0
 10
-349.083
 20
605.1807
 30
0.0
 10
-349.083
 20
605.1807
 30
0.0
 10
-349.083
 20
605.1807
 30
0.0
 10
-349.083
 20
605.1807
 30
0.0
 10
-347.9828
 20
605.1807
 30
0.0
 10
-347.9828
 20
605.1807
 30
0.0
 10
-347.9828
 20
605.1807
 30
0.0
 10
-347.9828
 20
605.1807
 30
0.0
 10
-347.9828
 20
625.8889
 30
0.0
 10
-347.9828
 20
625.8889
 30
0.0
 10
-347.9828
 20
625.8889
 30
0.0
 10
-347.9828
 20
625.8889
 30
0.0
 10
-318.9485
 20
625.8889
 30
0.0
 10
-318.9485
 20
625.8889
 30
0.0
 10
-318.9485
 20
625.8889
 30
0.0
 10
-318.9485
 20
625.8889
 30
0.0
 10
-297.783
 20
625.8889
 30
0.0
 10
-297.783
 20
625.8889
 30
0.0
 10
-297.783
 20
625.8889
 30
0.0
 10
-297.783
 20
625.8889
 30
0.0
 10
-297.783
 20
629.5876
 30
0.0
 10
-297.783
 20
629.5876
 30
0.0
 10
-297.783
 20
629.5876
 30
0.0
 10
-297.783
 20
629.5876
 30
0.0
 10
-297.783
 20
631.7889
 30
0.0
 10
-297.783
 20
631.7889
 30
0.0
 10
-297.783
 20
631.7889
 30
0.0
 10
-297.783
 20
631.7889
 30
0.0
 10
-316.275
 20
631.7889
 30
0.0
 10
-316.275
 20
631.7889
 30
0.0
 10
-316.275
 20
631.7889
 30
0.0
 10
-316.275
 20
631.7889
 30
0.0
 10
-344.2799
 20
631.7889
 30
0.0
 10
-344.2799
 20
631.7889
 30
0.0
 10
-344.2799
 20
631.7889
 30
0.0
 10
-344.2799
 20
631.7889
 30
0.0
 10
-347.9827
 20
631.7889
 30
0.0
 10
-347.9827
 20
631.7889
 30
0.0
 10
-347.9827
 20
631.7889
 30
0.0
 10
-347.9827
 20
631.7889
 30
0.0
 10
-347.9827
 20
635.4917
 30
0.0
 10
-347.9827
 20
635.4917
 30
0.0
 10
-347.9827
 20
635.4917
 30
0.0
 10
-347.9827
 20
635.4917
 30
0.0
 10
-347.9827
 20
661.1362
 30
0.0
 10
-347.9827
 20
661.1362
 30
0.0
 10
-347.9827
 20
661.1362
 30
0.0
 10
-347.9827
 20
661.1362
 30
0.0
 10
-347.9827
 20
663.0862
 30
0.0
 10
-347.9827
 20
663.0862
 30
0.0
 10
-347.9827
 20
663.0862
 30
0.0
 10
-347.9827
 20
665.1227
 30
0.0
 10
-346.3165
 20
666.7889
 30
0.0
 10
-344.2799
 20
666.7889
 30
0.0
 10
-344.2799
 20
666.7889
 30
0.0
 10
-344.2799
 20
666.7889
 30
0.0
 10
-342.33
 20
666.7889
 30
0.0
 10
-342.33
 20
666.7889
 30
0.0
 10
-342.33
 20
666.7889
 30
0.0
 10
-342.33
 20
666.7889
 30
0.0
 10
-287.5855
 20
666.7889
 30
0.0
 10
-287.5855
 20
666.7889
 30
0.0
 10
-287.5855
 20
666.7889
 30
0.0
 10
-287.5855
 20
666.7889
 30
0.0
 10
-283.8828
 20
666.7889
 30
0.0
 10
-283.8828
 20
666.7889
 30
0.0
 10
-283.8828
 20
666.7889
 30
0.0
 10
-283.8828
 20
666.7889
 30
0.0
 10
-283.8828
 20
663.5143
 30
0.0
 10
-283.8828
 20
663.5143
 30
0.0
 10
-283.8828
 20
663.5143
 30
0.0
 10
-283.8828
 20
663.5143
 30
0.0
 10
-283.8828
 20
663.0862
 30
0.0
 10
-283.8828
 20
663.0862
 30
0.0
 10
-283.8828
 20
663.0862
 30
0.0
 10
-283.8828
 20
663.0862
 30
0.0
 10
-283.8828
 20
644.7008
 30
0.0
 10
-283.8828
 20
644.7008
 30
0.0
 10
-283.8828
 20
644.7008
 30
0.0
 10
-283.8828
 20
644.7008
 30
0.0
 10
-282.7827
 20
644.7008
 30
0.0
 10
-282.7827
 20
644.7008
 30
0.0
 10
-282.7827
 20
644.7008
 30
0.0
 10
-282.7827
 20
644.7008
 30
0.0
 10
-279.083
 20
644.7008
 30
0.0
 10
-279.083
 20
644.7008
 30
0.0
 10
-279.083
 20
644.7008
 30
0.0
 10
-279.083
 20
644.7008
 30
0.0
 10
-277.9828
 20
644.7008
 30
0.0
 10
-277.9828
 20
644.7008
 30
0.0
 10
-277.9828
 20
644.7008
 30
0.0
 10
-277.9828
 20
644.7008
 30
0.0
 10
-277.9828
 20
731.7889
 30
0.0
 10
-277.9828
 20
731.7889
 30
0.0
 10
-277.9828
 20
731.7889
 30
0.0
 10
-277.9828
 20
731.7889
 30
0.0
 10
-248.9486
 20
731.7889
 30
0.0
 10
-248.9486
 20
731.7889
 30
0.0
 10
-248.9486
 20
731.7889
 30
0.0
 10
-248.9486
 20
731.7889
 30
0.0
 10
-227.7831
 20
731.7889
 30
0.0
 10
-227.7831
 20
731.7889
 30
0.0
 10
-227.7831
 20
731.7889
 30
0.0
 10
-227.7831
 20
731.7889
 30
0.0
 10
-227.7831
 20
735.4876
 30
0.0
 10
-227.7831
 20
735.4876
 30
0.0
 10
-227.7831
 20
735.4876
 30
0.0
 10
-227.7831
 20
735.4876
 30
0.0
 10
-227.7831
 20
737.6889
 30
0.0
 10
-227.7831
 20
737.6889
 30
0.0
 10
-227.7831
 20
737.6889
 30
0.0
 10
-227.7831
 20
737.6889
 30
0.0
 10
-246.275
 20
737.6889
 30
0.0
 10
-246.275
 20
737.6889
 30
0.0
 10
-246.275
 20
737.6889
 30
0.0
 10
-246.275
 20
737.6889
 30
0.0
 10
-274.28
 20
737.6889
 30
0.0
 10
-274.28
 20
737.6889
 30
0.0
 10
-274.28
 20
737.6889
 30
0.0
 10
-274.28
 20
737.6889
 30
0.0
 10
-277.9828
 20
737.6889
 30
0.0
 10
-277.9828
 20
737.6889
 30
0.0
 10
-277.9828
 20
737.6889
 30
0.0
 10
-277.9828
 20
737.6889
 30
0.0
 10
-277.9828
 20
741.3917
 30
0.0
 10
-277.9828
 20
741.3917
 30
0.0
 10
-277.9828
 20
741.3917
 30
0.0
 10
-277.9828
 20
741.3917
 30
0.0
 10
-277.9828
 20
767.0362
 30
0.0
 10
-277.9828
 20
767.0362
 30
0.0
 10
-277.9828
 20
767.0362
 30
0.0
 10
-277.9828
 20
767.0362
 30
0.0
 10
-277.9828
 20
768.9862
 30
0.0
 10
-277.9828
 20
768.9862
 30
0.0
 10
-277.9828
 20
768.9862
 30
0.0
 10
-277.9828
 20
771.0227
 30
0.0
 10
-276.3166
 20
772.6889
 30
0.0
 10
-274.28
 20
772.6889
 30
0.0
 10
-274.28
 20
772.6889
 30
0.0
 10
-274.28
 20
772.6889
 30
0.0
 10
-272.3301
 20
772.6889
 30
0.0
 10
-272.3301
 20
772.6889
 30
0.0
 10
-272.3301
 20
772.6889
 30
0.0
 10
-272.3301
 20
772.6889
 30
0.0
 10
-217.5856
 20
772.6889
 30
0.0
 10
-217.5856
 20
772.6889
 30
0.0
 10
-217.5856
 20
772.6889
 30
0.0
 10
-217.5856
 20
772.6889
 30
0.0
 10
-213.8829
 20
772.6889
 30
0.0
 10
-213.8829
 20
772.6889
 30
0.0
 10
-213.8829
 20
772.6889
 30
0.0
 10
-213.8829
 20
772.6889
 30
0.0
 10
-213.8829
 20
769.4143
 30
0.0
 10
-213.8829
 20
769.4143
 30
0.0
 10
-213.8829
 20
769.4143
 30
0.0
 10
-213.8829
 20
769.4143
 30
0.0
 10
-213.8829
 20
768.9862
 30
0.0
 10
-213.8829
 20
768.9862
 30
0.0
 10
-213.8829
 20
768.9862
 30
0.0
 10
-213.8829
 20
768.9862
 30
0.0
 10
-213.8829
 20
750.6007
 30
0.0
 10
-213.8829
 20
750.6007
 30
0.0
 10
-213.8829
 20
750.6007
 30
0.0
 10
-213.8829
 20
750.6007
 30
0.0
 10
-212.7827
 20
750.6007
 30
0.0
 10
-212.7827
 20
750.6007
 30
0.0
 10
-212.7827
 20
750.6007
 30
0.0
 10
-212.7827
 20
750.6007
 30
0.0
 10
-209.0831
 20
750.6007
 30
0.0
 10
-209.0831
 20
750.6007
 30
0.0
 10
-209.0831
 20
750.6007
 30
0.0
 10
-209.0831
 20
750.6007
 30
0.0
 10
-207.9829
 20
750.6007
 30
0.0
 10
-207.9829
 20
750.6007
 30
0.0
 10
-207.9829
 20
750.6007
 30
0.0
 10
-207.9829
 20
750.6007
 30
0.0
 10
-207.9829
 20
837.6889
 30
0.0
 10
-207.9829
 20
837.6889
 30
0.0
 10
-207.9829
 20
837.6889
 30
0.0
 10
-207.9829
 20
837.6889
 30
0.0
 10
-178.9487
 20
837.6889
 30
0.0
 10
-178.9487
 20
837.6889
 30
0.0
 10
-178.9487
 20
837.6889
 30
0.0
 10
-178.9487
 20
837.6889
 30
0.0
 10
-157.7832
 20
837.6889
 30
0.0
 10
-157.7832
 20
837.6889
 30
0.0
 10
-157.7832
 20
837.6889
 30
0.0
 10
-157.7832
 20
837.6889
 30
0.0
 10
-157.7832
 20
841.3875
 30
0.0
 10
-157.7832
 20
841.3875
 30
0.0
 10
-157.7832
 20
841.3875
 30
0.0
 10
-157.7832
 20
841.3875
 30
0.0
 10
-157.7832
 20
843.5889
 30
0.0
 10
-157.7832
 20
843.5889
 30
0.0
 10
-157.7832
 20
843.5889
 30
0.0
 10
-157.7832
 20
843.5889
 30
0.0
 10
-176.2751
 20
843.5889
 30
0.0
 10
-176.2751
 20
843.5889
 30
0.0
 10
-176.2751
 20
843.5889
 30
0.0
 10
-176.2751
 20
843.5889
 30
0.0
 10
-204.2801
 20
843.5889
 30
0.0
 10
-204.2801
 20
843.5889
 30
0.0
 10
-204.2801
 20
843.5889
 30
0.0
 10
-204.2801
 20
843.5889
 30
0.0
 10
-207.9829
 20
843.5889
 30
0.0
 10
-207.9829
 20
843.5889
 30
0.0
 10
-207.9829
 20
843.5889
 30
0.0
 10
-207.9829
 20
843.5889
 30
0.0
 10
-207.9829
 20
847.2917
 30
0.0
 10
-207.9829
 20
847.2917
 30
0.0
 10
-207.9829
 20
847.2917
 30
0.0
 10
-207.9829
 20
847.2917
 30
0.0
 10
-207.9829
 20
872.9362
 30
0.0
 10
-207.9829
 20
872.9362
 30
0.0
 10
-207.9829
 20
872.9362
 30
0.0
 10
-207.9829
 20
872.9362
 30
0.0
 10
-207.9829
 20
874.8862
 30
0.0
 10
-207.9829
 20
874.8862
 30
0.0
 10
-207.9829
 20
874.8862
 30
0.0
 10
-207.9829
 20
876.9227
 30
0.0
 10
-206.3167
 20
878.5889
 30
0.0
 10
-204.2801
 20
878.5889
 30
0.0
 10
-204.2801
 20
878.5889
 30
0.0
 10
-204.2801
 20
878.5889
 30
0.0
 10
-202.3302
 20
878.5889
 30
0.0
 10
-202.3302
 20
878.5889
 30
0.0
 10
-202.3302
 20
878.5889
 30
0.0
 10
-202.3302
 20
878.5889
 30
0.0
 10
-147.5857
 20
878.5889
 30
0.0
 10
-147.5857
 20
878.5889
 30
0.0
 10
-147.5857
 20
878.5889
 30
0.0
 10
-147.5857
 20
878.5889
 30
0.0
 10
-143.883
 20
878.5889
 30
0.0
 10
-143.883
 20
878.5889
 30
0.0
 10
-143.883
 20
878.5889
 30
0.0
 10
-143.883
 20
878.5889
 30
0.0
 10
-143.883
 20
875.3142
 30
0.0
 10
-143.883
 20
875.3142
 30
0.0
 10
-143.883
 20
875.3142
 30
0.0
 10
-143.883
 20
875.3142
 30
0.0
 10
-143.883
 20
874.8862
 30
0.0
 10
-143.883
 20
874.8862
 30
0.0
 10
-143.883
 20
874.8862
 30
0.0
 10
-143.883
 20
874.8862
 30
0.0
 10
-143.883
 20
856.5007
 30
0.0
 10
-143.883
 20
856.5007
 30
0.0
 10
-143.883
 20
856.5007
 30
0.0
 10
-143.883
 20
856.5007
 30
0.0
 10
-142.7828
 20
856.5007
 30
0.0
 10
-142.7828
 20
856.5007
 30
0.0
 10
-142.7828
 20
856.5007
 30
0.0
 10
-142.7828
 20
856.5007
 30
0.0
 10
-139.0831
 20
856.5007
 30
0.0
 10
-139.0831
 20
856.5007
 30
0.0
 10
-139.0831
 20
856.5007
 30
0.0
 10
-139.0831
 20
856.5007
 30
0.0
 10
-137.983
 20
856.5007
 30
0.0
 10
-137.983
 20
856.5007
 30
0.0
 10
-137.983
 20
856.5007
 30
0.0
 10
-137.983
 20
856.5007
 30
0.0
 10
-137.983
 20
943.5889
 30
0.0
 10
-137.983
 20
943.5889
 30
0.0
 10
-137.983
 20
943.5889
 30
0.0
 10
-137.983
 20
943.5889
 30
0.0
 10
-108.9487
 20
943.5889
 30
0.0
 10
-108.9487
 20
943.5889
 30
0.0
 10
-108.9487
 20
943.5889
 30
0.0
 10
-108.9487
 20
943.5889
 30
0.0
 10
-87.7832
 20
943.5889
 30
0.0
 10
-87.7832
 20
943.5889
 30
0.0
 10
-87.7832
 20
943.5889
 30
0.0
 10
-87.7832
 20
943.5889
 30
0.0
 10
-87.7832
 20
947.2876
 30
0.0
 10
-87.7832
 20
947.2876
 30
0.0
 10
-87.7832
 20
947.2876
 30
0.0
 10
-87.7832
 20
947.2876
 30
0.0
 10
-87.7832
 20
949.4889
 30
0.0
 10
-87.7832
 20
949.4889
 30
0.0
 10
-87.7832
 20
949.4889
 30
0.0
 10
-87.7832
 20
949.4889
 30
0.0
 10
-106.2752
 20
949.4889
 30
0.0
 10
-106.2752
 20
949.4889
 30
0.0
 10
-106.2752
 20
949.4889
 30
0.0
 10
-106.2752
 20
949.4889
 30
0.0
 10
-134.2801
 20
949.4889
 30
0.0
 10
-134.2801
 20
949.4889
 30
0.0
 10
-134.2801
 20
949.4889
 30
0.0
 10
-134.2801
 20
949.4889
 30
0.0
 10
-137.9829
 20
949.4889
 30
0.0
 10
-137.9829
 20
949.4889
 30
0.0
 10
-137.9829
 20
949.4889
 30
0.0
 10
-137.9829
 20
949.4889
 30
0.0
 10
-137.9829
 20
953.1917
 30
0.0
 10
-137.9829
 20
953.1917
 30
0.0
 10
-137.9829
 20
953.1917
 30
0.0
 10
-137.9829
 20
953.1917
 30
0.0
 10
-137.9829
 20
978.8362
 30
0.0
 10
-137.9829
 20
978.8362
 30
0.0
 10
-137.9829
 20
978.8362
 30
0.0
 10
-137.9829
 20
978.8362
 30
0.0
 10
-137.9829
 20
980.7862
 30
0.0
 10
-137.9829
 20
980.7862
 30
0.0
 10
-137.9829
 20
980.7862
 30
0.0
 10
-137.9829
 20
982.8227
 30
0.0
 10
-136.3167
 20
984.4889
 30
0.0
 10
-134.2801
 20
984.4889
 30
0.0
 10
-134.2801
 20
984.4889
 30
0.0
 10
-134.2801
 20
984.4889
 30
0.0
 10
-132.3302
 20
984.4889
 30
0.0
 10
-132.3302
 20
984.4889
 30
0.0
 10
-132.3302
 20
984.4889
 30
0.0
 10
-132.3302
 20
984.4889
 30
0.0
 10
-77.5857
 20
984.4889
 30
0.0
 10
-77.5857
 20
984.4889
 30
0.0
 10
-77.5857
 20
984.4889
 30
0.0
 10
-77.5857
 20
984.4889
 30
0.0
 10
-73.883
 20
984.4889
 30
0.0
 10
-73.883
 20
984.4889
 30
0.0
 10
-73.883
 20
984.4889
 30
0.0
 10
-73.883
 20
984.4889
 30
0.0
 10
-73.883
 20
981.2143
 30
0.0
 10
-73.883
 20
981.2143
 30
0.0
 10
-73.883
 20
981.2143
 30
0.0
 10
-73.883
 20
981.2143
 30
0.0
 10
-73.883
 20
980.7862
 30
0.0
 10
-73.883
 20
980.7862
 30
0.0
 10
-73.883
 20
980.7862
 30
0.0
 10
-73.883
 20
980.7862
 30
0.0
 10
-73.883
 20
962.4008
 30
0.0
 10
-73.883
 20
962.4008
 30
0.0
 10
-73.883
 20
962.4008
 30
0.0
 10
-73.883
 20
962.4008
 30
0.0
 10
-72.7828
 20
962.4008
 30
0.0
 10
-72.7828
 20
962.4008
 30
0.0
 10
-72.7828
 20
962.4008
 30
0.0
 10
-72.7828
 20
962.4008
 30
0.0
 10
-69.0832
 20
962.4008
 30
0.0
 10
-69.0832
 20
962.4008
 30
0.0
 10
-69.0832
 20
962.4008
 30
0.0
 10
-69.0832
 20
962.4008
 30
0.0
 10
-67.983
 20
962.4008
 30
0.0
 10
-67.983
 20
962.4008
 30
0.0
 10
-67.983
 20
962.4008
 30
0.0
 10
-67.983
 20
962.4008
 30
0.0
 10
-67.983
 20
1049.4889
 30
0.0
 10
-67.983
 20
1049.4889
 30
0.0
 10
-67.983
 20
1049.4889
 30
0.0
 10
-67.983
 20
1049.4889
 30
0.0
 10
-38.8411
 20
1049.4889
 30
0.0
 10
-38.8411
 20
1049.4889
 30
0.0
 10
-38.8411
 20
1049.4889
 30
0.0
 10
-38.8411
 20
1049.4889
 30
0.0
 10
-17.6756
 20
1049.4889
 30
0.0
 10
-17.6756
 20
1049.4889
 30
0.0
 10
-17.6756
 20
1049.4889
 30
0.0
 10
-17.6756
 20
1049.4889
 30
0.0
 10
-17.6756
 20
1053.1876
 30
0.0
 10
-17.6756
 20
1053.1876
 30
0.0
 10
-17.6756
 20
1053.1876
 30
0.0
 10
-17.6756
 20
1053.1876
 30
0.0
 10
-17.6756
 20
1055.3889
 30
0.0
 10
-17.6756
 20
1055.3889
 30
0.0
 10
-17.6756
 20
1055.3889
 30
0.0
 10
-17.6756
 20
1055.3889
 30
0.0
 10
-36.2314
 20
1055.3889
 30
0.0
 10
-36.2314
 20
1055.3889
 30
0.0
 10
-36.2314
 20
1055.3889
 30
0.0
 10
-35.545
 20
1075.6589
 30
0.0
 10
-24.8692
 20
1068.4081
 30
0.0
 10
-0.1834
 20
1068.193
 30
0.0
 10
-0.1834
 20
1068.193
 30
0.0
 10
-0.1834
 20
1068.193
 30
0.0
 10
-0.1834
 20
1018.1838
 30
0.0
 10
-0.1834
 20
1018.1838
 30
0.0
 10
-0.1834
 20
1018.1838
 30
0.0
 10
-0.1834
 20
1018.1838
 30
0.0
 10
0.9168
 20
1018.1838
 30
0.0
 10
0.9168
 20
1018.1838
 30
0.0
 10
0.9168
 20
1018.1838
 30
0.0
 10
0.9168
 20
1018.1838
 30
0.0
 10
4.6174
 20
1018.1838
 30
0.0
 10
4.6174
 20
1018.1838
 30
0.0
 10
4.6174
 20
1018.1838
 30
0.0
 10
4.6174
 20
1018.1838
 30
0.0
 10
5.7167
 20
1018.1838
 30
0.0
 10
5.7167
 20
1018.1838
 30
0.0
 10
5.7167
 20
1018.1838
 30
0.0
 10
5.7167
 20
1018.1838
 30
0.0
 10
5.7167
 20
1068.1775
 30
0.0
 10
5.7167
 20
1068.1775
 30
0.0
 10
5.7167
 20
1068.1775
 30
0.0
 10
5.7167
 20
1068.1775
 30
0.0
 10
33.4171
 20
1068.1775
 30
0.0
 10
33.4171
 20
1068.1775
 30
0.0
 10
33.4171
 20
1068.1775
 30
0.0
 10
33.4171
 20
1068.1775
 30
0.0
 10
33.4171
 20
622.5373
 30
0.0
 10
33.4171
 20
622.5373
 30
0.0
 10
33.4171
 20
622.5373
 30
0.0
 10
33.4171
 20
622.5373
 30
0.0
 10
-16.5829
 20
622.5373
 30
0.0
 10
-16.5829
 20
622.5373
 30
0.0
 10
-16.5829
 20
622.5373
 30
0.0
 10
-16.5829
 20
622.5373
 30
0.0
 10
-16.5829
 20
616.6373
 30
0.0
 10
-16.5829
 20
616.6373
 30
0.0
 10
-16.5829
 20
616.6373
 30
0.0
 10
-16.5829
 20
616.6373
 30
0.0
 10
33.4171
 20
616.6373
 30
0.0
 10
33.4171
 20
616.6373
 30
0.0
 10
33.4171
 20
616.6373
 30
0.0
 10
33.4171
 20
616.6373
 30
0.0
 10
33.4171
 20
573.9933
 30
0.0
 10
33.4171
 20
573.9933
 30
0.0
 10
33.4171
 20
573.9933
 30
0.0
 10
-98.9068
 20
573.9933
 30
0.0
 10
-231.3
 20
573.9933
 30
0.0
 10
-363.5497
 20
573.9933
 30
0.0
  0
SPLINE
  5
7F
330
1F
100
AcDbEntity
  8
layer 1
 62
   250
370
     9
100
AcDbSpline
210
0.0
220
0.0
230
1.0
 70
     8
 71
     3
 72
    64
 73
    60
 74
     0
 42
0.000000001
 43
0.0000000001
 40
0.0
 40
0.0
 40
0.0
 40
0.0
 40
0.0625
 40
0.0625
 40
0.0625
 40
0.0625
 40
0.125
 40
0.125
 40
0.125
 40
0.125
 40
0.1875
 40
0.1875
 40
0.1875
 40
0.1875
 40
0.25
 40
0.25
 40
0.25
 40
0.25
 40
0.3125
 40
0.3125
 40
0.3125
 40
0.3125
 40
0.375
 40
0.375
 40
0.375
 40
0.375
 40
0.4375
 40
0.4375
 40
0.4375
 40
0.4375
 40
0.5
 40
0.5
 40
0.5
 40
0.5
 40
0.5625
 40
0.5625
 40
0.5625
 40
0.5625
 40
0.625
 40
0.625
 40
0.625
 40
0.625
 40
0.6875
 40
0.6875
 40
0.6875
 40
0.6875
 40
0.75
 40
0.75
 40
0.75
 40
0.75
 40
0.8125
 40
0.8125
 40
0.8125
 40
0.8125
 40
0.875
 40
0.875
 40
0.875
 40
0.875
 40
1.0
 40
1.0
 40
1.0
 40
1.0
 10
975.5463
 20
587.2966
 30
0.0
 10
975.5463
 20
587.2966
 30
0.0
 10
975.5463
 20
602.4035
 30
0.0
 10
975.5463
 20
602.4035
 30
0.0
 10
975.5463
 20
602.4035
 30
0.0
 10
975.5463
 20
602.4035
 30
0.0
 10
976.6443
 20
602.4035
 30
0.0
 10
976.6443
 20
602.4035
 30
0.0
 10
976.6443
 20
602.4035
 30
0.0
 10
976.6443
 20
602.4035
 30
0.0
 10
980.3443
 20
602.4035
 30
0.0
 10
980.3443
 20
602.4035
 30
0.0
 10
980.3443
 20
602.4035
 30
0.0
 10
980.3443
 20
602.4035
 30
0.0
 10
981.4463
 20
602.4035
 30
0.0
 10
981.4463
 20
602.4035
 30
0.0
 10
981.4463
 20
602.4035
 30
0.0
 10
981.4463
 20
602.4035
 30
0.0
 10
981.4463
 20
587.2927
 30
0.0
 10
981.4463
 20
587.2927
 30
0.0
 10
981.4463
 20
587.2927
 30
0.0
 10
981.4463
 20
587.2927
 30
0.0
 10
990.3443
 20
587.2927
 30
0.0
 10
990.3443
 20
587.2927
 30
0.0
 10
990.3443
 20
587.2927
 30
0.0
 10
990.3443
 20
587.2927
 30
0.0
 10
990.3443
 20
689.4916
 30
0.0
 10
990.3443
 20
689.4916
 30
0.0
 10
990.3443
 20
689.4916
 30
0.0
 10
990.3443
 20
689.4916
 30
0.0
 10
420.3443
 20
689.4916
 30
0.0
 10
420.3443
 20
689.4916
 30
0.0
 10
420.3443
 20
689.4916
 30
0.0
 10
420.3443
 20
689.4916
 30
0.0
 10
420.3443
 20
587.2927
 30
0.0
 10
420.3443
 20
587.2927
 30
0.0
 10
420.3443
 20
587.2927
 30
0.0
 10
420.3443
 20
587.2927
 30
0.0
 10
429.2311
 20
587.2928
 30
0.0
 10
429.2311
 20
587.2928
 30
0.0
 10
429.2311
 20
587.2928
 30
0.0
 10
429.2311
 20
587.2928
 30
0.0
 10
429.2311
 20
602.4035
 30
0.0
 10
429.2311
 20
602.4035
 30
0.0
 10
429.2311
 20
602.4035
 30
0.0
 10
429.2311
 20
602.4035
 30
0.0
 10
430.3443
 20
602.4035
 30
0.0
 10
430.3443
 20
602.4035
 30
0.0
 10
430.3443
 20
602.4035
 30
0.0
 10
430.3443
 20
602.4035
 30
0.0
 10
434.0443
 20
602.4035
 30
0.0
 10
434.0443
 20
602.4035
 30
0.0
 10
434.0443
 20
602.4035
 30
0.0
 10
434.0443
 20
602.4035
 30
0.0
 10
435.1311
 20
602.4035
 30
0.0
 10
435.1311
 20
602.4035
 30
0.0
 10
435.1311
 20
602.4035
 30
0.0
 10
435.1311
 20
602.4035
 30
0.0
 10
435.1311
 20
587.2947
 30
0.0
 10
435.1311
 20
587.2947
 30
0.0
  0
SPLINE
  5
80
330
1F
100
AcDbEntity
  8
layer 1
 62
   250
370
     9
100
AcDbSpline
210
0.0
220
0.0
230
1.0
 70
    11
 71
     3
 72
    68
 73
    64
 74
     0
 42
0.000000001
 43
0.0000000001
 40
0.0
 40
0.0
 40
0.0
 40
0.0
 40
0.0588235294117647
 40
0.0588235294117647
 40
0.0588235294117647
 40
0.0588235294117647
 40
0.1176470588235294
 40
0.1176470588235294
 40
0.1176470588235294
 40
0.1176470588235294
 40
0.1764705882352941
 40
0.1764705882352941
 40
0.1764705882352941
 40
0.1764705882352941
 40
0.2352941176470588
 40
0.2352941176470588
 40
0.2352941176470588
 40
0.2352941176470588
 40
0.2941176470588235
 40
0.2941176470588235
 40
0.2941176470588235
 40
0.2941176470588235
 40
0.3529411764705883
 40
0.3529411764705883
 40
0.3529411764705883
 40
0.3529411764705883
 40
0.4117647058823529
 40
0.4117647058823529
 40
0.4117647058823529
 40
0.4117647058823529
 40
0.4705882352941176
 40
0.4705882352941176
 40
0.4705882352941176
 40
0.4705882352941176
 40
0.5294117647058824
 40
0.5294117647058824
 40
0.5294117647058824
 40
0.5294117647058824
 40
0.5882352941176471
 40
0.5882352941176471
 40
0.5882352941176471
 40
0.5882352941176471
 40
0.6470588235294118
 40
0.6470588235294118
 40
0.6470588235294118
 40
0.6470588235294118
 40
0.7058823529411765
 40
0.7058823529411765
 40
0.7058823529411765
 40
0.7058823529411765
 40
0.7647058823529411
 40
0.7647058823529411
 40
0.7647058823529411
 40
0.7647058823529411
 40
0.8235294117647058
 40
0.8235294117647058
 40
0.8235294117647058
 40
0.8235294117647058
 40
0.8823529411764706
 40
0.8823529411764706
 40
0.8823529411764706
 40
0.8823529411764706
 40
1.0
 40
1.0
 40
1.0
 40
1.0
 10
71.143
 20
1099.246
 30
0.0
 10
71.143
 20
1099.246
 30
0.0
 10
71.1463
 20
558.8306
 30
0.0
 10
71.1463
 20
558.8306
 30
0.0
 10
71.1463
 20
558.8306
 30
0.0
 10
71.1463
 20
558.8306
 30
0.0
 10
121.1463
 20
558.8306
 30
0.0
 10
121.1463
 20
558.8306
 30
0.0
 10
121.1463
 20
558.8306
 30
0.0
 10
121.1463
 20
558.8306
 30
0.0
 10
121.1463
 20
557.7382
 30
0.0
 10
121.1463
 20
557.7382
 30
0.0
 10
121.1463
 20
557.7382
 30
0.0
 10
121.1463
 20
557.7382
 30
0.0
 10
121.1463
 20
554.0382
 30
0.0
 10
121.1463
 20
554.0382
 30
0.0
 10
121.1463
 20
554.0382
 30
0.0
 10
121.1463
 20
554.0382
 30
0.0
 10
121.1463
 20
552.9306
 30
0.0
 10
121.1463
 20
552.9306
 30
0.0
 10
121.1463
 20
552.9306
 30
0.0
 10
121.1463
 20
552.9306
 30
0.0
 10
71.1463
 20
552.9306
 30
0.0
 10
71.1463
 20
552.9306
 30
0.0
 10
71.1463
 20
552.9306
 30
0.0
 10
71.1463
 20
552.9306
 30
0.0
 10
71.1463
 20
544.038
 30
0.0
 10
71.1463
 20
544.038
 30
0.0
 10
71.1463
 20
544.038
 30
0.0
 10
71.1463
 20
544.038
 30
0.0
 10
171.1463
 20
544.038
 30
0.0
 10
171.1463
 20
544.038
 30
0.0
 10
171.1463
 20
544.038
 30
0.0
 10
171.1463
 20
544.038
 30
0.0
 10
171.1463
 20
1114.038
 30
0.0
 10
171.1463
 20
1114.038
 30
0.0
 10
171.1463
 20
1114.038
 30
0.0
 10
171.1463
 20
1114.038
 30
0.0
 10
71.1463
 20
1114.038
 30
0.0
 10
71.1463
 20
1114.038
 30
0.0
 10
71.1463
 20
1114.038
 30
0.0
 10
71.1463
 20
1114.038
 30
0.0
 10
71.1465
 20
1105.146
 30
0.0
 10
71.1465
 20
1105.146
 30
0.0
 10
71.1465
 20
1105.146
 30
0.0
 10
71.1465
 20
1105.146
 30
0.0
 10
121.1281
 20
1105.146
 30
0.0
 10
121.1281
 20
1105.146
 30
0.0
 10
121.1281
 20
1105.146
 30
0.0
 10
121.1281
 20
1105.146
 30
0.0
 10
121.1281
 20
1104.0381
 30
0.0
 10
121.1281
 20
1104.0381
 30
0.0
 10
121.1281
 20
1104.0381
 30
0.0
 10
121.1281
 20
1104.0381
 30
0.0
 10
121.1281
 20
1100.3381
 30
0.0
 10
121.1281
 20
1100.3381
 30
0.0
 10
121.1281
 20
1100.3381
 30
0.0
 10
121.1281
 20
1100.3381
 30
0.0
 10
121.1281
 20
1099.246
 30
0.0
 10
121.1281
 20
1099.246
 30
0.0
 10
121.1281
 20
1099.246
 30
0.0
 10
121.1281
 20
1099.246
 30
0.0
 10
71.143
 20
1099.246
 30
0.0
 10
71.143
 20
1099.246
 30
0.0
  0
SPLINE
  5
81
330
1F
100
AcDbEntity
  8
layer 1
 62
   250
370
     9
100
AcDbSpline
210
0.0
220
0.0
230
1.0
 70
     8
 71
     3
 72
    64
 73
    60
 74
     0
 42
0.000000001
 43
0.0000000001
 40
0.0
 40
0.0
 40
0.0
 40
0.0
 40
0.0625
 40
0.0625
 40
0.0625
 40
0.0625
 40
0.125
 40
0.125
 40
0.125
 40
0.125
 40
0.1875
 40
0.1875
 40
0.1875
 40
0.1875
 40
0.25
 40
0.25
 40
0.25
 40
0.25
 40
0.3125
 40
0.3125
 40
0.3125
 40
0.3125
 40
0.375
 40
0.375
 40
0.375
 40
0.375
 40
0.4375
 40
0.4375
 40
0.4375
 40
0.4375
 40
0.5
 40
0.5
 40
0.5
 40
0.5
 40
0.5625
 40
0.5625
 40
0.5625
 40
0.5625
 40
0.625
 40
0.625
 40
0.625
 40
0.625
 40
0.6875
 40
0.6875
 40
0.6875
 40
0.6875
 40
0.75
 40
0.75
 40
0.75
 40
0.75
 40
0.8125
 40
0.8125
 40
0.8125
 40
0.8125
 40
0.875
 40
0.875
 40
0.875
 40
0.875
 40
1.0
 40
1.0
 40
1.0
 40
1.0
 10
975.5463
 20
689.4929
 30
0.0
 10
975.5463
 20
689.4929
 30
0.0
 10
975.5463
 20
720.6747
 30
0.0
 10
975.5463
 20
720.6747
 30
0.0
 10
975.5463
 20
720.6747
 30
0.0
 10
975.5463
 20
720.6747
 30
0.0
 10
976.6443
 20
720.6747
 30
0.0
 10
976.6443
 20
720.6747
 30
0.0
 10
976.6443
 20
720.6747
 30
0.0
 10
976.6443
 20
720.6747
 30
0.0
 10
980.3443
 20
720.6747
 30
0.0
 10
980.3443
 20
720.6747
 30
0.0
 10
980.3443
 20
720.6747
 30
0.0
 10
980.3443
 20
720.6747
 30
0.0
 10
981.4463
 20
720.6747
 30
0.0
 10
981.4463
 20
720.6747
 30
0.0
 10
981.4463
 20
720.6747
 30
0.0
 10
981.4463
 20
720.6747
 30
0.0
 10
981.4463
 20
689.489
 30
0.0
 10
981.4463
 20
689.489
 30
0.0
 10
981.4463
 20
689.489
 30
0.0
 10
981.4463
 20
689.489
 30
0.0
 10
990.3443
 20
689.489
 30
0.0
 10
990.3443
 20
689.489
 30
0.0
 10
990.3443
 20
689.489
 30
0.0
 10
990.3443
 20
689.489
 30
0.0
 10
990.3443
 20
741.3829
 30
0.0
 10
990.3443
 20
741.3829
 30
0.0
 10
990.3443
 20
741.3829
 30
0.0
 10
990.3443
 20
741.3829
 30
0.0
 10
420.3443
 20
741.3829
 30
0.0
 10
420.3443
 20
741.3829
 30
0.0
 10
420.3443
 20
741.3829
 30
0.0
 10
420.3443
 20
741.3829
 30
0.0
 10
420.3443
 20
689.489
 30
0.0
 10
420.3443
 20
689.489
 30
0.0
 10
420.3443
 20
689.489
 30
0.0
 10
420.3443
 20
689.489
 30
0.0
 10
429.2311
 20
689.4891
 30
0.0
 10
429.2311
 20
689.4891
 30
0.0
 10
429.2311
 20
689.4891
 30
0.0
 10
429.2311
 20
689.4891
 30
0.0
 10
429.2311
 20
720.6747
 30
0.0
 10
429.2311
 20
720.6747
 30
0.0
 10
429.2311
 20
720.6747
 30
0.0
 10
429.2311
 20
720.6747
 30
0.0
 10
430.3443
 20
720.6747
 30
0.0
 10
430.3443
 20
720.6747
 30
0.0
 10
430.3443
 20
720.6747
 30
0.0
 10
430.3443
 20
720.6747
 30
0.0
 10
434.0443
 20
720.6747
 30
0.0
 10
434.0443
 20
720.6747
 30
0.0
 10
434.0443
 20
720.6747
 30
0.0
 10
434.0443
 20
720.6747
 30
0.0
 10
435.1311
 20
720.6747
 30
0.0
 10
435.1311
 20
720.6747
 30
0.0
 10
435.1311
 20
720.6747
 30
0.0
 10
435.1311
 20
720.6747
 30
0.0
 10
435.1311
 20
689.491
 30
0.0
 10
435.1311
 20
689.491
 30
0.0
  0
SPLINE
  5
82
330
1F
100
AcDbEntity
  8
layer 1
 62
   250
370
     9
100
AcDbSpline
210
0.0
220
0.0
230
1.0
 70
     8
 71
     3
 72
    72
 73
    68
 74
     0
 42
0.000000001
 43
0.0000000001
 40
0.0
 40
0.0
 40
0.0
 40
0.0
 40
0.0555555555555556
 40
0.0555555555555556
 40
0.0555555555555556
 40
0.0555555555555556
 40
0.1111111111111111
 40
0.1111111111111111
 40
0.1111111111111111
 40
0.1111111111111111
 40
0.1666666666666667
 40
0.1666666666666667
 40
0.1666666666666667
 40
0.1666666666666667
 40
0.2222222222222222
 40
0.2222222222222222
 40
0.2222222222222222
 40
0.2222222222222222
 40
0.2777777777777778
 40
0.2777777777777778
 40
0.2777777777777778
 40
0.2777777777777778
 40
0.3333333333333333
 40
0.3333333333333333
 40
0.3333333333333333
 40
0.3333333333333333
 40
0.3888888888888889
 40
0.3888888888888889
 40
0.3888888888888889
 40
0.3888888888888889
 40
0.4444444444444444
 40
0.4444444444444444
 40
0.4444444444444444
 40
0.4444444444444444
 40
0.5
 40
0.5
 40
0.5
 40
0.5
 40
0.5555555555555556
 40
0.5555555555555556
 40
0.5555555555555556
 40
0.5555555555555556
 40
0.6111111111111112
 40
0.6111111111111112
 40
0.6111111111111112
 40
0.6111111111111112
 40
0.6666666666666666
 40
0.6666666666666666
 40
0.6666666666666666
 40
0.6666666666666666
 40
0.7222222222222222
 40
0.7222222222222222
 40
0.7222222222222222
 40
0.7222222222222222
 40
0.7777777777777778
 40
0.7777777777777778
 40
0.7777777777777778
 40
0.7777777777777778
 40
0.8333333333333334
 40
0.8333333333333334
 40
0.8333333333333334
 40
0.8333333333333334
 40
0.8888888888888888
 40
0.8888888888888888
 40
0.8888888888888888
 40
0.8888888888888888
 40
1.0
 40
1.0
 40
1.0
 40
1.0
 10
967.9104
 20
1136.2406
 30
0.0
 10
967.9104
 20
1136.2406
 30
0.0
 10
967.9104
 20
1153.7273
 30
0.0
 10
967.9104
 20
1153.7273
 30
0.0
 10
967.9104
 20
1153.7273
 30
0.0
 10
967.9104
 20
1153.7273
 30
0.0
 10
969.0148
 20
1153.7273
 30
0.0
 10
969.0148
 20
1153.7273
 30
0.0
 10
969.0148
 20
1153.7273
 30
0.0
 10
969.0148
 20
1153.7273
 30
0.0
 10
972.7148
 20
1153.7273
 30
0.0
 10
972.7148
 20
1153.7273
 30
0.0
 10
972.7148
 20
1153.7273
 30
0.0
 10
972.7148
 20
1153.7273
 30
0.0
 10
973.8104
 20
1153.7273
 30
0.0
 10
973.8104
 20
1153.7273
 30
0.0
 10
973.8104
 20
1153.7273
 30
0.0
 10
973.8104
 20
1153.7273
 30
0.0
 10
973.8104
 20
1136.2351
 30
0.0
 10
973.8104
 20
1136.2351
 30
0.0
 10
973.8104
 20
1136.2351
 30
0.0
 10
973.8104
 20
1136.2351
 30
0.0
 10
982.7204
 20
1136.1908
 30
0.0
 10
982.7204
 20
1136.1908
 30
0.0
 10
982.7204
 20
1136.1908
 30
0.0
 10
982.7204
 20
1136.1908
 30
0.0
 10
982.7204
 20
1204.9337
 30
0.0
 10
982.7204
 20
1204.9337
 30
0.0
 10
982.7204
 20
1204.9337
 30
0.0
 10
982.7204
 20
1210.4337
 30
0.0
 10
978.2152
 20
1214.9337
 30
0.0
 10
972.7244
 20
1214.9337
 30
0.0
 10
972.7244
 20
1214.9337
 30
0.0
 10
972.7244
 20
1214.9337
 30
0.0
 10
422.7164
 20
1214.9337
 30
0.0
 10
422.7164
 20
1214.9337
 30
0.0
 10
422.7164
 20
1214.9337
 30
0.0
 10
417.2256
 20
1214.9337
 30
0.0
 10
412.7204
 20
1210.4336
 30
0.0
 10
412.7204
 20
1204.9337
 30
0.0
 10
412.7204
 20
1204.9337
 30
0.0
 10
412.7204
 20
1204.9337
 30
0.0
 10
412.7204
 20
1136.1908
 30
0.0
 10
412.7204
 20
1136.1908
 30
0.0
 10
412.7204
 20
1136.1908
 30
0.0
 10
412.7204
 20
1136.1908
 30
0.0
 10
421.6148
 20
1136.1908
 30
0.0
 10
421.6148
 20
1136.1908
 30
0.0
 10
421.6148
 20
1136.1908
 30
0.0
 10
421.6148
 20
1136.1908
 30
0.0
 10
421.6148
 20
1153.6273
 30
0.0
 10
421.6148
 20
1153.6273
 30
0.0
 10
421.6148
 20
1153.6273
 30
0.0
 10
421.6148
 20
1153.6273
 30
0.0
 10
422.726
 20
1153.6273
 30
0.0
 10
422.726
 20
1153.6273
 30
0.0
 10
422.726
 20
1153.6273
 30
0.0
 10
422.726
 20
1153.6273
 30
0.0
 10
426.426
 20
1153.6273
 30
0.0
 10
426.426
 20
1153.6273
 30
0.0
 10
426.426
 20
1153.6273
 30
0.0
 10
426.426
 20
1153.6273
 30
0.0
 10
427.5148
 20
1153.6273
 30
0.0
 10
427.5148
 20
1153.6273
 30
0.0
 10
427.5148
 20
1153.6273
 30
0.0
 10
427.5148
 20
1153.6273
 30
0.0
 10
427.5148
 20
1136.191
 30
0.0
 10
427.5148
 20
1136.191
 30
0.0
  0
SPLINE
  5
83
330
1F
100
AcDbEntity
  8
layer 1
 62
   250
370
     9
100
AcDbSpline
210
0.0
220
0.0
230
1.0
 70
     8
 71
     3
 72
    64
 73
    60
 74
     0
 42
0.000000001
 43
0.0000000001
 40
0.0
 40
0.0
 40
0.0
 40
0.0
 40
0.0625
 40
0.0625
 40
0.0625
 40
0.0625
 40
0.125
 40
0.125
 40
0.125
 40
0.125
 40
0.1875
 40
0.1875
 40
0.1875
 40
0.1875
 40
0.25
 40
0.25
 40
0.25
 40
0.25
 40
0.3125
 40
0.3125
 40
0.3125
 40
0.3125
 40
0.375
 40
0.375
 40
0.375
 40
0.375
 40
0.4375
 40
0.4375
 40
0.4375
 40
0.4375
 40
0.5
 40
0.5
 40
0.5
 40
0.5
 40
0.5625
 40
0.5625
 40
0.5625
 40
0.5625
 40
0.625
 40
0.625
 40
0.625
 40
0.625
 40
0.6875
 40
0.6875
 40
0.6875
 40
0.6875
 40
0.75
 40
0.75
 40
0.75
 40
0.75
 40
0.8125
 40
0.8125
 40
0.8125
 40
0.8125
 40
0.875
 40
0.875
 40
0.875
 40
0.875
 40
1.0
 40
1.0
 40
1.0
 40
1.0
 10
975.5463
 20
485.0999
 30
0.0
 10
975.5463
 20
485.0999
 30
0.0
 10
975.5463
 20
500.2068
 30
0.0
 10
975.5463
 20
500.2068
 30
0.0
 10
975.5463
 20
500.2068
 30
0.0
 10
975.5463
 20
500.2068
 30
0.0
 10
976.6443
 20
500.2068
 30
0.0
 10
976.6443
 20
500.2068
 30
0.0
 10
976.6443
 20
500.2068
 30
0.0
 10
976.6443
 20
500.2068
 30
0.0
 10
980.3443
 20
500.2068
 30
0.0
 10
980.3443
 20
500.2068
 30
0.0
 10
980.3443
 20
500.2068
 30
0.0
 10
980.3443
 20
500.2068
 30
0.0
 10
981.4463
 20
500.2068
 30
0.0
 10
981.4463
 20
500.2068
 30
0.0
 10
981.4463
 20
500.2068
 30
0.0
 10
981.4463
 20
500.2068
 30
0.0
 10
981.4463
 20
485.096
 30
0.0
 10
981.4463
 20
485.096
 30
0.0
 10
981.4463
 20
485.096
 30
0.0
 10
981.4463
 20
485.096
 30
0.0
 10
990.3443
 20
485.096
 30
0.0
 10
990.3443
 20
485.096
 30
0.0
 10
990.3443
 20
485.096
 30
0.0
 10
990.3443
 20
485.096
 30
0.0
 10
990.3443
 20
587.2949
 30
0.0
 10
990.3443
 20
587.2949
 30
0.0
 10
990.3443
 20
587.2949
 30
0.0
 10
990.3443
 20
587.2949
 30
0.0
 10
420.3443
 20
587.2949
 30
0.0
 10
420.3443
 20
587.2949
 30
0.0
 10
420.3443
 20
587.2949
 30
0.0
 10
420.3443
 20
587.2949
 30
0.0
 10
420.3443
 20
485.096
 30
0.0
 10
420.3443
 20
485.096
 30
0.0
 10
420.3443
 20
485.096
 30
0.0
 10
420.3443
 20
485.096
 30
0.0
 10
429.2311
 20
485.0961
 30
0.0
 10
429.2311
 20
485.0961
 30
0.0
 10
429.2311
 20
485.0961
 30
0.0
 10
429.2311
 20
485.0961
 30
0.0
 10
429.2311
 20
500.2068
 30
0.0
 10
429.2311
 20
500.2068
 30
0.0
 10
429.2311
 20
500.2068
 30
0.0
 10
429.2311
 20
500.2068
 30
0.0
 10
430.3443
 20
500.2068
 30
0.0
 10
430.3443
 20
500.2068
 30
0.0
 10
430.3443
 20
500.2068
 30
0.0
 10
430.3443
 20
500.2068
 30
0.0
 10
434.0443
 20
500.2068
 30
0.0
 10
434.0443
 20
500.2068
 30
0.0
 10
434.0443
 20
500.2068
 30
0.0
 10
434.0443
 20
500.2068
 30
0.0
 10
435.1311
 20
500.2068
 30
0.0
 10
435.1311
 20
500.2068
 30
0.0
 10
435.1311
 20
500.2068
 30
0.0
 10
435.1311
 20
500.2068
 30
0.0
 10
435.1311
 20
485.098
 30
0.0
 10
435.1311
 20
485.098
 30
0.0
  0
SPLINE
  5
84
330
1F
100
AcDbEntity
  8
layer 1
 62
   250
370
     9
100
AcDbSpline
210
0.0
220
0.0
230
1.0
 70
     8
 71
     3
 72
    64
 73
    60
 74
     0
 42
0.000000001
 43
0.0000000001
 40
0.0
 40
0.0
 40
0.0
 40
0.0
 40
0.0625
 40
0.0625
 40
0.0625
 40
0.0625
 40
0.125
 40
0.125
 40
0.125
 40
0.125
 40
0.1875
 40
0.1875
 40
0.1875
 40
0.1875
 40
0.25
 40
0.25
 40
0.25
 40
0.25
 40
0.3125
 40
0.3125
 40
0.3125
 40
0.3125
 40
0.375
 40
0.375
 40
0.375
 40
0.375
 40
0.4375
 40
0.4375
 40
0.4375
 40
0.4375
 40
0.5
 40
0.5
 40
0.5
 40
0.5
 40
0.5625
 40
0.5625
 40
0.5625
 40
0.5625
 40
0.625
 40
0.625
 40
0.625
 40
0.625
 40
0.6875
 40
0.6875
 40
0.6875
 40
0.6875
 40
0.75
 40
0.75
 40
0.75
 40
0.75
 40
0.8125
 40
0.8125
 40
0.8125
 40
0.8125
 40
0.875
 40
0.875
 40
0.875
 40
0.875
 40
1.0
 40
1.0
 40
1.0
 40
1.0
 10
975.5463
 20
382.9032
 30
0.0
 10
975.5463
 20
382.9032
 30
0.0
 10
975.5463
 20
398.0101
 30
0.0
 10
975.5463
 20
398.0101
 30
0.0
 10
975.5463
 20
398.0101
 30
0.0
 10
975.5463
 20
398.0101
 30
0.0
 10
976.6443
 20
398.0101
 30
0.0
 10
976.6443
 20
398.0101
 30
0.0
 10
976.6443
 20
398.0101
 30
0.0
 10
976.6443
 20
398.0101
 30
0.0
 10
980.3443
 20
398.0101
 30
0.0
 10
980.3443
 20
398.0101
 30
0.0
 10
980.3443
 20
398.0101
 30
0.0
 10
980.3443
 20
398.0101
 30
0.0
 10
981.4463
 20
398.0101
 30
0.0
 10
981.4463
 20
398.0101
 30
0.0
 10
981.4463
 20
398.0101
 30
0.0
 10
981.4463
 20
398.0101
 30
0.0
 10
981.4463
 20
382.8993
 30
0.0
 10
981.4463
 20
382.8993
 30
0.0
 10
981.4463
 20
382.8993
 30
0.0
 10
981.4463
 20
382.8993
 30
0.0
 10
990.3443
 20
382.8993
 30
0.0
 10
990.3443
 20
382.8993
 30
0.0
 10
990.3443
 20
382.8993
 30
0.0
 10
990.3443
 20
382.8993
 30
0.0
 10
990.3443
 20
485.0982
 30
0.0
 10
990.3443
 20
485.0982
 30
0.0
 10
990.3443
 20
485.0982
 30
0.0
 10
990.3443
 20
485.0982
 30
0.0
 10
420.3443
 20
485.0982
 30
0.0
 10
420.3443
 20
485.0982
 30
0.0
 10
420.3443
 20
485.0982
 30
0.0
 10
420.3443
 20
485.0982
 30
0.0
 10
420.3443
 20
382.8993
 30
0.0
 10
420.3443
 20
382.8993
 30
0.0
 10
420.3443
 20
382.8993
 30
0.0
 10
420.3443
 20
382.8993
 30
0.0
 10
429.2311
 20
382.8994
 30
0.0
 10
429.2311
 20
382.8994
 30
0.0
 10
429.2311
 20
382.8994
 30
0.0
 10
429.2311
 20
382.8994
 30
0.0
 10
429.2311
 20
398.0101
 30
0.0
 10
429.2311
 20
398.0101
 30
0.0
 10
429.2311
 20
398.0101
 30
0.0
 10
429.2311
 20
398.0101
 30
0.0
 10
430.3443
 20
398.0101
 30
0.0
 10
430.3443
 20
398.0101
 30
0.0
 10
430.3443
 20
398.0101
 30
0.0
 10
430.3443
 20
398.0101
 30
0.0
 10
434.0443
 20
398.0101
 30
0.0
 10
434.0443
 20
398.0101
 30
0.0
 10
434.0443
 20
398.0101
 30
0.0
 10
434.0443
 20
398.0101
 30
0.0
 10
435.1311
 20
398.0101
 30
0.0
 10
435.1311
 20
398.0101
 30
0.0
 10
435.1311
 20
398.0101
 30
0.0
 10
435.1311
 20
398.0101
 30
0.0
 10
435.1311
 20
382.9013
 30
0.0
 10
435.1311
 20
382.9013
 30
0.0
  0
SPLINE
  5
85
330
1F
100
AcDbEntity
  8
layer 1
 62
   250
370
     9
100
AcDbSpline
210
0.0
220
0.0
230
1.0
 70
    11
 71
     3
 72
    68
 73
    64
 74
     0
 42
0.000000001
 43
0.0000000001
 40
0.0
 40
0.0
 40
0.0
 40
0.0
 40
0.0588235294117647
 40
0.0588235294117647
 40
0.0588235294117647
 40
0.0588235294117647
 40
0.1176470588235294
 40
0.1176470588235294
 40
0.1176470588235294
 40
0.1176470588235294
 40
0.1764705882352941
 40
0.1764705882352941
 40
0.1764705882352941
 40
0.1764705882352941
 40
0.2352941176470588
 40
0.2352941176470588
 40
0.2352941176470588
 40
0.2352941176470588
 40
0.2941176470588235
 40
0.2941176470588235
 40
0.2941176470588235
 40
0.2941176470588235
 40
0.3529411764705883
 40
0.3529411764705883
 40
0.3529411764705883
 40
0.3529411764705883
 40
0.4117647058823529
 40
0.4117647058823529
 40
0.4117647058823529
 40
0.4117647058823529
 40
0.4705882352941176
 40
0.4705882352941176
 40
0.4705882352941176
 40
0.4705882352941176
 40
0.5294117647058824
 40
0.5294117647058824
 40
0.5294117647058824
 40
0.5294117647058824
 40
0.5882352941176471
 40
0.5882352941176471
 40
0.5882352941176471
 40
0.5882352941176471
 40
0.6470588235294118
 40
0.6470588235294118
 40
0.6470588235294118
 40
0.6470588235294118
 40
0.7058823529411765
 40
0.7058823529411765
 40
0.7058823529411765
 40
0.7058823529411765
 40
0.7647058823529411
 40
0.7647058823529411
 40
0.7647058823529411
 40
0.7647058823529411
 40
0.8235294117647058
 40
0.8235294117647058
 40
0.8235294117647058
 40
0.8235294117647058
 40
0.8823529411764706
 40
0.8823529411764706
 40
0.8823529411764706
 40
0.8823529411764706
 40
1.0
 40
1.0
 40
1.0
 40
1.0
 10
976.6444
 20
295.8142
 30
0.0
 10
976.6444
 20
295.8142
 30
0.0
 10
980.3443
 20
295.8142
 30
0.0
 10
980.3443
 20
295.8142
 30
0.0
 10
980.3443
 20
295.8142
 30
0.0
 10
980.3443
 20
295.8142
 30
0.0
 10
981.4464
 20
295.8142
 30
0.0
 10
981.4464
 20
295.8142
 30
0.0
 10
981.4464
 20
295.8142
 30
0.0
 10
981.4464
 20
295.8142
 30
0.0
 10
981.4464
 20
280.7034
 30
0.0
 10
981.4464
 20
280.7034
 30
0.0
 10
981.4464
 20
280.7034
 30
0.0
 10
981.4464
 20
280.7034
 30
0.0
 10
990.3443
 20
280.7034
 30
0.0
 10
990.3443
 20
280.7034
 30
0.0
 10
990.3443
 20
280.7034
 30
0.0
 10
990.3443
 20
280.7034
 30
0.0
 10
990.3443
 20
382.9023
 30
0.0
 10
990.3443
 20
382.9023
 30
0.0
 10
990.3443
 20
382.9023
 30
0.0
 10
990.3443
 20
382.9023
 30
0.0
 10
420.3443
 20
382.9023
 30
0.0
 10
420.3443
 20
382.9023
 30
0.0
 10
420.3443
 20
382.9023
 30
0.0
 10
420.3443
 20
382.9023
 30
0.0
 10
420.3443
 20
280.7034
 30
0.0
 10
420.3443
 20
280.7034
 30
0.0
 10
420.3443
 20
280.7034
 30
0.0
 10
420.3443
 20
280.7034
 30
0.0
 10
429.2311
 20
280.7035
 30
0.0
 10
429.2311
 20
280.7035
 30
0.0
 10
429.2311
 20
280.7035
 30
0.0
 10
429.2311
 20
280.7035
 30
0.0
 10
429.2311
 20
295.8142
 30
0.0
 10
429.2311
 20
295.8142
 30
0.0
 10
429.2311
 20
295.8142
 30
0.0
 10
429.2311
 20
295.8142
 30
0.0
 10
430.3443
 20
295.8142
 30
0.0
 10
430.3443
 20
295.8142
 30
0.0
 10
430.3443
 20
295.8142
 30
0.0
 10
430.3443
 20
295.8142
 30
0.0
 10
434.0443
 20
295.8142
 30
0.0
 10
434.0443
 20
295.8142
 30
0.0
 10
434.0443
 20
295.8142
 30
0.0
 10
434.0443
 20
295.8142
 30
0.0
 10
435.1311
 20
295.8142
 30
0.0
 10
435.1311
 20
295.8142
 30
0.0
 10
435.1311
 20
295.8142
 30
0.0
 10
435.1311
 20
295.8142
 30
0.0
 10
435.1311
 20
280.7054
 30
0.0
 10
435.1311
 20
280.7054
 30
0.0
 10
435.1311
 20
280.7054
 30
0.0
 10
435.1311
 20
280.7054
 30
0.0
 10
975.5464
 20
280.7073
 30
0.0
 10
975.5464
 20
280.7073
 30
0.0
 10
975.5464
 20
280.7073
 30
0.0
 10
975.5464
 20
280.7073
 30
0.0
 10
975.5464
 20
295.8142
 30
0.0
 10
975.5464
 20
295.8142
 30
0.0
 10
975.5464
 20
295.8142
 30
0.0
 10
975.5464
 20
295.8142
 30
0.0
 10
976.6444
 20
295.8142
 30
0.0
 10
976.6444
 20
295.8142
 30
0.0
  0
SPLINE
  5
86
330
1F
100
AcDbEntity
  8
layer 1
 62
   250
370
     9
100
AcDbSpline
210
0.0
220
0.0
230
1.0
 70
    11
 71
     3
 72
   444
 73
   440
 74
     0
 42
0.000000001
 43
0.0000000001
 40
0.0
 40
0.0
 40
0.0
 40
0.0
 40
0.009009009009009
 40
0.009009009009009
 40
0.009009009009009
 40
0.009009009009009
 40
0.018018018018018
 40
0.018018018018018
 40
0.018018018018018
 40
0.018018018018018
 40
0.027027027027027
 40
0.027027027027027
 40
0.027027027027027
 40
0.027027027027027
 40
0.036036036036036
 40
0.036036036036036
 40
0.036036036036036
 40
0.036036036036036
 40
0.045045045045045
 40
0.045045045045045
 40
0.045045045045045
 40
0.045045045045045
 40
0.0540540540540541
 40
0.0540540540540541
 40
0.0540540540540541
 40
0.0540540540540541
 40
0.0630630630630631
 40
0.0630630630630631
 40
0.0630630630630631
 40
0.0630630630630631
 40
0.0720720720720721
 40
0.0720720720720721
 40
0.0720720720720721
 40
0.0720720720720721
 40
0.0810810810810811
 40
0.0810810810810811
 40
0.0810810810810811
 40
0.0810810810810811
 40
0.0900900900900901
 40
0.0900900900900901
 40
0.0900900900900901
 40
0.0900900900900901
 40
0.0990990990990991
 40
0.0990990990990991
 40
0.0990990990990991
 40
0.0990990990990991
 40
0.1081081081081081
 40
0.1081081081081081
 40
0.1081081081081081
 40
0.1081081081081081
 40
0.1171171171171171
 40
0.1171171171171171
 40
0.1171171171171171
 40
0.1171171171171171
 40
0.1261261261261261
 40
0.1261261261261261
 40
0.1261261261261261
 40
0.1261261261261261
 40
0.1351351351351351
 40
0.1351351351351351
 40
0.1351351351351351
 40
0.1351351351351351
 40
0.1441441441441441
 40
0.1441441441441441
 40
0.1441441441441441
 40
0.1441441441441441
 40
0.1531531531531531
 40
0.1531531531531531
 40
0.1531531531531531
 40
0.1531531531531531
 40
0.1621621621621622
 40
0.1621621621621622
 40
0.1621621621621622
 40
0.1621621621621622
 40
0.1711711711711712
 40
0.1711711711711712
 40
0.1711711711711712
 40
0.1711711711711712
 40
0.1801801801801802
 40
0.1801801801801802
 40
0.1801801801801802
 40
0.1801801801801802
 40
0.1891891891891892
 40
0.1891891891891892
 40
0.1891891891891892
 40
0.1891891891891892
 40
0.1981981981981982
 40
0.1981981981981982
 40
0.1981981981981982
 40
0.1981981981981982
 40
0.2072072072072072
 40
0.2072072072072072
 40
0.2072072072072072
 40
0.2072072072072072
 40
0.2162162162162162
 40
0.2162162162162162
 40
0.2162162162162162
 40
0.2162162162162162
 40
0.2252252252252252
 40
0.2252252252252252
 40
0.2252252252252252
 40
0.2252252252252252
 40
0.2342342342342342
 40
0.2342342342342342
 40
0.2342342342342342
 40
0.2342342342342342
 40
0.2432432432432433
 40
0.2432432432432433
 40
0.2432432432432433
 40
0.2432432432432433
 40
0.2522522522522522
 40
0.2522522522522522
 40
0.2522522522522522
 40
0.2522522522522522
 40
0.2612612612612613
 40
0.2612612612612613
 40
0.2612612612612613
 40
0.2612612612612613
 40
0.2702702702702703
 40
0.2702702702702703
 40
0.2702702702702703
 40
0.2702702702702703
 40
0.2792792792792793
 40
0.2792792792792793
 40
0.2792792792792793
 40
0.2792792792792793
 40
0.2882882882882883
 40
0.2882882882882883
 40
0.2882882882882883
 40
0.2882882882882883
 40
0.2972972972972973
 40
0.2972972972972973
 40
0.2972972972972973
 40
0.2972972972972973
 40
0.3063063063063063
 40
0.3063063063063063
 40
0.3063063063063063
 40
0.3063063063063063
 40
0.3153153153153153
 40
0.3153153153153153
 40
0.3153153153153153
 40
0.3153153153153153
 40
0.3243243243243243
 40
0.3243243243243243
 40
0.3243243243243243
 40
0.3243243243243243
 40
0.3333333333333333
 40
0.3333333333333333
 40
0.3333333333333333
 40
0.3333333333333333
 40
0.3423423423423423
 40
0.3423423423423423
 40
0.3423423423423423
 40
0.3423423423423423
 40
0.3513513513513514
 40
0.3513513513513514
 40
0.3513513513513514
 40
0.3513513513513514
 40
0.3603603603603603
 40
0.3603603603603603
 40
0.3603603603603603
 40
0.3603603603603603
 40
0.3693693693693694
 40
0.3693693693693694
 40
0.3693693693693694
 40
0.3693693693693694
 40
0.3783783783783784
 40
0.3783783783783784
 40
0.3783783783783784
 40
0.3783783783783784
 40
0.3873873873873874
 40
0.3873873873873874
 40
0.3873873873873874
 40
0.3873873873873874
 40
0.3963963963963964
 40
0.3963963963963964
 40
0.3963963963963964
 40
0.3963963963963964
 40
0.4054054054054054
 40
0.4054054054054054
 40
0.4054054054054054
 40
0.4054054054054054
 40
0.4144144144144144
 40
0.4144144144144144
 40
0.4144144144144144
 40
0.4144144144144144
 40
0.4234234234234234
 40
0.4234234234234234
 40
0.4234234234234234
 40
0.4234234234234234
 40
0.4324324324324325
 40
0.4324324324324325
 40
0.4324324324324325
 40
0.4324324324324325
 40
0.4414414414414414
 40
0.4414414414414414
 40
0.4414414414414414
 40
0.4414414414414414
 40
0.4504504504504505
 40
0.4504504504504505
 40
0.4504504504504505
 40
0.4504504504504505
 40
0.4594594594594595
 40
0.4594594594594595
 40
0.4594594594594595
 40
0.4594594594594595
 40
0.4684684684684685
 40
0.4684684684684685
 40
0.4684684684684685
 40
0.4684684684684685
 40
0.4774774774774775
 40
0.4774774774774775
 40
0.4774774774774775
 40
0.4774774774774775
 40
0.4864864864864865
 40
0.4864864864864865
 40
0.4864864864864865
 40
0.4864864864864865
 40
0.4954954954954955
 40
0.4954954954954955
 40
0.4954954954954955
 40
0.4954954954954955
 40
0.5045045045045045
 40
0.5045045045045045
 40
0.5045045045045045
 40
0.5045045045045045
 40
0.5135135135135135
 40
0.5135135135135135
 40
0.5135135135135135
 40
0.5135135135135135
 40
0.5225225225225225
 40
0.5225225225225225
 40
0.5225225225225225
 40
0.5225225225225225
 40
0.5315315315315315
 40
0.5315315315315315
 40
0.5315315315315315
 40
0.5315315315315315
 40
0.5405405405405406
 40
0.5405405405405406
 40
0.5405405405405406
 40
0.5405405405405406
 40
0.5495495495495496
 40
0.5495495495495496
 40
0.5495495495495496
 40
0.5495495495495496
 40
0.5585585585585585
 40
0.5585585585585585
 40
0.5585585585585585
 40
0.5585585585585585
 40
0.5675675675675675
 40
0.5675675675675675
 40
0.5675675675675675
 40
0.5675675675675675
 40
0.5765765765765766
 40
0.5765765765765766
 40
0.5765765765765766
 40
0.5765765765765766
 40
0.5855855855855856
 40
0.5855855855855856
 40
0.5855855855855856
 40
0.5855855855855856
 40
0.5945945945945946
 40
0.5945945945945946
 40
0.5945945945945946
 40
0.5945945945945946
 40
0.6036036036036037
 40
0.6036036036036037
 40
0.6036036036036037
 40
0.6036036036036037
 40
0.6126126126126126
 40
0.6126126126126126
 40
0.6126126126126126
 40
0.6126126126126126
 40
0.6216216216216216
 40
0.6216216216216216
 40
0.6216216216216216
 40
0.6216216216216216
 40
0.6306306306306306
 40
0.6306306306306306
 40
0.6306306306306306
 40
0.6306306306306306
 40
0.6396396396396397
 40
0.6396396396396397
 40
0.6396396396396397
 40
0.6396396396396397
 40
0.6486486486486487
 40
0.6486486486486487
 40
0.6486486486486487
 40
0.6486486486486487
 40
0.6576576576576577
 40
0.6576576576576577
 40
0.6576576576576577
 40
0.6576576576576577
 40
0.6666666666666666
 40
0.6666666666666666
 40
0.6666666666666666
 40
0.6666666666666666
 40
0.6756756756756757
 40
0.6756756756756757
 40
0.6756756756756757
 40
0.6756756756756757
 40
0.6846846846846847
 40
0.6846846846846847
 40
0.6846846846846847
 40
0.6846846846846847
 40
0.6936936936936937
 40
0.6936936936936937
 40
0.6936936936936937
 40
0.6936936936936937
 40
0.7027027027027027
 40
0.7027027027027027
 40
0.7027027027027027
 40
0.7027027027027027
 40
0.7117117117117117
 40
0.7117117117117117
 40
0.7117117117117117
 40
0.7117117117117117
 40
0.7207207207207207
 40
0.7207207207207207
 40
0.7207207207207207
 40
0.7207207207207207
 40
0.7297297297297297
 40
0.7297297297297297
 40
0.7297297297297297
 40
0.7297297297297297
 40
0.7387387387387387
 40
0.7387387387387387
 40
0.7387387387387387
 40
0.7387387387387387
 40
0.7477477477477478
 40
0.7477477477477478
 40
0.7477477477477478
 40
0.7477477477477478
 40
0.7567567567567568
 40
0.7567567567567568
 40
0.7567567567567568
 40
0.7567567567567568
 40
0.7657657657657657
 40
0.7657657657657657
 40
0.7657657657657657
 40
0.7657657657657657
 40
0.7747747747747747
 40
0.7747747747747747
 40
0.7747747747747747
 40
0.7747747747747747
 40
0.7837837837837838
 40
0.7837837837837838
 40
0.7837837837837838
 40
0.7837837837837838
 40
0.7927927927927928
 40
0.7927927927927928
 40
0.7927927927927928
 40
0.7927927927927928
 40
0.8018018018018018
 40
0.8018018018018018
 40
0.8018018018018018
 40
0.8018018018018018
 40
0.8108108108108109
 40
0.8108108108108109
 40
0.8108108108108109
 40
0.8108108108108109
 40
0.8198198198198198
 40
0.8198198198198198
 40
0.8198198198198198
 40
0.8198198198198198
 40
0.8288288288288288
 40
0.8288288288288288
 40
0.8288288288288288
 40
0.8288288288288288
 40
0.8378378378378378
 40
0.8378378378378378
 40
0.8378378378378378
 40
0.8378378378378378
 40
0.8468468468468469
 40
0.8468468468468469
 40
0.8468468468468469
 40
0.8468468468468469
 40
0.8558558558558559
 40
0.8558558558558559
 40
0.8558558558558559
 40
0.8558558558558559
 40
0.8648648648648649
 40
0.8648648648648649
 40
0.8648648648648649
 40
0.8648648648648649
 40
0.8738738738738738
 40
0.8738738738738738
 40
0.8738738738738738
 40
0.8738738738738738
 40
0.8828828828828829
 40
0.8828828828828829
 40
0.8828828828828829
 40
0.8828828828828829
 40
0.8918918918918919
 40
0.8918918918918919
 40
0.8918918918918919
 40
0.8918918918918919
 40
0.9009009009009009
 40
0.9009009009009009
 40
0.9009009009009009
 40
0.9009009009009009
 40
0.9099099099099099
 40
0.9099099099099099
 40
0.9099099099099099
 40
0.9099099099099099
 40
0.918918918918919
 40
0.918918918918919
 40
0.918918918918919
 40
0.918918918918919
 40
0.9279279279279279
 40
0.9279279279279279
 40
0.9279279279279279
 40
0.9279279279279279
 40
0.9369369369369369
 40
0.9369369369369369
 40
0.9369369369369369
 40
0.9369369369369369
 40
0.9459459459459459
 40
0.9459459459459459
 40
0.9459459459459459
 40
0.9459459459459459
 40
0.954954954954955
 40
0.954954954954955
 40
0.954954954954955
 40
0.954954954954955
 40
0.963963963963964
 40
0.963963963963964
 40
0.963963963963964
 40
0.963963963963964
 40
0.972972972972973
 40
0.972972972972973
 40
0.972972972972973
 40
0.972972972972973
 40
0.9819819819819819
 40
0.9819819819819819
 40
0.9819819819819819
 40
0.9819819819819819
 40
1.0
 40
1.0
 40
1.0
 40
1.0
 10
-57.2903
 20
1106.1697
 30
0.0
 10
-57.2903
 20
1106.1697
 30
0.0
 10
-57.2903
 20
1054.2741
 30
0.0
 10
-57.2903
 20
1054.2741
 30
0.0
 10
-57.2903
 20
1054.2741
 30
0.0
 10
-57.2903
 20
1054.2741
 30
0.0
 10
-66.9572
 20
1054.2741
 30
0.0
 10
-66.9572
 20
1054.2741
 30
0.0
 10
-66.9572
 20
1054.2741
 30
0.0
 10
-66.9572
 20
1054.2741
 30
0.0
 10
-66.9572
 20
1056.1687
 30
0.0
 10
-66.9572
 20
1056.1687
 30
0.0
 10
-66.9572
 20
1056.1687
 30
0.0
 10
-66.9572
 20
1056.1687
 30
0.0
 10
-66.9572
 20
1074.9823
 30
0.0
 10
-66.9572
 20
1074.9823
 30
0.0
 10
-66.9572
 20
1074.9823
 30
0.0
 10
-66.9572
 20
1074.9823
 30
0.0
 10
-68.0574
 20
1074.9823
 30
0.0
 10
-68.0574
 20
1074.9823
 30
0.0
 10
-68.0574
 20
1074.9823
 30
0.0
 10
-68.0574
 20
1074.9823
 30
0.0
 10
-71.757
 20
1074.9823
 30
0.0
 10
-71.757
 20
1074.9823
 30
0.0
 10
-71.757
 20
1074.9823
 30
0.0
 10
-71.757
 20
1074.9823
 30
0.0
 10
-72.8572
 20
1074.9823
 30
0.0
 10
-72.8572
 20
1074.9823
 30
0.0
 10
-72.8572
 20
1074.9823
 30
0.0
 10
-72.8572
 20
1074.9823
 30
0.0
 10
-72.8572
 20
1054.2741
 30
0.0
 10
-72.8572
 20
1054.2741
 30
0.0
 10
-72.8572
 20
1054.2741
 30
0.0
 10
-72.8572
 20
1054.2741
 30
0.0
 10
-101.8915
 20
1054.2741
 30
0.0
 10
-101.8915
 20
1054.2741
 30
0.0
 10
-101.8915
 20
1054.2741
 30
0.0
 10
-101.8915
 20
1054.2741
 30
0.0
 10
-123.057
 20
1054.2741
 30
0.0
 10
-123.057
 20
1054.2741
 30
0.0
 10
-123.057
 20
1054.2741
 30
0.0
 10
-123.057
 20
1054.2741
 30
0.0
 10
-123.057
 20
1050.5754
 30
0.0
 10
-123.057
 20
1050.5754
 30
0.0
 10
-123.057
 20
1050.5754
 30
0.0
 10
-123.057
 20
1050.5754
 30
0.0
 10
-123.057
 20
1048.3741
 30
0.0
 10
-123.057
 20
1048.3741
 30
0.0
 10
-123.057
 20
1048.3741
 30
0.0
 10
-123.057
 20
1048.3741
 30
0.0
 10
-104.565
 20
1048.3741
 30
0.0
 10
-104.565
 20
1048.3741
 30
0.0
 10
-104.565
 20
1048.3741
 30
0.0
 10
-104.565
 20
1048.3741
 30
0.0
 10
-76.5601
 20
1048.3741
 30
0.0
 10
-76.5601
 20
1048.3741
 30
0.0
 10
-76.5601
 20
1048.3741
 30
0.0
 10
-76.5601
 20
1048.3741
 30
0.0
 10
-72.8573
 20
1048.3741
 30
0.0
 10
-72.8573
 20
1048.3741
 30
0.0
 10
-72.8573
 20
1048.3741
 30
0.0
 10
-72.8573
 20
1048.3741
 30
0.0
 10
-72.8573
 20
1044.6713
 30
0.0
 10
-72.8573
 20
1044.6713
 30
0.0
 10
-72.8573
 20
1044.6713
 30
0.0
 10
-72.8573
 20
1044.6713
 30
0.0
 10
-72.8573
 20
1019.0268
 30
0.0
 10
-72.8573
 20
1019.0268
 30
0.0
 10
-72.8573
 20
1019.0268
 30
0.0
 10
-72.8573
 20
1019.0268
 30
0.0
 10
-72.8573
 20
1017.0768
 30
0.0
 10
-72.8573
 20
1017.0768
 30
0.0
 10
-72.8573
 20
1017.0768
 30
0.0
 10
-72.8573
 20
1015.0403
 30
0.0
 10
-74.5235
 20
1013.3741
 30
0.0
 10
-76.5601
 20
1013.3741
 30
0.0
 10
-76.5601
 20
1013.3741
 30
0.0
 10
-76.5601
 20
1013.3741
 30
0.0
 10
-78.51
 20
1013.3741
 30
0.0
 10
-78.51
 20
1013.3741
 30
0.0
 10
-78.51
 20
1013.3741
 30
0.0
 10
-78.51
 20
1013.3741
 30
0.0
 10
-133.2545
 20
1013.3741
 30
0.0
 10
-133.2545
 20
1013.3741
 30
0.0
 10
-133.2545
 20
1013.3741
 30
0.0
 10
-133.2545
 20
1013.3741
 30
0.0
 10
-136.9572
 20
1013.3741
 30
0.0
 10
-136.9572
 20
1013.3741
 30
0.0
 10
-136.9572
 20
1013.3741
 30
0.0
 10
-136.9572
 20
1013.3741
 30
0.0
 10
-136.9572
 20
1016.6487
 30
0.0
 10
-136.9572
 20
1016.6487
 30
0.0
 10
-136.9572
 20
1016.6487
 30
0.0
 10
-136.9572
 20
1016.6487
 30
0.0
 10
-136.9572
 20
1017.0768
 30
0.0
 10
-136.9572
 20
1017.0768
 30
0.0
 10
-136.9572
 20
1017.0768
 30
0.0
 10
-136.9572
 20
1017.0768
 30
0.0
 10
-136.9572
 20
1035.4622
 30
0.0
 10
-136.9572
 20
1035.4622
 30
0.0
 10
-136.9572
 20
1035.4622
 30
0.0
 10
-136.9572
 20
1035.4622
 30
0.0
 10
-138.0573
 20
1035.4622
 30
0.0
 10
-138.0573
 20
1035.4622
 30
0.0
 10
-138.0573
 20
1035.4622
 30
0.0
 10
-138.0573
 20
1035.4622
 30
0.0
 10
-141.757
 20
1035.4622
 30
0.0
 10
-141.757
 20
1035.4622
 30
0.0
 10
-141.757
 20
1035.4622
 30
0.0
 10
-141.757
 20
1035.4622
 30
0.0
 10
-142.8572
 20
1035.4622
 30
0.0
 10
-142.8572
 20
1035.4622
 30
0.0
 10
-142.8572
 20
1035.4622
 30
0.0
 10
-142.8572
 20
1035.4622
 30
0.0
 10
-142.8572
 20
948.3741
 30
0.0
 10
-142.8572
 20
948.3741
 30
0.0
 10
-142.8572
 20
948.3741
 30
0.0
 10
-142.8572
 20
948.3741
 30
0.0
 10
-171.8914
 20
948.3741
 30
0.0
 10
-171.8914
 20
948.3741
 30
0.0
 10
-171.8914
 20
948.3741
 30
0.0
 10
-171.8914
 20
948.3741
 30
0.0
 10
-193.0569
 20
948.3741
 30
0.0
 10
-193.0569
 20
948.3741
 30
0.0
 10
-193.0569
 20
948.3741
 30
0.0
 10
-193.0569
 20
948.3741
 30
0.0
 10
-193.0569
 20
944.6754
 30
0.0
 10
-193.0569
 20
944.6754
 30
0.0
 10
-193.0569
 20
944.6754
 30
0.0
 10
-193.0569
 20
944.6754
 30
0.0
 10
-193.0569
 20
942.4741
 30
0.0
 10
-193.0569
 20
942.4741
 30
0.0
 10
-193.0569
 20
942.4741
 30
0.0
 10
-193.0569
 20
942.4741
 30
0.0
 10
-174.5649
 20
942.4741
 30
0.0
 10
-174.5649
 20
942.4741
 30
0.0
 10
-174.5649
 20
942.4741
 30
0.0
 10
-174.5649
 20
942.4741
 30
0.0
 10
-146.56
 20
942.4741
 30
0.0
 10
-146.56
 20
942.4741
 30
0.0
 10
-146.56
 20
942.4741
 30
0.0
 10
-146.56
 20
942.4741
 30
0.0
 10
-142.8572
 20
942.4741
 30
0.0
 10
-142.8572
 20
942.4741
 30
0.0
 10
-142.8572
 20
942.4741
 30
0.0
 10
-142.8572
 20
942.4741
 30
0.0
 10
-142.8572
 20
938.7713
 30
0.0
 10
-142.8572
 20
938.7713
 30
0.0
 10
-142.8572
 20
938.7713
 30
0.0
 10
-142.8572
 20
938.7713
 30
0.0
 10
-142.8572
 20
913.1268
 30
0.0
 10
-142.8572
 20
913.1268
 30
0.0
 10
-142.8572
 20
913.1268
 30
0.0
 10
-142.8572
 20
913.1268
 30
0.0
 10
-142.8572
 20
911.1768
 30
0.0
 10
-142.8572
 20
911.1768
 30
0.0
 10
-142.8572
 20
911.1768
 30
0.0
 10
-142.8572
 20
909.1403
 30
0.0
 10
-144.5234
 20
907.4741
 30
0.0
 10
-146.56
 20
907.4741
 30
0.0
 10
-146.56
 20
907.4741
 30
0.0
 10
-146.56
 20
907.4741
 30
0.0
 10
-148.5099
 20
907.4741
 30
0.0
 10
-148.5099
 20
907.4741
 30
0.0
 10
-148.5099
 20
907.4741
 30
0.0
 10
-148.5099
 20
907.4741
 30
0.0
 10
-203.2544
 20
907.4741
 30
0.0
 10
-203.2544
 20
907.4741
 30
0.0
 10
-203.2544
 20
907.4741
 30
0.0
 10
-203.2544
 20
907.4741
 30
0.0
 10
-206.957
 20
907.4741
 30
0.0
 10
-206.957
 20
907.4741
 30
0.0
 10
-206.957
 20
907.4741
 30
0.0
 10
-206.957
 20
907.4741
 30
0.0
 10
-206.957
 20
910.7487
 30
0.0
 10
-206.957
 20
910.7487
 30
0.0
 10
-206.957
 20
910.7487
 30
0.0
 10
-206.957
 20
910.7487
 30
0.0
 10
-206.957
 20
911.1768
 30
0.0
 10
-206.957
 20
911.1768
 30
0.0
 10
-206.957
 20
911.1768
 30
0.0
 10
-206.957
 20
911.1768
 30
0.0
 10
-206.957
 20
929.5623
 30
0.0
 10
-206.957
 20
929.5623
 30
0.0
 10
-206.957
 20
929.5623
 30
0.0
 10
-206.957
 20
929.5623
 30
0.0
 10
-208.0573
 20
929.5623
 30
0.0
 10
-208.0573
 20
929.5623
 30
0.0
 10
-208.0573
 20
929.5623
 30
0.0
 10
-208.0573
 20
929.5623
 30
0.0
 10
-211.7569
 20
929.5623
 30
0.0
 10
-211.7569
 20
929.5623
 30
0.0
 10
-211.7569
 20
929.5623
 30
0.0
 10
-211.7569
 20
929.5623
 30
0.0
 10
-212.8571
 20
929.5623
 30
0.0
 10
-212.8571
 20
929.5623
 30
0.0
 10
-212.8571
 20
929.5623
 30
0.0
 10
-212.8571
 20
929.5623
 30
0.0
 10
-212.8571
 20
842.4741
 30
0.0
 10
-212.8571
 20
842.4741
 30
0.0
 10
-212.8571
 20
842.4741
 30
0.0
 10
-212.8571
 20
842.4741
 30
0.0
 10
-241.8912
 20
842.4741
 30
0.0
 10
-241.8912
 20
842.4741
 30
0.0
 10
-241.8912
 20
842.4741
 30
0.0
 10
-241.8912
 20
842.4741
 30
0.0
 10
-263.0568
 20
842.4741
 30
0.0
 10
-263.0568
 20
842.4741
 30
0.0
 10
-263.0568
 20
842.4741
 30
0.0
 10
-263.0568
 20
842.4741
 30
0.0
 10
-263.0568
 20
838.7755
 30
0.0
 10
-263.0568
 20
838.7755
 30
0.0
 10
-263.0568
 20
838.7755
 30
0.0
 10
-263.0568
 20
838.7755
 30
0.0
 10
-263.0568
 20
836.5741
 30
0.0
 10
-263.0568
 20
836.5741
 30
0.0
 10
-263.0568
 20
836.5741
 30
0.0
 10
-263.0568
 20
836.5741
 30
0.0
 10
-244.5649
 20
836.5741
 30
0.0
 10
-244.5649
 20
836.5741
 30
0.0
 10
-244.5649
 20
836.5741
 30
0.0
 10
-244.5649
 20
836.5741
 30
0.0
 10
-216.5599
 20
836.5741
 30
0.0
 10
-216.5599
 20
836.5741
 30
0.0
 10
-216.5599
 20
836.5741
 30
0.0
 10
-216.5599
 20
836.5741
 30
0.0
 10
-212.8571
 20
836.5741
 30
0.0
 10
-212.8571
 20
836.5741
 30
0.0
 10
-212.8571
 20
836.5741
 30
0.0
 10
-212.8571
 20
836.5741
 30
0.0
 10
-212.8571
 20
832.8713
 30
0.0
 10
-212.8571
 20
832.8713
 30
0.0
 10
-212.8571
 20
832.8713
 30
0.0
 10
-212.8571
 20
832.8713
 30
0.0
 10
-212.8571
 20
807.2268
 30
0.0
 10
-212.8571
 20
807.2268
 30
0.0
 10
-212.8571
 20
807.2268
 30
0.0
 10
-212.8571
 20
807.2268
 30
0.0
 10
-212.8571
 20
805.2768
 30
0.0
 10
-212.8571
 20
805.2768
 30
0.0
 10
-212.8571
 20
805.2768
 30
0.0
 10
-212.8571
 20
803.2403
 30
0.0
 10
-214.5233
 20
801.5741
 30
0.0
 10
-216.5599
 20
801.5741
 30
0.0
 10
-216.5599
 20
801.5741
 30
0.0
 10
-216.5599
 20
801.5741
 30
0.0
 10
-218.5097
 20
801.5741
 30
0.0
 10
-218.5097
 20
801.5741
 30
0.0
 10
-218.5097
 20
801.5741
 30
0.0
 10
-218.5097
 20
801.5741
 30
0.0
 10
-273.2543
 20
801.5741
 30
0.0
 10
-273.2543
 20
801.5741
 30
0.0
 10
-273.2543
 20
801.5741
 30
0.0
 10
-273.2543
 20
801.5741
 30
0.0
 10
-276.957
 20
801.5741
 30
0.0
 10
-276.957
 20
801.5741
 30
0.0
 10
-276.957
 20
801.5741
 30
0.0
 10
-276.957
 20
801.5741
 30
0.0
 10
-276.957
 20
804.8488
 30
0.0
 10
-276.957
 20
804.8488
 30
0.0
 10
-276.957
 20
804.8488
 30
0.0
 10
-276.957
 20
804.8488
 30
0.0
 10
-276.957
 20
805.2768
 30
0.0
 10
-276.957
 20
805.2768
 30
0.0
 10
-276.957
 20
805.2768
 30
0.0
 10
-276.957
 20
805.2768
 30
0.0
 10
-276.957
 20
823.6623
 30
0.0
 10
-276.957
 20
823.6623
 30
0.0
 10
-276.957
 20
823.6623
 30
0.0
 10
-276.957
 20
823.6623
 30
0.0
 10
-278.0572
 20
823.6623
 30
0.0
 10
-278.0572
 20
823.6623
 30
0.0
 10
-278.0572
 20
823.6623
 30
0.0
 10
-278.0572
 20
823.6623
 30
0.0
 10
-281.7569
 20
823.6623
 30
0.0
 10
-281.7569
 20
823.6623
 30
0.0
 10
-281.7569
 20
823.6623
 30
0.0
 10
-281.7569
 20
823.6623
 30
0.0
 10
-282.8569
 20
823.6623
 30
0.0
 10
-282.8569
 20
823.6623
 30
0.0
 10
-282.8569
 20
823.6623
 30
0.0
 10
-282.8569
 20
823.6623
 30
0.0
 10
-282.8569
 20
736.5741
 30
0.0
 10
-282.8569
 20
736.5741
 30
0.0
 10
-282.8569
 20
736.5741
 30
0.0
 10
-282.8569
 20
736.5741
 30
0.0
 10
-311.8912
 20
736.5741
 30
0.0
 10
-311.8912
 20
736.5741
 30
0.0
 10
-311.8912
 20
736.5741
 30
0.0
 10
-311.8912
 20
736.5741
 30
0.0
 10
-333.0568
 20
736.5741
 30
0.0
 10
-333.0568
 20
736.5741
 30
0.0
 10
-333.0568
 20
736.5741
 30
0.0
 10
-333.0568
 20
736.5741
 30
0.0
 10
-333.0568
 20
732.8754
 30
0.0
 10
-333.0568
 20
732.8754
 30
0.0
 10
-333.0568
 20
732.8754
 30
0.0
 10
-333.0568
 20
732.8754
 30
0.0
 10
-333.0568
 20
730.6741
 30
0.0
 10
-333.0568
 20
730.6741
 30
0.0
 10
-333.0568
 20
730.6741
 30
0.0
 10
-333.0568
 20
730.6741
 30
0.0
 10
-314.5648
 20
730.6741
 30
0.0
 10
-314.5648
 20
730.6741
 30
0.0
 10
-314.5648
 20
730.6741
 30
0.0
 10
-314.5648
 20
730.6741
 30
0.0
 10
-286.5599
 20
730.6741
 30
0.0
 10
-286.5599
 20
730.6741
 30
0.0
 10
-286.5599
 20
730.6741
 30
0.0
 10
-286.5599
 20
730.6741
 30
0.0
 10
-282.8571
 20
730.6741
 30
0.0
 10
-282.8571
 20
730.6741
 30
0.0
 10
-282.8571
 20
730.6741
 30
0.0
 10
-282.8571
 20
730.6741
 30
0.0
 10
-282.8571
 20
726.9713
 30
0.0
 10
-282.8571
 20
726.9713
 30
0.0
 10
-282.8571
 20
726.9713
 30
0.0
 10
-282.8571
 20
726.9713
 30
0.0
 10
-282.8571
 20
701.3268
 30
0.0
 10
-282.8571
 20
701.3268
 30
0.0
 10
-282.8571
 20
701.3268
 30
0.0
 10
-282.8571
 20
701.3268
 30
0.0
 10
-282.8571
 20
699.3768
 30
0.0
 10
-282.8571
 20
699.3768
 30
0.0
 10
-282.8571
 20
699.3768
 30
0.0
 10
-282.8571
 20
697.3403
 30
0.0
 10
-284.5233
 20
695.6741
 30
0.0
 10
-286.5599
 20
695.6741
 30
0.0
 10
-286.5599
 20
695.6741
 30
0.0
 10
-286.5599
 20
695.6741
 30
0.0
 10
-288.5097
 20
695.6741
 30
0.0
 10
-288.5097
 20
695.6741
 30
0.0
 10
-288.5097
 20
695.6741
 30
0.0
 10
-288.5097
 20
695.6741
 30
0.0
 10
-343.2543
 20
695.6741
 30
0.0
 10
-343.2543
 20
695.6741
 30
0.0
 10
-343.2543
 20
695.6741
 30
0.0
 10
-343.2543
 20
695.6741
 30
0.0
 10
-346.957
 20
695.6741
 30
0.0
 10
-346.957
 20
695.6741
 30
0.0
 10
-346.957
 20
695.6741
 30
0.0
 10
-346.957
 20
695.6741
 30
0.0
 10
-346.957
 20
698.9487
 30
0.0
 10
-346.957
 20
698.9487
 30
0.0
 10
-346.957
 20
698.9487
 30
0.0
 10
-346.957
 20
698.9487
 30
0.0
 10
-346.957
 20
699.3768
 30
0.0
 10
-346.957
 20
699.3768
 30
0.0
 10
-346.957
 20
699.3768
 30
0.0
 10
-346.957
 20
699.3768
 30
0.0
 10
-346.957
 20
717.7622
 30
0.0
 10
-346.957
 20
717.7622
 30
0.0
 10
-346.957
 20
717.7622
 30
0.0
 10
-346.957
 20
717.7622
 30
0.0
 10
-348.0572
 20
717.7622
 30
0.0
 10
-348.0572
 20
717.7622
 30
0.0
 10
-348.0572
 20
717.7622
 30
0.0
 10
-348.0572
 20
717.7622
 30
0.0
 10
-351.7568
 20
717.7622
 30
0.0
 10
-351.7568
 20
717.7622
 30
0.0
 10
-351.7568
 20
717.7622
 30
0.0
 10
-351.7568
 20
717.7622
 30
0.0
 10
-352.857
 20
717.7622
 30
0.0
 10
-352.857
 20
717.7622
 30
0.0
 10
-352.857
 20
717.7622
 30
0.0
 10
-352.857
 20
717.7622
 30
0.0
 10
-352.857
 20
630.6741
 30
0.0
 10
-352.857
 20
630.6741
 30
0.0
 10
-352.857
 20
630.6741
 30
0.0
 10
-352.857
 20
630.6741
 30
0.0
 10
-381.9989
 20
630.6741
 30
0.0
 10
-381.9989
 20
630.6741
 30
0.0
 10
-381.9989
 20
630.6741
 30
0.0
 10
-381.9989
 20
630.6741
 30
0.0
 10
-403.1644
 20
630.6741
 30
0.0
 10
-403.1644
 20
630.6741
 30
0.0
 10
-403.1644
 20
630.6741
 30
0.0
 10
-403.1644
 20
630.6741
 30
0.0
 10
-403.1644
 20
626.9754
 30
0.0
 10
-403.1644
 20
626.9754
 30
0.0
 10
-403.1644
 20
626.9754
 30
0.0
 10
-403.1644
 20
626.9754
 30
0.0
 10
-403.1644
 20
624.7741
 30
0.0
 10
-403.1644
 20
624.7741
 30
0.0
 10
-403.1644
 20
624.7741
 30
0.0
 10
-403.1644
 20
624.7741
 30
0.0
 10
-384.6086
 20
624.7741
 30
0.0
 10
-384.6086
 20
624.7741
 30
0.0
 10
-384.6086
 20
624.7741
 30
0.0
 10
-385.295
 20
604.5041
 30
0.0
 10
-395.9708
 20
611.7549
 30
0.0
 10
-420.6566
 20
611.97
 30
0.0
 10
-420.6566
 20
611.97
 30
0.0
 10
-420.6566
 20
611.97
 30
0.0
 10
-420.6566
 20
661.9792
 30
0.0
 10
-420.6566
 20
661.9792
 30
0.0
 10
-420.6566
 20
661.9792
 30
0.0
 10
-420.6566
 20
661.9792
 30
0.0
 10
-421.7567
 20
661.9792
 30
0.0
 10
-421.7567
 20
661.9792
 30
0.0
 10
-421.7567
 20
661.9792
 30
0.0
 10
-421.7567
 20
661.9792
 30
0.0
 10
-425.4573
 20
661.9792
 30
0.0
 10
-425.4573
 20
661.9792
 30
0.0
 10
-425.4573
 20
661.9792
 30
0.0
 10
-425.4573
 20
661.9792
 30
0.0
 10
-426.5566
 20
661.9792
 30
0.0
 10
-426.5566
 20
661.9792
 30
0.0
 10
-426.5566
 20
661.9792
 30
0.0
 10
-426.5566
 20
661.9792
 30
0.0
 10
-426.5566
 20
611.9855
 30
0.0
 10
-426.5566
 20
611.9855
 30
0.0
 10
-426.5566
 20
611.9855
 30
0.0
 10
-426.5566
 20
611.9855
 30
0.0
 10
-454.2571
 20
611.9855
 30
0.0
 10
-454.2571
 20
611.9855
 30
0.0
 10
-454.2571
 20
611.9855
 30
0.0
 10
-454.2571
 20
611.9855
 30
0.0
 10
-454.2571
 20
1057.6257
 30
0.0
 10
-454.2571
 20
1057.6257
 30
0.0
 10
-454.2571
 20
1057.6257
 30
0.0
 10
-454.2571
 20
1057.6257
 30
0.0
 10
-404.2571
 20
1057.6257
 30
0.0
 10
-404.2571
 20
1057.6257
 30
0.0
 10
-404.2571
 20
1057.6257
 30
0.0
 10
-404.2571
 20
1057.6257
 30
0.0
 10
-404.2571
 20
1063.5257
 30
0.0
 10
-404.2571
 20
1063.5257
 30
0.0
 10
-404.2571
 20
1063.5257
 30
0.0
 10
-404.2571
 20
1063.5257
 30
0.0
 10
-454.2571
 20
1063.5257
 30
0.0
 10
-454.2571
 20
1063.5257
 30
0.0
 10
-454.2571
 20
1063.5257
 30
0.0
 10
-454.2571
 20
1063.5257
 30
0.0
 10
-454.2571
 20
1106.1697
 30
0.0
 10
-454.2571
 20
1106.1697
 30
0.0
 10
-454.2571
 20
1106.1697
 30
0.0
 10
-321.9332
 20
1106.1697
 30
0.0
 10
-189.54
 20
1106.1697
 30
0.0
 10
-57.2903
 20
1106.1697
 30
0.0
  0
SPLINE
  5
87
330
1F
100
AcDbEntity
  8
layer 1
 62
   250
370
     9
100
AcDbSpline
210
0.0
220
0.0
230
1.0
 70
     8
 71
     3
 72
    72
 73
    68
 74
     0
 42
0.000000001
 43
0.0000000001
 40
0.0
 40
0.0
 40
0.0
 40
0.0
 40
0.0555555555555556
 40
0.0555555555555556
 40
0.0555555555555556
 40
0.0555555555555556
 40
0.1111111111111111
 40
0.1111111111111111
 40
0.1111111111111111
 40
0.1111111111111111
 40
0.1666666666666667
 40
0.1666666666666667
 40
0.1666666666666667
 40
0.1666666666666667
 40
0.2222222222222222
 40
0.2222222222222222
 40
0.2222222222222222
 40
0.2222222222222222
 40
0.2777777777777778
 40
0.2777777777777778
 40
0.2777777777777778
 40
0.2777777777777778
 40
0.3333333333333333
 40
0.3333333333333333
 40
0.3333333333333333
 40
0.3333333333333333
 40
0.3888888888888889
 40
0.3888888888888889
 40
0.3888888888888889
 40
0.3888888888888889
 40
0.4444444444444444
 40
0.4444444444444444
 40
0.4444444444444444
 40
0.4444444444444444
 40
0.5
 40
0.5
 40
0.5
 40
0.5
 40
0.5555555555555556
 40
0.5555555555555556
 40
0.5555555555555556
 40
0.5555555555555556
 40
0.6111111111111112
 40
0.6111111111111112
 40
0.6111111111111112
 40
0.6111111111111112
 40
0.6666666666666666
 40
0.6666666666666666
 40
0.6666666666666666
 40
0.6666666666666666
 40
0.7222222222222222
 40
0.7222222222222222
 40
0.7222222222222222
 40
0.7222222222222222
 40
0.7777777777777778
 40
0.7777777777777778
 40
0.7777777777777778
 40
0.7777777777777778
 40
0.8333333333333334
 40
0.8333333333333334
 40
0.8333333333333334
 40
0.8333333333333334
 40
0.8888888888888888
 40
0.8888888888888888
 40
0.8888888888888888
 40
0.8888888888888888
 40
1.0
 40
1.0
 40
1.0
 40
1.0
 10
967.9104
 20
1061.1193
 30
0.0
 10
967.9104
 20
1061.1193
 30
0.0
 10
967.9104
 20
1075.0195
 30
0.0
 10
967.9104
 20
1075.0195
 30
0.0
 10
967.9104
 20
1075.0195
 30
0.0
 10
967.9104
 20
1075.0195
 30
0.0
 10
969.0148
 20
1075.0195
 30
0.0
 10
969.0148
 20
1075.0195
 30
0.0
 10
969.0148
 20
1075.0195
 30
0.0
 10
969.0148
 20
1075.0195
 30
0.0
 10
972.7148
 20
1075.0195
 30
0.0
 10
972.7148
 20
1075.0195
 30
0.0
 10
972.7148
 20
1075.0195
 30
0.0
 10
972.7148
 20
1075.0195
 30
0.0
 10
973.8104
 20
1075.0195
 30
0.0
 10
973.8104
 20
1075.0195
 30
0.0
 10
973.8104
 20
1075.0195
 30
0.0
 10
973.8104
 20
1075.0195
 30
0.0
 10
973.8104
 20
1061.1138
 30
0.0
 10
973.8104
 20
1061.1138
 30
0.0
 10
973.8104
 20
1061.1138
 30
0.0
 10
973.8104
 20
1061.1138
 30
0.0
 10
982.7204
 20
1061.0695
 30
0.0
 10
982.7204
 20
1061.0695
 30
0.0
 10
982.7204
 20
1061.0695
 30
0.0
 10
982.7204
 20
1061.0695
 30
0.0
 10
982.7204
 20
1126.2259
 30
0.0
 10
982.7204
 20
1126.2259
 30
0.0
 10
982.7204
 20
1126.2259
 30
0.0
 10
982.7204
 20
1131.7259
 30
0.0
 10
978.2152
 20
1136.2259
 30
0.0
 10
972.7244
 20
1136.2259
 30
0.0
 10
972.7244
 20
1136.2259
 30
0.0
 10
972.7244
 20
1136.2259
 30
0.0
 10
422.7164
 20
1136.2259
 30
0.0
 10
422.7164
 20
1136.2259
 30
0.0
 10
422.7164
 20
1136.2259
 30
0.0
 10
417.2256
 20
1136.2259
 30
0.0
 10
412.7204
 20
1131.7258
 30
0.0
 10
412.7204
 20
1126.2259
 30
0.0
 10
412.7204
 20
1126.2259
 30
0.0
 10
412.7204
 20
1126.2259
 30
0.0
 10
412.7204
 20
1061.0695
 30
0.0
 10
412.7204
 20
1061.0695
 30
0.0
 10
412.7204
 20
1061.0695
 30
0.0
 10
412.7204
 20
1061.0695
 30
0.0
 10
421.6148
 20
1061.0814
 30
0.0
 10
421.6148
 20
1061.0814
 30
0.0
 10
421.6148
 20
1061.0814
 30
0.0
 10
421.6148
 20
1061.0814
 30
0.0
 10
421.6148
 20
1074.9195
 30
0.0
 10
421.6148
 20
1074.9195
 30
0.0
 10
421.6148
 20
1074.9195
 30
0.0
 10
421.6148
 20
1074.9195
 30
0.0
 10
422.726
 20
1074.9195
 30
0.0
 10
422.726
 20
1074.9195
 30
0.0
 10
422.726
 20
1074.9195
 30
0.0
 10
422.726
 20
1074.9195
 30
0.0
 10
426.426
 20
1074.9195
 30
0.0
 10
426.426
 20
1074.9195
 30
0.0
 10
426.426
 20
1074.9195
 30
0.0
 10
426.426
 20
1074.9195
 30
0.0
 10
427.5148
 20
1074.9195
 30
0.0
 10
427.5148
 20
1074.9195
 30
0.0
 10
427.5148
 20
1074.9195
 30
0.0
 10
427.5148
 20
1074.9195
 30
0.0
 10
427.5148
 20
1061.0697
 30
0.0
 10
427.5148
 20
1061.0697
 30
0.0
  0
SPLINE
  5
88
330
1F
100
AcDbEntity
  8
layer 1
 62
   250
370
     9
100
AcDbSpline
210
0.0
220
0.0
230
1.0
 70
     8
 71
     3
 72
    72
 73
    68
 74
     0
 42
0.000000001
 43
0.0000000001
 40
0.0
 40
0.0
 40
0.0
 40
0.0
 40
0.0555555555555556
 40
0.0555555555555556
 40
0.0555555555555556
 40
0.0555555555555556
 40
0.1111111111111111
 40
0.1111111111111111
 40
0.1111111111111111
 40
0.1111111111111111
 40
0.1666666666666667
 40
0.1666666666666667
 40
0.1666666666666667
 40
0.1666666666666667
 40
0.2222222222222222
 40
0.2222222222222222
 40
0.2222222222222222
 40
0.2222222222222222
 40
0.2777777777777778
 40
0.2777777777777778
 40
0.2777777777777778
 40
0.2777777777777778
 40
0.3333333333333333
 40
0.3333333333333333
 40
0.3333333333333333
 40
0.3333333333333333
 40
0.3888888888888889
 40
0.3888888888888889
 40
0.3888888888888889
 40
0.3888888888888889
 40
0.4444444444444444
 40
0.4444444444444444
 40
0.4444444444444444
 40
0.4444444444444444
 40
0.5
 40
0.5
 40
0.5
 40
0.5
 40
0.5555555555555556
 40
0.5555555555555556
 40
0.5555555555555556
 40
0.5555555555555556
 40
0.6111111111111112
 40
0.6111111111111112
 40
0.6111111111111112
 40
0.6111111111111112
 40
0.6666666666666666
 40
0.6666666666666666
 40
0.6666666666666666
 40
0.6666666666666666
 40
0.7222222222222222
 40
0.7222222222222222
 40
0.7222222222222222
 40
0.7222222222222222
 40
0.7777777777777778
 40
0.7777777777777778
 40
0.7777777777777778
 40
0.7777777777777778
 40
0.8333333333333334
 40
0.8333333333333334
 40
0.8333333333333334
 40
0.8333333333333334
 40
0.8888888888888888
 40
0.8888888888888888
 40
0.8888888888888888
 40
0.8888888888888888
 40
1.0
 40
1.0
 40
1.0
 40
1.0
 10
967.9104
 20
985.9844
 30
0.0
 10
967.9104
 20
985.9844
 30
0.0
 10
967.9104
 20
999.8846
 30
0.0
 10
967.9104
 20
999.8846
 30
0.0
 10
967.9104
 20
999.8846
 30
0.0
 10
967.9104
 20
999.8846
 30
0.0
 10
969.0148
 20
999.8846
 30
0.0
 10
969.0148
 20
999.8846
 30
0.0
 10
969.0148
 20
999.8846
 30
0.0
 10
969.0148
 20
999.8846
 30
0.0
 10
972.7148
 20
999.8846
 30
0.0
 10
972.7148
 20
999.8846
 30
0.0
 10
972.7148
 20
999.8846
 30
0.0
 10
972.7148
 20
999.8846
 30
0.0
 10
973.8104
 20
999.8846
 30
0.0
 10
973.8104
 20
999.8846
 30
0.0
 10
973.8104
 20
999.8846
 30
0.0
 10
973.8104
 20
999.8846
 30
0.0
 10
973.8104
 20
985.9789
 30
0.0
 10
973.8104
 20
985.9789
 30
0.0
 10
973.8104
 20
985.9789
 30
0.0
 10
973.8104
 20
985.9789
 30
0.0
 10
982.7204
 20
985.9346
 30
0.0
 10
982.7204
 20
985.9346
 30
0.0
 10
982.7204
 20
985.9346
 30
0.0
 10
982.7204
 20
985.9346
 30
0.0
 10
982.7204
 20
1051.091
 30
0.0
 10
982.7204
 20
1051.091
 30
0.0
 10
982.7204
 20
1051.091
 30
0.0
 10
982.7204
 20
1056.591
 30
0.0
 10
978.2152
 20
1061.091
 30
0.0
 10
972.7244
 20
1061.091
 30
0.0
 10
972.7244
 20
1061.091
 30
0.0
 10
972.7244
 20
1061.091
 30
0.0
 10
422.7164
 20
1061.091
 30
0.0
 10
422.7164
 20
1061.091
 30
0.0
 10
422.7164
 20
1061.091
 30
0.0
 10
417.2256
 20
1061.091
 30
0.0
 10
412.7204
 20
1056.5909
 30
0.0
 10
412.7204
 20
1051.091
 30
0.0
 10
412.7204
 20
1051.091
 30
0.0
 10
412.7204
 20
1051.091
 30
0.0
 10
412.7204
 20
985.9346
 30
0.0
 10
412.7204
 20
985.9346
 30
0.0
 10
412.7204
 20
985.9346
 30
0.0
 10
412.7204
 20
985.9346
 30
0.0
 10
421.6148
 20
985.9465
 30
0.0
 10
421.6148
 20
985.9465
 30
0.0
 10
421.6148
 20
985.9465
 30
0.0
 10
421.6148
 20
985.9465
 30
0.0
 10
421.6148
 20
999.7846
 30
0.0
 10
421.6148
 20
999.7846
 30
0.0
 10
421.6148
 20
999.7846
 30
0.0
 10
421.6148
 20
999.7846
 30
0.0
 10
422.726
 20
999.7846
 30
0.0
 10
422.726
 20
999.7846
 30
0.0
 10
422.726
 20
999.7846
 30
0.0
 10
422.726
 20
999.7846
 30
0.0
 10
426.426
 20
999.7846
 30
0.0
 10
426.426
 20
999.7846
 30
0.0
 10
426.426
 20
999.7846
 30
0.0
 10
426.426
 20
999.7846
 30
0.0
 10
427.5148
 20
999.7846
 30
0.0
 10
427.5148
 20
999.7846
 30
0.0
 10
427.5148
 20
999.7846
 30
0.0
 10
427.5148
 20
999.7846
 30
0.0
 10
427.5148
 20
985.9348
 30
0.0
 10
427.5148
 20
985.9348
 30
0.0
  0
SPLINE
  5
89
330
1F
100
AcDbEntity
  8
layer 1
 62
   250
370
     9
100
AcDbSpline
210
0.0
220
0.0
230
1.0
 70
     8
 71
     3
 72
    72
 73
    68
 74
     0
 42
0.000000001
 43
0.0000000001
 40
0.0
 40
0.0
 40
0.0
 40
0.0
 40
0.0555555555555556
 40
0.0555555555555556
 40
0.0555555555555556
 40
0.0555555555555556
 40
0.1111111111111111
 40
0.1111111111111111
 40
0.1111111111111111
 40
0.1111111111111111
 40
0.1666666666666667
 40
0.1666666666666667
 40
0.1666666666666667
 40
0.1666666666666667
 40
0.2222222222222222
 40
0.2222222222222222
 40
0.2222222222222222
 40
0.2222222222222222
 40
0.2777777777777778
 40
0.2777777777777778
 40
0.2777777777777778
 40
0.2777777777777778
 40
0.3333333333333333
 40
0.3333333333333333
 40
0.3333333333333333
 40
0.3333333333333333
 40
0.3888888888888889
 40
0.3888888888888889
 40
0.3888888888888889
 40
0.3888888888888889
 40
0.4444444444444444
 40
0.4444444444444444
 40
0.4444444444444444
 40
0.4444444444444444
 40
0.5
 40
0.5
 40
0.5
 40
0.5
 40
0.5555555555555556
 40
0.5555555555555556
 40
0.5555555555555556
 40
0.5555555555555556
 40
0.6111111111111112
 40
0.6111111111111112
 40
0.6111111111111112
 40
0.6111111111111112
 40
0.6666666666666666
 40
0.6666666666666666
 40
0.6666666666666666
 40
0.6666666666666666
 40
0.7222222222222222
 40
0.7222222222222222
 40
0.7222222222222222
 40
0.7222222222222222
 40
0.7777777777777778
 40
0.7777777777777778
 40
0.7777777777777778
 40
0.7777777777777778
 40
0.8333333333333334
 40
0.8333333333333334
 40
0.8333333333333334
 40
0.8333333333333334
 40
0.8888888888888888
 40
0.8888888888888888
 40
0.8888888888888888
 40
0.8888888888888888
 40
1.0
 40
1.0
 40
1.0
 40
1.0
 10
967.9104
 20
910.8424
 30
0.0
 10
967.9104
 20
910.8424
 30
0.0
 10
967.9104
 20
924.7426
 30
0.0
 10
967.9104
 20
924.7426
 30
0.0
 10
967.9104
 20
924.7426
 30
0.0
 10
967.9104
 20
924.7426
 30
0.0
 10
969.0148
 20
924.7426
 30
0.0
 10
969.0148
 20
924.7426
 30
0.0
 10
969.0148
 20
924.7426
 30
0.0
 10
969.0148
 20
924.7426
 30
0.0
 10
972.7148
 20
924.7426
 30
0.0
 10
972.7148
 20
924.7426
 30
0.0
 10
972.7148
 20
924.7426
 30
0.0
 10
972.7148
 20
924.7426
 30
0.0
 10
973.8104
 20
924.7426
 30
0.0
 10
973.8104
 20
924.7426
 30
0.0
 10
973.8104
 20
924.7426
 30
0.0
 10
973.8104
 20
924.7426
 30
0.0
 10
973.8104
 20
910.8369
 30
0.0
 10
973.8104
 20
910.8369
 30
0.0
 10
973.8104
 20
910.8369
 30
0.0
 10
973.8104
 20
910.8369
 30
0.0
 10
982.7204
 20
910.7926
 30
0.0
 10
982.7204
 20
910.7926
 30
0.0
 10
982.7204
 20
910.7926
 30
0.0
 10
982.7204
 20
910.7926
 30
0.0
 10
982.7204
 20
975.949
 30
0.0
 10
982.7204
 20
975.949
 30
0.0
 10
982.7204
 20
975.949
 30
0.0
 10
982.7204
 20
981.449
 30
0.0
 10
978.2152
 20
985.949
 30
0.0
 10
972.7244
 20
985.949
 30
0.0
 10
972.7244
 20
985.949
 30
0.0
 10
972.7244
 20
985.949
 30
0.0
 10
422.7164
 20
985.949
 30
0.0
 10
422.7164
 20
985.949
 30
0.0
 10
422.7164
 20
985.949
 30
0.0
 10
417.2256
 20
985.949
 30
0.0
 10
412.7204
 20
981.4489
 30
0.0
 10
412.7204
 20
975.949
 30
0.0
 10
412.7204
 20
975.949
 30
0.0
 10
412.7204
 20
975.949
 30
0.0
 10
412.7204
 20
910.7926
 30
0.0
 10
412.7204
 20
910.7926
 30
0.0
 10
412.7204
 20
910.7926
 30
0.0
 10
412.7204
 20
910.7926
 30
0.0
 10
421.6148
 20
910.8045
 30
0.0
 10
421.6148
 20
910.8045
 30
0.0
 10
421.6148
 20
910.8045
 30
0.0
 10
421.6148
 20
910.8045
 30
0.0
 10
421.6148
 20
924.6426
 30
0.0
 10
421.6148
 20
924.6426
 30
0.0
 10
421.6148
 20
924.6426
 30
0.0
 10
421.6148
 20
924.6426
 30
0.0
 10
422.726
 20
924.6426
 30
0.0
 10
422.726
 20
924.6426
 30
0.0
 10
422.726
 20
924.6426
 30
0.0
 10
422.726
 20
924.6426
 30
0.0
 10
426.426
 20
924.6426
 30
0.0
 10
426.426
 20
924.6426
 30
0.0
 10
426.426
 20
924.6426
 30
0.0
 10
426.426
 20
924.6426
 30
0.0
 10
427.5148
 20
924.6426
 30
0.0
 10
427.5148
 20
924.6426
 30
0.0
 10
427.5148
 20
924.6426
 30
0.0
 10
427.5148
 20
924.6426
 30
0.0
 10
427.5148
 20
910.7928
 30
0.0
 10
427.5148
 20
910.7928
 30
0.0
  0
SPLINE
  5
8A
330
1F
100
AcDbEntity
  8
layer 1
 62
   250
370
     9
100
AcDbSpline
210
0.0
220
0.0
230
1.0
 70
    11
 71
     3
 72
    76
 73
    72
 74
     0
 42
0.000000001
 43
0.0000000001
 40
0.0
 40
0.0
 40
0.0
 40
0.0
 40
0.0526315789473684
 40
0.0526315789473684
 40
0.0526315789473684
 40
0.0526315789473684
 40
0.1052631578947368
 40
0.1052631578947368
 40
0.1052631578947368
 40
0.1052631578947368
 40
0.1578947368421053
 40
0.1578947368421053
 40
0.1578947368421053
 40
0.1578947368421053
 40
0.2105263157894737
 40
0.2105263157894737
 40
0.2105263157894737
 40
0.2105263157894737
 40
0.2631578947368421
 40
0.2631578947368421
 40
0.2631578947368421
 40
0.2631578947368421
 40
0.3157894736842105
 40
0.3157894736842105
 40
0.3157894736842105
 40
0.3157894736842105
 40
0.3684210526315789
 40
0.3684210526315789
 40
0.3684210526315789
 40
0.3684210526315789
 40
0.4210526315789473
 40
0.4210526315789473
 40
0.4210526315789473
 40
0.4210526315789473
 40
0.4736842105263158
 40
0.4736842105263158
 40
0.4736842105263158
 40
0.4736842105263158
 40
0.5263157894736842
 40
0.5263157894736842
 40
0.5263157894736842
 40
0.5263157894736842
 40
0.5789473684210527
 40
0.5789473684210527
 40
0.5789473684210527
 40
0.5789473684210527
 40
0.631578947368421
 40
0.631578947368421
 40
0.631578947368421
 40
0.631578947368421
 40
0.6842105263157895
 40
0.6842105263157895
 40
0.6842105263157895
 40
0.6842105263157895
 40
0.7368421052631579
 40
0.7368421052631579
 40
0.7368421052631579
 40
0.7368421052631579
 40
0.7894736842105263
 40
0.7894736842105263
 40
0.7894736842105263
 40
0.7894736842105263
 40
0.8421052631578947
 40
0.8421052631578947
 40
0.8421052631578947
 40
0.8421052631578947
 40
0.8947368421052632
 40
0.8947368421052632
 40
0.8947368421052632
 40
0.8947368421052632
 40
1.0
 40
1.0
 40
1.0
 40
1.0
 10
973.8104
 20
835.702
 30
0.0
 10
973.8104
 20
835.702
 30
0.0
 10
982.7204
 20
835.6577
 30
0.0
 10
982.7204
 20
835.6577
 30
0.0
 10
982.7204
 20
835.6577
 30
0.0
 10
982.7204
 20
835.6577
 30
0.0
 10
982.7204
 20
900.8141
 30
0.0
 10
982.7204
 20
900.8141
 30
0.0
 10
982.7204
 20
900.8141
 30
0.0
 10
982.7204
 20
906.3141
 30
0.0
 10
978.2152
 20
910.8141
 30
0.0
 10
972.7244
 20
910.8141
 30
0.0
 10
972.7244
 20
910.8141
 30
0.0
 10
972.7244
 20
910.8141
 30
0.0
 10
422.7164
 20
910.8141
 30
0.0
 10
422.7164
 20
910.8141
 30
0.0
 10
422.7164
 20
910.8141
 30
0.0
 10
417.2256
 20
910.8141
 30
0.0
 10
412.7204
 20
906.314
 30
0.0
 10
412.7204
 20
900.8141
 30
0.0
 10
412.7204
 20
900.8141
 30
0.0
 10
412.7204
 20
900.8141
 30
0.0
 10
412.7204
 20
835.6577
 30
0.0
 10
412.7204
 20
835.6577
 30
0.0
 10
412.7204
 20
835.6577
 30
0.0
 10
412.7204
 20
835.6577
 30
0.0
 10
421.6148
 20
835.6696
 30
0.0
 10
421.6148
 20
835.6696
 30
0.0
 10
421.6148
 20
835.6696
 30
0.0
 10
421.6148
 20
835.6696
 30
0.0
 10
421.6148
 20
849.5077
 30
0.0
 10
421.6148
 20
849.5077
 30
0.0
 10
421.6148
 20
849.5077
 30
0.0
 10
421.6148
 20
849.5077
 30
0.0
 10
422.726
 20
849.5077
 30
0.0
 10
422.726
 20
849.5077
 30
0.0
 10
422.726
 20
849.5077
 30
0.0
 10
422.726
 20
849.5077
 30
0.0
 10
426.426
 20
849.5077
 30
0.0
 10
426.426
 20
849.5077
 30
0.0
 10
426.426
 20
849.5077
 30
0.0
 10
426.426
 20
849.5077
 30
0.0
 10
427.5148
 20
849.5077
 30
0.0
 10
427.5148
 20
849.5077
 30
0.0
 10
427.5148
 20
849.5077
 30
0.0
 10
427.5148
 20
849.5077
 30
0.0
 10
427.5148
 20
835.6579
 30
0.0
 10
427.5148
 20
835.6579
 30
0.0
 10
427.5148
 20
835.6579
 30
0.0
 10
427.5148
 20
835.6579
 30
0.0
 10
967.9104
 20
835.7075
 30
0.0
 10
967.9104
 20
835.7075
 30
0.0
 10
967.9104
 20
835.7075
 30
0.0
 10
967.9104
 20
835.7075
 30
0.0
 10
967.9104
 20
849.6077
 30
0.0
 10
967.9104
 20
849.6077
 30
0.0
 10
967.9104
 20
849.6077
 30
0.0
 10
967.9104
 20
849.6077
 30
0.0
 10
969.0148
 20
849.6077
 30
0.0
 10
969.0148
 20
849.6077
 30
0.0
 10
969.0148
 20
849.6077
 30
0.0
 10
969.0148
 20
849.6077
 30
0.0
 10
972.7148
 20
849.6077
 30
0.0
 10
972.7148
 20
849.6077
 30
0.0
 10
972.7148
 20
849.6077
 30
0.0
 10
972.7148
 20
849.6077
 30
0.0
 10
973.8104
 20
849.6077
 30
0.0
 10
973.8104
 20
849.6077
 30
0.0
 10
973.8104
 20
849.6077
 30
0.0
 10
973.8104
 20
849.6077
 30
0.0
 10
973.8104
 20
835.702
 30
0.0
 10
973.8104
 20
835.702
 30
0.0
  0
ENDSEC
  0
SECTION
  2
OBJECTS
  0
DICTIONARY
  5
C
330
0
100
AcDbDictionary
281
     1
  3
ACAD_DETAILVIEWSTYLE
350
C6
  3
ACAD_GROUP
350
D
  3
ACAD_LAYOUT
350
1A
  3
ACAD_MATERIAL
350
43
  3
ACAD_MLEADERSTYLE
350
6B
  3
ACAD_MLINESTYLE
350
17
  3
ACAD_PLOTSETTINGS
350
19
  3
ACAD_PLOTSTYLENAME
350
E
  3
ACAD_SCALELIST
350
47
  3
ACAD_SECTIONVIEWSTYLE
350
C7
  3
ACAD_TABLESTYLE
350
69
  3
ACAD_VISUALSTYLE
350
2A
  3
ACDB_RECOMPOSE_DATA
350
C3
  3
AcDbVariableDictionary
350
8B
  0
SUN
  5
6D
330
29
100
AcDbSun
 90
        1
290
     0
 63
     7
421
 16777215
 40
1.0
291
     1
 91
  2455826
 92
 54000000
292
     0
 70
     2
 71
   256
280
     1
  0
DICTIONARY
  5
C6
102
{ACAD_REACTORS
330
C
102
}
330
C
100
AcDbDictionary
281
     1
  0
DICTIONARY
  5
D
102
{ACAD_REACTORS
330
C
102
}
330
C
100
AcDbDictionary
281
     1
  0
DICTIONARY
  5
1A
102
{ACAD_REACTORS
330
C
102
}
330
C
100
AcDbDictionary
281
     1
  3
Layout1
350
1E
  3
Layout2
350
26
  3
Model
350
22
  0
DICTIONARY
  5
43
102
{ACAD_REACTORS
330
C
102
}
330
C
100
AcDbDictionary
281
     1
  3
ByBlock
350
45
  3
ByLayer
350
44
  3
Global
350
46
  0
DICTIONARY
  5
6B
102
{ACAD_REACTORS
330
C
102
}
330
C
100
AcDbDictionary
281
     1
  3
Standard
350
6C
  0
DICTIONARY
  5
17
102
{ACAD_REACTORS
330
C
102
}
330
C
100
AcDbDictionary
281
     1
  3
Standard
350
18
  0
DICTIONARY
  5
19
102
{ACAD_REACTORS
330
C
102
}
330
C
100
AcDbDictionary
281
     1
  0
ACDBDICTIONARYWDFLT
  5
E
102
{ACAD_REACTORS
330
C
102
}
330
C
100
AcDbDictionary
281
     1
  3
Normal
350
F
100
AcDbDictionaryWithDefault
340
F
  0
DICTIONARY
  5
47
102
{ACAD_REACTORS
330
C
102
}
330
C
100
AcDbDictionary
281
     1
  3
A0
350
48
  3
A1
350
49
  3
A2
350
4A
  3
A3
350
4B
  3
A4
350
4C
  3
A5
350
4D
  3
A6
350
4E
  3
A7
350
4F
  3
A8
350
50
  3
A9
350
51
  3
B0
350
52
  3
B1
350
53
  3
B2
350
54
  3
B3
350
55
  3
B4
350
56
  3
B5
350
57
  3
B6
350
58
  3
B7
350
59
  3
B8
350
5A
  3
B9
350
5B
  3
C0
350
5C
  3
C1
350
5D
  3
C2
350
5E
  3
C3
350
5F
  3
C4
350
60
  3
C5
350
61
  3
C6
350
62
  3
C7
350
63
  3
C8
350
64
  3
C9
350
65
  3
D0
350
66
  3
D1
350
67
  3
D2
350
68
  0
DICTIONARY
  5
C7
102
{ACAD_REACTORS
330
C
102
}
330
C
100
AcDbDictionary
281
     1
  0
DICTIONARY
  5
69
102
{ACAD_REACTORS
330
C
102
}
330
C
100
AcDbDictionary
281
     1
  3
Standard
350
6A
  0
DICTIONARY
  5
2A
102
{ACAD_REACTORS
330
C
102
}
330
C
100
AcDbDictionary
281
     1
  3
2dWireframe
350
2F
  3
Basic
350
32
  3
Brighten
350
36
  3
ColorChange
350
3A
  3
Conceptual
350
34
  3
Dim
350
35
  3
EdgeColorOff
350
3D
  3
Facepattern
350
39
  3
Flat
350
2B
  3
FlatWithEdges
350
2C
  3
Gouraud
350
2D
  3
GouraudWithEdges
350
2E
  3
Hidden
350
31
  3
JitterOff
350
3B
  3
Linepattern
350
38
  3
OverhangOff
350
3C
  3
Realistic
350
33
  3
Shaded
350
42
  3
Shaded with edges
350
41
  3
Shades of Gray
350
3E
  3
Sketchy
350
3F
  3
Thicken
350
37
  3
Wireframe
350
30
  3
X-Ray
350
40
  0
XRECORD
  5
C3
102
{ACAD_REACTORS
330
C
102
}
330
C
100
AcDbXrecord
280
     1
 90
        1
330
6A
  0
DICTIONARY
  5
8B
102
{ACAD_REACTORS
330
C
102
}
330
C
100
AcDbDictionary
281
     1
  3
CANNOSCALE
350
8C
  3
CMLEADERSTYLE
350
C5
  3
CTABLESTYLE
350
C4
  3
XCLIPFRAME
350
8D
  0
LAYOUT
  5
1E
102
{ACAD_REACTORS
330
1A
102
}
330
1A
100
AcDbPlotSettings
  1

  2
none_device
  4

  6

 40
0.0
 41
0.0
 42
0.0
 43
0.0
 44
0.0
 45
0.0
 46
0.0
 47
0.0
 48
0.0
 49
0.0
140
0.0
141
0.0
142
1.0
143
1.0
 70
   688
 72
     0
 73
     0
 74
     5
  7

 75
    16
 76
     0
 77
     2
 78
   300
147
1.0
148
0.0
149
0.0
100
AcDbLayout
  1
Layout1
 70
     1
 71
     1
 10
0.0
 20
0.0
 11
12.0
 21
9.0
 12
0.0
 22
0.0
 32
0.0
 14
1.000000000000000E+20
 24
1.000000000000000E+20
 34
1.000000000000000E+20
 15
-1.000000000000000E+20
 25
-1.000000000000000E+20
 35
-1.000000000000000E+20
146
0.0
 13
0.0
 23
0.0
 33
0.0
 16
1.0
 26
0.0
 36
0.0
 17
0.0
 27
1.0
 37
0.0
 76
     0
330
1B
  0
LAYOUT
  5
26
102
{ACAD_REACTORS
330
1A
102
}
330
1A
100
AcDbPlotSettings
  1

  2
none_device
  4

  6

 40
0.0
 41
0.0
 42
0.0
 43
0.0
 44
0.0
 45
0.0
 46
0.0
 47
0.0
 48
0.0
 49
0.0
140
0.0
141
0.0
142
1.0
143
1.0
 70
   688
 72
     0
 73
     0
 74
     5
  7

 75
    16
 76
     0
 77
     2
 78
   300
147
1.0
148
0.0
149
0.0
100
AcDbLayout
  1
Layout2
 70
     1
 71
     2
 10
0.0
 20
0.0
 11
0.0
 21
0.0
 12
0.0
 22
0.0
 32
0.0
 14
0.0
 24
0.0
 34
0.0
 15
0.0
 25
0.0
 35
0.0
146
0.0
 13
0.0
 23
0.0
 33
0.0
 16
1.0
 26
0.0
 36
0.0
 17
0.0
 27
1.0
 37
0.0
 76
     0
330
23
  0
LAYOUT
  5
22
102
{ACAD_REACTORS
330
1A
102
}
330
1A
100
AcDbPlotSettings
  1

  2
none_device
  4
Letter_(8.50_x_11.00_Inches)
  6

 40
6.35
 41
6.35
 42
6.35000508
 43
6.35000508
 44
215.9
 45
279.4
 46
0.0
 47
0.0
 48
0.0
 49
0.0
140
0.0
141
0.0
142
1.0
143
1.0
 70
  1712
 72
     0
 73
     0
 74
     0
  7

 75
     0
 76
     0
 77
     2
 78
   300
147
1.0
148
0.0
149
0.0
100
AcDbLayout
  1
Model
 70
     1
 71
     0
 10
0.0
 20
0.0
 11
12.0
 21
9.0
 12
0.0
 22
0.0
 32
0.0
 14
-454.3021
 24
280.6584
 34
0.0
 15
990.3893
 25
1604.5206
 35
0.0
146
0.0
 13
0.0
 23
0.0
 33
0.0
 16
1.0
 26
0.0
 36
0.0
 17
0.0
 27
1.0
 37
0.0
 76
     0
330
1F
331
29
  0
MATERIAL
  5
45
102
{ACAD_REACTORS
330
43
102
}
330
43
100
AcDbMaterial
  1
ByBlock
 72
     1
 94
      127
  0
MATERIAL
  5
44
102
{ACAD_REACTORS
330
43
102
}
330
43
100
AcDbMaterial
  1
ByLayer
 72
     1
 94
      127
  0
MATERIAL
  5
46
102
{ACAD_REACTORS
330
43
102
}
330
43
100
AcDbMaterial
  1
Global
 72
     1
 94
      127
  0
MLEADERSTYLE
  5
6C
102
{ACAD_REACTORS
330
6B
102
}
102
{ACAD_XDICTIONARY
360
C1
102
}
330
6B
100
AcDbMLeaderStyle
170
     2
171
     1
172
     0
 90
        2
 40
0.0
 41
0.0
173
     1
 91
-1056964608
340
14
 92
       -2
290
     1
 42
0.09
291
     1
 43
0.36
  3
Standard
341
0
 44
0.18
300

342
11
174
     1
178
     6
175
     1
176
     0
 93
-1056964608
 45
0.18
292
     0
297
     0
 46
0.18
343
0
 94
-1056964608
 47
1.0
 49
1.0
140
1.0
293
     1
141
0.0
294
     1
177
     0
142
1.0
295
     0
296
     0
143
0.125
1001
ACAD_MLEADERVER
1070
     2
  0
MLINESTYLE
  5
18
102
{ACAD_REACTORS
330
17
102
}
330
17
100
AcDbMlineStyle
  2
Standard
 70
     0
  3

 62
   256
 51
90.0
 52
90.0
 71
     2
 49
0.5
 62
   256
  6
BYLAYER
 49
-0.5
 62
   256
  6
BYLAYER
  0
ACDBPLACEHOLDER
  5
F
102
{ACAD_REACTORS
330
E
102
}
330
E
  0
SCALE
  5
48
102
{ACAD_REACTORS
330
47
102
}
330
47
100
AcDbScale
 70
     0
300
1:1
140
1.0
141
1.0
290
     1
  0
SCALE
  5
49
102
{ACAD_REACTORS
330
47
102
}
330
47
100
AcDbScale
 70
     0
300
1:2
140
1.0
141
2.0
290
     0
  0
SCALE
  5
4A
102
{ACAD_REACTORS
330
47
102
}
330
47
100
AcDbScale
 70
     0
300
1:4
140
1.0
141
4.0
290
     0
  0
SCALE
  5
4B
102
{ACAD_REACTORS
330
47
102
}
330
47
100
AcDbScale
 70
     0
300
1:5
140
1.0
141
5.0
290
     0
  0
SCALE
  5
4C
102
{ACAD_REACTORS
330
47
102
}
330
47
100
AcDbScale
 70
     0
300
1:8
140
1.0
141
8.0
290
     0
  0
SCALE
  5
4D
102
{ACAD_REACTORS
330
47
102
}
330
47
100
AcDbScale
 70
     0
300
1:10
140
1.0
141
10.0
290
     0
  0
SCALE
  5
4E
102
{ACAD_REACTORS
330
47
102
}
330
47
100
AcDbScale
 70
     0
300
1:16
140
1.0
141
16.0
290
     0
  0
SCALE
  5
4F
102
{ACAD_REACTORS
330
47
102
}
330
47
100
AcDbScale
 70
     0
300
1:20
140
1.0
141
20.0
290
     0
  0
SCALE
  5
50
102
{ACAD_REACTORS
330
47
102
}
330
47
100
AcDbScale
 70
     0
300
1:30
140
1.0
141
30.0
290
     0
  0
SCALE
  5
51
102
{ACAD_REACTORS
330
47
102
}
330
47
100
AcDbScale
 70
     0
300
1:40
140
1.0
141
40.0
290
     0
  0
SCALE
  5
52
102
{ACAD_REACTORS
330
47
102
}
330
47
100
AcDbScale
 70
     0
300
1:50
140
1.0
141
50.0
290
     0
  0
SCALE
  5
53
102
{ACAD_REACTORS
330
47
102
}
330
47
100
AcDbScale
 70
     0
300
1:100
140
1.0
141
100.0
290
     0
  0
SCALE
  5
54
102
{ACAD_REACTORS
330
47
102
}
330
47
100
AcDbScale
 70
     0
300
2:1
140
2.0
141
1.0
290
     0
  0
SCALE
  5
55
102
{ACAD_REACTORS
330
47
102
}
330
47
100
AcDbScale
 70
     0
300
4:1
140
4.0
141
1.0
290
     0
  0
SCALE
  5
56
102
{ACAD_REACTORS
330
47
102
}
330
47
100
AcDbScale
 70
     0
300
8:1
140
8.0
141
1.0
290
     0
  0
SCALE
  5
57
102
{ACAD_REACTORS
330
47
102
}
330
47
100
AcDbScale
 70
     0
300
10:1
140
10.0
141
1.0
290
     0
  0
SCALE
  5
58
102
{ACAD_REACTORS
330
47
102
}
330
47
100
AcDbScale
 70
     0
300
100:1
140
100.0
141
1.0
290
     0
  0
SCALE
  5
59
102
{ACAD_REACTORS
330
47
102
}
330
47
100
AcDbScale
 70
     0
300
1/128" = 1'-0"
140
0.0078125
141
12.0
290
     0
  0
SCALE
  5
5A
102
{ACAD_REACTORS
330
47
102
}
330
47
100
AcDbScale
 70
     0
300
1/64" = 1'-0"
140
0.015625
141
12.0
290
     0
  0
SCALE
  5
5B
102
{ACAD_REACTORS
330
47
102
}
330
47
100
AcDbScale
 70
     0
300
1/32" = 1'-0"
140
0.03125
141
12.0
290
     0
  0
SCALE
  5
5C
102
{ACAD_REACTORS
330
47
102
}
330
47
100
AcDbScale
 70
     0
300
1/16" = 1'-0"
140
0.0625
141
12.0
290
     0
  0
SCALE
  5
5D
102
{ACAD_REACTORS
330
47
102
}
330
47
100
AcDbScale
 70
     0
300
3/32" = 1'-0"
140
0.09375
141
12.0
290
     0
  0
SCALE
  5
5E
102
{ACAD_REACTORS
330
47
102
}
330
47
100
AcDbScale
 70
     0
300
1/8" = 1'-0"
140
0.125
141
12.0
290
     0
  0
SCALE
  5
5F
102
{ACAD_REACTORS
330
47
102
}
330
47
100
AcDbScale
 70
     0
300
3/16" = 1'-0"
140
0.1875
141
12.0
290
     0
  0
SCALE
  5
60
102
{ACAD_REACTORS
330
47
102
}
330
47
100
AcDbScale
 70
     0
300
1/4" = 1'-0"
140
0.25
141
12.0
290
     0
  0
SCALE
  5
61
102
{ACAD_REACTORS
330
47
102
}
330
47
100
AcDbScale
 70
     0
300
3/8" = 1'-0"
140
0.375
141
12.0
290
     0
  0
SCALE
  5
62
102
{ACAD_REACTORS
330
47
102
}
330
47
100
AcDbScale
 70
     0
300
1/2" = 1'-0"
140
0.5
141
12.0
290
     0
  0
SCALE
  5
63
102
{ACAD_REACTORS
330
47
102
}
330
47
100
AcDbScale
 70
     0
300
3/4" = 1'-0"
140
0.75
141
12.0
290
     0
  0
SCALE
  5
64
102
{ACAD_REACTORS
330
47
102
}
330
47
100
AcDbScale
 70
     0
300
1" = 1'-0"
140
1.0
141
12.0
290
     0
  0
SCALE
  5
65
102
{ACAD_REACTORS
330
47
102
}
330
47
100
AcDbScale
 70
     0
300
1-1/2" = 1'-0"
140
1.5
141
12.0
290
     0
  0
SCALE
  5
66
102
{ACAD_REACTORS
330
47
102
}
330
47
100
AcDbScale
 70
     0
300
3" = 1'-0"
140
3.0
141
12.0
290
     0
  0
SCALE
  5
67
102
{ACAD_REACTORS
330
47
102
}
330
47
100
AcDbScale
 70
     0
300
6" = 1'-0"
140
6.0
141
12.0
290
     0
  0
SCALE
  5
68
102
{ACAD_REACTORS
330
47
102
}
330
47
100
AcDbScale
 70
     0
300
1'-0" = 1'-0"
140
12.0
141
12.0
290
     0
  0
TABLESTYLE
  5
6A
102
{ACAD_REACTORS
330
69
102
}
102
{ACAD_XDICTIONARY
360
BE
102
}
330
69
100
AcDbTableStyle
  3
Standard
 70
     0
 71
     0
 40
0.06
 41
0.06
280
     0
281
     0
  7
Standard
140
0.18
170
     2
 62
     0
 63
   257
283
     0
 90
        4
 91
        0
  1

274
    -2
284
     1
 64
     0
275
    -2
285
     1
 65
     0
276
    -2
286
     1
 66
     0
277
    -2
287
     1
 67
     0
278
    -2
288
     1
 68
     0
279
    -2
289
     1
 69
     0
  7
Standard
140
0.25
170
     5
 62
     0
 63
   257
283
     0
 90
        4
 91
        0
  1

274
    -2
284
     1
 64
     0
275
    -2
285
     1
 65
     0
276
    -2
286
     1
 66
     0
277
    -2
287
     1
 67
     0
278
    -2
288
     1
 68
     0
279
    -2
289
     1
 69
     0
  7
Standard
140
0.18
170
     5
 62
     0
 63
   257
283
     0
 90
        4
 91
        0
  1

274
    -2
284
     1
 64
     0
275
    -2
285
     1
 65
     0
276
    -2
286
     1
 66
     0
277
    -2
287
     1
 67
     0
278
    -2
288
     1
 68
     0
279
    -2
289
     1
 69
     0
  0
VISUALSTYLE
  5
2F
102
{ACAD_REACTORS
330
2A
102
}
102
{ACAD_XDICTIONARY
360
96
102
}
330
2A
100
AcDbVisualStyle
  2
2dWireframe
 70
     4
 71
     0
 72
     2
 73
     0
 90
        0
 40
0.6
 41
30.0
 62
     5
 63
     7
421
 16777215
 74
     1
 91
        4
 64
     7
 65
   257
 75
     1
175
     1
 42
1.0
 92
        0
 66
   257
 43
1.0
 76
     1
 77
     6
 78
     2
 67
     7
 79
     5
170
     0
171
     0
290
     0
174
     0
 93
        1
 44
0.0
173
     0
291
     0
 45
0.0
  0
VISUALSTYLE
  5
32
102
{ACAD_REACTORS
330
2A
102
}
102
{ACAD_XDICTIONARY
360
9C
102
}
330
2A
100
AcDbVisualStyle
  2
Basic
 70
     7
 71
     1
 72
     0
 73
     1
 90
        0
 40
0.6
 41
30.0
 62
     5
 63
     7
421
 16777215
 74
     0
 91
        4
 64
     7
 65
   257
 75
     1
175
     1
 42
1.0
 92
        8
 66
     7
 43
1.0
 76
     1
 77
     6
 78
     2
 67
     7
 79
     5
170
     0
171
     0
290
     0
174
     0
 93
        1
 44
0.0
173
     0
291
     1
 45
0.0
  0
VISUALSTYLE
  5
36
102
{ACAD_REACTORS
330
2A
102
}
102
{ACAD_XDICTIONARY
360
A4
102
}
330
2A
100
AcDbVisualStyle
  2
Brighten
 70
    12
 71
     2
 72
     2
 73
     0
 90
        0
 40
0.6
 41
30.0
 62
     5
 63
     7
421
 16777215
 74
     1
 91
        4
 64
     7
 65
   257
 75
     1
175
     1
 42
1.0
 92
        8
 66
     7
 43
1.0
 76
     1
 77
     6
 78
     2
 67
     7
 79
     5
170
     0
171
     0
290
     0
174
     0
 93
        1
 44
50.0
173
     0
291
     1
 45
0.0
  0
VISUALSTYLE
  5
3A
102
{ACAD_REACTORS
330
2A
102
}
102
{ACAD_XDICTIONARY
360
AC
102
}
330
2A
100
AcDbVisualStyle
  2
ColorChange
 70
    16
 71
     2
 72
     2
 73
     3
 90
        0
 40
0.6
 41
30.0
 62
     5
 63
     8
421
  8421504
 74
     1
 91
        4
 64
     7
 65
   257
 75
     1
175
     1
 42
1.0
 92
        8
 66
     8
424
  8421504
 43
1.0
 76
     1
 77
     6
 78
     2
 67
     7
 79
     5
170
     0
171
     0
290
     0
174
     0
 93
        1
 44
0.0
173
     0
291
     1
 45
0.0
  0
VISUALSTYLE
  5
34
102
{ACAD_REACTORS
330
2A
102
}
102
{ACAD_XDICTIONARY
360
A0
102
}
330
2A
100
AcDbVisualStyle
  2
Conceptual
 70
     9
 71
     3
 72
     2
 73
     0
 90
        0
 40
0.6
 41
30.0
 62
     5
 63
     7
421
 16777215
 74
     2
 91
        2
 64
     7
 65
   257
 75
     1
175
     1
 42
179.0
 92
        8
 66
     7
 43
1.0
 76
     1
 77
     6
 78
     2
 67
     7
 79
     3
170
     0
171
     0
290
     0
174
     0
 93
        1
 44
0.0
173
     0
291
     0
 45
0.0
  0
VISUALSTYLE
  5
35
102
{ACAD_REACTORS
330
2A
102
}
102
{ACAD_XDICTIONARY
360
A2
102
}
330
2A
100
AcDbVisualStyle
  2
Dim
 70
    11
 71
     2
 72
     2
 73
     0
 90
        0
 40
0.6
 41
30.0
 62
     5
 63
     7
421
 16777215
 74
     1
 91
        4
 64
     7
 65
   257
 75
     1
175
     1
 42
1.0
 92
        8
 66
     7
 43
1.0
 76
     1
 77
     6
 78
     2
 67
     7
 79
     5
170
     0
171
     0
290
     0
174
     0
 93
        1
 44
-50.0
173
     0
291
     1
 45
0.0
  0
VISUALSTYLE
  5
3D
102
{ACAD_REACTORS
330
2A
102
}
102
{ACAD_XDICTIONARY
360
B2
102
}
330
2A
100
AcDbVisualStyle
  2
EdgeColorOff
 70
    22
 71
     2
 72
     2
 73
     0
 90
        0
 40
0.6
 41
30.0
 62
     5
 63
     7
421
 16777215
 74
     1
 91
        4
 64
     7
 65
   257
 75
     1
175
     1
 42
1.0
 92
        8
 66
     7
 43
1.0
 76
     1
 77
     6
 78
     2
 67
     7
 79
     5
170
     0
171
     0
290
     0
174
     0
 93
        1
 44
0.0
173
     0
291
     1
 45
0.0
  0
VISUALSTYLE
  5
39
102
{ACAD_REACTORS
330
2A
102
}
102
{ACAD_XDICTIONARY
360
AA
102
}
330
2A
100
AcDbVisualStyle
  2
Facepattern
 70
    15
 71
     2
 72
     2
 73
     0
 90
        0
 40
0.6
 41
30.0
 62
     5
 63
     7
421
 16777215
 74
     1
 91
        4
 64
     7
 65
   257
 75
     1
175
     1
 42
1.0
 92
        8
 66
     7
 43
1.0
 76
     1
 77
     6
 78
     2
 67
     7
 79
     5
170
     0
171
     0
290
     0
174
     0
 93
        1
 44
0.0
173
     0
291
     1
 45
0.0
  0
VISUALSTYLE
  5
2B
102
{ACAD_REACTORS
330
2A
102
}
102
{ACAD_XDICTIONARY
360
8E
102
}
330
2A
100
AcDbVisualStyle
  2
Flat
 70
     0
 71
     2
 72
     1
 73
     1
 90
        2
 40
0.6
 41
30.0
 62
     5
 63
     7
421
 16777215
 74
     0
 91
        0
 64
     7
 65
   257
 75
     1
175
     1
 42
1.0
 92
        8
 66
     7
 43
1.0
 76
     1
 77
     6
 78
     2
 67
     7
 79
     5
170
     0
171
     0
290
     0
174
     0
 93
       13
 44
0.0
173
     0
291
     1
 45
0.0
  0
VISUALSTYLE
  5
2C
102
{ACAD_REACTORS
330
2A
102
}
102
{ACAD_XDICTIONARY
360
90
102
}
330
2A
100
AcDbVisualStyle
  2
FlatWithEdges
 70
     1
 71
     2
 72
     1
 73
     1
 90
        2
 40
0.6
 41
30.0
 62
     5
 63
     7
421
 16777215
 74
     1
 91
        0
 64
     7
 65
   257
 75
     1
175
     1
 42
1.0
 92
        0
 66
   257
 43
1.0
 76
     1
 77
     6
 78
     2
 67
     7
 79
     5
170
     0
171
     0
290
     0
174
     0
 93
       13
 44
0.0
173
     0
291
     1
 45
0.0
  0
VISUALSTYLE
  5
2D
102
{ACAD_REACTORS
330
2A
102
}
102
{ACAD_XDICTIONARY
360
92
102
}
330
2A
100
AcDbVisualStyle
  2
Gouraud
 70
     2
 71
     2
 72
     2
 73
     1
 90
        2
 40
0.6
 41
30.0
 62
     5
 63
     7
421
 16777215
 74
     0
 91
        0
 64
     7
 65
   257
 75
     1
175
     1
 42
1.0
 92
        0
 66
     7
 43
1.0
 76
     1
 77
     6
 78
     2
 67
     7
 79
     5
170
     0
171
     0
290
     0
174
     0
 93
       13
 44
0.0
173
     0
291
     1
 45
0.0
  0
VISUALSTYLE
  5
2E
102
{ACAD_REACTORS
330
2A
102
}
102
{ACAD_XDICTIONARY
360
94
102
}
330
2A
100
AcDbVisualStyle
  2
GouraudWithEdges
 70
     3
 71
     2
 72
     2
 73
     1
 90
        2
 40
0.6
 41
30.0
 62
     5
 63
     7
421
 16777215
 74
     1
 91
        0
 64
     7
 65
   257
 75
     1
175
     1
 42
1.0
 92
        0
 66
   257
 43
1.0
 76
     1
 77
     6
 78
     2
 67
     7
 79
     5
170
     0
171
     0
290
     0
174
     0
 93
       13
 44
0.0
173
     0
291
     1
 45
0.0
  0
VISUALSTYLE
  5
31
102
{ACAD_REACTORS
330
2A
102
}
102
{ACAD_XDICTIONARY
360
9A
102
}
330
2A
100
AcDbVisualStyle
  2
Hidden
 70
     6
 71
     1
 72
     2
 73
     2
 90
        0
 40
0.6
 41
30.0
 62
     5
 63
     7
421
 16777215
 74
     2
 91
        2
 64
     7
 65
   257
 75
     2
175
     1
 42
40.0
 92
        0
 66
   257
 43
1.0
 76
     1
 77
     6
 78
     2
 67
     7
 79
     3
170
     0
171
     0
290
     0
174
     0
 93
        1
 44
0.0
173
     0
291
     0
 45
0.0
  0
VISUALSTYLE
  5
3B
102
{ACAD_REACTORS
330
2A
102
}
102
{ACAD_XDICTIONARY
360
AE
102
}
330
2A
100
AcDbVisualStyle
  2
JitterOff
 70
    20
 71
     2
 72
     2
 73
     0
 90
        0
 40
0.6
 41
30.0
 62
     5
 63
     7
421
 16777215
 74
     1
 91
        4
 64
     7
 65
   257
 75
     1
175
     1
 42
1.0
 92
       10
 66
     7
 43
1.0
 76
     1
 77
     6
 78
     2
 67
     7
 79
     5
170
     0
171
     0
290
     0
174
     0
 93
        1
 44
0.0
173
     0
291
     1
 45
0.0
  0
VISUALSTYLE
  5
38
102
{ACAD_REACTORS
330
2A
102
}
102
{ACAD_XDICTIONARY
360
A8
102
}
330
2A
100
AcDbVisualStyle
  2
Linepattern
 70
    14
 71
     2
 72
     2
 73
     0
 90
        0
 40
0.6
 41
30.0
 62
     5
 63
     7
421
 16777215
 74
     1
 91
        4
 64
     7
 65
   257
 75
     7
175
     7
 42
1.0
 92
        8
 66
     7
 43
1.0
 76
     1
 77
     6
 78
     2
 67
     7
 79
     5
170
     0
171
     0
290
     0
174
     0
 93
        1
 44
0.0
173
     0
291
     1
 45
0.0
  0
VISUALSTYLE
  5
3C
102
{ACAD_REACTORS
330
2A
102
}
102
{ACAD_XDICTIONARY
360
B0
102
}
330
2A
100
AcDbVisualStyle
  2
OverhangOff
 70
    21
 71
     2
 72
     2
 73
     0
 90
        0
 40
0.6
 41
30.0
 62
     5
 63
     7
421
 16777215
 74
     1
 91
        4
 64
     7
 65
   257
 75
     1
175
     1
 42
1.0
 92
        9
 66
     7
 43
1.0
 76
     1
 77
     6
 78
     2
 67
     7
 79
     5
170
     0
171
     0
290
     0
174
     0
 93
        1
 44
0.0
173
     0
291
     1
 45
0.0
  0
VISUALSTYLE
  5
33
102
{ACAD_REACTORS
330
2A
102
}
102
{ACAD_XDICTIONARY
360
9E
102
}
330
2A
100
AcDbVisualStyle
  2
Realistic
 70
     8
 71
     2
 72
     3
 73
     0
 90
        2
 40
0.6
 41
30.0
 62
     5
 63
     7
421
 16777215
 74
     0
 91
        0
 64
     7
 65
   257
 75
     1
175
     1
 42
1.0
 92
        8
 66
   257
 43
1.0
 76
     1
 77
     6
 78
     2
 67
     7
 79
     3
170
     0
171
     0
290
     0
174
     0
 93
       13
 44
0.0
173
     0
291
     0
 45
0.0
  0
VISUALSTYLE
  5
42
102
{ACAD_REACTORS
330
2A
102
}
102
{ACAD_XDICTIONARY
360
BC
102
}
330
2A
100
AcDbVisualStyle
  2
Shaded
 70
    27
 71
     2
 72
     2
 73
     1
 90
        2
 40
0.6
 41
30.0
 62
     5
 63
     7
421
 16777215
 74
     0
 91
        4
 64
     7
 65
   257
 75
     1
175
     1
 42
1.0
 92
        8
 66
   257
 43
1.0
 76
     1
 77
     6
 78
     2
 67
     8
425
  7895160
 79
     3
170
     0
171
     0
290
     0
174
     0
 93
        5
 44
0.0
173
     0
291
     0
 45
0.0
  0
VISUALSTYLE
  5
41
102
{ACAD_REACTORS
330
2A
102
}
102
{ACAD_XDICTIONARY
360
BA
102
}
330
2A
100
AcDbVisualStyle
  2
Shaded with edges
 70
    26
 71
     2
 72
     2
 73
     1
 90
        2
 40
0.6
 41
30.0
 62
     5
 63
     7
421
 16777215
 74
     1
 91
       10
 64
     7
 65
   257
 75
     2
175
     1
 42
1.0
 92
        8
 66
   257
 43
1.0
 76
     1
 77
     6
 78
     2
 67
     7
 79
     3
170
     0
171
     0
290
     0
174
     0
 93
        5
 44
0.0
173
     0
291
     0
 45
0.0
  0
VISUALSTYLE
  5
3E
102
{ACAD_REACTORS
330
2A
102
}
102
{ACAD_XDICTIONARY
360
B4
102
}
330
2A
100
AcDbVisualStyle
  2
Shades of Gray
 70
    23
 71
     2
 72
     2
 73
     3
 90
        0
 40
0.6
 41
30.0
 62
     5
 63
     7
421
 16777215
 74
     2
 91
        2
 64
     7
 65
     7
 75
     1
175
     1
 42
40.0
 92
        8
 66
     7
 43
1.0
 76
     1
 77
     6
 78
     2
 67
     7
 79
     3
170
     0
171
     0
290
     0
174
     0
 93
        1
 44
0.0
173
     0
291
     0
 45
0.0
  0
VISUALSTYLE
  5
3F
102
{ACAD_REACTORS
330
2A
102
}
102
{ACAD_XDICTIONARY
360
B6
102
}
330
2A
100
AcDbVisualStyle
  2
Sketchy
 70
    24
 71
     1
 72
     2
 73
     2
 90
        0
 40
0.6
 41
30.0
 62
     5
 63
     7
421
 16777215
 74
     2
 91
        2
 64
     7
 65
     7
 75
     1
175
     1
 42
40.0
 92
       11
 66
     7
 43
1.0
 76
     1
 77
     6
 78
     2
 67
     7
 79
     6
170
     0
171
     0
290
     0
174
     0
 93
        1
 44
0.0
173
     0
291
     0
 45
0.0
  0
VISUALSTYLE
  5
37
102
{ACAD_REACTORS
330
2A
102
}
102
{ACAD_XDICTIONARY
360
A6
102
}
330
2A
100
AcDbVisualStyle
  2
Thicken
 70
    13
 71
     2
 72
     2
 73
     0
 90
        0
 40
0.6
 41
30.0
 62
     5
 63
     7
421
 16777215
 74
     1
 91
        4
 64
     7
 65
   257
 75
     1
175
     1
 42
1.0
 92
       12
 66
     7
 43
1.0
 76
     1
 77
     6
 78
     2
 67
     7
 79
     5
170
     0
171
     0
290
     0
174
     0
 93
        1
 44
0.0
173
     0
291
     1
 45
0.0
  0
VISUALSTYLE
  5
30
102
{ACAD_REACTORS
330
2A
102
}
102
{ACAD_XDICTIONARY
360
98
102
}
330
2A
100
AcDbVisualStyle
  2
Wireframe
 70
     5
 71
     0
 72
     2
 73
     0
 90
        0
 40
0.6
 41
30.0
 62
     5
 63
     7
421
 16777215
 74
     1
 91
        4
 64
     7
 65
   257
 75
     1
175
     1
 42
1.0
 92
        0
 66
   257
 43
1.0
 76
     1
 77
     6
 78
     2
 67
     7
 79
     3
170
     0
171
     0
290
     0
174
     0
 93
        1
 44
0.0
173
     0
291
     0
 45
0.0
  0
VISUALSTYLE
  5
40
102
{ACAD_REACTORS
330
2A
102
}
102
{ACAD_XDICTIONARY
360
B8
102
}
330
2A
100
AcDbVisualStyle
  2
X-Ray
 70
    25
 71
     2
 72
     2
 73
     1
 90
        1
 40
0.5
 41
30.0
 62
     5
 63
     7
421
 16777215
 74
     1
 91
        0
 64
     7
 65
   257
 75
     1
175
     1
 42
1.0
 92
        8
 66
     7
 43
1.0
 76
     1
 77
     6
 78
     2
 67
     7
 79
     3
170
     0
171
     0
290
     0
174
     0
 93
       13
 44
0.0
173
     0
291
     0
 45
0.0
  0
DICTIONARYVAR
  5
8C
102
{ACAD_REACTORS
330
8B
102
}
330
8B
100
DictionaryVariables
280
     0
  1
1:1
  0
DICTIONARYVAR
  5
C5
102
{ACAD_REACTORS
330
8B
102
}
330
8B
100
DictionaryVariables
280
     0
  1
Standard
  0
DICTIONARYVAR
  5
C4
102
{ACAD_REACTORS
330
8B
102
}
330
8B
100
DictionaryVariables
280
     0
  1
Standard
  0
DICTIONARYVAR
  5
8D
102
{ACAD_REACTORS
330
8B
102
}
330
8B
100
DictionaryVariables
280
     0
  1
2
  0
DICTIONARY
  5
C1
330
6C
100
AcDbDictionary
280
     1
281
     1
  3
ACAD_XREC_ROUNDTRIP
360
C2
  0
DICTIONARY
  5
BE
330
6A
100
AcDbDictionary
280
     1
281
     1
  3
ACAD_ROUNDTRIP_2008_TABLESTYLE_CELLSTYLEMAP
360
BF
  0
DICTIONARY
  5
96
330
2F
100
AcDbDictionary
280
     1
281
     1
  3
ACAD_XREC_ROUNDTRIP
360
97
  0
DICTIONARY
  5
9C
330
32
100
AcDbDictionary
280
     1
281
     1
  3
ACAD_XREC_ROUNDTRIP
360
9D
  0
DICTIONARY
  5
A4
330
36
100
AcDbDictionary
280
     1
281
     1
  3
ACAD_XREC_ROUNDTRIP
360
A5
  0
DICTIONARY
  5
AC
330
3A
100
AcDbDictionary
280
     1
281
     1
  3
ACAD_XREC_ROUNDTRIP
360
AD
  0
DICTIONARY
  5
A0
330
34
100
AcDbDictionary
280
     1
281
     1
  3
ACAD_XREC_ROUNDTRIP
360
A1
  0
DICTIONARY
  5
A2
330
35
100
AcDbDictionary
280
     1
281
     1
  3
ACAD_XREC_ROUNDTRIP
360
A3
  0
DICTIONARY
  5
B2
330
3D
100
AcDbDictionary
280
     1
281
     1
  3
ACAD_XREC_ROUNDTRIP
360
B3
  0
DICTIONARY
  5
AA
330
39
100
AcDbDictionary
280
     1
281
     1
  3
ACAD_XREC_ROUNDTRIP
360
AB
  0
DICTIONARY
  5
8E
330
2B
100
AcDbDictionary
280
     1
281
     1
  3
ACAD_XREC_ROUNDTRIP
360
8F
  0
DICTIONARY
  5
90
330
2C
100
AcDbDictionary
280
     1
281
     1
  3
ACAD_XREC_ROUNDTRIP
360
91
  0
DICTIONARY
  5
92
330
2D
100
AcDbDictionary
280
     1
281
     1
  3
ACAD_XREC_ROUNDTRIP
360
93
  0
DICTIONARY
  5
94
330
2E
100
AcDbDictionary
280
     1
281
     1
  3
ACAD_XREC_ROUNDTRIP
360
95
  0
DICTIONARY
  5
9A
330
31
100
AcDbDictionary
280
     1
281
     1
  3
ACAD_XREC_ROUNDTRIP
360
9B
  0
DICTIONARY
  5
AE
330
3B
100
AcDbDictionary
280
     1
281
     1
  3
ACAD_XREC_ROUNDTRIP
360
AF
  0
DICTIONARY
  5
A8
330
38
100
AcDbDictionary
280
     1
281
     1
  3
ACAD_XREC_ROUNDTRIP
360
A9
  0
DICTIONARY
  5
B0
330
3C
100
AcDbDictionary
280
     1
281
     1
  3
ACAD_XREC_ROUNDTRIP
360
B1
  0
DICTIONARY
  5
9E
330
33
100
AcDbDictionary
280
     1
281
     1
  3
ACAD_XREC_ROUNDTRIP
360
9F
  0
DICTIONARY
  5
BC
330
42
100
AcDbDictionary
280
     1
281
     1
  3
ACAD_XREC_ROUNDTRIP
360
BD
  0
DICTIONARY
  5
BA
330
41
100
AcDbDictionary
280
     1
281
     1
  3
ACAD_XREC_ROUNDTRIP
360
BB
  0
DICTIONARY
  5
B4
330
3E
100
AcDbDictionary
280
     1
281
     1
  3
ACAD_XREC_ROUNDTRIP
360
B5
  0
DICTIONARY
  5
B6
330
3F
100
AcDbDictionary
280
     1
281
     1
  3
ACAD_XREC_ROUNDTRIP
360
B7
  0
DICTIONARY
  5
A6
330
37
100
AcDbDictionary
280
     1
281
     1
  3
ACAD_XREC_ROUNDTRIP
360
A7
  0
DICTIONARY
  5
98
330
30
100
AcDbDictionary
280
     1
281
     1
  3
ACAD_XREC_ROUNDTRIP
360
99
  0
DICTIONARY
  5
B8
330
40
100
AcDbDictionary
280
     1
281
     1
  3
ACAD_XREC_ROUNDTRIP
360
B9
  0
XRECORD
  5
C2
102
{ACAD_REACTORS
330
C1
102
}
330
C1
100
AcDbXrecord
280
     1
102
ACAD_ROUNDTRIP_2010_MLEADER_STYLE
  0
CELLSTYLEMAP
  5
BF
102
{ACAD_REACTORS
330
BE
102
}
330
BE
100
AcDbCellStyleMap
 90
        3
300
CELLSTYLE
  1
TABLEFORMAT_BEGIN
 90
        5
170
     1
 91
        0
 92
    32768
 62
   257
 93
        1
300
CONTENTFORMAT
  1
CONTENTFORMAT_BEGIN
 90
        0
 91
        0
 92
        4
 93
        0
300

 40
0.0
140
1.0
 94
        5
 62
     0
340
11
144
0.25
309
CONTENTFORMAT_END
171
     1
301
MARGIN
  1
CELLMARGIN_BEGIN
 40
0.06
 40
0.06
 40
0.06
 40
0.06
 40
0.06
 40
0.06
309
CELLMARGIN_END
 94
        6
 95
        1
302
GRIDFORMAT
  1
GRIDFORMAT_BEGIN
 90
        0
 91
        1
 62
     0
 92
       -2
340
14
 93
        0
 40
0.045
309
GRIDFORMAT_END
 95
        2
302
GRIDFORMAT
  1
GRIDFORMAT_BEGIN
 90
        0
 91
        1
 62
     0
 92
       -2
340
14
 93
        0
 40
0.045
309
GRIDFORMAT_END
 95
        4
302
GRIDFORMAT
  1
GRIDFORMAT_BEGIN
 90
        0
 91
        1
 62
     0
 92
       -2
340
14
 93
        0
 40
0.045
309
GRIDFORMAT_END
 95
        8
302
GRIDFORMAT
  1
GRIDFORMAT_BEGIN
 90
        0
 91
        1
 62
     0
 92
       -2
340
14
 93
        0
 40
0.045
309
GRIDFORMAT_END
 95
       16
302
GRIDFORMAT
  1
GRIDFORMAT_BEGIN
 90
        0
 91
        1
 62
     0
 92
       -2
340
14
 93
        0
 40
0.045
309
GRIDFORMAT_END
 95
       32
302
GRIDFORMAT
  1
GRIDFORMAT_BEGIN
 90
        0
 91
        1
 62
     0
 92
       -2
340
14
 93
        0
 40
0.045
309
GRIDFORMAT_END
309
TABLEFORMAT_END
  1
CELLSTYLE_BEGIN
 90
        1
 91
        1
300
_TITLE
309
CELLSTYLE_END
300
CELLSTYLE
  1
TABLEFORMAT_BEGIN
 90
        5
170
     1
 91
        0
 92
        0
 62
   257
 93
        1
300
CONTENTFORMAT
  1
CONTENTFORMAT_BEGIN
 90
        0
 91
        0
 92
        4
 93
        0
300

 40
0.0
140
1.0
 94
        5
 62
     0
340
11
144
0.18
309
CONTENTFORMAT_END
171
     1
301
MARGIN
  1
CELLMARGIN_BEGIN
 40
0.06
 40
0.06
 40
0.06
 40
0.06
 40
0.06
 40
0.06
309
CELLMARGIN_END
 94
        6
 95
        1
302
GRIDFORMAT
  1
GRIDFORMAT_BEGIN
 90
        0
 91
        1
 62
     0
 92
       -2
340
14
 93
        0
 40
0.045
309
GRIDFORMAT_END
 95
        2
302
GRIDFORMAT
  1
GRIDFORMAT_BEGIN
 90
        0
 91
        1
 62
     0
 92
       -2
340
14
 93
        0
 40
0.045
309
GRIDFORMAT_END
 95
        4
302
GRIDFORMAT
  1
GRIDFORMAT_BEGIN
 90
        0
 91
        1
 62
     0
 92
       -2
340
14
 93
        0
 40
0.045
309
GRIDFORMAT_END
 95
        8
302
GRIDFORMAT
  1
GRIDFORMAT_BEGIN
 90
        0
 91
        1
 62
     0
 92
       -2
340
14
 93
        0
 40
0.045
309
GRIDFORMAT_END
 95
       16
302
GRIDFORMAT
  1
GRIDFORMAT_BEGIN
 90
        0
 91
        1
 62
     0
 92
       -2
340
14
 93
        0
 40
0.045
309
GRIDFORMAT_END
 95
       32
302
GRIDFORMAT
  1
GRIDFORMAT_BEGIN
 90
        0
 91
        1
 62
     0
 92
       -2
340
14
 93
        0
 40
0.045
309
GRIDFORMAT_END
309
TABLEFORMAT_END
  1
CELLSTYLE_BEGIN
 90
        2
 91
        1
300
_HEADER
309
CELLSTYLE_END
300
CELLSTYLE
  1
TABLEFORMAT_BEGIN
 90
        5
170
     1
 91
        0
 92
        0
 62
   257
 93
        1
300
CONTENTFORMAT
  1
CONTENTFORMAT_BEGIN
 90
        0
 91
        0
 92
        4
 93
        0
300

 40
0.0
140
1.0
 94
        2
 62
     0
340
11
144
0.18
309
CONTENTFORMAT_END
171
     1
301
MARGIN
  1
CELLMARGIN_BEGIN
 40
0.06
 40
0.06
 40
0.06
 40
0.06
 40
0.06
 40
0.06
309
CELLMARGIN_END
 94
        6
 95
        1
302
GRIDFORMAT
  1
GRIDFORMAT_BEGIN
 90
        0
 91
        1
 62
     0
 92
       -2
340
14
 93
        0
 40
0.045
309
GRIDFORMAT_END
 95
        2
302
GRIDFORMAT
  1
GRIDFORMAT_BEGIN
 90
        0
 91
        1
 62
     0
 92
       -2
340
14
 93
        0
 40
0.045
309
GRIDFORMAT_END
 95
        4
302
GRIDFORMAT
  1
GRIDFORMAT_BEGIN
 90
        0
 91
        1
 62
     0
 92
       -2
340
14
 93
        0
 40
0.045
309
GRIDFORMAT_END
 95
        8
302
GRIDFORMAT
  1
GRIDFORMAT_BEGIN
 90
        0
 91
        1
 62
     0
 92
       -2
340
14
 93
        0
 40
0.045
309
GRIDFORMAT_END
 95
       16
302
GRIDFORMAT
  1
GRIDFORMAT_BEGIN
 90
        0
 91
        1
 62
     0
 92
       -2
340
14
 93
        0
 40
0.045
309
GRIDFORMAT_END
 95
       32
302
GRIDFORMAT
  1
GRIDFORMAT_BEGIN
 90
        0
 91
        1
 62
     0
 92
       -2
340
14
 93
        0
 40
0.045
309
GRIDFORMAT_END
309
TABLEFORMAT_END
  1
CELLSTYLE_BEGIN
 90
        3
 91
        2
300
_DATA
309
CELLSTYLE_END
  0
XRECORD
  5
97
102
{ACAD_REACTORS
330
96
102
}
330
96
100
AcDbXrecord
280
     1
102
RTVSPropertyOp0
 70
     1
102
RTVSPropertyOp1
 70
     1
102
RTVSPropertyOp2
 70
     1
102
RTVSPropertyOp3
 70
     1
102
RTVSPropertyOp4
 70
     1
102
RTVSPropertyOp5
 70
     1
102
RTVSPropertyOp6
 70
     1
102
RTVSPropertyOp7
 70
     1
102
RTVSPropertyOp8
 70
     1
102
RTVSPropertyOp9
 70
     1
102
RTVSPropertyOp10
 70
     1
102
RTVSPropertyOp11
 70
     1
102
RTVSPropertyOp12
 70
     1
102
RTVSPropertyOp13
 70
     1
102
RTVSPropertyOp14
 70
     1
102
RTVSPropertyOp15
 70
     1
102
RTVSPropertyOp16
 70
     1
102
RTVSPropertyOp17
 70
     1
102
RTVSPropertyOp18
 70
     1
102
RTVSPropertyOp19
 70
     1
102
RTVSPropertyOp20
 70
     1
102
RTVSPropertyOp21
 70
     1
102
RTVSPropertyOp22
 70
     1
102
RTVSPropertyOp23
 70
     1
102
RTVSPropertyOp24
 70
     1
102
RTVSPropertyOp25
 70
     1
102
RTVSPropertyOp26
 70
     1
102
RTVSPropertyOp27
 70
     1
102
RTVSPropertyOp28
 70
     1
102
RTVSPropertyOp29
 70
     1
102
RTVSPropertyOp30
 70
     1
102
RTVSPropertyOp31
 70
     1
102
RTVSPropertyOp32
 70
     1
102
RTVSPropertyOp33
 70
     1
102
RTVSPropertyOp34
 70
     1
102
RTVSPropertyOp35
 70
     1
102
RTVSPropertyOp36
 70
     1
102
RTVSPropertyOp37
 70
     1
102
RTVSPropertyOp38
 70
     1
102
RTVSPropertyOp39
 70
     1
102
RTVSPropertyOp40
 70
     1
102
RTVSPropertyOp41
 70
     1
102
RTVSPropertyOp42
 70
     1
102
RTVSPropertyOp43
 70
     1
102
RTVSPropertyOp44
 70
     1
102
RTVSPropertyOp45
 70
     1
102
RTVSPropertyOp46
 70
     1
102
RTVSPropertyOp47
 70
     1
102
RTVSPropertyOp48
 70
     1
102
RTVSPropertyOp49
 70
     1
102
RTVSPropertyOp50
 70
     1
102
RTVSPropertyOp51
 70
     0
102
RTVSPropertyOp52
 70
     0
102
RTVSPropertyOp53
 70
     1
102
RTVSPropertyOp54
 70
     1
102
RTVSPropertyOp55
 70
     1
102
RTVSPropertyOp56
 70
     1
102
RTVSPropertyOp57
 70
     1
102
RTVSPost2010Prop28
280
     1
102
RTVSPost2010PropOp28
 70
     1
102
RTVSPost2010Prop29
280
     1
102
RTVSPost2010PropOp29
 70
     1
102
RTVSPost2010Prop30
280
     0
102
RTVSPost2010PropOp30
 70
     1
102
RTVSPost2010Prop31
280
     0
102
RTVSPost2010PropOp31
 70
     1
102
RTVSPost2010Prop32
280
     0
102
RTVSPost2010PropOp32
 70
     1
102
RTVSPost2010Prop33
280
     0
102
RTVSPost2010PropOp33
 70
     1
102
RTVSPost2010Prop34
280
     0
102
RTVSPost2010PropOp34
 70
     1
102
RTVSPost2010Prop35
280
     0
102
RTVSPost2010PropOp35
 70
     1
102
RTVSPost2010Prop36
280
     0
102
RTVSPost2010PropOp36
 70
     1
102
RTVSPost2010Prop37
 90
       50
102
RTVSPost2010PropOp37
 70
     1
102
RTVSPost2010Prop38
140
0.0
102
RTVSPost2010PropOp38
 70
     1
102
RTVSPost2010Prop39
140
1.0
102
RTVSPost2010PropOp39
 70
     1
102
RTVSPost2010Prop40
 90
        0
102
RTVSPost2010PropOp40
 70
     1
102
RTVSPost2010Prop41ColorIndex
 90
       18
102
RTVSPost2010Prop41ColorRGB
 90
        0
102
RTVSPost2010PropOp41
 70
     1
102
RTVSPost2010Prop42
 90
       50
102
RTVSPost2010PropOp42
 70
     1
102
RTVSPost2010Prop43
 90
        3
102
RTVSPost2010PropOp43
 70
     1
102
RTVSPost2010Prop44ColorIndex
 90
        5
102
RTVSPost2010Prop44ColorRGB
 90
      255
102
RTVSPost2010PropOp44
 70
     1
102
RTVSPost2010Prop45
280
     0
102
RTVSPost2010PropOp45
 70
     1
102
RTVSPost2010Prop46
 90
       50
102
RTVSPost2010PropOp46
 70
     1
102
RTVSPost2010Prop47
 90
       50
102
RTVSPost2010PropOp47
 70
     1
102
RTVSPost2010Prop48
 90
       50
102
RTVSPost2010PropOp48
 70
     1
102
RTVSPost2010Prop49
280
     0
102
RTVSPost2010PropOp49
 70
     1
102
RTVSPost2010Prop50
 90
       50
102
RTVSPost2010PropOp50
 70
     1
102
RTVSPost2010Prop51ColorIndex
 90
      256
102
RTVSPost2010Prop51ColorRGB
 90
-16777216
102
RTVSPost2010PropOp51
 70
     0
102
RTVSPost2010Prop52
140
1.0
102
RTVSPost2010PropOp52
 70
     0
102
RTVSPost2010Prop53
 90
        2
102
RTVSPost2010PropOp53
 70
     1
102
RTVSPost2010Prop54
  1
strokes_ogs.tif
102
RTVSPost2010PropOp54
 70
     1
102
RTVSPost2010Prop55
280
     0
102
RTVSPost2010PropOp55
 70
     1
102
RTVSPost2010Prop56
140
1.0
102
RTVSPost2010PropOp56
 70
     1
102
RTVSPost2010Prop57
140
1.0
102
RTVSPost2010PropOp57
 70
     1
  0
XRECORD
  5
9D
102
{ACAD_REACTORS
330
9C
102
}
330
9C
100
AcDbXrecord
280
     1
102
RTVSPropertyOp0
 70
     1
102
RTVSPropertyOp1
 70
     1
102
RTVSPropertyOp2
 70
     1
102
RTVSPropertyOp3
 70
     1
102
RTVSPropertyOp4
 70
     1
102
RTVSPropertyOp5
 70
     1
102
RTVSPropertyOp6
 70
     1
102
RTVSPropertyOp7
 70
     1
102
RTVSPropertyOp8
 70
     1
102
RTVSPropertyOp9
 70
     1
102
RTVSPropertyOp10
 70
     1
102
RTVSPropertyOp11
 70
     1
102
RTVSPropertyOp12
 70
     1
102
RTVSPropertyOp13
 70
     1
102
RTVSPropertyOp14
 70
     1
102
RTVSPropertyOp15
 70
     1
102
RTVSPropertyOp16
 70
     1
102
RTVSPropertyOp17
 70
     1
102
RTVSPropertyOp18
 70
     1
102
RTVSPropertyOp19
 70
     1
102
RTVSPropertyOp20
 70
     1
102
RTVSPropertyOp21
 70
     1
102
RTVSPropertyOp22
 70
     1
102
RTVSPropertyOp23
 70
     1
102
RTVSPropertyOp24
 70
     1
102
RTVSPropertyOp25
 70
     1
102
RTVSPropertyOp26
 70
     1
102
RTVSPropertyOp27
 70
     1
102
RTVSPropertyOp28
 70
     1
102
RTVSPropertyOp29
 70
     1
102
RTVSPropertyOp30
 70
     1
102
RTVSPropertyOp31
 70
     1
102
RTVSPropertyOp32
 70
     1
102
RTVSPropertyOp33
 70
     1
102
RTVSPropertyOp34
 70
     1
102
RTVSPropertyOp35
 70
     1
102
RTVSPropertyOp36
 70
     1
102
RTVSPropertyOp37
 70
     1
102
RTVSPropertyOp38
 70
     1
102
RTVSPropertyOp39
 70
     1
102
RTVSPropertyOp40
 70
     1
102
RTVSPropertyOp41
 70
     1
102
RTVSPropertyOp42
 70
     1
102
RTVSPropertyOp43
 70
     1
102
RTVSPropertyOp44
 70
     1
102
RTVSPropertyOp45
 70
     1
102
RTVSPropertyOp46
 70
     1
102
RTVSPropertyOp47
 70
     1
102
RTVSPropertyOp48
 70
     1
102
RTVSPropertyOp49
 70
     1
102
RTVSPropertyOp50
 70
     1
102
RTVSPropertyOp51
 70
     0
102
RTVSPropertyOp52
 70
     0
102
RTVSPropertyOp53
 70
     1
102
RTVSPropertyOp54
 70
     1
102
RTVSPropertyOp55
 70
     1
102
RTVSPropertyOp56
 70
     1
102
RTVSPropertyOp57
 70
     1
102
RTVSPost2010Prop28
280
     0
102
RTVSPost2010PropOp28
 70
     1
102
RTVSPost2010Prop29
280
     1
102
RTVSPost2010PropOp29
 70
     1
102
RTVSPost2010Prop30
280
     1
102
RTVSPost2010PropOp30
 70
     1
102
RTVSPost2010Prop31
280
     0
102
RTVSPost2010PropOp31
 70
     1
102
RTVSPost2010Prop32
280
     0
102
RTVSPost2010PropOp32
 70
     1
102
RTVSPost2010Prop33
280
     0
102
RTVSPost2010PropOp33
 70
     1
102
RTVSPost2010Prop34
280
     0
102
RTVSPost2010PropOp34
 70
     1
102
RTVSPost2010Prop35
280
     0
102
RTVSPost2010PropOp35
 70
     1
102
RTVSPost2010Prop36
280
     0
102
RTVSPost2010PropOp36
 70
     1
102
RTVSPost2010Prop37
 90
       50
102
RTVSPost2010PropOp37
 70
     1
102
RTVSPost2010Prop38
140
0.0
102
RTVSPost2010PropOp38
 70
     1
102
RTVSPost2010Prop39
140
1.0
102
RTVSPost2010PropOp39
 70
     1
102
RTVSPost2010Prop40
 90
        0
102
RTVSPost2010PropOp40
 70
     1
102
RTVSPost2010Prop41ColorIndex
 90
       18
102
RTVSPost2010Prop41ColorRGB
 90
        0
102
RTVSPost2010PropOp41
 70
     1
102
RTVSPost2010Prop42
 90
       50
102
RTVSPost2010PropOp42
 70
     1
102
RTVSPost2010Prop43
 90
        3
102
RTVSPost2010PropOp43
 70
     1
102
RTVSPost2010Prop44ColorIndex
 90
        5
102
RTVSPost2010Prop44ColorRGB
 90
      255
102
RTVSPost2010PropOp44
 70
     1
102
RTVSPost2010Prop45
280
     0
102
RTVSPost2010PropOp45
 70
     1
102
RTVSPost2010Prop46
 90
       50
102
RTVSPost2010PropOp46
 70
     1
102
RTVSPost2010Prop47
 90
       50
102
RTVSPost2010PropOp47
 70
     1
102
RTVSPost2010Prop48
 90
       50
102
RTVSPost2010PropOp48
 70
     1
102
RTVSPost2010Prop49
280
     0
102
RTVSPost2010PropOp49
 70
     1
102
RTVSPost2010Prop50
 90
       50
102
RTVSPost2010PropOp50
 70
     1
102
RTVSPost2010Prop51ColorIndex
 90
      256
102
RTVSPost2010Prop51ColorRGB
 90
-16777216
102
RTVSPost2010PropOp51
 70
     0
102
RTVSPost2010Prop52
140
1.0
102
RTVSPost2010PropOp52
 70
     0
102
RTVSPost2010Prop53
 90
        2
102
RTVSPost2010PropOp53
 70
     1
102
RTVSPost2010Prop54
  1
strokes_ogs.tif
102
RTVSPost2010PropOp54
 70
     1
102
RTVSPost2010Prop55
280
     0
102
RTVSPost2010PropOp55
 70
     1
102
RTVSPost2010Prop56
140
1.0
102
RTVSPost2010PropOp56
 70
     1
102
RTVSPost2010Prop57
140
1.0
102
RTVSPost2010PropOp57
 70
     1
  0
XRECORD
  5
A5
102
{ACAD_REACTORS
330
A4
102
}
330
A4
100
AcDbXrecord
280
     1
102
RTVSPropertyOp0
 70
     1
102
RTVSPropertyOp1
 70
     1
102
RTVSPropertyOp2
 70
     1
102
RTVSPropertyOp3
 70
     1
102
RTVSPropertyOp4
 70
     1
102
RTVSPropertyOp5
 70
     1
102
RTVSPropertyOp6
 70
     1
102
RTVSPropertyOp7
 70
     1
102
RTVSPropertyOp8
 70
     1
102
RTVSPropertyOp9
 70
     1
102
RTVSPropertyOp10
 70
     1
102
RTVSPropertyOp11
 70
     1
102
RTVSPropertyOp12
 70
     1
102
RTVSPropertyOp13
 70
     1
102
RTVSPropertyOp14
 70
     1
102
RTVSPropertyOp15
 70
     1
102
RTVSPropertyOp16
 70
     1
102
RTVSPropertyOp17
 70
     1
102
RTVSPropertyOp18
 70
     1
102
RTVSPropertyOp19
 70
     1
102
RTVSPropertyOp20
 70
     1
102
RTVSPropertyOp21
 70
     1
102
RTVSPropertyOp22
 70
     1
102
RTVSPropertyOp23
 70
     1
102
RTVSPropertyOp24
 70
     1
102
RTVSPropertyOp25
 70
     1
102
RTVSPropertyOp26
 70
     1
102
RTVSPropertyOp27
 70
     1
102
RTVSPropertyOp28
 70
     1
102
RTVSPropertyOp29
 70
     1
102
RTVSPropertyOp30
 70
     1
102
RTVSPropertyOp31
 70
     1
102
RTVSPropertyOp32
 70
     1
102
RTVSPropertyOp33
 70
     1
102
RTVSPropertyOp34
 70
     1
102
RTVSPropertyOp35
 70
     1
102
RTVSPropertyOp36
 70
     1
102
RTVSPropertyOp37
 70
     1
102
RTVSPropertyOp38
 70
     1
102
RTVSPropertyOp39
 70
     1
102
RTVSPropertyOp40
 70
     1
102
RTVSPropertyOp41
 70
     1
102
RTVSPropertyOp42
 70
     1
102
RTVSPropertyOp43
 70
     1
102
RTVSPropertyOp44
 70
     1
102
RTVSPropertyOp45
 70
     1
102
RTVSPropertyOp46
 70
     1
102
RTVSPropertyOp47
 70
     1
102
RTVSPropertyOp48
 70
     1
102
RTVSPropertyOp49
 70
     1
102
RTVSPropertyOp50
 70
     1
102
RTVSPropertyOp51
 70
     0
102
RTVSPropertyOp52
 70
     0
102
RTVSPropertyOp53
 70
     1
102
RTVSPropertyOp54
 70
     1
102
RTVSPropertyOp55
 70
     1
102
RTVSPropertyOp56
 70
     1
102
RTVSPropertyOp57
 70
     1
102
RTVSPost2010Prop28
280
     0
102
RTVSPost2010PropOp28
 70
     1
102
RTVSPost2010Prop29
280
     1
102
RTVSPost2010PropOp29
 70
     1
102
RTVSPost2010Prop30
280
     1
102
RTVSPost2010PropOp30
 70
     1
102
RTVSPost2010Prop31
280
     0
102
RTVSPost2010PropOp31
 70
     1
102
RTVSPost2010Prop32
280
     0
102
RTVSPost2010PropOp32
 70
     1
102
RTVSPost2010Prop33
280
     0
102
RTVSPost2010PropOp33
 70
     1
102
RTVSPost2010Prop34
280
     0
102
RTVSPost2010PropOp34
 70
     1
102
RTVSPost2010Prop35
280
     0
102
RTVSPost2010PropOp35
 70
     1
102
RTVSPost2010Prop36
280
     0
102
RTVSPost2010PropOp36
 70
     1
102
RTVSPost2010Prop37
 90
       50
102
RTVSPost2010PropOp37
 70
     1
102
RTVSPost2010Prop38
140
0.0
102
RTVSPost2010PropOp38
 70
     1
102
RTVSPost2010Prop39
140
1.0
102
RTVSPost2010PropOp39
 70
     1
102
RTVSPost2010Prop40
 90
        0
102
RTVSPost2010PropOp40
 70
     1
102
RTVSPost2010Prop41ColorIndex
 90
       18
102
RTVSPost2010Prop41ColorRGB
 90
        0
102
RTVSPost2010PropOp41
 70
     1
102
RTVSPost2010Prop42
 90
       50
102
RTVSPost2010PropOp42
 70
     1
102
RTVSPost2010Prop43
 90
        3
102
RTVSPost2010PropOp43
 70
     1
102
RTVSPost2010Prop44ColorIndex
 90
        5
102
RTVSPost2010Prop44ColorRGB
 90
      255
102
RTVSPost2010PropOp44
 70
     1
102
RTVSPost2010Prop45
280
     0
102
RTVSPost2010PropOp45
 70
     1
102
RTVSPost2010Prop46
 90
       50
102
RTVSPost2010PropOp46
 70
     1
102
RTVSPost2010Prop47
 90
       50
102
RTVSPost2010PropOp47
 70
     1
102
RTVSPost2010Prop48
 90
       50
102
RTVSPost2010PropOp48
 70
     1
102
RTVSPost2010Prop49
280
     0
102
RTVSPost2010PropOp49
 70
     1
102
RTVSPost2010Prop50
 90
       50
102
RTVSPost2010PropOp50
 70
     1
102
RTVSPost2010Prop51ColorIndex
 90
      256
102
RTVSPost2010Prop51ColorRGB
 90
-16777216
102
RTVSPost2010PropOp51
 70
     0
102
RTVSPost2010Prop52
140
1.0
102
RTVSPost2010PropOp52
 70
     0
102
RTVSPost2010Prop53
 90
        2
102
RTVSPost2010PropOp53
 70
     1
102
RTVSPost2010Prop54
  1
strokes_ogs.tif
102
RTVSPost2010PropOp54
 70
     1
102
RTVSPost2010Prop55
280
     0
102
RTVSPost2010PropOp55
 70
     1
102
RTVSPost2010Prop56
140
1.0
102
RTVSPost2010PropOp56
 70
     1
102
RTVSPost2010Prop57
140
1.0
102
RTVSPost2010PropOp57
 70
     1
  0
XRECORD
  5
AD
102
{ACAD_REACTORS
330
AC
102
}
330
AC
100
AcDbXrecord
280
     1
102
RTVSPropertyOp0
 70
     1
102
RTVSPropertyOp1
 70
     1
102
RTVSPropertyOp2
 70
     1
102
RTVSPropertyOp3
 70
     1
102
RTVSPropertyOp4
 70
     1
102
RTVSPropertyOp5
 70
     1
102
RTVSPropertyOp6
 70
     1
102
RTVSPropertyOp7
 70
     1
102
RTVSPropertyOp8
 70
     1
102
RTVSPropertyOp9
 70
     1
102
RTVSPropertyOp10
 70
     1
102
RTVSPropertyOp11
 70
     1
102
RTVSPropertyOp12
 70
     1
102
RTVSPropertyOp13
 70
     1
102
RTVSPropertyOp14
 70
     1
102
RTVSPropertyOp15
 70
     1
102
RTVSPropertyOp16
 70
     1
102
RTVSPropertyOp17
 70
     1
102
RTVSPropertyOp18
 70
     1
102
RTVSPropertyOp19
 70
     1
102
RTVSPropertyOp20
 70
     1
102
RTVSPropertyOp21
 70
     1
102
RTVSPropertyOp22
 70
     1
102
RTVSPropertyOp23
 70
     1
102
RTVSPropertyOp24
 70
     1
102
RTVSPropertyOp25
 70
     1
102
RTVSPropertyOp26
 70
     1
102
RTVSPropertyOp27
 70
     1
102
RTVSPropertyOp28
 70
     1
102
RTVSPropertyOp29
 70
     1
102
RTVSPropertyOp30
 70
     1
102
RTVSPropertyOp31
 70
     1
102
RTVSPropertyOp32
 70
     1
102
RTVSPropertyOp33
 70
     1
102
RTVSPropertyOp34
 70
     1
102
RTVSPropertyOp35
 70
     1
102
RTVSPropertyOp36
 70
     1
102
RTVSPropertyOp37
 70
     1
102
RTVSPropertyOp38
 70
     1
102
RTVSPropertyOp39
 70
     1
102
RTVSPropertyOp40
 70
     1
102
RTVSPropertyOp41
 70
     1
102
RTVSPropertyOp42
 70
     1
102
RTVSPropertyOp43
 70
     1
102
RTVSPropertyOp44
 70
     1
102
RTVSPropertyOp45
 70
     1
102
RTVSPropertyOp46
 70
     1
102
RTVSPropertyOp47
 70
     1
102
RTVSPropertyOp48
 70
     1
102
RTVSPropertyOp49
 70
     1
102
RTVSPropertyOp50
 70
     1
102
RTVSPropertyOp51
 70
     0
102
RTVSPropertyOp52
 70
     0
102
RTVSPropertyOp53
 70
     1
102
RTVSPropertyOp54
 70
     1
102
RTVSPropertyOp55
 70
     1
102
RTVSPropertyOp56
 70
     1
102
RTVSPropertyOp57
 70
     1
102
RTVSPost2010Prop28
280
     0
102
RTVSPost2010PropOp28
 70
     1
102
RTVSPost2010Prop29
280
     1
102
RTVSPost2010PropOp29
 70
     1
102
RTVSPost2010Prop30
280
     1
102
RTVSPost2010PropOp30
 70
     1
102
RTVSPost2010Prop31
280
     0
102
RTVSPost2010PropOp31
 70
     1
102
RTVSPost2010Prop32
280
     0
102
RTVSPost2010PropOp32
 70
     1
102
RTVSPost2010Prop33
280
     0
102
RTVSPost2010PropOp33
 70
     1
102
RTVSPost2010Prop34
280
     0
102
RTVSPost2010PropOp34
 70
     1
102
RTVSPost2010Prop35
280
     0
102
RTVSPost2010PropOp35
 70
     1
102
RTVSPost2010Prop36
280
     0
102
RTVSPost2010PropOp36
 70
     1
102
RTVSPost2010Prop37
 90
       50
102
RTVSPost2010PropOp37
 70
     1
102
RTVSPost2010Prop38
140
0.0
102
RTVSPost2010PropOp38
 70
     1
102
RTVSPost2010Prop39
140
1.0
102
RTVSPost2010PropOp39
 70
     1
102
RTVSPost2010Prop40
 90
        0
102
RTVSPost2010PropOp40
 70
     1
102
RTVSPost2010Prop41ColorIndex
 90
       18
102
RTVSPost2010Prop41ColorRGB
 90
        0
102
RTVSPost2010PropOp41
 70
     1
102
RTVSPost2010Prop42
 90
       50
102
RTVSPost2010PropOp42
 70
     1
102
RTVSPost2010Prop43
 90
        3
102
RTVSPost2010PropOp43
 70
     1
102
RTVSPost2010Prop44ColorIndex
 90
        5
102
RTVSPost2010Prop44ColorRGB
 90
      255
102
RTVSPost2010PropOp44
 70
     1
102
RTVSPost2010Prop45
280
     0
102
RTVSPost2010PropOp45
 70
     1
102
RTVSPost2010Prop46
 90
       50
102
RTVSPost2010PropOp46
 70
     1
102
RTVSPost2010Prop47
 90
       50
102
RTVSPost2010PropOp47
 70
     1
102
RTVSPost2010Prop48
 90
       50
102
RTVSPost2010PropOp48
 70
     1
102
RTVSPost2010Prop49
280
     0
102
RTVSPost2010PropOp49
 70
     1
102
RTVSPost2010Prop50
 90
       50
102
RTVSPost2010PropOp50
 70
     1
102
RTVSPost2010Prop51ColorIndex
 90
      256
102
RTVSPost2010Prop51ColorRGB
 90
-16777216
102
RTVSPost2010PropOp51
 70
     0
102
RTVSPost2010Prop52
140
1.0
102
RTVSPost2010PropOp52
 70
     0
102
RTVSPost2010Prop53
 90
        2
102
RTVSPost2010PropOp53
 70
     1
102
RTVSPost2010Prop54
  1
strokes_ogs.tif
102
RTVSPost2010PropOp54
 70
     1
102
RTVSPost2010Prop55
280
     0
102
RTVSPost2010PropOp55
 70
     1
102
RTVSPost2010Prop56
140
1.0
102
RTVSPost2010PropOp56
 70
     1
102
RTVSPost2010Prop57
140
1.0
102
RTVSPost2010PropOp57
 70
     1
  0
XRECORD
  5
A1
102
{ACAD_REACTORS
330
A0
102
}
330
A0
100
AcDbXrecord
280
     1
102
RTVSPropertyOp0
 70
     1
102
RTVSPropertyOp1
 70
     1
102
RTVSPropertyOp2
 70
     1
102
RTVSPropertyOp3
 70
     1
102
RTVSPropertyOp4
 70
     1
102
RTVSPropertyOp5
 70
     1
102
RTVSPropertyOp6
 70
     1
102
RTVSPropertyOp7
 70
     1
102
RTVSPropertyOp8
 70
     1
102
RTVSPropertyOp9
 70
     1
102
RTVSPropertyOp10
 70
     1
102
RTVSPropertyOp11
 70
     1
102
RTVSPropertyOp12
 70
     1
102
RTVSPropertyOp13
 70
     1
102
RTVSPropertyOp14
 70
     1
102
RTVSPropertyOp15
 70
     1
102
RTVSPropertyOp16
 70
     1
102
RTVSPropertyOp17
 70
     1
102
RTVSPropertyOp18
 70
     1
102
RTVSPropertyOp19
 70
     1
102
RTVSPropertyOp20
 70
     1
102
RTVSPropertyOp21
 70
     1
102
RTVSPropertyOp22
 70
     1
102
RTVSPropertyOp23
 70
     1
102
RTVSPropertyOp24
 70
     1
102
RTVSPropertyOp25
 70
     1
102
RTVSPropertyOp26
 70
     1
102
RTVSPropertyOp27
 70
     1
102
RTVSPropertyOp28
 70
     1
102
RTVSPropertyOp29
 70
     1
102
RTVSPropertyOp30
 70
     1
102
RTVSPropertyOp31
 70
     1
102
RTVSPropertyOp32
 70
     1
102
RTVSPropertyOp33
 70
     1
102
RTVSPropertyOp34
 70
     1
102
RTVSPropertyOp35
 70
     1
102
RTVSPropertyOp36
 70
     1
102
RTVSPropertyOp37
 70
     1
102
RTVSPropertyOp38
 70
     1
102
RTVSPropertyOp39
 70
     1
102
RTVSPropertyOp40
 70
     1
102
RTVSPropertyOp41
 70
     1
102
RTVSPropertyOp42
 70
     1
102
RTVSPropertyOp43
 70
     1
102
RTVSPropertyOp44
 70
     1
102
RTVSPropertyOp45
 70
     1
102
RTVSPropertyOp46
 70
     1
102
RTVSPropertyOp47
 70
     1
102
RTVSPropertyOp48
 70
     1
102
RTVSPropertyOp49
 70
     1
102
RTVSPropertyOp50
 70
     1
102
RTVSPropertyOp51
 70
     0
102
RTVSPropertyOp52
 70
     0
102
RTVSPropertyOp53
 70
     1
102
RTVSPropertyOp54
 70
     1
102
RTVSPropertyOp55
 70
     1
102
RTVSPropertyOp56
 70
     1
102
RTVSPropertyOp57
 70
     1
102
RTVSPost2010Prop28
280
     0
102
RTVSPost2010PropOp28
 70
     1
102
RTVSPost2010Prop29
280
     1
102
RTVSPost2010PropOp29
 70
     1
102
RTVSPost2010Prop30
280
     1
102
RTVSPost2010PropOp30
 70
     1
102
RTVSPost2010Prop31
280
     0
102
RTVSPost2010PropOp31
 70
     1
102
RTVSPost2010Prop32
280
     0
102
RTVSPost2010PropOp32
 70
     1
102
RTVSPost2010Prop33
280
     0
102
RTVSPost2010PropOp33
 70
     1
102
RTVSPost2010Prop34
280
     0
102
RTVSPost2010PropOp34
 70
     1
102
RTVSPost2010Prop35
280
     0
102
RTVSPost2010PropOp35
 70
     1
102
RTVSPost2010Prop36
280
     0
102
RTVSPost2010PropOp36
 70
     1
102
RTVSPost2010Prop37
 90
       50
102
RTVSPost2010PropOp37
 70
     1
102
RTVSPost2010Prop38
140
0.0
102
RTVSPost2010PropOp38
 70
     1
102
RTVSPost2010Prop39
140
1.0
102
RTVSPost2010PropOp39
 70
     1
102
RTVSPost2010Prop40
 90
        0
102
RTVSPost2010PropOp40
 70
     1
102
RTVSPost2010Prop41ColorIndex
 90
       18
102
RTVSPost2010Prop41ColorRGB
 90
        0
102
RTVSPost2010PropOp41
 70
     1
102
RTVSPost2010Prop42
 90
       50
102
RTVSPost2010PropOp42
 70
     1
102
RTVSPost2010Prop43
 90
        3
102
RTVSPost2010PropOp43
 70
     1
102
RTVSPost2010Prop44ColorIndex
 90
        5
102
RTVSPost2010Prop44ColorRGB
 90
      255
102
RTVSPost2010PropOp44
 70
     1
102
RTVSPost2010Prop45
280
     0
102
RTVSPost2010PropOp45
 70
     1
102
RTVSPost2010Prop46
 90
       50
102
RTVSPost2010PropOp46
 70
     1
102
RTVSPost2010Prop47
 90
       50
102
RTVSPost2010PropOp47
 70
     1
102
RTVSPost2010Prop48
 90
       50
102
RTVSPost2010PropOp48
 70
     1
102
RTVSPost2010Prop49
280
     0
102
RTVSPost2010PropOp49
 70
     1
102
RTVSPost2010Prop50
 90
       50
102
RTVSPost2010PropOp50
 70
     1
102
RTVSPost2010Prop51ColorIndex
 90
      256
102
RTVSPost2010Prop51ColorRGB
 90
-16777216
102
RTVSPost2010PropOp51
 70
     0
102
RTVSPost2010Prop52
140
1.0
102
RTVSPost2010PropOp52
 70
     0
102
RTVSPost2010Prop53
 90
        2
102
RTVSPost2010PropOp53
 70
     1
102
RTVSPost2010Prop54
  1
strokes_ogs.tif
102
RTVSPost2010PropOp54
 70
     1
102
RTVSPost2010Prop55
280
     0
102
RTVSPost2010PropOp55
 70
     1
102
RTVSPost2010Prop56
140
1.0
102
RTVSPost2010PropOp56
 70
     1
102
RTVSPost2010Prop57
140
1.0
102
RTVSPost2010PropOp57
 70
     1
  0
XRECORD
  5
A3
102
{ACAD_REACTORS
330
A2
102
}
330
A2
100
AcDbXrecord
280
     1
102
RTVSPropertyOp0
 70
     1
102
RTVSPropertyOp1
 70
     1
102
RTVSPropertyOp2
 70
     1
102
RTVSPropertyOp3
 70
     1
102
RTVSPropertyOp4
 70
     1
102
RTVSPropertyOp5
 70
     1
102
RTVSPropertyOp6
 70
     1
102
RTVSPropertyOp7
 70
     1
102
RTVSPropertyOp8
 70
     1
102
RTVSPropertyOp9
 70
     1
102
RTVSPropertyOp10
 70
     1
102
RTVSPropertyOp11
 70
     1
102
RTVSPropertyOp12
 70
     1
102
RTVSPropertyOp13
 70
     1
102
RTVSPropertyOp14
 70
     1
102
RTVSPropertyOp15
 70
     1
102
RTVSPropertyOp16
 70
     1
102
RTVSPropertyOp17
 70
     1
102
RTVSPropertyOp18
 70
     1
102
RTVSPropertyOp19
 70
     1
102
RTVSPropertyOp20
 70
     1
102
RTVSPropertyOp21
 70
     1
102
RTVSPropertyOp22
 70
     1
102
RTVSPropertyOp23
 70
     1
102
RTVSPropertyOp24
 70
     1
102
RTVSPropertyOp25
 70
     1
102
RTVSPropertyOp26
 70
     1
102
RTVSPropertyOp27
 70
     1
102
RTVSPropertyOp28
 70
     1
102
RTVSPropertyOp29
 70
     1
102
RTVSPropertyOp30
 70
     1
102
RTVSPropertyOp31
 70
     1
102
RTVSPropertyOp32
 70
     1
102
RTVSPropertyOp33
 70
     1
102
RTVSPropertyOp34
 70
     1
102
RTVSPropertyOp35
 70
     1
102
RTVSPropertyOp36
 70
     1
102
RTVSPropertyOp37
 70
     1
102
RTVSPropertyOp38
 70
     1
102
RTVSPropertyOp39
 70
     1
102
RTVSPropertyOp40
 70
     1
102
RTVSPropertyOp41
 70
     1
102
RTVSPropertyOp42
 70
     1
102
RTVSPropertyOp43
 70
     1
102
RTVSPropertyOp44
 70
     1
102
RTVSPropertyOp45
 70
     1
102
RTVSPropertyOp46
 70
     1
102
RTVSPropertyOp47
 70
     1
102
RTVSPropertyOp48
 70
     1
102
RTVSPropertyOp49
 70
     1
102
RTVSPropertyOp50
 70
     1
102
RTVSPropertyOp51
 70
     0
102
RTVSPropertyOp52
 70
     0
102
RTVSPropertyOp53
 70
     1
102
RTVSPropertyOp54
 70
     1
102
RTVSPropertyOp55
 70
     1
102
RTVSPropertyOp56
 70
     1
102
RTVSPropertyOp57
 70
     1
102
RTVSPost2010Prop28
280
     0
102
RTVSPost2010PropOp28
 70
     1
102
RTVSPost2010Prop29
280
     1
102
RTVSPost2010PropOp29
 70
     1
102
RTVSPost2010Prop30
280
     1
102
RTVSPost2010PropOp30
 70
     1
102
RTVSPost2010Prop31
280
     0
102
RTVSPost2010PropOp31
 70
     1
102
RTVSPost2010Prop32
280
     0
102
RTVSPost2010PropOp32
 70
     1
102
RTVSPost2010Prop33
280
     0
102
RTVSPost2010PropOp33
 70
     1
102
RTVSPost2010Prop34
280
     0
102
RTVSPost2010PropOp34
 70
     1
102
RTVSPost2010Prop35
280
     0
102
RTVSPost2010PropOp35
 70
     1
102
RTVSPost2010Prop36
280
     0
102
RTVSPost2010PropOp36
 70
     1
102
RTVSPost2010Prop37
 90
       50
102
RTVSPost2010PropOp37
 70
     1
102
RTVSPost2010Prop38
140
0.0
102
RTVSPost2010PropOp38
 70
     1
102
RTVSPost2010Prop39
140
1.0
102
RTVSPost2010PropOp39
 70
     1
102
RTVSPost2010Prop40
 90
        0
102
RTVSPost2010PropOp40
 70
     1
102
RTVSPost2010Prop41ColorIndex
 90
       18
102
RTVSPost2010Prop41ColorRGB
 90
        0
102
RTVSPost2010PropOp41
 70
     1
102
RTVSPost2010Prop42
 90
       50
102
RTVSPost2010PropOp42
 70
     1
102
RTVSPost2010Prop43
 90
        3
102
RTVSPost2010PropOp43
 70
     1
102
RTVSPost2010Prop44ColorIndex
 90
        5
102
RTVSPost2010Prop44ColorRGB
 90
      255
102
RTVSPost2010PropOp44
 70
     1
102
RTVSPost2010Prop45
280
     0
102
RTVSPost2010PropOp45
 70
     1
102
RTVSPost2010Prop46
 90
       50
102
RTVSPost2010PropOp46
 70
     1
102
RTVSPost2010Prop47
 90
       50
102
RTVSPost2010PropOp47
 70
     1
102
RTVSPost2010Prop48
 90
       50
102
RTVSPost2010PropOp48
 70
     1
102
RTVSPost2010Prop49
280
     0
102
RTVSPost2010PropOp49
 70
     1
102
RTVSPost2010Prop50
 90
       50
102
RTVSPost2010PropOp50
 70
     1
102
RTVSPost2010Prop51ColorIndex
 90
      256
102
RTVSPost2010Prop51ColorRGB
 90
-16777216
102
RTVSPost2010PropOp51
 70
     0
102
RTVSPost2010Prop52
140
1.0
102
RTVSPost2010PropOp52
 70
     0
102
RTVSPost2010Prop53
 90
        2
102
RTVSPost2010PropOp53
 70
     1
102
RTVSPost2010Prop54
  1
strokes_ogs.tif
102
RTVSPost2010PropOp54
 70
     1
102
RTVSPost2010Prop55
280
     0
102
RTVSPost2010PropOp55
 70
     1
102
RTVSPost2010Prop56
140
1.0
102
RTVSPost2010PropOp56
 70
     1
102
RTVSPost2010Prop57
140
1.0
102
RTVSPost2010PropOp57
 70
     1
  0
XRECORD
  5
B3
102
{ACAD_REACTORS
330
B2
102
}
330
B2
100
AcDbXrecord
280
     1
102
RTVSPropertyOp0
 70
     0
102
RTVSPropertyOp1
 70
     0
102
RTVSPropertyOp2
 70
     0
102
RTVSPropertyOp3
 70
     0
102
RTVSPropertyOp4
 70
     0
102
RTVSPropertyOp5
 70
     0
102
RTVSPropertyOp6
 70
     0
102
RTVSPropertyOp7
 70
     0
102
RTVSPropertyOp8
 70
     0
102
RTVSPropertyOp9
 70
     0
102
RTVSPropertyOp10
 70
     0
102
RTVSPropertyOp11
 70
     0
102
RTVSPropertyOp12
 70
     0
102
RTVSPropertyOp13
 70
     0
102
RTVSPropertyOp14
 70
     2
102
RTVSPropertyOp15
 70
     0
102
RTVSPropertyOp16
 70
     0
102
RTVSPropertyOp17
 70
     0
102
RTVSPropertyOp18
 70
     0
102
RTVSPropertyOp19
 70
     0
102
RTVSPropertyOp20
 70
     0
102
RTVSPropertyOp21
 70
     0
102
RTVSPropertyOp22
 70
     0
102
RTVSPropertyOp23
 70
     0
102
RTVSPropertyOp24
 70
     0
102
RTVSPropertyOp25
 70
     0
102
RTVSPropertyOp26
 70
     0
102
RTVSPropertyOp27
 70
     0
102
RTVSPropertyOp28
 70
     0
102
RTVSPropertyOp29
 70
     0
102
RTVSPropertyOp30
 70
     0
102
RTVSPropertyOp31
 70
     0
102
RTVSPropertyOp32
 70
     0
102
RTVSPropertyOp33
 70
     0
102
RTVSPropertyOp34
 70
     0
102
RTVSPropertyOp35
 70
     0
102
RTVSPropertyOp36
 70
     0
102
RTVSPropertyOp37
 70
     0
102
RTVSPropertyOp38
 70
     0
102
RTVSPropertyOp39
 70
     0
102
RTVSPropertyOp40
 70
     0
102
RTVSPropertyOp41
 70
     0
102
RTVSPropertyOp42
 70
     0
102
RTVSPropertyOp43
 70
     0
102
RTVSPropertyOp44
 70
     0
102
RTVSPropertyOp45
 70
     0
102
RTVSPropertyOp46
 70
     0
102
RTVSPropertyOp47
 70
     0
102
RTVSPropertyOp48
 70
     0
102
RTVSPropertyOp49
 70
     0
102
RTVSPropertyOp50
 70
     0
102
RTVSPropertyOp51
 70
     0
102
RTVSPropertyOp52
 70
     0
102
RTVSPropertyOp53
 70
     0
102
RTVSPropertyOp54
 70
     0
102
RTVSPropertyOp55
 70
     0
102
RTVSPropertyOp56
 70
     0
102
RTVSPropertyOp57
 70
     0
102
RTVSPost2010Prop28
280
     0
102
RTVSPost2010PropOp28
 70
     0
102
RTVSPost2010Prop29
280
     1
102
RTVSPost2010PropOp29
 70
     0
102
RTVSPost2010Prop30
280
     1
102
RTVSPost2010PropOp30
 70
     0
102
RTVSPost2010Prop31
280
     0
102
RTVSPost2010PropOp31
 70
     0
102
RTVSPost2010Prop32
280
     0
102
RTVSPost2010PropOp32
 70
     0
102
RTVSPost2010Prop33
280
     0
102
RTVSPost2010PropOp33
 70
     0
102
RTVSPost2010Prop34
280
     0
102
RTVSPost2010PropOp34
 70
     0
102
RTVSPost2010Prop35
280
     0
102
RTVSPost2010PropOp35
 70
     0
102
RTVSPost2010Prop36
280
     0
102
RTVSPost2010PropOp36
 70
     0
102
RTVSPost2010Prop37
 90
       50
102
RTVSPost2010PropOp37
 70
     0
102
RTVSPost2010Prop38
140
0.0
102
RTVSPost2010PropOp38
 70
     0
102
RTVSPost2010Prop39
140
1.0
102
RTVSPost2010PropOp39
 70
     0
102
RTVSPost2010Prop40
 90
        0
102
RTVSPost2010PropOp40
 70
     0
102
RTVSPost2010Prop41ColorIndex
 90
       18
102
RTVSPost2010Prop41ColorRGB
 90
        0
102
RTVSPost2010PropOp41
 70
     0
102
RTVSPost2010Prop42
 90
       50
102
RTVSPost2010PropOp42
 70
     0
102
RTVSPost2010Prop43
 90
        3
102
RTVSPost2010PropOp43
 70
     0
102
RTVSPost2010Prop44ColorIndex
 90
        5
102
RTVSPost2010Prop44ColorRGB
 90
      255
102
RTVSPost2010PropOp44
 70
     0
102
RTVSPost2010Prop45
280
     0
102
RTVSPost2010PropOp45
 70
     0
102
RTVSPost2010Prop46
 90
       50
102
RTVSPost2010PropOp46
 70
     0
102
RTVSPost2010Prop47
 90
       50
102
RTVSPost2010PropOp47
 70
     0
102
RTVSPost2010Prop48
 90
       50
102
RTVSPost2010PropOp48
 70
     0
102
RTVSPost2010Prop49
280
     0
102
RTVSPost2010PropOp49
 70
     0
102
RTVSPost2010Prop50
 90
       50
102
RTVSPost2010PropOp50
 70
     0
102
RTVSPost2010Prop51ColorIndex
 90
      256
102
RTVSPost2010Prop51ColorRGB
 90
-16777216
102
RTVSPost2010PropOp51
 70
     0
102
RTVSPost2010Prop52
140
1.0
102
RTVSPost2010PropOp52
 70
     0
102
RTVSPost2010Prop53
 90
        2
102
RTVSPost2010PropOp53
 70
     0
102
RTVSPost2010Prop54
  1
strokes_ogs.tif
102
RTVSPost2010PropOp54
 70
     0
102
RTVSPost2010Prop55
280
     0
102
RTVSPost2010PropOp55
 70
     0
102
RTVSPost2010Prop56
140
1.0
102
RTVSPost2010PropOp56
 70
     0
102
RTVSPost2010Prop57
140
1.0
102
RTVSPost2010PropOp57
 70
     0
  0
XRECORD
  5
AB
102
{ACAD_REACTORS
330
AA
102
}
330
AA
100
AcDbXrecord
280
     1
102
RTVSPropertyOp0
 70
     1
102
RTVSPropertyOp1
 70
     1
102
RTVSPropertyOp2
 70
     1
102
RTVSPropertyOp3
 70
     1
102
RTVSPropertyOp4
 70
     1
102
RTVSPropertyOp5
 70
     1
102
RTVSPropertyOp6
 70
     1
102
RTVSPropertyOp7
 70
     1
102
RTVSPropertyOp8
 70
     1
102
RTVSPropertyOp9
 70
     1
102
RTVSPropertyOp10
 70
     1
102
RTVSPropertyOp11
 70
     1
102
RTVSPropertyOp12
 70
     1
102
RTVSPropertyOp13
 70
     1
102
RTVSPropertyOp14
 70
     1
102
RTVSPropertyOp15
 70
     1
102
RTVSPropertyOp16
 70
     1
102
RTVSPropertyOp17
 70
     1
102
RTVSPropertyOp18
 70
     1
102
RTVSPropertyOp19
 70
     1
102
RTVSPropertyOp20
 70
     1
102
RTVSPropertyOp21
 70
     1
102
RTVSPropertyOp22
 70
     1
102
RTVSPropertyOp23
 70
     1
102
RTVSPropertyOp24
 70
     1
102
RTVSPropertyOp25
 70
     1
102
RTVSPropertyOp26
 70
     1
102
RTVSPropertyOp27
 70
     1
102
RTVSPropertyOp28
 70
     1
102
RTVSPropertyOp29
 70
     1
102
RTVSPropertyOp30
 70
     1
102
RTVSPropertyOp31
 70
     1
102
RTVSPropertyOp32
 70
     1
102
RTVSPropertyOp33
 70
     1
102
RTVSPropertyOp34
 70
     1
102
RTVSPropertyOp35
 70
     1
102
RTVSPropertyOp36
 70
     1
102
RTVSPropertyOp37
 70
     1
102
RTVSPropertyOp38
 70
     1
102
RTVSPropertyOp39
 70
     1
102
RTVSPropertyOp40
 70
     1
102
RTVSPropertyOp41
 70
     1
102
RTVSPropertyOp42
 70
     1
102
RTVSPropertyOp43
 70
     1
102
RTVSPropertyOp44
 70
     1
102
RTVSPropertyOp45
 70
     1
102
RTVSPropertyOp46
 70
     1
102
RTVSPropertyOp47
 70
     1
102
RTVSPropertyOp48
 70
     1
102
RTVSPropertyOp49
 70
     1
102
RTVSPropertyOp50
 70
     1
102
RTVSPropertyOp51
 70
     0
102
RTVSPropertyOp52
 70
     0
102
RTVSPropertyOp53
 70
     1
102
RTVSPropertyOp54
 70
     1
102
RTVSPropertyOp55
 70
     1
102
RTVSPropertyOp56
 70
     1
102
RTVSPropertyOp57
 70
     1
102
RTVSPost2010Prop28
280
     0
102
RTVSPost2010PropOp28
 70
     1
102
RTVSPost2010Prop29
280
     1
102
RTVSPost2010PropOp29
 70
     1
102
RTVSPost2010Prop30
280
     1
102
RTVSPost2010PropOp30
 70
     1
102
RTVSPost2010Prop31
280
     0
102
RTVSPost2010PropOp31
 70
     1
102
RTVSPost2010Prop32
280
     0
102
RTVSPost2010PropOp32
 70
     1
102
RTVSPost2010Prop33
280
     0
102
RTVSPost2010PropOp33
 70
     1
102
RTVSPost2010Prop34
280
     0
102
RTVSPost2010PropOp34
 70
     1
102
RTVSPost2010Prop35
280
     0
102
RTVSPost2010PropOp35
 70
     1
102
RTVSPost2010Prop36
280
     0
102
RTVSPost2010PropOp36
 70
     1
102
RTVSPost2010Prop37
 90
       50
102
RTVSPost2010PropOp37
 70
     1
102
RTVSPost2010Prop38
140
0.0
102
RTVSPost2010PropOp38
 70
     1
102
RTVSPost2010Prop39
140
1.0
102
RTVSPost2010PropOp39
 70
     1
102
RTVSPost2010Prop40
 90
        0
102
RTVSPost2010PropOp40
 70
     1
102
RTVSPost2010Prop41ColorIndex
 90
       18
102
RTVSPost2010Prop41ColorRGB
 90
        0
102
RTVSPost2010PropOp41
 70
     1
102
RTVSPost2010Prop42
 90
       50
102
RTVSPost2010PropOp42
 70
     1
102
RTVSPost2010Prop43
 90
        3
102
RTVSPost2010PropOp43
 70
     1
102
RTVSPost2010Prop44ColorIndex
 90
        5
102
RTVSPost2010Prop44ColorRGB
 90
      255
102
RTVSPost2010PropOp44
 70
     1
102
RTVSPost2010Prop45
280
     0
102
RTVSPost2010PropOp45
 70
     1
102
RTVSPost2010Prop46
 90
       50
102
RTVSPost2010PropOp46
 70
     1
102
RTVSPost2010Prop47
 90
       50
102
RTVSPost2010PropOp47
 70
     1
102
RTVSPost2010Prop48
 90
       50
102
RTVSPost2010PropOp48
 70
     1
102
RTVSPost2010Prop49
280
     0
102
RTVSPost2010PropOp49
 70
     1
102
RTVSPost2010Prop50
 90
       50
102
RTVSPost2010PropOp50
 70
     1
102
RTVSPost2010Prop51ColorIndex
 90
      256
102
RTVSPost2010Prop51ColorRGB
 90
-16777216
102
RTVSPost2010PropOp51
 70
     0
102
RTVSPost2010Prop52
140
1.0
102
RTVSPost2010PropOp52
 70
     0
102
RTVSPost2010Prop53
 90
        2
102
RTVSPost2010PropOp53
 70
     1
102
RTVSPost2010Prop54
  1
strokes_ogs.tif
102
RTVSPost2010PropOp54
 70
     1
102
RTVSPost2010Prop55
280
     0
102
RTVSPost2010PropOp55
 70
     1
102
RTVSPost2010Prop56
140
1.0
102
RTVSPost2010PropOp56
 70
     1
102
RTVSPost2010Prop57
140
1.0
102
RTVSPost2010PropOp57
 70
     1
  0
XRECORD
  5
8F
102
{ACAD_REACTORS
330
8E
102
}
330
8E
100
AcDbXrecord
280
     1
102
RTVSPropertyOp0
 70
     1
102
RTVSPropertyOp1
 70
     1
102
RTVSPropertyOp2
 70
     1
102
RTVSPropertyOp3
 70
     1
102
RTVSPropertyOp4
 70
     1
102
RTVSPropertyOp5
 70
     1
102
RTVSPropertyOp6
 70
     1
102
RTVSPropertyOp7
 70
     1
102
RTVSPropertyOp8
 70
     1
102
RTVSPropertyOp9
 70
     1
102
RTVSPropertyOp10
 70
     1
102
RTVSPropertyOp11
 70
     1
102
RTVSPropertyOp12
 70
     1
102
RTVSPropertyOp13
 70
     1
102
RTVSPropertyOp14
 70
     1
102
RTVSPropertyOp15
 70
     1
102
RTVSPropertyOp16
 70
     1
102
RTVSPropertyOp17
 70
     1
102
RTVSPropertyOp18
 70
     1
102
RTVSPropertyOp19
 70
     1
102
RTVSPropertyOp20
 70
     1
102
RTVSPropertyOp21
 70
     1
102
RTVSPropertyOp22
 70
     1
102
RTVSPropertyOp23
 70
     1
102
RTVSPropertyOp24
 70
     1
102
RTVSPropertyOp25
 70
     1
102
RTVSPropertyOp26
 70
     1
102
RTVSPropertyOp27
 70
     1
102
RTVSPropertyOp28
 70
     1
102
RTVSPropertyOp29
 70
     1
102
RTVSPropertyOp30
 70
     1
102
RTVSPropertyOp31
 70
     1
102
RTVSPropertyOp32
 70
     1
102
RTVSPropertyOp33
 70
     1
102
RTVSPropertyOp34
 70
     1
102
RTVSPropertyOp35
 70
     1
102
RTVSPropertyOp36
 70
     1
102
RTVSPropertyOp37
 70
     1
102
RTVSPropertyOp38
 70
     1
102
RTVSPropertyOp39
 70
     1
102
RTVSPropertyOp40
 70
     1
102
RTVSPropertyOp41
 70
     1
102
RTVSPropertyOp42
 70
     1
102
RTVSPropertyOp43
 70
     1
102
RTVSPropertyOp44
 70
     1
102
RTVSPropertyOp45
 70
     1
102
RTVSPropertyOp46
 70
     1
102
RTVSPropertyOp47
 70
     1
102
RTVSPropertyOp48
 70
     1
102
RTVSPropertyOp49
 70
     1
102
RTVSPropertyOp50
 70
     1
102
RTVSPropertyOp51
 70
     0
102
RTVSPropertyOp52
 70
     0
102
RTVSPropertyOp53
 70
     1
102
RTVSPropertyOp54
 70
     1
102
RTVSPropertyOp55
 70
     1
102
RTVSPropertyOp56
 70
     1
102
RTVSPropertyOp57
 70
     1
102
RTVSPost2010Prop28
280
     0
102
RTVSPost2010PropOp28
 70
     1
102
RTVSPost2010Prop29
280
     1
102
RTVSPost2010PropOp29
 70
     1
102
RTVSPost2010Prop30
280
     1
102
RTVSPost2010PropOp30
 70
     1
102
RTVSPost2010Prop31
280
     0
102
RTVSPost2010PropOp31
 70
     1
102
RTVSPost2010Prop32
280
     0
102
RTVSPost2010PropOp32
 70
     1
102
RTVSPost2010Prop33
280
     0
102
RTVSPost2010PropOp33
 70
     1
102
RTVSPost2010Prop34
280
     0
102
RTVSPost2010PropOp34
 70
     1
102
RTVSPost2010Prop35
280
     0
102
RTVSPost2010PropOp35
 70
     1
102
RTVSPost2010Prop36
280
     0
102
RTVSPost2010PropOp36
 70
     1
102
RTVSPost2010Prop37
 90
       50
102
RTVSPost2010PropOp37
 70
     1
102
RTVSPost2010Prop38
140
0.0
102
RTVSPost2010PropOp38
 70
     1
102
RTVSPost2010Prop39
140
1.0
102
RTVSPost2010PropOp39
 70
     1
102
RTVSPost2010Prop40
 90
        0
102
RTVSPost2010PropOp40
 70
     1
102
RTVSPost2010Prop41ColorIndex
 90
       18
102
RTVSPost2010Prop41ColorRGB
 90
        0
102
RTVSPost2010PropOp41
 70
     1
102
RTVSPost2010Prop42
 90
       50
102
RTVSPost2010PropOp42
 70
     1
102
RTVSPost2010Prop43
 90
        3
102
RTVSPost2010PropOp43
 70
     1
102
RTVSPost2010Prop44ColorIndex
 90
        5
102
RTVSPost2010Prop44ColorRGB
 90
      255
102
RTVSPost2010PropOp44
 70
     1
102
RTVSPost2010Prop45
280
     0
102
RTVSPost2010PropOp45
 70
     1
102
RTVSPost2010Prop46
 90
       50
102
RTVSPost2010PropOp46
 70
     1
102
RTVSPost2010Prop47
 90
       50
102
RTVSPost2010PropOp47
 70
     1
102
RTVSPost2010Prop48
 90
       50
102
RTVSPost2010PropOp48
 70
     1
102
RTVSPost2010Prop49
280
     0
102
RTVSPost2010PropOp49
 70
     1
102
RTVSPost2010Prop50
 90
       50
102
RTVSPost2010PropOp50
 70
     1
102
RTVSPost2010Prop51ColorIndex
 90
      256
102
RTVSPost2010Prop51ColorRGB
 90
-16777216
102
RTVSPost2010PropOp51
 70
     0
102
RTVSPost2010Prop52
140
1.0
102
RTVSPost2010PropOp52
 70
     0
102
RTVSPost2010Prop53
 90
        2
102
RTVSPost2010PropOp53
 70
     1
102
RTVSPost2010Prop54
  1
strokes_ogs.tif
102
RTVSPost2010PropOp54
 70
     1
102
RTVSPost2010Prop55
280
     0
102
RTVSPost2010PropOp55
 70
     1
102
RTVSPost2010Prop56
140
1.0
102
RTVSPost2010PropOp56
 70
     1
102
RTVSPost2010Prop57
140
1.0
102
RTVSPost2010PropOp57
 70
     1
  0
XRECORD
  5
91
102
{ACAD_REACTORS
330
90
102
}
330
90
100
AcDbXrecord
280
     1
102
RTVSPropertyOp0
 70
     1
102
RTVSPropertyOp1
 70
     1
102
RTVSPropertyOp2
 70
     1
102
RTVSPropertyOp3
 70
     1
102
RTVSPropertyOp4
 70
     1
102
RTVSPropertyOp5
 70
     1
102
RTVSPropertyOp6
 70
     1
102
RTVSPropertyOp7
 70
     1
102
RTVSPropertyOp8
 70
     1
102
RTVSPropertyOp9
 70
     1
102
RTVSPropertyOp10
 70
     1
102
RTVSPropertyOp11
 70
     1
102
RTVSPropertyOp12
 70
     1
102
RTVSPropertyOp13
 70
     1
102
RTVSPropertyOp14
 70
     1
102
RTVSPropertyOp15
 70
     1
102
RTVSPropertyOp16
 70
     1
102
RTVSPropertyOp17
 70
     1
102
RTVSPropertyOp18
 70
     1
102
RTVSPropertyOp19
 70
     1
102
RTVSPropertyOp20
 70
     1
102
RTVSPropertyOp21
 70
     1
102
RTVSPropertyOp22
 70
     1
102
RTVSPropertyOp23
 70
     1
102
RTVSPropertyOp24
 70
     1
102
RTVSPropertyOp25
 70
     1
102
RTVSPropertyOp26
 70
     1
102
RTVSPropertyOp27
 70
     1
102
RTVSPropertyOp28
 70
     1
102
RTVSPropertyOp29
 70
     1
102
RTVSPropertyOp30
 70
     1
102
RTVSPropertyOp31
 70
     1
102
RTVSPropertyOp32
 70
     1
102
RTVSPropertyOp33
 70
     1
102
RTVSPropertyOp34
 70
     1
102
RTVSPropertyOp35
 70
     1
102
RTVSPropertyOp36
 70
     1
102
RTVSPropertyOp37
 70
     1
102
RTVSPropertyOp38
 70
     1
102
RTVSPropertyOp39
 70
     1
102
RTVSPropertyOp40
 70
     1
102
RTVSPropertyOp41
 70
     1
102
RTVSPropertyOp42
 70
     1
102
RTVSPropertyOp43
 70
     1
102
RTVSPropertyOp44
 70
     1
102
RTVSPropertyOp45
 70
     1
102
RTVSPropertyOp46
 70
     1
102
RTVSPropertyOp47
 70
     1
102
RTVSPropertyOp48
 70
     1
102
RTVSPropertyOp49
 70
     1
102
RTVSPropertyOp50
 70
     1
102
RTVSPropertyOp51
 70
     0
102
RTVSPropertyOp52
 70
     0
102
RTVSPropertyOp53
 70
     1
102
RTVSPropertyOp54
 70
     1
102
RTVSPropertyOp55
 70
     1
102
RTVSPropertyOp56
 70
     1
102
RTVSPropertyOp57
 70
     1
102
RTVSPost2010Prop28
280
     0
102
RTVSPost2010PropOp28
 70
     1
102
RTVSPost2010Prop29
280
     1
102
RTVSPost2010PropOp29
 70
     1
102
RTVSPost2010Prop30
280
     1
102
RTVSPost2010PropOp30
 70
     1
102
RTVSPost2010Prop31
280
     0
102
RTVSPost2010PropOp31
 70
     1
102
RTVSPost2010Prop32
280
     0
102
RTVSPost2010PropOp32
 70
     1
102
RTVSPost2010Prop33
280
     0
102
RTVSPost2010PropOp33
 70
     1
102
RTVSPost2010Prop34
280
     0
102
RTVSPost2010PropOp34
 70
     1
102
RTVSPost2010Prop35
280
     0
102
RTVSPost2010PropOp35
 70
     1
102
RTVSPost2010Prop36
280
     0
102
RTVSPost2010PropOp36
 70
     1
102
RTVSPost2010Prop37
 90
       50
102
RTVSPost2010PropOp37
 70
     1
102
RTVSPost2010Prop38
140
0.0
102
RTVSPost2010PropOp38
 70
     1
102
RTVSPost2010Prop39
140
1.0
102
RTVSPost2010PropOp39
 70
     1
102
RTVSPost2010Prop40
 90
        0
102
RTVSPost2010PropOp40
 70
     1
102
RTVSPost2010Prop41ColorIndex
 90
       18
102
RTVSPost2010Prop41ColorRGB
 90
        0
102
RTVSPost2010PropOp41
 70
     1
102
RTVSPost2010Prop42
 90
       50
102
RTVSPost2010PropOp42
 70
     1
102
RTVSPost2010Prop43
 90
        3
102
RTVSPost2010PropOp43
 70
     1
102
RTVSPost2010Prop44ColorIndex
 90
        5
102
RTVSPost2010Prop44ColorRGB
 90
      255
102
RTVSPost2010PropOp44
 70
     1
102
RTVSPost2010Prop45
280
     0
102
RTVSPost2010PropOp45
 70
     1
102
RTVSPost2010Prop46
 90
       50
102
RTVSPost2010PropOp46
 70
     1
102
RTVSPost2010Prop47
 90
       50
102
RTVSPost2010PropOp47
 70
     1
102
RTVSPost2010Prop48
 90
       50
102
RTVSPost2010PropOp48
 70
     1
102
RTVSPost2010Prop49
280
     0
102
RTVSPost2010PropOp49
 70
     1
102
RTVSPost2010Prop50
 90
       50
102
RTVSPost2010PropOp50
 70
     1
102
RTVSPost2010Prop51ColorIndex
 90
      256
102
RTVSPost2010Prop51ColorRGB
 90
-16777216
102
RTVSPost2010PropOp51
 70
     0
102
RTVSPost2010Prop52
140
1.0
102
RTVSPost2010PropOp52
 70
     0
102
RTVSPost2010Prop53
 90
        2
102
RTVSPost2010PropOp53
 70
     1
102
RTVSPost2010Prop54
  1
strokes_ogs.tif
102
RTVSPost2010PropOp54
 70
     1
102
RTVSPost2010Prop55
280
     0
102
RTVSPost2010PropOp55
 70
     1
102
RTVSPost2010Prop56
140
1.0
102
RTVSPost2010PropOp56
 70
     1
102
RTVSPost2010Prop57
140
1.0
102
RTVSPost2010PropOp57
 70
     1
  0
XRECORD
  5
93
102
{ACAD_REACTORS
330
92
102
}
330
92
100
AcDbXrecord
280
     1
102
RTVSPropertyOp0
 70
     1
102
RTVSPropertyOp1
 70
     1
102
RTVSPropertyOp2
 70
     1
102
RTVSPropertyOp3
 70
     1
102
RTVSPropertyOp4
 70
     1
102
RTVSPropertyOp5
 70
     1
102
RTVSPropertyOp6
 70
     1
102
RTVSPropertyOp7
 70
     1
102
RTVSPropertyOp8
 70
     1
102
RTVSPropertyOp9
 70
     1
102
RTVSPropertyOp10
 70
     1
102
RTVSPropertyOp11
 70
     1
102
RTVSPropertyOp12
 70
     1
102
RTVSPropertyOp13
 70
     1
102
RTVSPropertyOp14
 70
     1
102
RTVSPropertyOp15
 70
     1
102
RTVSPropertyOp16
 70
     1
102
RTVSPropertyOp17
 70
     1
102
RTVSPropertyOp18
 70
     1
102
RTVSPropertyOp19
 70
     1
102
RTVSPropertyOp20
 70
     1
102
RTVSPropertyOp21
 70
     1
102
RTVSPropertyOp22
 70
     1
102
RTVSPropertyOp23
 70
     1
102
RTVSPropertyOp24
 70
     1
102
RTVSPropertyOp25
 70
     1
102
RTVSPropertyOp26
 70
     1
102
RTVSPropertyOp27
 70
     1
102
RTVSPropertyOp28
 70
     1
102
RTVSPropertyOp29
 70
     1
102
RTVSPropertyOp30
 70
     1
102
RTVSPropertyOp31
 70
     1
102
RTVSPropertyOp32
 70
     1
102
RTVSPropertyOp33
 70
     1
102
RTVSPropertyOp34
 70
     1
102
RTVSPropertyOp35
 70
     1
102
RTVSPropertyOp36
 70
     1
102
RTVSPropertyOp37
 70
     1
102
RTVSPropertyOp38
 70
     1
102
RTVSPropertyOp39
 70
     1
102
RTVSPropertyOp40
 70
     1
102
RTVSPropertyOp41
 70
     1
102
RTVSPropertyOp42
 70
     1
102
RTVSPropertyOp43
 70
     1
102
RTVSPropertyOp44
 70
     1
102
RTVSPropertyOp45
 70
     1
102
RTVSPropertyOp46
 70
     1
102
RTVSPropertyOp47
 70
     1
102
RTVSPropertyOp48
 70
     1
102
RTVSPropertyOp49
 70
     1
102
RTVSPropertyOp50
 70
     1
102
RTVSPropertyOp51
 70
     0
102
RTVSPropertyOp52
 70
     0
102
RTVSPropertyOp53
 70
     1
102
RTVSPropertyOp54
 70
     1
102
RTVSPropertyOp55
 70
     1
102
RTVSPropertyOp56
 70
     1
102
RTVSPropertyOp57
 70
     1
102
RTVSPost2010Prop28
280
     0
102
RTVSPost2010PropOp28
 70
     1
102
RTVSPost2010Prop29
280
     1
102
RTVSPost2010PropOp29
 70
     1
102
RTVSPost2010Prop30
280
     1
102
RTVSPost2010PropOp30
 70
     1
102
RTVSPost2010Prop31
280
     0
102
RTVSPost2010PropOp31
 70
     1
102
RTVSPost2010Prop32
280
     0
102
RTVSPost2010PropOp32
 70
     1
102
RTVSPost2010Prop33
280
     0
102
RTVSPost2010PropOp33
 70
     1
102
RTVSPost2010Prop34
280
     0
102
RTVSPost2010PropOp34
 70
     1
102
RTVSPost2010Prop35
280
     0
102
RTVSPost2010PropOp35
 70
     1
102
RTVSPost2010Prop36
280
     0
102
RTVSPost2010PropOp36
 70
     1
102
RTVSPost2010Prop37
 90
       50
102
RTVSPost2010PropOp37
 70
     1
102
RTVSPost2010Prop38
140
0.0
102
RTVSPost2010PropOp38
 70
     1
102
RTVSPost2010Prop39
140
1.0
102
RTVSPost2010PropOp39
 70
     1
102
RTVSPost2010Prop40
 90
        0
102
RTVSPost2010PropOp40
 70
     1
102
RTVSPost2010Prop41ColorIndex
 90
       18
102
RTVSPost2010Prop41ColorRGB
 90
        0
102
RTVSPost2010PropOp41
 70
     1
102
RTVSPost2010Prop42
 90
       50
102
RTVSPost2010PropOp42
 70
     1
102
RTVSPost2010Prop43
 90
        3
102
RTVSPost2010PropOp43
 70
     1
102
RTVSPost2010Prop44ColorIndex
 90
        5
102
RTVSPost2010Prop44ColorRGB
 90
      255
102
RTVSPost2010PropOp44
 70
     1
102
RTVSPost2010Prop45
280
     0
102
RTVSPost2010PropOp45
 70
     1
102
RTVSPost2010Prop46
 90
       50
102
RTVSPost2010PropOp46
 70
     1
102
RTVSPost2010Prop47
 90
       50
102
RTVSPost2010PropOp47
 70
     1
102
RTVSPost2010Prop48
 90
       50
102
RTVSPost2010PropOp48
 70
     1
102
RTVSPost2010Prop49
280
     0
102
RTVSPost2010PropOp49
 70
     1
102
RTVSPost2010Prop50
 90
       50
102
RTVSPost2010PropOp50
 70
     1
102
RTVSPost2010Prop51ColorIndex
 90
      256
102
RTVSPost2010Prop51ColorRGB
 90
-16777216
102
RTVSPost2010PropOp51
 70
     0
102
RTVSPost2010Prop52
140
1.0
102
RTVSPost2010PropOp52
 70
     0
102
RTVSPost2010Prop53
 90
        2
102
RTVSPost2010PropOp53
 70
     1
102
RTVSPost2010Prop54
  1
strokes_ogs.tif
102
RTVSPost2010PropOp54
 70
     1
102
RTVSPost2010Prop55
280
     0
102
RTVSPost2010PropOp55
 70
     1
102
RTVSPost2010Prop56
140
1.0
102
RTVSPost2010PropOp56
 70
     1
102
RTVSPost2010Prop57
140
1.0
102
RTVSPost2010PropOp57
 70
     1
  0
XRECORD
  5
95
102
{ACAD_REACTORS
330
94
102
}
330
94
100
AcDbXrecord
280
     1
102
RTVSPropertyOp0
 70
     1
102
RTVSPropertyOp1
 70
     1
102
RTVSPropertyOp2
 70
     1
102
RTVSPropertyOp3
 70
     1
102
RTVSPropertyOp4
 70
     1
102
RTVSPropertyOp5
 70
     1
102
RTVSPropertyOp6
 70
     1
102
RTVSPropertyOp7
 70
     1
102
RTVSPropertyOp8
 70
     1
102
RTVSPropertyOp9
 70
     1
102
RTVSPropertyOp10
 70
     1
102
RTVSPropertyOp11
 70
     1
102
RTVSPropertyOp12
 70
     1
102
RTVSPropertyOp13
 70
     1
102
RTVSPropertyOp14
 70
     1
102
RTVSPropertyOp15
 70
     1
102
RTVSPropertyOp16
 70
     1
102
RTVSPropertyOp17
 70
     1
102
RTVSPropertyOp18
 70
     1
102
RTVSPropertyOp19
 70
     1
102
RTVSPropertyOp20
 70
     1
102
RTVSPropertyOp21
 70
     1
102
RTVSPropertyOp22
 70
     1
102
RTVSPropertyOp23
 70
     1
102
RTVSPropertyOp24
 70
     1
102
RTVSPropertyOp25
 70
     1
102
RTVSPropertyOp26
 70
     1
102
RTVSPropertyOp27
 70
     1
102
RTVSPropertyOp28
 70
     1
102
RTVSPropertyOp29
 70
     1
102
RTVSPropertyOp30
 70
     1
102
RTVSPropertyOp31
 70
     1
102
RTVSPropertyOp32
 70
     1
102
RTVSPropertyOp33
 70
     1
102
RTVSPropertyOp34
 70
     1
102
RTVSPropertyOp35
 70
     1
102
RTVSPropertyOp36
 70
     1
102
RTVSPropertyOp37
 70
     1
102
RTVSPropertyOp38
 70
     1
102
RTVSPropertyOp39
 70
     1
102
RTVSPropertyOp40
 70
     1
102
RTVSPropertyOp41
 70
     1
102
RTVSPropertyOp42
 70
     1
102
RTVSPropertyOp43
 70
     1
102
RTVSPropertyOp44
 70
     1
102
RTVSPropertyOp45
 70
     1
102
RTVSPropertyOp46
 70
     1
102
RTVSPropertyOp47
 70
     1
102
RTVSPropertyOp48
 70
     1
102
RTVSPropertyOp49
 70
     1
102
RTVSPropertyOp50
 70
     1
102
RTVSPropertyOp51
 70
     0
102
RTVSPropertyOp52
 70
     0
102
RTVSPropertyOp53
 70
     1
102
RTVSPropertyOp54
 70
     1
102
RTVSPropertyOp55
 70
     1
102
RTVSPropertyOp56
 70
     1
102
RTVSPropertyOp57
 70
     1
102
RTVSPost2010Prop28
280
     0
102
RTVSPost2010PropOp28
 70
     1
102
RTVSPost2010Prop29
280
     1
102
RTVSPost2010PropOp29
 70
     1
102
RTVSPost2010Prop30
280
     1
102
RTVSPost2010PropOp30
 70
     1
102
RTVSPost2010Prop31
280
     0
102
RTVSPost2010PropOp31
 70
     1
102
RTVSPost2010Prop32
280
     0
102
RTVSPost2010PropOp32
 70
     1
102
RTVSPost2010Prop33
280
     0
102
RTVSPost2010PropOp33
 70
     1
102
RTVSPost2010Prop34
280
     0
102
RTVSPost2010PropOp34
 70
     1
102
RTVSPost2010Prop35
280
     0
102
RTVSPost2010PropOp35
 70
     1
102
RTVSPost2010Prop36
280
     0
102
RTVSPost2010PropOp36
 70
     1
102
RTVSPost2010Prop37
 90
       50
102
RTVSPost2010PropOp37
 70
     1
102
RTVSPost2010Prop38
140
0.0
102
RTVSPost2010PropOp38
 70
     1
102
RTVSPost2010Prop39
140
1.0
102
RTVSPost2010PropOp39
 70
     1
102
RTVSPost2010Prop40
 90
        0
102
RTVSPost2010PropOp40
 70
     1
102
RTVSPost2010Prop41ColorIndex
 90
       18
102
RTVSPost2010Prop41ColorRGB
 90
        0
102
RTVSPost2010PropOp41
 70
     1
102
RTVSPost2010Prop42
 90
       50
102
RTVSPost2010PropOp42
 70
     1
102
RTVSPost2010Prop43
 90
        3
102
RTVSPost2010PropOp43
 70
     1
102
RTVSPost2010Prop44ColorIndex
 90
        5
102
RTVSPost2010Prop44ColorRGB
 90
      255
102
RTVSPost2010PropOp44
 70
     1
102
RTVSPost2010Prop45
280
     0
102
RTVSPost2010PropOp45
 70
     1
102
RTVSPost2010Prop46
 90
       50
102
RTVSPost2010PropOp46
 70
     1
102
RTVSPost2010Prop47
 90
       50
102
RTVSPost2010PropOp47
 70
     1
102
RTVSPost2010Prop48
 90
       50
102
RTVSPost2010PropOp48
 70
     1
102
RTVSPost2010Prop49
280
     0
102
RTVSPost2010PropOp49
 70
     1
102
RTVSPost2010Prop50
 90
       50
102
RTVSPost2010PropOp50
 70
     1
102
RTVSPost2010Prop51ColorIndex
 90
      256
102
RTVSPost2010Prop51ColorRGB
 90
-16777216
102
RTVSPost2010PropOp51
 70
     0
102
RTVSPost2010Prop52
140
1.0
102
RTVSPost2010PropOp52
 70
     0
102
RTVSPost2010Prop53
 90
        2
102
RTVSPost2010PropOp53
 70
     1
102
RTVSPost2010Prop54
  1
strokes_ogs.tif
102
RTVSPost2010PropOp54
 70
     1
102
RTVSPost2010Prop55
280
     0
102
RTVSPost2010PropOp55
 70
     1
102
RTVSPost2010Prop56
140
1.0
102
RTVSPost2010PropOp56
 70
     1
102
RTVSPost2010Prop57
140
1.0
102
RTVSPost2010PropOp57
 70
     1
  0
XRECORD
  5
9B
102
{ACAD_REACTORS
330
9A
102
}
330
9A
100
AcDbXrecord
280
     1
102
RTVSPropertyOp0
 70
     1
102
RTVSPropertyOp1
 70
     1
102
RTVSPropertyOp2
 70
     1
102
RTVSPropertyOp3
 70
     1
102
RTVSPropertyOp4
 70
     1
102
RTVSPropertyOp5
 70
     1
102
RTVSPropertyOp6
 70
     1
102
RTVSPropertyOp7
 70
     1
102
RTVSPropertyOp8
 70
     1
102
RTVSPropertyOp9
 70
     1
102
RTVSPropertyOp10
 70
     1
102
RTVSPropertyOp11
 70
     1
102
RTVSPropertyOp12
 70
     1
102
RTVSPropertyOp13
 70
     1
102
RTVSPropertyOp14
 70
     1
102
RTVSPropertyOp15
 70
     1
102
RTVSPropertyOp16
 70
     1
102
RTVSPropertyOp17
 70
     1
102
RTVSPropertyOp18
 70
     1
102
RTVSPropertyOp19
 70
     1
102
RTVSPropertyOp20
 70
     1
102
RTVSPropertyOp21
 70
     1
102
RTVSPropertyOp22
 70
     1
102
RTVSPropertyOp23
 70
     1
102
RTVSPropertyOp24
 70
     1
102
RTVSPropertyOp25
 70
     1
102
RTVSPropertyOp26
 70
     1
102
RTVSPropertyOp27
 70
     1
102
RTVSPropertyOp28
 70
     1
102
RTVSPropertyOp29
 70
     1
102
RTVSPropertyOp30
 70
     1
102
RTVSPropertyOp31
 70
     1
102
RTVSPropertyOp32
 70
     1
102
RTVSPropertyOp33
 70
     1
102
RTVSPropertyOp34
 70
     1
102
RTVSPropertyOp35
 70
     1
102
RTVSPropertyOp36
 70
     1
102
RTVSPropertyOp37
 70
     1
102
RTVSPropertyOp38
 70
     1
102
RTVSPropertyOp39
 70
     1
102
RTVSPropertyOp40
 70
     1
102
RTVSPropertyOp41
 70
     1
102
RTVSPropertyOp42
 70
     1
102
RTVSPropertyOp43
 70
     1
102
RTVSPropertyOp44
 70
     1
102
RTVSPropertyOp45
 70
     1
102
RTVSPropertyOp46
 70
     1
102
RTVSPropertyOp47
 70
     1
102
RTVSPropertyOp48
 70
     1
102
RTVSPropertyOp49
 70
     1
102
RTVSPropertyOp50
 70
     1
102
RTVSPropertyOp51
 70
     0
102
RTVSPropertyOp52
 70
     0
102
RTVSPropertyOp53
 70
     1
102
RTVSPropertyOp54
 70
     1
102
RTVSPropertyOp55
 70
     1
102
RTVSPropertyOp56
 70
     1
102
RTVSPropertyOp57
 70
     1
102
RTVSPost2010Prop28
280
     0
102
RTVSPost2010PropOp28
 70
     1
102
RTVSPost2010Prop29
280
     1
102
RTVSPost2010PropOp29
 70
     1
102
RTVSPost2010Prop30
280
     1
102
RTVSPost2010PropOp30
 70
     1
102
RTVSPost2010Prop31
280
     0
102
RTVSPost2010PropOp31
 70
     1
102
RTVSPost2010Prop32
280
     0
102
RTVSPost2010PropOp32
 70
     1
102
RTVSPost2010Prop33
280
     0
102
RTVSPost2010PropOp33
 70
     1
102
RTVSPost2010Prop34
280
     0
102
RTVSPost2010PropOp34
 70
     1
102
RTVSPost2010Prop35
280
     0
102
RTVSPost2010PropOp35
 70
     1
102
RTVSPost2010Prop36
280
     0
102
RTVSPost2010PropOp36
 70
     1
102
RTVSPost2010Prop37
 90
       50
102
RTVSPost2010PropOp37
 70
     1
102
RTVSPost2010Prop38
140
0.0
102
RTVSPost2010PropOp38
 70
     1
102
RTVSPost2010Prop39
140
1.0
102
RTVSPost2010PropOp39
 70
     1
102
RTVSPost2010Prop40
 90
        0
102
RTVSPost2010PropOp40
 70
     1
102
RTVSPost2010Prop41ColorIndex
 90
       18
102
RTVSPost2010Prop41ColorRGB
 90
        0
102
RTVSPost2010PropOp41
 70
     1
102
RTVSPost2010Prop42
 90
       50
102
RTVSPost2010PropOp42
 70
     1
102
RTVSPost2010Prop43
 90
        3
102
RTVSPost2010PropOp43
 70
     1
102
RTVSPost2010Prop44ColorIndex
 90
        5
102
RTVSPost2010Prop44ColorRGB
 90
      255
102
RTVSPost2010PropOp44
 70
     1
102
RTVSPost2010Prop45
280
     0
102
RTVSPost2010PropOp45
 70
     1
102
RTVSPost2010Prop46
 90
       50
102
RTVSPost2010PropOp46
 70
     1
102
RTVSPost2010Prop47
 90
       50
102
RTVSPost2010PropOp47
 70
     1
102
RTVSPost2010Prop48
 90
       50
102
RTVSPost2010PropOp48
 70
     1
102
RTVSPost2010Prop49
280
     0
102
RTVSPost2010PropOp49
 70
     1
102
RTVSPost2010Prop50
 90
       50
102
RTVSPost2010PropOp50
 70
     1
102
RTVSPost2010Prop51ColorIndex
 90
      256
102
RTVSPost2010Prop51ColorRGB
 90
-16777216
102
RTVSPost2010PropOp51
 70
     0
102
RTVSPost2010Prop52
140
1.0
102
RTVSPost2010PropOp52
 70
     0
102
RTVSPost2010Prop53
 90
        2
102
RTVSPost2010PropOp53
 70
     1
102
RTVSPost2010Prop54
  1
strokes_ogs.tif
102
RTVSPost2010PropOp54
 70
     1
102
RTVSPost2010Prop55
280
     0
102
RTVSPost2010PropOp55
 70
     1
102
RTVSPost2010Prop56
140
1.0
102
RTVSPost2010PropOp56
 70
     1
102
RTVSPost2010Prop57
140
1.0
102
RTVSPost2010PropOp57
 70
     1
  0
XRECORD
  5
AF
102
{ACAD_REACTORS
330
AE
102
}
330
AE
100
AcDbXrecord
280
     1
102
RTVSPropertyOp0
 70
     0
102
RTVSPropertyOp1
 70
     0
102
RTVSPropertyOp2
 70
     0
102
RTVSPropertyOp3
 70
     0
102
RTVSPropertyOp4
 70
     0
102
RTVSPropertyOp5
 70
     0
102
RTVSPropertyOp6
 70
     0
102
RTVSPropertyOp7
 70
     0
102
RTVSPropertyOp8
 70
     0
102
RTVSPropertyOp9
 70
     0
102
RTVSPropertyOp10
 70
     0
102
RTVSPropertyOp11
 70
     0
102
RTVSPropertyOp12
 70
     0
102
RTVSPropertyOp13
 70
     0
102
RTVSPropertyOp14
 70
     2
102
RTVSPropertyOp15
 70
     0
102
RTVSPropertyOp16
 70
     0
102
RTVSPropertyOp17
 70
     0
102
RTVSPropertyOp18
 70
     0
102
RTVSPropertyOp19
 70
     0
102
RTVSPropertyOp20
 70
     0
102
RTVSPropertyOp21
 70
     0
102
RTVSPropertyOp22
 70
     0
102
RTVSPropertyOp23
 70
     0
102
RTVSPropertyOp24
 70
     0
102
RTVSPropertyOp25
 70
     0
102
RTVSPropertyOp26
 70
     0
102
RTVSPropertyOp27
 70
     0
102
RTVSPropertyOp28
 70
     0
102
RTVSPropertyOp29
 70
     0
102
RTVSPropertyOp30
 70
     0
102
RTVSPropertyOp31
 70
     0
102
RTVSPropertyOp32
 70
     0
102
RTVSPropertyOp33
 70
     0
102
RTVSPropertyOp34
 70
     0
102
RTVSPropertyOp35
 70
     0
102
RTVSPropertyOp36
 70
     0
102
RTVSPropertyOp37
 70
     0
102
RTVSPropertyOp38
 70
     0
102
RTVSPropertyOp39
 70
     0
102
RTVSPropertyOp40
 70
     0
102
RTVSPropertyOp41
 70
     0
102
RTVSPropertyOp42
 70
     0
102
RTVSPropertyOp43
 70
     0
102
RTVSPropertyOp44
 70
     0
102
RTVSPropertyOp45
 70
     0
102
RTVSPropertyOp46
 70
     0
102
RTVSPropertyOp47
 70
     0
102
RTVSPropertyOp48
 70
     0
102
RTVSPropertyOp49
 70
     0
102
RTVSPropertyOp50
 70
     0
102
RTVSPropertyOp51
 70
     0
102
RTVSPropertyOp52
 70
     0
102
RTVSPropertyOp53
 70
     0
102
RTVSPropertyOp54
 70
     0
102
RTVSPropertyOp55
 70
     0
102
RTVSPropertyOp56
 70
     0
102
RTVSPropertyOp57
 70
     0
102
RTVSPost2010Prop28
280
     0
102
RTVSPost2010PropOp28
 70
     0
102
RTVSPost2010Prop29
280
     1
102
RTVSPost2010PropOp29
 70
     0
102
RTVSPost2010Prop30
280
     1
102
RTVSPost2010PropOp30
 70
     0
102
RTVSPost2010Prop31
280
     0
102
RTVSPost2010PropOp31
 70
     0
102
RTVSPost2010Prop32
280
     0
102
RTVSPost2010PropOp32
 70
     0
102
RTVSPost2010Prop33
280
     0
102
RTVSPost2010PropOp33
 70
     0
102
RTVSPost2010Prop34
280
     0
102
RTVSPost2010PropOp34
 70
     0
102
RTVSPost2010Prop35
280
     0
102
RTVSPost2010PropOp35
 70
     0
102
RTVSPost2010Prop36
280
     0
102
RTVSPost2010PropOp36
 70
     0
102
RTVSPost2010Prop37
 90
       50
102
RTVSPost2010PropOp37
 70
     0
102
RTVSPost2010Prop38
140
0.0
102
RTVSPost2010PropOp38
 70
     0
102
RTVSPost2010Prop39
140
1.0
102
RTVSPost2010PropOp39
 70
     0
102
RTVSPost2010Prop40
 90
        0
102
RTVSPost2010PropOp40
 70
     0
102
RTVSPost2010Prop41ColorIndex
 90
       18
102
RTVSPost2010Prop41ColorRGB
 90
        0
102
RTVSPost2010PropOp41
 70
     0
102
RTVSPost2010Prop42
 90
       50
102
RTVSPost2010PropOp42
 70
     0
102
RTVSPost2010Prop43
 90
        3
102
RTVSPost2010PropOp43
 70
     0
102
RTVSPost2010Prop44ColorIndex
 90
        5
102
RTVSPost2010Prop44ColorRGB
 90
      255
102
RTVSPost2010PropOp44
 70
     0
102
RTVSPost2010Prop45
280
     0
102
RTVSPost2010PropOp45
 70
     0
102
RTVSPost2010Prop46
 90
       50
102
RTVSPost2010PropOp46
 70
     0
102
RTVSPost2010Prop47
 90
       50
102
RTVSPost2010PropOp47
 70
     0
102
RTVSPost2010Prop48
 90
       50
102
RTVSPost2010PropOp48
 70
     0
102
RTVSPost2010Prop49
280
     0
102
RTVSPost2010PropOp49
 70
     0
102
RTVSPost2010Prop50
 90
       50
102
RTVSPost2010PropOp50
 70
     0
102
RTVSPost2010Prop51ColorIndex
 90
      256
102
RTVSPost2010Prop51ColorRGB
 90
-16777216
102
RTVSPost2010PropOp51
 70
     0
102
RTVSPost2010Prop52
140
1.0
102
RTVSPost2010PropOp52
 70
     0
102
RTVSPost2010Prop53
 90
        2
102
RTVSPost2010PropOp53
 70
     0
102
RTVSPost2010Prop54
  1
strokes_ogs.tif
102
RTVSPost2010PropOp54
 70
     0
102
RTVSPost2010Prop55
280
     0
102
RTVSPost2010PropOp55
 70
     0
102
RTVSPost2010Prop56
140
1.0
102
RTVSPost2010PropOp56
 70
     0
102
RTVSPost2010Prop57
140
1.0
102
RTVSPost2010PropOp57
 70
     0
  0
XRECORD
  5
A9
102
{ACAD_REACTORS
330
A8
102
}
330
A8
100
AcDbXrecord
280
     1
102
RTVSPropertyOp0
 70
     1
102
RTVSPropertyOp1
 70
     1
102
RTVSPropertyOp2
 70
     1
102
RTVSPropertyOp3
 70
     1
102
RTVSPropertyOp4
 70
     1
102
RTVSPropertyOp5
 70
     1
102
RTVSPropertyOp6
 70
     1
102
RTVSPropertyOp7
 70
     1
102
RTVSPropertyOp8
 70
     1
102
RTVSPropertyOp9
 70
     1
102
RTVSPropertyOp10
 70
     1
102
RTVSPropertyOp11
 70
     1
102
RTVSPropertyOp12
 70
     1
102
RTVSPropertyOp13
 70
     1
102
RTVSPropertyOp14
 70
     1
102
RTVSPropertyOp15
 70
     1
102
RTVSPropertyOp16
 70
     1
102
RTVSPropertyOp17
 70
     1
102
RTVSPropertyOp18
 70
     1
102
RTVSPropertyOp19
 70
     1
102
RTVSPropertyOp20
 70
     1
102
RTVSPropertyOp21
 70
     1
102
RTVSPropertyOp22
 70
     1
102
RTVSPropertyOp23
 70
     1
102
RTVSPropertyOp24
 70
     1
102
RTVSPropertyOp25
 70
     1
102
RTVSPropertyOp26
 70
     1
102
RTVSPropertyOp27
 70
     1
102
RTVSPropertyOp28
 70
     1
102
RTVSPropertyOp29
 70
     1
102
RTVSPropertyOp30
 70
     1
102
RTVSPropertyOp31
 70
     1
102
RTVSPropertyOp32
 70
     1
102
RTVSPropertyOp33
 70
     1
102
RTVSPropertyOp34
 70
     1
102
RTVSPropertyOp35
 70
     1
102
RTVSPropertyOp36
 70
     1
102
RTVSPropertyOp37
 70
     1
102
RTVSPropertyOp38
 70
     1
102
RTVSPropertyOp39
 70
     1
102
RTVSPropertyOp40
 70
     1
102
RTVSPropertyOp41
 70
     1
102
RTVSPropertyOp42
 70
     1
102
RTVSPropertyOp43
 70
     1
102
RTVSPropertyOp44
 70
     1
102
RTVSPropertyOp45
 70
     1
102
RTVSPropertyOp46
 70
     1
102
RTVSPropertyOp47
 70
     1
102
RTVSPropertyOp48
 70
     1
102
RTVSPropertyOp49
 70
     1
102
RTVSPropertyOp50
 70
     1
102
RTVSPropertyOp51
 70
     0
102
RTVSPropertyOp52
 70
     0
102
RTVSPropertyOp53
 70
     1
102
RTVSPropertyOp54
 70
     1
102
RTVSPropertyOp55
 70
     1
102
RTVSPropertyOp56
 70
     1
102
RTVSPropertyOp57
 70
     1
102
RTVSPost2010Prop28
280
     0
102
RTVSPost2010PropOp28
 70
     1
102
RTVSPost2010Prop29
280
     1
102
RTVSPost2010PropOp29
 70
     1
102
RTVSPost2010Prop30
280
     1
102
RTVSPost2010PropOp30
 70
     1
102
RTVSPost2010Prop31
280
     0
102
RTVSPost2010PropOp31
 70
     1
102
RTVSPost2010Prop32
280
     0
102
RTVSPost2010PropOp32
 70
     1
102
RTVSPost2010Prop33
280
     0
102
RTVSPost2010PropOp33
 70
     1
102
RTVSPost2010Prop34
280
     0
102
RTVSPost2010PropOp34
 70
     1
102
RTVSPost2010Prop35
280
     0
102
RTVSPost2010PropOp35
 70
     1
102
RTVSPost2010Prop36
280
     0
102
RTVSPost2010PropOp36
 70
     1
102
RTVSPost2010Prop37
 90
       50
102
RTVSPost2010PropOp37
 70
     1
102
RTVSPost2010Prop38
140
0.0
102
RTVSPost2010PropOp38
 70
     1
102
RTVSPost2010Prop39
140
1.0
102
RTVSPost2010PropOp39
 70
     1
102
RTVSPost2010Prop40
 90
        0
102
RTVSPost2010PropOp40
 70
     1
102
RTVSPost2010Prop41ColorIndex
 90
       18
102
RTVSPost2010Prop41ColorRGB
 90
        0
102
RTVSPost2010PropOp41
 70
     1
102
RTVSPost2010Prop42
 90
       50
102
RTVSPost2010PropOp42
 70
     1
102
RTVSPost2010Prop43
 90
        3
102
RTVSPost2010PropOp43
 70
     1
102
RTVSPost2010Prop44ColorIndex
 90
        5
102
RTVSPost2010Prop44ColorRGB
 90
      255
102
RTVSPost2010PropOp44
 70
     1
102
RTVSPost2010Prop45
280
     0
102
RTVSPost2010PropOp45
 70
     1
102
RTVSPost2010Prop46
 90
       50
102
RTVSPost2010PropOp46
 70
     1
102
RTVSPost2010Prop47
 90
       50
102
RTVSPost2010PropOp47
 70
     1
102
RTVSPost2010Prop48
 90
       50
102
RTVSPost2010PropOp48
 70
     1
102
RTVSPost2010Prop49
280
     0
102
RTVSPost2010PropOp49
 70
     1
102
RTVSPost2010Prop50
 90
       50
102
RTVSPost2010PropOp50
 70
     1
102
RTVSPost2010Prop51ColorIndex
 90
      256
102
RTVSPost2010Prop51ColorRGB
 90
-16777216
102
RTVSPost2010PropOp51
 70
     0
102
RTVSPost2010Prop52
140
1.0
102
RTVSPost2010PropOp52
 70
     0
102
RTVSPost2010Prop53
 90
        2
102
RTVSPost2010PropOp53
 70
     1
102
RTVSPost2010Prop54
  1
strokes_ogs.tif
102
RTVSPost2010PropOp54
 70
     1
102
RTVSPost2010Prop55
280
     0
102
RTVSPost2010PropOp55
 70
     1
102
RTVSPost2010Prop56
140
1.0
102
RTVSPost2010PropOp56
 70
     1
102
RTVSPost2010Prop57
140
1.0
102
RTVSPost2010PropOp57
 70
     1
  0
XRECORD
  5
B1
102
{ACAD_REACTORS
330
B0
102
}
330
B0
100
AcDbXrecord
280
     1
102
RTVSPropertyOp0
 70
     0
102
RTVSPropertyOp1
 70
     0
102
RTVSPropertyOp2
 70
     0
102
RTVSPropertyOp3
 70
     0
102
RTVSPropertyOp4
 70
     0
102
RTVSPropertyOp5
 70
     0
102
RTVSPropertyOp6
 70
     0
102
RTVSPropertyOp7
 70
     0
102
RTVSPropertyOp8
 70
     0
102
RTVSPropertyOp9
 70
     0
102
RTVSPropertyOp10
 70
     0
102
RTVSPropertyOp11
 70
     0
102
RTVSPropertyOp12
 70
     0
102
RTVSPropertyOp13
 70
     0
102
RTVSPropertyOp14
 70
     2
102
RTVSPropertyOp15
 70
     0
102
RTVSPropertyOp16
 70
     0
102
RTVSPropertyOp17
 70
     0
102
RTVSPropertyOp18
 70
     0
102
RTVSPropertyOp19
 70
     0
102
RTVSPropertyOp20
 70
     0
102
RTVSPropertyOp21
 70
     0
102
RTVSPropertyOp22
 70
     0
102
RTVSPropertyOp23
 70
     0
102
RTVSPropertyOp24
 70
     0
102
RTVSPropertyOp25
 70
     0
102
RTVSPropertyOp26
 70
     0
102
RTVSPropertyOp27
 70
     0
102
RTVSPropertyOp28
 70
     0
102
RTVSPropertyOp29
 70
     0
102
RTVSPropertyOp30
 70
     0
102
RTVSPropertyOp31
 70
     0
102
RTVSPropertyOp32
 70
     0
102
RTVSPropertyOp33
 70
     0
102
RTVSPropertyOp34
 70
     0
102
RTVSPropertyOp35
 70
     0
102
RTVSPropertyOp36
 70
     0
102
RTVSPropertyOp37
 70
     0
102
RTVSPropertyOp38
 70
     0
102
RTVSPropertyOp39
 70
     0
102
RTVSPropertyOp40
 70
     0
102
RTVSPropertyOp41
 70
     0
102
RTVSPropertyOp42
 70
     0
102
RTVSPropertyOp43
 70
     0
102
RTVSPropertyOp44
 70
     0
102
RTVSPropertyOp45
 70
     0
102
RTVSPropertyOp46
 70
     0
102
RTVSPropertyOp47
 70
     0
102
RTVSPropertyOp48
 70
     0
102
RTVSPropertyOp49
 70
     0
102
RTVSPropertyOp50
 70
     0
102
RTVSPropertyOp51
 70
     0
102
RTVSPropertyOp52
 70
     0
102
RTVSPropertyOp53
 70
     0
102
RTVSPropertyOp54
 70
     0
102
RTVSPropertyOp55
 70
     0
102
RTVSPropertyOp56
 70
     0
102
RTVSPropertyOp57
 70
     0
102
RTVSPost2010Prop28
280
     0
102
RTVSPost2010PropOp28
 70
     0
102
RTVSPost2010Prop29
280
     1
102
RTVSPost2010PropOp29
 70
     0
102
RTVSPost2010Prop30
280
     1
102
RTVSPost2010PropOp30
 70
     0
102
RTVSPost2010Prop31
280
     0
102
RTVSPost2010PropOp31
 70
     0
102
RTVSPost2010Prop32
280
     0
102
RTVSPost2010PropOp32
 70
     0
102
RTVSPost2010Prop33
280
     0
102
RTVSPost2010PropOp33
 70
     0
102
RTVSPost2010Prop34
280
     0
102
RTVSPost2010PropOp34
 70
     0
102
RTVSPost2010Prop35
280
     0
102
RTVSPost2010PropOp35
 70
     0
102
RTVSPost2010Prop36
280
     0
102
RTVSPost2010PropOp36
 70
     0
102
RTVSPost2010Prop37
 90
       50
102
RTVSPost2010PropOp37
 70
     0
102
RTVSPost2010Prop38
140
0.0
102
RTVSPost2010PropOp38
 70
     0
102
RTVSPost2010Prop39
140
1.0
102
RTVSPost2010PropOp39
 70
     0
102
RTVSPost2010Prop40
 90
        0
102
RTVSPost2010PropOp40
 70
     0
102
RTVSPost2010Prop41ColorIndex
 90
       18
102
RTVSPost2010Prop41ColorRGB
 90
        0
102
RTVSPost2010PropOp41
 70
     0
102
RTVSPost2010Prop42
 90
       50
102
RTVSPost2010PropOp42
 70
     0
102
RTVSPost2010Prop43
 90
        3
102
RTVSPost2010PropOp43
 70
     0
102
RTVSPost2010Prop44ColorIndex
 90
        5
102
RTVSPost2010Prop44ColorRGB
 90
      255
102
RTVSPost2010PropOp44
 70
     0
102
RTVSPost2010Prop45
280
     0
102
RTVSPost2010PropOp45
 70
     0
102
RTVSPost2010Prop46
 90
       50
102
RTVSPost2010PropOp46
 70
     0
102
RTVSPost2010Prop47
 90
       50
102
RTVSPost2010PropOp47
 70
     0
102
RTVSPost2010Prop48
 90
       50
102
RTVSPost2010PropOp48
 70
     0
102
RTVSPost2010Prop49
280
     0
102
RTVSPost2010PropOp49
 70
     0
102
RTVSPost2010Prop50
 90
       50
102
RTVSPost2010PropOp50
 70
     0
102
RTVSPost2010Prop51ColorIndex
 90
      256
102
RTVSPost2010Prop51ColorRGB
 90
-16777216
102
RTVSPost2010PropOp51
 70
     0
102
RTVSPost2010Prop52
140
1.0
102
RTVSPost2010PropOp52
 70
     0
102
RTVSPost2010Prop53
 90
        2
102
RTVSPost2010PropOp53
 70
     0
102
RTVSPost2010Prop54
  1
strokes_ogs.tif
102
RTVSPost2010PropOp54
 70
     0
102
RTVSPost2010Prop55
280
     0
102
RTVSPost2010PropOp55
 70
     0
102
RTVSPost2010Prop56
140
1.0
102
RTVSPost2010PropOp56
 70
     0
102
RTVSPost2010Prop57
140
1.0
102
RTVSPost2010PropOp57
 70
     0
  0
XRECORD
  5
9F
102
{ACAD_REACTORS
330
9E
102
}
330
9E
100
AcDbXrecord
280
     1
102
RTVSPropertyOp0
 70
     1
102
RTVSPropertyOp1
 70
     1
102
RTVSPropertyOp2
 70
     1
102
RTVSPropertyOp3
 70
     1
102
RTVSPropertyOp4
 70
     1
102
RTVSPropertyOp5
 70
     1
102
RTVSPropertyOp6
 70
     1
102
RTVSPropertyOp7
 70
     1
102
RTVSPropertyOp8
 70
     1
102
RTVSPropertyOp9
 70
     1
102
RTVSPropertyOp10
 70
     1
102
RTVSPropertyOp11
 70
     1
102
RTVSPropertyOp12
 70
     1
102
RTVSPropertyOp13
 70
     1
102
RTVSPropertyOp14
 70
     1
102
RTVSPropertyOp15
 70
     1
102
RTVSPropertyOp16
 70
     1
102
RTVSPropertyOp17
 70
     1
102
RTVSPropertyOp18
 70
     1
102
RTVSPropertyOp19
 70
     1
102
RTVSPropertyOp20
 70
     1
102
RTVSPropertyOp21
 70
     1
102
RTVSPropertyOp22
 70
     1
102
RTVSPropertyOp23
 70
     1
102
RTVSPropertyOp24
 70
     1
102
RTVSPropertyOp25
 70
     1
102
RTVSPropertyOp26
 70
     1
102
RTVSPropertyOp27
 70
     1
102
RTVSPropertyOp28
 70
     1
102
RTVSPropertyOp29
 70
     1
102
RTVSPropertyOp30
 70
     1
102
RTVSPropertyOp31
 70
     1
102
RTVSPropertyOp32
 70
     1
102
RTVSPropertyOp33
 70
     1
102
RTVSPropertyOp34
 70
     1
102
RTVSPropertyOp35
 70
     1
102
RTVSPropertyOp36
 70
     1
102
RTVSPropertyOp37
 70
     1
102
RTVSPropertyOp38
 70
     1
102
RTVSPropertyOp39
 70
     1
102
RTVSPropertyOp40
 70
     1
102
RTVSPropertyOp41
 70
     1
102
RTVSPropertyOp42
 70
     1
102
RTVSPropertyOp43
 70
     1
102
RTVSPropertyOp44
 70
     1
102
RTVSPropertyOp45
 70
     1
102
RTVSPropertyOp46
 70
     1
102
RTVSPropertyOp47
 70
     1
102
RTVSPropertyOp48
 70
     1
102
RTVSPropertyOp49
 70
     1
102
RTVSPropertyOp50
 70
     1
102
RTVSPropertyOp51
 70
     0
102
RTVSPropertyOp52
 70
     0
102
RTVSPropertyOp53
 70
     1
102
RTVSPropertyOp54
 70
     1
102
RTVSPropertyOp55
 70
     1
102
RTVSPropertyOp56
 70
     1
102
RTVSPropertyOp57
 70
     1
102
RTVSPost2010Prop28
280
     0
102
RTVSPost2010PropOp28
 70
     1
102
RTVSPost2010Prop29
280
     1
102
RTVSPost2010PropOp29
 70
     1
102
RTVSPost2010Prop30
280
     1
102
RTVSPost2010PropOp30
 70
     1
102
RTVSPost2010Prop31
280
     0
102
RTVSPost2010PropOp31
 70
     1
102
RTVSPost2010Prop32
280
     0
102
RTVSPost2010PropOp32
 70
     1
102
RTVSPost2010Prop33
280
     0
102
RTVSPost2010PropOp33
 70
     1
102
RTVSPost2010Prop34
280
     0
102
RTVSPost2010PropOp34
 70
     1
102
RTVSPost2010Prop35
280
     0
102
RTVSPost2010PropOp35
 70
     1
102
RTVSPost2010Prop36
280
     0
102
RTVSPost2010PropOp36
 70
     1
102
RTVSPost2010Prop37
 90
       50
102
RTVSPost2010PropOp37
 70
     1
102
RTVSPost2010Prop38
140
0.0
102
RTVSPost2010PropOp38
 70
     1
102
RTVSPost2010Prop39
140
1.0
102
RTVSPost2010PropOp39
 70
     1
102
RTVSPost2010Prop40
 90
        0
102
RTVSPost2010PropOp40
 70
     1
102
RTVSPost2010Prop41ColorIndex
 90
       18
102
RTVSPost2010Prop41ColorRGB
 90
        0
102
RTVSPost2010PropOp41
 70
     1
102
RTVSPost2010Prop42
 90
       50
102
RTVSPost2010PropOp42
 70
     1
102
RTVSPost2010Prop43
 90
        3
102
RTVSPost2010PropOp43
 70
     1
102
RTVSPost2010Prop44ColorIndex
 90
        5
102
RTVSPost2010Prop44ColorRGB
 90
      255
102
RTVSPost2010PropOp44
 70
     1
102
RTVSPost2010Prop45
280
     0
102
RTVSPost2010PropOp45
 70
     1
102
RTVSPost2010Prop46
 90
       50
102
RTVSPost2010PropOp46
 70
     1
102
RTVSPost2010Prop47
 90
       50
102
RTVSPost2010PropOp47
 70
     1
102
RTVSPost2010Prop48
 90
       50
102
RTVSPost2010PropOp48
 70
     1
102
RTVSPost2010Prop49
280
     0
102
RTVSPost2010PropOp49
 70
     1
102
RTVSPost2010Prop50
 90
       50
102
RTVSPost2010PropOp50
 70
     1
102
RTVSPost2010Prop51ColorIndex
 90
      256
102
RTVSPost2010Prop51ColorRGB
 90
-16777216
102
RTVSPost2010PropOp51
 70
     0
102
RTVSPost2010Prop52
140
1.0
102
RTVSPost2010PropOp52
 70
     0
102
RTVSPost2010Prop53
 90
        2
102
RTVSPost2010PropOp53
 70
     1
102
RTVSPost2010Prop54
  1
strokes_ogs.tif
102
RTVSPost2010PropOp54
 70
     1
102
RTVSPost2010Prop55
280
     0
102
RTVSPost2010PropOp55
 70
     1
102
RTVSPost2010Prop56
140
1.0
102
RTVSPost2010PropOp56
 70
     1
102
RTVSPost2010Prop57
140
1.0
102
RTVSPost2010PropOp57
 70
     1
  0
XRECORD
  5
BD
102
{ACAD_REACTORS
330
BC
102
}
330
BC
100
AcDbXrecord
280
     1
102
RTVSPropertyOp0
 70
     1
102
RTVSPropertyOp1
 70
     1
102
RTVSPropertyOp2
 70
     1
102
RTVSPropertyOp3
 70
     1
102
RTVSPropertyOp4
 70
     1
102
RTVSPropertyOp5
 70
     1
102
RTVSPropertyOp6
 70
     1
102
RTVSPropertyOp7
 70
     1
102
RTVSPropertyOp8
 70
     1
102
RTVSPropertyOp9
 70
     1
102
RTVSPropertyOp10
 70
     1
102
RTVSPropertyOp11
 70
     1
102
RTVSPropertyOp12
 70
     1
102
RTVSPropertyOp13
 70
     1
102
RTVSPropertyOp14
 70
     1
102
RTVSPropertyOp15
 70
     1
102
RTVSPropertyOp16
 70
     1
102
RTVSPropertyOp17
 70
     1
102
RTVSPropertyOp18
 70
     1
102
RTVSPropertyOp19
 70
     1
102
RTVSPropertyOp20
 70
     1
102
RTVSPropertyOp21
 70
     1
102
RTVSPropertyOp22
 70
     1
102
RTVSPropertyOp23
 70
     1
102
RTVSPropertyOp24
 70
     1
102
RTVSPropertyOp25
 70
     1
102
RTVSPropertyOp26
 70
     1
102
RTVSPropertyOp27
 70
     1
102
RTVSPropertyOp28
 70
     1
102
RTVSPropertyOp29
 70
     1
102
RTVSPropertyOp30
 70
     1
102
RTVSPropertyOp31
 70
     1
102
RTVSPropertyOp32
 70
     1
102
RTVSPropertyOp33
 70
     1
102
RTVSPropertyOp34
 70
     1
102
RTVSPropertyOp35
 70
     1
102
RTVSPropertyOp36
 70
     1
102
RTVSPropertyOp37
 70
     1
102
RTVSPropertyOp38
 70
     1
102
RTVSPropertyOp39
 70
     1
102
RTVSPropertyOp40
 70
     1
102
RTVSPropertyOp41
 70
     1
102
RTVSPropertyOp42
 70
     1
102
RTVSPropertyOp43
 70
     1
102
RTVSPropertyOp44
 70
     1
102
RTVSPropertyOp45
 70
     1
102
RTVSPropertyOp46
 70
     1
102
RTVSPropertyOp47
 70
     1
102
RTVSPropertyOp48
 70
     1
102
RTVSPropertyOp49
 70
     1
102
RTVSPropertyOp50
 70
     1
102
RTVSPropertyOp51
 70
     0
102
RTVSPropertyOp52
 70
     0
102
RTVSPropertyOp53
 70
     1
102
RTVSPropertyOp54
 70
     1
102
RTVSPropertyOp55
 70
     1
102
RTVSPropertyOp56
 70
     1
102
RTVSPropertyOp57
 70
     1
102
RTVSPost2010Prop28
280
     0
102
RTVSPost2010PropOp28
 70
     1
102
RTVSPost2010Prop29
280
     1
102
RTVSPost2010PropOp29
 70
     1
102
RTVSPost2010Prop30
280
     1
102
RTVSPost2010PropOp30
 70
     1
102
RTVSPost2010Prop31
280
     0
102
RTVSPost2010PropOp31
 70
     1
102
RTVSPost2010Prop32
280
     0
102
RTVSPost2010PropOp32
 70
     1
102
RTVSPost2010Prop33
280
     0
102
RTVSPost2010PropOp33
 70
     1
102
RTVSPost2010Prop34
280
     0
102
RTVSPost2010PropOp34
 70
     1
102
RTVSPost2010Prop35
280
     0
102
RTVSPost2010PropOp35
 70
     1
102
RTVSPost2010Prop36
280
     0
102
RTVSPost2010PropOp36
 70
     1
102
RTVSPost2010Prop37
 90
       50
102
RTVSPost2010PropOp37
 70
     1
102
RTVSPost2010Prop38
140
0.0
102
RTVSPost2010PropOp38
 70
     1
102
RTVSPost2010Prop39
140
1.0
102
RTVSPost2010PropOp39
 70
     1
102
RTVSPost2010Prop40
 90
        0
102
RTVSPost2010PropOp40
 70
     1
102
RTVSPost2010Prop41ColorIndex
 90
       18
102
RTVSPost2010Prop41ColorRGB
 90
        0
102
RTVSPost2010PropOp41
 70
     1
102
RTVSPost2010Prop42
 90
       50
102
RTVSPost2010PropOp42
 70
     1
102
RTVSPost2010Prop43
 90
        3
102
RTVSPost2010PropOp43
 70
     1
102
RTVSPost2010Prop44ColorIndex
 90
        5
102
RTVSPost2010Prop44ColorRGB
 90
      255
102
RTVSPost2010PropOp44
 70
     1
102
RTVSPost2010Prop45
280
     0
102
RTVSPost2010PropOp45
 70
     1
102
RTVSPost2010Prop46
 90
       50
102
RTVSPost2010PropOp46
 70
     1
102
RTVSPost2010Prop47
 90
       50
102
RTVSPost2010PropOp47
 70
     1
102
RTVSPost2010Prop48
 90
       50
102
RTVSPost2010PropOp48
 70
     1
102
RTVSPost2010Prop49
280
     0
102
RTVSPost2010PropOp49
 70
     1
102
RTVSPost2010Prop50
 90
       50
102
RTVSPost2010PropOp50
 70
     1
102
RTVSPost2010Prop51ColorIndex
 90
      256
102
RTVSPost2010Prop51ColorRGB
 90
-16777216
102
RTVSPost2010PropOp51
 70
     0
102
RTVSPost2010Prop52
140
1.0
102
RTVSPost2010PropOp52
 70
     0
102
RTVSPost2010Prop53
 90
        2
102
RTVSPost2010PropOp53
 70
     1
102
RTVSPost2010Prop54
  1
strokes_ogs.tif
102
RTVSPost2010PropOp54
 70
     1
102
RTVSPost2010Prop55
280
     0
102
RTVSPost2010PropOp55
 70
     1
102
RTVSPost2010Prop56
140
1.0
102
RTVSPost2010PropOp56
 70
     1
102
RTVSPost2010Prop57
140
1.0
102
RTVSPost2010PropOp57
 70
     1
  0
XRECORD
  5
BB
102
{ACAD_REACTORS
330
BA
102
}
330
BA
100
AcDbXrecord
280
     1
102
RTVSPropertyOp0
 70
     1
102
RTVSPropertyOp1
 70
     1
102
RTVSPropertyOp2
 70
     1
102
RTVSPropertyOp3
 70
     1
102
RTVSPropertyOp4
 70
     1
102
RTVSPropertyOp5
 70
     1
102
RTVSPropertyOp6
 70
     1
102
RTVSPropertyOp7
 70
     1
102
RTVSPropertyOp8
 70
     1
102
RTVSPropertyOp9
 70
     1
102
RTVSPropertyOp10
 70
     1
102
RTVSPropertyOp11
 70
     1
102
RTVSPropertyOp12
 70
     1
102
RTVSPropertyOp13
 70
     1
102
RTVSPropertyOp14
 70
     1
102
RTVSPropertyOp15
 70
     1
102
RTVSPropertyOp16
 70
     1
102
RTVSPropertyOp17
 70
     1
102
RTVSPropertyOp18
 70
     1
102
RTVSPropertyOp19
 70
     1
102
RTVSPropertyOp20
 70
     1
102
RTVSPropertyOp21
 70
     1
102
RTVSPropertyOp22
 70
     1
102
RTVSPropertyOp23
 70
     1
102
RTVSPropertyOp24
 70
     1
102
RTVSPropertyOp25
 70
     1
102
RTVSPropertyOp26
 70
     1
102
RTVSPropertyOp27
 70
     1
102
RTVSPropertyOp28
 70
     1
102
RTVSPropertyOp29
 70
     1
102
RTVSPropertyOp30
 70
     1
102
RTVSPropertyOp31
 70
     1
102
RTVSPropertyOp32
 70
     1
102
RTVSPropertyOp33
 70
     1
102
RTVSPropertyOp34
 70
     1
102
RTVSPropertyOp35
 70
     1
102
RTVSPropertyOp36
 70
     1
102
RTVSPropertyOp37
 70
     1
102
RTVSPropertyOp38
 70
     1
102
RTVSPropertyOp39
 70
     1
102
RTVSPropertyOp40
 70
     1
102
RTVSPropertyOp41
 70
     1
102
RTVSPropertyOp42
 70
     1
102
RTVSPropertyOp43
 70
     1
102
RTVSPropertyOp44
 70
     1
102
RTVSPropertyOp45
 70
     1
102
RTVSPropertyOp46
 70
     1
102
RTVSPropertyOp47
 70
     1
102
RTVSPropertyOp48
 70
     1
102
RTVSPropertyOp49
 70
     1
102
RTVSPropertyOp50
 70
     1
102
RTVSPropertyOp51
 70
     0
102
RTVSPropertyOp52
 70
     0
102
RTVSPropertyOp53
 70
     1
102
RTVSPropertyOp54
 70
     1
102
RTVSPropertyOp55
 70
     1
102
RTVSPropertyOp56
 70
     1
102
RTVSPropertyOp57
 70
     1
102
RTVSPost2010Prop28
280
     0
102
RTVSPost2010PropOp28
 70
     1
102
RTVSPost2010Prop29
280
     1
102
RTVSPost2010PropOp29
 70
     1
102
RTVSPost2010Prop30
280
     1
102
RTVSPost2010PropOp30
 70
     1
102
RTVSPost2010Prop31
280
     0
102
RTVSPost2010PropOp31
 70
     1
102
RTVSPost2010Prop32
280
     0
102
RTVSPost2010PropOp32
 70
     1
102
RTVSPost2010Prop33
280
     0
102
RTVSPost2010PropOp33
 70
     1
102
RTVSPost2010Prop34
280
     0
102
RTVSPost2010PropOp34
 70
     1
102
RTVSPost2010Prop35
280
     0
102
RTVSPost2010PropOp35
 70
     1
102
RTVSPost2010Prop36
280
     0
102
RTVSPost2010PropOp36
 70
     1
102
RTVSPost2010Prop37
 90
       50
102
RTVSPost2010PropOp37
 70
     1
102
RTVSPost2010Prop38
140
0.0
102
RTVSPost2010PropOp38
 70
     1
102
RTVSPost2010Prop39
140
1.0
102
RTVSPost2010PropOp39
 70
     1
102
RTVSPost2010Prop40
 90
        0
102
RTVSPost2010PropOp40
 70
     1
102
RTVSPost2010Prop41ColorIndex
 90
       18
102
RTVSPost2010Prop41ColorRGB
 90
        0
102
RTVSPost2010PropOp41
 70
     1
102
RTVSPost2010Prop42
 90
       50
102
RTVSPost2010PropOp42
 70
     1
102
RTVSPost2010Prop43
 90
        3
102
RTVSPost2010PropOp43
 70
     1
102
RTVSPost2010Prop44ColorIndex
 90
        5
102
RTVSPost2010Prop44ColorRGB
 90
      255
102
RTVSPost2010PropOp44
 70
     1
102
RTVSPost2010Prop45
280
     0
102
RTVSPost2010PropOp45
 70
     1
102
RTVSPost2010Prop46
 90
       50
102
RTVSPost2010PropOp46
 70
     1
102
RTVSPost2010Prop47
 90
       50
102
RTVSPost2010PropOp47
 70
     1
102
RTVSPost2010Prop48
 90
       50
102
RTVSPost2010PropOp48
 70
     1
102
RTVSPost2010Prop49
280
     0
102
RTVSPost2010PropOp49
 70
     1
102
RTVSPost2010Prop50
 90
       50
102
RTVSPost2010PropOp50
 70
     1
102
RTVSPost2010Prop51ColorIndex
 90
      256
102
RTVSPost2010Prop51ColorRGB
 90
-16777216
102
RTVSPost2010PropOp51
 70
     0
102
RTVSPost2010Prop52
140
1.0
102
RTVSPost2010PropOp52
 70
     0
102
RTVSPost2010Prop53
 90
        2
102
RTVSPost2010PropOp53
 70
     1
102
RTVSPost2010Prop54
  1
strokes_ogs.tif
102
RTVSPost2010PropOp54
 70
     1
102
RTVSPost2010Prop55
280
     0
102
RTVSPost2010PropOp55
 70
     1
102
RTVSPost2010Prop56
140
1.0
102
RTVSPost2010PropOp56
 70
     1
102
RTVSPost2010Prop57
140
1.0
102
RTVSPost2010PropOp57
 70
     1
  0
XRECORD
  5
B5
102
{ACAD_REACTORS
330
B4
102
}
330
B4
100
AcDbXrecord
280
     1
102
RTVSPropertyOp0
 70
     1
102
RTVSPropertyOp1
 70
     1
102
RTVSPropertyOp2
 70
     1
102
RTVSPropertyOp3
 70
     1
102
RTVSPropertyOp4
 70
     1
102
RTVSPropertyOp5
 70
     1
102
RTVSPropertyOp6
 70
     1
102
RTVSPropertyOp7
 70
     1
102
RTVSPropertyOp8
 70
     1
102
RTVSPropertyOp9
 70
     1
102
RTVSPropertyOp10
 70
     1
102
RTVSPropertyOp11
 70
     1
102
RTVSPropertyOp12
 70
     1
102
RTVSPropertyOp13
 70
     1
102
RTVSPropertyOp14
 70
     1
102
RTVSPropertyOp15
 70
     1
102
RTVSPropertyOp16
 70
     1
102
RTVSPropertyOp17
 70
     1
102
RTVSPropertyOp18
 70
     1
102
RTVSPropertyOp19
 70
     1
102
RTVSPropertyOp20
 70
     1
102
RTVSPropertyOp21
 70
     1
102
RTVSPropertyOp22
 70
     1
102
RTVSPropertyOp23
 70
     1
102
RTVSPropertyOp24
 70
     1
102
RTVSPropertyOp25
 70
     1
102
RTVSPropertyOp26
 70
     1
102
RTVSPropertyOp27
 70
     1
102
RTVSPropertyOp28
 70
     1
102
RTVSPropertyOp29
 70
     1
102
RTVSPropertyOp30
 70
     1
102
RTVSPropertyOp31
 70
     1
102
RTVSPropertyOp32
 70
     1
102
RTVSPropertyOp33
 70
     1
102
RTVSPropertyOp34
 70
     1
102
RTVSPropertyOp35
 70
     1
102
RTVSPropertyOp36
 70
     1
102
RTVSPropertyOp37
 70
     1
102
RTVSPropertyOp38
 70
     1
102
RTVSPropertyOp39
 70
     1
102
RTVSPropertyOp40
 70
     1
102
RTVSPropertyOp41
 70
     1
102
RTVSPropertyOp42
 70
     1
102
RTVSPropertyOp43
 70
     1
102
RTVSPropertyOp44
 70
     1
102
RTVSPropertyOp45
 70
     1
102
RTVSPropertyOp46
 70
     1
102
RTVSPropertyOp47
 70
     1
102
RTVSPropertyOp48
 70
     1
102
RTVSPropertyOp49
 70
     1
102
RTVSPropertyOp50
 70
     1
102
RTVSPropertyOp51
 70
     0
102
RTVSPropertyOp52
 70
     0
102
RTVSPropertyOp53
 70
     1
102
RTVSPropertyOp54
 70
     1
102
RTVSPropertyOp55
 70
     1
102
RTVSPropertyOp56
 70
     1
102
RTVSPropertyOp57
 70
     1
102
RTVSPost2010Prop28
280
     0
102
RTVSPost2010PropOp28
 70
     1
102
RTVSPost2010Prop29
280
     1
102
RTVSPost2010PropOp29
 70
     1
102
RTVSPost2010Prop30
280
     1
102
RTVSPost2010PropOp30
 70
     1
102
RTVSPost2010Prop31
280
     0
102
RTVSPost2010PropOp31
 70
     1
102
RTVSPost2010Prop32
280
     0
102
RTVSPost2010PropOp32
 70
     1
102
RTVSPost2010Prop33
280
     0
102
RTVSPost2010PropOp33
 70
     1
102
RTVSPost2010Prop34
280
     0
102
RTVSPost2010PropOp34
 70
     1
102
RTVSPost2010Prop35
280
     0
102
RTVSPost2010PropOp35
 70
     1
102
RTVSPost2010Prop36
280
     0
102
RTVSPost2010PropOp36
 70
     1
102
RTVSPost2010Prop37
 90
       50
102
RTVSPost2010PropOp37
 70
     1
102
RTVSPost2010Prop38
140
0.0
102
RTVSPost2010PropOp38
 70
     1
102
RTVSPost2010Prop39
140
1.0
102
RTVSPost2010PropOp39
 70
     1
102
RTVSPost2010Prop40
 90
        0
102
RTVSPost2010PropOp40
 70
     1
102
RTVSPost2010Prop41ColorIndex
 90
       18
102
RTVSPost2010Prop41ColorRGB
 90
        0
102
RTVSPost2010PropOp41
 70
     1
102
RTVSPost2010Prop42
 90
       50
102
RTVSPost2010PropOp42
 70
     1
102
RTVSPost2010Prop43
 90
        3
102
RTVSPost2010PropOp43
 70
     1
102
RTVSPost2010Prop44ColorIndex
 90
        5
102
RTVSPost2010Prop44ColorRGB
 90
      255
102
RTVSPost2010PropOp44
 70
     1
102
RTVSPost2010Prop45
280
     0
102
RTVSPost2010PropOp45
 70
     1
102
RTVSPost2010Prop46
 90
       50
102
RTVSPost2010PropOp46
 70
     1
102
RTVSPost2010Prop47
 90
       50
102
RTVSPost2010PropOp47
 70
     1
102
RTVSPost2010Prop48
 90
       50
102
RTVSPost2010PropOp48
 70
     1
102
RTVSPost2010Prop49
280
     0
102
RTVSPost2010PropOp49
 70
     1
102
RTVSPost2010Prop50
 90
       50
102
RTVSPost2010PropOp50
 70
     1
102
RTVSPost2010Prop51ColorIndex
 90
      256
102
RTVSPost2010Prop51ColorRGB
 90
-16777216
102
RTVSPost2010PropOp51
 70
     0
102
RTVSPost2010Prop52
140
1.0
102
RTVSPost2010PropOp52
 70
     0
102
RTVSPost2010Prop53
 90
        2
102
RTVSPost2010PropOp53
 70
     1
102
RTVSPost2010Prop54
  1
strokes_ogs.tif
102
RTVSPost2010PropOp54
 70
     1
102
RTVSPost2010Prop55
280
     0
102
RTVSPost2010PropOp55
 70
     1
102
RTVSPost2010Prop56
140
1.0
102
RTVSPost2010PropOp56
 70
     1
102
RTVSPost2010Prop57
140
1.0
102
RTVSPost2010PropOp57
 70
     1
  0
XRECORD
  5
B7
102
{ACAD_REACTORS
330
B6
102
}
330
B6
100
AcDbXrecord
280
     1
102
RTVSPropertyOp0
 70
     1
102
RTVSPropertyOp1
 70
     1
102
RTVSPropertyOp2
 70
     1
102
RTVSPropertyOp3
 70
     1
102
RTVSPropertyOp4
 70
     1
102
RTVSPropertyOp5
 70
     1
102
RTVSPropertyOp6
 70
     1
102
RTVSPropertyOp7
 70
     1
102
RTVSPropertyOp8
 70
     1
102
RTVSPropertyOp9
 70
     1
102
RTVSPropertyOp10
 70
     1
102
RTVSPropertyOp11
 70
     1
102
RTVSPropertyOp12
 70
     1
102
RTVSPropertyOp13
 70
     1
102
RTVSPropertyOp14
 70
     1
102
RTVSPropertyOp15
 70
     1
102
RTVSPropertyOp16
 70
     1
102
RTVSPropertyOp17
 70
     1
102
RTVSPropertyOp18
 70
     1
102
RTVSPropertyOp19
 70
     1
102
RTVSPropertyOp20
 70
     1
102
RTVSPropertyOp21
 70
     1
102
RTVSPropertyOp22
 70
     1
102
RTVSPropertyOp23
 70
     1
102
RTVSPropertyOp24
 70
     1
102
RTVSPropertyOp25
 70
     1
102
RTVSPropertyOp26
 70
     1
102
RTVSPropertyOp27
 70
     1
102
RTVSPropertyOp28
 70
     1
102
RTVSPropertyOp29
 70
     1
102
RTVSPropertyOp30
 70
     1
102
RTVSPropertyOp31
 70
     1
102
RTVSPropertyOp32
 70
     1
102
RTVSPropertyOp33
 70
     1
102
RTVSPropertyOp34
 70
     1
102
RTVSPropertyOp35
 70
     1
102
RTVSPropertyOp36
 70
     1
102
RTVSPropertyOp37
 70
     1
102
RTVSPropertyOp38
 70
     1
102
RTVSPropertyOp39
 70
     1
102
RTVSPropertyOp40
 70
     1
102
RTVSPropertyOp41
 70
     1
102
RTVSPropertyOp42
 70
     1
102
RTVSPropertyOp43
 70
     1
102
RTVSPropertyOp44
 70
     1
102
RTVSPropertyOp45
 70
     1
102
RTVSPropertyOp46
 70
     1
102
RTVSPropertyOp47
 70
     1
102
RTVSPropertyOp48
 70
     1
102
RTVSPropertyOp49
 70
     1
102
RTVSPropertyOp50
 70
     1
102
RTVSPropertyOp51
 70
     0
102
RTVSPropertyOp52
 70
     0
102
RTVSPropertyOp53
 70
     1
102
RTVSPropertyOp54
 70
     1
102
RTVSPropertyOp55
 70
     1
102
RTVSPropertyOp56
 70
     1
102
RTVSPropertyOp57
 70
     1
102
RTVSPost2010Prop28
280
     0
102
RTVSPost2010PropOp28
 70
     1
102
RTVSPost2010Prop29
280
     1
102
RTVSPost2010PropOp29
 70
     1
102
RTVSPost2010Prop30
280
     1
102
RTVSPost2010PropOp30
 70
     1
102
RTVSPost2010Prop31
280
     0
102
RTVSPost2010PropOp31
 70
     1
102
RTVSPost2010Prop32
280
     0
102
RTVSPost2010PropOp32
 70
     1
102
RTVSPost2010Prop33
280
     0
102
RTVSPost2010PropOp33
 70
     1
102
RTVSPost2010Prop34
280
     0
102
RTVSPost2010PropOp34
 70
     1
102
RTVSPost2010Prop35
280
     0
102
RTVSPost2010PropOp35
 70
     1
102
RTVSPost2010Prop36
280
     0
102
RTVSPost2010PropOp36
 70
     1
102
RTVSPost2010Prop37
 90
       50
102
RTVSPost2010PropOp37
 70
     1
102
RTVSPost2010Prop38
140
0.0
102
RTVSPost2010PropOp38
 70
     1
102
RTVSPost2010Prop39
140
1.0
102
RTVSPost2010PropOp39
 70
     1
102
RTVSPost2010Prop40
 90
        0
102
RTVSPost2010PropOp40
 70
     1
102
RTVSPost2010Prop41ColorIndex
 90
       18
102
RTVSPost2010Prop41ColorRGB
 90
        0
102
RTVSPost2010PropOp41
 70
     1
102
RTVSPost2010Prop42
 90
       50
102
RTVSPost2010PropOp42
 70
     1
102
RTVSPost2010Prop43
 90
        3
102
RTVSPost2010PropOp43
 70
     1
102
RTVSPost2010Prop44ColorIndex
 90
        5
102
RTVSPost2010Prop44ColorRGB
 90
      255
102
RTVSPost2010PropOp44
 70
     1
102
RTVSPost2010Prop45
280
     0
102
RTVSPost2010PropOp45
 70
     1
102
RTVSPost2010Prop46
 90
       50
102
RTVSPost2010PropOp46
 70
     1
102
RTVSPost2010Prop47
 90
       50
102
RTVSPost2010PropOp47
 70
     1
102
RTVSPost2010Prop48
 90
       50
102
RTVSPost2010PropOp48
 70
     1
102
RTVSPost2010Prop49
280
     0
102
RTVSPost2010PropOp49
 70
     1
102
RTVSPost2010Prop50
 90
       50
102
RTVSPost2010PropOp50
 70
     1
102
RTVSPost2010Prop51ColorIndex
 90
      256
102
RTVSPost2010Prop51ColorRGB
 90
-16777216
102
RTVSPost2010PropOp51
 70
     0
102
RTVSPost2010Prop52
140
1.0
102
RTVSPost2010PropOp52
 70
     0
102
RTVSPost2010Prop53
 90
        2
102
RTVSPost2010PropOp53
 70
     1
102
RTVSPost2010Prop54
  1
strokes_ogs.tif
102
RTVSPost2010PropOp54
 70
     1
102
RTVSPost2010Prop55
280
     0
102
RTVSPost2010PropOp55
 70
     1
102
RTVSPost2010Prop56
140
1.0
102
RTVSPost2010PropOp56
 70
     1
102
RTVSPost2010Prop57
140
1.0
102
RTVSPost2010PropOp57
 70
     1
  0
XRECORD
  5
A7
102
{ACAD_REACTORS
330
A6
102
}
330
A6
100
AcDbXrecord
280
     1
102
RTVSPropertyOp0
 70
     1
102
RTVSPropertyOp1
 70
     1
102
RTVSPropertyOp2
 70
     1
102
RTVSPropertyOp3
 70
     1
102
RTVSPropertyOp4
 70
     1
102
RTVSPropertyOp5
 70
     1
102
RTVSPropertyOp6
 70
     1
102
RTVSPropertyOp7
 70
     1
102
RTVSPropertyOp8
 70
     1
102
RTVSPropertyOp9
 70
     1
102
RTVSPropertyOp10
 70
     1
102
RTVSPropertyOp11
 70
     1
102
RTVSPropertyOp12
 70
     1
102
RTVSPropertyOp13
 70
     1
102
RTVSPropertyOp14
 70
     1
102
RTVSPropertyOp15
 70
     1
102
RTVSPropertyOp16
 70
     1
102
RTVSPropertyOp17
 70
     1
102
RTVSPropertyOp18
 70
     1
102
RTVSPropertyOp19
 70
     1
102
RTVSPropertyOp20
 70
     1
102
RTVSPropertyOp21
 70
     1
102
RTVSPropertyOp22
 70
     1
102
RTVSPropertyOp23
 70
     1
102
RTVSPropertyOp24
 70
     1
102
RTVSPropertyOp25
 70
     1
102
RTVSPropertyOp26
 70
     1
102
RTVSPropertyOp27
 70
     1
102
RTVSPropertyOp28
 70
     1
102
RTVSPropertyOp29
 70
     1
102
RTVSPropertyOp30
 70
     1
102
RTVSPropertyOp31
 70
     1
102
RTVSPropertyOp32
 70
     1
102
RTVSPropertyOp33
 70
     1
102
RTVSPropertyOp34
 70
     1
102
RTVSPropertyOp35
 70
     1
102
RTVSPropertyOp36
 70
     1
102
RTVSPropertyOp37
 70
     1
102
RTVSPropertyOp38
 70
     1
102
RTVSPropertyOp39
 70
     1
102
RTVSPropertyOp40
 70
     1
102
RTVSPropertyOp41
 70
     1
102
RTVSPropertyOp42
 70
     1
102
RTVSPropertyOp43
 70
     1
102
RTVSPropertyOp44
 70
     1
102
RTVSPropertyOp45
 70
     1
102
RTVSPropertyOp46
 70
     1
102
RTVSPropertyOp47
 70
     1
102
RTVSPropertyOp48
 70
     1
102
RTVSPropertyOp49
 70
     1
102
RTVSPropertyOp50
 70
     1
102
RTVSPropertyOp51
 70
     0
102
RTVSPropertyOp52
 70
     0
102
RTVSPropertyOp53
 70
     1
102
RTVSPropertyOp54
 70
     1
102
RTVSPropertyOp55
 70
     1
102
RTVSPropertyOp56
 70
     1
102
RTVSPropertyOp57
 70
     1
102
RTVSPost2010Prop28
280
     0
102
RTVSPost2010PropOp28
 70
     1
102
RTVSPost2010Prop29
280
     1
102
RTVSPost2010PropOp29
 70
     1
102
RTVSPost2010Prop30
280
     1
102
RTVSPost2010PropOp30
 70
     1
102
RTVSPost2010Prop31
280
     0
102
RTVSPost2010PropOp31
 70
     1
102
RTVSPost2010Prop32
280
     0
102
RTVSPost2010PropOp32
 70
     1
102
RTVSPost2010Prop33
280
     0
102
RTVSPost2010PropOp33
 70
     1
102
RTVSPost2010Prop34
280
     0
102
RTVSPost2010PropOp34
 70
     1
102
RTVSPost2010Prop35
280
     0
102
RTVSPost2010PropOp35
 70
     1
102
RTVSPost2010Prop36
280
     0
102
RTVSPost2010PropOp36
 70
     1
102
RTVSPost2010Prop37
 90
       50
102
RTVSPost2010PropOp37
 70
     1
102
RTVSPost2010Prop38
140
0.0
102
RTVSPost2010PropOp38
 70
     1
102
RTVSPost2010Prop39
140
1.0
102
RTVSPost2010PropOp39
 70
     1
102
RTVSPost2010Prop40
 90
        0
102
RTVSPost2010PropOp40
 70
     1
102
RTVSPost2010Prop41ColorIndex
 90
       18
102
RTVSPost2010Prop41ColorRGB
 90
        0
102
RTVSPost2010PropOp41
 70
     1
102
RTVSPost2010Prop42
 90
       50
102
RTVSPost2010PropOp42
 70
     1
102
RTVSPost2010Prop43
 90
        3
102
RTVSPost2010PropOp43
 70
     1
102
RTVSPost2010Prop44ColorIndex
 90
        5
102
RTVSPost2010Prop44ColorRGB
 90
      255
102
RTVSPost2010PropOp44
 70
     1
102
RTVSPost2010Prop45
280
     0
102
RTVSPost2010PropOp45
 70
     1
102
RTVSPost2010Prop46
 90
       50
102
RTVSPost2010PropOp46
 70
     1
102
RTVSPost2010Prop47
 90
       50
102
RTVSPost2010PropOp47
 70
     1
102
RTVSPost2010Prop48
 90
       50
102
RTVSPost2010PropOp48
 70
     1
102
RTVSPost2010Prop49
280
     0
102
RTVSPost2010PropOp49
 70
     1
102
RTVSPost2010Prop50
 90
       50
102
RTVSPost2010PropOp50
 70
     1
102
RTVSPost2010Prop51ColorIndex
 90
      256
102
RTVSPost2010Prop51ColorRGB
 90
-16777216
102
RTVSPost2010PropOp51
 70
     0
102
RTVSPost2010Prop52
140
1.0
102
RTVSPost2010PropOp52
 70
     0
102
RTVSPost2010Prop53
 90
        2
102
RTVSPost2010PropOp53
 70
     1
102
RTVSPost2010Prop54
  1
strokes_ogs.tif
102
RTVSPost2010PropOp54
 70
     1
102
RTVSPost2010Prop55
280
     0
102
RTVSPost2010PropOp55
 70
     1
102
RTVSPost2010Prop56
140
1.0
102
RTVSPost2010PropOp56
 70
     1
102
RTVSPost2010Prop57
140
1.0
102
RTVSPost2010PropOp57
 70
     1
  0
XRECORD
  5
99
102
{ACAD_REACTORS
330
98
102
}
330
98
100
AcDbXrecord
280
     1
102
RTVSPropertyOp0
 70
     1
102
RTVSPropertyOp1
 70
     1
102
RTVSPropertyOp2
 70
     1
102
RTVSPropertyOp3
 70
     1
102
RTVSPropertyOp4
 70
     1
102
RTVSPropertyOp5
 70
     1
102
RTVSPropertyOp6
 70
     1
102
RTVSPropertyOp7
 70
     1
102
RTVSPropertyOp8
 70
     1
102
RTVSPropertyOp9
 70
     1
102
RTVSPropertyOp10
 70
     1
102
RTVSPropertyOp11
 70
     1
102
RTVSPropertyOp12
 70
     1
102
RTVSPropertyOp13
 70
     1
102
RTVSPropertyOp14
 70
     1
102
RTVSPropertyOp15
 70
     1
102
RTVSPropertyOp16
 70
     1
102
RTVSPropertyOp17
 70
     1
102
RTVSPropertyOp18
 70
     1
102
RTVSPropertyOp19
 70
     1
102
RTVSPropertyOp20
 70
     1
102
RTVSPropertyOp21
 70
     1
102
RTVSPropertyOp22
 70
     1
102
RTVSPropertyOp23
 70
     1
102
RTVSPropertyOp24
 70
     1
102
RTVSPropertyOp25
 70
     1
102
RTVSPropertyOp26
 70
     1
102
RTVSPropertyOp27
 70
     1
102
RTVSPropertyOp28
 70
     1
102
RTVSPropertyOp29
 70
     1
102
RTVSPropertyOp30
 70
     1
102
RTVSPropertyOp31
 70
     1
102
RTVSPropertyOp32
 70
     1
102
RTVSPropertyOp33
 70
     1
102
RTVSPropertyOp34
 70
     1
102
RTVSPropertyOp35
 70
     1
102
RTVSPropertyOp36
 70
     1
102
RTVSPropertyOp37
 70
     1
102
RTVSPropertyOp38
 70
     1
102
RTVSPropertyOp39
 70
     1
102
RTVSPropertyOp40
 70
     1
102
RTVSPropertyOp41
 70
     1
102
RTVSPropertyOp42
 70
     1
102
RTVSPropertyOp43
 70
     1
102
RTVSPropertyOp44
 70
     1
102
RTVSPropertyOp45
 70
     1
102
RTVSPropertyOp46
 70
     1
102
RTVSPropertyOp47
 70
     1
102
RTVSPropertyOp48
 70
     1
102
RTVSPropertyOp49
 70
     1
102
RTVSPropertyOp50
 70
     1
102
RTVSPropertyOp51
 70
     0
102
RTVSPropertyOp52
 70
     0
102
RTVSPropertyOp53
 70
     1
102
RTVSPropertyOp54
 70
     1
102
RTVSPropertyOp55
 70
     1
102
RTVSPropertyOp56
 70
     1
102
RTVSPropertyOp57
 70
     1
102
RTVSPost2010Prop28
280
     0
102
RTVSPost2010PropOp28
 70
     1
102
RTVSPost2010Prop29
280
     1
102
RTVSPost2010PropOp29
 70
     1
102
RTVSPost2010Prop30
280
     1
102
RTVSPost2010PropOp30
 70
     1
102
RTVSPost2010Prop31
280
     0
102
RTVSPost2010PropOp31
 70
     1
102
RTVSPost2010Prop32
280
     0
102
RTVSPost2010PropOp32
 70
     1
102
RTVSPost2010Prop33
280
     0
102
RTVSPost2010PropOp33
 70
     1
102
RTVSPost2010Prop34
280
     0
102
RTVSPost2010PropOp34
 70
     1
102
RTVSPost2010Prop35
280
     0
102
RTVSPost2010PropOp35
 70
     1
102
RTVSPost2010Prop36
280
     0
102
RTVSPost2010PropOp36
 70
     1
102
RTVSPost2010Prop37
 90
       50
102
RTVSPost2010PropOp37
 70
     1
102
RTVSPost2010Prop38
140
0.0
102
RTVSPost2010PropOp38
 70
     1
102
RTVSPost2010Prop39
140
1.0
102
RTVSPost2010PropOp39
 70
     1
102
RTVSPost2010Prop40
 90
        0
102
RTVSPost2010PropOp40
 70
     1
102
RTVSPost2010Prop41ColorIndex
 90
       18
102
RTVSPost2010Prop41ColorRGB
 90
        0
102
RTVSPost2010PropOp41
 70
     1
102
RTVSPost2010Prop42
 90
       50
102
RTVSPost2010PropOp42
 70
     1
102
RTVSPost2010Prop43
 90
        3
102
RTVSPost2010PropOp43
 70
     1
102
RTVSPost2010Prop44ColorIndex
 90
        5
102
RTVSPost2010Prop44ColorRGB
 90
      255
102
RTVSPost2010PropOp44
 70
     1
102
RTVSPost2010Prop45
280
     0
102
RTVSPost2010PropOp45
 70
     1
102
RTVSPost2010Prop46
 90
       50
102
RTVSPost2010PropOp46
 70
     1
102
RTVSPost2010Prop47
 90
       50
102
RTVSPost2010PropOp47
 70
     1
102
RTVSPost2010Prop48
 90
       50
102
RTVSPost2010PropOp48
 70
     1
102
RTVSPost2010Prop49
280
     0
102
RTVSPost2010PropOp49
 70
     1
102
RTVSPost2010Prop50
 90
       50
102
RTVSPost2010PropOp50
 70
     1
102
RTVSPost2010Prop51ColorIndex
 90
      256
102
RTVSPost2010Prop51ColorRGB
 90
-16777216
102
RTVSPost2010PropOp51
 70
     0
102
RTVSPost2010Prop52
140
1.0
102
RTVSPost2010PropOp52
 70
     0
102
RTVSPost2010Prop53
 90
        2
102
RTVSPost2010PropOp53
 70
     1
102
RTVSPost2010Prop54
  1
strokes_ogs.tif
102
RTVSPost2010PropOp54
 70
     1
102
RTVSPost2010Prop55
280
     0
102
RTVSPost2010PropOp55
 70
     1
102
RTVSPost2010Prop56
140
1.0
102
RTVSPost2010PropOp56
 70
     1
102
RTVSPost2010Prop57
140
1.0
102
RTVSPost2010PropOp57
 70
     1
  0
XRECORD
  5
B9
102
{ACAD_REACTORS
330
B8
102
}
330
B8
100
AcDbXrecord
280
     1
102
RTVSPropertyOp0
 70
     1
102
RTVSPropertyOp1
 70
     1
102
RTVSPropertyOp2
 70
     1
102
RTVSPropertyOp3
 70
     1
102
RTVSPropertyOp4
 70
     1
102
RTVSPropertyOp5
 70
     1
102
RTVSPropertyOp6
 70
     1
102
RTVSPropertyOp7
 70
     1
102
RTVSPropertyOp8
 70
     1
102
RTVSPropertyOp9
 70
     1
102
RTVSPropertyOp10
 70
     1
102
RTVSPropertyOp11
 70
     1
102
RTVSPropertyOp12
 70
     1
102
RTVSPropertyOp13
 70
     1
102
RTVSPropertyOp14
 70
     1
102
RTVSPropertyOp15
 70
     1
102
RTVSPropertyOp16
 70
     1
102
RTVSPropertyOp17
 70
     1
102
RTVSPropertyOp18
 70
     1
102
RTVSPropertyOp19
 70
     1
102
RTVSPropertyOp20
 70
     1
102
RTVSPropertyOp21
 70
     1
102
RTVSPropertyOp22
 70
     1
102
RTVSPropertyOp23
 70
     1
102
RTVSPropertyOp24
 70
     1
102
RTVSPropertyOp25
 70
     1
102
RTVSPropertyOp26
 70
     1
102
RTVSPropertyOp27
 70
     1
102
RTVSPropertyOp28
 70
     1
102
RTVSPropertyOp29
 70
     1
102
RTVSPropertyOp30
 70
     1
102
RTVSPropertyOp31
 70
     1
102
RTVSPropertyOp32
 70
     1
102
RTVSPropertyOp33
 70
     1
102
RTVSPropertyOp34
 70
     1
102
RTVSPropertyOp35
 70
     1
102
RTVSPropertyOp36
 70
     1
102
RTVSPropertyOp37
 70
     1
102
RTVSPropertyOp38
 70
     1
102
RTVSPropertyOp39
 70
     1
102
RTVSPropertyOp40
 70
     1
102
RTVSPropertyOp41
 70
     1
102
RTVSPropertyOp42
 70
     1
102
RTVSPropertyOp43
 70
     1
102
RTVSPropertyOp44
 70
     1
102
RTVSPropertyOp45
 70
     1
102
RTVSPropertyOp46
 70
     1
102
RTVSPropertyOp47
 70
     1
102
RTVSPropertyOp48
 70
     1
102
RTVSPropertyOp49
 70
     1
102
RTVSPropertyOp50
 70
     1
102
RTVSPropertyOp51
 70
     0
102
RTVSPropertyOp52
 70
     0
102
RTVSPropertyOp53
 70
     1
102
RTVSPropertyOp54
 70
     1
102
RTVSPropertyOp55
 70
     1
102
RTVSPropertyOp56
 70
     1
102
RTVSPropertyOp57
 70
     1
102
RTVSPost2010Prop28
280
     0
102
RTVSPost2010PropOp28
 70
     1
102
RTVSPost2010Prop29
280
     1
102
RTVSPost2010PropOp29
 70
     1
102
RTVSPost2010Prop30
280
     1
102
RTVSPost2010PropOp30
 70
     1
102
RTVSPost2010Prop31
280
     0
102
RTVSPost2010PropOp31
 70
     1
102
RTVSPost2010Prop32
280
     0
102
RTVSPost2010PropOp32
 70
     1
102
RTVSPost2010Prop33
280
     0
102
RTVSPost2010PropOp33
 70
     1
102
RTVSPost2010Prop34
280
     0
102
RTVSPost2010PropOp34
 70
     1
102
RTVSPost2010Prop35
280
     0
102
RTVSPost2010PropOp35
 70
     1
102
RTVSPost2010Prop36
280
     0
102
RTVSPost2010PropOp36
 70
     1
102
RTVSPost2010Prop37
 90
       50
102
RTVSPost2010PropOp37
 70
     1
102
RTVSPost2010Prop38
140
0.0
102
RTVSPost2010PropOp38
 70
     1
102
RTVSPost2010Prop39
140
1.0
102
RTVSPost2010PropOp39
 70
     1
102
RTVSPost2010Prop40
 90
        0
102
RTVSPost2010PropOp40
 70
     1
102
RTVSPost2010Prop41ColorIndex
 90
       18
102
RTVSPost2010Prop41ColorRGB
 90
        0
102
RTVSPost2010PropOp41
 70
     1
102
RTVSPost2010Prop42
 90
       50
102
RTVSPost2010PropOp42
 70
     1
102
RTVSPost2010Prop43
 90
        3
102
RTVSPost2010PropOp43
 70
     1
102
RTVSPost2010Prop44ColorIndex
 90
        5
102
RTVSPost2010Prop44ColorRGB
 90
      255
102
RTVSPost2010PropOp44
 70
     1
102
RTVSPost2010Prop45
280
     0
102
RTVSPost2010PropOp45
 70
     1
102
RTVSPost2010Prop46
 90
       50
102
RTVSPost2010PropOp46
 70
     1
102
RTVSPost2010Prop47
 90
       50
102
RTVSPost2010PropOp47
 70
     1
102
RTVSPost2010Prop48
 90
       50
102
RTVSPost2010PropOp48
 70
     1
102
RTVSPost2010Prop49
280
     0
102
RTVSPost2010PropOp49
 70
     1
102
RTVSPost2010Prop50
 90
       50
102
RTVSPost2010PropOp50
 70
     1
102
RTVSPost2010Prop51ColorIndex
 90
      256
102
RTVSPost2010Prop51ColorRGB
 90
-16777216
102
RTVSPost2010PropOp51
 70
     0
102
RTVSPost2010Prop52
140
1.0
102
RTVSPost2010PropOp52
 70
     0
102
RTVSPost2010Prop53
 90
        2
102
RTVSPost2010PropOp53
 70
     1
102
RTVSPost2010Prop54
  1
strokes_ogs.tif
102
RTVSPost2010PropOp54
 70
     1
102
RTVSPost2010Prop55
280
     0
102
RTVSPost2010PropOp55
 70
     1
102
RTVSPost2010Prop56
140
1.0
102
RTVSPost2010PropOp56
 70
     1
102
RTVSPost2010Prop57
140
1.0
102
RTVSPost2010PropOp57
 70
     1
  0
ENDSEC
  0
EOF
