  0
SECTION
  2
HEADER
  9
$ACADVER
  1
AC1021
  9
$ACADMAINTVER
 70
    25
  9
$DWGCODEPAGE
  3
ANSI_1252
  9
$INSBASE
 10
0.0
 20
0.0
 30
0.0
  9
$EXTMIN
 10
-7.24638
 20
2.99085
 30
0.0
  9
$EXTMAX
 10
11.52775
 20
30.03128
 30
0.0
  9
$LIMMIN
 10
0.0
 20
0.0
  9
$LIMMAX
 10
12.0
 20
9.0
  9
$ORTHOMODE
 70
     0
  9
$REGENMODE
 70
     1
  9
$FILLMODE
 70
     1
  9
$QTEXTMODE
 70
     0
  9
$MIRRTEXT
 70
     1
  9
$LTSCALE
 40
1.0
  9
$ATTMODE
 70
     1
  9
$TEXTSIZE
 40
0.2
  9
$TRACEWID
 40
0.05
  9
$TEXTSTYLE
  7
Standard
  9
$CLAYER
  8
0
  9
$CELTYPE
  6
ByLayer
  9
$CECOLOR
 62
   256
  9
$CELTSCALE
 40
1.0
  9
$DISPSILH
 70
     0
  9
$DIMSCALE
 40
1.0
  9
$DIMASZ
 40
0.18
  9
$DIMEXO
 40
0.0625
  9
$DIMDLI
 40
0.38
  9
$DIMRND
 40
0.0
  9
$DIMDLE
 40
0.0
  9
$DIMEXE
 40
0.18
  9
$DIMTP
 40
0.0
  9
$DIMTM
 40
0.0
  9
$DIMTXT
 40
0.18
  9
$DIMCEN
 40
0.09
  9
$DIMTSZ
 40
0.0
  9
$DIMTOL
 70
     0
  9
$DIMLIM
 70
     0
  9
$DIMTIH
 70
     1
  9
$DIMTOH
 70
     1
  9
$DIMSE1
 70
     0
  9
$DIMSE2
 70
     0
  9
$DIMTAD
 70
     0
  9
$DIMZIN
 70
     0
  9
$DIMBLK
  1

  9
$DIMASO
 70
     1
  9
$DIMSHO
 70
     1
  9
$DIMPOST
  1

  9
$DIMAPOST
  1

  9
$DIMALT
 70
     0
  9
$DIMALTD
 70
     2
  9
$DIMALTF
 40
25.4
  9
$DIMLFAC
 40
1.0
  9
$DIMTOFL
 70
     0
  9
$DIMTVP
 40
0.0
  9
$DIMTIX
 70
     0
  9
$DIMSOXD
 70
     0
  9
$DIMSAH
 70
     0
  9
$DIMBLK1
  1

  9
$DIMBLK2
  1

  9
$DIMSTYLE
  2
Standard
  9
$DIMCLRD
 70
     0
  9
$DIMCLRE
 70
     0
  9
$DIMCLRT
 70
     0
  9
$DIMTFAC
 40
1.0
  9
$DIMGAP
 40
0.09
  9
$DIMJUST
 70
     0
  9
$DIMSD1
 70
     0
  9
$DIMSD2
 70
     0
  9
$DIMTOLJ
 70
     1
  9
$DIMTZIN
 70
     0
  9
$DIMALTZ
 70
     0
  9
$DIMALTTZ
 70
     0
  9
$DIMUPT
 70
     0
  9
$DIMDEC
 70
     4
  9
$DIMTDEC
 70
     4
  9
$DIMALTU
 70
     2
  9
$DIMALTTD
 70
     2
  9
$DIMTXSTY
  7
Standard
  9
$DIMAUNIT
 70
     0
  9
$DIMADEC
 70
     0
  9
$DIMALTRND
 40
0.0
  9
$DIMAZIN
 70
     0
  9
$DIMDSEP
 70
    46
  9
$DIMATFIT
 70
     3
  9
$DIMFRAC
 70
     0
  9
$DIMLDRBLK
  1

  9
$DIMLUNIT
 70
     2
  9
$DIMLWD
 70
    -2
  9
$DIMLWE
 70
    -2
  9
$DIMTMOVE
 70
     0
  9
$DIMFXL
 40
1.0
  9
$DIMFXLON
 70
     0
  9
$DIMJOGANG
 40
0.7853981633974483
  9
$DIMTFILL
 70
     0
  9
$DIMTFILLCLR
 70
     0
  9
$DIMARCSYM
 70
     0
  9
$DIMLTYPE
  6

  9
$DIMLTEX1
  6

  9
$DIMLTEX2
  6

  9
$LUNITS
 70
     2
  9
$LUPREC
 70
     4
  9
$SKETCHINC
 40
0.1
  9
$FILLETRAD
 40
0.5
  9
$AUNITS
 70
     0
  9
$AUPREC
 70
     0
  9
$MENU
  1
.
  9
$ELEVATION
 40
0.0
  9
$PELEVATION
 40
0.0
  9
$THICKNESS
 40
0.0
  9
$LIMCHECK
 70
     0
  9
$CHAMFERA
 40
0.0
  9
$CHAMFERB
 40
0.0
  9
$CHAMFERC
 40
0.0
  9
$CHAMFERD
 40
0.0
  9
$SKPOLY
 70
     0
  9
$TDCREATE
 40
2458334.604979584
  9
$TDUCREATE
 40
2458334.188312917
  9
$TDUPDATE
 40
2458334.604979768
  9
$TDUUPDATE
 40
2458334.188313102
  9
$TDINDWG
 40
0.0000000116
  9
$TDUSRTIMER
 40
0.0000000116
  9
$USRTIMER
 70
     1
  9
$ANGBASE
 50
0.0
  9
$ANGDIR
 70
     0
  9
$PDMODE
 70
     0
  9
$PDSIZE
 40
0.0
  9
$PLINEWID
 40
0.0
  9
$SPLFRAME
 70
     0
  9
$SPLINETYPE
 70
     6
  9
$SPLINESEGS
 70
     8
  9
$HANDSEED
  5
128
  9
$SURFTAB1
 70
     6
  9
$SURFTAB2
 70
     6
  9
$SURFTYPE
 70
     6
  9
$SURFU
 70
     6
  9
$SURFV
 70
     6
  9
$UCSBASE
  2

  9
$UCSNAME
  2

  9
$UCSORG
 10
0.0
 20
0.0
 30
0.0
  9
$UCSXDIR
 10
1.0
 20
0.0
 30
0.0
  9
$UCSYDIR
 10
0.0
 20
1.0
 30
0.0
  9
$UCSORTHOREF
  2

  9
$UCSORTHOVIEW
 70
     0
  9
$UCSORGTOP
 10
0.0
 20
0.0
 30
0.0
  9
$UCSORGBOTTOM
 10
0.0
 20
0.0
 30
0.0
  9
$UCSORGLEFT
 10
0.0
 20
0.0
 30
0.0
  9
$UCSORGRIGHT
 10
0.0
 20
0.0
 30
0.0
  9
$UCSORGFRONT
 10
0.0
 20
0.0
 30
0.0
  9
$UCSORGBACK
 10
0.0
 20
0.0
 30
0.0
  9
$PUCSBASE
  2

  9
$PUCSNAME
  2

  9
$PUCSORG
 10
0.0
 20
0.0
 30
0.0
  9
$PUCSXDIR
 10
1.0
 20
0.0
 30
0.0
  9
$PUCSYDIR
 10
0.0
 20
1.0
 30
0.0
  9
$PUCSORTHOREF
  2

  9
$PUCSORTHOVIEW
 70
     0
  9
$PUCSORGTOP
 10
0.0
 20
0.0
 30
0.0
  9
$PUCSORGBOTTOM
 10
0.0
 20
0.0
 30
0.0
  9
$PUCSORGLEFT
 10
0.0
 20
0.0
 30
0.0
  9
$PUCSORGRIGHT
 10
0.0
 20
0.0
 30
0.0
  9
$PUCSORGFRONT
 10
0.0
 20
0.0
 30
0.0
  9
$PUCSORGBACK
 10
0.0
 20
0.0
 30
0.0
  9
$USERI1
 70
     0
  9
$USERI2
 70
     0
  9
$USERI3
 70
     0
  9
$USERI4
 70
     0
  9
$USERI5
 70
     0
  9
$USERR1
 40
0.0
  9
$USERR2
 40
0.0
  9
$USERR3
 40
0.0
  9
$USERR4
 40
0.0
  9
$USERR5
 40
0.0
  9
$WORLDVIEW
 70
     1
  9
$SHADEDGE
 70
     3
  9
$SHADEDIF
 70
    70
  9
$TILEMODE
 70
     1
  9
$MAXACTVP
 70
    64
  9
$PINSBASE
 10
0.0
 20
0.0
 30
0.0
  9
$PLIMCHECK
 70
     0
  9
$PEXTMIN
 10
1.000000000000000E+20
 20
1.000000000000000E+20
 30
1.000000000000000E+20
  9
$PEXTMAX
 10
-1.000000000000000E+20
 20
-1.000000000000000E+20
 30
-1.000000000000000E+20
  9
$PLIMMIN
 10
0.0
 20
0.0
  9
$PLIMMAX
 10
12.0
 20
9.0
  9
$UNITMODE
 70
     0
  9
$VISRETAIN
 70
     1
  9
$PLINEGEN
 70
     0
  9
$PSLTSCALE
 70
     1
  9
$TREEDEPTH
 70
  3020
  9
$CMLSTYLE
  2
Standard
  9
$CMLJUST
 70
     0
  9
$CMLSCALE
 40
1.0
  9
$PROXYGRAPHICS
 70
     1
  9
$MEASUREMENT
 70
     0
  9
$CELWEIGHT
370
    -1
  9
$ENDCAPS
280
     0
  9
$JOINSTYLE
280
     0
  9
$LWDISPLAY
290
     0
  9
$INSUNITS
 70
     5
  9
$HYPERLINKBASE
  1

  9
$STYLESHEET
  1

  9
$XEDIT
290
     1
  9
$CEPSNTYPE
380
     0
  9
$PSTYLEMODE
290
     1
  9
$FINGERPRINTGUID
  2
{289D7BC4-1B52-4017-8E12-27040B006E97}
  9
$VERSIONGUID
  2
{FAEB1C32-E019-11D5-929B-00C0DF256EC4}
  9
$EXTNAMES
290
     1
  9
$PSVPSCALE
 40
0.0
  9
$OLESTARTUP
290
     0
  9
$SORTENTS
280
   127
  9
$INDEXCTL
280
     0
  9
$HIDETEXT
280
     1
  9
$XCLIPFRAME
290
     0
  9
$HALOGAP
280
     0
  9
$OBSCOLOR
 70
   257
  9
$OBSLTYPE
280
     0
  9
$INTERSECTIONDISPLAY
280
     0
  9
$INTERSECTIONCOLOR
 70
   257
  9
$DIMASSOC
280
     2
  9
$PROJECTNAME
  1

  9
$CAMERADISPLAY
290
     0
  9
$LENSLENGTH
 40
50.0
  9
$CAMERAHEIGHT
 40
0.0
  9
$STEPSPERSEC
 40
2.0
  9
$STEPSIZE
 40
6.0
  9
$3DDWFPREC
 40
2.0
  9
$PSOLWIDTH
 40
0.25
  9
$PSOLHEIGHT
 40
4.0
  9
$LOFTANG1
 40
1.570796326794897
  9
$LOFTANG2
 40
1.570796326794897
  9
$LOFTMAG1
 40
0.0
  9
$LOFTMAG2
 40
0.0
  9
$LOFTPARAM
 70
     7
  9
$LOFTNORMALS
280
     1
  9
$LATITUDE
 40
37.795
  9
$LONGITUDE
 40
-122.394
  9
$NORTHDIRECTION
 40
0.0
  9
$TIMEZONE
 70
 -8000
  9
$LIGHTGLYPHDISPLAY
280
     1
  9
$TILEMODELIGHTSYNCH
280
     1
  9
$CMATERIAL
347
44
  9
$SOLIDHIST
280
     0
  9
$SHOWHIST
280
     1
  9
$DWFFRAME
280
     2
  9
$DGNFRAME
280
     2
  9
$REALWORLDSCALE
290
     1
  9
$INTERFERECOLOR
 62
   256
  9
$CSHADOW
280
     0
  9
$SHADOWPLANELOCATION
 40
0.0
  0
ENDSEC
  0
SECTION
  2
CLASSES
  0
CLASS
  1
ACDBDICTIONARYWDFLT
  2
AcDbDictionaryWithDefault
  3
ObjectDBX Classes
 90
        0
 91
        4
280
     0
281
     0
  0
CLASS
  1
VISUALSTYLE
  2
AcDbVisualStyle
  3
ObjectDBX Classes
 90
     4095
 91
        4
280
     0
281
     0
  0
CLASS
  1
MATERIAL
  2
AcDbMaterial
  3
ObjectDBX Classes
 90
     1153
 91
        4
280
     0
281
     0
  0
CLASS
  1
SCALE
  2
AcDbScale
  3
ObjectDBX Classes
 90
     1153
 91
        4
280
     0
281
     0
  0
CLASS
  1
TABLESTYLE
  2
AcDbTableStyle
  3
ObjectDBX Classes
 90
     4095
 91
        4
280
     0
281
     0
  0
CLASS
  1
MLEADERSTYLE
  2
AcDbMLeaderStyle
  3
ACDB_MLEADERSTYLE_CLASS
 90
     4095
 91
        4
280
     0
281
     0
  0
CLASS
  1
SUN
  2
AcDbSun
  3
SCENEOE
 90
     1153
 91
        4
280
     0
281
     0
  0
CLASS
  1
DICTIONARYVAR
  2
AcDbDictionaryVar
  3
ObjectDBX Classes
 90
        0
 91
        4
280
     0
281
     0
  0
CLASS
  1
CELLSTYLEMAP
  2
AcDbCellStyleMap
  3
ObjectDBX Classes
 90
     1152
 91
        4
280
     0
281
     0
  0
ENDSEC
  0
SECTION
  2
TABLES
  0
TABLE
  2
VPORT
  5
8
330
0
100
AcDbSymbolTable
 70
     1
  0
VPORT
  5
29
330
8
100
AcDbSymbolTableRecord
100
AcDbViewportTableRecord
  2
*Active
 70
     0
 10
0.0
 20
0.0
 11
1.0
 21
1.0
 12
10.42990654205607
 22
4.5
 13
0.0
 23
0.0
 14
0.5
 24
0.5
 15
0.5
 25
0.5
 16
0.0
 26
0.0
 36
1.0
 17
0.0
 27
0.0
 37
0.0
 40
9.0
 41
1.972972972850329
 42
50.0
 43
0.0
 44
0.0
 50
0.0
 51
0.0
 71
     0
 72
   100
 73
     1
 74
     3
 75
     0
 76
     0
 77
     0
 78
     0
281
     0
 65
     1
110
0.0
120
0.0
130
0.0
111
1.0
121
0.0
131
0.0
112
0.0
122
1.0
132
0.0
 79
     0
146
0.0
348
2F
 60
     3
 61
     5
292
     1
282
     1
141
0.0
142
0.0
 63
   250
361
6D
  0
ENDTAB
  0
TABLE
  2
LTYPE
  5
5
330
0
100
AcDbSymbolTable
 70
     1
  0
LTYPE
  5
14
330
5
100
AcDbSymbolTableRecord
100
AcDbLinetypeTableRecord
  2
ByBlock
 70
     0
  3

 72
    65
 73
     0
 40
0.0
  0
LTYPE
  5
15
330
5
100
AcDbSymbolTableRecord
100
AcDbLinetypeTableRecord
  2
ByLayer
 70
     0
  3

 72
    65
 73
     0
 40
0.0
  0
LTYPE
  5
16
330
5
100
AcDbSymbolTableRecord
100
AcDbLinetypeTableRecord
  2
Continuous
 70
     0
  3
Solid line
 72
    65
 73
     0
 40
0.0
  0
ENDTAB
  0
TABLE
  2
LAYER
  5
2
330
0
100
AcDbSymbolTable
 70
     2
  0
LAYER
  5
10
330
2
100
AcDbSymbolTableRecord
100
AcDbLayerTableRecord
  2
0
 70
     0
 62
     7
  6
Continuous
370
    -3
390
F
347
46
  0
LAYER
  5
6F
330
2
100
AcDbSymbolTableRecord
100
AcDbLayerTableRecord
  2
Layer 1
 70
     0
 62
     7
  6
Continuous
370
    -3
390
F
347
46
  0
ENDTAB
  0
TABLE
  2
STYLE
  5
3
330
0
100
AcDbSymbolTable
 70
     1
  0
STYLE
  5
11
330
3
100
AcDbSymbolTableRecord
100
AcDbTextStyleTableRecord
  2
Standard
 70
     0
 40
0.0
 41
1.0
 50
0.0
 71
     0
 42
0.2
  3
txt
  4

  0
ENDTAB
  0
TABLE
  2
VIEW
  5
6
330
0
100
AcDbSymbolTable
 70
     0
  0
ENDTAB
  0
TABLE
  2
UCS
  5
7
330
0
100
AcDbSymbolTable
 70
     0
  0
ENDTAB
  0
TABLE
  2
APPID
  5
9
330
0
100
AcDbSymbolTable
 70
     3
  0
APPID
  5
12
330
9
100
AcDbSymbolTableRecord
100
AcDbRegAppTableRecord
  2
ACAD
 70
     0
  0
APPID
  5
6E
330
9
100
AcDbSymbolTableRecord
100
AcDbRegAppTableRecord
  2
ODA
 70
     0
  0
APPID
  5
120
330
9
100
AcDbSymbolTableRecord
100
AcDbRegAppTableRecord
  2
ACAD_MLEADERVER
 70
     0
  0
ENDTAB
  0
TABLE
  2
DIMSTYLE
  5
A
330
0
100
AcDbSymbolTable
 70
     1
100
AcDbDimStyleTable
  0
DIMSTYLE
105
27
330
A
100
AcDbSymbolTableRecord
100
AcDbDimStyleTableRecord
  2
Standard
 70
     0
178
     0
340
11
  0
ENDTAB
  0
TABLE
  2
BLOCK_RECORD
  5
1
330
0
100
AcDbSymbolTable
 70
     1
  0
BLOCK_RECORD
  5
1F
330
1
100
AcDbSymbolTableRecord
100
AcDbBlockTableRecord
  2
*Model_Space
340
22
 70
     0
280
     1
281
     0
  0
BLOCK_RECORD
  5
1B
330
1
100
AcDbSymbolTableRecord
100
AcDbBlockTableRecord
  2
*Paper_Space
340
1E
 70
     0
280
     1
281
     0
  0
BLOCK_RECORD
  5
23
330
1
100
AcDbSymbolTableRecord
100
AcDbBlockTableRecord
  2
*Paper_Space0
340
26
 70
     0
280
     1
281
     0
  0
ENDTAB
  0
ENDSEC
  0
SECTION
  2
BLOCKS
  0
BLOCK
  5
20
330
1F
100
AcDbEntity
  8
0
100
AcDbBlockBegin
  2
*Model_Space
 70
     0
 10
0.0
 20
0.0
 30
0.0
  3
*Model_Space
  1

  0
ENDBLK
  5
21
330
1F
100
AcDbEntity
  8
0
100
AcDbBlockEnd
  0
BLOCK
  5
1C
330
1B
100
AcDbEntity
 67
     1
  8
0
100
AcDbBlockBegin
  2
*Paper_Space
 70
     0
 10
0.0
 20
0.0
 30
0.0
  3
*Paper_Space
  1

  0
ENDBLK
  5
1D
330
1B
100
AcDbEntity
 67
     1
  8
0
100
AcDbBlockEnd
  0
BLOCK
  5
24
330
23
100
AcDbEntity
  8
0
100
AcDbBlockBegin
  2
*Paper_Space0
 70
     0
 10
0.0
 20
0.0
 30
0.0
  3
*Paper_Space0
  1

  0
ENDBLK
  5
25
330
23
100
AcDbEntity
  8
0
100
AcDbBlockEnd
  0
ENDSEC
  0
SECTION
  2
ENTITIES
  0
SPLINE
  5
70
330
1F
100
AcDbEntity
  8
Layer 1
 62
   240
370
     9
100
AcDbSpline
210
0.0
220
0.0
230
1.0
 70
    24
 71
     3
 72
     8
 73
     4
 74
     0
 42
0.000000001
 43
0.0000000001
 40
0.0
 40
0.0
 40
0.0
 40
0.0
 40
1.0
 40
1.0
 40
1.0
 40
1.0
 10
-3.34657
 20
18.85267
 30
0.0
 10
-3.34657
 20
18.85267
 30
0.0
 10
-2.95647
 20
19.08847
 30
0.0
 10
-2.95647
 20
19.08847
 30
0.0
  0
SPLINE
  5
71
330
1F
100
AcDbEntity
  8
Layer 1
 62
   240
370
     9
100
AcDbSpline
210
0.0
220
0.0
230
1.0
 70
     8
 71
     3
 72
   132
 73
   128
 74
     0
 42
0.000000001
 43
0.0000000001
 40
0.0
 40
0.0
 40
0.0
 40
0.0
 40
0.0303030303030303
 40
0.0303030303030303
 40
0.0303030303030303
 40
0.0303030303030303
 40
0.0606060606060606
 40
0.0606060606060606
 40
0.0606060606060606
 40
0.0606060606060606
 40
0.0909090909090909
 40
0.0909090909090909
 40
0.0909090909090909
 40
0.0909090909090909
 40
0.1212121212121212
 40
0.1212121212121212
 40
0.1212121212121212
 40
0.1212121212121212
 40
0.1515151515151515
 40
0.1515151515151515
 40
0.1515151515151515
 40
0.1515151515151515
 40
0.1818181818181818
 40
0.1818181818181818
 40
0.1818181818181818
 40
0.1818181818181818
 40
0.2121212121212121
 40
0.2121212121212121
 40
0.2121212121212121
 40
0.2121212121212121
 40
0.2424242424242424
 40
0.2424242424242424
 40
0.2424242424242424
 40
0.2424242424242424
 40
0.2727272727272727
 40
0.2727272727272727
 40
0.2727272727272727
 40
0.2727272727272727
 40
0.303030303030303
 40
0.303030303030303
 40
0.303030303030303
 40
0.303030303030303
 40
0.3333333333333333
 40
0.3333333333333333
 40
0.3333333333333333
 40
0.3333333333333333
 40
0.3636363636363636
 40
0.3636363636363636
 40
0.3636363636363636
 40
0.3636363636363636
 40
0.3939393939393939
 40
0.3939393939393939
 40
0.3939393939393939
 40
0.3939393939393939
 40
0.4242424242424243
 40
0.4242424242424243
 40
0.4242424242424243
 40
0.4242424242424243
 40
0.4545454545454545
 40
0.4545454545454545
 40
0.4545454545454545
 40
0.4545454545454545
 40
0.4848484848484849
 40
0.4848484848484849
 40
0.4848484848484849
 40
0.4848484848484849
 40
0.5151515151515151
 40
0.5151515151515151
 40
0.5151515151515151
 40
0.5151515151515151
 40
0.5454545454545454
 40
0.5454545454545454
 40
0.5454545454545454
 40
0.5454545454545454
 40
0.5757575757575758
 40
0.5757575757575758
 40
0.5757575757575758
 40
0.5757575757575758
 40
0.6060606060606061
 40
0.6060606060606061
 40
0.6060606060606061
 40
0.6060606060606061
 40
0.6363636363636364
 40
0.6363636363636364
 40
0.6363636363636364
 40
0.6363636363636364
 40
0.6666666666666666
 40
0.6666666666666666
 40
0.6666666666666666
 40
0.6666666666666666
 40
0.696969696969697
 40
0.696969696969697
 40
0.696969696969697
 40
0.696969696969697
 40
0.7272727272727273
 40
0.7272727272727273
 40
0.7272727272727273
 40
0.7272727272727273
 40
0.7575757575757576
 40
0.7575757575757576
 40
0.7575757575757576
 40
0.7575757575757576
 40
0.7878787878787878
 40
0.7878787878787878
 40
0.7878787878787878
 40
0.7878787878787878
 40
0.8181818181818182
 40
0.8181818181818182
 40
0.8181818181818182
 40
0.8181818181818182
 40
0.8484848484848485
 40
0.8484848484848485
 40
0.8484848484848485
 40
0.8484848484848485
 40
0.8787878787878788
 40
0.8787878787878788
 40
0.8787878787878788
 40
0.8787878787878788
 40
0.9090909090909091
 40
0.9090909090909091
 40
0.9090909090909091
 40
0.9090909090909091
 40
0.9393939393939394
 40
0.9393939393939394
 40
0.9393939393939394
 40
0.9393939393939394
 40
1.0
 40
1.0
 40
1.0
 40
1.0
 10
-3.87785
 20
18.54042
 30
0.0
 10
-3.87785
 20
18.54042
 30
0.0
 10
-4.06379
 20
18.43307
 30
0.0
 10
-4.06379
 20
18.43307
 30
0.0
 10
-4.06379
 20
18.43307
 30
0.0
 10
-4.06379
 20
18.43307
 30
0.0
 10
-4.06379
 20
19.76596
 30
0.0
 10
-4.06379
 20
19.76596
 30
0.0
 10
-4.06379
 20
19.76596
 30
0.0
 10
-4.06379
 20
19.76596
 30
0.0
 10
-5.23252
 20
19.55988
 30
0.0
 10
-5.23252
 20
19.55988
 30
0.0
 10
-5.23252
 20
19.55988
 30
0.0
 10
-5.23252
 20
19.55988
 30
0.0
 10
-4.86058
 20
20.58178
 30
0.0
 10
-4.86058
 20
20.58178
 30
0.0
 10
-4.86058
 20
20.58178
 30
0.0
 10
-4.86058
 20
20.58178
 30
0.0
 10
-6.0415
 20
20.79001
 30
0.0
 10
-6.0415
 20
20.79001
 30
0.0
 10
-6.0415
 20
20.79001
 30
0.0
 10
-6.0415
 20
20.79001
 30
0.0
 10
-5.18198
 20
21.81435
 30
0.0
 10
-5.18198
 20
21.81435
 30
0.0
 10
-5.18198
 20
21.81435
 30
0.0
 10
-5.18198
 20
21.81435
 30
0.0
 10
-6.28484
 20
22.45109
 30
0.0
 10
-6.28484
 20
22.45109
 30
0.0
 10
-6.28484
 20
22.45109
 30
0.0
 10
-6.28484
 20
22.45109
 30
0.0
 10
-5.3207
 20
23.00774
 30
0.0
 10
-5.3207
 20
23.00774
 30
0.0
 10
-5.3207
 20
23.00774
 30
0.0
 10
-5.3207
 20
23.00774
 30
0.0
 10
-6.04151
 20
23.86676
 30
0.0
 10
-6.04151
 20
23.86676
 30
0.0
 10
-6.04151
 20
23.86676
 30
0.0
 10
-6.04151
 20
23.86676
 30
0.0
 10
-4.77665
 20
24.08979
 30
0.0
 10
-4.77665
 20
24.08979
 30
0.0
 10
-4.77665
 20
24.08979
 30
0.0
 10
-4.77665
 20
24.08979
 30
0.0
 10
-5.23253
 20
25.3423
 30
0.0
 10
-5.23253
 20
25.3423
 30
0.0
 10
-5.23253
 20
25.3423
 30
0.0
 10
-5.23253
 20
25.3423
 30
0.0
 10
-4.06379
 20
25.13622
 30
0.0
 10
-4.06379
 20
25.13622
 30
0.0
 10
-4.06379
 20
25.13622
 30
0.0
 10
-4.06379
 20
25.13622
 30
0.0
 10
-4.06379
 20
26.22371
 30
0.0
 10
-4.06379
 20
26.22371
 30
0.0
 10
-4.06379
 20
26.22371
 30
0.0
 10
-4.06379
 20
26.22371
 30
0.0
 10
-3.02532
 20
25.62414
 30
0.0
 10
-3.02532
 20
25.62414
 30
0.0
 10
-3.02532
 20
25.62414
 30
0.0
 10
-3.02532
 20
25.62414
 30
0.0
 10
-2.56798
 20
26.88067
 30
0.0
 10
-2.56798
 20
26.88067
 30
0.0
 10
-2.56798
 20
26.88067
 30
0.0
 10
-2.56798
 20
26.88067
 30
0.0
 10
-1.7494
 20
25.90514
 30
0.0
 10
-1.7494
 20
25.90514
 30
0.0
 10
-1.7494
 20
25.90514
 30
0.0
 10
-1.7494
 20
25.90514
 30
0.0
 10
-1.03378
 20
26.75798
 30
0.0
 10
-1.03378
 20
26.75798
 30
0.0
 10
-1.03378
 20
26.75798
 30
0.0
 10
-1.03378
 20
26.75798
 30
0.0
 10
-0.65024
 20
25.70422
 30
0.0
 10
-0.65024
 20
25.70422
 30
0.0
 10
-0.65024
 20
25.70422
 30
0.0
 10
-0.65024
 20
25.70422
 30
0.0
 10
0.46204
 20
26.3464
 30
0.0
 10
0.46204
 20
26.3464
 30
0.0
 10
0.46204
 20
26.3464
 30
0.0
 10
0.46204
 20
26.3464
 30
0.0
 10
0.46204
 20
25.01351
 30
0.0
 10
0.46204
 20
25.01351
 30
0.0
 10
0.46204
 20
25.01351
 30
0.0
 10
0.46204
 20
25.01351
 30
0.0
 10
1.63078
 20
25.21959
 30
0.0
 10
1.63078
 20
25.21959
 30
0.0
 10
1.63078
 20
25.21959
 30
0.0
 10
1.63078
 20
25.21959
 30
0.0
 10
1.25882
 20
24.1977
 30
0.0
 10
1.25882
 20
24.1977
 30
0.0
 10
1.25882
 20
24.1977
 30
0.0
 10
1.25882
 20
24.1977
 30
0.0
 10
2.43974
 20
23.98947
 30
0.0
 10
2.43974
 20
23.98947
 30
0.0
 10
2.43974
 20
23.98947
 30
0.0
 10
2.43974
 20
23.98947
 30
0.0
 10
1.58022
 20
22.96513
 30
0.0
 10
1.58022
 20
22.96513
 30
0.0
 10
1.58022
 20
22.96513
 30
0.0
 10
1.58022
 20
22.96513
 30
0.0
 10
2.68308
 20
22.32839
 30
0.0
 10
2.68308
 20
22.32839
 30
0.0
 10
2.68308
 20
22.32839
 30
0.0
 10
2.68308
 20
22.32839
 30
0.0
 10
1.71893
 20
21.77173
 30
0.0
 10
1.71893
 20
21.77173
 30
0.0
 10
1.71893
 20
21.77173
 30
0.0
 10
1.71893
 20
21.77173
 30
0.0
 10
2.43974
 20
20.91271
 30
0.0
 10
2.43974
 20
20.91271
 30
0.0
 10
2.43974
 20
20.91271
 30
0.0
 10
2.43974
 20
20.91271
 30
0.0
 10
1.1749
 20
20.68968
 30
0.0
 10
1.1749
 20
20.68968
 30
0.0
 10
1.1749
 20
20.68968
 30
0.0
 10
1.1749
 20
20.68968
 30
0.0
 10
1.63077
 20
19.43718
 30
0.0
 10
1.63077
 20
19.43718
 30
0.0
 10
1.63077
 20
19.43718
 30
0.0
 10
1.63077
 20
19.43718
 30
0.0
 10
0.46204
 20
19.64327
 30
0.0
 10
0.46204
 20
19.64327
 30
0.0
 10
0.46204
 20
19.64327
 30
0.0
 10
0.46204
 20
19.64327
 30
0.0
 10
0.46204
 20
18.55578
 30
0.0
 10
0.46204
 20
18.55578
 30
0.0
 10
0.46204
 20
18.55578
 30
0.0
 10
0.46204
 20
18.55578
 30
0.0
 10
0.37428
 20
18.60645
 30
0.0
 10
0.37428
 20
18.60645
 30
0.0
  0
SPLINE
  5
72
330
1F
100
AcDbEntity
  8
Layer 1
 62
   240
370
     9
100
AcDbSpline
210
0.0
220
0.0
230
1.0
 70
     8
 71
     3
 72
    24
 73
    20
 74
     0
 42
0.000000001
 43
0.0000000001
 40
0.0
 40
0.0
 40
0.0
 40
0.0
 40
0.1666666666666667
 40
0.1666666666666667
 40
0.1666666666666667
 40
0.1666666666666667
 40
0.3333333333333333
 40
0.3333333333333333
 40
0.3333333333333333
 40
0.3333333333333333
 40
0.5
 40
0.5
 40
0.5
 40
0.5
 40
0.6666666666666666
 40
0.6666666666666666
 40
0.6666666666666666
 40
0.6666666666666666
 40
1.0
 40
1.0
 40
1.0
 40
1.0
 10
-0.31155
 20
19.01277
 30
0.0
 10
-0.31155
 20
19.01277
 30
0.0
 10
-0.5814
 20
19.16856
 30
0.0
 10
-0.5814
 20
19.16856
 30
0.0
 10
-0.5814
 20
19.16856
 30
0.0
 10
-0.5814
 20
19.16856
 30
0.0
 10
-1.03873
 20
17.91203
 30
0.0
 10
-1.03873
 20
17.91203
 30
0.0
 10
-1.03873
 20
17.91203
 30
0.0
 10
-1.03873
 20
17.91203
 30
0.0
 10
-1.85731
 20
18.88758
 30
0.0
 10
-1.85731
 20
18.88758
 30
0.0
 10
-1.85731
 20
18.88758
 30
0.0
 10
-1.85731
 20
18.88758
 30
0.0
 10
-2.57294
 20
18.03472
 30
0.0
 10
-2.57294
 20
18.03472
 30
0.0
 10
-2.57294
 20
18.03472
 30
0.0
 10
-2.57294
 20
18.03472
 30
0.0
 10
-2.95647
 20
19.08847
 30
0.0
 10
-2.95647
 20
19.08847
 30
0.0
  0
SPLINE
  5
73
330
1F
100
AcDbEntity
  8
Layer 1
 62
   240
370
     9
100
AcDbSpline
210
0.0
220
0.0
230
1.0
 70
     8
 71
     3
 72
    16
 73
    12
 74
     0
 42
0.000000001
 43
0.0000000001
 40
0.0
 40
0.0
 40
0.0
 40
0.0
 40
0.25
 40
0.25
 40
0.25
 40
0.25
 40
0.5
 40
0.5
 40
0.5
 40
0.5
 40
1.0
 40
1.0
 40
1.0
 40
1.0
 10
-3.42261
 20
19.01977
 30
0.0
 10
-3.42261
 20
19.01977
 30
0.0
 10
-3.42261
 20
20.70254
 30
0.0
 10
-3.42261
 20
20.70254
 30
0.0
 10
-3.42261
 20
20.70254
 30
0.0
 10
-3.42261
 20
20.70254
 30
0.0
 10
-3.77261
 20
20.70254
 30
0.0
 10
-3.77261
 20
20.70254
 30
0.0
 10
-3.77261
 20
20.70254
 30
0.0
 10
-3.77261
 20
20.70254
 30
0.0
 10
-3.77261
 20
18.90254
 30
0.0
 10
-3.77261
 20
18.90254
 30
0.0
  0
SPLINE
  5
74
330
1F
100
AcDbEntity
  8
Layer 1
 62
   240
370
     9
100
AcDbSpline
210
0.0
220
0.0
230
1.0
 70
     8
 71
     3
 72
    16
 73
    12
 74
     0
 42
0.000000001
 43
0.0000000001
 40
0.0
 40
0.0
 40
0.0
 40
0.0
 40
0.25
 40
0.25
 40
0.25
 40
0.25
 40
0.5
 40
0.5
 40
0.5
 40
0.5
 40
1.0
 40
1.0
 40
1.0
 40
1.0
 10
0.22735
 20
18.93208
 30
0.0
 10
0.22735
 20
18.93208
 30
0.0
 10
0.22735
 20
20.73208
 30
0.0
 10
0.22735
 20
20.73208
 30
0.0
 10
0.22735
 20
20.73208
 30
0.0
 10
0.22735
 20
20.73208
 30
0.0
 10
-0.12265
 20
20.73208
 30
0.0
 10
-0.12265
 20
20.73208
 30
0.0
 10
-0.12265
 20
20.73208
 30
0.0
 10
-0.12265
 20
20.73208
 30
0.0
 10
-0.12265
 20
19.10223
 30
0.0
 10
-0.12265
 20
19.10223
 30
0.0
  0
SPLINE
  5
75
330
1F
100
AcDbEntity
  8
Layer 1
 62
   240
370
     9
100
AcDbSpline
210
0.0
220
0.0
230
1.0
 70
     8
 71
     3
 72
    12
 73
     8
 74
     0
 42
0.000000001
 43
0.0000000001
 40
0.0
 40
0.0
 40
0.0
 40
0.0
 40
0.3333333333333333
 40
0.3333333333333333
 40
0.3333333333333333
 40
0.3333333333333333
 40
1.0
 40
1.0
 40
1.0
 40
1.0
 10
-3.42095
 20
19.0232
 30
0.0
 10
-3.42095
 20
18.95098
 30
0.0
 10
-3.42095
 20
18.87877
 30
0.0
 10
-3.40277
 20
18.85382
 30
0.0
 10
-3.40277
 20
18.85382
 30
0.0
 10
-3.38457
 20
18.82887
 30
0.0
 10
-3.34819
 20
18.85119
 30
0.0
 10
-3.31181
 20
18.87351
 30
0.0
  0
SPLINE
  5
76
330
1F
100
AcDbEntity
  8
Layer 1
 62
   240
370
     9
100
AcDbSpline
210
0.0
220
0.0
230
1.0
 70
     8
 71
     3
 72
    12
 73
     8
 74
     0
 42
0.000000001
 43
0.0000000001
 40
0.0
 40
0.0
 40
0.0
 40
0.0
 40
0.3333333333333333
 40
0.3333333333333333
 40
0.3333333333333333
 40
0.3333333333333333
 40
1.0
 40
1.0
 40
1.0
 40
1.0
 10
-3.9144
 20
18.51698
 30
0.0
 10
-3.86751
 20
18.54589
 30
0.0
 10
-3.8206
 20
18.57478
 30
0.0
 10
-3.79716
 20
18.63955
 30
0.0
 10
-3.79716
 20
18.63955
 30
0.0
 10
-3.77371
 20
18.7043
 30
0.0
 10
-3.77371
 20
18.80491
 30
0.0
 10
-3.77371
 20
18.90551
 30
0.0
  0
SPLINE
  5
77
330
1F
100
AcDbEntity
  8
Layer 1
 62
   240
370
     9
100
AcDbSpline
210
0.0
220
0.0
230
1.0
 70
     8
 71
     3
 72
    12
 73
     8
 74
     0
 42
0.000000001
 43
0.0000000001
 40
0.0
 40
0.0
 40
0.0
 40
0.0
 40
0.3333333333333333
 40
0.3333333333333333
 40
0.3333333333333333
 40
0.3333333333333333
 40
1.0
 40
1.0
 40
1.0
 40
1.0
 10
-0.12271
 20
19.15652
 30
0.0
 10
-0.12271
 20
19.07706
 30
0.0
 10
-0.12271
 20
18.9976
 30
0.0
 10
-0.15527
 20
18.97426
 30
0.0
 10
-0.15527
 20
18.97426
 30
0.0
 10
-0.18782
 20
18.95093
 30
0.0
 10
-0.25293
 20
18.98372
 30
0.0
 10
-0.31804
 20
19.01651
 30
0.0
  0
SPLINE
  5
78
330
1F
100
AcDbEntity
  8
Layer 1
 62
   240
370
     9
100
AcDbSpline
210
0.0
220
0.0
230
1.0
 70
     8
 71
     3
 72
    12
 73
     8
 74
     0
 42
0.000000001
 43
0.0000000001
 40
0.0
 40
0.0
 40
0.0
 40
0.0
 40
0.3333333333333333
 40
0.3333333333333333
 40
0.3333333333333333
 40
0.3333333333333333
 40
1.0
 40
1.0
 40
1.0
 40
1.0
 10
0.22735
 20
18.96855
 30
0.0
 10
0.22735
 20
18.87825
 30
0.0
 10
0.22735
 20
18.78793
 30
0.0
 10
0.25184
 20
18.72757
 30
0.0
 10
0.25184
 20
18.72757
 30
0.0
 10
0.27632
 20
18.66717
 30
0.0
 10
0.32531
 20
18.63674
 30
0.0
 10
0.37428
 20
18.60629
 30
0.0
  0
SPLINE
  5
79
330
1F
100
AcDbEntity
  8
Layer 1
 62
   240
370
     9
100
AcDbSpline
210
0.0
220
0.0
230
1.0
 70
     8
 71
     3
 72
    16
 73
    12
 74
     0
 42
0.000000001
 43
0.0000000001
 40
0.0
 40
0.0
 40
0.0
 40
0.0
 40
0.25
 40
0.25
 40
0.25
 40
0.25
 40
0.5
 40
0.5
 40
0.5
 40
0.5
 40
1.0
 40
1.0
 40
1.0
 40
1.0
 10
-3.59011
 20
13.47619
 30
0.0
 10
-3.5063
 20
13.37127
 30
0.0
 10
-2.87477
 20
12.58068
 30
0.0
 10
-2.87477
 20
12.58068
 30
0.0
 10
-2.87477
 20
12.58068
 30
0.0
 10
-2.87477
 20
12.58068
 30
0.0
 10
-3.18512
 20
12.33712
 30
0.0
 10
-3.18512
 20
12.33712
 30
0.0
 10
-3.18512
 20
12.33712
 30
0.0
 10
-3.18512
 20
12.33712
 30
0.0
 10
-3.67799
 20
12.95415
 30
0.0
 10
-3.81926
 20
13.131
 30
0.0
  0
SPLINE
  5
7A
330
1F
100
AcDbEntity
  8
Layer 1
 62
   240
370
     9
100
AcDbSpline
210
0.0
220
0.0
230
1.0
 70
     8
 71
     3
 72
    16
 73
    12
 74
     0
 42
0.000000001
 43
0.0000000001
 40
0.0
 40
0.0
 40
0.0
 40
0.0
 40
0.25
 40
0.25
 40
0.25
 40
0.25
 40
0.5
 40
0.5
 40
0.5
 40
0.5
 40
1.0
 40
1.0
 40
1.0
 40
1.0
 10
8.26325
 20
14.57457
 30
0.0
 10
8.65702
 20
13.96771
 30
0.0
 10
9.04142
 20
13.37533
 30
0.0
 10
9.04142
 20
13.37533
 30
0.0
 10
9.04142
 20
13.37533
 30
0.0
 10
9.04142
 20
13.37533
 30
0.0
 10
8.70686
 20
13.15897
 30
0.0
 10
8.70686
 20
13.15897
 30
0.0
 10
8.70686
 20
13.15897
 30
0.0
 10
8.70686
 20
13.15897
 30
0.0
 10
8.17661
 20
13.97615
 30
0.0
 10
7.72666
 20
14.66957
 30
0.0
  0
SPLINE
  5
7B
330
1F
100
AcDbEntity
  8
Layer 1
 62
   240
370
     9
100
AcDbSpline
210
0.0
220
0.0
230
1.0
 70
     8
 71
     3
 72
    12
 73
     8
 74
     0
 42
0.000000001
 43
0.0000000001
 40
0.0
 40
0.0
 40
0.0
 40
0.0
 40
0.3333333333333333
 40
0.3333333333333333
 40
0.3333333333333333
 40
0.3333333333333333
 40
1.0
 40
1.0
 40
1.0
 40
1.0
 10
-3.81926
 20
13.131
 30
0.0
 10
-3.85353
 20
12.44037
 30
0.0
 10
-3.88169
 20
11.76036
 30
0.0
 10
-3.7361
 20
11.38251
 30
0.0
 10
-3.7361
 20
11.38251
 30
0.0
 10
-3.58519
 20
10.99086
 30
0.0
 10
-3.24756
 20
10.92382
 30
0.0
 10
-2.90995
 20
10.85676
 30
0.0
  0
SPLINE
  5
7C
330
1F
100
AcDbEntity
  8
Layer 1
 62
   240
370
     9
100
AcDbSpline
210
0.0
220
0.0
230
1.0
 70
     8
 71
     3
 72
     8
 73
     4
 74
     0
 42
0.000000001
 43
0.0000000001
 40
0.0
 40
0.0
 40
0.0
 40
0.0
 40
1.0
 40
1.0
 40
1.0
 40
1.0
 10
5.32246
 20
9.76134
 30
0.0
 10
5.32507
 20
9.76548
 30
0.0
 10
5.3278
 20
9.76959
 30
0.0
 10
5.33063
 20
9.77369
 30
0.0
  0
SPLINE
  5
7D
330
1F
100
AcDbEntity
  8
Layer 1
 62
   240
370
     9
100
AcDbSpline
210
0.0
220
0.0
230
1.0
 70
     8
 71
     3
 72
     8
 73
     4
 74
     0
 42
0.000000001
 43
0.0000000001
 40
0.0
 40
0.0
 40
0.0
 40
0.0
 40
1.0
 40
1.0
 40
1.0
 40
1.0
 10
5.33063
 20
9.77369
 30
0.0
 10
5.32726
 20
9.77405
 30
0.0
 10
5.3239
 20
9.77442
 30
0.0
 10
5.32056
 20
9.7748
 30
0.0
  0
SPLINE
  5
7E
330
1F
100
AcDbEntity
  8
Layer 1
 62
   240
370
     9
100
AcDbSpline
210
0.0
220
0.0
230
1.0
 70
    24
 71
     3
 72
     8
 73
     4
 74
     0
 42
0.000000001
 43
0.0000000001
 40
0.0
 40
0.0
 40
0.0
 40
0.0
 40
1.0
 40
1.0
 40
1.0
 40
1.0
 10
7.27367
 20
9.05615
 30
0.0
 10
7.27367
 20
9.05615
 30
0.0
 10
7.00856
 20
9.05615
 30
0.0
 10
6.6898
 20
9.05615
 30
0.0
  0
SPLINE
  5
7F
330
1F
100
AcDbEntity
  8
Layer 1
 62
   240
370
     9
100
AcDbSpline
210
0.0
220
0.0
230
1.0
 70
    24
 71
     3
 72
     8
 73
     4
 74
     0
 42
0.000000001
 43
0.0000000001
 40
0.0
 40
0.0
 40
0.0
 40
0.0
 40
1.0
 40
1.0
 40
1.0
 40
1.0
 10
5.8898
 20
9.05615
 30
0.0
 10
5.72108
 20
9.05615
 30
0.0
 10
5.6068
 20
9.05615
 30
0.0
 10
5.6068
 20
9.05615
 30
0.0
  0
SPLINE
  5
80
330
1F
100
AcDbEntity
  8
Layer 1
 62
   240
370
     9
100
AcDbSpline
210
0.0
220
0.0
230
1.0
 70
     8
 71
     3
 72
    16
 73
    12
 74
     0
 42
0.000000001
 43
0.0000000001
 40
0.0
 40
0.0
 40
0.0
 40
0.0
 40
0.25
 40
0.25
 40
0.25
 40
0.25
 40
0.5
 40
0.5
 40
0.5
 40
0.5
 40
1.0
 40
1.0
 40
1.0
 40
1.0
 10
5.45806
 20
10.85677
 30
0.0
 10
5.37425
 20
10.52557
 30
0.0
 10
5.29043
 20
10.19437
 30
0.0
 10
5.31522
 20
9.89537
 30
0.0
 10
5.31522
 20
9.89537
 30
0.0
 10
5.34001
 20
9.59637
 30
0.0
 10
5.47341
 20
9.32956
 30
0.0
 10
5.54011
 20
9.19616
 30
0.0
 10
5.54011
 20
9.19616
 30
0.0
 10
5.6068
 20
9.06276
 30
0.0
 10
5.6068
 20
9.06276
 30
0.0
 10
5.6068
 20
9.06276
 30
0.0
  0
SPLINE
  5
81
330
1F
100
AcDbEntity
  8
Layer 1
 62
   240
370
     9
100
AcDbSpline
210
0.0
220
0.0
230
1.0
 70
     8
 71
     3
 72
    24
 73
    20
 74
     0
 42
0.000000001
 43
0.0000000001
 40
0.0
 40
0.0
 40
0.0
 40
0.0
 40
0.1666666666666667
 40
0.1666666666666667
 40
0.1666666666666667
 40
0.1666666666666667
 40
0.3333333333333333
 40
0.3333333333333333
 40
0.3333333333333333
 40
0.3333333333333333
 40
0.5
 40
0.5
 40
0.5
 40
0.5
 40
0.6666666666666666
 40
0.6666666666666666
 40
0.6666666666666666
 40
0.6666666666666666
 40
1.0
 40
1.0
 40
1.0
 40
1.0
 10
6.69785
 20
10.54203
 30
0.0
 10
6.73313
 20
10.30247
 30
0.0
 10
6.76841
 20
10.06291
 30
0.0
 10
6.75298
 20
9.87518
 30
0.0
 10
6.75298
 20
9.87518
 30
0.0
 10
6.73754
 20
9.68745
 30
0.0
 10
6.6714
 20
9.55155
 30
0.0
 10
6.79708
 20
9.46632
 30
0.0
 10
6.79708
 20
9.46632
 30
0.0
 10
6.92275
 20
9.38109
 30
0.0
 10
7.24025
 20
9.34654
 30
0.0
 10
7.40341
 20
9.28665
 30
0.0
 10
7.40341
 20
9.28665
 30
0.0
 10
7.56657
 20
9.22676
 30
0.0
 10
7.57539
 20
9.14153
 30
0.0
 10
7.4894
 20
9.09889
 30
0.0
 10
7.4894
 20
9.09889
 30
0.0
 10
7.40341
 20
9.05626
 30
0.0
 10
7.22261
 20
9.0562
 30
0.0
 10
7.04181
 20
9.05615
 30
0.0
  0
SPLINE
  5
82
330
1F
100
AcDbEntity
  8
Layer 1
 62
   240
370
     9
100
AcDbSpline
210
0.0
220
0.0
230
1.0
 70
     8
 71
     3
 72
    12
 73
     8
 74
     0
 42
0.000000001
 43
0.0000000001
 40
0.0
 40
0.0
 40
0.0
 40
0.0
 40
0.3333333333333333
 40
0.3333333333333333
 40
0.3333333333333333
 40
0.3333333333333333
 40
1.0
 40
1.0
 40
1.0
 40
1.0
 10
-1.72097
 20
10.54202
 30
0.0
 10
-0.59759
 20
10.80438
 30
0.0
 10
0.5258
 20
11.06675
 30
0.0
 10
1.72231
 20
11.1192
 30
0.0
 10
1.72231
 20
11.1192
 30
0.0
 10
2.91881
 20
11.17166
 30
0.0
 10
4.18843
 20
11.01422
 30
0.0
 10
5.45806
 20
10.85677
 30
0.0
  0
SPLINE
  5
83
330
1F
100
AcDbEntity
  8
Layer 1
 62
   240
370
     9
100
AcDbSpline
210
0.0
220
0.0
230
1.0
 70
     8
 71
     3
 72
    24
 73
    20
 74
     0
 42
0.000000001
 43
0.0000000001
 40
0.0
 40
0.0
 40
0.0
 40
0.0
 40
0.1666666666666667
 40
0.1666666666666667
 40
0.1666666666666667
 40
0.1666666666666667
 40
0.3333333333333333
 40
0.3333333333333333
 40
0.3333333333333333
 40
0.3333333333333333
 40
0.5
 40
0.5
 40
0.5
 40
0.5
 40
0.6666666666666666
 40
0.6666666666666666
 40
0.6666666666666666
 40
0.6666666666666666
 40
1.0
 40
1.0
 40
1.0
 40
1.0
 10
6.69785
 20
10.54203
 30
0.0
 10
7.01696
 20
11.30489
 30
0.0
 10
7.33608
 20
12.06774
 30
0.0
 10
7.83518
 20
12.30806
 30
0.0
 10
7.83518
 20
12.30806
 30
0.0
 10
8.33429
 20
12.54838
 30
0.0
 10
9.01338
 20
12.26616
 30
0.0
 10
9.47199
 20
12.39845
 30
0.0
 10
9.47199
 20
12.39845
 30
0.0
 10
9.93061
 20
12.53074
 30
0.0
 10
10.16873
 20
13.07755
 30
0.0
 10
10.06731
 20
13.47442
 30
0.0
 10
10.06731
 20
13.47442
 30
0.0
 10
9.96589
 20
13.8713
 30
0.0
 10
9.52491
 20
14.11824
 30
0.0
 10
9.11039
 20
14.29022
 30
0.0
 10
9.11039
 20
14.29022
 30
0.0
 10
8.77478
 20
14.42946
 30
0.0
 10
8.45649
 20
14.51958
 30
0.0
 10
8.26325
 20
14.57457
 30
0.0
  0
SPLINE
  5
84
330
1F
100
AcDbEntity
  8
Layer 1
 62
   240
370
     9
100
AcDbSpline
210
0.0
220
0.0
230
1.0
 70
     8
 71
     3
 72
     8
 73
     4
 74
     0
 42
0.000000001
 43
0.0000000001
 40
0.0
 40
0.0
 40
0.0
 40
0.0
 40
1.0
 40
1.0
 40
1.0
 40
1.0
 10
-3.06068
 20
9.7685
 30
0.0
 10
-3.05807
 20
9.77264
 30
0.0
 10
-3.05534
 20
9.77675
 30
0.0
 10
-3.05251
 20
9.78085
 30
0.0
  0
SPLINE
  5
85
330
1F
100
AcDbEntity
  8
Layer 1
 62
   240
370
     9
100
AcDbSpline
210
0.0
220
0.0
230
1.0
 70
     8
 71
     3
 72
     8
 73
     4
 74
     0
 42
0.000000001
 43
0.0000000001
 40
0.0
 40
0.0
 40
0.0
 40
0.0
 40
1.0
 40
1.0
 40
1.0
 40
1.0
 10
-3.05251
 20
9.78085
 30
0.0
 10
-3.05588
 20
9.78121
 30
0.0
 10
-3.05924
 20
9.78158
 30
0.0
 10
-3.06258
 20
9.78196
 30
0.0
  0
SPLINE
  5
86
330
1F
100
AcDbEntity
  8
Layer 1
 62
   240
370
     9
100
AcDbSpline
210
0.0
220
0.0
230
1.0
 70
    24
 71
     3
 72
     8
 73
     4
 74
     0
 42
0.000000001
 43
0.0000000001
 40
0.0
 40
0.0
 40
0.0
 40
0.0
 40
1.0
 40
1.0
 40
1.0
 40
1.0
 10
-1.10947
 20
9.06331
 30
0.0
 10
-1.10947
 20
9.06331
 30
0.0
 10
-1.41644
 20
9.06331
 30
0.0
 10
-1.76692
 20
9.06331
 30
0.0
  0
SPLINE
  5
87
330
1F
100
AcDbEntity
  8
Layer 1
 62
   240
370
     9
100
AcDbSpline
210
0.0
220
0.0
230
1.0
 70
    24
 71
     3
 72
     8
 73
     4
 74
     0
 42
0.000000001
 43
0.0000000001
 40
0.0
 40
0.0
 40
0.0
 40
0.0
 40
1.0
 40
1.0
 40
1.0
 40
1.0
 10
-2.56692
 20
9.06331
 30
0.0
 10
-2.69443
 20
9.06331
 30
0.0
 10
-2.77634
 20
9.06331
 30
0.0
 10
-2.77634
 20
9.06331
 30
0.0
  0
SPLINE
  5
88
330
1F
100
AcDbEntity
  8
Layer 1
 62
   240
370
     9
100
AcDbSpline
210
0.0
220
0.0
230
1.0
 70
     8
 71
     3
 72
    16
 73
    12
 74
     0
 42
0.000000001
 43
0.0000000001
 40
0.0
 40
0.0
 40
0.0
 40
0.0
 40
0.25
 40
0.25
 40
0.25
 40
0.25
 40
0.5
 40
0.5
 40
0.5
 40
0.5
 40
1.0
 40
1.0
 40
1.0
 40
1.0
 10
-2.92508
 20
10.86393
 30
0.0
 10
-3.00889
 20
10.53273
 30
0.0
 10
-3.09271
 20
10.20153
 30
0.0
 10
-3.06792
 20
9.90253
 30
0.0
 10
-3.06792
 20
9.90253
 30
0.0
 10
-3.04313
 20
9.60353
 30
0.0
 10
-2.90973
 20
9.33672
 30
0.0
 10
-2.84303
 20
9.20332
 30
0.0
 10
-2.84303
 20
9.20332
 30
0.0
 10
-2.77634
 20
9.06992
 30
0.0
 10
-2.77634
 20
9.06992
 30
0.0
 10
-2.77634
 20
9.06992
 30
0.0
  0
SPLINE
  5
89
330
1F
100
AcDbEntity
  8
Layer 1
 62
   240
370
     9
100
AcDbSpline
210
0.0
220
0.0
230
1.0
 70
     8
 71
     3
 72
    24
 73
    20
 74
     0
 42
0.000000001
 43
0.0000000001
 40
0.0
 40
0.0
 40
0.0
 40
0.0
 40
0.1666666666666667
 40
0.1666666666666667
 40
0.1666666666666667
 40
0.1666666666666667
 40
0.3333333333333333
 40
0.3333333333333333
 40
0.3333333333333333
 40
0.3333333333333333
 40
0.5
 40
0.5
 40
0.5
 40
0.5
 40
0.6666666666666666
 40
0.6666666666666666
 40
0.6666666666666666
 40
0.6666666666666666
 40
1.0
 40
1.0
 40
1.0
 40
1.0
 10
-1.68529
 20
10.54919
 30
0.0
 10
-1.65001
 20
10.30963
 30
0.0
 10
-1.61473
 20
10.07007
 30
0.0
 10
-1.63016
 20
9.88234
 30
0.0
 10
-1.63016
 20
9.88234
 30
0.0
 10
-1.6456
 20
9.69461
 30
0.0
 10
-1.71174
 20
9.55871
 30
0.0
 10
-1.58606
 20
9.47348
 30
0.0
 10
-1.58606
 20
9.47348
 30
0.0
 10
-1.46039
 20
9.38825
 30
0.0
 10
-1.14289
 20
9.3537
 30
0.0
 10
-0.97973
 20
9.29381
 30
0.0
 10
-0.97973
 20
9.29381
 30
0.0
 10
-0.81657
 20
9.23392
 30
0.0
 10
-0.80775
 20
9.14869
 30
0.0
 10
-0.89374
 20
9.10605
 30
0.0
 10
-0.89374
 20
9.10605
 30
0.0
 10
-0.97973
 20
9.06342
 30
0.0
 10
-1.16053
 20
9.06336
 30
0.0
 10
-1.34133
 20
9.06331
 30
0.0
  0
SPLINE
  5
8A
330
1F
100
AcDbEntity
  8
Layer 1
 62
   240
370
     9
100
AcDbSpline
210
0.0
220
0.0
230
1.0
 70
     8
 71
     3
 72
     8
 73
     4
 74
     0
 42
0.000000001
 43
0.0000000001
 40
0.0
 40
0.0
 40
0.0
 40
0.0
 40
1.0
 40
1.0
 40
1.0
 40
1.0
 10
-3.59011
 20
13.47619
 30
0.0
 10
-3.28106
 20
13.71986
 30
0.0
 10
-2.96969
 20
13.96282
 30
0.0
 10
-2.567
 20
14.17709
 30
0.0
  0
SPLINE
  5
8B
330
1F
100
AcDbEntity
  8
Layer 1
 62
   240
370
     9
100
AcDbSpline
210
0.0
220
0.0
230
1.0
 70
     8
 71
     3
 72
     8
 73
     4
 74
     0
 42
0.000000001
 43
0.0000000001
 40
0.0
 40
0.0
 40
0.0
 40
0.0
 40
1.0
 40
1.0
 40
1.0
 40
1.0
 10
-1.93619
 20
14.45487
 30
0.0
 10
-1.8242
 20
14.49495
 30
0.0
 10
-1.70571
 20
14.53303
 30
0.0
 10
-1.5798
 20
14.56874
 30
0.0
  0
SPLINE
  5
8C
330
1F
100
AcDbEntity
  8
Layer 1
 62
   240
370
     9
100
AcDbSpline
210
0.0
220
0.0
230
1.0
 70
     8
 71
     3
 72
     8
 73
     4
 74
     0
 42
0.000000001
 43
0.0000000001
 40
0.0
 40
0.0
 40
0.0
 40
0.0
 40
1.0
 40
1.0
 40
1.0
 40
1.0
 10
-0.92274
 20
14.72157
 30
0.0
 10
-0.7334
 20
14.75756
 30
0.0
 10
-0.53333
 20
14.78976
 30
0.0
 10
-0.3238
 20
14.81812
 30
0.0
  0
SPLINE
  5
8D
330
1F
100
AcDbEntity
  8
Layer 1
 62
   240
370
     9
100
AcDbSpline
210
0.0
220
0.0
230
1.0
 70
     8
 71
     3
 72
     8
 73
     4
 74
     0
 42
0.000000001
 43
0.0000000001
 40
0.0
 40
0.0
 40
0.0
 40
0.0
 40
1.0
 40
1.0
 40
1.0
 40
1.0
 10
0.3437
 20
14.89291
 30
0.0
 10
0.48951
 20
14.90614
 30
0.0
 10
0.6387
 20
14.91783
 30
0.0
 10
0.7909
 20
14.92795
 30
0.0
  0
SPLINE
  5
8E
330
1F
100
AcDbEntity
  8
Layer 1
 62
   240
370
     9
100
AcDbSpline
210
0.0
220
0.0
230
1.0
 70
     8
 71
     3
 72
     8
 73
     4
 74
     0
 42
0.000000001
 43
0.0000000001
 40
0.0
 40
0.0
 40
0.0
 40
0.0
 40
1.0
 40
1.0
 40
1.0
 40
1.0
 10
1.46237
 20
14.96191
 30
0.0
 10
1.63688
 20
14.96809
 30
0.0
 10
1.81442
 20
14.97247
 30
0.0
 10
1.99455
 20
14.975
 30
0.0
  0
SPLINE
  5
8F
330
1F
100
AcDbEntity
  8
Layer 1
 62
   240
370
     9
100
AcDbSpline
210
0.0
220
0.0
230
1.0
 70
     8
 71
     3
 72
     8
 73
     4
 74
     0
 42
0.000000001
 43
0.0000000001
 40
0.0
 40
0.0
 40
0.0
 40
0.0
 40
1.0
 40
1.0
 40
1.0
 40
1.0
 10
2.65604
 20
14.97622
 30
0.0
 10
2.8419
 20
14.97437
 30
0.0
 10
3.02992
 20
14.97074
 30
0.0
 10
3.2198
 20
14.96554
 30
0.0
  0
SPLINE
  5
90
330
1F
100
AcDbEntity
  8
Layer 1
 62
   240
370
     9
100
AcDbSpline
210
0.0
220
0.0
230
1.0
 70
     8
 71
     3
 72
     8
 73
     4
 74
     0
 42
0.000000001
 43
0.0000000001
 40
0.0
 40
0.0
 40
0.0
 40
0.0
 40
1.0
 40
1.0
 40
1.0
 40
1.0
 10
3.8431
 20
14.94339
 30
0.0
 10
3.98245
 20
14.93738
 30
0.0
 10
4.12265
 20
14.93066
 30
0.0
 10
4.26358
 20
14.92334
 30
0.0
  0
SPLINE
  5
91
330
1F
100
AcDbEntity
  8
Layer 1
 62
   240
370
     9
100
AcDbSpline
210
0.0
220
0.0
230
1.0
 70
     8
 71
     3
 72
     8
 73
     4
 74
     0
 42
0.000000001
 43
0.0000000001
 40
0.0
 40
0.0
 40
0.0
 40
0.0
 40
1.0
 40
1.0
 40
1.0
 40
1.0
 10
4.91179
 20
14.88588
 30
0.0
 10
5.08503
 20
14.87494
 30
0.0
 10
5.25917
 20
14.86324
 30
0.0
 10
5.434
 20
14.85097
 30
0.0
  0
SPLINE
  5
92
330
1F
100
AcDbEntity
  8
Layer 1
 62
   240
370
     9
100
AcDbSpline
210
0.0
220
0.0
230
1.0
 70
     8
 71
     3
 72
     8
 73
     4
 74
     0
 42
0.000000001
 43
0.0000000001
 40
0.0
 40
0.0
 40
0.0
 40
0.0
 40
1.0
 40
1.0
 40
1.0
 40
1.0
 10
6.00679
 20
14.80899
 30
0.0
 10
6.57631
 20
14.76565
 30
0.0
 10
7.15149
 20
14.7176
 30
0.0
 10
7.72666
 20
14.66957
 30
0.0
  0
SPLINE
  5
93
330
1F
100
AcDbEntity
  8
Layer 1
 62
   240
370
     9
100
AcDbSpline
210
0.0
220
0.0
230
1.0
 70
     8
 71
     3
 72
    16
 73
    12
 74
     0
 42
0.000000001
 43
0.0000000001
 40
0.0
 40
0.0
 40
0.0
 40
0.0
 40
0.25
 40
0.25
 40
0.25
 40
0.25
 40
0.5
 40
0.5
 40
0.5
 40
0.5
 40
1.0
 40
1.0
 40
1.0
 40
1.0
 10
-1.03723
 20
14.52939
 30
0.0
 10
-1.03723
 20
14.52939
 30
0.0
 10
-1.03723
 20
12.232
 30
0.0
 10
-1.03723
 20
12.232
 30
0.0
 10
-1.03723
 20
12.232
 30
0.0
 10
-1.03723
 20
12.232
 30
0.0
 10
-1.48723
 20
12.232
 30
0.0
 10
-1.48723
 20
12.232
 30
0.0
 10
-1.48723
 20
12.232
 30
0.0
 10
-1.48723
 20
12.232
 30
0.0
 10
-1.48723
 20
14.45994
 30
0.0
 10
-1.48723
 20
14.45994
 30
0.0
  0
SPLINE
  5
94
330
1F
100
AcDbEntity
  8
Layer 1
 62
   240
370
     9
100
AcDbSpline
210
0.0
220
0.0
230
1.0
 70
     8
 71
     3
 72
    16
 73
    12
 74
     0
 42
0.000000001
 43
0.0000000001
 40
0.0
 40
0.0
 40
0.0
 40
0.0
 40
0.25
 40
0.25
 40
0.25
 40
0.25
 40
0.5
 40
0.5
 40
0.5
 40
0.5
 40
1.0
 40
1.0
 40
1.0
 40
1.0
 10
0.22871
 20
14.72452
 30
0.0
 10
0.22871
 20
14.72452
 30
0.0
 10
0.22871
 20
12.43635
 30
0.0
 10
0.22871
 20
12.43635
 30
0.0
 10
0.22871
 20
12.43635
 30
0.0
 10
0.22871
 20
12.43635
 30
0.0
 10
-0.22129
 20
12.43635
 30
0.0
 10
-0.22129
 20
12.43635
 30
0.0
 10
-0.22129
 20
12.43635
 30
0.0
 10
-0.22129
 20
12.43635
 30
0.0
 10
-0.22129
 20
14.66831
 30
0.0
 10
-0.22129
 20
14.66831
 30
0.0
  0
SPLINE
  5
95
330
1F
100
AcDbEntity
  8
Layer 1
 62
   240
370
     9
100
AcDbSpline
210
0.0
220
0.0
230
1.0
 70
     8
 71
     3
 72
    16
 73
    12
 74
     0
 42
0.000000001
 43
0.0000000001
 40
0.0
 40
0.0
 40
0.0
 40
0.0
 40
0.25
 40
0.25
 40
0.25
 40
0.25
 40
0.5
 40
0.5
 40
0.5
 40
0.5
 40
1.0
 40
1.0
 40
1.0
 40
1.0
 10
1.33993
 20
14.80386
 30
0.0
 10
1.33993
 20
14.80386
 30
0.0
 10
1.33993
 20
12.58013
 30
0.0
 10
1.33993
 20
12.58013
 30
0.0
 10
1.33993
 20
12.58013
 30
0.0
 10
1.33993
 20
12.58013
 30
0.0
 10
0.88993
 20
12.58013
 30
0.0
 10
0.88993
 20
12.58013
 30
0.0
 10
0.88993
 20
12.58013
 30
0.0
 10
0.88993
 20
12.58013
 30
0.0
 10
0.88993
 20
14.78736
 30
0.0
 10
0.88993
 20
14.78736
 30
0.0
  0
SPLINE
  5
96
330
1F
100
AcDbEntity
  8
Layer 1
 62
   240
370
     9
100
AcDbSpline
210
0.0
220
0.0
230
1.0
 70
     8
 71
     3
 72
    16
 73
    12
 74
     0
 42
0.000000001
 43
0.0000000001
 40
0.0
 40
0.0
 40
0.0
 40
0.0
 40
0.25
 40
0.25
 40
0.25
 40
0.25
 40
0.5
 40
0.5
 40
0.5
 40
0.5
 40
1.0
 40
1.0
 40
1.0
 40
1.0
 10
2.53056
 20
14.82039
 30
0.0
 10
2.53056
 20
14.82039
 30
0.0
 10
2.53056
 20
12.65801
 30
0.0
 10
2.53056
 20
12.65801
 30
0.0
 10
2.53056
 20
12.65801
 30
0.0
 10
2.53056
 20
12.65801
 30
0.0
 10
2.08056
 20
12.65801
 30
0.0
 10
2.08056
 20
12.65801
 30
0.0
 10
2.08056
 20
12.65801
 30
0.0
 10
2.08056
 20
12.65801
 30
0.0
 10
2.08056
 20
14.78103
 30
0.0
 10
2.08056
 20
14.78103
 30
0.0
  0
SPLINE
  5
97
330
1F
100
AcDbEntity
  8
Layer 1
 62
   240
370
     9
100
AcDbSpline
210
0.0
220
0.0
230
1.0
 70
     8
 71
     3
 72
    16
 73
    12
 74
     0
 42
0.000000001
 43
0.0000000001
 40
0.0
 40
0.0
 40
0.0
 40
0.0
 40
0.25
 40
0.25
 40
0.25
 40
0.25
 40
0.5
 40
0.5
 40
0.5
 40
0.5
 40
1.0
 40
1.0
 40
1.0
 40
1.0
 10
3.74764
 20
14.77078
 30
0.0
 10
3.74764
 20
14.77078
 30
0.0
 10
3.74764
 20
12.68748
 30
0.0
 10
3.74764
 20
12.68748
 30
0.0
 10
3.74764
 20
12.68748
 30
0.0
 10
3.74764
 20
12.68748
 30
0.0
 10
3.29764
 20
12.68748
 30
0.0
 10
3.29764
 20
12.68748
 30
0.0
 10
3.29764
 20
12.68748
 30
0.0
 10
3.29764
 20
12.68748
 30
0.0
 10
3.29764
 20
14.79393
 30
0.0
 10
3.29764
 20
14.79393
 30
0.0
  0
SPLINE
  5
98
330
1F
100
AcDbEntity
  8
Layer 1
 62
   240
370
     9
100
AcDbSpline
210
0.0
220
0.0
230
1.0
 70
     8
 71
     3
 72
    16
 73
    12
 74
     0
 42
0.000000001
 43
0.0000000001
 40
0.0
 40
0.0
 40
0.0
 40
0.0
 40
0.25
 40
0.25
 40
0.25
 40
0.25
 40
0.5
 40
0.5
 40
0.5
 40
0.5
 40
1.0
 40
1.0
 40
1.0
 40
1.0
 10
4.83243
 20
14.77244
 30
0.0
 10
4.83243
 20
14.77244
 30
0.0
 10
4.83243
 20
12.59084
 30
0.0
 10
4.83243
 20
12.59084
 30
0.0
 10
4.83243
 20
12.59084
 30
0.0
 10
4.83243
 20
12.59084
 30
0.0
 10
4.38243
 20
12.59084
 30
0.0
 10
4.38243
 20
12.59084
 30
0.0
 10
4.38243
 20
12.59084
 30
0.0
 10
4.38243
 20
12.59084
 30
0.0
 10
4.38243
 20
14.74433
 30
0.0
 10
4.38243
 20
14.74433
 30
0.0
  0
SPLINE
  5
99
330
1F
100
AcDbEntity
  8
Layer 1
 62
   240
370
     9
100
AcDbSpline
210
0.0
220
0.0
230
1.0
 70
     8
 71
     3
 72
    16
 73
    12
 74
     0
 42
0.000000001
 43
0.0000000001
 40
0.0
 40
0.0
 40
0.0
 40
0.0
 40
0.25
 40
0.25
 40
0.25
 40
0.25
 40
0.5
 40
0.5
 40
0.5
 40
0.5
 40
1.0
 40
1.0
 40
1.0
 40
1.0
 10
5.94368
 20
14.67485
 30
0.0
 10
5.94368
 20
14.67485
 30
0.0
 10
5.94368
 20
12.39472
 30
0.0
 10
5.94368
 20
12.39472
 30
0.0
 10
5.94368
 20
12.39472
 30
0.0
 10
5.94368
 20
12.39472
 30
0.0
 10
5.49368
 20
12.39472
 30
0.0
 10
5.49368
 20
12.39472
 30
0.0
 10
5.49368
 20
12.39472
 30
0.0
 10
5.49368
 20
12.39472
 30
0.0
 10
5.49368
 20
14.69968
 30
0.0
 10
5.49368
 20
14.69968
 30
0.0
  0
SPLINE
  5
9A
330
1F
100
AcDbEntity
  8
Layer 1
 62
   240
370
     9
100
AcDbSpline
210
0.0
220
0.0
230
1.0
 70
     8
 71
     3
 72
    16
 73
    12
 74
     0
 42
0.000000001
 43
0.0000000001
 40
0.0
 40
0.0
 40
0.0
 40
0.0
 40
0.25
 40
0.25
 40
0.25
 40
0.25
 40
0.5
 40
0.5
 40
0.5
 40
0.5
 40
1.0
 40
1.0
 40
1.0
 40
1.0
 10
-2.03351
 20
14.25489
 30
0.0
 10
-2.03351
 20
14.25489
 30
0.0
 10
-2.03351
 20
11.95306
 30
0.0
 10
-2.03351
 20
11.95306
 30
0.0
 10
-2.03351
 20
11.95306
 30
0.0
 10
-2.03351
 20
11.95306
 30
0.0
 10
-2.48351
 20
11.95306
 30
0.0
 10
-2.48351
 20
11.95306
 30
0.0
 10
-2.48351
 20
11.95306
 30
0.0
 10
-2.48351
 20
11.95306
 30
0.0
 10
-2.48351
 20
14.09944
 30
0.0
 10
-2.48351
 20
14.09944
 30
0.0
  0
SPLINE
  5
9B
330
1F
100
AcDbEntity
  8
Layer 1
 62
   240
370
     9
100
AcDbSpline
210
0.0
220
0.0
230
1.0
 70
     8
 71
     3
 72
    12
 73
     8
 74
     0
 42
0.000000001
 43
0.0000000001
 40
0.0
 40
0.0
 40
0.0
 40
0.0
 40
0.3333333333333333
 40
0.3333333333333333
 40
0.3333333333333333
 40
0.3333333333333333
 40
1.0
 40
1.0
 40
1.0
 40
1.0
 10
-0.22028
 20
14.66831
 30
0.0
 10
-0.22028
 20
14.72379
 30
0.0
 10
-0.22028
 20
14.77928
 30
0.0
 10
-0.23761
 20
14.80423
 30
0.0
 10
-0.23761
 20
14.80423
 30
0.0
 10
-0.25494
 20
14.82919
 30
0.0
 10
-0.28961
 20
14.82363
 30
0.0
 10
-0.32427
 20
14.81806
 30
0.0
  0
SPLINE
  5
9C
330
1F
100
AcDbEntity
  8
Layer 1
 62
   240
370
     9
100
AcDbSpline
210
0.0
220
0.0
230
1.0
 70
     8
 71
     3
 72
    16
 73
    12
 74
     0
 42
0.000000001
 43
0.0000000001
 40
0.0
 40
0.0
 40
0.0
 40
0.0
 40
0.25
 40
0.25
 40
0.25
 40
0.25
 40
0.5
 40
0.5
 40
0.5
 40
0.5
 40
1.0
 40
1.0
 40
1.0
 40
1.0
 10
-2.48351
 20
14.09944
 30
0.0
 10
-2.48351
 20
14.1396
 30
0.0
 10
-2.48351
 20
14.17978
 30
0.0
 10
-2.50143
 20
14.19059
 30
0.0
 10
-2.50143
 20
14.19059
 30
0.0
 10
-2.51936
 20
14.20142
 30
0.0
 10
-2.55519
 20
14.18289
 30
0.0
 10
-2.5715
 20
14.17449
 30
0.0
 10
-2.5715
 20
14.17449
 30
0.0
 10
-2.58783
 20
14.16609
 30
0.0
 10
-2.58461
 20
14.16779
 30
0.0
 10
-2.58141
 20
14.16951
 30
0.0
  0
SPLINE
  5
9D
330
1F
100
AcDbEntity
  8
Layer 1
 62
   240
370
     9
100
AcDbSpline
210
0.0
220
0.0
230
1.0
 70
     8
 71
     3
 72
    12
 73
     8
 74
     0
 42
0.000000001
 43
0.0000000001
 40
0.0
 40
0.0
 40
0.0
 40
0.0
 40
0.3333333333333333
 40
0.3333333333333333
 40
0.3333333333333333
 40
0.3333333333333333
 40
1.0
 40
1.0
 40
1.0
 40
1.0
 10
-2.03272
 20
14.25344
 30
0.0
 10
-2.03272
 20
14.30494
 30
0.0
 10
-2.03272
 20
14.35645
 30
0.0
 10
-2.01663
 20
14.38979
 30
0.0
 10
-2.01663
 20
14.38979
 30
0.0
 10
-2.00055
 20
14.42314
 30
0.0
 10
-1.96836
 20
14.43834
 30
0.0
 10
-1.93619
 20
14.45353
 30
0.0
  0
SPLINE
  5
9E
330
1F
100
AcDbEntity
  8
Layer 1
 62
   240
370
     9
100
AcDbSpline
210
0.0
220
0.0
230
1.0
 70
     8
 71
     3
 72
    12
 73
     8
 74
     0
 42
0.000000001
 43
0.0000000001
 40
0.0
 40
0.0
 40
0.0
 40
0.0
 40
0.3333333333333333
 40
0.3333333333333333
 40
0.3333333333333333
 40
0.3333333333333333
 40
1.0
 40
1.0
 40
1.0
 40
1.0
 10
-1.48701
 20
14.45994
 30
0.0
 10
-1.48701
 20
14.50691
 30
0.0
 10
-1.48701
 20
14.55387
 30
0.0
 10
-1.5025
 20
14.57199
 30
0.0
 10
-1.5025
 20
14.57199
 30
0.0
 10
-1.518
 20
14.59012
 30
0.0
 10
-1.54898
 20
14.57941
 30
0.0
 10
-1.57997
 20
14.56869
 30
0.0
  0
SPLINE
  5
9F
330
1F
100
AcDbEntity
  8
Layer 1
 62
   240
370
     9
100
AcDbSpline
210
0.0
220
0.0
230
1.0
 70
     8
 71
     3
 72
    12
 73
     8
 74
     0
 42
0.000000001
 43
0.0000000001
 40
0.0
 40
0.0
 40
0.0
 40
0.0
 40
0.3333333333333333
 40
0.3333333333333333
 40
0.3333333333333333
 40
0.3333333333333333
 40
1.0
 40
1.0
 40
1.0
 40
1.0
 10
-1.03885
 20
14.52939
 30
0.0
 10
-1.03885
 20
14.58425
 30
0.0
 10
-1.03885
 20
14.6391
 30
0.0
 10
-1.01946
 20
14.67114
 30
0.0
 10
-1.01946
 20
14.67114
 30
0.0
 10
-1.00007
 20
14.70318
 30
0.0
 10
-0.96129
 20
14.7124
 30
0.0
 10
-0.92251
 20
14.72162
 30
0.0
  0
SPLINE
  5
A0
330
1F
100
AcDbEntity
  8
Layer 1
 62
   240
370
     9
100
AcDbSpline
210
0.0
220
0.0
230
1.0
 70
     8
 71
     3
 72
    12
 73
     8
 74
     0
 42
0.000000001
 43
0.0000000001
 40
0.0
 40
0.0
 40
0.0
 40
0.0
 40
0.3333333333333333
 40
0.3333333333333333
 40
0.3333333333333333
 40
0.3333333333333333
 40
1.0
 40
1.0
 40
1.0
 40
1.0
 10
0.23035
 20
14.72452
 30
0.0
 10
0.23035
 20
14.77622
 30
0.0
 10
0.23035
 20
14.82792
 30
0.0
 10
0.24924
 20
14.85598
 30
0.0
 10
0.24924
 20
14.85598
 30
0.0
 10
0.26813
 20
14.88405
 30
0.0
 10
0.30592
 20
14.88848
 30
0.0
 10
0.3437
 20
14.89291
 30
0.0
  0
SPLINE
  5
A1
330
1F
100
AcDbEntity
  8
Layer 1
 62
   240
370
     9
100
AcDbSpline
210
0.0
220
0.0
230
1.0
 70
     8
 71
     3
 72
    12
 73
     8
 74
     0
 42
0.000000001
 43
0.0000000001
 40
0.0
 40
0.0
 40
0.0
 40
0.0
 40
0.3333333333333333
 40
0.3333333333333333
 40
0.3333333333333333
 40
0.3333333333333333
 40
1.0
 40
1.0
 40
1.0
 40
1.0
 10
0.8893
 20
14.78736
 30
0.0
 10
0.8893
 20
14.83685
 30
0.0
 10
0.8893
 20
14.88633
 30
0.0
 10
0.87278
 20
14.90975
 30
0.0
 10
0.87278
 20
14.90975
 30
0.0
 10
0.85626
 20
14.93318
 30
0.0
 10
0.82324
 20
14.93055
 30
0.0
 10
0.7902
 20
14.92791
 30
0.0
  0
SPLINE
  5
A2
330
1F
100
AcDbEntity
  8
Layer 1
 62
   240
370
     9
100
AcDbSpline
210
0.0
220
0.0
230
1.0
 70
     8
 71
     3
 72
    12
 73
     8
 74
     0
 42
0.000000001
 43
0.0000000001
 40
0.0
 40
0.0
 40
0.0
 40
0.0
 40
0.3333333333333333
 40
0.3333333333333333
 40
0.3333333333333333
 40
0.3333333333333333
 40
1.0
 40
1.0
 40
1.0
 40
1.0
 10
2.07989
 20
14.78071
 30
0.0
 10
2.07989
 20
14.84592
 30
0.0
 10
2.0799
 20
14.91112
 30
0.0
 10
2.06568
 20
14.9435
 30
0.0
 10
2.06568
 20
14.9435
 30
0.0
 10
2.05145
 20
14.97589
 30
0.0
 10
2.023
 20
14.97544
 30
0.0
 10
1.99455
 20
14.975
 30
0.0
  0
SPLINE
  5
A3
330
1F
100
AcDbEntity
  8
Layer 1
 62
   240
370
     9
100
AcDbSpline
210
0.0
220
0.0
230
1.0
 70
     8
 71
     3
 72
    12
 73
     8
 74
     0
 42
0.000000001
 43
0.0000000001
 40
0.0
 40
0.0
 40
0.0
 40
0.0
 40
0.3333333333333333
 40
0.3333333333333333
 40
0.3333333333333333
 40
0.3333333333333333
 40
1.0
 40
1.0
 40
1.0
 40
1.0
 10
1.34074
 20
14.80386
 30
0.0
 10
1.34074
 20
14.85464
 30
0.0
 10
1.34074
 20
14.90543
 30
0.0
 10
1.36102
 20
14.93177
 30
0.0
 10
1.36102
 20
14.93177
 30
0.0
 10
1.38129
 20
14.95811
 30
0.0
 10
1.42182
 20
14.96001
 30
0.0
 10
1.46237
 20
14.96191
 30
0.0
  0
SPLINE
  5
A4
330
1F
100
AcDbEntity
  8
Layer 1
 62
   240
370
     9
100
AcDbSpline
210
0.0
220
0.0
230
1.0
 70
     8
 71
     3
 72
    12
 73
     8
 74
     0
 42
0.000000001
 43
0.0000000001
 40
0.0
 40
0.0
 40
0.0
 40
0.0
 40
0.3333333333333333
 40
0.3333333333333333
 40
0.3333333333333333
 40
0.3333333333333333
 40
1.0
 40
1.0
 40
1.0
 40
1.0
 10
2.53173
 20
14.82039
 30
0.0
 10
2.53173
 20
14.8727
 30
0.0
 10
2.53173
 20
14.92502
 30
0.0
 10
2.55245
 20
14.95099
 30
0.0
 10
2.55245
 20
14.95099
 30
0.0
 10
2.57317
 20
14.97696
 30
0.0
 10
2.6146
 20
14.97659
 30
0.0
 10
2.65604
 20
14.97622
 30
0.0
  0
SPLINE
  5
A5
330
1F
100
AcDbEntity
  8
Layer 1
 62
   240
370
     9
100
AcDbSpline
210
0.0
220
0.0
230
1.0
 70
     8
 71
     3
 72
    12
 73
     8
 74
     0
 42
0.000000001
 43
0.0000000001
 40
0.0
 40
0.0
 40
0.0
 40
0.0
 40
0.3333333333333333
 40
0.3333333333333333
 40
0.3333333333333333
 40
0.3333333333333333
 40
1.0
 40
1.0
 40
1.0
 40
1.0
 10
3.29734
 20
14.79393
 30
0.0
 10
3.29734
 20
14.85015
 30
0.0
 10
3.29734
 20
14.90636
 30
0.0
 10
3.28413
 20
14.93497
 30
0.0
 10
3.28413
 20
14.93497
 30
0.0
 10
3.27092
 20
14.96358
 30
0.0
 10
3.24451
 20
14.96459
 30
0.0
 10
3.21809
 20
14.96559
 30
0.0
  0
SPLINE
  5
A6
330
1F
100
AcDbEntity
  8
Layer 1
 62
   240
370
     9
100
AcDbSpline
210
0.0
220
0.0
230
1.0
 70
     8
 71
     3
 72
    12
 73
     8
 74
     0
 42
0.000000001
 43
0.0000000001
 40
0.0
 40
0.0
 40
0.0
 40
0.0
 40
0.3333333333333333
 40
0.3333333333333333
 40
0.3333333333333333
 40
0.3333333333333333
 40
1.0
 40
1.0
 40
1.0
 40
1.0
 10
3.74916
 20
14.77078
 30
0.0
 10
3.74916
 20
14.82999
 30
0.0
 10
3.74916
 20
14.88921
 30
0.0
 10
3.76481
 20
14.91797
 30
0.0
 10
3.76481
 20
14.91797
 30
0.0
 10
3.78047
 20
14.94674
 30
0.0
 10
3.81179
 20
14.94507
 30
0.0
 10
3.8431
 20
14.94339
 30
0.0
  0
SPLINE
  5
A7
330
1F
100
AcDbEntity
  8
Layer 1
 62
   240
370
     9
100
AcDbSpline
210
0.0
220
0.0
230
1.0
 70
     8
 71
     3
 72
    12
 73
     8
 74
     0
 42
0.000000001
 43
0.0000000001
 40
0.0
 40
0.0
 40
0.0
 40
0.0
 40
0.3333333333333333
 40
0.3333333333333333
 40
0.3333333333333333
 40
0.3333333333333333
 40
1.0
 40
1.0
 40
1.0
 40
1.0
 10
4.38247
 20
14.74433
 30
0.0
 10
4.38247
 20
14.80144
 30
0.0
 10
4.38247
 20
14.85856
 30
0.0
 10
4.36265
 20
14.88839
 30
0.0
 10
4.36265
 20
14.88839
 30
0.0
 10
4.34284
 20
14.91823
 30
0.0
 10
4.30321
 20
14.92078
 30
0.0
 10
4.26358
 20
14.92334
 30
0.0
  0
SPLINE
  5
A8
330
1F
100
AcDbEntity
  8
Layer 1
 62
   240
370
     9
100
AcDbSpline
210
0.0
220
0.0
230
1.0
 70
     8
 71
     3
 72
    12
 73
     8
 74
     0
 42
0.000000001
 43
0.0000000001
 40
0.0
 40
0.0
 40
0.0
 40
0.0
 40
0.3333333333333333
 40
0.3333333333333333
 40
0.3333333333333333
 40
0.3333333333333333
 40
1.0
 40
1.0
 40
1.0
 40
1.0
 10
4.8314
 20
14.77244
 30
0.0
 10
4.83522
 20
14.81544
 30
0.0
 10
4.83905
 20
14.85843
 30
0.0
 10
4.85244
 20
14.87733
 30
0.0
 10
4.85244
 20
14.87733
 30
0.0
 10
4.86584
 20
14.89624
 30
0.0
 10
4.88882
 20
14.89106
 30
0.0
 10
4.91179
 20
14.88587
 30
0.0
  0
SPLINE
  5
A9
330
1F
100
AcDbEntity
  8
Layer 1
 62
   240
370
     9
100
AcDbSpline
210
0.0
220
0.0
230
1.0
 70
     8
 71
     3
 72
    12
 73
     8
 74
     0
 42
0.000000001
 43
0.0000000001
 40
0.0
 40
0.0
 40
0.0
 40
0.0
 40
0.3333333333333333
 40
0.3333333333333333
 40
0.3333333333333333
 40
0.3333333333333333
 40
1.0
 40
1.0
 40
1.0
 40
1.0
 10
5.49406
 20
14.69968
 30
0.0
 10
5.49406
 20
14.74812
 30
0.0
 10
5.49406
 20
14.79655
 30
0.0
 10
5.48405
 20
14.82176
 30
0.0
 10
5.48405
 20
14.82176
 30
0.0
 10
5.47404
 20
14.84698
 30
0.0
 10
5.45402
 20
14.84898
 30
0.0
 10
5.434
 20
14.85097
 30
0.0
  0
SPLINE
  5
AA
330
1F
100
AcDbEntity
  8
Layer 1
 62
   240
370
     9
100
AcDbSpline
210
0.0
220
0.0
230
1.0
 70
     8
 71
     3
 72
    12
 73
     8
 74
     0
 42
0.000000001
 43
0.0000000001
 40
0.0
 40
0.0
 40
0.0
 40
0.0
 40
0.3333333333333333
 40
0.3333333333333333
 40
0.3333333333333333
 40
0.3333333333333333
 40
1.0
 40
1.0
 40
1.0
 40
1.0
 10
5.94374
 20
14.67485
 30
0.0
 10
5.94374
 20
14.72179
 30
0.0
 10
5.94374
 20
14.76872
 30
0.0
 10
5.95495
 20
14.79102
 30
0.0
 10
5.95495
 20
14.79102
 30
0.0
 10
5.96618
 20
14.81333
 30
0.0
 10
5.9886
 20
14.811
 30
0.0
 10
6.01104
 20
14.80867
 30
0.0
  0
SPLINE
  5
AB
330
1F
100
AcDbEntity
  8
Layer 1
 62
   240
370
     9
100
AcDbSpline
210
0.0
220
0.0
230
1.0
 70
     8
 71
     3
 72
    16
 73
    12
 74
     0
 42
0.000000001
 43
0.0000000001
 40
0.0
 40
0.0
 40
0.0
 40
0.0
 40
0.25
 40
0.25
 40
0.25
 40
0.25
 40
0.5
 40
0.5
 40
0.5
 40
0.5
 40
1.0
 40
1.0
 40
1.0
 40
1.0
 10
-1.76692
 20
9.06331
 30
0.0
 10
-1.76692
 20
9.06331
 30
0.0
 10
-1.76692
 20
8.76331
 30
0.0
 10
-1.76692
 20
8.76331
 30
0.0
 10
-1.76692
 20
8.76331
 30
0.0
 10
-1.76692
 20
8.76331
 30
0.0
 10
-2.56692
 20
8.76331
 30
0.0
 10
-2.56692
 20
8.76331
 30
0.0
 10
-2.56692
 20
8.76331
 30
0.0
 10
-2.56692
 20
8.76331
 30
0.0
 10
-2.56692
 20
9.06331
 30
0.0
 10
-2.56692
 20
9.06331
 30
0.0
  0
SPLINE
  5
AC
330
1F
100
AcDbEntity
  8
Layer 1
 62
   240
370
     9
100
AcDbSpline
210
0.0
220
0.0
230
1.0
 70
     8
 71
     3
 72
    16
 73
    12
 74
     0
 42
0.000000001
 43
0.0000000001
 40
0.0
 40
0.0
 40
0.0
 40
0.0
 40
0.25
 40
0.25
 40
0.25
 40
0.25
 40
0.5
 40
0.5
 40
0.5
 40
0.5
 40
1.0
 40
1.0
 40
1.0
 40
1.0
 10
6.6898
 20
9.05615
 30
0.0
 10
6.6898
 20
9.05615
 30
0.0
 10
6.6898
 20
8.76611
 30
0.0
 10
6.6898
 20
8.76611
 30
0.0
 10
6.6898
 20
8.76611
 30
0.0
 10
6.6898
 20
8.76611
 30
0.0
 10
5.8898
 20
8.76611
 30
0.0
 10
5.8898
 20
8.76611
 30
0.0
 10
5.8898
 20
8.76611
 30
0.0
 10
5.8898
 20
8.76611
 30
0.0
 10
5.8898
 20
9.05615
 30
0.0
 10
5.8898
 20
9.05615
 30
0.0
  0
SPLINE
  5
AD
330
1F
100
AcDbEntity
  8
Layer 1
 62
   240
370
     9
100
AcDbSpline
210
0.0
220
0.0
230
1.0
 70
    11
 71
     3
 72
    20
 73
    16
 74
     0
 42
0.000000001
 43
0.0000000001
 40
0.0
 40
0.0
 40
0.0
 40
0.0
 40
0.2
 40
0.2
 40
0.2
 40
0.2
 40
0.4
 40
0.4
 40
0.4
 40
0.4
 40
0.6
 40
0.6
 40
0.6
 40
0.6
 40
1.0
 40
1.0
 40
1.0
 40
1.0
 10
-6.1084
 20
10.41004
 30
0.0
 10
-6.1084
 20
10.41004
 30
0.0
 10
-5.3084
 20
10.41004
 30
0.0
 10
-5.3084
 20
10.41004
 30
0.0
 10
-5.3084
 20
10.41004
 30
0.0
 10
-5.3084
 20
10.41004
 30
0.0
 10
-5.3084
 20
10.11004
 30
0.0
 10
-5.3084
 20
10.11004
 30
0.0
 10
-5.3084
 20
10.11004
 30
0.0
 10
-5.3084
 20
10.11004
 30
0.0
 10
-6.1084
 20
10.11004
 30
0.0
 10
-6.1084
 20
10.11004
 30
0.0
 10
-6.1084
 20
10.11004
 30
0.0
 10
-6.1084
 20
10.11004
 30
0.0
 10
-6.1084
 20
10.41004
 30
0.0
 10
-6.1084
 20
10.41004
 30
0.0
  0
SPLINE
  5
AE
330
1F
100
AcDbEntity
  8
Layer 1
 62
   240
370
     9
100
AcDbSpline
210
0.0
220
0.0
230
1.0
 70
     8
 71
     3
 72
    20
 73
    16
 74
     0
 42
0.000000001
 43
0.0000000001
 40
0.0
 40
0.0
 40
0.0
 40
0.0
 40
0.2
 40
0.2
 40
0.2
 40
0.2
 40
0.4
 40
0.4
 40
0.4
 40
0.4
 40
0.6
 40
0.6
 40
0.6
 40
0.6
 40
1.0
 40
1.0
 40
1.0
 40
1.0
 10
-5.3785
 20
11.42138
 30
0.0
 10
-4.73972
 20
11.33567
 30
0.0
 10
-4.26644
 20
11.0248
 30
0.0
 10
-4.26644
 20
10.65445
 30
0.0
 10
-4.26644
 20
10.65445
 30
0.0
 10
-4.26644
 20
10.21794
 30
0.0
 10
-4.92388
 20
9.86408
 30
0.0
 10
-5.73487
 20
9.86408
 30
0.0
 10
-5.73487
 20
9.86408
 30
0.0
 10
-6.54586
 20
9.86408
 30
0.0
 10
-7.2033
 20
10.21794
 30
0.0
 10
-7.2033
 20
10.65445
 30
0.0
 10
-7.2033
 20
10.65445
 30
0.0
 10
-7.2033
 20
10.99309
 30
0.0
 10
-6.80761
 20
11.282
 30
0.0
 10
-6.2515
 20
11.39451
 30
0.0
  0
SPLINE
  5
AF
330
1F
100
AcDbEntity
  8
Layer 1
 62
   240
370
     9
100
AcDbSpline
210
0.0
220
0.0
230
1.0
 70
    11
 71
     3
 72
    20
 73
    16
 74
     0
 42
0.000000001
 43
0.0000000001
 40
0.0
 40
0.0
 40
0.0
 40
0.0
 40
0.2
 40
0.2
 40
0.2
 40
0.2
 40
0.4
 40
0.4
 40
0.4
 40
0.4
 40
0.6
 40
0.6
 40
0.6
 40
0.6
 40
1.0
 40
1.0
 40
1.0
 40
1.0
 10
-6.14767
 20
14.01377
 30
0.0
 10
-6.14767
 20
14.01377
 30
0.0
 10
-5.34767
 20
14.01377
 30
0.0
 10
-5.34767
 20
14.01377
 30
0.0
 10
-5.34767
 20
14.01377
 30
0.0
 10
-5.34767
 20
14.01377
 30
0.0
 10
-5.34767
 20
13.71377
 30
0.0
 10
-5.34767
 20
13.71377
 30
0.0
 10
-5.34767
 20
13.71377
 30
0.0
 10
-5.34767
 20
13.71377
 30
0.0
 10
-6.14767
 20
13.71377
 30
0.0
 10
-6.14767
 20
13.71377
 30
0.0
 10
-6.14767
 20
13.71377
 30
0.0
 10
-6.14767
 20
13.71377
 30
0.0
 10
-6.14767
 20
14.01377
 30
0.0
 10
-6.14767
 20
14.01377
 30
0.0
  0
SPLINE
  5
B0
330
1F
100
AcDbEntity
  8
Layer 1
 62
   240
370
     9
100
AcDbSpline
210
0.0
220
0.0
230
1.0
 70
     8
 71
     3
 72
    20
 73
    16
 74
     0
 42
0.000000001
 43
0.0000000001
 40
0.0
 40
0.0
 40
0.0
 40
0.0
 40
0.2
 40
0.2
 40
0.2
 40
0.2
 40
0.4
 40
0.4
 40
0.4
 40
0.4
 40
0.6
 40
0.6
 40
0.6
 40
0.6
 40
1.0
 40
1.0
 40
1.0
 40
1.0
 10
-6.38614
 20
12.83442
 30
0.0
 10
-6.89157
 20
12.95756
 30
0.0
 10
-7.24257
 20
13.22855
 30
0.0
 10
-7.24257
 20
13.54303
 30
0.0
 10
-7.24257
 20
13.54303
 30
0.0
 10
-7.24257
 20
13.97342
 30
0.0
 10
-6.58513
 20
14.32232
 30
0.0
 10
-5.77414
 20
14.32232
 30
0.0
 10
-5.77414
 20
14.32232
 30
0.0
 10
-4.96315
 20
14.32232
 30
0.0
 10
-4.30571
 20
13.97342
 30
0.0
 10
-4.30571
 20
13.54303
 30
0.0
 10
-4.30571
 20
13.54303
 30
0.0
 10
-4.30571
 20
13.19893
 30
0.0
 10
-4.72594
 20
12.90691
 30
0.0
 10
-5.30889
 20
12.80366
 30
0.0
  0
SPLINE
  5
B1
330
1F
100
AcDbEntity
  8
Layer 1
 62
   240
370
     9
100
AcDbSpline
210
0.0
220
0.0
230
1.0
 70
     8
 71
     3
 72
    12
 73
     8
 74
     0
 42
0.000000001
 43
0.0000000001
 40
0.0
 40
0.0
 40
0.0
 40
0.0
 40
0.3333333333333333
 40
0.3333333333333333
 40
0.3333333333333333
 40
0.3333333333333333
 40
1.0
 40
1.0
 40
1.0
 40
1.0
 10
-6.38614
 20
12.84936
 30
0.0
 10
-6.16121
 20
12.55366
 30
0.0
 10
-5.93627
 20
12.25797
 30
0.0
 10
-5.91383
 20
12.01341
 30
0.0
 10
-5.91383
 20
12.01341
 30
0.0
 10
-5.89139
 20
11.76886
 30
0.0
 10
-6.07145
 20
11.57544
 30
0.0
 10
-6.2515
 20
11.38203
 30
0.0
  0
SPLINE
  5
B2
330
1F
100
AcDbEntity
  8
Layer 1
 62
   240
370
     9
100
AcDbSpline
210
0.0
220
0.0
230
1.0
 70
     8
 71
     3
 72
    12
 73
     8
 74
     0
 42
0.000000001
 43
0.0000000001
 40
0.0
 40
0.0
 40
0.0
 40
0.0
 40
0.3333333333333333
 40
0.3333333333333333
 40
0.3333333333333333
 40
0.3333333333333333
 40
1.0
 40
1.0
 40
1.0
 40
1.0
 10
-5.30889
 20
12.80366
 30
0.0
 10
-5.43128
 20
12.55259
 30
0.0
 10
-5.55367
 20
12.30152
 30
0.0
 10
-5.56527
 20
12.07114
 30
0.0
 10
-5.56527
 20
12.07114
 30
0.0
 10
-5.57687
 20
11.84077
 30
0.0
 10
-5.47769
 20
11.63107
 30
0.0
 10
-5.3785
 20
11.42138
 30
0.0
  0
SPLINE
  5
B3
330
1F
100
AcDbEntity
  8
Layer 1
 62
   240
370
     9
100
AcDbSpline
210
0.0
220
0.0
230
1.0
 70
    24
 71
     3
 72
     8
 73
     4
 74
     0
 42
0.000000001
 43
0.0000000001
 40
0.0
 40
0.0
 40
0.0
 40
0.0
 40
1.0
 40
1.0
 40
1.0
 40
1.0
 10
8.9563
 20
22.40846
 30
0.0
 10
8.9563
 20
22.40846
 30
0.0
 10
8.50175
 20
22.5089
 30
0.0
 10
8.50175
 20
22.5089
 30
0.0
  0
SPLINE
  5
B4
330
1F
100
AcDbEntity
  8
Layer 1
 62
   240
370
     9
100
AcDbSpline
210
0.0
220
0.0
230
1.0
 70
    24
 71
     3
 72
     8
 73
     4
 74
     0
 42
0.000000001
 43
0.0000000001
 40
0.0
 40
0.0
 40
0.0
 40
0.0
 40
1.0
 40
1.0
 40
1.0
 40
1.0
 10
6.05628
 20
22.44486
 30
0.0
 10
6.05628
 20
22.44486
 30
0.0
 10
6.38456
 20
22.53208
 30
0.0
 10
6.38456
 20
22.53208
 30
0.0
  0
SPLINE
  5
B5
330
1F
100
AcDbEntity
  8
Layer 1
 62
   240
370
     9
100
AcDbSpline
210
0.0
220
0.0
230
1.0
 70
     8
 71
     3
 72
    16
 73
    12
 74
     0
 42
0.000000001
 43
0.0000000001
 40
0.0
 40
0.0
 40
0.0
 40
0.0
 40
0.25
 40
0.25
 40
0.25
 40
0.25
 40
0.5
 40
0.5
 40
0.5
 40
0.5
 40
1.0
 40
1.0
 40
1.0
 40
1.0
 10
9.1563
 20
22.39846
 30
0.0
 10
9.1563
 20
22.39846
 30
0.0
 10
9.1563
 20
23.39167
 30
0.0
 10
9.1563
 20
23.39167
 30
0.0
 10
9.1563
 20
23.39167
 30
0.0
 10
9.1563
 20
23.39167
 30
0.0
 10
9.4563
 20
23.39167
 30
0.0
 10
9.4563
 20
23.39167
 30
0.0
 10
9.4563
 20
23.39167
 30
0.0
 10
9.4563
 20
23.39167
 30
0.0
 10
9.4563
 20
22.71136
 30
0.0
 10
9.4563
 20
22.71136
 30
0.0
  0
SPLINE
  5
B6
330
1F
100
AcDbEntity
  8
Layer 1
 62
   240
370
     9
100
AcDbSpline
210
0.0
220
0.0
230
1.0
 70
     8
 71
     3
 72
    16
 73
    12
 74
     0
 42
0.000000001
 43
0.0000000001
 40
0.0
 40
0.0
 40
0.0
 40
0.0
 40
0.25
 40
0.25
 40
0.25
 40
0.25
 40
0.5
 40
0.5
 40
0.5
 40
0.5
 40
1.0
 40
1.0
 40
1.0
 40
1.0
 10
5.55628
 20
22.51343
 30
0.0
 10
5.55628
 20
22.51343
 30
0.0
 10
5.55628
 20
23.40167
 30
0.0
 10
5.55628
 20
23.40167
 30
0.0
 10
5.55628
 20
23.40167
 30
0.0
 10
5.55628
 20
23.40167
 30
0.0
 10
5.85628
 20
23.40167
 30
0.0
 10
5.85628
 20
23.40167
 30
0.0
 10
5.85628
 20
23.40167
 30
0.0
 10
5.85628
 20
23.40167
 30
0.0
 10
5.85628
 20
22.44486
 30
0.0
 10
5.85628
 20
22.44486
 30
0.0
  0
SPLINE
  5
B7
330
1F
100
AcDbEntity
  8
Layer 1
 62
   240
370
     9
100
AcDbSpline
210
0.0
220
0.0
230
1.0
 70
     8
 71
     3
 72
    24
 73
    20
 74
     0
 42
0.000000001
 43
0.0000000001
 40
0.0
 40
0.0
 40
0.0
 40
0.0
 40
0.1666666666666667
 40
0.1666666666666667
 40
0.1666666666666667
 40
0.1666666666666667
 40
0.3333333333333333
 40
0.3333333333333333
 40
0.3333333333333333
 40
0.3333333333333333
 40
0.5
 40
0.5
 40
0.5
 40
0.5
 40
0.6666666666666666
 40
0.6666666666666666
 40
0.6666666666666666
 40
0.6666666666666666
 40
1.0
 40
1.0
 40
1.0
 40
1.0
 10
8.5185
 20
22.50455
 30
0.0
 10
8.5185
 20
22.50455
 30
0.0
 10
8.30078
 20
22.56121
 30
0.0
 10
8.30078
 20
22.56121
 30
0.0
 10
8.30078
 20
22.56121
 30
0.0
 10
8.30078
 20
22.56121
 30
0.0
 10
7.9318
 20
22.10423
 30
0.0
 10
7.9318
 20
22.10423
 30
0.0
 10
7.9318
 20
22.10423
 30
0.0
 10
7.9318
 20
22.10423
 30
0.0
 10
7.27136
 20
22.45902
 30
0.0
 10
7.27136
 20
22.45902
 30
0.0
 10
7.27136
 20
22.45902
 30
0.0
 10
7.27136
 20
22.45902
 30
0.0
 10
6.694
 20
22.14885
 30
0.0
 10
6.694
 20
22.14885
 30
0.0
 10
6.694
 20
22.14885
 30
0.0
 10
6.694
 20
22.14885
 30
0.0
 10
6.38456
 20
22.53208
 30
0.0
 10
6.38456
 20
22.53208
 30
0.0
  0
SPLINE
  5
B8
330
1F
100
AcDbEntity
  8
Layer 1
 62
   240
370
     9
100
AcDbSpline
210
0.0
220
0.0
230
1.0
 70
     8
 71
     3
 72
   116
 73
   112
 74
     0
 42
0.000000001
 43
0.0000000001
 40
0.0
 40
0.0
 40
0.0
 40
0.0
 40
0.0344827586206897
 40
0.0344827586206897
 40
0.0344827586206897
 40
0.0344827586206897
 40
0.0689655172413793
 40
0.0689655172413793
 40
0.0689655172413793
 40
0.0689655172413793
 40
0.103448275862069
 40
0.103448275862069
 40
0.103448275862069
 40
0.103448275862069
 40
0.1379310344827586
 40
0.1379310344827586
 40
0.1379310344827586
 40
0.1379310344827586
 40
0.1724137931034483
 40
0.1724137931034483
 40
0.1724137931034483
 40
0.1724137931034483
 40
0.2068965517241379
 40
0.2068965517241379
 40
0.2068965517241379
 40
0.2068965517241379
 40
0.2413793103448276
 40
0.2413793103448276
 40
0.2413793103448276
 40
0.2413793103448276
 40
0.2758620689655172
 40
0.2758620689655172
 40
0.2758620689655172
 40
0.2758620689655172
 40
0.3103448275862069
 40
0.3103448275862069
 40
0.3103448275862069
 40
0.3103448275862069
 40
0.3448275862068966
 40
0.3448275862068966
 40
0.3448275862068966
 40
0.3448275862068966
 40
0.3793103448275862
 40
0.3793103448275862
 40
0.3793103448275862
 40
0.3793103448275862
 40
0.4137931034482759
 40
0.4137931034482759
 40
0.4137931034482759
 40
0.4137931034482759
 40
0.4482758620689655
 40
0.4482758620689655
 40
0.4482758620689655
 40
0.4482758620689655
 40
0.4827586206896552
 40
0.4827586206896552
 40
0.4827586206896552
 40
0.4827586206896552
 40
0.5172413793103449
 40
0.5172413793103449
 40
0.5172413793103449
 40
0.5172413793103449
 40
0.5517241379310345
 40
0.5517241379310345
 40
0.5517241379310345
 40
0.5517241379310345
 40
0.5862068965517241
 40
0.5862068965517241
 40
0.5862068965517241
 40
0.5862068965517241
 40
0.6206896551724138
 40
0.6206896551724138
 40
0.6206896551724138
 40
0.6206896551724138
 40
0.6551724137931034
 40
0.6551724137931034
 40
0.6551724137931034
 40
0.6551724137931034
 40
0.6896551724137931
 40
0.6896551724137931
 40
0.6896551724137931
 40
0.6896551724137931
 40
0.7241379310344828
 40
0.7241379310344828
 40
0.7241379310344828
 40
0.7241379310344828
 40
0.7586206896551724
 40
0.7586206896551724
 40
0.7586206896551724
 40
0.7586206896551724
 40
0.7931034482758621
 40
0.7931034482758621
 40
0.7931034482758621
 40
0.7931034482758621
 40
0.8275862068965517
 40
0.8275862068965517
 40
0.8275862068965517
 40
0.8275862068965517
 40
0.8620689655172413
 40
0.8620689655172413
 40
0.8620689655172413
 40
0.8620689655172413
 40
0.896551724137931
 40
0.896551724137931
 40
0.896551724137931
 40
0.896551724137931
 40
0.9310344827586207
 40
0.9310344827586207
 40
0.9310344827586207
 40
0.9310344827586207
 40
1.0
 40
1.0
 40
1.0
 40
1.0
 10
5.48716
 20
22.78328
 30
0.0
 10
5.48716
 20
22.78328
 30
0.0
 10
4.54423
 20
22.70833
 30
0.0
 10
4.54423
 20
22.70833
 30
0.0
 10
4.54423
 20
22.70833
 30
0.0
 10
4.54423
 20
22.70833
 30
0.0
 10
4.8443
 20
23.07998
 30
0.0
 10
4.8443
 20
23.07998
 30
0.0
 10
4.8443
 20
23.07998
 30
0.0
 10
4.8443
 20
23.07998
 30
0.0
 10
3.89152
 20
23.15571
 30
0.0
 10
3.89152
 20
23.15571
 30
0.0
 10
3.89152
 20
23.15571
 30
0.0
 10
3.89152
 20
23.15571
 30
0.0
 10
4.585
 20
23.52825
 30
0.0
 10
4.585
 20
23.52825
 30
0.0
 10
4.585
 20
23.52825
 30
0.0
 10
4.585
 20
23.52825
 30
0.0
 10
3.6952
 20
23.75982
 30
0.0
 10
3.6952
 20
23.75982
 30
0.0
 10
3.6952
 20
23.75982
 30
0.0
 10
3.6952
 20
23.75982
 30
0.0
 10
4.47307
 20
23.96227
 30
0.0
 10
4.47307
 20
23.96227
 30
0.0
 10
4.47307
 20
23.96227
 30
0.0
 10
4.47307
 20
23.96227
 30
0.0
 10
3.89152
 20
24.27468
 30
0.0
 10
3.89152
 20
24.27468
 30
0.0
 10
3.89152
 20
24.27468
 30
0.0
 10
3.89152
 20
24.27468
 30
0.0
 10
4.91202
 20
24.35579
 30
0.0
 10
4.91202
 20
24.35579
 30
0.0
 10
4.91202
 20
24.35579
 30
0.0
 10
4.91202
 20
24.35579
 30
0.0
 10
4.54421
 20
24.81131
 30
0.0
 10
4.54421
 20
24.81131
 30
0.0
 10
4.54421
 20
24.81131
 30
0.0
 10
4.54421
 20
24.81131
 30
0.0
 10
5.48716
 20
24.73636
 30
0.0
 10
5.48716
 20
24.73636
 30
0.0
 10
5.48716
 20
24.73636
 30
0.0
 10
5.48716
 20
24.73636
 30
0.0
 10
5.48716
 20
25.13186
 30
0.0
 10
5.48716
 20
25.13186
 30
0.0
 10
5.48716
 20
25.13186
 30
0.0
 10
5.48716
 20
25.13186
 30
0.0
 10
6.32501
 20
24.91381
 30
0.0
 10
6.32501
 20
24.91381
 30
0.0
 10
6.32501
 20
24.91381
 30
0.0
 10
6.32501
 20
24.91381
 30
0.0
 10
6.694
 20
25.37079
 30
0.0
 10
6.694
 20
25.37079
 30
0.0
 10
6.694
 20
25.37079
 30
0.0
 10
6.694
 20
25.37079
 30
0.0
 10
7.35443
 20
25.016
 30
0.0
 10
7.35443
 20
25.016
 30
0.0
 10
7.35443
 20
25.016
 30
0.0
 10
7.35443
 20
25.016
 30
0.0
 10
7.9318
 20
25.32617
 30
0.0
 10
7.9318
 20
25.32617
 30
0.0
 10
7.9318
 20
25.32617
 30
0.0
 10
7.9318
 20
25.32617
 30
0.0
 10
8.24124
 20
24.94293
 30
0.0
 10
8.24124
 20
24.94293
 30
0.0
 10
8.24124
 20
24.94293
 30
0.0
 10
8.24124
 20
24.94293
 30
0.0
 10
9.13865
 20
25.17648
 30
0.0
 10
9.13865
 20
25.17648
 30
0.0
 10
9.13865
 20
25.17648
 30
0.0
 10
9.13865
 20
25.17648
 30
0.0
 10
9.13865
 20
24.69174
 30
0.0
 10
9.13865
 20
24.69174
 30
0.0
 10
9.13865
 20
24.69174
 30
0.0
 10
9.13865
 20
24.69174
 30
0.0
 10
10.08159
 20
24.76668
 30
0.0
 10
10.08159
 20
24.76668
 30
0.0
 10
10.08159
 20
24.76668
 30
0.0
 10
10.08159
 20
24.76668
 30
0.0
 10
9.78149
 20
24.39504
 30
0.0
 10
9.78149
 20
24.39504
 30
0.0
 10
9.78149
 20
24.39504
 30
0.0
 10
9.78149
 20
24.39504
 30
0.0
 10
10.73427
 20
24.31931
 30
0.0
 10
10.73427
 20
24.31931
 30
0.0
 10
10.73427
 20
24.31931
 30
0.0
 10
10.73427
 20
24.31931
 30
0.0
 10
10.04079
 20
23.94677
 30
0.0
 10
10.04079
 20
23.94677
 30
0.0
 10
10.04079
 20
23.94677
 30
0.0
 10
10.04079
 20
23.94677
 30
0.0
 10
10.93059
 20
23.7152
 30
0.0
 10
10.93059
 20
23.7152
 30
0.0
 10
10.93059
 20
23.7152
 30
0.0
 10
10.93059
 20
23.7152
 30
0.0
 10
10.15272
 20
23.51275
 30
0.0
 10
10.15272
 20
23.51275
 30
0.0
 10
10.15272
 20
23.51275
 30
0.0
 10
10.15272
 20
23.51275
 30
0.0
 10
10.73427
 20
23.20034
 30
0.0
 10
10.73427
 20
23.20034
 30
0.0
 10
10.73427
 20
23.20034
 30
0.0
 10
10.73427
 20
23.20034
 30
0.0
 10
9.71379
 20
23.11922
 30
0.0
 10
9.71379
 20
23.11922
 30
0.0
 10
9.71379
 20
23.11922
 30
0.0
 10
9.71379
 20
23.11922
 30
0.0
 10
10.08158
 20
22.66371
 30
0.0
 10
10.08158
 20
22.66371
 30
0.0
 10
10.08158
 20
22.66371
 30
0.0
 10
10.08158
 20
22.66371
 30
0.0
 10
9.4563
 20
22.71341
 30
0.0
 10
9.4563
 20
22.71341
 30
0.0
  0
SPLINE
  5
B9
330
1F
100
AcDbEntity
  8
Layer 1
 62
   250
370
     9
100
AcDbSpline
210
0.0
220
0.0
230
1.0
 70
     8
 71
     3
 72
    12
 73
     8
 74
     0
 42
0.000000001
 43
0.0000000001
 40
0.0
 40
0.0
 40
0.0
 40
0.0
 40
0.3333333333333333
 40
0.3333333333333333
 40
0.3333333333333333
 40
0.3333333333333333
 40
1.0
 40
1.0
 40
1.0
 40
1.0
 10
6.46352
 20
16.90638
 30
0.0
 10
6.54555
 20
17.06094
 30
0.0
 10
6.7336
 20
17.16901
 30
0.0
 10
6.95244
 20
17.16901
 30
0.0
 10
6.95244
 20
17.16901
 30
0.0
 10
7.18015
 20
17.16901
 30
0.0
 10
7.3745
 20
17.05202
 30
0.0
 10
7.4508
 20
16.88696
 30
0.0
  0
SPLINE
  5
BA
330
1F
100
AcDbEntity
  8
Layer 1
 62
   240
370
     9
100
AcDbSpline
210
0.0
220
0.0
230
1.0
 70
     8
 71
     3
 72
    16
 73
    12
 74
     0
 42
0.000000001
 43
0.0000000001
 40
0.0
 40
0.0
 40
0.0
 40
0.0
 40
0.25
 40
0.25
 40
0.25
 40
0.25
 40
0.5
 40
0.5
 40
0.5
 40
0.5
 40
1.0
 40
1.0
 40
1.0
 40
1.0
 10
9.04825
 20
18.96067
 30
0.0
 10
9.04825
 20
18.96067
 30
0.0
 10
9.04825
 20
19.75861
 30
0.0
 10
9.04825
 20
19.75861
 30
0.0
 10
9.04825
 20
19.75861
 30
0.0
 10
9.04825
 20
19.75861
 30
0.0
 10
8.72825
 20
19.75861
 30
0.0
 10
8.72825
 20
19.75861
 30
0.0
 10
8.72825
 20
19.75861
 30
0.0
 10
8.72825
 20
19.75861
 30
0.0
 10
8.72825
 20
18.55793
 30
0.0
 10
8.72825
 20
18.55793
 30
0.0
  0
SPLINE
  5
BB
330
1F
100
AcDbEntity
  8
Layer 1
 62
   240
370
     9
100
AcDbSpline
210
0.0
220
0.0
230
1.0
 70
     8
 71
     3
 72
    16
 73
    12
 74
     0
 42
0.000000001
 43
0.0000000001
 40
0.0
 40
0.0
 40
0.0
 40
0.0
 40
0.25
 40
0.25
 40
0.25
 40
0.25
 40
0.5
 40
0.5
 40
0.5
 40
0.5
 40
1.0
 40
1.0
 40
1.0
 40
1.0
 10
5.4282
 20
18.18751
 30
0.0
 10
5.4282
 20
18.18751
 30
0.0
 10
5.4282
 20
19.75861
 30
0.0
 10
5.4282
 20
19.75861
 30
0.0
 10
5.4282
 20
19.75861
 30
0.0
 10
5.4282
 20
19.75861
 30
0.0
 10
5.1082
 20
19.75861
 30
0.0
 10
5.1082
 20
19.75861
 30
0.0
 10
5.1082
 20
19.75861
 30
0.0
 10
5.1082
 20
19.75861
 30
0.0
 10
5.1082
 20
18.76033
 30
0.0
 10
5.1082
 20
18.76033
 30
0.0
  0
SPLINE
  5
BC
330
1F
100
AcDbEntity
  8
Layer 1
 62
   240
370
     9
100
AcDbSpline
210
0.0
220
0.0
230
1.0
 70
     8
 71
     3
 72
    20
 73
    16
 74
     0
 42
0.000000001
 43
0.0000000001
 40
0.0
 40
0.0
 40
0.0
 40
0.0
 40
0.2
 40
0.2
 40
0.2
 40
0.2
 40
0.4
 40
0.4
 40
0.4
 40
0.4
 40
0.6
 40
0.6
 40
0.6
 40
0.6
 40
1.0
 40
1.0
 40
1.0
 40
1.0
 10
7.44608
 20
16.88917
 30
0.0
 10
7.47014
 20
16.83943
 30
0.0
 10
7.48337
 20
16.7852
 30
0.0
 10
7.48337
 20
16.72844
 30
0.0
 10
7.48337
 20
16.72844
 30
0.0
 10
7.48337
 20
16.48733
 30
0.0
 10
7.2447
 20
16.29188
 30
0.0
 10
6.9503
 20
16.29188
 30
0.0
 10
6.9503
 20
16.29188
 30
0.0
 10
6.6559
 20
16.29188
 30
0.0
 10
6.41724
 20
16.48733
 30
0.0
 10
6.41724
 20
16.72844
 30
0.0
 10
6.41724
 20
16.72844
 30
0.0
 10
6.41724
 20
16.79125
 30
0.0
 10
6.43343
 20
16.85096
 30
0.0
 10
6.46259
 20
16.90492
 30
0.0
  0
SPLINE
  5
BD
330
1F
100
AcDbEntity
  8
Layer 1
 62
   240
370
     9
100
AcDbSpline
210
0.0
220
0.0
230
1.0
 70
     8
 71
     3
 72
    12
 73
     8
 74
     0
 42
0.000000001
 43
0.0000000001
 40
0.0
 40
0.0
 40
0.0
 40
0.0
 40
0.3333333333333333
 40
0.3333333333333333
 40
0.3333333333333333
 40
0.3333333333333333
 40
1.0
 40
1.0
 40
1.0
 40
1.0
 10
8.52825
 20
18.27892
 30
0.0
 10
8.19882
 20
17.87578
 30
0.0
 10
7.89447
 20
17.49571
 30
0.0
 10
7.71396
 20
17.26174
 30
0.0
 10
7.71396
 20
17.26174
 30
0.0
 10
7.51014
 20
16.99754
 30
0.0
 10
7.46423
 20
16.91965
 30
0.0
 10
7.45051
 20
16.87968
 30
0.0
  0
SPLINE
  5
BE
330
1F
100
AcDbEntity
  8
Layer 1
 62
   240
370
     9
100
AcDbSpline
210
0.0
220
0.0
230
1.0
 70
     8
 71
     3
 72
    12
 73
     8
 74
     0
 42
0.000000001
 43
0.0000000001
 40
0.0
 40
0.0
 40
0.0
 40
0.0
 40
0.3333333333333333
 40
0.3333333333333333
 40
0.3333333333333333
 40
0.3333333333333333
 40
1.0
 40
1.0
 40
1.0
 40
1.0
 10
9.73249
 20
20.61967
 30
0.0
 10
9.73185
 20
20.36978
 30
0.0
 10
9.70729
 20
20.11811
 30
0.0
 10
9.60724
 20
19.86092
 30
0.0
 10
9.60724
 20
19.86092
 30
0.0
 10
9.49504
 20
19.57251
 30
0.0
 10
9.28786
 20
19.27712
 30
0.0
 10
9.04825
 20
18.96067
 30
0.0
  0
SPLINE
  5
BF
330
1F
100
AcDbEntity
  8
Layer 1
 62
   240
370
     9
100
AcDbSpline
210
0.0
220
0.0
230
1.0
 70
     8
 71
     3
 72
    12
 73
     8
 74
     0
 42
0.000000001
 43
0.0000000001
 40
0.0
 40
0.0
 40
0.0
 40
0.0
 40
0.3333333333333333
 40
0.3333333333333333
 40
0.3333333333333333
 40
0.3333333333333333
 40
1.0
 40
1.0
 40
1.0
 40
1.0
 10
5.62823
 20
17.93664
 30
0.0
 10
5.84104
 20
17.69428
 30
0.0
 10
6.02538
 20
17.48081
 30
0.0
 10
6.15521
 20
17.32588
 30
0.0
 10
6.15521
 20
17.32588
 30
0.0
 10
6.40022
 20
17.03352
 30
0.0
 10
6.45121
 20
16.94965
 30
0.0
 10
6.46384
 20
16.90698
 30
0.0
  0
SPLINE
  5
C0
330
1F
100
AcDbEntity
  8
Layer 1
 62
   240
370
     9
100
AcDbSpline
210
0.0
220
0.0
230
1.0
 70
     8
 71
     3
 72
    12
 73
     8
 74
     0
 42
0.000000001
 43
0.0000000001
 40
0.0
 40
0.0
 40
0.0
 40
0.0
 40
0.3333333333333333
 40
0.3333333333333333
 40
0.3333333333333333
 40
0.3333333333333333
 40
1.0
 40
1.0
 40
1.0
 40
1.0
 10
4.47923
 20
20.59913
 30
0.0
 10
4.45542
 20
20.35686
 30
0.0
 10
4.45426
 20
20.11162
 30
0.0
 10
4.52676
 20
19.85682
 30
0.0
 10
4.52676
 20
19.85682
 30
0.0
 10
4.62412
 20
19.51467
 30
0.0
 10
4.8544
 20
19.15524
 30
0.0
 10
5.1082
 20
18.76033
 30
0.0
  0
SPLINE
  5
C1
330
1F
100
AcDbEntity
  8
Layer 1
 62
   240
370
     9
100
AcDbSpline
210
0.0
220
0.0
230
1.0
 70
     8
 71
     3
 72
    16
 73
    12
 74
     0
 42
0.000000001
 43
0.0000000001
 40
0.0
 40
0.0
 40
0.0
 40
0.0
 40
0.25
 40
0.25
 40
0.25
 40
0.25
 40
0.5
 40
0.5
 40
0.5
 40
0.5
 40
1.0
 40
1.0
 40
1.0
 40
1.0
 10
5.00068
 20
21.14608
 30
0.0
 10
5.69723
 20
21.30933
 30
0.0
 10
6.3938
 20
21.46267
 30
0.0
 10
7.09035
 20
21.47497
 30
0.0
 10
7.09035
 20
21.47497
 30
0.0
 10
7.83953
 20
21.48819
 30
0.0
 10
8.58871
 20
21.33827
 30
0.0
 10
8.95744
 20
21.25889
 30
0.0
 10
8.95744
 20
21.25889
 30
0.0
 10
9.0769
 20
21.23318
 30
0.0
 10
9.15643
 20
21.21487
 30
0.0
 10
9.20896
 20
21.20157
 30
0.0
  0
SPLINE
  5
C2
330
1F
100
AcDbEntity
  8
Layer 1
 62
   240
370
     9
100
AcDbSpline
210
0.0
220
0.0
230
1.0
 70
     8
 71
     3
 72
     8
 73
     4
 74
     0
 42
0.000000001
 43
0.0000000001
 40
0.0
 40
0.0
 40
0.0
 40
0.0
 40
1.0
 40
1.0
 40
1.0
 40
1.0
 10
5.62823
 20
17.93664
 30
0.0
 10
5.56156
 20
18.02026
 30
0.0
 10
5.4949
 20
18.10389
 30
0.0
 10
5.42823
 20
18.18751
 30
0.0
  0
SPLINE
  5
C3
330
1F
100
AcDbEntity
  8
Layer 1
 62
   240
370
     9
100
AcDbSpline
210
0.0
220
0.0
230
1.0
 70
     8
 71
     3
 72
     8
 73
     4
 74
     0
 42
0.000000001
 43
0.0000000001
 40
0.0
 40
0.0
 40
0.0
 40
0.0
 40
1.0
 40
1.0
 40
1.0
 40
1.0
 10
8.52825
 20
18.27892
 30
0.0
 10
8.59492
 20
18.37192
 30
0.0
 10
8.66158
 20
18.46493
 30
0.0
 10
8.72825
 20
18.55793
 30
0.0
  0
SPLINE
  5
C4
330
1F
100
AcDbEntity
  8
Layer 1
 62
   240
370
     9
100
AcDbSpline
210
0.0
220
0.0
230
1.0
 70
     8
 71
     3
 72
    32
 73
    28
 74
     0
 42
0.000000001
 43
0.0000000001
 40
0.0
 40
0.0
 40
0.0
 40
0.0
 40
0.125
 40
0.125
 40
0.125
 40
0.125
 40
0.25
 40
0.25
 40
0.25
 40
0.25
 40
0.375
 40
0.375
 40
0.375
 40
0.375
 40
0.5
 40
0.5
 40
0.5
 40
0.5
 40
0.625
 40
0.625
 40
0.625
 40
0.625
 40
0.75
 40
0.75
 40
0.75
 40
0.75
 40
1.0
 40
1.0
 40
1.0
 40
1.0
 10
5.00068
 20
21.14608
 30
0.0
 10
4.95161
 20
21.30871
 30
0.0
 10
4.89445
 20
21.46907
 30
0.0
 10
4.72016
 20
21.5964
 30
0.0
 10
4.72016
 20
21.5964
 30
0.0
 10
4.53298
 20
21.73315
 30
0.0
 10
4.2107
 20
21.83182
 30
0.0
 10
3.90814
 20
21.84497
 30
0.0
 10
3.90814
 20
21.84497
 30
0.0
 10
3.60557
 20
21.85813
 30
0.0
 10
3.32274
 20
21.78579
 30
0.0
 10
3.1879
 20
21.58845
 30
0.0
 10
3.1879
 20
21.58845
 30
0.0
 10
3.05306
 20
21.39113
 30
0.0
 10
3.06622
 20
21.06885
 30
0.0
 10
3.13528
 20
20.83534
 30
0.0
 10
3.13528
 20
20.83534
 30
0.0
 10
3.20434
 20
20.60185
 30
0.0
 10
3.32932
 20
20.45714
 30
0.0
 10
3.50032
 20
20.41109
 30
0.0
 10
3.50032
 20
20.41109
 30
0.0
 10
3.67133
 20
20.36506
 30
0.0
 10
3.8884
 20
20.41767
 30
0.0
 10
4.06253
 20
20.4666
 30
0.0
 10
4.06253
 20
20.4666
 30
0.0
 10
4.22789
 20
20.51305
 30
0.0
 10
4.35453
 20
20.55618
 30
0.0
 10
4.47923
 20
20.59913
 30
0.0
  0
SPLINE
  5
C5
330
1F
100
AcDbEntity
  8
Layer 1
 62
   240
370
     9
100
AcDbSpline
210
0.0
220
0.0
230
1.0
 70
     8
 71
     3
 72
    32
 73
    28
 74
     0
 42
0.000000001
 43
0.0000000001
 40
0.0
 40
0.0
 40
0.0
 40
0.0
 40
0.125
 40
0.125
 40
0.125
 40
0.125
 40
0.25
 40
0.25
 40
0.25
 40
0.25
 40
0.375
 40
0.375
 40
0.375
 40
0.375
 40
0.5
 40
0.5
 40
0.5
 40
0.5
 40
0.625
 40
0.625
 40
0.625
 40
0.625
 40
0.75
 40
0.75
 40
0.75
 40
0.75
 40
1.0
 40
1.0
 40
1.0
 40
1.0
 10
9.20896
 20
21.20157
 30
0.0
 10
9.25628
 20
21.35348
 30
0.0
 10
9.31679
 20
21.50169
 30
0.0
 10
9.48
 20
21.62092
 30
0.0
 10
9.48
 20
21.62092
 30
0.0
 10
9.66717
 20
21.75767
 30
0.0
 10
9.98946
 20
21.85634
 30
0.0
 10
10.29202
 20
21.86949
 30
0.0
 10
10.29202
 20
21.86949
 30
0.0
 10
10.59459
 20
21.88265
 30
0.0
 10
10.87742
 20
21.81031
 30
0.0
 10
11.01226
 20
21.61297
 30
0.0
 10
11.01226
 20
21.61297
 30
0.0
 10
11.1471
 20
21.41565
 30
0.0
 10
11.13394
 20
21.09337
 30
0.0
 10
11.06488
 20
20.85986
 30
0.0
 10
11.06488
 20
20.85986
 30
0.0
 10
10.99582
 20
20.62637
 30
0.0
 10
10.87084
 20
20.48166
 30
0.0
 10
10.69984
 20
20.43561
 30
0.0
 10
10.69984
 20
20.43561
 30
0.0
 10
10.52883
 20
20.38958
 30
0.0
 10
10.31176
 20
20.44219
 30
0.0
 10
10.13763
 20
20.49112
 30
0.0
 10
10.13763
 20
20.49112
 30
0.0
 10
9.97738
 20
20.53614
 30
0.0
 10
9.85348
 20
20.57803
 30
0.0
 10
9.73249
 20
20.61967
 30
0.0
  0
SPLINE
  5
C6
330
1F
100
AcDbEntity
  8
Layer 1
 62
   240
370
     9
100
AcDbSpline
210
0.0
220
0.0
230
1.0
 70
    24
 71
     3
 72
     8
 73
     4
 74
     0
 42
0.000000001
 43
0.0000000001
 40
0.0
 40
0.0
 40
0.0
 40
0.0
 40
1.0
 40
1.0
 40
1.0
 40
1.0
 10
6.05628
 20
22.44486
 30
0.0
 10
5.98961
 20
22.44486
 30
0.0
 10
5.92295
 20
22.44486
 30
0.0
 10
5.85628
 20
22.44486
 30
0.0
  0
SPLINE
  5
C7
330
1F
100
AcDbEntity
  8
Layer 1
 62
   240
370
     9
100
AcDbSpline
210
0.0
220
0.0
230
1.0
 70
    24
 71
     3
 72
     8
 73
     4
 74
     0
 42
0.000000001
 43
0.0000000001
 40
0.0
 40
0.0
 40
0.0
 40
0.0
 40
1.0
 40
1.0
 40
1.0
 40
1.0
 10
5.55628
 20
22.51343
 30
0.0
 10
5.53324
 20
22.60338
 30
0.0
 10
5.5102
 20
22.69333
 30
0.0
 10
5.48716
 20
22.78328
 30
0.0
  0
SPLINE
  5
C8
330
1F
100
AcDbEntity
  8
Layer 1
 62
   240
370
     9
100
AcDbSpline
210
0.0
220
0.0
230
1.0
 70
    24
 71
     3
 72
     8
 73
     4
 74
     0
 42
0.000000001
 43
0.0000000001
 40
0.0
 40
0.0
 40
0.0
 40
0.0
 40
1.0
 40
1.0
 40
1.0
 40
1.0
 10
8.9563
 20
22.40846
 30
0.0
 10
9.02297
 20
22.40846
 30
0.0
 10
9.08963
 20
22.40846
 30
0.0
 10
9.1563
 20
22.40846
 30
0.0
  0
SPLINE
  5
C9
330
1F
100
AcDbEntity
  8
Layer 1
 62
   250
100
AcDbSpline
210
0.0
220
0.0
230
1.0
 70
    11
 71
     3
 72
   124
 73
   120
 74
     0
 42
0.000000001
 43
0.0000000001
 40
0.0
 40
0.0
 40
0.0
 40
0.0
 40
0.032258064516129
 40
0.032258064516129
 40
0.032258064516129
 40
0.032258064516129
 40
0.0645161290322581
 40
0.0645161290322581
 40
0.0645161290322581
 40
0.0645161290322581
 40
0.0967741935483871
 40
0.0967741935483871
 40
0.0967741935483871
 40
0.0967741935483871
 40
0.1290322580645161
 40
0.1290322580645161
 40
0.1290322580645161
 40
0.1290322580645161
 40
0.1612903225806452
 40
0.1612903225806452
 40
0.1612903225806452
 40
0.1612903225806452
 40
0.1935483870967742
 40
0.1935483870967742
 40
0.1935483870967742
 40
0.1935483870967742
 40
0.2258064516129032
 40
0.2258064516129032
 40
0.2258064516129032
 40
0.2258064516129032
 40
0.2580645161290323
 40
0.2580645161290323
 40
0.2580645161290323
 40
0.2580645161290323
 40
0.2903225806451613
 40
0.2903225806451613
 40
0.2903225806451613
 40
0.2903225806451613
 40
0.3225806451612903
 40
0.3225806451612903
 40
0.3225806451612903
 40
0.3225806451612903
 40
0.3548387096774194
 40
0.3548387096774194
 40
0.3548387096774194
 40
0.3548387096774194
 40
0.3870967741935484
 40
0.3870967741935484
 40
0.3870967741935484
 40
0.3870967741935484
 40
0.4193548387096774
 40
0.4193548387096774
 40
0.4193548387096774
 40
0.4193548387096774
 40
0.4516129032258064
 40
0.4516129032258064
 40
0.4516129032258064
 40
0.4516129032258064
 40
0.4838709677419355
 40
0.4838709677419355
 40
0.4838709677419355
 40
0.4838709677419355
 40
0.5161290322580645
 40
0.5161290322580645
 40
0.5161290322580645
 40
0.5161290322580645
 40
0.5483870967741935
 40
0.5483870967741935
 40
0.5483870967741935
 40
0.5483870967741935
 40
0.5806451612903226
 40
0.5806451612903226
 40
0.5806451612903226
 40
0.5806451612903226
 40
0.6129032258064516
 40
0.6129032258064516
 40
0.6129032258064516
 40
0.6129032258064516
 40
0.6451612903225806
 40
0.6451612903225806
 40
0.6451612903225806
 40
0.6451612903225806
 40
0.6774193548387096
 40
0.6774193548387096
 40
0.6774193548387096
 40
0.6774193548387096
 40
0.7096774193548387
 40
0.7096774193548387
 40
0.7096774193548387
 40
0.7096774193548387
 40
0.7419354838709677
 40
0.7419354838709677
 40
0.7419354838709677
 40
0.7419354838709677
 40
0.7741935483870968
 40
0.7741935483870968
 40
0.7741935483870968
 40
0.7741935483870968
 40
0.8064516129032258
 40
0.8064516129032258
 40
0.8064516129032258
 40
0.8064516129032258
 40
0.8387096774193549
 40
0.8387096774193549
 40
0.8387096774193549
 40
0.8387096774193549
 40
0.8709677419354839
 40
0.8709677419354839
 40
0.8709677419354839
 40
0.8709677419354839
 40
0.9032258064516129
 40
0.9032258064516129
 40
0.9032258064516129
 40
0.9032258064516129
 40
0.9354838709677419
 40
0.9354838709677419
 40
0.9354838709677419
 40
0.9354838709677419
 40
1.0
 40
1.0
 40
1.0
 40
1.0
 10
-4.56557
 20
5.53909
 30
0.0
 10
-4.56557
 20
5.53909
 30
0.0
 10
-4.41035
 20
5.56025
 30
0.0
 10
-4.41035
 20
5.56025
 30
0.0
 10
-4.41035
 20
5.56025
 30
0.0
 10
-4.39241
 20
5.47206
 30
0.0
 10
-4.36243
 20
5.40856
 30
0.0
 10
-4.3198
 20
5.36975
 30
0.0
 10
-4.3198
 20
5.36975
 30
0.0
 10
-4.27717
 20
5.33095
 30
0.0
 10
-4.22484
 20
5.31155
 30
0.0
 10
-4.16281
 20
5.31155
 30
0.0
 10
-4.16281
 20
5.31155
 30
0.0
 10
-4.08932
 20
5.31155
 30
0.0
 10
-4.02729
 20
5.33683
 30
0.0
 10
-3.97731
 20
5.38739
 30
0.0
 10
-3.97731
 20
5.38739
 30
0.0
 10
-3.92734
 20
5.43796
 30
0.0
 10
-3.90235
 20
5.50058
 30
0.0
 10
-3.90235
 20
5.57525
 30
0.0
 10
-3.90235
 20
5.57525
 30
0.0
 10
-3.90235
 20
5.64639
 30
0.0
 10
-3.92557
 20
5.70519
 30
0.0
 10
-3.97232
 20
5.75163
 30
0.0
 10
-3.97232
 20
5.75163
 30
0.0
 10
-4.01876
 20
5.79779
 30
0.0
 10
-4.07785
 20
5.82101
 30
0.0
 10
-4.14988
 20
5.82101
 30
0.0
 10
-4.14988
 20
5.82101
 30
0.0
 10
-4.17928
 20
5.82101
 30
0.0
 10
-4.21573
 20
5.81513
 30
0.0
 10
-4.25953
 20
5.80367
 30
0.0
 10
-4.25953
 20
5.80367
 30
0.0
 10
-4.25953
 20
5.80367
 30
0.0
 10
-4.24219
 20
5.93949
 30
0.0
 10
-4.24219
 20
5.93949
 30
0.0
 10
-4.24219
 20
5.93949
 30
0.0
 10
-4.2319
 20
5.93831
 30
0.0
 10
-4.22337
 20
5.93772
 30
0.0
 10
-4.2172
 20
5.93772
 30
0.0
 10
-4.2172
 20
5.93772
 30
0.0
 10
-4.15076
 20
5.93772
 30
0.0
 10
-4.09138
 20
5.95507
 30
0.0
 10
-4.03817
 20
5.98946
 30
0.0
 10
-4.03817
 20
5.98946
 30
0.0
 10
-3.98525
 20
6.02386
 30
0.0
 10
-3.95879
 20
6.07678
 30
0.0
 10
-3.95879
 20
6.14821
 30
0.0
 10
-3.95879
 20
6.14821
 30
0.0
 10
-3.95879
 20
6.20495
 30
0.0
 10
-3.9782
 20
6.25199
 30
0.0
 10
-4.01671
 20
6.28932
 30
0.0
 10
-4.01671
 20
6.28932
 30
0.0
 10
-4.05522
 20
6.32666
 30
0.0
 10
-4.1049
 20
6.34518
 30
0.0
 10
-4.16575
 20
6.34518
 30
0.0
 10
-4.16575
 20
6.34518
 30
0.0
 10
-4.22631
 20
6.34518
 30
0.0
 10
-4.27658
 20
6.32607
 30
0.0
 10
-4.31686
 20
6.28785
 30
0.0
 10
-4.31686
 20
6.28785
 30
0.0
 10
-4.35714
 20
6.24964
 30
0.0
 10
-4.38301
 20
6.19231
 30
0.0
 10
-4.39447
 20
6.11588
 30
0.0
 10
-4.39447
 20
6.11588
 30
0.0
 10
-4.39447
 20
6.11588
 30
0.0
 10
-4.54969
 20
6.1441
 30
0.0
 10
-4.54969
 20
6.1441
 30
0.0
 10
-4.54969
 20
6.1441
 30
0.0
 10
-4.53058
 20
6.24817
 30
0.0
 10
-4.48766
 20
6.32901
 30
0.0
 10
-4.42034
 20
6.38634
 30
0.0
 10
-4.42034
 20
6.38634
 30
0.0
 10
-4.35331
 20
6.44366
 30
0.0
 10
-4.26953
 20
6.47218
 30
0.0
 10
-4.16958
 20
6.47218
 30
0.0
 10
-4.16958
 20
6.47218
 30
0.0
 10
-4.10078
 20
6.47218
 30
0.0
 10
-4.03728
 20
6.45748
 30
0.0
 10
-3.97937
 20
6.42779
 30
0.0
 10
-3.97937
 20
6.42779
 30
0.0
 10
-3.92116
 20
6.39839
 30
0.0
 10
-3.87677
 20
6.35812
 30
0.0
 10
-3.8462
 20
6.30726
 30
0.0
 10
-3.8462
 20
6.30726
 30
0.0
 10
-3.81533
 20
6.2561
 30
0.0
 10
-3.80004
 20
6.20201
 30
0.0
 10
-3.80004
 20
6.14469
 30
0.0
 10
-3.80004
 20
6.14469
 30
0.0
 10
-3.80004
 20
6.0903
 30
0.0
 10
-3.81474
 20
6.04091
 30
0.0
 10
-3.84385
 20
5.99623
 30
0.0
 10
-3.84385
 20
5.99623
 30
0.0
 10
-3.87324
 20
5.95154
 30
0.0
 10
-3.91675
 20
5.91597
 30
0.0
 10
-3.97408
 20
5.88951
 30
0.0
 10
-3.97408
 20
5.88951
 30
0.0
 10
-3.89941
 20
5.87246
 30
0.0
 10
-3.84149
 20
5.83659
 30
0.0
 10
-3.80004
 20
5.78221
 30
0.0
 10
-3.80004
 20
5.78221
 30
0.0
 10
-3.75889
 20
5.72812
 30
0.0
 10
-3.73831
 20
5.65991
 30
0.0
 10
-3.73831
 20
5.57848
 30
0.0
 10
-3.73831
 20
5.57848
 30
0.0
 10
-3.73831
 20
5.46824
 30
0.0
 10
-3.77858
 20
5.37446
 30
0.0
 10
-3.85884
 20
5.29773
 30
0.0
 10
-3.85884
 20
5.29773
 30
0.0
 10
-3.93939
 20
5.221
 30
0.0
 10
-4.04111
 20
5.18278
 30
0.0
 10
-4.16399
 20
5.18278
 30
0.0
 10
-4.16399
 20
5.18278
 30
0.0
 10
-4.27482
 20
5.18278
 30
0.0
 10
-4.36684
 20
5.216
 30
0.0
 10
-4.44004
 20
5.28215
 30
0.0
 10
-4.44004
 20
5.28215
 30
0.0
 10
-4.51353
 20
5.34829
 30
0.0
 10
-4.55528
 20
5.43384
 30
0.0
 10
-4.56557
 20
5.53909
 30
0.0
  0
SPLINE
  5
CA
330
1F
100
AcDbEntity
  8
Layer 1
 62
   250
100
AcDbSpline
210
0.0
220
0.0
230
1.0
 70
    11
 71
     3
 72
   116
 73
   112
 74
     0
 42
0.000000001
 43
0.0000000001
 40
0.0
 40
0.0
 40
0.0
 40
0.0
 40
0.0344827586206897
 40
0.0344827586206897
 40
0.0344827586206897
 40
0.0344827586206897
 40
0.0689655172413793
 40
0.0689655172413793
 40
0.0689655172413793
 40
0.0689655172413793
 40
0.103448275862069
 40
0.103448275862069
 40
0.103448275862069
 40
0.103448275862069
 40
0.1379310344827586
 40
0.1379310344827586
 40
0.1379310344827586
 40
0.1379310344827586
 40
0.1724137931034483
 40
0.1724137931034483
 40
0.1724137931034483
 40
0.1724137931034483
 40
0.2068965517241379
 40
0.2068965517241379
 40
0.2068965517241379
 40
0.2068965517241379
 40
0.2413793103448276
 40
0.2413793103448276
 40
0.2413793103448276
 40
0.2413793103448276
 40
0.2758620689655172
 40
0.2758620689655172
 40
0.2758620689655172
 40
0.2758620689655172
 40
0.3103448275862069
 40
0.3103448275862069
 40
0.3103448275862069
 40
0.3103448275862069
 40
0.3448275862068966
 40
0.3448275862068966
 40
0.3448275862068966
 40
0.3448275862068966
 40
0.3793103448275862
 40
0.3793103448275862
 40
0.3793103448275862
 40
0.3793103448275862
 40
0.4137931034482759
 40
0.4137931034482759
 40
0.4137931034482759
 40
0.4137931034482759
 40
0.4482758620689655
 40
0.4482758620689655
 40
0.4482758620689655
 40
0.4482758620689655
 40
0.4827586206896552
 40
0.4827586206896552
 40
0.4827586206896552
 40
0.4827586206896552
 40
0.5172413793103449
 40
0.5172413793103449
 40
0.5172413793103449
 40
0.5172413793103449
 40
0.5517241379310345
 40
0.5517241379310345
 40
0.5517241379310345
 40
0.5517241379310345
 40
0.5862068965517241
 40
0.5862068965517241
 40
0.5862068965517241
 40
0.5862068965517241
 40
0.6206896551724138
 40
0.6206896551724138
 40
0.6206896551724138
 40
0.6206896551724138
 40
0.6551724137931034
 40
0.6551724137931034
 40
0.6551724137931034
 40
0.6551724137931034
 40
0.6896551724137931
 40
0.6896551724137931
 40
0.6896551724137931
 40
0.6896551724137931
 40
0.7241379310344828
 40
0.7241379310344828
 40
0.7241379310344828
 40
0.7241379310344828
 40
0.7586206896551724
 40
0.7586206896551724
 40
0.7586206896551724
 40
0.7586206896551724
 40
0.7931034482758621
 40
0.7931034482758621
 40
0.7931034482758621
 40
0.7931034482758621
 40
0.8275862068965517
 40
0.8275862068965517
 40
0.8275862068965517
 40
0.8275862068965517
 40
0.8620689655172413
 40
0.8620689655172413
 40
0.8620689655172413
 40
0.8620689655172413
 40
0.896551724137931
 40
0.896551724137931
 40
0.896551724137931
 40
0.896551724137931
 40
0.9310344827586207
 40
0.9310344827586207
 40
0.9310344827586207
 40
0.9310344827586207
 40
1.0
 40
1.0
 40
1.0
 40
1.0
 10
-3.05216
 20
5.20395
 30
0.0
 10
-3.05216
 20
5.20395
 30
0.0
 10
-3.05216
 20
6.1194
 30
0.0
 10
-3.05216
 20
6.1194
 30
0.0
 10
-3.05216
 20
6.1194
 30
0.0
 10
-3.05216
 20
6.1194
 30
0.0
 10
-2.91282
 20
6.1194
 30
0.0
 10
-2.91282
 20
6.1194
 30
0.0
 10
-2.91282
 20
6.1194
 30
0.0
 10
-2.91282
 20
6.1194
 30
0.0
 10
-2.91282
 20
5.99005
 30
0.0
 10
-2.91282
 20
5.99005
 30
0.0
 10
-2.91282
 20
5.99005
 30
0.0
 10
-2.8843
 20
6.03474
 30
0.0
 10
-2.84608
 20
6.0709
 30
0.0
 10
-2.79846
 20
6.09794
 30
0.0
 10
-2.79846
 20
6.09794
 30
0.0
 10
-2.75083
 20
6.12528
 30
0.0
 10
-2.69674
 20
6.13881
 30
0.0
 10
-2.63589
 20
6.13881
 30
0.0
 10
-2.63589
 20
6.13881
 30
0.0
 10
-2.56827
 20
6.13881
 30
0.0
 10
-2.51271
 20
6.1247
 30
0.0
 10
-2.4695
 20
6.09677
 30
0.0
 10
-2.4695
 20
6.09677
 30
0.0
 10
-2.42628
 20
6.06855
 30
0.0
 10
-2.39571
 20
6.02945
 30
0.0
 10
-2.37807
 20
5.97888
 30
0.0
 10
-2.37807
 20
5.97888
 30
0.0
 10
-2.30516
 20
6.0856
 30
0.0
 10
-2.21079
 20
6.13881
 30
0.0
 10
-2.09438
 20
6.13881
 30
0.0
 10
-2.09438
 20
6.13881
 30
0.0
 10
-2.00324
 20
6.13881
 30
0.0
 10
-1.93298
 20
6.11382
 30
0.0
 10
-1.88418
 20
6.06355
 30
0.0
 10
-1.88418
 20
6.06355
 30
0.0
 10
-1.83509
 20
6.01328
 30
0.0
 10
-1.81039
 20
5.93596
 30
0.0
 10
-1.81039
 20
5.8316
 30
0.0
 10
-1.81039
 20
5.8316
 30
0.0
 10
-1.81039
 20
5.8316
 30
0.0
 10
-1.81039
 20
5.20395
 30
0.0
 10
-1.81039
 20
5.20395
 30
0.0
 10
-1.81039
 20
5.20395
 30
0.0
 10
-1.81039
 20
5.20395
 30
0.0
 10
-1.96561
 20
5.20395
 30
0.0
 10
-1.96561
 20
5.20395
 30
0.0
 10
-1.96561
 20
5.20395
 30
0.0
 10
-1.96561
 20
5.20395
 30
0.0
 10
-1.96561
 20
5.78015
 30
0.0
 10
-1.96561
 20
5.78015
 30
0.0
 10
-1.96561
 20
5.78015
 30
0.0
 10
-1.96561
 20
5.84189
 30
0.0
 10
-1.97091
 20
5.88657
 30
0.0
 10
-1.9809
 20
5.91391
 30
0.0
 10
-1.9809
 20
5.91391
 30
0.0
 10
-1.9909
 20
5.94125
 30
0.0
 10
-2.00912
 20
5.96301
 30
0.0
 10
-2.03588
 20
5.97976
 30
0.0
 10
-2.03588
 20
5.97976
 30
0.0
 10
-2.06233
 20
5.99652
 30
0.0
 10
-2.0935
 20
6.00475
 30
0.0
 10
-2.12907
 20
6.00475
 30
0.0
 10
-2.12907
 20
6.00475
 30
0.0
 10
-2.19374
 20
6.00475
 30
0.0
 10
-2.24725
 20
5.98329
 30
0.0
 10
-2.28987
 20
5.94066
 30
0.0
 10
-2.28987
 20
5.94066
 30
0.0
 10
-2.3325
 20
5.89774
 30
0.0
 10
-2.35367
 20
5.82925
 30
0.0
 10
-2.35367
 20
5.73517
 30
0.0
 10
-2.35367
 20
5.73517
 30
0.0
 10
-2.35367
 20
5.73517
 30
0.0
 10
-2.35367
 20
5.20395
 30
0.0
 10
-2.35367
 20
5.20395
 30
0.0
 10
-2.35367
 20
5.20395
 30
0.0
 10
-2.35367
 20
5.20395
 30
0.0
 10
-2.50889
 20
5.20395
 30
0.0
 10
-2.50889
 20
5.20395
 30
0.0
 10
-2.50889
 20
5.20395
 30
0.0
 10
-2.50889
 20
5.20395
 30
0.0
 10
-2.50889
 20
5.79808
 30
0.0
 10
-2.50889
 20
5.79808
 30
0.0
 10
-2.50889
 20
5.79808
 30
0.0
 10
-2.50889
 20
5.86687
 30
0.0
 10
-2.52153
 20
5.91862
 30
0.0
 10
-2.54681
 20
5.95301
 30
0.0
 10
-2.54681
 20
5.95301
 30
0.0
 10
-2.57209
 20
5.98741
 30
0.0
 10
-2.61355
 20
6.00475
 30
0.0
 10
-2.67087
 20
6.00475
 30
0.0
 10
-2.67087
 20
6.00475
 30
0.0
 10
-2.71438
 20
6.00475
 30
0.0
 10
-2.75466
 20
5.99329
 30
0.0
 10
-2.7917
 20
5.97036
 30
0.0
 10
-2.7917
 20
5.97036
 30
0.0
 10
-2.82874
 20
5.94743
 30
0.0
 10
-2.85549
 20
5.91391
 30
0.0
 10
-2.87225
 20
5.86952
 30
0.0
 10
-2.87225
 20
5.86952
 30
0.0
 10
-2.88871
 20
5.82542
 30
0.0
 10
-2.89694
 20
5.76163
 30
0.0
 10
-2.89694
 20
5.67843
 30
0.0
 10
-2.89694
 20
5.67843
 30
0.0
 10
-2.89694
 20
5.67843
 30
0.0
 10
-2.89694
 20
5.20395
 30
0.0
 10
-2.89694
 20
5.20395
 30
0.0
 10
-2.89694
 20
5.20395
 30
0.0
 10
-2.89694
 20
5.20395
 30
0.0
 10
-3.05216
 20
5.20395
 30
0.0
 10
-3.05216
 20
5.20395
 30
0.0
  0
SPLINE
  5
CB
330
1F
100
AcDbEntity
  8
Layer 1
 62
   250
100
AcDbSpline
210
0.0
220
0.0
230
1.0
 70
    11
 71
     3
 72
   116
 73
   112
 74
     0
 42
0.000000001
 43
0.0000000001
 40
0.0
 40
0.0
 40
0.0
 40
0.0
 40
0.0344827586206897
 40
0.0344827586206897
 40
0.0344827586206897
 40
0.0344827586206897
 40
0.0689655172413793
 40
0.0689655172413793
 40
0.0689655172413793
 40
0.0689655172413793
 40
0.103448275862069
 40
0.103448275862069
 40
0.103448275862069
 40
0.103448275862069
 40
0.1379310344827586
 40
0.1379310344827586
 40
0.1379310344827586
 40
0.1379310344827586
 40
0.1724137931034483
 40
0.1724137931034483
 40
0.1724137931034483
 40
0.1724137931034483
 40
0.2068965517241379
 40
0.2068965517241379
 40
0.2068965517241379
 40
0.2068965517241379
 40
0.2413793103448276
 40
0.2413793103448276
 40
0.2413793103448276
 40
0.2413793103448276
 40
0.2758620689655172
 40
0.2758620689655172
 40
0.2758620689655172
 40
0.2758620689655172
 40
0.3103448275862069
 40
0.3103448275862069
 40
0.3103448275862069
 40
0.3103448275862069
 40
0.3448275862068966
 40
0.3448275862068966
 40
0.3448275862068966
 40
0.3448275862068966
 40
0.3793103448275862
 40
0.3793103448275862
 40
0.3793103448275862
 40
0.3793103448275862
 40
0.4137931034482759
 40
0.4137931034482759
 40
0.4137931034482759
 40
0.4137931034482759
 40
0.4482758620689655
 40
0.4482758620689655
 40
0.4482758620689655
 40
0.4482758620689655
 40
0.4827586206896552
 40
0.4827586206896552
 40
0.4827586206896552
 40
0.4827586206896552
 40
0.5172413793103449
 40
0.5172413793103449
 40
0.5172413793103449
 40
0.5172413793103449
 40
0.5517241379310345
 40
0.5517241379310345
 40
0.5517241379310345
 40
0.5517241379310345
 40
0.5862068965517241
 40
0.5862068965517241
 40
0.5862068965517241
 40
0.5862068965517241
 40
0.6206896551724138
 40
0.6206896551724138
 40
0.6206896551724138
 40
0.6206896551724138
 40
0.6551724137931034
 40
0.6551724137931034
 40
0.6551724137931034
 40
0.6551724137931034
 40
0.6896551724137931
 40
0.6896551724137931
 40
0.6896551724137931
 40
0.6896551724137931
 40
0.7241379310344828
 40
0.7241379310344828
 40
0.7241379310344828
 40
0.7241379310344828
 40
0.7586206896551724
 40
0.7586206896551724
 40
0.7586206896551724
 40
0.7586206896551724
 40
0.7931034482758621
 40
0.7931034482758621
 40
0.7931034482758621
 40
0.7931034482758621
 40
0.8275862068965517
 40
0.8275862068965517
 40
0.8275862068965517
 40
0.8275862068965517
 40
0.8620689655172413
 40
0.8620689655172413
 40
0.8620689655172413
 40
0.8620689655172413
 40
0.896551724137931
 40
0.896551724137931
 40
0.896551724137931
 40
0.896551724137931
 40
0.9310344827586207
 40
0.9310344827586207
 40
0.9310344827586207
 40
0.9310344827586207
 40
1.0
 40
1.0
 40
1.0
 40
1.0
 10
-1.58285
 20
5.20395
 30
0.0
 10
-1.58285
 20
5.20395
 30
0.0
 10
-1.58285
 20
6.1194
 30
0.0
 10
-1.58285
 20
6.1194
 30
0.0
 10
-1.58285
 20
6.1194
 30
0.0
 10
-1.58285
 20
6.1194
 30
0.0
 10
-1.44351
 20
6.1194
 30
0.0
 10
-1.44351
 20
6.1194
 30
0.0
 10
-1.44351
 20
6.1194
 30
0.0
 10
-1.44351
 20
6.1194
 30
0.0
 10
-1.44351
 20
5.99005
 30
0.0
 10
-1.44351
 20
5.99005
 30
0.0
 10
-1.44351
 20
5.99005
 30
0.0
 10
-1.41499
 20
6.03474
 30
0.0
 10
-1.37677
 20
6.0709
 30
0.0
 10
-1.32915
 20
6.09794
 30
0.0
 10
-1.32915
 20
6.09794
 30
0.0
 10
-1.28152
 20
6.12528
 30
0.0
 10
-1.22743
 20
6.13881
 30
0.0
 10
-1.16658
 20
6.13881
 30
0.0
 10
-1.16658
 20
6.13881
 30
0.0
 10
-1.09896
 20
6.13881
 30
0.0
 10
-1.0434
 20
6.1247
 30
0.0
 10
-1.00019
 20
6.09677
 30
0.0
 10
-1.00019
 20
6.09677
 30
0.0
 10
-0.95697
 20
6.06855
 30
0.0
 10
-0.9264
 20
6.02945
 30
0.0
 10
-0.90876
 20
5.97888
 30
0.0
 10
-0.90876
 20
5.97888
 30
0.0
 10
-0.83585
 20
6.0856
 30
0.0
 10
-0.74148
 20
6.13881
 30
0.0
 10
-0.62507
 20
6.13881
 30
0.0
 10
-0.62507
 20
6.13881
 30
0.0
 10
-0.53393
 20
6.13881
 30
0.0
 10
-0.46367
 20
6.11382
 30
0.0
 10
-0.41487
 20
6.06355
 30
0.0
 10
-0.41487
 20
6.06355
 30
0.0
 10
-0.36578
 20
6.01328
 30
0.0
 10
-0.34108
 20
5.93596
 30
0.0
 10
-0.34108
 20
5.8316
 30
0.0
 10
-0.34108
 20
5.8316
 30
0.0
 10
-0.34108
 20
5.8316
 30
0.0
 10
-0.34108
 20
5.20395
 30
0.0
 10
-0.34108
 20
5.20395
 30
0.0
 10
-0.34108
 20
5.20395
 30
0.0
 10
-0.34108
 20
5.20395
 30
0.0
 10
-0.4963
 20
5.20395
 30
0.0
 10
-0.4963
 20
5.20395
 30
0.0
 10
-0.4963
 20
5.20395
 30
0.0
 10
-0.4963
 20
5.20395
 30
0.0
 10
-0.4963
 20
5.78015
 30
0.0
 10
-0.4963
 20
5.78015
 30
0.0
 10
-0.4963
 20
5.78015
 30
0.0
 10
-0.4963
 20
5.84189
 30
0.0
 10
-0.5016
 20
5.88657
 30
0.0
 10
-0.51159
 20
5.91391
 30
0.0
 10
-0.51159
 20
5.91391
 30
0.0
 10
-0.52159
 20
5.94125
 30
0.0
 10
-0.53981
 20
5.96301
 30
0.0
 10
-0.56657
 20
5.97976
 30
0.0
 10
-0.56657
 20
5.97976
 30
0.0
 10
-0.59302
 20
5.99652
 30
0.0
 10
-0.62419
 20
6.00475
 30
0.0
 10
-0.65976
 20
6.00475
 30
0.0
 10
-0.65976
 20
6.00475
 30
0.0
 10
-0.72443
 20
6.00475
 30
0.0
 10
-0.77794
 20
5.98329
 30
0.0
 10
-0.82056
 20
5.94066
 30
0.0
 10
-0.82056
 20
5.94066
 30
0.0
 10
-0.86319
 20
5.89774
 30
0.0
 10
-0.88436
 20
5.82925
 30
0.0
 10
-0.88436
 20
5.73517
 30
0.0
 10
-0.88436
 20
5.73517
 30
0.0
 10
-0.88436
 20
5.73517
 30
0.0
 10
-0.88436
 20
5.20395
 30
0.0
 10
-0.88436
 20
5.20395
 30
0.0
 10
-0.88436
 20
5.20395
 30
0.0
 10
-0.88436
 20
5.20395
 30
0.0
 10
-1.03958
 20
5.20395
 30
0.0
 10
-1.03958
 20
5.20395
 30
0.0
 10
-1.03958
 20
5.20395
 30
0.0
 10
-1.03958
 20
5.20395
 30
0.0
 10
-1.03958
 20
5.79808
 30
0.0
 10
-1.03958
 20
5.79808
 30
0.0
 10
-1.03958
 20
5.79808
 30
0.0
 10
-1.03958
 20
5.86687
 30
0.0
 10
-1.05222
 20
5.91862
 30
0.0
 10
-1.0775
 20
5.95301
 30
0.0
 10
-1.0775
 20
5.95301
 30
0.0
 10
-1.10278
 20
5.98741
 30
0.0
 10
-1.14424
 20
6.00475
 30
0.0
 10
-1.20156
 20
6.00475
 30
0.0
 10
-1.20156
 20
6.00475
 30
0.0
 10
-1.24507
 20
6.00475
 30
0.0
 10
-1.28535
 20
5.99329
 30
0.0
 10
-1.32239
 20
5.97036
 30
0.0
 10
-1.32239
 20
5.97036
 30
0.0
 10
-1.35943
 20
5.94743
 30
0.0
 10
-1.38618
 20
5.91391
 30
0.0
 10
-1.40294
 20
5.86952
 30
0.0
 10
-1.40294
 20
5.86952
 30
0.0
 10
-1.4194
 20
5.82542
 30
0.0
 10
-1.42763
 20
5.76163
 30
0.0
 10
-1.42763
 20
5.67843
 30
0.0
 10
-1.42763
 20
5.67843
 30
0.0
 10
-1.42763
 20
5.67843
 30
0.0
 10
-1.42763
 20
5.20395
 30
0.0
 10
-1.42763
 20
5.20395
 30
0.0
 10
-1.42763
 20
5.20395
 30
0.0
 10
-1.42763
 20
5.20395
 30
0.0
 10
-1.58285
 20
5.20395
 30
0.0
 10
-1.58285
 20
5.20395
 30
0.0
  0
SPLINE
  5
CC
330
1F
100
AcDbEntity
  8
Layer 1
 62
   250
100
AcDbSpline
210
0.0
220
0.0
230
1.0
 70
    11
 71
     3
 72
    84
 73
    80
 74
     0
 42
0.000000001
 43
0.0000000001
 40
0.0
 40
0.0
 40
0.0
 40
0.0
 40
0.0476190476190476
 40
0.0476190476190476
 40
0.0476190476190476
 40
0.0476190476190476
 40
0.0952380952380952
 40
0.0952380952380952
 40
0.0952380952380952
 40
0.0952380952380952
 40
0.1428571428571428
 40
0.1428571428571428
 40
0.1428571428571428
 40
0.1428571428571428
 40
0.1904761904761905
 40
0.1904761904761905
 40
0.1904761904761905
 40
0.1904761904761905
 40
0.2380952380952381
 40
0.2380952380952381
 40
0.2380952380952381
 40
0.2380952380952381
 40
0.2857142857142857
 40
0.2857142857142857
 40
0.2857142857142857
 40
0.2857142857142857
 40
0.3333333333333333
 40
0.3333333333333333
 40
0.3333333333333333
 40
0.3333333333333333
 40
0.3809523809523809
 40
0.3809523809523809
 40
0.3809523809523809
 40
0.3809523809523809
 40
0.4285714285714285
 40
0.4285714285714285
 40
0.4285714285714285
 40
0.4285714285714285
 40
0.4761904761904762
 40
0.4761904761904762
 40
0.4761904761904762
 40
0.4761904761904762
 40
0.5238095238095238
 40
0.5238095238095238
 40
0.5238095238095238
 40
0.5238095238095238
 40
0.5714285714285714
 40
0.5714285714285714
 40
0.5714285714285714
 40
0.5714285714285714
 40
0.6190476190476191
 40
0.6190476190476191
 40
0.6190476190476191
 40
0.6190476190476191
 40
0.6666666666666666
 40
0.6666666666666666
 40
0.6666666666666666
 40
0.6666666666666666
 40
0.7142857142857143
 40
0.7142857142857143
 40
0.7142857142857143
 40
0.7142857142857143
 40
0.7619047619047619
 40
0.7619047619047619
 40
0.7619047619047619
 40
0.7619047619047619
 40
0.8095238095238095
 40
0.8095238095238095
 40
0.8095238095238095
 40
0.8095238095238095
 40
0.8571428571428571
 40
0.8571428571428571
 40
0.8571428571428571
 40
0.8571428571428571
 40
0.9047619047619048
 40
0.9047619047619048
 40
0.9047619047619048
 40
0.9047619047619048
 40
1.0
 40
1.0
 40
1.0
 40
1.0
 10
0.71342
 20
5.34241
 30
0.0
 10
0.71342
 20
5.34241
 30
0.0
 10
0.73458
 20
5.20542
 30
0.0
 10
0.73458
 20
5.20542
 30
0.0
 10
0.73458
 20
5.20542
 30
0.0
 10
0.69107
 20
5.19631
 30
0.0
 10
0.65198
 20
5.1916
 30
0.0
 10
0.61787
 20
5.1916
 30
0.0
 10
0.61787
 20
5.1916
 30
0.0
 10
0.56172
 20
5.1916
 30
0.0
 10
0.51821
 20
5.20042
 30
0.0
 10
0.48705
 20
5.21836
 30
0.0
 10
0.48705
 20
5.21836
 30
0.0
 10
0.45618
 20
5.23629
 30
0.0
 10
0.43443
 20
5.25951
 30
0.0
 10
0.42179
 20
5.28862
 30
0.0
 10
0.42179
 20
5.28862
 30
0.0
 10
0.40915
 20
5.31772
 30
0.0
 10
0.40297
 20
5.37887
 30
0.0
 10
0.40297
 20
5.47206
 30
0.0
 10
0.40297
 20
5.47206
 30
0.0
 10
0.40297
 20
5.47206
 30
0.0
 10
0.40297
 20
5.99946
 30
0.0
 10
0.40297
 20
5.99946
 30
0.0
 10
0.40297
 20
5.99946
 30
0.0
 10
0.40297
 20
5.99946
 30
0.0
 10
0.28832
 20
5.99946
 30
0.0
 10
0.28832
 20
5.99946
 30
0.0
 10
0.28832
 20
5.99946
 30
0.0
 10
0.28832
 20
5.99946
 30
0.0
 10
0.28832
 20
6.1194
 30
0.0
 10
0.28832
 20
6.1194
 30
0.0
 10
0.28832
 20
6.1194
 30
0.0
 10
0.28832
 20
6.1194
 30
0.0
 10
0.40297
 20
6.1194
 30
0.0
 10
0.40297
 20
6.1194
 30
0.0
 10
0.40297
 20
6.1194
 30
0.0
 10
0.40297
 20
6.1194
 30
0.0
 10
0.40297
 20
6.34577
 30
0.0
 10
0.40297
 20
6.34577
 30
0.0
 10
0.40297
 20
6.34577
 30
0.0
 10
0.40297
 20
6.34577
 30
0.0
 10
0.5582
 20
6.43896
 30
0.0
 10
0.5582
 20
6.43896
 30
0.0
 10
0.5582
 20
6.43896
 30
0.0
 10
0.5582
 20
6.43896
 30
0.0
 10
0.5582
 20
6.1194
 30
0.0
 10
0.5582
 20
6.1194
 30
0.0
 10
0.5582
 20
6.1194
 30
0.0
 10
0.5582
 20
6.1194
 30
0.0
 10
0.71342
 20
6.1194
 30
0.0
 10
0.71342
 20
6.1194
 30
0.0
 10
0.71342
 20
6.1194
 30
0.0
 10
0.71342
 20
6.1194
 30
0.0
 10
0.71342
 20
5.99946
 30
0.0
 10
0.71342
 20
5.99946
 30
0.0
 10
0.71342
 20
5.99946
 30
0.0
 10
0.71342
 20
5.99946
 30
0.0
 10
0.5582
 20
5.99946
 30
0.0
 10
0.5582
 20
5.99946
 30
0.0
 10
0.5582
 20
5.99946
 30
0.0
 10
0.5582
 20
5.99946
 30
0.0
 10
0.5582
 20
5.46324
 30
0.0
 10
0.5582
 20
5.46324
 30
0.0
 10
0.5582
 20
5.46324
 30
0.0
 10
0.5582
 20
5.41885
 30
0.0
 10
0.56084
 20
5.39033
 30
0.0
 10
0.56643
 20
5.37769
 30
0.0
 10
0.56643
 20
5.37769
 30
0.0
 10
0.57172
 20
5.36505
 30
0.0
 10
0.58054
 20
5.35506
 30
0.0
 10
0.59289
 20
5.34741
 30
0.0
 10
0.59289
 20
5.34741
 30
0.0
 10
0.60523
 20
5.34006
 30
0.0
 10
0.62287
 20
5.33624
 30
0.0
 10
0.6458
 20
5.33624
 30
0.0
 10
0.6458
 20
5.33624
 30
0.0
 10
0.66285
 20
5.33624
 30
0.0
 10
0.68549
 20
5.3383
 30
0.0
 10
0.71342
 20
5.34241
 30
0.0
  0
SPLINE
  5
CD
330
1F
100
AcDbEntity
  8
Layer 1
 62
   250
100
AcDbSpline
210
0.0
220
0.0
230
1.0
 70
    11
 71
     3
 72
    72
 73
    68
 74
     0
 42
0.000000001
 43
0.0000000001
 40
0.0
 40
0.0
 40
0.0
 40
0.0
 40
0.0555555555555556
 40
0.0555555555555556
 40
0.0555555555555556
 40
0.0555555555555556
 40
0.1111111111111111
 40
0.1111111111111111
 40
0.1111111111111111
 40
0.1111111111111111
 40
0.1666666666666667
 40
0.1666666666666667
 40
0.1666666666666667
 40
0.1666666666666667
 40
0.2222222222222222
 40
0.2222222222222222
 40
0.2222222222222222
 40
0.2222222222222222
 40
0.2777777777777778
 40
0.2777777777777778
 40
0.2777777777777778
 40
0.2777777777777778
 40
0.3333333333333333
 40
0.3333333333333333
 40
0.3333333333333333
 40
0.3333333333333333
 40
0.3888888888888889
 40
0.3888888888888889
 40
0.3888888888888889
 40
0.3888888888888889
 40
0.4444444444444444
 40
0.4444444444444444
 40
0.4444444444444444
 40
0.4444444444444444
 40
0.5
 40
0.5
 40
0.5
 40
0.5
 40
0.5555555555555556
 40
0.5555555555555556
 40
0.5555555555555556
 40
0.5555555555555556
 40
0.6111111111111112
 40
0.6111111111111112
 40
0.6111111111111112
 40
0.6111111111111112
 40
0.6666666666666666
 40
0.6666666666666666
 40
0.6666666666666666
 40
0.6666666666666666
 40
0.7222222222222222
 40
0.7222222222222222
 40
0.7222222222222222
 40
0.7222222222222222
 40
0.7777777777777778
 40
0.7777777777777778
 40
0.7777777777777778
 40
0.7777777777777778
 40
0.8333333333333334
 40
0.8333333333333334
 40
0.8333333333333334
 40
0.8333333333333334
 40
0.8888888888888888
 40
0.8888888888888888
 40
0.8888888888888888
 40
0.8888888888888888
 40
1.0
 40
1.0
 40
1.0
 40
1.0
 10
0.86658
 20
5.20395
 30
0.0
 10
0.86658
 20
5.20395
 30
0.0
 10
0.86658
 20
6.46689
 30
0.0
 10
0.86658
 20
6.46689
 30
0.0
 10
0.86658
 20
6.46689
 30
0.0
 10
0.86658
 20
6.46689
 30
0.0
 10
1.0218
 20
6.46689
 30
0.0
 10
1.0218
 20
6.46689
 30
0.0
 10
1.0218
 20
6.46689
 30
0.0
 10
1.0218
 20
6.46689
 30
0.0
 10
1.0218
 20
6.01239
 30
0.0
 10
1.0218
 20
6.01239
 30
0.0
 10
1.0218
 20
6.01239
 30
0.0
 10
1.09382
 20
6.09677
 30
0.0
 10
1.18466
 20
6.13881
 30
0.0
 10
1.29461
 20
6.13881
 30
0.0
 10
1.29461
 20
6.13881
 30
0.0
 10
1.36193
 20
6.13881
 30
0.0
 10
1.42043
 20
6.12558
 30
0.0
 10
1.47041
 20
6.09883
 30
0.0
 10
1.47041
 20
6.09883
 30
0.0
 10
1.52009
 20
6.07207
 30
0.0
 10
1.55567
 20
6.03533
 30
0.0
 10
1.57713
 20
5.98829
 30
0.0
 10
1.57713
 20
5.98829
 30
0.0
 10
1.59859
 20
5.94125
 30
0.0
 10
1.60917
 20
5.87275
 30
0.0
 10
1.60917
 20
5.78338
 30
0.0
 10
1.60917
 20
5.78338
 30
0.0
 10
1.60917
 20
5.78338
 30
0.0
 10
1.60917
 20
5.20395
 30
0.0
 10
1.60917
 20
5.20395
 30
0.0
 10
1.60917
 20
5.20395
 30
0.0
 10
1.60917
 20
5.20395
 30
0.0
 10
1.45395
 20
5.20395
 30
0.0
 10
1.45395
 20
5.20395
 30
0.0
 10
1.45395
 20
5.20395
 30
0.0
 10
1.45395
 20
5.20395
 30
0.0
 10
1.45395
 20
5.7828
 30
0.0
 10
1.45395
 20
5.7828
 30
0.0
 10
1.45395
 20
5.7828
 30
0.0
 10
1.45395
 20
5.86011
 30
0.0
 10
1.43719
 20
5.91656
 30
0.0
 10
1.40397
 20
5.95184
 30
0.0
 10
1.40397
 20
5.95184
 30
0.0
 10
1.37046
 20
5.98711
 30
0.0
 10
1.32342
 20
6.00475
 30
0.0
 10
1.26227
 20
6.00475
 30
0.0
 10
1.26227
 20
6.00475
 30
0.0
 10
1.21671
 20
6.00475
 30
0.0
 10
1.17379
 20
5.99299
 30
0.0
 10
1.13351
 20
5.96918
 30
0.0
 10
1.13351
 20
5.96918
 30
0.0
 10
1.09323
 20
5.94537
 30
0.0
 10
1.06472
 20
5.91303
 30
0.0
 10
1.04737
 20
5.87217
 30
0.0
 10
1.04737
 20
5.87217
 30
0.0
 10
1.03032
 20
5.8316
 30
0.0
 10
1.0218
 20
5.77545
 30
0.0
 10
1.0218
 20
5.70372
 30
0.0
 10
1.0218
 20
5.70372
 30
0.0
 10
1.0218
 20
5.70372
 30
0.0
 10
1.0218
 20
5.20395
 30
0.0
 10
1.0218
 20
5.20395
 30
0.0
 10
1.0218
 20
5.20395
 30
0.0
 10
1.0218
 20
5.20395
 30
0.0
 10
0.86658
 20
5.20395
 30
0.0
 10
0.86658
 20
5.20395
 30
0.0
  0
SPLINE
  5
CE
330
1F
100
AcDbEntity
  8
Layer 1
 62
   250
100
AcDbSpline
210
0.0
220
0.0
230
1.0
 70
    11
 71
     3
 72
    20
 73
    16
 74
     0
 42
0.000000001
 43
0.0000000001
 40
0.0
 40
0.0
 40
0.0
 40
0.0
 40
0.2
 40
0.2
 40
0.2
 40
0.2
 40
0.4
 40
0.4
 40
0.4
 40
0.4
 40
0.6
 40
0.6
 40
0.6
 40
0.6
 40
1.0
 40
1.0
 40
1.0
 40
1.0
 10
1.84759
 20
6.2905
 30
0.0
 10
1.84759
 20
6.2905
 30
0.0
 10
1.84759
 20
6.46689
 30
0.0
 10
1.84759
 20
6.46689
 30
0.0
 10
1.84759
 20
6.46689
 30
0.0
 10
1.84759
 20
6.46689
 30
0.0
 10
2.00281
 20
6.46689
 30
0.0
 10
2.00281
 20
6.46689
 30
0.0
 10
2.00281
 20
6.46689
 30
0.0
 10
2.00281
 20
6.46689
 30
0.0
 10
2.00281
 20
6.2905
 30
0.0
 10
2.00281
 20
6.2905
 30
0.0
 10
2.00281
 20
6.2905
 30
0.0
 10
2.00281
 20
6.2905
 30
0.0
 10
1.84759
 20
6.2905
 30
0.0
 10
1.84759
 20
6.2905
 30
0.0
  0
SPLINE
  5
CF
330
1F
100
AcDbEntity
  8
Layer 1
 62
   250
100
AcDbSpline
210
0.0
220
0.0
230
1.0
 70
    11
 71
     3
 72
    20
 73
    16
 74
     0
 42
0.000000001
 43
0.0000000001
 40
0.0
 40
0.0
 40
0.0
 40
0.0
 40
0.2
 40
0.2
 40
0.2
 40
0.2
 40
0.4
 40
0.4
 40
0.4
 40
0.4
 40
0.6
 40
0.6
 40
0.6
 40
0.6
 40
1.0
 40
1.0
 40
1.0
 40
1.0
 10
1.84759
 20
5.20395
 30
0.0
 10
1.84759
 20
5.20395
 30
0.0
 10
1.84759
 20
6.1194
 30
0.0
 10
1.84759
 20
6.1194
 30
0.0
 10
1.84759
 20
6.1194
 30
0.0
 10
1.84759
 20
6.1194
 30
0.0
 10
2.00281
 20
6.1194
 30
0.0
 10
2.00281
 20
6.1194
 30
0.0
 10
2.00281
 20
6.1194
 30
0.0
 10
2.00281
 20
6.1194
 30
0.0
 10
2.00281
 20
5.20395
 30
0.0
 10
2.00281
 20
5.20395
 30
0.0
 10
2.00281
 20
5.20395
 30
0.0
 10
2.00281
 20
5.20395
 30
0.0
 10
1.84759
 20
5.20395
 30
0.0
 10
1.84759
 20
5.20395
 30
0.0
  0
SPLINE
  5
D0
330
1F
100
AcDbEntity
  8
Layer 1
 62
   250
100
AcDbSpline
210
0.0
220
0.0
230
1.0
 70
    11
 71
     3
 72
    80
 73
    76
 74
     0
 42
0.000000001
 43
0.0000000001
 40
0.0
 40
0.0
 40
0.0
 40
0.0
 40
0.05
 40
0.05
 40
0.05
 40
0.05
 40
0.1
 40
0.1
 40
0.1
 40
0.1
 40
0.15
 40
0.15
 40
0.15
 40
0.15
 40
0.2
 40
0.2
 40
0.2
 40
0.2
 40
0.25
 40
0.25
 40
0.25
 40
0.25
 40
0.3
 40
0.3
 40
0.3
 40
0.3
 40
0.35
 40
0.35
 40
0.35
 40
0.35
 40
0.4
 40
0.4
 40
0.4
 40
0.4
 40
0.45
 40
0.45
 40
0.45
 40
0.45
 40
0.5
 40
0.5
 40
0.5
 40
0.5
 40
0.55
 40
0.55
 40
0.55
 40
0.55
 40
0.6
 40
0.6
 40
0.6
 40
0.6
 40
0.65
 40
0.65
 40
0.65
 40
0.65
 40
0.7
 40
0.7
 40
0.7
 40
0.7
 40
0.75
 40
0.75
 40
0.75
 40
0.75
 40
0.8
 40
0.8
 40
0.8
 40
0.8
 40
0.85
 40
0.85
 40
0.85
 40
0.85
 40
0.9
 40
0.9
 40
0.9
 40
0.9
 40
1.0
 40
1.0
 40
1.0
 40
1.0
 10
2.83742
 20
5.53909
 30
0.0
 10
2.83742
 20
5.53909
 30
0.0
 10
2.98912
 20
5.51792
 30
0.0
 10
2.98912
 20
5.51792
 30
0.0
 10
2.98912
 20
5.51792
 30
0.0
 10
2.97236
 20
5.41356
 30
0.0
 10
2.93003
 20
5.33213
 30
0.0
 10
2.86153
 20
5.27304
 30
0.0
 10
2.86153
 20
5.27304
 30
0.0
 10
2.79303
 20
5.21395
 30
0.0
 10
2.70866
 20
5.18455
 30
0.0
 10
2.609
 20
5.18455
 30
0.0
 10
2.609
 20
5.18455
 30
0.0
 10
2.48406
 20
5.18455
 30
0.0
 10
2.38352
 20
5.22541
 30
0.0
 10
2.30767
 20
5.30714
 30
0.0
 10
2.30767
 20
5.30714
 30
0.0
 10
2.23153
 20
5.38886
 30
0.0
 10
2.19361
 20
5.50587
 30
0.0
 10
2.19361
 20
5.65815
 30
0.0
 10
2.19361
 20
5.65815
 30
0.0
 10
2.19361
 20
5.75693
 30
0.0
 10
2.21007
 20
5.84306
 30
0.0
 10
2.2427
 20
5.91715
 30
0.0
 10
2.2427
 20
5.91715
 30
0.0
 10
2.27533
 20
5.99093
 30
0.0
 10
2.32501
 20
6.0465
 30
0.0
 10
2.39204
 20
6.08324
 30
0.0
 10
2.39204
 20
6.08324
 30
0.0
 10
2.45878
 20
6.12029
 30
0.0
 10
2.53139
 20
6.13881
 30
0.0
 10
2.61017
 20
6.13881
 30
0.0
 10
2.61017
 20
6.13881
 30
0.0
 10
2.70925
 20
6.13881
 30
0.0
 10
2.79068
 20
6.11382
 30
0.0
 10
2.85359
 20
6.06355
 30
0.0
 10
2.85359
 20
6.06355
 30
0.0
 10
2.9168
 20
6.01328
 30
0.0
 10
2.95737
 20
5.94184
 30
0.0
 10
2.975
 20
5.84953
 30
0.0
 10
2.975
 20
5.84953
 30
0.0
 10
2.975
 20
5.84953
 30
0.0
 10
2.82507
 20
5.8266
 30
0.0
 10
2.82507
 20
5.8266
 30
0.0
 10
2.82507
 20
5.8266
 30
0.0
 10
2.81067
 20
5.88804
 30
0.0
 10
2.78539
 20
5.9342
 30
0.0
 10
2.74864
 20
5.96536
 30
0.0
 10
2.74864
 20
5.96536
 30
0.0
 10
2.71219
 20
5.99623
 30
0.0
 10
2.66809
 20
6.01181
 30
0.0
 10
2.61635
 20
6.01181
 30
0.0
 10
2.61635
 20
6.01181
 30
0.0
 10
2.53815
 20
6.01181
 30
0.0
 10
2.47465
 20
5.98388
 30
0.0
 10
2.42556
 20
5.92802
 30
0.0
 10
2.42556
 20
5.92802
 30
0.0
 10
2.37675
 20
5.87187
 30
0.0
 10
2.35235
 20
5.78368
 30
0.0
 10
2.35235
 20
5.66256
 30
0.0
 10
2.35235
 20
5.66256
 30
0.0
 10
2.35235
 20
5.53968
 30
0.0
 10
2.37587
 20
5.4506
 30
0.0
 10
2.42291
 20
5.39504
 30
0.0
 10
2.42291
 20
5.39504
 30
0.0
 10
2.47024
 20
5.33947
 30
0.0
 10
2.53168
 20
5.31155
 30
0.0
 10
2.60724
 20
5.31155
 30
0.0
 10
2.60724
 20
5.31155
 30
0.0
 10
2.66838
 20
5.31155
 30
0.0
 10
2.71924
 20
5.33007
 30
0.0
 10
2.75981
 20
5.3674
 30
0.0
 10
2.75981
 20
5.3674
 30
0.0
 10
2.80067
 20
5.40444
 30
0.0
 10
2.82654
 20
5.46177
 30
0.0
 10
2.83742
 20
5.53909
 30
0.0
  0
SPLINE
  5
D1
330
1F
100
AcDbEntity
  8
Layer 1
 62
   250
100
AcDbSpline
210
0.0
220
0.0
230
1.0
 70
    11
 71
     3
 72
    52
 73
    48
 74
     0
 42
0.000000001
 43
0.0000000001
 40
0.0
 40
0.0
 40
0.0
 40
0.0
 40
0.0769230769230769
 40
0.0769230769230769
 40
0.0769230769230769
 40
0.0769230769230769
 40
0.1538461538461539
 40
0.1538461538461539
 40
0.1538461538461539
 40
0.1538461538461539
 40
0.2307692307692308
 40
0.2307692307692308
 40
0.2307692307692308
 40
0.2307692307692308
 40
0.3076923076923077
 40
0.3076923076923077
 40
0.3076923076923077
 40
0.3076923076923077
 40
0.3846153846153846
 40
0.3846153846153846
 40
0.3846153846153846
 40
0.3846153846153846
 40
0.4615384615384616
 40
0.4615384615384616
 40
0.4615384615384616
 40
0.4615384615384616
 40
0.5384615384615384
 40
0.5384615384615384
 40
0.5384615384615384
 40
0.5384615384615384
 40
0.6153846153846154
 40
0.6153846153846154
 40
0.6153846153846154
 40
0.6153846153846154
 40
0.6923076923076923
 40
0.6923076923076923
 40
0.6923076923076923
 40
0.6923076923076923
 40
0.7692307692307693
 40
0.7692307692307693
 40
0.7692307692307693
 40
0.7692307692307693
 40
0.8461538461538461
 40
0.8461538461538461
 40
0.8461538461538461
 40
0.8461538461538461
 40
1.0
 40
1.0
 40
1.0
 40
1.0
 10
3.12199
 20
5.20395
 30
0.0
 10
3.12199
 20
5.20395
 30
0.0
 10
3.12199
 20
6.46689
 30
0.0
 10
3.12199
 20
6.46689
 30
0.0
 10
3.12199
 20
6.46689
 30
0.0
 10
3.12199
 20
6.46689
 30
0.0
 10
3.27722
 20
6.46689
 30
0.0
 10
3.27722
 20
6.46689
 30
0.0
 10
3.27722
 20
6.46689
 30
0.0
 10
3.27722
 20
6.46689
 30
0.0
 10
3.27722
 20
5.74752
 30
0.0
 10
3.27722
 20
5.74752
 30
0.0
 10
3.27722
 20
5.74752
 30
0.0
 10
3.27722
 20
5.74752
 30
0.0
 10
3.6441
 20
6.1194
 30
0.0
 10
3.6441
 20
6.1194
 30
0.0
 10
3.6441
 20
6.1194
 30
0.0
 10
3.6441
 20
6.1194
 30
0.0
 10
3.8446
 20
6.1194
 30
0.0
 10
3.8446
 20
6.1194
 30
0.0
 10
3.8446
 20
6.1194
 30
0.0
 10
3.8446
 20
6.1194
 30
0.0
 10
3.49535
 20
5.77927
 30
0.0
 10
3.49535
 20
5.77927
 30
0.0
 10
3.49535
 20
5.77927
 30
0.0
 10
3.49535
 20
5.77927
 30
0.0
 10
3.87987
 20
5.20395
 30
0.0
 10
3.87987
 20
5.20395
 30
0.0
 10
3.87987
 20
5.20395
 30
0.0
 10
3.87987
 20
5.20395
 30
0.0
 10
3.68879
 20
5.20395
 30
0.0
 10
3.68879
 20
5.20395
 30
0.0
 10
3.68879
 20
5.20395
 30
0.0
 10
3.68879
 20
5.20395
 30
0.0
 10
3.38481
 20
5.67167
 30
0.0
 10
3.38481
 20
5.67167
 30
0.0
 10
3.38481
 20
5.67167
 30
0.0
 10
3.38481
 20
5.67167
 30
0.0
 10
3.27722
 20
5.56702
 30
0.0
 10
3.27722
 20
5.56702
 30
0.0
 10
3.27722
 20
5.56702
 30
0.0
 10
3.27722
 20
5.56702
 30
0.0
 10
3.27722
 20
5.20395
 30
0.0
 10
3.27722
 20
5.20395
 30
0.0
 10
3.27722
 20
5.20395
 30
0.0
 10
3.27722
 20
5.20395
 30
0.0
 10
3.12199
 20
5.20395
 30
0.0
 10
3.12199
 20
5.20395
 30
0.0
  0
SPLINE
  5
D2
330
1F
100
AcDbEntity
  8
Layer 1
 62
   250
100
AcDbSpline
210
0.0
220
0.0
230
1.0
 70
    11
 71
     3
 72
    64
 73
    60
 74
     0
 42
0.000000001
 43
0.0000000001
 40
0.0
 40
0.0
 40
0.0
 40
0.0
 40
0.0625
 40
0.0625
 40
0.0625
 40
0.0625
 40
0.125
 40
0.125
 40
0.125
 40
0.125
 40
0.1875
 40
0.1875
 40
0.1875
 40
0.1875
 40
0.25
 40
0.25
 40
0.25
 40
0.25
 40
0.3125
 40
0.3125
 40
0.3125
 40
0.3125
 40
0.375
 40
0.375
 40
0.375
 40
0.375
 40
0.4375
 40
0.4375
 40
0.4375
 40
0.4375
 40
0.5
 40
0.5
 40
0.5
 40
0.5
 40
0.5625
 40
0.5625
 40
0.5625
 40
0.5625
 40
0.625
 40
0.625
 40
0.625
 40
0.625
 40
0.6875
 40
0.6875
 40
0.6875
 40
0.6875
 40
0.75
 40
0.75
 40
0.75
 40
0.75
 40
0.8125
 40
0.8125
 40
0.8125
 40
0.8125
 40
0.875
 40
0.875
 40
0.875
 40
0.875
 40
1.0
 40
1.0
 40
1.0
 40
1.0
 10
4.50928
 20
5.20395
 30
0.0
 10
4.50928
 20
5.20395
 30
0.0
 10
4.50928
 20
6.46689
 30
0.0
 10
4.50928
 20
6.46689
 30
0.0
 10
4.50928
 20
6.46689
 30
0.0
 10
4.50928
 20
6.46689
 30
0.0
 10
4.75975
 20
6.46689
 30
0.0
 10
4.75975
 20
6.46689
 30
0.0
 10
4.75975
 20
6.46689
 30
0.0
 10
4.75975
 20
6.46689
 30
0.0
 10
5.05844
 20
5.57289
 30
0.0
 10
5.05844
 20
5.57289
 30
0.0
 10
5.05844
 20
5.57289
 30
0.0
 10
5.08607
 20
5.4897
 30
0.0
 10
5.10606
 20
5.42737
 30
0.0
 10
5.1187
 20
5.38592
 30
0.0
 10
5.1187
 20
5.38592
 30
0.0
 10
5.13311
 20
5.43178
 30
0.0
 10
5.15574
 20
5.4994
 30
0.0
 10
5.18632
 20
5.58848
 30
0.0
 10
5.18632
 20
5.58848
 30
0.0
 10
5.18632
 20
5.58848
 30
0.0
 10
5.49029
 20
6.46689
 30
0.0
 10
5.49029
 20
6.46689
 30
0.0
 10
5.49029
 20
6.46689
 30
0.0
 10
5.49029
 20
6.46689
 30
0.0
 10
5.71401
 20
6.46689
 30
0.0
 10
5.71401
 20
6.46689
 30
0.0
 10
5.71401
 20
6.46689
 30
0.0
 10
5.71401
 20
6.46689
 30
0.0
 10
5.71401
 20
5.20395
 30
0.0
 10
5.71401
 20
5.20395
 30
0.0
 10
5.71401
 20
5.20395
 30
0.0
 10
5.71401
 20
5.20395
 30
0.0
 10
5.5535
 20
5.20395
 30
0.0
 10
5.5535
 20
5.20395
 30
0.0
 10
5.5535
 20
5.20395
 30
0.0
 10
5.5535
 20
5.20395
 30
0.0
 10
5.5535
 20
6.26051
 30
0.0
 10
5.5535
 20
6.26051
 30
0.0
 10
5.5535
 20
6.26051
 30
0.0
 10
5.5535
 20
6.26051
 30
0.0
 10
5.18485
 20
5.20395
 30
0.0
 10
5.18485
 20
5.20395
 30
0.0
 10
5.18485
 20
5.20395
 30
0.0
 10
5.18485
 20
5.20395
 30
0.0
 10
5.03433
 20
5.20395
 30
0.0
 10
5.03433
 20
5.20395
 30
0.0
 10
5.03433
 20
5.20395
 30
0.0
 10
5.03433
 20
5.20395
 30
0.0
 10
4.66979
 20
6.27992
 30
0.0
 10
4.66979
 20
6.27992
 30
0.0
 10
4.66979
 20
6.27992
 30
0.0
 10
4.66979
 20
6.27992
 30
0.0
 10
4.66979
 20
5.20395
 30
0.0
 10
4.66979
 20
5.20395
 30
0.0
 10
4.66979
 20
5.20395
 30
0.0
 10
4.66979
 20
5.20395
 30
0.0
 10
4.50928
 20
5.20395
 30
0.0
 10
4.50928
 20
5.20395
 30
0.0
  0
SPLINE
  5
D3
330
1F
100
AcDbEntity
  8
Layer 1
 62
   250
100
AcDbSpline
210
0.0
220
0.0
230
1.0
 70
    11
 71
     3
 72
    52
 73
    48
 74
     0
 42
0.000000001
 43
0.0000000001
 40
0.0
 40
0.0
 40
0.0
 40
0.0
 40
0.0769230769230769
 40
0.0769230769230769
 40
0.0769230769230769
 40
0.0769230769230769
 40
0.1538461538461539
 40
0.1538461538461539
 40
0.1538461538461539
 40
0.1538461538461539
 40
0.2307692307692308
 40
0.2307692307692308
 40
0.2307692307692308
 40
0.2307692307692308
 40
0.3076923076923077
 40
0.3076923076923077
 40
0.3076923076923077
 40
0.3076923076923077
 40
0.3846153846153846
 40
0.3846153846153846
 40
0.3846153846153846
 40
0.3846153846153846
 40
0.4615384615384616
 40
0.4615384615384616
 40
0.4615384615384616
 40
0.4615384615384616
 40
0.5384615384615384
 40
0.5384615384615384
 40
0.5384615384615384
 40
0.5384615384615384
 40
0.6153846153846154
 40
0.6153846153846154
 40
0.6153846153846154
 40
0.6153846153846154
 40
0.6923076923076923
 40
0.6923076923076923
 40
0.6923076923076923
 40
0.6923076923076923
 40
0.7692307692307693
 40
0.7692307692307693
 40
0.7692307692307693
 40
0.7692307692307693
 40
0.8461538461538461
 40
0.8461538461538461
 40
0.8461538461538461
 40
0.8461538461538461
 40
1.0
 40
1.0
 40
1.0
 40
1.0
 10
5.98212
 20
5.20395
 30
0.0
 10
5.98212
 20
5.20395
 30
0.0
 10
5.98212
 20
6.46689
 30
0.0
 10
5.98212
 20
6.46689
 30
0.0
 10
5.98212
 20
6.46689
 30
0.0
 10
5.98212
 20
6.46689
 30
0.0
 10
6.41721
 20
6.46689
 30
0.0
 10
6.41721
 20
6.46689
 30
0.0
 10
6.41721
 20
6.46689
 30
0.0
 10
6.5154
 20
6.46689
 30
0.0
 10
6.59036
 20
6.46101
 30
0.0
 10
6.6421
 20
6.44896
 30
0.0
 10
6.6421
 20
6.44896
 30
0.0
 10
6.71442
 20
6.4322
 30
0.0
 10
6.77616
 20
6.40192
 30
0.0
 10
6.82731
 20
6.35841
 30
0.0
 10
6.82731
 20
6.35841
 30
0.0
 10
6.89404
 20
6.30197
 30
0.0
 10
6.94373
 20
6.23023
 30
0.0
 10
6.97665
 20
6.14263
 30
0.0
 10
6.97665
 20
6.14263
 30
0.0
 10
7.00987
 20
6.05502
 30
0.0
 10
7.02634
 20
5.95477
 30
0.0
 10
7.02634
 20
5.84218
 30
0.0
 10
7.02634
 20
5.84218
 30
0.0
 10
7.02634
 20
5.74634
 30
0.0
 10
7.01516
 20
5.66138
 30
0.0
 10
6.99282
 20
5.5873
 30
0.0
 10
6.99282
 20
5.5873
 30
0.0
 10
6.97048
 20
5.51322
 30
0.0
 10
6.94167
 20
5.45178
 30
0.0
 10
6.90669
 20
5.40327
 30
0.0
 10
6.90669
 20
5.40327
 30
0.0
 10
6.87141
 20
5.35476
 30
0.0
 10
6.83319
 20
5.31654
 30
0.0
 10
6.79145
 20
5.28891
 30
0.0
 10
6.79145
 20
5.28891
 30
0.0
 10
6.74999
 20
5.26098
 30
0.0
 10
6.69972
 20
5.23982
 30
0.0
 10
6.64093
 20
5.22541
 30
0.0
 10
6.64093
 20
5.22541
 30
0.0
 10
6.58184
 20
5.21101
 30
0.0
 10
6.51422
 20
5.20395
 30
0.0
 10
6.43779
 20
5.20395
 30
0.0
 10
6.43779
 20
5.20395
 30
0.0
 10
6.43779
 20
5.20395
 30
0.0
 10
5.98212
 20
5.20395
 30
0.0
 10
5.98212
 20
5.20395
 30
0.0
  0
SPLINE
  5
D4
330
1F
100
AcDbEntity
  8
Layer 1
 62
   250
100
AcDbSpline
210
0.0
220
0.0
230
1.0
 70
    11
 71
     3
 72
    44
 73
    40
 74
     0
 42
0.000000001
 43
0.0000000001
 40
0.0
 40
0.0
 40
0.0
 40
0.0
 40
0.0909090909090909
 40
0.0909090909090909
 40
0.0909090909090909
 40
0.0909090909090909
 40
0.1818181818181818
 40
0.1818181818181818
 40
0.1818181818181818
 40
0.1818181818181818
 40
0.2727272727272727
 40
0.2727272727272727
 40
0.2727272727272727
 40
0.2727272727272727
 40
0.3636363636363636
 40
0.3636363636363636
 40
0.3636363636363636
 40
0.3636363636363636
 40
0.4545454545454545
 40
0.4545454545454545
 40
0.4545454545454545
 40
0.4545454545454545
 40
0.5454545454545454
 40
0.5454545454545454
 40
0.5454545454545454
 40
0.5454545454545454
 40
0.6363636363636364
 40
0.6363636363636364
 40
0.6363636363636364
 40
0.6363636363636364
 40
0.7272727272727273
 40
0.7272727272727273
 40
0.7272727272727273
 40
0.7272727272727273
 40
0.8181818181818182
 40
0.8181818181818182
 40
0.8181818181818182
 40
0.8181818181818182
 40
1.0
 40
1.0
 40
1.0
 40
1.0
 10
6.14969
 20
5.35212
 30
0.0
 10
6.14969
 20
5.35212
 30
0.0
 10
6.41897
 20
5.35212
 30
0.0
 10
6.41897
 20
5.35212
 30
0.0
 10
6.41897
 20
5.35212
 30
0.0
 10
6.50217
 20
5.35212
 30
0.0
 10
6.56743
 20
5.35976
 30
0.0
 10
6.61476
 20
5.37534
 30
0.0
 10
6.61476
 20
5.37534
 30
0.0
 10
6.66209
 20
5.39092
 30
0.0
 10
6.69972
 20
5.41268
 30
0.0
 10
6.72795
 20
5.4409
 30
0.0
 10
6.72795
 20
5.4409
 30
0.0
 10
6.76734
 20
5.48059
 30
0.0
 10
6.79821
 20
5.53409
 30
0.0
 10
6.82026
 20
5.60112
 30
0.0
 10
6.82026
 20
5.60112
 30
0.0
 10
6.8423
 20
5.66814
 30
0.0
 10
6.85348
 20
5.74928
 30
0.0
 10
6.85348
 20
5.84483
 30
0.0
 10
6.85348
 20
5.84483
 30
0.0
 10
6.85348
 20
5.97712
 30
0.0
 10
6.83172
 20
6.07883
 30
0.0
 10
6.78851
 20
6.14998
 30
0.0
 10
6.78851
 20
6.14998
 30
0.0
 10
6.74529
 20
6.22112
 30
0.0
 10
6.69267
 20
6.26875
 30
0.0
 10
6.63064
 20
6.29285
 30
0.0
 10
6.63064
 20
6.29285
 30
0.0
 10
6.58595
 20
6.3102
 30
0.0
 10
6.51393
 20
6.31872
 30
0.0
 10
6.41456
 20
6.31872
 30
0.0
 10
6.41456
 20
6.31872
 30
0.0
 10
6.41456
 20
6.31872
 30
0.0
 10
6.14969
 20
6.31872
 30
0.0
 10
6.14969
 20
6.31872
 30
0.0
 10
6.14969
 20
6.31872
 30
0.0
 10
6.14969
 20
6.31872
 30
0.0
 10
6.14969
 20
5.35212
 30
0.0
 10
6.14969
 20
5.35212
 30
0.0
  0
SPLINE
  5
D5
330
1F
100
AcDbEntity
  8
Layer 1
 62
   250
100
AcDbSpline
210
0.0
220
0.0
230
1.0
 70
    11
 71
     3
 72
    44
 73
    40
 74
     0
 42
0.000000001
 43
0.0000000001
 40
0.0
 40
0.0
 40
0.0
 40
0.0
 40
0.0909090909090909
 40
0.0909090909090909
 40
0.0909090909090909
 40
0.0909090909090909
 40
0.1818181818181818
 40
0.1818181818181818
 40
0.1818181818181818
 40
0.1818181818181818
 40
0.2727272727272727
 40
0.2727272727272727
 40
0.2727272727272727
 40
0.2727272727272727
 40
0.3636363636363636
 40
0.3636363636363636
 40
0.3636363636363636
 40
0.3636363636363636
 40
0.4545454545454545
 40
0.4545454545454545
 40
0.4545454545454545
 40
0.4545454545454545
 40
0.5454545454545454
 40
0.5454545454545454
 40
0.5454545454545454
 40
0.5454545454545454
 40
0.6363636363636364
 40
0.6363636363636364
 40
0.6363636363636364
 40
0.6363636363636364
 40
0.7272727272727273
 40
0.7272727272727273
 40
0.7272727272727273
 40
0.7272727272727273
 40
0.8181818181818182
 40
0.8181818181818182
 40
0.8181818181818182
 40
0.8181818181818182
 40
1.0
 40
1.0
 40
1.0
 40
1.0
 10
7.26476
 20
5.20395
 30
0.0
 10
7.26476
 20
5.20395
 30
0.0
 10
7.26476
 20
6.46689
 30
0.0
 10
7.26476
 20
6.46689
 30
0.0
 10
7.26476
 20
6.46689
 30
0.0
 10
7.26476
 20
6.46689
 30
0.0
 10
8.11671
 20
6.46689
 30
0.0
 10
8.11671
 20
6.46689
 30
0.0
 10
8.11671
 20
6.46689
 30
0.0
 10
8.11671
 20
6.46689
 30
0.0
 10
8.11671
 20
6.31872
 30
0.0
 10
8.11671
 20
6.31872
 30
0.0
 10
8.11671
 20
6.31872
 30
0.0
 10
8.11671
 20
6.31872
 30
0.0
 10
7.43233
 20
6.31872
 30
0.0
 10
7.43233
 20
6.31872
 30
0.0
 10
7.43233
 20
6.31872
 30
0.0
 10
7.43233
 20
6.31872
 30
0.0
 10
7.43233
 20
5.92538
 30
0.0
 10
7.43233
 20
5.92538
 30
0.0
 10
7.43233
 20
5.92538
 30
0.0
 10
7.43233
 20
5.92538
 30
0.0
 10
8.02499
 20
5.92538
 30
0.0
 10
8.02499
 20
5.92538
 30
0.0
 10
8.02499
 20
5.92538
 30
0.0
 10
8.02499
 20
5.92538
 30
0.0
 10
8.02499
 20
5.77721
 30
0.0
 10
8.02499
 20
5.77721
 30
0.0
 10
8.02499
 20
5.77721
 30
0.0
 10
8.02499
 20
5.77721
 30
0.0
 10
7.43233
 20
5.77721
 30
0.0
 10
7.43233
 20
5.77721
 30
0.0
 10
7.43233
 20
5.77721
 30
0.0
 10
7.43233
 20
5.77721
 30
0.0
 10
7.43233
 20
5.20395
 30
0.0
 10
7.43233
 20
5.20395
 30
0.0
 10
7.43233
 20
5.20395
 30
0.0
 10
7.43233
 20
5.20395
 30
0.0
 10
7.26476
 20
5.20395
 30
0.0
 10
7.26476
 20
5.20395
 30
0.0
  0
SPLINE
  5
D6
330
1F
100
AcDbEntity
  8
Layer 1
 62
   250
100
AcDbSpline
210
0.0
220
0.0
230
1.0
 70
    11
 71
     3
 72
    48
 73
    44
 74
     0
 42
0.000000001
 43
0.0000000001
 40
0.0
 40
0.0
 40
0.0
 40
0.0
 40
0.0833333333333333
 40
0.0833333333333333
 40
0.0833333333333333
 40
0.0833333333333333
 40
0.1666666666666667
 40
0.1666666666666667
 40
0.1666666666666667
 40
0.1666666666666667
 40
0.25
 40
0.25
 40
0.25
 40
0.25
 40
0.3333333333333333
 40
0.3333333333333333
 40
0.3333333333333333
 40
0.3333333333333333
 40
0.4166666666666667
 40
0.4166666666666667
 40
0.4166666666666667
 40
0.4166666666666667
 40
0.5
 40
0.5
 40
0.5
 40
0.5
 40
0.5833333333333334
 40
0.5833333333333334
 40
0.5833333333333334
 40
0.5833333333333334
 40
0.6666666666666666
 40
0.6666666666666666
 40
0.6666666666666666
 40
0.6666666666666666
 40
0.75
 40
0.75
 40
0.75
 40
0.75
 40
0.8333333333333334
 40
0.8333333333333334
 40
0.8333333333333334
 40
0.8333333333333334
 40
1.0
 40
1.0
 40
1.0
 40
1.0
 10
-4.49326
 20
28.43438
 30
0.0
 10
-4.49326
 20
28.43438
 30
0.0
 10
-4.49326
 20
28.736
 30
0.0
 10
-4.49326
 20
28.736
 30
0.0
 10
-4.49326
 20
28.736
 30
0.0
 10
-4.49326
 20
28.736
 30
0.0
 10
-5.04182
 20
28.736
 30
0.0
 10
-5.04182
 20
28.736
 30
0.0
 10
-5.04182
 20
28.736
 30
0.0
 10
-5.04182
 20
28.736
 30
0.0
 10
-5.04182
 20
28.87888
 30
0.0
 10
-5.04182
 20
28.87888
 30
0.0
 10
-5.04182
 20
28.87888
 30
0.0
 10
-5.04182
 20
28.87888
 30
0.0
 10
-4.46503
 20
29.69732
 30
0.0
 10
-4.46503
 20
29.69732
 30
0.0
 10
-4.46503
 20
29.69732
 30
0.0
 10
-4.46503
 20
29.69732
 30
0.0
 10
-4.33804
 20
29.69732
 30
0.0
 10
-4.33804
 20
29.69732
 30
0.0
 10
-4.33804
 20
29.69732
 30
0.0
 10
-4.33804
 20
29.69732
 30
0.0
 10
-4.33804
 20
28.87888
 30
0.0
 10
-4.33804
 20
28.87888
 30
0.0
 10
-4.33804
 20
28.87888
 30
0.0
 10
-4.33804
 20
28.87888
 30
0.0
 10
-4.16694
 20
28.87888
 30
0.0
 10
-4.16694
 20
28.87888
 30
0.0
 10
-4.16694
 20
28.87888
 30
0.0
 10
-4.16694
 20
28.87888
 30
0.0
 10
-4.16694
 20
28.736
 30
0.0
 10
-4.16694
 20
28.736
 30
0.0
 10
-4.16694
 20
28.736
 30
0.0
 10
-4.16694
 20
28.736
 30
0.0
 10
-4.33804
 20
28.736
 30
0.0
 10
-4.33804
 20
28.736
 30
0.0
 10
-4.33804
 20
28.736
 30
0.0
 10
-4.33804
 20
28.736
 30
0.0
 10
-4.33804
 20
28.43438
 30
0.0
 10
-4.33804
 20
28.43438
 30
0.0
 10
-4.33804
 20
28.43438
 30
0.0
 10
-4.33804
 20
28.43438
 30
0.0
 10
-4.49326
 20
28.43438
 30
0.0
 10
-4.49326
 20
28.43438
 30
0.0
  0
SPLINE
  5
D7
330
1F
100
AcDbEntity
  8
Layer 1
 62
   250
100
AcDbSpline
210
0.0
220
0.0
230
1.0
 70
    11
 71
     3
 72
    16
 73
    12
 74
     0
 42
0.000000001
 43
0.0000000001
 40
0.0
 40
0.0
 40
0.0
 40
0.0
 40
0.25
 40
0.25
 40
0.25
 40
0.25
 40
0.5
 40
0.5
 40
0.5
 40
0.5
 40
1.0
 40
1.0
 40
1.0
 40
1.0
 10
-4.49326
 20
28.87888
 30
0.0
 10
-4.49326
 20
28.87888
 30
0.0
 10
-4.49326
 20
29.44714
 30
0.0
 10
-4.49326
 20
29.44714
 30
0.0
 10
-4.49326
 20
29.44714
 30
0.0
 10
-4.49326
 20
29.44714
 30
0.0
 10
-4.88925
 20
28.87888
 30
0.0
 10
-4.88925
 20
28.87888
 30
0.0
 10
-4.88925
 20
28.87888
 30
0.0
 10
-4.88925
 20
28.87888
 30
0.0
 10
-4.49326
 20
28.87888
 30
0.0
 10
-4.49326
 20
28.87888
 30
0.0
  0
SPLINE
  5
D8
330
1F
100
AcDbEntity
  8
Layer 1
 62
   250
100
AcDbSpline
210
0.0
220
0.0
230
1.0
 70
    11
 71
     3
 72
   116
 73
   112
 74
     0
 42
0.000000001
 43
0.0000000001
 40
0.0
 40
0.0
 40
0.0
 40
0.0
 40
0.0344827586206897
 40
0.0344827586206897
 40
0.0344827586206897
 40
0.0344827586206897
 40
0.0689655172413793
 40
0.0689655172413793
 40
0.0689655172413793
 40
0.0689655172413793
 40
0.103448275862069
 40
0.103448275862069
 40
0.103448275862069
 40
0.103448275862069
 40
0.1379310344827586
 40
0.1379310344827586
 40
0.1379310344827586
 40
0.1379310344827586
 40
0.1724137931034483
 40
0.1724137931034483
 40
0.1724137931034483
 40
0.1724137931034483
 40
0.2068965517241379
 40
0.2068965517241379
 40
0.2068965517241379
 40
0.2068965517241379
 40
0.2413793103448276
 40
0.2413793103448276
 40
0.2413793103448276
 40
0.2413793103448276
 40
0.2758620689655172
 40
0.2758620689655172
 40
0.2758620689655172
 40
0.2758620689655172
 40
0.3103448275862069
 40
0.3103448275862069
 40
0.3103448275862069
 40
0.3103448275862069
 40
0.3448275862068966
 40
0.3448275862068966
 40
0.3448275862068966
 40
0.3448275862068966
 40
0.3793103448275862
 40
0.3793103448275862
 40
0.3793103448275862
 40
0.3793103448275862
 40
0.4137931034482759
 40
0.4137931034482759
 40
0.4137931034482759
 40
0.4137931034482759
 40
0.4482758620689655
 40
0.4482758620689655
 40
0.4482758620689655
 40
0.4482758620689655
 40
0.4827586206896552
 40
0.4827586206896552
 40
0.4827586206896552
 40
0.4827586206896552
 40
0.5172413793103449
 40
0.5172413793103449
 40
0.5172413793103449
 40
0.5172413793103449
 40
0.5517241379310345
 40
0.5517241379310345
 40
0.5517241379310345
 40
0.5517241379310345
 40
0.5862068965517241
 40
0.5862068965517241
 40
0.5862068965517241
 40
0.5862068965517241
 40
0.6206896551724138
 40
0.6206896551724138
 40
0.6206896551724138
 40
0.6206896551724138
 40
0.6551724137931034
 40
0.6551724137931034
 40
0.6551724137931034
 40
0.6551724137931034
 40
0.6896551724137931
 40
0.6896551724137931
 40
0.6896551724137931
 40
0.6896551724137931
 40
0.7241379310344828
 40
0.7241379310344828
 40
0.7241379310344828
 40
0.7241379310344828
 40
0.7586206896551724
 40
0.7586206896551724
 40
0.7586206896551724
 40
0.7586206896551724
 40
0.7931034482758621
 40
0.7931034482758621
 40
0.7931034482758621
 40
0.7931034482758621
 40
0.8275862068965517
 40
0.8275862068965517
 40
0.8275862068965517
 40
0.8275862068965517
 40
0.8620689655172413
 40
0.8620689655172413
 40
0.8620689655172413
 40
0.8620689655172413
 40
0.896551724137931
 40
0.896551724137931
 40
0.896551724137931
 40
0.896551724137931
 40
0.9310344827586207
 40
0.9310344827586207
 40
0.9310344827586207
 40
0.9310344827586207
 40
1.0
 40
1.0
 40
1.0
 40
1.0
 10
-3.4755
 20
28.43438
 30
0.0
 10
-3.4755
 20
28.43438
 30
0.0
 10
-3.4755
 20
29.34983
 30
0.0
 10
-3.4755
 20
29.34983
 30
0.0
 10
-3.4755
 20
29.34983
 30
0.0
 10
-3.4755
 20
29.34983
 30
0.0
 10
-3.33616
 20
29.34983
 30
0.0
 10
-3.33616
 20
29.34983
 30
0.0
 10
-3.33616
 20
29.34983
 30
0.0
 10
-3.33616
 20
29.34983
 30
0.0
 10
-3.33616
 20
29.22048
 30
0.0
 10
-3.33616
 20
29.22048
 30
0.0
 10
-3.33616
 20
29.22048
 30
0.0
 10
-3.30764
 20
29.26517
 30
0.0
 10
-3.26942
 20
29.30133
 30
0.0
 10
-3.2218
 20
29.32837
 30
0.0
 10
-3.2218
 20
29.32837
 30
0.0
 10
-3.17417
 20
29.35571
 30
0.0
 10
-3.12008
 20
29.36924
 30
0.0
 10
-3.05923
 20
29.36924
 30
0.0
 10
-3.05923
 20
29.36924
 30
0.0
 10
-2.99161
 20
29.36924
 30
0.0
 10
-2.93605
 20
29.35513
 30
0.0
 10
-2.89284
 20
29.3272
 30
0.0
 10
-2.89284
 20
29.3272
 30
0.0
 10
-2.84962
 20
29.29898
 30
0.0
 10
-2.81905
 20
29.25988
 30
0.0
 10
-2.80141
 20
29.20931
 30
0.0
 10
-2.80141
 20
29.20931
 30
0.0
 10
-2.7285
 20
29.31603
 30
0.0
 10
-2.63413
 20
29.36924
 30
0.0
 10
-2.51772
 20
29.36924
 30
0.0
 10
-2.51772
 20
29.36924
 30
0.0
 10
-2.42658
 20
29.36924
 30
0.0
 10
-2.35632
 20
29.34425
 30
0.0
 10
-2.30752
 20
29.29398
 30
0.0
 10
-2.30752
 20
29.29398
 30
0.0
 10
-2.25843
 20
29.24371
 30
0.0
 10
-2.23373
 20
29.16639
 30
0.0
 10
-2.23373
 20
29.06203
 30
0.0
 10
-2.23373
 20
29.06203
 30
0.0
 10
-2.23373
 20
29.06203
 30
0.0
 10
-2.23373
 20
28.43438
 30
0.0
 10
-2.23373
 20
28.43438
 30
0.0
 10
-2.23373
 20
28.43438
 30
0.0
 10
-2.23373
 20
28.43438
 30
0.0
 10
-2.38895
 20
28.43438
 30
0.0
 10
-2.38895
 20
28.43438
 30
0.0
 10
-2.38895
 20
28.43438
 30
0.0
 10
-2.38895
 20
28.43438
 30
0.0
 10
-2.38895
 20
29.01058
 30
0.0
 10
-2.38895
 20
29.01058
 30
0.0
 10
-2.38895
 20
29.01058
 30
0.0
 10
-2.38895
 20
29.07232
 30
0.0
 10
-2.39425
 20
29.117
 30
0.0
 10
-2.40424
 20
29.14434
 30
0.0
 10
-2.40424
 20
29.14434
 30
0.0
 10
-2.41424
 20
29.17168
 30
0.0
 10
-2.43246
 20
29.19344
 30
0.0
 10
-2.45922
 20
29.21019
 30
0.0
 10
-2.45922
 20
29.21019
 30
0.0
 10
-2.48567
 20
29.22695
 30
0.0
 10
-2.51684
 20
29.23518
 30
0.0
 10
-2.55241
 20
29.23518
 30
0.0
 10
-2.55241
 20
29.23518
 30
0.0
 10
-2.61708
 20
29.23518
 30
0.0
 10
-2.67059
 20
29.21372
 30
0.0
 10
-2.71321
 20
29.17109
 30
0.0
 10
-2.71321
 20
29.17109
 30
0.0
 10
-2.75584
 20
29.12817
 30
0.0
 10
-2.77701
 20
29.05968
 30
0.0
 10
-2.77701
 20
28.9656
 30
0.0
 10
-2.77701
 20
28.9656
 30
0.0
 10
-2.77701
 20
28.9656
 30
0.0
 10
-2.77701
 20
28.43438
 30
0.0
 10
-2.77701
 20
28.43438
 30
0.0
 10
-2.77701
 20
28.43438
 30
0.0
 10
-2.77701
 20
28.43438
 30
0.0
 10
-2.93223
 20
28.43438
 30
0.0
 10
-2.93223
 20
28.43438
 30
0.0
 10
-2.93223
 20
28.43438
 30
0.0
 10
-2.93223
 20
28.43438
 30
0.0
 10
-2.93223
 20
29.02851
 30
0.0
 10
-2.93223
 20
29.02851
 30
0.0
 10
-2.93223
 20
29.02851
 30
0.0
 10
-2.93223
 20
29.0973
 30
0.0
 10
-2.94487
 20
29.14905
 30
0.0
 10
-2.97015
 20
29.18344
 30
0.0
 10
-2.97015
 20
29.18344
 30
0.0
 10
-2.99543
 20
29.21784
 30
0.0
 10
-3.03689
 20
29.23518
 30
0.0
 10
-3.09421
 20
29.23518
 30
0.0
 10
-3.09421
 20
29.23518
 30
0.0
 10
-3.13772
 20
29.23518
 30
0.0
 10
-3.178
 20
29.22372
 30
0.0
 10
-3.21504
 20
29.20079
 30
0.0
 10
-3.21504
 20
29.20079
 30
0.0
 10
-3.25208
 20
29.17786
 30
0.0
 10
-3.27883
 20
29.14434
 30
0.0
 10
-3.29559
 20
29.09995
 30
0.0
 10
-3.29559
 20
29.09995
 30
0.0
 10
-3.31205
 20
29.05585
 30
0.0
 10
-3.32028
 20
28.99206
 30
0.0
 10
-3.32028
 20
28.90886
 30
0.0
 10
-3.32028
 20
28.90886
 30
0.0
 10
-3.32028
 20
28.90886
 30
0.0
 10
-3.32028
 20
28.43438
 30
0.0
 10
-3.32028
 20
28.43438
 30
0.0
 10
-3.32028
 20
28.43438
 30
0.0
 10
-3.32028
 20
28.43438
 30
0.0
 10
-3.4755
 20
28.43438
 30
0.0
 10
-3.4755
 20
28.43438
 30
0.0
  0
SPLINE
  5
D9
330
1F
100
AcDbEntity
  8
Layer 1
 62
   250
100
AcDbSpline
210
0.0
220
0.0
230
1.0
 70
    11
 71
     3
 72
   116
 73
   112
 74
     0
 42
0.000000001
 43
0.0000000001
 40
0.0
 40
0.0
 40
0.0
 40
0.0
 40
0.0344827586206897
 40
0.0344827586206897
 40
0.0344827586206897
 40
0.0344827586206897
 40
0.0689655172413793
 40
0.0689655172413793
 40
0.0689655172413793
 40
0.0689655172413793
 40
0.103448275862069
 40
0.103448275862069
 40
0.103448275862069
 40
0.103448275862069
 40
0.1379310344827586
 40
0.1379310344827586
 40
0.1379310344827586
 40
0.1379310344827586
 40
0.1724137931034483
 40
0.1724137931034483
 40
0.1724137931034483
 40
0.1724137931034483
 40
0.2068965517241379
 40
0.2068965517241379
 40
0.2068965517241379
 40
0.2068965517241379
 40
0.2413793103448276
 40
0.2413793103448276
 40
0.2413793103448276
 40
0.2413793103448276
 40
0.2758620689655172
 40
0.2758620689655172
 40
0.2758620689655172
 40
0.2758620689655172
 40
0.3103448275862069
 40
0.3103448275862069
 40
0.3103448275862069
 40
0.3103448275862069
 40
0.3448275862068966
 40
0.3448275862068966
 40
0.3448275862068966
 40
0.3448275862068966
 40
0.3793103448275862
 40
0.3793103448275862
 40
0.3793103448275862
 40
0.3793103448275862
 40
0.4137931034482759
 40
0.4137931034482759
 40
0.4137931034482759
 40
0.4137931034482759
 40
0.4482758620689655
 40
0.4482758620689655
 40
0.4482758620689655
 40
0.4482758620689655
 40
0.4827586206896552
 40
0.4827586206896552
 40
0.4827586206896552
 40
0.4827586206896552
 40
0.5172413793103449
 40
0.5172413793103449
 40
0.5172413793103449
 40
0.5172413793103449
 40
0.5517241379310345
 40
0.5517241379310345
 40
0.5517241379310345
 40
0.5517241379310345
 40
0.5862068965517241
 40
0.5862068965517241
 40
0.5862068965517241
 40
0.5862068965517241
 40
0.6206896551724138
 40
0.6206896551724138
 40
0.6206896551724138
 40
0.6206896551724138
 40
0.6551724137931034
 40
0.6551724137931034
 40
0.6551724137931034
 40
0.6551724137931034
 40
0.6896551724137931
 40
0.6896551724137931
 40
0.6896551724137931
 40
0.6896551724137931
 40
0.7241379310344828
 40
0.7241379310344828
 40
0.7241379310344828
 40
0.7241379310344828
 40
0.7586206896551724
 40
0.7586206896551724
 40
0.7586206896551724
 40
0.7586206896551724
 40
0.7931034482758621
 40
0.7931034482758621
 40
0.7931034482758621
 40
0.7931034482758621
 40
0.8275862068965517
 40
0.8275862068965517
 40
0.8275862068965517
 40
0.8275862068965517
 40
0.8620689655172413
 40
0.8620689655172413
 40
0.8620689655172413
 40
0.8620689655172413
 40
0.896551724137931
 40
0.896551724137931
 40
0.896551724137931
 40
0.896551724137931
 40
0.9310344827586207
 40
0.9310344827586207
 40
0.9310344827586207
 40
0.9310344827586207
 40
1.0
 40
1.0
 40
1.0
 40
1.0
 10
-2.00619
 20
28.43438
 30
0.0
 10
-2.00619
 20
28.43438
 30
0.0
 10
-2.00619
 20
29.34983
 30
0.0
 10
-2.00619
 20
29.34983
 30
0.0
 10
-2.00619
 20
29.34983
 30
0.0
 10
-2.00619
 20
29.34983
 30
0.0
 10
-1.86685
 20
29.34983
 30
0.0
 10
-1.86685
 20
29.34983
 30
0.0
 10
-1.86685
 20
29.34983
 30
0.0
 10
-1.86685
 20
29.34983
 30
0.0
 10
-1.86685
 20
29.22048
 30
0.0
 10
-1.86685
 20
29.22048
 30
0.0
 10
-1.86685
 20
29.22048
 30
0.0
 10
-1.83833
 20
29.26517
 30
0.0
 10
-1.80011
 20
29.30133
 30
0.0
 10
-1.75249
 20
29.32837
 30
0.0
 10
-1.75249
 20
29.32837
 30
0.0
 10
-1.70486
 20
29.35571
 30
0.0
 10
-1.65077
 20
29.36924
 30
0.0
 10
-1.58992
 20
29.36924
 30
0.0
 10
-1.58992
 20
29.36924
 30
0.0
 10
-1.5223
 20
29.36924
 30
0.0
 10
-1.46674
 20
29.35513
 30
0.0
 10
-1.42353
 20
29.3272
 30
0.0
 10
-1.42353
 20
29.3272
 30
0.0
 10
-1.38031
 20
29.29898
 30
0.0
 10
-1.34974
 20
29.25988
 30
0.0
 10
-1.3321
 20
29.20931
 30
0.0
 10
-1.3321
 20
29.20931
 30
0.0
 10
-1.25919
 20
29.31603
 30
0.0
 10
-1.16482
 20
29.36924
 30
0.0
 10
-1.04841
 20
29.36924
 30
0.0
 10
-1.04841
 20
29.36924
 30
0.0
 10
-0.95727
 20
29.36924
 30
0.0
 10
-0.88701
 20
29.34425
 30
0.0
 10
-0.83821
 20
29.29398
 30
0.0
 10
-0.83821
 20
29.29398
 30
0.0
 10
-0.78912
 20
29.24371
 30
0.0
 10
-0.76442
 20
29.16639
 30
0.0
 10
-0.76442
 20
29.06203
 30
0.0
 10
-0.76442
 20
29.06203
 30
0.0
 10
-0.76442
 20
29.06203
 30
0.0
 10
-0.76442
 20
28.43438
 30
0.0
 10
-0.76442
 20
28.43438
 30
0.0
 10
-0.76442
 20
28.43438
 30
0.0
 10
-0.76442
 20
28.43438
 30
0.0
 10
-0.91964
 20
28.43438
 30
0.0
 10
-0.91964
 20
28.43438
 30
0.0
 10
-0.91964
 20
28.43438
 30
0.0
 10
-0.91964
 20
28.43438
 30
0.0
 10
-0.91964
 20
29.01058
 30
0.0
 10
-0.91964
 20
29.01058
 30
0.0
 10
-0.91964
 20
29.01058
 30
0.0
 10
-0.91964
 20
29.07232
 30
0.0
 10
-0.92494
 20
29.117
 30
0.0
 10
-0.93493
 20
29.14434
 30
0.0
 10
-0.93493
 20
29.14434
 30
0.0
 10
-0.94493
 20
29.17168
 30
0.0
 10
-0.96315
 20
29.19344
 30
0.0
 10
-0.98991
 20
29.21019
 30
0.0
 10
-0.98991
 20
29.21019
 30
0.0
 10
-1.01636
 20
29.22695
 30
0.0
 10
-1.04753
 20
29.23518
 30
0.0
 10
-1.0831
 20
29.23518
 30
0.0
 10
-1.0831
 20
29.23518
 30
0.0
 10
-1.14777
 20
29.23518
 30
0.0
 10
-1.20128
 20
29.21372
 30
0.0
 10
-1.2439
 20
29.17109
 30
0.0
 10
-1.2439
 20
29.17109
 30
0.0
 10
-1.28653
 20
29.12817
 30
0.0
 10
-1.3077
 20
29.05968
 30
0.0
 10
-1.3077
 20
28.9656
 30
0.0
 10
-1.3077
 20
28.9656
 30
0.0
 10
-1.3077
 20
28.9656
 30
0.0
 10
-1.3077
 20
28.43438
 30
0.0
 10
-1.3077
 20
28.43438
 30
0.0
 10
-1.3077
 20
28.43438
 30
0.0
 10
-1.3077
 20
28.43438
 30
0.0
 10
-1.46292
 20
28.43438
 30
0.0
 10
-1.46292
 20
28.43438
 30
0.0
 10
-1.46292
 20
28.43438
 30
0.0
 10
-1.46292
 20
28.43438
 30
0.0
 10
-1.46292
 20
29.02851
 30
0.0
 10
-1.46292
 20
29.02851
 30
0.0
 10
-1.46292
 20
29.02851
 30
0.0
 10
-1.46292
 20
29.0973
 30
0.0
 10
-1.47556
 20
29.14905
 30
0.0
 10
-1.50084
 20
29.18344
 30
0.0
 10
-1.50084
 20
29.18344
 30
0.0
 10
-1.52612
 20
29.21784
 30
0.0
 10
-1.56758
 20
29.23518
 30
0.0
 10
-1.6249
 20
29.23518
 30
0.0
 10
-1.6249
 20
29.23518
 30
0.0
 10
-1.66841
 20
29.23518
 30
0.0
 10
-1.70869
 20
29.22372
 30
0.0
 10
-1.74573
 20
29.20079
 30
0.0
 10
-1.74573
 20
29.20079
 30
0.0
 10
-1.78277
 20
29.17786
 30
0.0
 10
-1.80952
 20
29.14434
 30
0.0
 10
-1.82628
 20
29.09995
 30
0.0
 10
-1.82628
 20
29.09995
 30
0.0
 10
-1.84274
 20
29.05585
 30
0.0
 10
-1.85097
 20
28.99206
 30
0.0
 10
-1.85097
 20
28.90886
 30
0.0
 10
-1.85097
 20
28.90886
 30
0.0
 10
-1.85097
 20
28.90886
 30
0.0
 10
-1.85097
 20
28.43438
 30
0.0
 10
-1.85097
 20
28.43438
 30
0.0
 10
-1.85097
 20
28.43438
 30
0.0
 10
-1.85097
 20
28.43438
 30
0.0
 10
-2.00619
 20
28.43438
 30
0.0
 10
-2.00619
 20
28.43438
 30
0.0
  0
SPLINE
  5
DA
330
1F
100
AcDbEntity
  8
Layer 1
 62
   250
100
AcDbSpline
210
0.0
220
0.0
230
1.0
 70
    11
 71
     3
 72
    84
 73
    80
 74
     0
 42
0.000000001
 43
0.0000000001
 40
0.0
 40
0.0
 40
0.0
 40
0.0
 40
0.0476190476190476
 40
0.0476190476190476
 40
0.0476190476190476
 40
0.0476190476190476
 40
0.0952380952380952
 40
0.0952380952380952
 40
0.0952380952380952
 40
0.0952380952380952
 40
0.1428571428571428
 40
0.1428571428571428
 40
0.1428571428571428
 40
0.1428571428571428
 40
0.1904761904761905
 40
0.1904761904761905
 40
0.1904761904761905
 40
0.1904761904761905
 40
0.2380952380952381
 40
0.2380952380952381
 40
0.2380952380952381
 40
0.2380952380952381
 40
0.2857142857142857
 40
0.2857142857142857
 40
0.2857142857142857
 40
0.2857142857142857
 40
0.3333333333333333
 40
0.3333333333333333
 40
0.3333333333333333
 40
0.3333333333333333
 40
0.3809523809523809
 40
0.3809523809523809
 40
0.3809523809523809
 40
0.3809523809523809
 40
0.4285714285714285
 40
0.4285714285714285
 40
0.4285714285714285
 40
0.4285714285714285
 40
0.4761904761904762
 40
0.4761904761904762
 40
0.4761904761904762
 40
0.4761904761904762
 40
0.5238095238095238
 40
0.5238095238095238
 40
0.5238095238095238
 40
0.5238095238095238
 40
0.5714285714285714
 40
0.5714285714285714
 40
0.5714285714285714
 40
0.5714285714285714
 40
0.6190476190476191
 40
0.6190476190476191
 40
0.6190476190476191
 40
0.6190476190476191
 40
0.6666666666666666
 40
0.6666666666666666
 40
0.6666666666666666
 40
0.6666666666666666
 40
0.7142857142857143
 40
0.7142857142857143
 40
0.7142857142857143
 40
0.7142857142857143
 40
0.7619047619047619
 40
0.7619047619047619
 40
0.7619047619047619
 40
0.7619047619047619
 40
0.8095238095238095
 40
0.8095238095238095
 40
0.8095238095238095
 40
0.8095238095238095
 40
0.8571428571428571
 40
0.8571428571428571
 40
0.8571428571428571
 40
0.8571428571428571
 40
0.9047619047619048
 40
0.9047619047619048
 40
0.9047619047619048
 40
0.9047619047619048
 40
1.0
 40
1.0
 40
1.0
 40
1.0
 10
0.29008
 20
28.57284
 30
0.0
 10
0.29008
 20
28.57284
 30
0.0
 10
0.31124
 20
28.43585
 30
0.0
 10
0.31124
 20
28.43585
 30
0.0
 10
0.31124
 20
28.43585
 30
0.0
 10
0.26773
 20
28.42674
 30
0.0
 10
0.22864
 20
28.42203
 30
0.0
 10
0.19453
 20
28.42203
 30
0.0
 10
0.19453
 20
28.42203
 30
0.0
 10
0.13838
 20
28.42203
 30
0.0
 10
0.09487
 20
28.43085
 30
0.0
 10
0.06371
 20
28.44879
 30
0.0
 10
0.06371
 20
28.44879
 30
0.0
 10
0.03284
 20
28.46672
 30
0.0
 10
0.01109
 20
28.48994
 30
0.0
 10
-0.00155
 20
28.51905
 30
0.0
 10
-0.00155
 20
28.51905
 30
0.0
 10
-0.01419
 20
28.54815
 30
0.0
 10
-0.02037
 20
28.6093
 30
0.0
 10
-0.02037
 20
28.70249
 30
0.0
 10
-0.02037
 20
28.70249
 30
0.0
 10
-0.02037
 20
28.70249
 30
0.0
 10
-0.02037
 20
29.22989
 30
0.0
 10
-0.02037
 20
29.22989
 30
0.0
 10
-0.02037
 20
29.22989
 30
0.0
 10
-0.02037
 20
29.22989
 30
0.0
 10
-0.13502
 20
29.22989
 30
0.0
 10
-0.13502
 20
29.22989
 30
0.0
 10
-0.13502
 20
29.22989
 30
0.0
 10
-0.13502
 20
29.22989
 30
0.0
 10
-0.13502
 20
29.34983
 30
0.0
 10
-0.13502
 20
29.34983
 30
0.0
 10
-0.13502
 20
29.34983
 30
0.0
 10
-0.13502
 20
29.34983
 30
0.0
 10
-0.02037
 20
29.34983
 30
0.0
 10
-0.02037
 20
29.34983
 30
0.0
 10
-0.02037
 20
29.34983
 30
0.0
 10
-0.02037
 20
29.34983
 30
0.0
 10
-0.02037
 20
29.5762
 30
0.0
 10
-0.02037
 20
29.5762
 30
0.0
 10
-0.02037
 20
29.5762
 30
0.0
 10
-0.02037
 20
29.5762
 30
0.0
 10
0.13486
 20
29.66939
 30
0.0
 10
0.13486
 20
29.66939
 30
0.0
 10
0.13486
 20
29.66939
 30
0.0
 10
0.13486
 20
29.66939
 30
0.0
 10
0.13486
 20
29.34983
 30
0.0
 10
0.13486
 20
29.34983
 30
0.0
 10
0.13486
 20
29.34983
 30
0.0
 10
0.13486
 20
29.34983
 30
0.0
 10
0.29008
 20
29.34983
 30
0.0
 10
0.29008
 20
29.34983
 30
0.0
 10
0.29008
 20
29.34983
 30
0.0
 10
0.29008
 20
29.34983
 30
0.0
 10
0.29008
 20
29.22989
 30
0.0
 10
0.29008
 20
29.22989
 30
0.0
 10
0.29008
 20
29.22989
 30
0.0
 10
0.29008
 20
29.22989
 30
0.0
 10
0.13486
 20
29.22989
 30
0.0
 10
0.13486
 20
29.22989
 30
0.0
 10
0.13486
 20
29.22989
 30
0.0
 10
0.13486
 20
29.22989
 30
0.0
 10
0.13486
 20
28.69367
 30
0.0
 10
0.13486
 20
28.69367
 30
0.0
 10
0.13486
 20
28.69367
 30
0.0
 10
0.13486
 20
28.64928
 30
0.0
 10
0.1375
 20
28.62076
 30
0.0
 10
0.14309
 20
28.60812
 30
0.0
 10
0.14309
 20
28.60812
 30
0.0
 10
0.14838
 20
28.59548
 30
0.0
 10
0.1572
 20
28.58549
 30
0.0
 10
0.16955
 20
28.57784
 30
0.0
 10
0.16955
 20
28.57784
 30
0.0
 10
0.18189
 20
28.57049
 30
0.0
 10
0.19953
 20
28.56667
 30
0.0
 10
0.22246
 20
28.56667
 30
0.0
 10
0.22246
 20
28.56667
 30
0.0
 10
0.23951
 20
28.56667
 30
0.0
 10
0.26215
 20
28.56873
 30
0.0
 10
0.29008
 20
28.57284
 30
0.0
  0
SPLINE
  5
DB
330
1F
100
AcDbEntity
  8
Layer 1
 62
   250
100
AcDbSpline
210
0.0
220
0.0
230
1.0
 70
    11
 71
     3
 72
    72
 73
    68
 74
     0
 42
0.000000001
 43
0.0000000001
 40
0.0
 40
0.0
 40
0.0
 40
0.0
 40
0.0555555555555556
 40
0.0555555555555556
 40
0.0555555555555556
 40
0.0555555555555556
 40
0.1111111111111111
 40
0.1111111111111111
 40
0.1111111111111111
 40
0.1111111111111111
 40
0.1666666666666667
 40
0.1666666666666667
 40
0.1666666666666667
 40
0.1666666666666667
 40
0.2222222222222222
 40
0.2222222222222222
 40
0.2222222222222222
 40
0.2222222222222222
 40
0.2777777777777778
 40
0.2777777777777778
 40
0.2777777777777778
 40
0.2777777777777778
 40
0.3333333333333333
 40
0.3333333333333333
 40
0.3333333333333333
 40
0.3333333333333333
 40
0.3888888888888889
 40
0.3888888888888889
 40
0.3888888888888889
 40
0.3888888888888889
 40
0.4444444444444444
 40
0.4444444444444444
 40
0.4444444444444444
 40
0.4444444444444444
 40
0.5
 40
0.5
 40
0.5
 40
0.5
 40
0.5555555555555556
 40
0.5555555555555556
 40
0.5555555555555556
 40
0.5555555555555556
 40
0.6111111111111112
 40
0.6111111111111112
 40
0.6111111111111112
 40
0.6111111111111112
 40
0.6666666666666666
 40
0.6666666666666666
 40
0.6666666666666666
 40
0.6666666666666666
 40
0.7222222222222222
 40
0.7222222222222222
 40
0.7222222222222222
 40
0.7222222222222222
 40
0.7777777777777778
 40
0.7777777777777778
 40
0.7777777777777778
 40
0.7777777777777778
 40
0.8333333333333334
 40
0.8333333333333334
 40
0.8333333333333334
 40
0.8333333333333334
 40
0.8888888888888888
 40
0.8888888888888888
 40
0.8888888888888888
 40
0.8888888888888888
 40
1.0
 40
1.0
 40
1.0
 40
1.0
 10
0.44324
 20
28.43438
 30
0.0
 10
0.44324
 20
28.43438
 30
0.0
 10
0.44324
 20
29.69732
 30
0.0
 10
0.44324
 20
29.69732
 30
0.0
 10
0.44324
 20
29.69732
 30
0.0
 10
0.44324
 20
29.69732
 30
0.0
 10
0.59846
 20
29.69732
 30
0.0
 10
0.59846
 20
29.69732
 30
0.0
 10
0.59846
 20
29.69732
 30
0.0
 10
0.59846
 20
29.69732
 30
0.0
 10
0.59846
 20
29.24282
 30
0.0
 10
0.59846
 20
29.24282
 30
0.0
 10
0.59846
 20
29.24282
 30
0.0
 10
0.67048
 20
29.3272
 30
0.0
 10
0.76132
 20
29.36924
 30
0.0
 10
0.87127
 20
29.36924
 30
0.0
 10
0.87127
 20
29.36924
 30
0.0
 10
0.93859
 20
29.36924
 30
0.0
 10
0.99709
 20
29.35601
 30
0.0
 10
1.04707
 20
29.32926
 30
0.0
 10
1.04707
 20
29.32926
 30
0.0
 10
1.09675
 20
29.3025
 30
0.0
 10
1.13233
 20
29.26576
 30
0.0
 10
1.15379
 20
29.21872
 30
0.0
 10
1.15379
 20
29.21872
 30
0.0
 10
1.17525
 20
29.17168
 30
0.0
 10
1.18583
 20
29.10318
 30
0.0
 10
1.18583
 20
29.01381
 30
0.0
 10
1.18583
 20
29.01381
 30
0.0
 10
1.18583
 20
29.01381
 30
0.0
 10
1.18583
 20
28.43438
 30
0.0
 10
1.18583
 20
28.43438
 30
0.0
 10
1.18583
 20
28.43438
 30
0.0
 10
1.18583
 20
28.43438
 30
0.0
 10
1.03061
 20
28.43438
 30
0.0
 10
1.03061
 20
28.43438
 30
0.0
 10
1.03061
 20
28.43438
 30
0.0
 10
1.03061
 20
28.43438
 30
0.0
 10
1.03061
 20
29.01323
 30
0.0
 10
1.03061
 20
29.01323
 30
0.0
 10
1.03061
 20
29.01323
 30
0.0
 10
1.03061
 20
29.09054
 30
0.0
 10
1.01385
 20
29.14699
 30
0.0
 10
0.98063
 20
29.18227
 30
0.0
 10
0.98063
 20
29.18227
 30
0.0
 10
0.94712
 20
29.21754
 30
0.0
 10
0.90008
 20
29.23518
 30
0.0
 10
0.83893
 20
29.23518
 30
0.0
 10
0.83893
 20
29.23518
 30
0.0
 10
0.79337
 20
29.23518
 30
0.0
 10
0.75045
 20
29.22342
 30
0.0
 10
0.71017
 20
29.19961
 30
0.0
 10
0.71017
 20
29.19961
 30
0.0
 10
0.66989
 20
29.1758
 30
0.0
 10
0.64138
 20
29.14346
 30
0.0
 10
0.62403
 20
29.1026
 30
0.0
 10
0.62403
 20
29.1026
 30
0.0
 10
0.60698
 20
29.06203
 30
0.0
 10
0.59846
 20
29.00588
 30
0.0
 10
0.59846
 20
28.93415
 30
0.0
 10
0.59846
 20
28.93415
 30
0.0
 10
0.59846
 20
28.93415
 30
0.0
 10
0.59846
 20
28.43438
 30
0.0
 10
0.59846
 20
28.43438
 30
0.0
 10
0.59846
 20
28.43438
 30
0.0
 10
0.59846
 20
28.43438
 30
0.0
 10
0.44324
 20
28.43438
 30
0.0
 10
0.44324
 20
28.43438
 30
0.0
  0
SPLINE
  5
DC
330
1F
100
AcDbEntity
  8
Layer 1
 62
   250
100
AcDbSpline
210
0.0
220
0.0
230
1.0
 70
    11
 71
     3
 72
    20
 73
    16
 74
     0
 42
0.000000001
 43
0.0000000001
 40
0.0
 40
0.0
 40
0.0
 40
0.0
 40
0.2
 40
0.2
 40
0.2
 40
0.2
 40
0.4
 40
0.4
 40
0.4
 40
0.4
 40
0.6
 40
0.6
 40
0.6
 40
0.6
 40
1.0
 40
1.0
 40
1.0
 40
1.0
 10
1.42425
 20
29.52093
 30
0.0
 10
1.42425
 20
29.52093
 30
0.0
 10
1.42425
 20
29.69732
 30
0.0
 10
1.42425
 20
29.69732
 30
0.0
 10
1.42425
 20
29.69732
 30
0.0
 10
1.42425
 20
29.69732
 30
0.0
 10
1.57947
 20
29.69732
 30
0.0
 10
1.57947
 20
29.69732
 30
0.0
 10
1.57947
 20
29.69732
 30
0.0
 10
1.57947
 20
29.69732
 30
0.0
 10
1.57947
 20
29.52093
 30
0.0
 10
1.57947
 20
29.52093
 30
0.0
 10
1.57947
 20
29.52093
 30
0.0
 10
1.57947
 20
29.52093
 30
0.0
 10
1.42425
 20
29.52093
 30
0.0
 10
1.42425
 20
29.52093
 30
0.0
  0
SPLINE
  5
DD
330
1F
100
AcDbEntity
  8
Layer 1
 62
   250
100
AcDbSpline
210
0.0
220
0.0
230
1.0
 70
    11
 71
     3
 72
    20
 73
    16
 74
     0
 42
0.000000001
 43
0.0000000001
 40
0.0
 40
0.0
 40
0.0
 40
0.0
 40
0.2
 40
0.2
 40
0.2
 40
0.2
 40
0.4
 40
0.4
 40
0.4
 40
0.4
 40
0.6
 40
0.6
 40
0.6
 40
0.6
 40
1.0
 40
1.0
 40
1.0
 40
1.0
 10
1.42425
 20
28.43438
 30
0.0
 10
1.42425
 20
28.43438
 30
0.0
 10
1.42425
 20
29.34983
 30
0.0
 10
1.42425
 20
29.34983
 30
0.0
 10
1.42425
 20
29.34983
 30
0.0
 10
1.42425
 20
29.34983
 30
0.0
 10
1.57947
 20
29.34983
 30
0.0
 10
1.57947
 20
29.34983
 30
0.0
 10
1.57947
 20
29.34983
 30
0.0
 10
1.57947
 20
29.34983
 30
0.0
 10
1.57947
 20
28.43438
 30
0.0
 10
1.57947
 20
28.43438
 30
0.0
 10
1.57947
 20
28.43438
 30
0.0
 10
1.57947
 20
28.43438
 30
0.0
 10
1.42425
 20
28.43438
 30
0.0
 10
1.42425
 20
28.43438
 30
0.0
  0
SPLINE
  5
DE
330
1F
100
AcDbEntity
  8
Layer 1
 62
   250
100
AcDbSpline
210
0.0
220
0.0
230
1.0
 70
    11
 71
     3
 72
    80
 73
    76
 74
     0
 42
0.000000001
 43
0.0000000001
 40
0.0
 40
0.0
 40
0.0
 40
0.0
 40
0.05
 40
0.05
 40
0.05
 40
0.05
 40
0.1
 40
0.1
 40
0.1
 40
0.1
 40
0.15
 40
0.15
 40
0.15
 40
0.15
 40
0.2
 40
0.2
 40
0.2
 40
0.2
 40
0.25
 40
0.25
 40
0.25
 40
0.25
 40
0.3
 40
0.3
 40
0.3
 40
0.3
 40
0.35
 40
0.35
 40
0.35
 40
0.35
 40
0.4
 40
0.4
 40
0.4
 40
0.4
 40
0.45
 40
0.45
 40
0.45
 40
0.45
 40
0.5
 40
0.5
 40
0.5
 40
0.5
 40
0.55
 40
0.55
 40
0.55
 40
0.55
 40
0.6
 40
0.6
 40
0.6
 40
0.6
 40
0.65
 40
0.65
 40
0.65
 40
0.65
 40
0.7
 40
0.7
 40
0.7
 40
0.7
 40
0.75
 40
0.75
 40
0.75
 40
0.75
 40
0.8
 40
0.8
 40
0.8
 40
0.8
 40
0.85
 40
0.85
 40
0.85
 40
0.85
 40
0.9
 40
0.9
 40
0.9
 40
0.9
 40
1.0
 40
1.0
 40
1.0
 40
1.0
 10
2.41408
 20
28.76952
 30
0.0
 10
2.41408
 20
28.76952
 30
0.0
 10
2.56578
 20
28.74835
 30
0.0
 10
2.56578
 20
28.74835
 30
0.0
 10
2.56578
 20
28.74835
 30
0.0
 10
2.54902
 20
28.64399
 30
0.0
 10
2.50669
 20
28.56256
 30
0.0
 10
2.43819
 20
28.50347
 30
0.0
 10
2.43819
 20
28.50347
 30
0.0
 10
2.36969
 20
28.44438
 30
0.0
 10
2.28532
 20
28.41498
 30
0.0
 10
2.18566
 20
28.41498
 30
0.0
 10
2.18566
 20
28.41498
 30
0.0
 10
2.06072
 20
28.41498
 30
0.0
 10
1.96018
 20
28.45584
 30
0.0
 10
1.88433
 20
28.53757
 30
0.0
 10
1.88433
 20
28.53757
 30
0.0
 10
1.80819
 20
28.61929
 30
0.0
 10
1.77027
 20
28.7363
 30
0.0
 10
1.77027
 20
28.88858
 30
0.0
 10
1.77027
 20
28.88858
 30
0.0
 10
1.77027
 20
28.98736
 30
0.0
 10
1.78673
 20
29.07349
 30
0.0
 10
1.81936
 20
29.14758
 30
0.0
 10
1.81936
 20
29.14758
 30
0.0
 10
1.85199
 20
29.22136
 30
0.0
 10
1.90167
 20
29.27693
 30
0.0
 10
1.9687
 20
29.31367
 30
0.0
 10
1.9687
 20
29.31367
 30
0.0
 10
2.03544
 20
29.35072
 30
0.0
 10
2.10805
 20
29.36924
 30
0.0
 10
2.18683
 20
29.36924
 30
0.0
 10
2.18683
 20
29.36924
 30
0.0
 10
2.28591
 20
29.36924
 30
0.0
 10
2.36734
 20
29.34425
 30
0.0
 10
2.43025
 20
29.29398
 30
0.0
 10
2.43025
 20
29.29398
 30
0.0
 10
2.49346
 20
29.24371
 30
0.0
 10
2.53403
 20
29.17227
 30
0.0
 10
2.55166
 20
29.07996
 30
0.0
 10
2.55166
 20
29.07996
 30
0.0
 10
2.55166
 20
29.07996
 30
0.0
 10
2.40173
 20
29.05703
 30
0.0
 10
2.40173
 20
29.05703
 30
0.0
 10
2.40173
 20
29.05703
 30
0.0
 10
2.38733
 20
29.11847
 30
0.0
 10
2.36205
 20
29.16463
 30
0.0
 10
2.3253
 20
29.19579
 30
0.0
 10
2.3253
 20
29.19579
 30
0.0
 10
2.28885
 20
29.22666
 30
0.0
 10
2.24475
 20
29.24224
 30
0.0
 10
2.19301
 20
29.24224
 30
0.0
 10
2.19301
 20
29.24224
 30
0.0
 10
2.11481
 20
29.24224
 30
0.0
 10
2.05131
 20
29.21431
 30
0.0
 10
2.00222
 20
29.15845
 30
0.0
 10
2.00222
 20
29.15845
 30
0.0
 10
1.95341
 20
29.1023
 30
0.0
 10
1.92901
 20
29.01411
 30
0.0
 10
1.92901
 20
28.89299
 30
0.0
 10
1.92901
 20
28.89299
 30
0.0
 10
1.92901
 20
28.77011
 30
0.0
 10
1.95253
 20
28.68103
 30
0.0
 10
1.99957
 20
28.62547
 30
0.0
 10
1.99957
 20
28.62547
 30
0.0
 10
2.0469
 20
28.5699
 30
0.0
 10
2.10834
 20
28.54198
 30
0.0
 10
2.1839
 20
28.54198
 30
0.0
 10
2.1839
 20
28.54198
 30
0.0
 10
2.24504
 20
28.54198
 30
0.0
 10
2.2959
 20
28.5605
 30
0.0
 10
2.33647
 20
28.59783
 30
0.0
 10
2.33647
 20
28.59783
 30
0.0
 10
2.37733
 20
28.63487
 30
0.0
 10
2.4032
 20
28.6922
 30
0.0
 10
2.41408
 20
28.76952
 30
0.0
  0
SPLINE
  5
DF
330
1F
100
AcDbEntity
  8
Layer 1
 62
   250
100
AcDbSpline
210
0.0
220
0.0
230
1.0
 70
    11
 71
     3
 72
    52
 73
    48
 74
     0
 42
0.000000001
 43
0.0000000001
 40
0.0
 40
0.0
 40
0.0
 40
0.0
 40
0.0769230769230769
 40
0.0769230769230769
 40
0.0769230769230769
 40
0.0769230769230769
 40
0.1538461538461539
 40
0.1538461538461539
 40
0.1538461538461539
 40
0.1538461538461539
 40
0.2307692307692308
 40
0.2307692307692308
 40
0.2307692307692308
 40
0.2307692307692308
 40
0.3076923076923077
 40
0.3076923076923077
 40
0.3076923076923077
 40
0.3076923076923077
 40
0.3846153846153846
 40
0.3846153846153846
 40
0.3846153846153846
 40
0.3846153846153846
 40
0.4615384615384616
 40
0.4615384615384616
 40
0.4615384615384616
 40
0.4615384615384616
 40
0.5384615384615384
 40
0.5384615384615384
 40
0.5384615384615384
 40
0.5384615384615384
 40
0.6153846153846154
 40
0.6153846153846154
 40
0.6153846153846154
 40
0.6153846153846154
 40
0.6923076923076923
 40
0.6923076923076923
 40
0.6923076923076923
 40
0.6923076923076923
 40
0.7692307692307693
 40
0.7692307692307693
 40
0.7692307692307693
 40
0.7692307692307693
 40
0.8461538461538461
 40
0.8461538461538461
 40
0.8461538461538461
 40
0.8461538461538461
 40
1.0
 40
1.0
 40
1.0
 40
1.0
 10
2.69865
 20
28.43438
 30
0.0
 10
2.69865
 20
28.43438
 30
0.0
 10
2.69865
 20
29.69732
 30
0.0
 10
2.69865
 20
29.69732
 30
0.0
 10
2.69865
 20
29.69732
 30
0.0
 10
2.69865
 20
29.69732
 30
0.0
 10
2.85388
 20
29.69732
 30
0.0
 10
2.85388
 20
29.69732
 30
0.0
 10
2.85388
 20
29.69732
 30
0.0
 10
2.85388
 20
29.69732
 30
0.0
 10
2.85388
 20
28.97795
 30
0.0
 10
2.85388
 20
28.97795
 30
0.0
 10
2.85388
 20
28.97795
 30
0.0
 10
2.85388
 20
28.97795
 30
0.0
 10
3.22076
 20
29.34983
 30
0.0
 10
3.22076
 20
29.34983
 30
0.0
 10
3.22076
 20
29.34983
 30
0.0
 10
3.22076
 20
29.34983
 30
0.0
 10
3.42126
 20
29.34983
 30
0.0
 10
3.42126
 20
29.34983
 30
0.0
 10
3.42126
 20
29.34983
 30
0.0
 10
3.42126
 20
29.34983
 30
0.0
 10
3.07201
 20
29.0097
 30
0.0
 10
3.07201
 20
29.0097
 30
0.0
 10
3.07201
 20
29.0097
 30
0.0
 10
3.07201
 20
29.0097
 30
0.0
 10
3.45653
 20
28.43438
 30
0.0
 10
3.45653
 20
28.43438
 30
0.0
 10
3.45653
 20
28.43438
 30
0.0
 10
3.45653
 20
28.43438
 30
0.0
 10
3.26545
 20
28.43438
 30
0.0
 10
3.26545
 20
28.43438
 30
0.0
 10
3.26545
 20
28.43438
 30
0.0
 10
3.26545
 20
28.43438
 30
0.0
 10
2.96147
 20
28.9021
 30
0.0
 10
2.96147
 20
28.9021
 30
0.0
 10
2.96147
 20
28.9021
 30
0.0
 10
2.96147
 20
28.9021
 30
0.0
 10
2.85388
 20
28.79745
 30
0.0
 10
2.85388
 20
28.79745
 30
0.0
 10
2.85388
 20
28.79745
 30
0.0
 10
2.85388
 20
28.79745
 30
0.0
 10
2.85388
 20
28.43438
 30
0.0
 10
2.85388
 20
28.43438
 30
0.0
 10
2.85388
 20
28.43438
 30
0.0
 10
2.85388
 20
28.43438
 30
0.0
 10
2.69865
 20
28.43438
 30
0.0
 10
2.69865
 20
28.43438
 30
0.0
  0
SPLINE
  5
E0
330
1F
100
AcDbEntity
  8
Layer 1
 62
   250
100
AcDbSpline
210
0.0
220
0.0
230
1.0
 70
    11
 71
     3
 72
    64
 73
    60
 74
     0
 42
0.000000001
 43
0.0000000001
 40
0.0
 40
0.0
 40
0.0
 40
0.0
 40
0.0625
 40
0.0625
 40
0.0625
 40
0.0625
 40
0.125
 40
0.125
 40
0.125
 40
0.125
 40
0.1875
 40
0.1875
 40
0.1875
 40
0.1875
 40
0.25
 40
0.25
 40
0.25
 40
0.25
 40
0.3125
 40
0.3125
 40
0.3125
 40
0.3125
 40
0.375
 40
0.375
 40
0.375
 40
0.375
 40
0.4375
 40
0.4375
 40
0.4375
 40
0.4375
 40
0.5
 40
0.5
 40
0.5
 40
0.5
 40
0.5625
 40
0.5625
 40
0.5625
 40
0.5625
 40
0.625
 40
0.625
 40
0.625
 40
0.625
 40
0.6875
 40
0.6875
 40
0.6875
 40
0.6875
 40
0.75
 40
0.75
 40
0.75
 40
0.75
 40
0.8125
 40
0.8125
 40
0.8125
 40
0.8125
 40
0.875
 40
0.875
 40
0.875
 40
0.875
 40
1.0
 40
1.0
 40
1.0
 40
1.0
 10
4.07007
 20
28.08337
 30
0.0
 10
4.07007
 20
28.08337
 30
0.0
 10
4.07007
 20
29.34983
 30
0.0
 10
4.07007
 20
29.34983
 30
0.0
 10
4.07007
 20
29.34983
 30
0.0
 10
4.07007
 20
29.34983
 30
0.0
 10
4.21118
 20
29.34983
 30
0.0
 10
4.21118
 20
29.34983
 30
0.0
 10
4.21118
 20
29.34983
 30
0.0
 10
4.21118
 20
29.34983
 30
0.0
 10
4.21118
 20
29.2296
 30
0.0
 10
4.21118
 20
29.2296
 30
0.0
 10
4.21118
 20
29.2296
 30
0.0
 10
4.2444
 20
29.27604
 30
0.0
 10
4.28203
 20
29.31103
 30
0.0
 10
4.32406
 20
29.33425
 30
0.0
 10
4.32406
 20
29.33425
 30
0.0
 10
4.36581
 20
29.35748
 30
0.0
 10
4.41667
 20
29.36924
 30
0.0
 10
4.47635
 20
29.36924
 30
0.0
 10
4.47635
 20
29.36924
 30
0.0
 10
4.55455
 20
29.36924
 30
0.0
 10
4.62334
 20
29.34925
 30
0.0
 10
4.68301
 20
29.30897
 30
0.0
 10
4.68301
 20
29.30897
 30
0.0
 10
4.74269
 20
29.26899
 30
0.0
 10
4.78767
 20
29.21225
 30
0.0
 10
4.81825
 20
29.13934
 30
0.0
 10
4.81825
 20
29.13934
 30
0.0
 10
4.84853
 20
29.06614
 30
0.0
 10
4.86381
 20
28.98618
 30
0.0
 10
4.86381
 20
28.89887
 30
0.0
 10
4.86381
 20
28.89887
 30
0.0
 10
4.86381
 20
28.80568
 30
0.0
 10
4.84706
 20
28.7216
 30
0.0
 10
4.81354
 20
28.64663
 30
0.0
 10
4.81354
 20
28.64663
 30
0.0
 10
4.78003
 20
28.57196
 30
0.0
 10
4.73123
 20
28.51464
 30
0.0
 10
4.66714
 20
28.47466
 30
0.0
 10
4.66714
 20
28.47466
 30
0.0
 10
4.60335
 20
28.43497
 30
0.0
 10
4.53602
 20
28.41498
 30
0.0
 10
4.46547
 20
28.41498
 30
0.0
 10
4.46547
 20
28.41498
 30
0.0
 10
4.41373
 20
28.41498
 30
0.0
 10
4.36728
 20
28.42585
 30
0.0
 10
4.32642
 20
28.44761
 30
0.0
 10
4.32642
 20
28.44761
 30
0.0
 10
4.28526
 20
28.46936
 30
0.0
 10
4.25175
 20
28.4967
 30
0.0
 10
4.22529
 20
28.52992
 30
0.0
 10
4.22529
 20
28.52992
 30
0.0
 10
4.22529
 20
28.52992
 30
0.0
 10
4.22529
 20
28.08337
 30
0.0
 10
4.22529
 20
28.08337
 30
0.0
 10
4.22529
 20
28.08337
 30
0.0
 10
4.22529
 20
28.08337
 30
0.0
 10
4.07007
 20
28.08337
 30
0.0
 10
4.07007
 20
28.08337
 30
0.0
  0
SPLINE
  5
E1
330
1F
100
AcDbEntity
  8
Layer 1
 62
   250
100
AcDbSpline
210
0.0
220
0.0
230
1.0
 70
    11
 71
     3
 72
    36
 73
    32
 74
     0
 42
0.000000001
 43
0.0000000001
 40
0.0
 40
0.0
 40
0.0
 40
0.0
 40
0.1111111111111111
 40
0.1111111111111111
 40
0.1111111111111111
 40
0.1111111111111111
 40
0.2222222222222222
 40
0.2222222222222222
 40
0.2222222222222222
 40
0.2222222222222222
 40
0.3333333333333333
 40
0.3333333333333333
 40
0.3333333333333333
 40
0.3333333333333333
 40
0.4444444444444444
 40
0.4444444444444444
 40
0.4444444444444444
 40
0.4444444444444444
 40
0.5555555555555556
 40
0.5555555555555556
 40
0.5555555555555556
 40
0.5555555555555556
 40
0.6666666666666666
 40
0.6666666666666666
 40
0.6666666666666666
 40
0.6666666666666666
 40
0.7777777777777778
 40
0.7777777777777778
 40
0.7777777777777778
 40
0.7777777777777778
 40
1.0
 40
1.0
 40
1.0
 40
1.0
 10
4.21118
 20
28.88652
 30
0.0
 10
4.21118
 20
28.76922
 30
0.0
 10
4.23499
 20
28.6825
 30
0.0
 10
4.28232
 20
28.62635
 30
0.0
 10
4.28232
 20
28.62635
 30
0.0
 10
4.32994
 20
28.5702
 30
0.0
 10
4.38756
 20
28.54198
 30
0.0
 10
4.45518
 20
28.54198
 30
0.0
 10
4.45518
 20
28.54198
 30
0.0
 10
4.52397
 20
28.54198
 30
0.0
 10
4.58277
 20
28.57108
 30
0.0
 10
4.63157
 20
28.62929
 30
0.0
 10
4.63157
 20
28.62929
 30
0.0
 10
4.68066
 20
28.6875
 30
0.0
 10
4.70506
 20
28.77745
 30
0.0
 10
4.70506
 20
28.89946
 30
0.0
 10
4.70506
 20
28.89946
 30
0.0
 10
4.70506
 20
29.01587
 30
0.0
 10
4.68125
 20
29.10289
 30
0.0
 10
4.63333
 20
29.1608
 30
0.0
 10
4.63333
 20
29.1608
 30
0.0
 10
4.58541
 20
29.21872
 30
0.0
 10
4.52838
 20
29.24753
 30
0.0
 10
4.46194
 20
29.24753
 30
0.0
 10
4.46194
 20
29.24753
 30
0.0
 10
4.39609
 20
29.24753
 30
0.0
 10
4.33788
 20
29.21666
 30
0.0
 10
4.28732
 20
29.15522
 30
0.0
 10
4.28732
 20
29.15522
 30
0.0
 10
4.23646
 20
29.09348
 30
0.0
 10
4.21118
 20
29.00411
 30
0.0
 10
4.21118
 20
28.88652
 30
0.0
  0
SPLINE
  5
E2
330
1F
100
AcDbEntity
  8
Layer 1
 62
   250
100
AcDbSpline
210
0.0
220
0.0
230
1.0
 70
    11
 71
     3
 72
    20
 73
    16
 74
     0
 42
0.000000001
 43
0.0000000001
 40
0.0
 40
0.0
 40
0.0
 40
0.0
 40
0.2
 40
0.2
 40
0.2
 40
0.2
 40
0.4
 40
0.4
 40
0.4
 40
0.4
 40
0.6
 40
0.6
 40
0.6
 40
0.6
 40
1.0
 40
1.0
 40
1.0
 40
1.0
 10
5.04755
 20
28.43438
 30
0.0
 10
5.04755
 20
28.43438
 30
0.0
 10
5.04755
 20
29.69732
 30
0.0
 10
5.04755
 20
29.69732
 30
0.0
 10
5.04755
 20
29.69732
 30
0.0
 10
5.04755
 20
29.69732
 30
0.0
 10
5.20277
 20
29.69732
 30
0.0
 10
5.20277
 20
29.69732
 30
0.0
 10
5.20277
 20
29.69732
 30
0.0
 10
5.20277
 20
29.69732
 30
0.0
 10
5.20277
 20
28.43438
 30
0.0
 10
5.20277
 20
28.43438
 30
0.0
 10
5.20277
 20
28.43438
 30
0.0
 10
5.20277
 20
28.43438
 30
0.0
 10
5.04755
 20
28.43438
 30
0.0
 10
5.04755
 20
28.43438
 30
0.0
  0
SPLINE
  5
E3
330
1F
100
AcDbEntity
  8
Layer 1
 62
   250
100
AcDbSpline
210
0.0
220
0.0
230
1.0
 70
    11
 71
     3
 72
    76
 73
    72
 74
     0
 42
0.000000001
 43
0.0000000001
 40
0.0
 40
0.0
 40
0.0
 40
0.0
 40
0.0526315789473684
 40
0.0526315789473684
 40
0.0526315789473684
 40
0.0526315789473684
 40
0.1052631578947368
 40
0.1052631578947368
 40
0.1052631578947368
 40
0.1052631578947368
 40
0.1578947368421053
 40
0.1578947368421053
 40
0.1578947368421053
 40
0.1578947368421053
 40
0.2105263157894737
 40
0.2105263157894737
 40
0.2105263157894737
 40
0.2105263157894737
 40
0.2631578947368421
 40
0.2631578947368421
 40
0.2631578947368421
 40
0.2631578947368421
 40
0.3157894736842105
 40
0.3157894736842105
 40
0.3157894736842105
 40
0.3157894736842105
 40
0.3684210526315789
 40
0.3684210526315789
 40
0.3684210526315789
 40
0.3684210526315789
 40
0.4210526315789473
 40
0.4210526315789473
 40
0.4210526315789473
 40
0.4210526315789473
 40
0.4736842105263158
 40
0.4736842105263158
 40
0.4736842105263158
 40
0.4736842105263158
 40
0.5263157894736842
 40
0.5263157894736842
 40
0.5263157894736842
 40
0.5263157894736842
 40
0.5789473684210527
 40
0.5789473684210527
 40
0.5789473684210527
 40
0.5789473684210527
 40
0.631578947368421
 40
0.631578947368421
 40
0.631578947368421
 40
0.631578947368421
 40
0.6842105263157895
 40
0.6842105263157895
 40
0.6842105263157895
 40
0.6842105263157895
 40
0.7368421052631579
 40
0.7368421052631579
 40
0.7368421052631579
 40
0.7368421052631579
 40
0.7894736842105263
 40
0.7894736842105263
 40
0.7894736842105263
 40
0.7894736842105263
 40
0.8421052631578947
 40
0.8421052631578947
 40
0.8421052631578947
 40
0.8421052631578947
 40
0.8947368421052632
 40
0.8947368421052632
 40
0.8947368421052632
 40
0.8947368421052632
 40
1.0
 40
1.0
 40
1.0
 40
1.0
 10
5.4359
 20
28.08249
 30
0.0
 10
5.4359
 20
28.08249
 30
0.0
 10
5.41826
 20
28.22595
 30
0.0
 10
5.41826
 20
28.22595
 30
0.0
 10
5.41826
 20
28.22595
 30
0.0
 10
5.45236
 20
28.21683
 30
0.0
 10
5.48176
 20
28.21213
 30
0.0
 10
5.50704
 20
28.21213
 30
0.0
 10
5.50704
 20
28.21213
 30
0.0
 10
5.54173
 20
28.21213
 30
0.0
 10
5.56937
 20
28.21801
 30
0.0
 10
5.58995
 20
28.22948
 30
0.0
 10
5.58995
 20
28.22948
 30
0.0
 10
5.61082
 20
28.24094
 30
0.0
 10
5.62787
 20
28.25711
 30
0.0
 10
5.6411
 20
28.27769
 30
0.0
 10
5.6411
 20
28.27769
 30
0.0
 10
5.6508
 20
28.29327
 30
0.0
 10
5.66667
 20
28.33178
 30
0.0
 10
5.68843
 20
28.39352
 30
0.0
 10
5.68843
 20
28.39352
 30
0.0
 10
5.69137
 20
28.40204
 30
0.0
 10
5.69578
 20
28.41468
 30
0.0
 10
5.70225
 20
28.43144
 30
0.0
 10
5.70225
 20
28.43144
 30
0.0
 10
5.70225
 20
28.43144
 30
0.0
 10
5.35476
 20
29.34983
 30
0.0
 10
5.35476
 20
29.34983
 30
0.0
 10
5.35476
 20
29.34983
 30
0.0
 10
5.35476
 20
29.34983
 30
0.0
 10
5.52057
 20
29.34983
 30
0.0
 10
5.52057
 20
29.34983
 30
0.0
 10
5.52057
 20
29.34983
 30
0.0
 10
5.52057
 20
29.34983
 30
0.0
 10
5.71165
 20
28.82126
 30
0.0
 10
5.71165
 20
28.82126
 30
0.0
 10
5.71165
 20
28.82126
 30
0.0
 10
5.73664
 20
28.75452
 30
0.0
 10
5.75869
 20
28.68397
 30
0.0
 10
5.77839
 20
28.60989
 30
0.0
 10
5.77839
 20
28.60989
 30
0.0
 10
5.79632
 20
28.67956
 30
0.0
 10
5.81749
 20
28.74835
 30
0.0
 10
5.84218
 20
28.81597
 30
0.0
 10
5.84218
 20
28.81597
 30
0.0
 10
5.84218
 20
28.81597
 30
0.0
 10
6.03738
 20
29.34983
 30
0.0
 10
6.03738
 20
29.34983
 30
0.0
 10
6.03738
 20
29.34983
 30
0.0
 10
6.03738
 20
29.34983
 30
0.0
 10
6.19231
 20
29.34983
 30
0.0
 10
6.19231
 20
29.34983
 30
0.0
 10
6.19231
 20
29.34983
 30
0.0
 10
6.19231
 20
29.34983
 30
0.0
 10
5.8463
 20
28.41851
 30
0.0
 10
5.8463
 20
28.41851
 30
0.0
 10
5.8463
 20
28.41851
 30
0.0
 10
5.80896
 20
28.31826
 30
0.0
 10
5.77986
 20
28.24947
 30
0.0
 10
5.75898
 20
28.21154
 30
0.0
 10
5.75898
 20
28.21154
 30
0.0
 10
5.73135
 20
28.16068
 30
0.0
 10
5.6996
 20
28.12335
 30
0.0
 10
5.66403
 20
28.09954
 30
0.0
 10
5.66403
 20
28.09954
 30
0.0
 10
5.62816
 20
28.07572
 30
0.0
 10
5.58554
 20
28.06397
 30
0.0
 10
5.53615
 20
28.06397
 30
0.0
 10
5.53615
 20
28.06397
 30
0.0
 10
5.50616
 20
28.06397
 30
0.0
 10
5.47265
 20
28.07014
 30
0.0
 10
5.4359
 20
28.08249
 30
0.0
  0
SPLINE
  5
E4
330
1F
100
AcDbEntity
  8
Layer 1
 62
   250
100
AcDbSpline
210
0.0
220
0.0
230
1.0
 70
    11
 71
     3
 72
    76
 73
    72
 74
     0
 42
0.000000001
 43
0.0000000001
 40
0.0
 40
0.0
 40
0.0
 40
0.0
 40
0.0526315789473684
 40
0.0526315789473684
 40
0.0526315789473684
 40
0.0526315789473684
 40
0.1052631578947368
 40
0.1052631578947368
 40
0.1052631578947368
 40
0.1052631578947368
 40
0.1578947368421053
 40
0.1578947368421053
 40
0.1578947368421053
 40
0.1578947368421053
 40
0.2105263157894737
 40
0.2105263157894737
 40
0.2105263157894737
 40
0.2105263157894737
 40
0.2631578947368421
 40
0.2631578947368421
 40
0.2631578947368421
 40
0.2631578947368421
 40
0.3157894736842105
 40
0.3157894736842105
 40
0.3157894736842105
 40
0.3157894736842105
 40
0.3684210526315789
 40
0.3684210526315789
 40
0.3684210526315789
 40
0.3684210526315789
 40
0.4210526315789473
 40
0.4210526315789473
 40
0.4210526315789473
 40
0.4210526315789473
 40
0.4736842105263158
 40
0.4736842105263158
 40
0.4736842105263158
 40
0.4736842105263158
 40
0.5263157894736842
 40
0.5263157894736842
 40
0.5263157894736842
 40
0.5263157894736842
 40
0.5789473684210527
 40
0.5789473684210527
 40
0.5789473684210527
 40
0.5789473684210527
 40
0.631578947368421
 40
0.631578947368421
 40
0.631578947368421
 40
0.631578947368421
 40
0.6842105263157895
 40
0.6842105263157895
 40
0.6842105263157895
 40
0.6842105263157895
 40
0.7368421052631579
 40
0.7368421052631579
 40
0.7368421052631579
 40
0.7368421052631579
 40
0.7894736842105263
 40
0.7894736842105263
 40
0.7894736842105263
 40
0.7894736842105263
 40
0.8421052631578947
 40
0.8421052631578947
 40
0.8421052631578947
 40
0.8421052631578947
 40
0.8947368421052632
 40
0.8947368421052632
 40
0.8947368421052632
 40
0.8947368421052632
 40
1.0
 40
1.0
 40
1.0
 40
1.0
 10
6.48952
 20
28.43438
 30
0.0
 10
6.48952
 20
28.43438
 30
0.0
 10
6.21289
 20
29.34983
 30
0.0
 10
6.21289
 20
29.34983
 30
0.0
 10
6.21289
 20
29.34983
 30
0.0
 10
6.21289
 20
29.34983
 30
0.0
 10
6.37517
 20
29.34983
 30
0.0
 10
6.37517
 20
29.34983
 30
0.0
 10
6.37517
 20
29.34983
 30
0.0
 10
6.37517
 20
29.34983
 30
0.0
 10
6.52127
 20
28.82155
 30
0.0
 10
6.52127
 20
28.82155
 30
0.0
 10
6.52127
 20
28.82155
 30
0.0
 10
6.52127
 20
28.82155
 30
0.0
 10
6.57302
 20
28.62488
 30
0.0
 10
6.57302
 20
28.62488
 30
0.0
 10
6.57302
 20
28.62488
 30
0.0
 10
6.57507
 20
28.63458
 30
0.0
 10
6.59095
 20
28.69749
 30
0.0
 10
6.62035
 20
28.81361
 30
0.0
 10
6.62035
 20
28.81361
 30
0.0
 10
6.62035
 20
28.81361
 30
0.0
 10
6.76528
 20
29.34983
 30
0.0
 10
6.76528
 20
29.34983
 30
0.0
 10
6.76528
 20
29.34983
 30
0.0
 10
6.76528
 20
29.34983
 30
0.0
 10
6.92432
 20
29.34983
 30
0.0
 10
6.92432
 20
29.34983
 30
0.0
 10
6.92432
 20
29.34983
 30
0.0
 10
6.92432
 20
29.34983
 30
0.0
 10
7.0622
 20
28.81832
 30
0.0
 10
7.0622
 20
28.81832
 30
0.0
 10
7.0622
 20
28.81832
 30
0.0
 10
7.0622
 20
28.81832
 30
0.0
 10
7.10718
 20
28.64399
 30
0.0
 10
7.10718
 20
28.64399
 30
0.0
 10
7.10718
 20
28.64399
 30
0.0
 10
7.10718
 20
28.64399
 30
0.0
 10
7.1598
 20
28.82067
 30
0.0
 10
7.1598
 20
28.82067
 30
0.0
 10
7.1598
 20
28.82067
 30
0.0
 10
7.1598
 20
28.82067
 30
0.0
 10
7.31796
 20
29.34983
 30
0.0
 10
7.31796
 20
29.34983
 30
0.0
 10
7.31796
 20
29.34983
 30
0.0
 10
7.31796
 20
29.34983
 30
0.0
 10
7.46877
 20
29.34983
 30
0.0
 10
7.46877
 20
29.34983
 30
0.0
 10
7.46877
 20
29.34983
 30
0.0
 10
7.46877
 20
29.34983
 30
0.0
 10
7.18155
 20
28.43438
 30
0.0
 10
7.18155
 20
28.43438
 30
0.0
 10
7.18155
 20
28.43438
 30
0.0
 10
7.18155
 20
28.43438
 30
0.0
 10
7.02104
 20
28.43438
 30
0.0
 10
7.02104
 20
28.43438
 30
0.0
 10
7.02104
 20
28.43438
 30
0.0
 10
7.02104
 20
28.43438
 30
0.0
 10
6.87581
 20
28.98206
 30
0.0
 10
6.87581
 20
28.98206
 30
0.0
 10
6.87581
 20
28.98206
 30
0.0
 10
6.87581
 20
28.98206
 30
0.0
 10
6.83907
 20
29.13876
 30
0.0
 10
6.83907
 20
29.13876
 30
0.0
 10
6.83907
 20
29.13876
 30
0.0
 10
6.83907
 20
29.13876
 30
0.0
 10
6.65386
 20
28.43438
 30
0.0
 10
6.65386
 20
28.43438
 30
0.0
 10
6.65386
 20
28.43438
 30
0.0
 10
6.65386
 20
28.43438
 30
0.0
 10
6.48952
 20
28.43438
 30
0.0
 10
6.48952
 20
28.43438
 30
0.0
  0
SPLINE
  5
E5
330
1F
100
AcDbEntity
  8
Layer 1
 62
   250
100
AcDbSpline
210
0.0
220
0.0
230
1.0
 70
    11
 71
     3
 72
    40
 73
    36
 74
     0
 42
0.000000001
 43
0.0000000001
 40
0.0
 40
0.0
 40
0.0
 40
0.0
 40
0.1
 40
0.1
 40
0.1
 40
0.1
 40
0.2
 40
0.2
 40
0.2
 40
0.2
 40
0.3
 40
0.3
 40
0.3
 40
0.3
 40
0.4
 40
0.4
 40
0.4
 40
0.4
 40
0.5
 40
0.5
 40
0.5
 40
0.5
 40
0.6
 40
0.6
 40
0.6
 40
0.6
 40
0.7
 40
0.7
 40
0.7
 40
0.7
 40
0.8
 40
0.8
 40
0.8
 40
0.8
 40
1.0
 40
1.0
 40
1.0
 40
1.0
 10
7.54051
 20
28.89211
 30
0.0
 10
7.54051
 20
29.06115
 30
0.0
 10
7.58754
 20
29.18638
 30
0.0
 10
7.68191
 20
29.26781
 30
0.0
 10
7.68191
 20
29.26781
 30
0.0
 10
7.76041
 20
29.33543
 30
0.0
 10
7.85654
 20
29.36924
 30
0.0
 10
7.96972
 20
29.36924
 30
0.0
 10
7.96972
 20
29.36924
 30
0.0
 10
8.09525
 20
29.36924
 30
0.0
 10
8.19814
 20
29.32808
 30
0.0
 10
8.2781
 20
29.24576
 30
0.0
 10
8.2781
 20
29.24576
 30
0.0
 10
8.35777
 20
29.16374
 30
0.0
 10
8.39775
 20
29.04997
 30
0.0
 10
8.39775
 20
28.90504
 30
0.0
 10
8.39775
 20
28.90504
 30
0.0
 10
8.39775
 20
28.78745
 30
0.0
 10
8.38011
 20
28.69514
 30
0.0
 10
8.34484
 20
28.62782
 30
0.0
 10
8.34484
 20
28.62782
 30
0.0
 10
8.30956
 20
28.5605
 30
0.0
 10
8.25811
 20
28.50817
 30
0.0
 10
8.1905
 20
28.47083
 30
0.0
 10
8.1905
 20
28.47083
 30
0.0
 10
8.12318
 20
28.4335
 30
0.0
 10
8.04939
 20
28.41498
 30
0.0
 10
7.96972
 20
28.41498
 30
0.0
 10
7.96972
 20
28.41498
 30
0.0
 10
7.84154
 20
28.41498
 30
0.0
 10
7.73806
 20
28.45584
 30
0.0
 10
7.65898
 20
28.53786
 30
0.0
 10
7.65898
 20
28.53786
 30
0.0
 10
7.5799
 20
28.61988
 30
0.0
 10
7.54051
 20
28.73806
 30
0.0
 10
7.54051
 20
28.89211
 30
0.0
  0
SPLINE
  5
E6
330
1F
100
AcDbEntity
  8
Layer 1
 62
   250
100
AcDbSpline
210
0.0
220
0.0
230
1.0
 70
    11
 71
     3
 72
    36
 73
    32
 74
     0
 42
0.000000001
 43
0.0000000001
 40
0.0
 40
0.0
 40
0.0
 40
0.0
 40
0.1111111111111111
 40
0.1111111111111111
 40
0.1111111111111111
 40
0.1111111111111111
 40
0.2222222222222222
 40
0.2222222222222222
 40
0.2222222222222222
 40
0.2222222222222222
 40
0.3333333333333333
 40
0.3333333333333333
 40
0.3333333333333333
 40
0.3333333333333333
 40
0.4444444444444444
 40
0.4444444444444444
 40
0.4444444444444444
 40
0.4444444444444444
 40
0.5555555555555556
 40
0.5555555555555556
 40
0.5555555555555556
 40
0.5555555555555556
 40
0.6666666666666666
 40
0.6666666666666666
 40
0.6666666666666666
 40
0.6666666666666666
 40
0.7777777777777778
 40
0.7777777777777778
 40
0.7777777777777778
 40
0.7777777777777778
 40
1.0
 40
1.0
 40
1.0
 40
1.0
 10
7.69926
 20
28.89181
 30
0.0
 10
7.69926
 20
28.77481
 30
0.0
 10
7.72483
 20
28.6872
 30
0.0
 10
7.77599
 20
28.62929
 30
0.0
 10
7.77599
 20
28.62929
 30
0.0
 10
7.82743
 20
28.57108
 30
0.0
 10
7.89181
 20
28.54198
 30
0.0
 10
7.96972
 20
28.54198
 30
0.0
 10
7.96972
 20
28.54198
 30
0.0
 10
8.04674
 20
28.54198
 30
0.0
 10
8.11083
 20
28.57108
 30
0.0
 10
8.16228
 20
28.62958
 30
0.0
 10
8.16228
 20
28.62958
 30
0.0
 10
8.21343
 20
28.68808
 30
0.0
 10
8.239
 20
28.77716
 30
0.0
 10
8.239
 20
28.89681
 30
0.0
 10
8.239
 20
28.89681
 30
0.0
 10
8.239
 20
29.0097
 30
0.0
 10
8.21313
 20
29.09525
 30
0.0
 10
8.16169
 20
29.15316
 30
0.0
 10
8.16169
 20
29.15316
 30
0.0
 10
8.11024
 20
29.21137
 30
0.0
 10
8.04615
 20
29.24047
 30
0.0
 10
7.96972
 20
29.24047
 30
0.0
 10
7.96972
 20
29.24047
 30
0.0
 10
7.89181
 20
29.24047
 30
0.0
 10
7.82743
 20
29.21166
 30
0.0
 10
7.77599
 20
29.15375
 30
0.0
 10
7.77599
 20
29.15375
 30
0.0
 10
7.72483
 20
29.09583
 30
0.0
 10
7.69926
 20
29.00852
 30
0.0
 10
7.69926
 20
28.89181
 30
0.0
  0
SPLINE
  5
E7
330
1F
100
AcDbEntity
  8
Layer 1
 62
   250
100
AcDbSpline
210
0.0
220
0.0
230
1.0
 70
    11
 71
     3
 72
    40
 73
    36
 74
     0
 42
0.000000001
 43
0.0000000001
 40
0.0
 40
0.0
 40
0.0
 40
0.0
 40
0.1
 40
0.1
 40
0.1
 40
0.1
 40
0.2
 40
0.2
 40
0.2
 40
0.2
 40
0.3
 40
0.3
 40
0.3
 40
0.3
 40
0.4
 40
0.4
 40
0.4
 40
0.4
 40
0.5
 40
0.5
 40
0.5
 40
0.5
 40
0.6
 40
0.6
 40
0.6
 40
0.6
 40
0.7
 40
0.7
 40
0.7
 40
0.7
 40
0.8
 40
0.8
 40
0.8
 40
0.8
 40
1.0
 40
1.0
 40
1.0
 40
1.0
 10
8.52152
 20
28.89211
 30
0.0
 10
8.52152
 20
29.06115
 30
0.0
 10
8.56855
 20
29.18638
 30
0.0
 10
8.66292
 20
29.26781
 30
0.0
 10
8.66292
 20
29.26781
 30
0.0
 10
8.74142
 20
29.33543
 30
0.0
 10
8.83755
 20
29.36924
 30
0.0
 10
8.95073
 20
29.36924
 30
0.0
 10
8.95073
 20
29.36924
 30
0.0
 10
9.07626
 20
29.36924
 30
0.0
 10
9.17915
 20
29.32808
 30
0.0
 10
9.25911
 20
29.24576
 30
0.0
 10
9.25911
 20
29.24576
 30
0.0
 10
9.33878
 20
29.16374
 30
0.0
 10
9.37876
 20
29.04997
 30
0.0
 10
9.37876
 20
28.90504
 30
0.0
 10
9.37876
 20
28.90504
 30
0.0
 10
9.37876
 20
28.78745
 30
0.0
 10
9.36112
 20
28.69514
 30
0.0
 10
9.32585
 20
28.62782
 30
0.0
 10
9.32585
 20
28.62782
 30
0.0
 10
9.29057
 20
28.5605
 30
0.0
 10
9.23912
 20
28.50817
 30
0.0
 10
9.17151
 20
28.47083
 30
0.0
 10
9.17151
 20
28.47083
 30
0.0
 10
9.10419
 20
28.4335
 30
0.0
 10
9.0304
 20
28.41498
 30
0.0
 10
8.95073
 20
28.41498
 30
0.0
 10
8.95073
 20
28.41498
 30
0.0
 10
8.82255
 20
28.41498
 30
0.0
 10
8.71907
 20
28.45584
 30
0.0
 10
8.63999
 20
28.53786
 30
0.0
 10
8.63999
 20
28.53786
 30
0.0
 10
8.56091
 20
28.61988
 30
0.0
 10
8.52152
 20
28.73806
 30
0.0
 10
8.52152
 20
28.89211
 30
0.0
  0
SPLINE
  5
E8
330
1F
100
AcDbEntity
  8
Layer 1
 62
   250
100
AcDbSpline
210
0.0
220
0.0
230
1.0
 70
    11
 71
     3
 72
    36
 73
    32
 74
     0
 42
0.000000001
 43
0.0000000001
 40
0.0
 40
0.0
 40
0.0
 40
0.0
 40
0.1111111111111111
 40
0.1111111111111111
 40
0.1111111111111111
 40
0.1111111111111111
 40
0.2222222222222222
 40
0.2222222222222222
 40
0.2222222222222222
 40
0.2222222222222222
 40
0.3333333333333333
 40
0.3333333333333333
 40
0.3333333333333333
 40
0.3333333333333333
 40
0.4444444444444444
 40
0.4444444444444444
 40
0.4444444444444444
 40
0.4444444444444444
 40
0.5555555555555556
 40
0.5555555555555556
 40
0.5555555555555556
 40
0.5555555555555556
 40
0.6666666666666666
 40
0.6666666666666666
 40
0.6666666666666666
 40
0.6666666666666666
 40
0.7777777777777778
 40
0.7777777777777778
 40
0.7777777777777778
 40
0.7777777777777778
 40
1.0
 40
1.0
 40
1.0
 40
1.0
 10
8.68027
 20
28.89181
 30
0.0
 10
8.68027
 20
28.77481
 30
0.0
 10
8.70584
 20
28.6872
 30
0.0
 10
8.757
 20
28.62929
 30
0.0
 10
8.757
 20
28.62929
 30
0.0
 10
8.80844
 20
28.57108
 30
0.0
 10
8.87282
 20
28.54198
 30
0.0
 10
8.95073
 20
28.54198
 30
0.0
 10
8.95073
 20
28.54198
 30
0.0
 10
9.02775
 20
28.54198
 30
0.0
 10
9.09184
 20
28.57108
 30
0.0
 10
9.14329
 20
28.62958
 30
0.0
 10
9.14329
 20
28.62958
 30
0.0
 10
9.19444
 20
28.68808
 30
0.0
 10
9.22001
 20
28.77716
 30
0.0
 10
9.22001
 20
28.89681
 30
0.0
 10
9.22001
 20
28.89681
 30
0.0
 10
9.22001
 20
29.0097
 30
0.0
 10
9.19414
 20
29.09525
 30
0.0
 10
9.1427
 20
29.15316
 30
0.0
 10
9.1427
 20
29.15316
 30
0.0
 10
9.09125
 20
29.21137
 30
0.0
 10
9.02716
 20
29.24047
 30
0.0
 10
8.95073
 20
29.24047
 30
0.0
 10
8.95073
 20
29.24047
 30
0.0
 10
8.87282
 20
29.24047
 30
0.0
 10
8.80844
 20
29.21166
 30
0.0
 10
8.757
 20
29.15375
 30
0.0
 10
8.757
 20
29.15375
 30
0.0
 10
8.70584
 20
29.09583
 30
0.0
 10
8.68027
 20
29.00852
 30
0.0
 10
8.68027
 20
28.89181
 30
0.0
  0
SPLINE
  5
E9
330
1F
100
AcDbEntity
  8
Layer 1
 62
   250
100
AcDbSpline
210
0.0
220
0.0
230
1.0
 70
    11
 71
     3
 72
    60
 73
    56
 74
     0
 42
0.000000001
 43
0.0000000001
 40
0.0
 40
0.0
 40
0.0
 40
0.0
 40
0.0666666666666667
 40
0.0666666666666667
 40
0.0666666666666667
 40
0.0666666666666667
 40
0.1333333333333333
 40
0.1333333333333333
 40
0.1333333333333333
 40
0.1333333333333333
 40
0.2
 40
0.2
 40
0.2
 40
0.2
 40
0.2666666666666667
 40
0.2666666666666667
 40
0.2666666666666667
 40
0.2666666666666667
 40
0.3333333333333333
 40
0.3333333333333333
 40
0.3333333333333333
 40
0.3333333333333333
 40
0.4
 40
0.4
 40
0.4
 40
0.4
 40
0.4666666666666667
 40
0.4666666666666667
 40
0.4666666666666667
 40
0.4666666666666667
 40
0.5333333333333333
 40
0.5333333333333333
 40
0.5333333333333333
 40
0.5333333333333333
 40
0.6
 40
0.6
 40
0.6
 40
0.6
 40
0.6666666666666666
 40
0.6666666666666666
 40
0.6666666666666666
 40
0.6666666666666666
 40
0.7333333333333333
 40
0.7333333333333333
 40
0.7333333333333333
 40
0.7333333333333333
 40
0.8
 40
0.8
 40
0.8
 40
0.8
 40
0.8666666666666667
 40
0.8666666666666667
 40
0.8666666666666667
 40
0.8666666666666667
 40
1.0
 40
1.0
 40
1.0
 40
1.0
 10
10.15164
 20
28.43438
 30
0.0
 10
10.15164
 20
28.43438
 30
0.0
 10
10.15164
 20
28.5505
 30
0.0
 10
10.15164
 20
28.5505
 30
0.0
 10
10.15164
 20
28.5505
 30
0.0
 10
10.09372
 20
28.46025
 30
0.0
 10
10.00847
 20
28.41498
 30
0.0
 10
9.89587
 20
28.41498
 30
0.0
 10
9.89587
 20
28.41498
 30
0.0
 10
9.82297
 20
28.41498
 30
0.0
 10
9.75594
 20
28.43497
 30
0.0
 10
9.69508
 20
28.47524
 30
0.0
 10
9.69508
 20
28.47524
 30
0.0
 10
9.63394
 20
28.51522
 30
0.0
 10
9.58661
 20
28.57137
 30
0.0
 10
9.5528
 20
28.64311
 30
0.0
 10
9.5528
 20
28.64311
 30
0.0
 10
9.51928
 20
28.71513
 30
0.0
 10
9.50253
 20
28.79774
 30
0.0
 10
9.50253
 20
28.89122
 30
0.0
 10
9.50253
 20
28.89122
 30
0.0
 10
9.50253
 20
28.98236
 30
0.0
 10
9.51781
 20
29.06497
 30
0.0
 10
9.54809
 20
29.13934
 30
0.0
 10
9.54809
 20
29.13934
 30
0.0
 10
9.57867
 20
29.21343
 30
0.0
 10
9.62424
 20
29.27046
 30
0.0
 10
9.68509
 20
29.30985
 30
0.0
 10
9.68509
 20
29.30985
 30
0.0
 10
9.74565
 20
29.34954
 30
0.0
 10
9.81385
 20
29.36924
 30
0.0
 10
9.88882
 20
29.36924
 30
0.0
 10
9.88882
 20
29.36924
 30
0.0
 10
9.94409
 20
29.36924
 30
0.0
 10
9.99318
 20
29.35748
 30
0.0
 10
10.0361
 20
29.33425
 30
0.0
 10
10.0361
 20
29.33425
 30
0.0
 10
10.07902
 20
29.31103
 30
0.0
 10
10.11401
 20
29.28045
 30
0.0
 10
10.14105
 20
29.24312
 30
0.0
 10
10.14105
 20
29.24312
 30
0.0
 10
10.14105
 20
29.24312
 30
0.0
 10
10.14105
 20
29.69732
 30
0.0
 10
10.14105
 20
29.69732
 30
0.0
 10
10.14105
 20
29.69732
 30
0.0
 10
10.14105
 20
29.69732
 30
0.0
 10
10.29627
 20
29.69732
 30
0.0
 10
10.29627
 20
29.69732
 30
0.0
 10
10.29627
 20
29.69732
 30
0.0
 10
10.29627
 20
29.69732
 30
0.0
 10
10.29627
 20
28.43438
 30
0.0
 10
10.29627
 20
28.43438
 30
0.0
 10
10.29627
 20
28.43438
 30
0.0
 10
10.29627
 20
28.43438
 30
0.0
 10
10.15164
 20
28.43438
 30
0.0
 10
10.15164
 20
28.43438
 30
0.0
  0
SPLINE
  5
EA
330
1F
100
AcDbEntity
  8
Layer 1
 62
   250
100
AcDbSpline
210
0.0
220
0.0
230
1.0
 70
    11
 71
     3
 72
    36
 73
    32
 74
     0
 42
0.000000001
 43
0.0000000001
 40
0.0
 40
0.0
 40
0.0
 40
0.0
 40
0.1111111111111111
 40
0.1111111111111111
 40
0.1111111111111111
 40
0.1111111111111111
 40
0.2222222222222222
 40
0.2222222222222222
 40
0.2222222222222222
 40
0.2222222222222222
 40
0.3333333333333333
 40
0.3333333333333333
 40
0.3333333333333333
 40
0.3333333333333333
 40
0.4444444444444444
 40
0.4444444444444444
 40
0.4444444444444444
 40
0.4444444444444444
 40
0.5555555555555556
 40
0.5555555555555556
 40
0.5555555555555556
 40
0.5555555555555556
 40
0.6666666666666666
 40
0.6666666666666666
 40
0.6666666666666666
 40
0.6666666666666666
 40
0.7777777777777778
 40
0.7777777777777778
 40
0.7777777777777778
 40
0.7777777777777778
 40
1.0
 40
1.0
 40
1.0
 40
1.0
 10
9.66128
 20
28.89093
 30
0.0
 10
9.66128
 20
28.77393
 30
0.0
 10
9.68597
 20
28.68661
 30
0.0
 10
9.73565
 20
28.6287
 30
0.0
 10
9.73565
 20
28.6287
 30
0.0
 10
9.78504
 20
28.57079
 30
0.0
 10
9.84354
 20
28.54198
 30
0.0
 10
9.91087
 20
28.54198
 30
0.0
 10
9.91087
 20
28.54198
 30
0.0
 10
9.97878
 20
28.54198
 30
0.0
 10
10.0364
 20
28.56961
 30
0.0
 10
10.08402
 20
28.62488
 30
0.0
 10
10.08402
 20
28.62488
 30
0.0
 10
10.13135
 20
28.68015
 30
0.0
 10
10.15516
 20
28.76452
 30
0.0
 10
10.15516
 20
28.878
 30
0.0
 10
10.15516
 20
28.878
 30
0.0
 10
10.15516
 20
29.00264
 30
0.0
 10
10.13106
 20
29.09437
 30
0.0
 10
10.08255
 20
29.15287
 30
0.0
 10
10.08255
 20
29.15287
 30
0.0
 10
10.03434
 20
29.21137
 30
0.0
 10
9.97466
 20
29.24047
 30
0.0
 10
9.90381
 20
29.24047
 30
0.0
 10
9.90381
 20
29.24047
 30
0.0
 10
9.83473
 20
29.24047
 30
0.0
 10
9.77711
 20
29.21255
 30
0.0
 10
9.73066
 20
29.15639
 30
0.0
 10
9.73066
 20
29.15639
 30
0.0
 10
9.6845
 20
29.10024
 30
0.0
 10
9.66128
 20
29.01176
 30
0.0
 10
9.66128
 20
28.89093
 30
0.0
  0
ENDSEC
  0
SECTION
  2
OBJECTS
  0
DICTIONARY
  5
C
330
0
100
AcDbDictionary
281
     1
  3
ACAD_DETAILVIEWSTYLE
350
126
  3
ACAD_GROUP
350
D
  3
ACAD_LAYOUT
350
1A
  3
ACAD_MATERIAL
350
43
  3
ACAD_MLEADERSTYLE
350
6B
  3
ACAD_MLINESTYLE
350
17
  3
ACAD_PLOTSETTINGS
350
19
  3
ACAD_PLOTSTYLENAME
350
E
  3
ACAD_SCALELIST
350
47
  3
ACAD_SECTIONVIEWSTYLE
350
127
  3
ACAD_TABLESTYLE
350
69
  3
ACAD_VISUALSTYLE
350
2A
  3
ACDB_RECOMPOSE_DATA
350
123
  3
AcDbVariableDictionary
350
EB
  0
SUN
  5
6D
330
29
100
AcDbSun
 90
        1
290
     0
 63
     7
421
 16777215
 40
1.0
291
     1
 91
  2455826
 92
 54000000
292
     0
 70
     2
 71
   256
280
     1
  0
DICTIONARY
  5
126
102
{ACAD_REACTORS
330
C
102
}
330
C
100
AcDbDictionary
281
     1
  0
DICTIONARY
  5
D
102
{ACAD_REACTORS
330
C
102
}
330
C
100
AcDbDictionary
281
     1
  0
DICTIONARY
  5
1A
102
{ACAD_REACTORS
330
C
102
}
330
C
100
AcDbDictionary
281
     1
  3
Layout1
350
1E
  3
Layout2
350
26
  3
Model
350
22
  0
DICTIONARY
  5
43
102
{ACAD_REACTORS
330
C
102
}
330
C
100
AcDbDictionary
281
     1
  3
ByBlock
350
45
  3
ByLayer
350
44
  3
Global
350
46
  0
DICTIONARY
  5
6B
102
{ACAD_REACTORS
330
C
102
}
330
C
100
AcDbDictionary
281
     1
  3
Standard
350
6C
  0
DICTIONARY
  5
17
102
{ACAD_REACTORS
330
C
102
}
330
C
100
AcDbDictionary
281
     1
  3
Standard
350
18
  0
DICTIONARY
  5
19
102
{ACAD_REACTORS
330
C
102
}
330
C
100
AcDbDictionary
281
     1
  0
ACDBDICTIONARYWDFLT
  5
E
102
{ACAD_REACTORS
330
C
102
}
330
C
100
AcDbDictionary
281
     1
  3
Normal
350
F
100
AcDbDictionaryWithDefault
340
F
  0
DICTIONARY
  5
47
102
{ACAD_REACTORS
330
C
102
}
330
C
100
AcDbDictionary
281
     1
  3
A0
350
48
  3
A1
350
49
  3
A2
350
4A
  3
A3
350
4B
  3
A4
350
4C
  3
A5
350
4D
  3
A6
350
4E
  3
A7
350
4F
  3
A8
350
50
  3
A9
350
51
  3
B0
350
52
  3
B1
350
53
  3
B2
350
54
  3
B3
350
55
  3
B4
350
56
  3
B5
350
57
  3
B6
350
58
  3
B7
350
59
  3
B8
350
5A
  3
B9
350
5B
  3
C0
350
5C
  3
C1
350
5D
  3
C2
350
5E
  3
C3
350
5F
  3
C4
350
60
  3
C5
350
61
  3
C6
350
62
  3
C7
350
63
  3
C8
350
64
  3
C9
350
65
  3
D0
350
66
  3
D1
350
67
  3
D2
350
68
  0
DICTIONARY
  5
127
102
{ACAD_REACTORS
330
C
102
}
330
C
100
AcDbDictionary
281
     1
  0
DICTIONARY
  5
69
102
{ACAD_REACTORS
330
C
102
}
330
C
100
AcDbDictionary
281
     1
  3
Standard
350
6A
  0
DICTIONARY
  5
2A
102
{ACAD_REACTORS
330
C
102
}
330
C
100
AcDbDictionary
281
     1
  3
2dWireframe
350
2F
  3
Basic
350
32
  3
Brighten
350
36
  3
ColorChange
350
3A
  3
Conceptual
350
34
  3
Dim
350
35
  3
EdgeColorOff
350
3D
  3
Facepattern
350
39
  3
Flat
350
2B
  3
FlatWithEdges
350
2C
  3
Gouraud
350
2D
  3
GouraudWithEdges
350
2E
  3
Hidden
350
31
  3
JitterOff
350
3B
  3
Linepattern
350
38
  3
OverhangOff
350
3C
  3
Realistic
350
33
  3
Shaded
350
42
  3
Shaded with edges
350
41
  3
Shades of Gray
350
3E
  3
Sketchy
350
3F
  3
Thicken
350
37
  3
Wireframe
350
30
  3
X-Ray
350
40
  0
XRECORD
  5
123
102
{ACAD_REACTORS
330
C
102
}
330
C
100
AcDbXrecord
280
     1
 90
        1
330
6A
  0
DICTIONARY
  5
EB
102
{ACAD_REACTORS
330
C
102
}
330
C
100
AcDbDictionary
281
     1
  3
CANNOSCALE
350
EC
  3
CMLEADERSTYLE
350
125
  3
CTABLESTYLE
350
124
  3
XCLIPFRAME
350
ED
  0
LAYOUT
  5
1E
102
{ACAD_REACTORS
330
1A
102
}
330
1A
100
AcDbPlotSettings
  1

  2
none_device
  4

  6

 40
0.0
 41
0.0
 42
0.0
 43
0.0
 44
0.0
 45
0.0
 46
0.0
 47
0.0
 48
0.0
 49
0.0
140
0.0
141
0.0
142
1.0
143
1.0
 70
   688
 72
     0
 73
     0
 74
     5
  7

 75
    16
 76
     0
 77
     2
 78
   300
147
1.0
148
0.0
149
0.0
100
AcDbLayout
  1
Layout1
 70
     1
 71
     1
 10
0.0
 20
0.0
 11
12.0
 21
9.0
 12
0.0
 22
0.0
 32
0.0
 14
1.000000000000000E+20
 24
1.000000000000000E+20
 34
1.000000000000000E+20
 15
-1.000000000000000E+20
 25
-1.000000000000000E+20
 35
-1.000000000000000E+20
146
0.0
 13
0.0
 23
0.0
 33
0.0
 16
1.0
 26
0.0
 36
0.0
 17
0.0
 27
1.0
 37
0.0
 76
     0
330
1B
  0
LAYOUT
  5
26
102
{ACAD_REACTORS
330
1A
102
}
330
1A
100
AcDbPlotSettings
  1

  2
none_device
  4

  6

 40
0.0
 41
0.0
 42
0.0
 43
0.0
 44
0.0
 45
0.0
 46
0.0
 47
0.0
 48
0.0
 49
0.0
140
0.0
141
0.0
142
1.0
143
1.0
 70
   688
 72
     0
 73
     0
 74
     5
  7

 75
    16
 76
     0
 77
     2
 78
   300
147
1.0
148
0.0
149
0.0
100
AcDbLayout
  1
Layout2
 70
     1
 71
     2
 10
0.0
 20
0.0
 11
0.0
 21
0.0
 12
0.0
 22
0.0
 32
0.0
 14
0.0
 24
0.0
 34
0.0
 15
0.0
 25
0.0
 35
0.0
146
0.0
 13
0.0
 23
0.0
 33
0.0
 16
1.0
 26
0.0
 36
0.0
 17
0.0
 27
1.0
 37
0.0
 76
     0
330
23
  0
LAYOUT
  5
22
102
{ACAD_REACTORS
330
1A
102
}
330
1A
100
AcDbPlotSettings
  1

  2
none_device
  4
Letter_(8.50_x_11.00_Inches)
  6

 40
6.35
 41
6.35
 42
6.35000508
 43
6.35000508
 44
215.9
 45
279.4
 46
0.0
 47
0.0
 48
0.0
 49
0.0
140
0.0
141
0.0
142
1.0
143
1.0
 70
  1712
 72
     0
 73
     0
 74
     0
  7

 75
     0
 76
     0
 77
     2
 78
   300
147
1.0
148
0.0
149
0.0
100
AcDbLayout
  1
Model
 70
     1
 71
     0
 10
0.0
 20
0.0
 11
12.0
 21
9.0
 12
0.0
 22
0.0
 32
0.0
 14
-7.24638
 24
2.99085
 34
0.0
 15
11.52775
 25
30.03128
 35
0.0
146
0.0
 13
0.0
 23
0.0
 33
0.0
 16
1.0
 26
0.0
 36
0.0
 17
0.0
 27
1.0
 37
0.0
 76
     0
330
1F
331
29
  0
MATERIAL
  5
45
102
{ACAD_REACTORS
330
43
102
}
330
43
100
AcDbMaterial
  1
ByBlock
 72
     1
 94
      127
  0
MATERIAL
  5
44
102
{ACAD_REACTORS
330
43
102
}
330
43
100
AcDbMaterial
  1
ByLayer
 72
     1
 94
      127
  0
MATERIAL
  5
46
102
{ACAD_REACTORS
330
43
102
}
330
43
100
AcDbMaterial
  1
Global
 72
     1
 94
      127
  0
MLEADERSTYLE
  5
6C
102
{ACAD_REACTORS
330
6B
102
}
102
{ACAD_XDICTIONARY
360
121
102
}
330
6B
100
AcDbMLeaderStyle
170
     2
171
     1
172
     0
 90
        2
 40
0.0
 41
0.0
173
     1
 91
-1056964608
340
14
 92
       -2
290
     1
 42
0.09
291
     1
 43
0.36
  3
Standard
341
0
 44
0.18
300

342
11
174
     1
178
     6
175
     1
176
     0
 93
-1056964608
 45
0.18
292
     0
297
     0
 46
0.18
343
0
 94
-1056964608
 47
1.0
 49
1.0
140
1.0
293
     1
141
0.0
294
     1
177
     0
142
1.0
295
     0
296
     0
143
0.125
1001
ACAD_MLEADERVER
1070
     2
  0
MLINESTYLE
  5
18
102
{ACAD_REACTORS
330
17
102
}
330
17
100
AcDbMlineStyle
  2
Standard
 70
     0
  3

 62
   256
 51
90.0
 52
90.0
 71
     2
 49
0.5
 62
   256
  6
BYLAYER
 49
-0.5
 62
   256
  6
BYLAYER
  0
ACDBPLACEHOLDER
  5
F
102
{ACAD_REACTORS
330
E
102
}
330
E
  0
SCALE
  5
48
102
{ACAD_REACTORS
330
47
102
}
330
47
100
AcDbScale
 70
     0
300
1:1
140
1.0
141
1.0
290
     1
  0
SCALE
  5
49
102
{ACAD_REACTORS
330
47
102
}
330
47
100
AcDbScale
 70
     0
300
1:2
140
1.0
141
2.0
290
     0
  0
SCALE
  5
4A
102
{ACAD_REACTORS
330
47
102
}
330
47
100
AcDbScale
 70
     0
300
1:4
140
1.0
141
4.0
290
     0
  0
SCALE
  5
4B
102
{ACAD_REACTORS
330
47
102
}
330
47
100
AcDbScale
 70
     0
300
1:5
140
1.0
141
5.0
290
     0
  0
SCALE
  5
4C
102
{ACAD_REACTORS
330
47
102
}
330
47
100
AcDbScale
 70
     0
300
1:8
140
1.0
141
8.0
290
     0
  0
SCALE
  5
4D
102
{ACAD_REACTORS
330
47
102
}
330
47
100
AcDbScale
 70
     0
300
1:10
140
1.0
141
10.0
290
     0
  0
SCALE
  5
4E
102
{ACAD_REACTORS
330
47
102
}
330
47
100
AcDbScale
 70
     0
300
1:16
140
1.0
141
16.0
290
     0
  0
SCALE
  5
4F
102
{ACAD_REACTORS
330
47
102
}
330
47
100
AcDbScale
 70
     0
300
1:20
140
1.0
141
20.0
290
     0
  0
SCALE
  5
50
102
{ACAD_REACTORS
330
47
102
}
330
47
100
AcDbScale
 70
     0
300
1:30
140
1.0
141
30.0
290
     0
  0
SCALE
  5
51
102
{ACAD_REACTORS
330
47
102
}
330
47
100
AcDbScale
 70
     0
300
1:40
140
1.0
141
40.0
290
     0
  0
SCALE
  5
52
102
{ACAD_REACTORS
330
47
102
}
330
47
100
AcDbScale
 70
     0
300
1:50
140
1.0
141
50.0
290
     0
  0
SCALE
  5
53
102
{ACAD_REACTORS
330
47
102
}
330
47
100
AcDbScale
 70
     0
300
1:100
140
1.0
141
100.0
290
     0
  0
SCALE
  5
54
102
{ACAD_REACTORS
330
47
102
}
330
47
100
AcDbScale
 70
     0
300
2:1
140
2.0
141
1.0
290
     0
  0
SCALE
  5
55
102
{ACAD_REACTORS
330
47
102
}
330
47
100
AcDbScale
 70
     0
300
4:1
140
4.0
141
1.0
290
     0
  0
SCALE
  5
56
102
{ACAD_REACTORS
330
47
102
}
330
47
100
AcDbScale
 70
     0
300
8:1
140
8.0
141
1.0
290
     0
  0
SCALE
  5
57
102
{ACAD_REACTORS
330
47
102
}
330
47
100
AcDbScale
 70
     0
300
10:1
140
10.0
141
1.0
290
     0
  0
SCALE
  5
58
102
{ACAD_REACTORS
330
47
102
}
330
47
100
AcDbScale
 70
     0
300
100:1
140
100.0
141
1.0
290
     0
  0
SCALE
  5
59
102
{ACAD_REACTORS
330
47
102
}
330
47
100
AcDbScale
 70
     0
300
1/128" = 1'-0"
140
0.0078125
141
12.0
290
     0
  0
SCALE
  5
5A
102
{ACAD_REACTORS
330
47
102
}
330
47
100
AcDbScale
 70
     0
300
1/64" = 1'-0"
140
0.015625
141
12.0
290
     0
  0
SCALE
  5
5B
102
{ACAD_REACTORS
330
47
102
}
330
47
100
AcDbScale
 70
     0
300
1/32" = 1'-0"
140
0.03125
141
12.0
290
     0
  0
SCALE
  5
5C
102
{ACAD_REACTORS
330
47
102
}
330
47
100
AcDbScale
 70
     0
300
1/16" = 1'-0"
140
0.0625
141
12.0
290
     0
  0
SCALE
  5
5D
102
{ACAD_REACTORS
330
47
102
}
330
47
100
AcDbScale
 70
     0
300
3/32" = 1'-0"
140
0.09375
141
12.0
290
     0
  0
SCALE
  5
5E
102
{ACAD_REACTORS
330
47
102
}
330
47
100
AcDbScale
 70
     0
300
1/8" = 1'-0"
140
0.125
141
12.0
290
     0
  0
SCALE
  5
5F
102
{ACAD_REACTORS
330
47
102
}
330
47
100
AcDbScale
 70
     0
300
3/16" = 1'-0"
140
0.1875
141
12.0
290
     0
  0
SCALE
  5
60
102
{ACAD_REACTORS
330
47
102
}
330
47
100
AcDbScale
 70
     0
300
1/4" = 1'-0"
140
0.25
141
12.0
290
     0
  0
SCALE
  5
61
102
{ACAD_REACTORS
330
47
102
}
330
47
100
AcDbScale
 70
     0
300
3/8" = 1'-0"
140
0.375
141
12.0
290
     0
  0
SCALE
  5
62
102
{ACAD_REACTORS
330
47
102
}
330
47
100
AcDbScale
 70
     0
300
1/2" = 1'-0"
140
0.5
141
12.0
290
     0
  0
SCALE
  5
63
102
{ACAD_REACTORS
330
47
102
}
330
47
100
AcDbScale
 70
     0
300
3/4" = 1'-0"
140
0.75
141
12.0
290
     0
  0
SCALE
  5
64
102
{ACAD_REACTORS
330
47
102
}
330
47
100
AcDbScale
 70
     0
300
1" = 1'-0"
140
1.0
141
12.0
290
     0
  0
SCALE
  5
65
102
{ACAD_REACTORS
330
47
102
}
330
47
100
AcDbScale
 70
     0
300
1-1/2" = 1'-0"
140
1.5
141
12.0
290
     0
  0
SCALE
  5
66
102
{ACAD_REACTORS
330
47
102
}
330
47
100
AcDbScale
 70
     0
300
3" = 1'-0"
140
3.0
141
12.0
290
     0
  0
SCALE
  5
67
102
{ACAD_REACTORS
330
47
102
}
330
47
100
AcDbScale
 70
     0
300
6" = 1'-0"
140
6.0
141
12.0
290
     0
  0
SCALE
  5
68
102
{ACAD_REACTORS
330
47
102
}
330
47
100
AcDbScale
 70
     0
300
1'-0" = 1'-0"
140
12.0
141
12.0
290
     0
  0
TABLESTYLE
  5
6A
102
{ACAD_REACTORS
330
69
102
}
102
{ACAD_XDICTIONARY
360
11E
102
}
330
69
100
AcDbTableStyle
  3
Standard
 70
     0
 71
     0
 40
0.06
 41
0.06
280
     0
281
     0
  7
Standard
140
0.18
170
     2
 62
     0
 63
   257
283
     0
 90
        4
 91
        0
  1

274
    -2
284
     1
 64
     0
275
    -2
285
     1
 65
     0
276
    -2
286
     1
 66
     0
277
    -2
287
     1
 67
     0
278
    -2
288
     1
 68
     0
279
    -2
289
     1
 69
     0
  7
Standard
140
0.25
170
     5
 62
     0
 63
   257
283
     0
 90
        4
 91
        0
  1

274
    -2
284
     1
 64
     0
275
    -2
285
     1
 65
     0
276
    -2
286
     1
 66
     0
277
    -2
287
     1
 67
     0
278
    -2
288
     1
 68
     0
279
    -2
289
     1
 69
     0
  7
Standard
140
0.18
170
     5
 62
     0
 63
   257
283
     0
 90
        4
 91
        0
  1

274
    -2
284
     1
 64
     0
275
    -2
285
     1
 65
     0
276
    -2
286
     1
 66
     0
277
    -2
287
     1
 67
     0
278
    -2
288
     1
 68
     0
279
    -2
289
     1
 69
     0
  0
VISUALSTYLE
  5
2F
102
{ACAD_REACTORS
330
2A
102
}
102
{ACAD_XDICTIONARY
360
F6
102
}
330
2A
100
AcDbVisualStyle
  2
2dWireframe
 70
     4
 71
     0
 72
     2
 73
     0
 90
        0
 40
0.6
 41
30.0
 62
     5
 63
     7
421
 16777215
 74
     1
 91
        4
 64
     7
 65
   257
 75
     1
175
     1
 42
1.0
 92
        0
 66
   257
 43
1.0
 76
     1
 77
     6
 78
     2
 67
     7
 79
     5
170
     0
171
     0
290
     0
174
     0
 93
        1
 44
0.0
173
     0
291
     0
 45
0.0
  0
VISUALSTYLE
  5
32
102
{ACAD_REACTORS
330
2A
102
}
102
{ACAD_XDICTIONARY
360
FC
102
}
330
2A
100
AcDbVisualStyle
  2
Basic
 70
     7
 71
     1
 72
     0
 73
     1
 90
        0
 40
0.6
 41
30.0
 62
     5
 63
     7
421
 16777215
 74
     0
 91
        4
 64
     7
 65
   257
 75
     1
175
     1
 42
1.0
 92
        8
 66
     7
 43
1.0
 76
     1
 77
     6
 78
     2
 67
     7
 79
     5
170
     0
171
     0
290
     0
174
     0
 93
        1
 44
0.0
173
     0
291
     1
 45
0.0
  0
VISUALSTYLE
  5
36
102
{ACAD_REACTORS
330
2A
102
}
102
{ACAD_XDICTIONARY
360
104
102
}
330
2A
100
AcDbVisualStyle
  2
Brighten
 70
    12
 71
     2
 72
     2
 73
     0
 90
        0
 40
0.6
 41
30.0
 62
     5
 63
     7
421
 16777215
 74
     1
 91
        4
 64
     7
 65
   257
 75
     1
175
     1
 42
1.0
 92
        8
 66
     7
 43
1.0
 76
     1
 77
     6
 78
     2
 67
     7
 79
     5
170
     0
171
     0
290
     0
174
     0
 93
        1
 44
50.0
173
     0
291
     1
 45
0.0
  0
VISUALSTYLE
  5
3A
102
{ACAD_REACTORS
330
2A
102
}
102
{ACAD_XDICTIONARY
360
10C
102
}
330
2A
100
AcDbVisualStyle
  2
ColorChange
 70
    16
 71
     2
 72
     2
 73
     3
 90
        0
 40
0.6
 41
30.0
 62
     5
 63
     8
421
  8421504
 74
     1
 91
        4
 64
     7
 65
   257
 75
     1
175
     1
 42
1.0
 92
        8
 66
     8
424
  8421504
 43
1.0
 76
     1
 77
     6
 78
     2
 67
     7
 79
     5
170
     0
171
     0
290
     0
174
     0
 93
        1
 44
0.0
173
     0
291
     1
 45
0.0
  0
VISUALSTYLE
  5
34
102
{ACAD_REACTORS
330
2A
102
}
102
{ACAD_XDICTIONARY
360
100
102
}
330
2A
100
AcDbVisualStyle
  2
Conceptual
 70
     9
 71
     3
 72
     2
 73
     0
 90
        0
 40
0.6
 41
30.0
 62
     5
 63
     7
421
 16777215
 74
     2
 91
        2
 64
     7
 65
   257
 75
     1
175
     1
 42
179.0
 92
        8
 66
     7
 43
1.0
 76
     1
 77
     6
 78
     2
 67
     7
 79
     3
170
     0
171
     0
290
     0
174
     0
 93
        1
 44
0.0
173
     0
291
     0
 45
0.0
  0
VISUALSTYLE
  5
35
102
{ACAD_REACTORS
330
2A
102
}
102
{ACAD_XDICTIONARY
360
102
102
}
330
2A
100
AcDbVisualStyle
  2
Dim
 70
    11
 71
     2
 72
     2
 73
     0
 90
        0
 40
0.6
 41
30.0
 62
     5
 63
     7
421
 16777215
 74
     1
 91
        4
 64
     7
 65
   257
 75
     1
175
     1
 42
1.0
 92
        8
 66
     7
 43
1.0
 76
     1
 77
     6
 78
     2
 67
     7
 79
     5
170
     0
171
     0
290
     0
174
     0
 93
        1
 44
-50.0
173
     0
291
     1
 45
0.0
  0
VISUALSTYLE
  5
3D
102
{ACAD_REACTORS
330
2A
102
}
102
{ACAD_XDICTIONARY
360
112
102
}
330
2A
100
AcDbVisualStyle
  2
EdgeColorOff
 70
    22
 71
     2
 72
     2
 73
     0
 90
        0
 40
0.6
 41
30.0
 62
     5
 63
     7
421
 16777215
 74
     1
 91
        4
 64
     7
 65
   257
 75
     1
175
     1
 42
1.0
 92
        8
 66
     7
 43
1.0
 76
     1
 77
     6
 78
     2
 67
     7
 79
     5
170
     0
171
     0
290
     0
174
     0
 93
        1
 44
0.0
173
     0
291
     1
 45
0.0
  0
VISUALSTYLE
  5
39
102
{ACAD_REACTORS
330
2A
102
}
102
{ACAD_XDICTIONARY
360
10A
102
}
330
2A
100
AcDbVisualStyle
  2
Facepattern
 70
    15
 71
     2
 72
     2
 73
     0
 90
        0
 40
0.6
 41
30.0
 62
     5
 63
     7
421
 16777215
 74
     1
 91
        4
 64
     7
 65
   257
 75
     1
175
     1
 42
1.0
 92
        8
 66
     7
 43
1.0
 76
     1
 77
     6
 78
     2
 67
     7
 79
     5
170
     0
171
     0
290
     0
174
     0
 93
        1
 44
0.0
173
     0
291
     1
 45
0.0
  0
VISUALSTYLE
  5
2B
102
{ACAD_REACTORS
330
2A
102
}
102
{ACAD_XDICTIONARY
360
EE
102
}
330
2A
100
AcDbVisualStyle
  2
Flat
 70
     0
 71
     2
 72
     1
 73
     1
 90
        2
 40
0.6
 41
30.0
 62
     5
 63
     7
421
 16777215
 74
     0
 91
        0
 64
     7
 65
   257
 75
     1
175
     1
 42
1.0
 92
        8
 66
     7
 43
1.0
 76
     1
 77
     6
 78
     2
 67
     7
 79
     5
170
     0
171
     0
290
     0
174
     0
 93
       13
 44
0.0
173
     0
291
     1
 45
0.0
  0
VISUALSTYLE
  5
2C
102
{ACAD_REACTORS
330
2A
102
}
102
{ACAD_XDICTIONARY
360
F0
102
}
330
2A
100
AcDbVisualStyle
  2
FlatWithEdges
 70
     1
 71
     2
 72
     1
 73
     1
 90
        2
 40
0.6
 41
30.0
 62
     5
 63
     7
421
 16777215
 74
     1
 91
        0
 64
     7
 65
   257
 75
     1
175
     1
 42
1.0
 92
        0
 66
   257
 43
1.0
 76
     1
 77
     6
 78
     2
 67
     7
 79
     5
170
     0
171
     0
290
     0
174
     0
 93
       13
 44
0.0
173
     0
291
     1
 45
0.0
  0
VISUALSTYLE
  5
2D
102
{ACAD_REACTORS
330
2A
102
}
102
{ACAD_XDICTIONARY
360
F2
102
}
330
2A
100
AcDbVisualStyle
  2
Gouraud
 70
     2
 71
     2
 72
     2
 73
     1
 90
        2
 40
0.6
 41
30.0
 62
     5
 63
     7
421
 16777215
 74
     0
 91
        0
 64
     7
 65
   257
 75
     1
175
     1
 42
1.0
 92
        0
 66
     7
 43
1.0
 76
     1
 77
     6
 78
     2
 67
     7
 79
     5
170
     0
171
     0
290
     0
174
     0
 93
       13
 44
0.0
173
     0
291
     1
 45
0.0
  0
VISUALSTYLE
  5
2E
102
{ACAD_REACTORS
330
2A
102
}
102
{ACAD_XDICTIONARY
360
F4
102
}
330
2A
100
AcDbVisualStyle
  2
GouraudWithEdges
 70
     3
 71
     2
 72
     2
 73
     1
 90
        2
 40
0.6
 41
30.0
 62
     5
 63
     7
421
 16777215
 74
     1
 91
        0
 64
     7
 65
   257
 75
     1
175
     1
 42
1.0
 92
        0
 66
   257
 43
1.0
 76
     1
 77
     6
 78
     2
 67
     7
 79
     5
170
     0
171
     0
290
     0
174
     0
 93
       13
 44
0.0
173
     0
291
     1
 45
0.0
  0
VISUALSTYLE
  5
31
102
{ACAD_REACTORS
330
2A
102
}
102
{ACAD_XDICTIONARY
360
FA
102
}
330
2A
100
AcDbVisualStyle
  2
Hidden
 70
     6
 71
     1
 72
     2
 73
     2
 90
        0
 40
0.6
 41
30.0
 62
     5
 63
     7
421
 16777215
 74
     2
 91
        2
 64
     7
 65
   257
 75
     2
175
     1
 42
40.0
 92
        0
 66
   257
 43
1.0
 76
     1
 77
     6
 78
     2
 67
     7
 79
     3
170
     0
171
     0
290
     0
174
     0
 93
        1
 44
0.0
173
     0
291
     0
 45
0.0
  0
VISUALSTYLE
  5
3B
102
{ACAD_REACTORS
330
2A
102
}
102
{ACAD_XDICTIONARY
360
10E
102
}
330
2A
100
AcDbVisualStyle
  2
JitterOff
 70
    20
 71
     2
 72
     2
 73
     0
 90
        0
 40
0.6
 41
30.0
 62
     5
 63
     7
421
 16777215
 74
     1
 91
        4
 64
     7
 65
   257
 75
     1
175
     1
 42
1.0
 92
       10
 66
     7
 43
1.0
 76
     1
 77
     6
 78
     2
 67
     7
 79
     5
170
     0
171
     0
290
     0
174
     0
 93
        1
 44
0.0
173
     0
291
     1
 45
0.0
  0
VISUALSTYLE
  5
38
102
{ACAD_REACTORS
330
2A
102
}
102
{ACAD_XDICTIONARY
360
108
102
}
330
2A
100
AcDbVisualStyle
  2
Linepattern
 70
    14
 71
     2
 72
     2
 73
     0
 90
        0
 40
0.6
 41
30.0
 62
     5
 63
     7
421
 16777215
 74
     1
 91
        4
 64
     7
 65
   257
 75
     7
175
     7
 42
1.0
 92
        8
 66
     7
 43
1.0
 76
     1
 77
     6
 78
     2
 67
     7
 79
     5
170
     0
171
     0
290
     0
174
     0
 93
        1
 44
0.0
173
     0
291
     1
 45
0.0
  0
VISUALSTYLE
  5
3C
102
{ACAD_REACTORS
330
2A
102
}
102
{ACAD_XDICTIONARY
360
110
102
}
330
2A
100
AcDbVisualStyle
  2
OverhangOff
 70
    21
 71
     2
 72
     2
 73
     0
 90
        0
 40
0.6
 41
30.0
 62
     5
 63
     7
421
 16777215
 74
     1
 91
        4
 64
     7
 65
   257
 75
     1
175
     1
 42
1.0
 92
        9
 66
     7
 43
1.0
 76
     1
 77
     6
 78
     2
 67
     7
 79
     5
170
     0
171
     0
290
     0
174
     0
 93
        1
 44
0.0
173
     0
291
     1
 45
0.0
  0
VISUALSTYLE
  5
33
102
{ACAD_REACTORS
330
2A
102
}
102
{ACAD_XDICTIONARY
360
FE
102
}
330
2A
100
AcDbVisualStyle
  2
Realistic
 70
     8
 71
     2
 72
     3
 73
     0
 90
        2
 40
0.6
 41
30.0
 62
     5
 63
     7
421
 16777215
 74
     0
 91
        0
 64
     7
 65
   257
 75
     1
175
     1
 42
1.0
 92
        8
 66
   257
 43
1.0
 76
     1
 77
     6
 78
     2
 67
     7
 79
     3
170
     0
171
     0
290
     0
174
     0
 93
       13
 44
0.0
173
     0
291
     0
 45
0.0
  0
VISUALSTYLE
  5
42
102
{ACAD_REACTORS
330
2A
102
}
102
{ACAD_XDICTIONARY
360
11C
102
}
330
2A
100
AcDbVisualStyle
  2
Shaded
 70
    27
 71
     2
 72
     2
 73
     1
 90
        2
 40
0.6
 41
30.0
 62
     5
 63
     7
421
 16777215
 74
     0
 91
        4
 64
     7
 65
   257
 75
     1
175
     1
 42
1.0
 92
        8
 66
   257
 43
1.0
 76
     1
 77
     6
 78
     2
 67
     8
425
  7895160
 79
     3
170
     0
171
     0
290
     0
174
     0
 93
        5
 44
0.0
173
     0
291
     0
 45
0.0
  0
VISUALSTYLE
  5
41
102
{ACAD_REACTORS
330
2A
102
}
102
{ACAD_XDICTIONARY
360
11A
102
}
330
2A
100
AcDbVisualStyle
  2
Shaded with edges
 70
    26
 71
     2
 72
     2
 73
     1
 90
        2
 40
0.6
 41
30.0
 62
     5
 63
     7
421
 16777215
 74
     1
 91
       10
 64
     7
 65
   257
 75
     2
175
     1
 42
1.0
 92
        8
 66
   257
 43
1.0
 76
     1
 77
     6
 78
     2
 67
     7
 79
     3
170
     0
171
     0
290
     0
174
     0
 93
        5
 44
0.0
173
     0
291
     0
 45
0.0
  0
VISUALSTYLE
  5
3E
102
{ACAD_REACTORS
330
2A
102
}
102
{ACAD_XDICTIONARY
360
114
102
}
330
2A
100
AcDbVisualStyle
  2
Shades of Gray
 70
    23
 71
     2
 72
     2
 73
     3
 90
        0
 40
0.6
 41
30.0
 62
     5
 63
     7
421
 16777215
 74
     2
 91
        2
 64
     7
 65
     7
 75
     1
175
     1
 42
40.0
 92
        8
 66
     7
 43
1.0
 76
     1
 77
     6
 78
     2
 67
     7
 79
     3
170
     0
171
     0
290
     0
174
     0
 93
        1
 44
0.0
173
     0
291
     0
 45
0.0
  0
VISUALSTYLE
  5
3F
102
{ACAD_REACTORS
330
2A
102
}
102
{ACAD_XDICTIONARY
360
116
102
}
330
2A
100
AcDbVisualStyle
  2
Sketchy
 70
    24
 71
     1
 72
     2
 73
     2
 90
        0
 40
0.6
 41
30.0
 62
     5
 63
     7
421
 16777215
 74
     2
 91
        2
 64
     7
 65
     7
 75
     1
175
     1
 42
40.0
 92
       11
 66
     7
 43
1.0
 76
     1
 77
     6
 78
     2
 67
     7
 79
     6
170
     0
171
     0
290
     0
174
     0
 93
        1
 44
0.0
173
     0
291
     0
 45
0.0
  0
VISUALSTYLE
  5
37
102
{ACAD_REACTORS
330
2A
102
}
102
{ACAD_XDICTIONARY
360
106
102
}
330
2A
100
AcDbVisualStyle
  2
Thicken
 70
    13
 71
     2
 72
     2
 73
     0
 90
        0
 40
0.6
 41
30.0
 62
     5
 63
     7
421
 16777215
 74
     1
 91
        4
 64
     7
 65
   257
 75
     1
175
     1
 42
1.0
 92
       12
 66
     7
 43
1.0
 76
     1
 77
     6
 78
     2
 67
     7
 79
     5
170
     0
171
     0
290
     0
174
     0
 93
        1
 44
0.0
173
     0
291
     1
 45
0.0
  0
VISUALSTYLE
  5
30
102
{ACAD_REACTORS
330
2A
102
}
102
{ACAD_XDICTIONARY
360
F8
102
}
330
2A
100
AcDbVisualStyle
  2
Wireframe
 70
     5
 71
     0
 72
     2
 73
     0
 90
        0
 40
0.6
 41
30.0
 62
     5
 63
     7
421
 16777215
 74
     1
 91
        4
 64
     7
 65
   257
 75
     1
175
     1
 42
1.0
 92
        0
 66
   257
 43
1.0
 76
     1
 77
     6
 78
     2
 67
     7
 79
     3
170
     0
171
     0
290
     0
174
     0
 93
        1
 44
0.0
173
     0
291
     0
 45
0.0
  0
VISUALSTYLE
  5
40
102
{ACAD_REACTORS
330
2A
102
}
102
{ACAD_XDICTIONARY
360
118
102
}
330
2A
100
AcDbVisualStyle
  2
X-Ray
 70
    25
 71
     2
 72
     2
 73
     1
 90
        1
 40
0.5
 41
30.0
 62
     5
 63
     7
421
 16777215
 74
     1
 91
        0
 64
     7
 65
   257
 75
     1
175
     1
 42
1.0
 92
        8
 66
     7
 43
1.0
 76
     1
 77
     6
 78
     2
 67
     7
 79
     3
170
     0
171
     0
290
     0
174
     0
 93
       13
 44
0.0
173
     0
291
     0
 45
0.0
  0
DICTIONARYVAR
  5
EC
102
{ACAD_REACTORS
330
EB
102
}
330
EB
100
DictionaryVariables
280
     0
  1
1:1
  0
DICTIONARYVAR
  5
125
102
{ACAD_REACTORS
330
EB
102
}
330
EB
100
DictionaryVariables
280
     0
  1
Standard
  0
DICTIONARYVAR
  5
124
102
{ACAD_REACTORS
330
EB
102
}
330
EB
100
DictionaryVariables
280
     0
  1
Standard
  0
DICTIONARYVAR
  5
ED
102
{ACAD_REACTORS
330
EB
102
}
330
EB
100
DictionaryVariables
280
     0
  1
2
  0
DICTIONARY
  5
121
330
6C
100
AcDbDictionary
280
     1
281
     1
  3
ACAD_XREC_ROUNDTRIP
360
122
  0
DICTIONARY
  5
11E
330
6A
100
AcDbDictionary
280
     1
281
     1
  3
ACAD_ROUNDTRIP_2008_TABLESTYLE_CELLSTYLEMAP
360
11F
  0
DICTIONARY
  5
F6
330
2F
100
AcDbDictionary
280
     1
281
     1
  3
ACAD_XREC_ROUNDTRIP
360
F7
  0
DICTIONARY
  5
FC
330
32
100
AcDbDictionary
280
     1
281
     1
  3
ACAD_XREC_ROUNDTRIP
360
FD
  0
DICTIONARY
  5
104
330
36
100
AcDbDictionary
280
     1
281
     1
  3
ACAD_XREC_ROUNDTRIP
360
105
  0
DICTIONARY
  5
10C
330
3A
100
AcDbDictionary
280
     1
281
     1
  3
ACAD_XREC_ROUNDTRIP
360
10D
  0
DICTIONARY
  5
100
330
34
100
AcDbDictionary
280
     1
281
     1
  3
ACAD_XREC_ROUNDTRIP
360
101
  0
DICTIONARY
  5
102
330
35
100
AcDbDictionary
280
     1
281
     1
  3
ACAD_XREC_ROUNDTRIP
360
103
  0
DICTIONARY
  5
112
330
3D
100
AcDbDictionary
280
     1
281
     1
  3
ACAD_XREC_ROUNDTRIP
360
113
  0
DICTIONARY
  5
10A
330
39
100
AcDbDictionary
280
     1
281
     1
  3
ACAD_XREC_ROUNDTRIP
360
10B
  0
DICTIONARY
  5
EE
330
2B
100
AcDbDictionary
280
     1
281
     1
  3
ACAD_XREC_ROUNDTRIP
360
EF
  0
DICTIONARY
  5
F0
330
2C
100
AcDbDictionary
280
     1
281
     1
  3
ACAD_XREC_ROUNDTRIP
360
F1
  0
DICTIONARY
  5
F2
330
2D
100
AcDbDictionary
280
     1
281
     1
  3
ACAD_XREC_ROUNDTRIP
360
F3
  0
DICTIONARY
  5
F4
330
2E
100
AcDbDictionary
280
     1
281
     1
  3
ACAD_XREC_ROUNDTRIP
360
F5
  0
DICTIONARY
  5
FA
330
31
100
AcDbDictionary
280
     1
281
     1
  3
ACAD_XREC_ROUNDTRIP
360
FB
  0
DICTIONARY
  5
10E
330
3B
100
AcDbDictionary
280
     1
281
     1
  3
ACAD_XREC_ROUNDTRIP
360
10F
  0
DICTIONARY
  5
108
330
38
100
AcDbDictionary
280
     1
281
     1
  3
ACAD_XREC_ROUNDTRIP
360
109
  0
DICTIONARY
  5
110
330
3C
100
AcDbDictionary
280
     1
281
     1
  3
ACAD_XREC_ROUNDTRIP
360
111
  0
DICTIONARY
  5
FE
330
33
100
AcDbDictionary
280
     1
281
     1
  3
ACAD_XREC_ROUNDTRIP
360
FF
  0
DICTIONARY
  5
11C
330
42
100
AcDbDictionary
280
     1
281
     1
  3
ACAD_XREC_ROUNDTRIP
360
11D
  0
DICTIONARY
  5
11A
330
41
100
AcDbDictionary
280
     1
281
     1
  3
ACAD_XREC_ROUNDTRIP
360
11B
  0
DICTIONARY
  5
114
330
3E
100
AcDbDictionary
280
     1
281
     1
  3
ACAD_XREC_ROUNDTRIP
360
115
  0
DICTIONARY
  5
116
330
3F
100
AcDbDictionary
280
     1
281
     1
  3
ACAD_XREC_ROUNDTRIP
360
117
  0
DICTIONARY
  5
106
330
37
100
AcDbDictionary
280
     1
281
     1
  3
ACAD_XREC_ROUNDTRIP
360
107
  0
DICTIONARY
  5
F8
330
30
100
AcDbDictionary
280
     1
281
     1
  3
ACAD_XREC_ROUNDTRIP
360
F9
  0
DICTIONARY
  5
118
330
40
100
AcDbDictionary
280
     1
281
     1
  3
ACAD_XREC_ROUNDTRIP
360
119
  0
XRECORD
  5
122
102
{ACAD_REACTORS
330
121
102
}
330
121
100
AcDbXrecord
280
     1
102
ACAD_ROUNDTRIP_2010_MLEADER_STYLE
  0
CELLSTYLEMAP
  5
11F
102
{ACAD_REACTORS
330
11E
102
}
330
11E
100
AcDbCellStyleMap
 90
        3
300
CELLSTYLE
  1
TABLEFORMAT_BEGIN
 90
        5
170
     1
 91
        0
 92
    32768
 62
   257
 93
        1
300
CONTENTFORMAT
  1
CONTENTFORMAT_BEGIN
 90
        0
 91
        0
 92
        4
 93
        0
300

 40
0.0
140
1.0
 94
        5
 62
     0
340
11
144
0.25
309
CONTENTFORMAT_END
171
     1
301
MARGIN
  1
CELLMARGIN_BEGIN
 40
0.06
 40
0.06
 40
0.06
 40
0.06
 40
0.06
 40
0.06
309
CELLMARGIN_END
 94
        6
 95
        1
302
GRIDFORMAT
  1
GRIDFORMAT_BEGIN
 90
        0
 91
        1
 62
     0
 92
       -2
340
14
 93
        0
 40
0.045
309
GRIDFORMAT_END
 95
        2
302
GRIDFORMAT
  1
GRIDFORMAT_BEGIN
 90
        0
 91
        1
 62
     0
 92
       -2
340
14
 93
        0
 40
0.045
309
GRIDFORMAT_END
 95
        4
302
GRIDFORMAT
  1
GRIDFORMAT_BEGIN
 90
        0
 91
        1
 62
     0
 92
       -2
340
14
 93
        0
 40
0.045
309
GRIDFORMAT_END
 95
        8
302
GRIDFORMAT
  1
GRIDFORMAT_BEGIN
 90
        0
 91
        1
 62
     0
 92
       -2
340
14
 93
        0
 40
0.045
309
GRIDFORMAT_END
 95
       16
302
GRIDFORMAT
  1
GRIDFORMAT_BEGIN
 90
        0
 91
        1
 62
     0
 92
       -2
340
14
 93
        0
 40
0.045
309
GRIDFORMAT_END
 95
       32
302
GRIDFORMAT
  1
GRIDFORMAT_BEGIN
 90
        0
 91
        1
 62
     0
 92
       -2
340
14
 93
        0
 40
0.045
309
GRIDFORMAT_END
309
TABLEFORMAT_END
  1
CELLSTYLE_BEGIN
 90
        1
 91
        1
300
_TITLE
309
CELLSTYLE_END
300
CELLSTYLE
  1
TABLEFORMAT_BEGIN
 90
        5
170
     1
 91
        0
 92
        0
 62
   257
 93
        1
300
CONTENTFORMAT
  1
CONTENTFORMAT_BEGIN
 90
        0
 91
        0
 92
        4
 93
        0
300

 40
0.0
140
1.0
 94
        5
 62
     0
340
11
144
0.18
309
CONTENTFORMAT_END
171
     1
301
MARGIN
  1
CELLMARGIN_BEGIN
 40
0.06
 40
0.06
 40
0.06
 40
0.06
 40
0.06
 40
0.06
309
CELLMARGIN_END
 94
        6
 95
        1
302
GRIDFORMAT
  1
GRIDFORMAT_BEGIN
 90
        0
 91
        1
 62
     0
 92
       -2
340
14
 93
        0
 40
0.045
309
GRIDFORMAT_END
 95
        2
302
GRIDFORMAT
  1
GRIDFORMAT_BEGIN
 90
        0
 91
        1
 62
     0
 92
       -2
340
14
 93
        0
 40
0.045
309
GRIDFORMAT_END
 95
        4
302
GRIDFORMAT
  1
GRIDFORMAT_BEGIN
 90
        0
 91
        1
 62
     0
 92
       -2
340
14
 93
        0
 40
0.045
309
GRIDFORMAT_END
 95
        8
302
GRIDFORMAT
  1
GRIDFORMAT_BEGIN
 90
        0
 91
        1
 62
     0
 92
       -2
340
14
 93
        0
 40
0.045
309
GRIDFORMAT_END
 95
       16
302
GRIDFORMAT
  1
GRIDFORMAT_BEGIN
 90
        0
 91
        1
 62
     0
 92
       -2
340
14
 93
        0
 40
0.045
309
GRIDFORMAT_END
 95
       32
302
GRIDFORMAT
  1
GRIDFORMAT_BEGIN
 90
        0
 91
        1
 62
     0
 92
       -2
340
14
 93
        0
 40
0.045
309
GRIDFORMAT_END
309
TABLEFORMAT_END
  1
CELLSTYLE_BEGIN
 90
        2
 91
        1
300
_HEADER
309
CELLSTYLE_END
300
CELLSTYLE
  1
TABLEFORMAT_BEGIN
 90
        5
170
     1
 91
        0
 92
        0
 62
   257
 93
        1
300
CONTENTFORMAT
  1
CONTENTFORMAT_BEGIN
 90
        0
 91
        0
 92
        4
 93
        0
300

 40
0.0
140
1.0
 94
        2
 62
     0
340
11
144
0.18
309
CONTENTFORMAT_END
171
     1
301
MARGIN
  1
CELLMARGIN_BEGIN
 40
0.06
 40
0.06
 40
0.06
 40
0.06
 40
0.06
 40
0.06
309
CELLMARGIN_END
 94
        6
 95
        1
302
GRIDFORMAT
  1
GRIDFORMAT_BEGIN
 90
        0
 91
        1
 62
     0
 92
       -2
340
14
 93
        0
 40
0.045
309
GRIDFORMAT_END
 95
        2
302
GRIDFORMAT
  1
GRIDFORMAT_BEGIN
 90
        0
 91
        1
 62
     0
 92
       -2
340
14
 93
        0
 40
0.045
309
GRIDFORMAT_END
 95
        4
302
GRIDFORMAT
  1
GRIDFORMAT_BEGIN
 90
        0
 91
        1
 62
     0
 92
       -2
340
14
 93
        0
 40
0.045
309
GRIDFORMAT_END
 95
        8
302
GRIDFORMAT
  1
GRIDFORMAT_BEGIN
 90
        0
 91
        1
 62
     0
 92
       -2
340
14
 93
        0
 40
0.045
309
GRIDFORMAT_END
 95
       16
302
GRIDFORMAT
  1
GRIDFORMAT_BEGIN
 90
        0
 91
        1
 62
     0
 92
       -2
340
14
 93
        0
 40
0.045
309
GRIDFORMAT_END
 95
       32
302
GRIDFORMAT
  1
GRIDFORMAT_BEGIN
 90
        0
 91
        1
 62
     0
 92
       -2
340
14
 93
        0
 40
0.045
309
GRIDFORMAT_END
309
TABLEFORMAT_END
  1
CELLSTYLE_BEGIN
 90
        3
 91
        2
300
_DATA
309
CELLSTYLE_END
  0
XRECORD
  5
F7
102
{ACAD_REACTORS
330
F6
102
}
330
F6
100
AcDbXrecord
280
     1
102
RTVSPropertyOp0
 70
     1
102
RTVSPropertyOp1
 70
     1
102
RTVSPropertyOp2
 70
     1
102
RTVSPropertyOp3
 70
     1
102
RTVSPropertyOp4
 70
     1
102
RTVSPropertyOp5
 70
     1
102
RTVSPropertyOp6
 70
     1
102
RTVSPropertyOp7
 70
     1
102
RTVSPropertyOp8
 70
     1
102
RTVSPropertyOp9
 70
     1
102
RTVSPropertyOp10
 70
     1
102
RTVSPropertyOp11
 70
     1
102
RTVSPropertyOp12
 70
     1
102
RTVSPropertyOp13
 70
     1
102
RTVSPropertyOp14
 70
     1
102
RTVSPropertyOp15
 70
     1
102
RTVSPropertyOp16
 70
     1
102
RTVSPropertyOp17
 70
     1
102
RTVSPropertyOp18
 70
     1
102
RTVSPropertyOp19
 70
     1
102
RTVSPropertyOp20
 70
     1
102
RTVSPropertyOp21
 70
     1
102
RTVSPropertyOp22
 70
     1
102
RTVSPropertyOp23
 70
     1
102
RTVSPropertyOp24
 70
     1
102
RTVSPropertyOp25
 70
     1
102
RTVSPropertyOp26
 70
     1
102
RTVSPropertyOp27
 70
     1
102
RTVSPropertyOp28
 70
     1
102
RTVSPropertyOp29
 70
     1
102
RTVSPropertyOp30
 70
     1
102
RTVSPropertyOp31
 70
     1
102
RTVSPropertyOp32
 70
     1
102
RTVSPropertyOp33
 70
     1
102
RTVSPropertyOp34
 70
     1
102
RTVSPropertyOp35
 70
     1
102
RTVSPropertyOp36
 70
     1
102
RTVSPropertyOp37
 70
     1
102
RTVSPropertyOp38
 70
     1
102
RTVSPropertyOp39
 70
     1
102
RTVSPropertyOp40
 70
     1
102
RTVSPropertyOp41
 70
     1
102
RTVSPropertyOp42
 70
     1
102
RTVSPropertyOp43
 70
     1
102
RTVSPropertyOp44
 70
     1
102
RTVSPropertyOp45
 70
     1
102
RTVSPropertyOp46
 70
     1
102
RTVSPropertyOp47
 70
     1
102
RTVSPropertyOp48
 70
     1
102
RTVSPropertyOp49
 70
     1
102
RTVSPropertyOp50
 70
     1
102
RTVSPropertyOp51
 70
     0
102
RTVSPropertyOp52
 70
     0
102
RTVSPropertyOp53
 70
     1
102
RTVSPropertyOp54
 70
     1
102
RTVSPropertyOp55
 70
     1
102
RTVSPropertyOp56
 70
     1
102
RTVSPropertyOp57
 70
     1
102
RTVSPost2010Prop28
280
     1
102
RTVSPost2010PropOp28
 70
     1
102
RTVSPost2010Prop29
280
     1
102
RTVSPost2010PropOp29
 70
     1
102
RTVSPost2010Prop30
280
     0
102
RTVSPost2010PropOp30
 70
     1
102
RTVSPost2010Prop31
280
     0
102
RTVSPost2010PropOp31
 70
     1
102
RTVSPost2010Prop32
280
     0
102
RTVSPost2010PropOp32
 70
     1
102
RTVSPost2010Prop33
280
     0
102
RTVSPost2010PropOp33
 70
     1
102
RTVSPost2010Prop34
280
     0
102
RTVSPost2010PropOp34
 70
     1
102
RTVSPost2010Prop35
280
     0
102
RTVSPost2010PropOp35
 70
     1
102
RTVSPost2010Prop36
280
     0
102
RTVSPost2010PropOp36
 70
     1
102
RTVSPost2010Prop37
 90
       50
102
RTVSPost2010PropOp37
 70
     1
102
RTVSPost2010Prop38
140
0.0
102
RTVSPost2010PropOp38
 70
     1
102
RTVSPost2010Prop39
140
1.0
102
RTVSPost2010PropOp39
 70
     1
102
RTVSPost2010Prop40
 90
        0
102
RTVSPost2010PropOp40
 70
     1
102
RTVSPost2010Prop41ColorIndex
 90
       18
102
RTVSPost2010Prop41ColorRGB
 90
        0
102
RTVSPost2010PropOp41
 70
     1
102
RTVSPost2010Prop42
 90
       50
102
RTVSPost2010PropOp42
 70
     1
102
RTVSPost2010Prop43
 90
        3
102
RTVSPost2010PropOp43
 70
     1
102
RTVSPost2010Prop44ColorIndex
 90
        5
102
RTVSPost2010Prop44ColorRGB
 90
      255
102
RTVSPost2010PropOp44
 70
     1
102
RTVSPost2010Prop45
280
     0
102
RTVSPost2010PropOp45
 70
     1
102
RTVSPost2010Prop46
 90
       50
102
RTVSPost2010PropOp46
 70
     1
102
RTVSPost2010Prop47
 90
       50
102
RTVSPost2010PropOp47
 70
     1
102
RTVSPost2010Prop48
 90
       50
102
RTVSPost2010PropOp48
 70
     1
102
RTVSPost2010Prop49
280
     0
102
RTVSPost2010PropOp49
 70
     1
102
RTVSPost2010Prop50
 90
       50
102
RTVSPost2010PropOp50
 70
     1
102
RTVSPost2010Prop51ColorIndex
 90
      256
102
RTVSPost2010Prop51ColorRGB
 90
-16777216
102
RTVSPost2010PropOp51
 70
     0
102
RTVSPost2010Prop52
140
1.0
102
RTVSPost2010PropOp52
 70
     0
102
RTVSPost2010Prop53
 90
        2
102
RTVSPost2010PropOp53
 70
     1
102
RTVSPost2010Prop54
  1
strokes_ogs.tif
102
RTVSPost2010PropOp54
 70
     1
102
RTVSPost2010Prop55
280
     0
102
RTVSPost2010PropOp55
 70
     1
102
RTVSPost2010Prop56
140
1.0
102
RTVSPost2010PropOp56
 70
     1
102
RTVSPost2010Prop57
140
1.0
102
RTVSPost2010PropOp57
 70
     1
  0
XRECORD
  5
FD
102
{ACAD_REACTORS
330
FC
102
}
330
FC
100
AcDbXrecord
280
     1
102
RTVSPropertyOp0
 70
     1
102
RTVSPropertyOp1
 70
     1
102
RTVSPropertyOp2
 70
     1
102
RTVSPropertyOp3
 70
     1
102
RTVSPropertyOp4
 70
     1
102
RTVSPropertyOp5
 70
     1
102
RTVSPropertyOp6
 70
     1
102
RTVSPropertyOp7
 70
     1
102
RTVSPropertyOp8
 70
     1
102
RTVSPropertyOp9
 70
     1
102
RTVSPropertyOp10
 70
     1
102
RTVSPropertyOp11
 70
     1
102
RTVSPropertyOp12
 70
     1
102
RTVSPropertyOp13
 70
     1
102
RTVSPropertyOp14
 70
     1
102
RTVSPropertyOp15
 70
     1
102
RTVSPropertyOp16
 70
     1
102
RTVSPropertyOp17
 70
     1
102
RTVSPropertyOp18
 70
     1
102
RTVSPropertyOp19
 70
     1
102
RTVSPropertyOp20
 70
     1
102
RTVSPropertyOp21
 70
     1
102
RTVSPropertyOp22
 70
     1
102
RTVSPropertyOp23
 70
     1
102
RTVSPropertyOp24
 70
     1
102
RTVSPropertyOp25
 70
     1
102
RTVSPropertyOp26
 70
     1
102
RTVSPropertyOp27
 70
     1
102
RTVSPropertyOp28
 70
     1
102
RTVSPropertyOp29
 70
     1
102
RTVSPropertyOp30
 70
     1
102
RTVSPropertyOp31
 70
     1
102
RTVSPropertyOp32
 70
     1
102
RTVSPropertyOp33
 70
     1
102
RTVSPropertyOp34
 70
     1
102
RTVSPropertyOp35
 70
     1
102
RTVSPropertyOp36
 70
     1
102
RTVSPropertyOp37
 70
     1
102
RTVSPropertyOp38
 70
     1
102
RTVSPropertyOp39
 70
     1
102
RTVSPropertyOp40
 70
     1
102
RTVSPropertyOp41
 70
     1
102
RTVSPropertyOp42
 70
     1
102
RTVSPropertyOp43
 70
     1
102
RTVSPropertyOp44
 70
     1
102
RTVSPropertyOp45
 70
     1
102
RTVSPropertyOp46
 70
     1
102
RTVSPropertyOp47
 70
     1
102
RTVSPropertyOp48
 70
     1
102
RTVSPropertyOp49
 70
     1
102
RTVSPropertyOp50
 70
     1
102
RTVSPropertyOp51
 70
     0
102
RTVSPropertyOp52
 70
     0
102
RTVSPropertyOp53
 70
     1
102
RTVSPropertyOp54
 70
     1
102
RTVSPropertyOp55
 70
     1
102
RTVSPropertyOp56
 70
     1
102
RTVSPropertyOp57
 70
     1
102
RTVSPost2010Prop28
280
     0
102
RTVSPost2010PropOp28
 70
     1
102
RTVSPost2010Prop29
280
     1
102
RTVSPost2010PropOp29
 70
     1
102
RTVSPost2010Prop30
280
     1
102
RTVSPost2010PropOp30
 70
     1
102
RTVSPost2010Prop31
280
     0
102
RTVSPost2010PropOp31
 70
     1
102
RTVSPost2010Prop32
280
     0
102
RTVSPost2010PropOp32
 70
     1
102
RTVSPost2010Prop33
280
     0
102
RTVSPost2010PropOp33
 70
     1
102
RTVSPost2010Prop34
280
     0
102
RTVSPost2010PropOp34
 70
     1
102
RTVSPost2010Prop35
280
     0
102
RTVSPost2010PropOp35
 70
     1
102
RTVSPost2010Prop36
280
     0
102
RTVSPost2010PropOp36
 70
     1
102
RTVSPost2010Prop37
 90
       50
102
RTVSPost2010PropOp37
 70
     1
102
RTVSPost2010Prop38
140
0.0
102
RTVSPost2010PropOp38
 70
     1
102
RTVSPost2010Prop39
140
1.0
102
RTVSPost2010PropOp39
 70
     1
102
RTVSPost2010Prop40
 90
        0
102
RTVSPost2010PropOp40
 70
     1
102
RTVSPost2010Prop41ColorIndex
 90
       18
102
RTVSPost2010Prop41ColorRGB
 90
        0
102
RTVSPost2010PropOp41
 70
     1
102
RTVSPost2010Prop42
 90
       50
102
RTVSPost2010PropOp42
 70
     1
102
RTVSPost2010Prop43
 90
        3
102
RTVSPost2010PropOp43
 70
     1
102
RTVSPost2010Prop44ColorIndex
 90
        5
102
RTVSPost2010Prop44ColorRGB
 90
      255
102
RTVSPost2010PropOp44
 70
     1
102
RTVSPost2010Prop45
280
     0
102
RTVSPost2010PropOp45
 70
     1
102
RTVSPost2010Prop46
 90
       50
102
RTVSPost2010PropOp46
 70
     1
102
RTVSPost2010Prop47
 90
       50
102
RTVSPost2010PropOp47
 70
     1
102
RTVSPost2010Prop48
 90
       50
102
RTVSPost2010PropOp48
 70
     1
102
RTVSPost2010Prop49
280
     0
102
RTVSPost2010PropOp49
 70
     1
102
RTVSPost2010Prop50
 90
       50
102
RTVSPost2010PropOp50
 70
     1
102
RTVSPost2010Prop51ColorIndex
 90
      256
102
RTVSPost2010Prop51ColorRGB
 90
-16777216
102
RTVSPost2010PropOp51
 70
     0
102
RTVSPost2010Prop52
140
1.0
102
RTVSPost2010PropOp52
 70
     0
102
RTVSPost2010Prop53
 90
        2
102
RTVSPost2010PropOp53
 70
     1
102
RTVSPost2010Prop54
  1
strokes_ogs.tif
102
RTVSPost2010PropOp54
 70
     1
102
RTVSPost2010Prop55
280
     0
102
RTVSPost2010PropOp55
 70
     1
102
RTVSPost2010Prop56
140
1.0
102
RTVSPost2010PropOp56
 70
     1
102
RTVSPost2010Prop57
140
1.0
102
RTVSPost2010PropOp57
 70
     1
  0
XRECORD
  5
105
102
{ACAD_REACTORS
330
104
102
}
330
104
100
AcDbXrecord
280
     1
102
RTVSPropertyOp0
 70
     1
102
RTVSPropertyOp1
 70
     1
102
RTVSPropertyOp2
 70
     1
102
RTVSPropertyOp3
 70
     1
102
RTVSPropertyOp4
 70
     1
102
RTVSPropertyOp5
 70
     1
102
RTVSPropertyOp6
 70
     1
102
RTVSPropertyOp7
 70
     1
102
RTVSPropertyOp8
 70
     1
102
RTVSPropertyOp9
 70
     1
102
RTVSPropertyOp10
 70
     1
102
RTVSPropertyOp11
 70
     1
102
RTVSPropertyOp12
 70
     1
102
RTVSPropertyOp13
 70
     1
102
RTVSPropertyOp14
 70
     1
102
RTVSPropertyOp15
 70
     1
102
RTVSPropertyOp16
 70
     1
102
RTVSPropertyOp17
 70
     1
102
RTVSPropertyOp18
 70
     1
102
RTVSPropertyOp19
 70
     1
102
RTVSPropertyOp20
 70
     1
102
RTVSPropertyOp21
 70
     1
102
RTVSPropertyOp22
 70
     1
102
RTVSPropertyOp23
 70
     1
102
RTVSPropertyOp24
 70
     1
102
RTVSPropertyOp25
 70
     1
102
RTVSPropertyOp26
 70
     1
102
RTVSPropertyOp27
 70
     1
102
RTVSPropertyOp28
 70
     1
102
RTVSPropertyOp29
 70
     1
102
RTVSPropertyOp30
 70
     1
102
RTVSPropertyOp31
 70
     1
102
RTVSPropertyOp32
 70
     1
102
RTVSPropertyOp33
 70
     1
102
RTVSPropertyOp34
 70
     1
102
RTVSPropertyOp35
 70
     1
102
RTVSPropertyOp36
 70
     1
102
RTVSPropertyOp37
 70
     1
102
RTVSPropertyOp38
 70
     1
102
RTVSPropertyOp39
 70
     1
102
RTVSPropertyOp40
 70
     1
102
RTVSPropertyOp41
 70
     1
102
RTVSPropertyOp42
 70
     1
102
RTVSPropertyOp43
 70
     1
102
RTVSPropertyOp44
 70
     1
102
RTVSPropertyOp45
 70
     1
102
RTVSPropertyOp46
 70
     1
102
RTVSPropertyOp47
 70
     1
102
RTVSPropertyOp48
 70
     1
102
RTVSPropertyOp49
 70
     1
102
RTVSPropertyOp50
 70
     1
102
RTVSPropertyOp51
 70
     0
102
RTVSPropertyOp52
 70
     0
102
RTVSPropertyOp53
 70
     1
102
RTVSPropertyOp54
 70
     1
102
RTVSPropertyOp55
 70
     1
102
RTVSPropertyOp56
 70
     1
102
RTVSPropertyOp57
 70
     1
102
RTVSPost2010Prop28
280
     0
102
RTVSPost2010PropOp28
 70
     1
102
RTVSPost2010Prop29
280
     1
102
RTVSPost2010PropOp29
 70
     1
102
RTVSPost2010Prop30
280
     1
102
RTVSPost2010PropOp30
 70
     1
102
RTVSPost2010Prop31
280
     0
102
RTVSPost2010PropOp31
 70
     1
102
RTVSPost2010Prop32
280
     0
102
RTVSPost2010PropOp32
 70
     1
102
RTVSPost2010Prop33
280
     0
102
RTVSPost2010PropOp33
 70
     1
102
RTVSPost2010Prop34
280
     0
102
RTVSPost2010PropOp34
 70
     1
102
RTVSPost2010Prop35
280
     0
102
RTVSPost2010PropOp35
 70
     1
102
RTVSPost2010Prop36
280
     0
102
RTVSPost2010PropOp36
 70
     1
102
RTVSPost2010Prop37
 90
       50
102
RTVSPost2010PropOp37
 70
     1
102
RTVSPost2010Prop38
140
0.0
102
RTVSPost2010PropOp38
 70
     1
102
RTVSPost2010Prop39
140
1.0
102
RTVSPost2010PropOp39
 70
     1
102
RTVSPost2010Prop40
 90
        0
102
RTVSPost2010PropOp40
 70
     1
102
RTVSPost2010Prop41ColorIndex
 90
       18
102
RTVSPost2010Prop41ColorRGB
 90
        0
102
RTVSPost2010PropOp41
 70
     1
102
RTVSPost2010Prop42
 90
       50
102
RTVSPost2010PropOp42
 70
     1
102
RTVSPost2010Prop43
 90
        3
102
RTVSPost2010PropOp43
 70
     1
102
RTVSPost2010Prop44ColorIndex
 90
        5
102
RTVSPost2010Prop44ColorRGB
 90
      255
102
RTVSPost2010PropOp44
 70
     1
102
RTVSPost2010Prop45
280
     0
102
RTVSPost2010PropOp45
 70
     1
102
RTVSPost2010Prop46
 90
       50
102
RTVSPost2010PropOp46
 70
     1
102
RTVSPost2010Prop47
 90
       50
102
RTVSPost2010PropOp47
 70
     1
102
RTVSPost2010Prop48
 90
       50
102
RTVSPost2010PropOp48
 70
     1
102
RTVSPost2010Prop49
280
     0
102
RTVSPost2010PropOp49
 70
     1
102
RTVSPost2010Prop50
 90
       50
102
RTVSPost2010PropOp50
 70
     1
102
RTVSPost2010Prop51ColorIndex
 90
      256
102
RTVSPost2010Prop51ColorRGB
 90
-16777216
102
RTVSPost2010PropOp51
 70
     0
102
RTVSPost2010Prop52
140
1.0
102
RTVSPost2010PropOp52
 70
     0
102
RTVSPost2010Prop53
 90
        2
102
RTVSPost2010PropOp53
 70
     1
102
RTVSPost2010Prop54
  1
strokes_ogs.tif
102
RTVSPost2010PropOp54
 70
     1
102
RTVSPost2010Prop55
280
     0
102
RTVSPost2010PropOp55
 70
     1
102
RTVSPost2010Prop56
140
1.0
102
RTVSPost2010PropOp56
 70
     1
102
RTVSPost2010Prop57
140
1.0
102
RTVSPost2010PropOp57
 70
     1
  0
XRECORD
  5
10D
102
{ACAD_REACTORS
330
10C
102
}
330
10C
100
AcDbXrecord
280
     1
102
RTVSPropertyOp0
 70
     1
102
RTVSPropertyOp1
 70
     1
102
RTVSPropertyOp2
 70
     1
102
RTVSPropertyOp3
 70
     1
102
RTVSPropertyOp4
 70
     1
102
RTVSPropertyOp5
 70
     1
102
RTVSPropertyOp6
 70
     1
102
RTVSPropertyOp7
 70
     1
102
RTVSPropertyOp8
 70
     1
102
RTVSPropertyOp9
 70
     1
102
RTVSPropertyOp10
 70
     1
102
RTVSPropertyOp11
 70
     1
102
RTVSPropertyOp12
 70
     1
102
RTVSPropertyOp13
 70
     1
102
RTVSPropertyOp14
 70
     1
102
RTVSPropertyOp15
 70
     1
102
RTVSPropertyOp16
 70
     1
102
RTVSPropertyOp17
 70
     1
102
RTVSPropertyOp18
 70
     1
102
RTVSPropertyOp19
 70
     1
102
RTVSPropertyOp20
 70
     1
102
RTVSPropertyOp21
 70
     1
102
RTVSPropertyOp22
 70
     1
102
RTVSPropertyOp23
 70
     1
102
RTVSPropertyOp24
 70
     1
102
RTVSPropertyOp25
 70
     1
102
RTVSPropertyOp26
 70
     1
102
RTVSPropertyOp27
 70
     1
102
RTVSPropertyOp28
 70
     1
102
RTVSPropertyOp29
 70
     1
102
RTVSPropertyOp30
 70
     1
102
RTVSPropertyOp31
 70
     1
102
RTVSPropertyOp32
 70
     1
102
RTVSPropertyOp33
 70
     1
102
RTVSPropertyOp34
 70
     1
102
RTVSPropertyOp35
 70
     1
102
RTVSPropertyOp36
 70
     1
102
RTVSPropertyOp37
 70
     1
102
RTVSPropertyOp38
 70
     1
102
RTVSPropertyOp39
 70
     1
102
RTVSPropertyOp40
 70
     1
102
RTVSPropertyOp41
 70
     1
102
RTVSPropertyOp42
 70
     1
102
RTVSPropertyOp43
 70
     1
102
RTVSPropertyOp44
 70
     1
102
RTVSPropertyOp45
 70
     1
102
RTVSPropertyOp46
 70
     1
102
RTVSPropertyOp47
 70
     1
102
RTVSPropertyOp48
 70
     1
102
RTVSPropertyOp49
 70
     1
102
RTVSPropertyOp50
 70
     1
102
RTVSPropertyOp51
 70
     0
102
RTVSPropertyOp52
 70
     0
102
RTVSPropertyOp53
 70
     1
102
RTVSPropertyOp54
 70
     1
102
RTVSPropertyOp55
 70
     1
102
RTVSPropertyOp56
 70
     1
102
RTVSPropertyOp57
 70
     1
102
RTVSPost2010Prop28
280
     0
102
RTVSPost2010PropOp28
 70
     1
102
RTVSPost2010Prop29
280
     1
102
RTVSPost2010PropOp29
 70
     1
102
RTVSPost2010Prop30
280
     1
102
RTVSPost2010PropOp30
 70
     1
102
RTVSPost2010Prop31
280
     0
102
RTVSPost2010PropOp31
 70
     1
102
RTVSPost2010Prop32
280
     0
102
RTVSPost2010PropOp32
 70
     1
102
RTVSPost2010Prop33
280
     0
102
RTVSPost2010PropOp33
 70
     1
102
RTVSPost2010Prop34
280
     0
102
RTVSPost2010PropOp34
 70
     1
102
RTVSPost2010Prop35
280
     0
102
RTVSPost2010PropOp35
 70
     1
102
RTVSPost2010Prop36
280
     0
102
RTVSPost2010PropOp36
 70
     1
102
RTVSPost2010Prop37
 90
       50
102
RTVSPost2010PropOp37
 70
     1
102
RTVSPost2010Prop38
140
0.0
102
RTVSPost2010PropOp38
 70
     1
102
RTVSPost2010Prop39
140
1.0
102
RTVSPost2010PropOp39
 70
     1
102
RTVSPost2010Prop40
 90
        0
102
RTVSPost2010PropOp40
 70
     1
102
RTVSPost2010Prop41ColorIndex
 90
       18
102
RTVSPost2010Prop41ColorRGB
 90
        0
102
RTVSPost2010PropOp41
 70
     1
102
RTVSPost2010Prop42
 90
       50
102
RTVSPost2010PropOp42
 70
     1
102
RTVSPost2010Prop43
 90
        3
102
RTVSPost2010PropOp43
 70
     1
102
RTVSPost2010Prop44ColorIndex
 90
        5
102
RTVSPost2010Prop44ColorRGB
 90
      255
102
RTVSPost2010PropOp44
 70
     1
102
RTVSPost2010Prop45
280
     0
102
RTVSPost2010PropOp45
 70
     1
102
RTVSPost2010Prop46
 90
       50
102
RTVSPost2010PropOp46
 70
     1
102
RTVSPost2010Prop47
 90
       50
102
RTVSPost2010PropOp47
 70
     1
102
RTVSPost2010Prop48
 90
       50
102
RTVSPost2010PropOp48
 70
     1
102
RTVSPost2010Prop49
280
     0
102
RTVSPost2010PropOp49
 70
     1
102
RTVSPost2010Prop50
 90
       50
102
RTVSPost2010PropOp50
 70
     1
102
RTVSPost2010Prop51ColorIndex
 90
      256
102
RTVSPost2010Prop51ColorRGB
 90
-16777216
102
RTVSPost2010PropOp51
 70
     0
102
RTVSPost2010Prop52
140
1.0
102
RTVSPost2010PropOp52
 70
     0
102
RTVSPost2010Prop53
 90
        2
102
RTVSPost2010PropOp53
 70
     1
102
RTVSPost2010Prop54
  1
strokes_ogs.tif
102
RTVSPost2010PropOp54
 70
     1
102
RTVSPost2010Prop55
280
     0
102
RTVSPost2010PropOp55
 70
     1
102
RTVSPost2010Prop56
140
1.0
102
RTVSPost2010PropOp56
 70
     1
102
RTVSPost2010Prop57
140
1.0
102
RTVSPost2010PropOp57
 70
     1
  0
XRECORD
  5
101
102
{ACAD_REACTORS
330
100
102
}
330
100
100
AcDbXrecord
280
     1
102
RTVSPropertyOp0
 70
     1
102
RTVSPropertyOp1
 70
     1
102
RTVSPropertyOp2
 70
     1
102
RTVSPropertyOp3
 70
     1
102
RTVSPropertyOp4
 70
     1
102
RTVSPropertyOp5
 70
     1
102
RTVSPropertyOp6
 70
     1
102
RTVSPropertyOp7
 70
     1
102
RTVSPropertyOp8
 70
     1
102
RTVSPropertyOp9
 70
     1
102
RTVSPropertyOp10
 70
     1
102
RTVSPropertyOp11
 70
     1
102
RTVSPropertyOp12
 70
     1
102
RTVSPropertyOp13
 70
     1
102
RTVSPropertyOp14
 70
     1
102
RTVSPropertyOp15
 70
     1
102
RTVSPropertyOp16
 70
     1
102
RTVSPropertyOp17
 70
     1
102
RTVSPropertyOp18
 70
     1
102
RTVSPropertyOp19
 70
     1
102
RTVSPropertyOp20
 70
     1
102
RTVSPropertyOp21
 70
     1
102
RTVSPropertyOp22
 70
     1
102
RTVSPropertyOp23
 70
     1
102
RTVSPropertyOp24
 70
     1
102
RTVSPropertyOp25
 70
     1
102
RTVSPropertyOp26
 70
     1
102
RTVSPropertyOp27
 70
     1
102
RTVSPropertyOp28
 70
     1
102
RTVSPropertyOp29
 70
     1
102
RTVSPropertyOp30
 70
     1
102
RTVSPropertyOp31
 70
     1
102
RTVSPropertyOp32
 70
     1
102
RTVSPropertyOp33
 70
     1
102
RTVSPropertyOp34
 70
     1
102
RTVSPropertyOp35
 70
     1
102
RTVSPropertyOp36
 70
     1
102
RTVSPropertyOp37
 70
     1
102
RTVSPropertyOp38
 70
     1
102
RTVSPropertyOp39
 70
     1
102
RTVSPropertyOp40
 70
     1
102
RTVSPropertyOp41
 70
     1
102
RTVSPropertyOp42
 70
     1
102
RTVSPropertyOp43
 70
     1
102
RTVSPropertyOp44
 70
     1
102
RTVSPropertyOp45
 70
     1
102
RTVSPropertyOp46
 70
     1
102
RTVSPropertyOp47
 70
     1
102
RTVSPropertyOp48
 70
     1
102
RTVSPropertyOp49
 70
     1
102
RTVSPropertyOp50
 70
     1
102
RTVSPropertyOp51
 70
     0
102
RTVSPropertyOp52
 70
     0
102
RTVSPropertyOp53
 70
     1
102
RTVSPropertyOp54
 70
     1
102
RTVSPropertyOp55
 70
     1
102
RTVSPropertyOp56
 70
     1
102
RTVSPropertyOp57
 70
     1
102
RTVSPost2010Prop28
280
     0
102
RTVSPost2010PropOp28
 70
     1
102
RTVSPost2010Prop29
280
     1
102
RTVSPost2010PropOp29
 70
     1
102
RTVSPost2010Prop30
280
     1
102
RTVSPost2010PropOp30
 70
     1
102
RTVSPost2010Prop31
280
     0
102
RTVSPost2010PropOp31
 70
     1
102
RTVSPost2010Prop32
280
     0
102
RTVSPost2010PropOp32
 70
     1
102
RTVSPost2010Prop33
280
     0
102
RTVSPost2010PropOp33
 70
     1
102
RTVSPost2010Prop34
280
     0
102
RTVSPost2010PropOp34
 70
     1
102
RTVSPost2010Prop35
280
     0
102
RTVSPost2010PropOp35
 70
     1
102
RTVSPost2010Prop36
280
     0
102
RTVSPost2010PropOp36
 70
     1
102
RTVSPost2010Prop37
 90
       50
102
RTVSPost2010PropOp37
 70
     1
102
RTVSPost2010Prop38
140
0.0
102
RTVSPost2010PropOp38
 70
     1
102
RTVSPost2010Prop39
140
1.0
102
RTVSPost2010PropOp39
 70
     1
102
RTVSPost2010Prop40
 90
        0
102
RTVSPost2010PropOp40
 70
     1
102
RTVSPost2010Prop41ColorIndex
 90
       18
102
RTVSPost2010Prop41ColorRGB
 90
        0
102
RTVSPost2010PropOp41
 70
     1
102
RTVSPost2010Prop42
 90
       50
102
RTVSPost2010PropOp42
 70
     1
102
RTVSPost2010Prop43
 90
        3
102
RTVSPost2010PropOp43
 70
     1
102
RTVSPost2010Prop44ColorIndex
 90
        5
102
RTVSPost2010Prop44ColorRGB
 90
      255
102
RTVSPost2010PropOp44
 70
     1
102
RTVSPost2010Prop45
280
     0
102
RTVSPost2010PropOp45
 70
     1
102
RTVSPost2010Prop46
 90
       50
102
RTVSPost2010PropOp46
 70
     1
102
RTVSPost2010Prop47
 90
       50
102
RTVSPost2010PropOp47
 70
     1
102
RTVSPost2010Prop48
 90
       50
102
RTVSPost2010PropOp48
 70
     1
102
RTVSPost2010Prop49
280
     0
102
RTVSPost2010PropOp49
 70
     1
102
RTVSPost2010Prop50
 90
       50
102
RTVSPost2010PropOp50
 70
     1
102
RTVSPost2010Prop51ColorIndex
 90
      256
102
RTVSPost2010Prop51ColorRGB
 90
-16777216
102
RTVSPost2010PropOp51
 70
     0
102
RTVSPost2010Prop52
140
1.0
102
RTVSPost2010PropOp52
 70
     0
102
RTVSPost2010Prop53
 90
        2
102
RTVSPost2010PropOp53
 70
     1
102
RTVSPost2010Prop54
  1
strokes_ogs.tif
102
RTVSPost2010PropOp54
 70
     1
102
RTVSPost2010Prop55
280
     0
102
RTVSPost2010PropOp55
 70
     1
102
RTVSPost2010Prop56
140
1.0
102
RTVSPost2010PropOp56
 70
     1
102
RTVSPost2010Prop57
140
1.0
102
RTVSPost2010PropOp57
 70
     1
  0
XRECORD
  5
103
102
{ACAD_REACTORS
330
102
102
}
330
102
100
AcDbXrecord
280
     1
102
RTVSPropertyOp0
 70
     1
102
RTVSPropertyOp1
 70
     1
102
RTVSPropertyOp2
 70
     1
102
RTVSPropertyOp3
 70
     1
102
RTVSPropertyOp4
 70
     1
102
RTVSPropertyOp5
 70
     1
102
RTVSPropertyOp6
 70
     1
102
RTVSPropertyOp7
 70
     1
102
RTVSPropertyOp8
 70
     1
102
RTVSPropertyOp9
 70
     1
102
RTVSPropertyOp10
 70
     1
102
RTVSPropertyOp11
 70
     1
102
RTVSPropertyOp12
 70
     1
102
RTVSPropertyOp13
 70
     1
102
RTVSPropertyOp14
 70
     1
102
RTVSPropertyOp15
 70
     1
102
RTVSPropertyOp16
 70
     1
102
RTVSPropertyOp17
 70
     1
102
RTVSPropertyOp18
 70
     1
102
RTVSPropertyOp19
 70
     1
102
RTVSPropertyOp20
 70
     1
102
RTVSPropertyOp21
 70
     1
102
RTVSPropertyOp22
 70
     1
102
RTVSPropertyOp23
 70
     1
102
RTVSPropertyOp24
 70
     1
102
RTVSPropertyOp25
 70
     1
102
RTVSPropertyOp26
 70
     1
102
RTVSPropertyOp27
 70
     1
102
RTVSPropertyOp28
 70
     1
102
RTVSPropertyOp29
 70
     1
102
RTVSPropertyOp30
 70
     1
102
RTVSPropertyOp31
 70
     1
102
RTVSPropertyOp32
 70
     1
102
RTVSPropertyOp33
 70
     1
102
RTVSPropertyOp34
 70
     1
102
RTVSPropertyOp35
 70
     1
102
RTVSPropertyOp36
 70
     1
102
RTVSPropertyOp37
 70
     1
102
RTVSPropertyOp38
 70
     1
102
RTVSPropertyOp39
 70
     1
102
RTVSPropertyOp40
 70
     1
102
RTVSPropertyOp41
 70
     1
102
RTVSPropertyOp42
 70
     1
102
RTVSPropertyOp43
 70
     1
102
RTVSPropertyOp44
 70
     1
102
RTVSPropertyOp45
 70
     1
102
RTVSPropertyOp46
 70
     1
102
RTVSPropertyOp47
 70
     1
102
RTVSPropertyOp48
 70
     1
102
RTVSPropertyOp49
 70
     1
102
RTVSPropertyOp50
 70
     1
102
RTVSPropertyOp51
 70
     0
102
RTVSPropertyOp52
 70
     0
102
RTVSPropertyOp53
 70
     1
102
RTVSPropertyOp54
 70
     1
102
RTVSPropertyOp55
 70
     1
102
RTVSPropertyOp56
 70
     1
102
RTVSPropertyOp57
 70
     1
102
RTVSPost2010Prop28
280
     0
102
RTVSPost2010PropOp28
 70
     1
102
RTVSPost2010Prop29
280
     1
102
RTVSPost2010PropOp29
 70
     1
102
RTVSPost2010Prop30
280
     1
102
RTVSPost2010PropOp30
 70
     1
102
RTVSPost2010Prop31
280
     0
102
RTVSPost2010PropOp31
 70
     1
102
RTVSPost2010Prop32
280
     0
102
RTVSPost2010PropOp32
 70
     1
102
RTVSPost2010Prop33
280
     0
102
RTVSPost2010PropOp33
 70
     1
102
RTVSPost2010Prop34
280
     0
102
RTVSPost2010PropOp34
 70
     1
102
RTVSPost2010Prop35
280
     0
102
RTVSPost2010PropOp35
 70
     1
102
RTVSPost2010Prop36
280
     0
102
RTVSPost2010PropOp36
 70
     1
102
RTVSPost2010Prop37
 90
       50
102
RTVSPost2010PropOp37
 70
     1
102
RTVSPost2010Prop38
140
0.0
102
RTVSPost2010PropOp38
 70
     1
102
RTVSPost2010Prop39
140
1.0
102
RTVSPost2010PropOp39
 70
     1
102
RTVSPost2010Prop40
 90
        0
102
RTVSPost2010PropOp40
 70
     1
102
RTVSPost2010Prop41ColorIndex
 90
       18
102
RTVSPost2010Prop41ColorRGB
 90
        0
102
RTVSPost2010PropOp41
 70
     1
102
RTVSPost2010Prop42
 90
       50
102
RTVSPost2010PropOp42
 70
     1
102
RTVSPost2010Prop43
 90
        3
102
RTVSPost2010PropOp43
 70
     1
102
RTVSPost2010Prop44ColorIndex
 90
        5
102
RTVSPost2010Prop44ColorRGB
 90
      255
102
RTVSPost2010PropOp44
 70
     1
102
RTVSPost2010Prop45
280
     0
102
RTVSPost2010PropOp45
 70
     1
102
RTVSPost2010Prop46
 90
       50
102
RTVSPost2010PropOp46
 70
     1
102
RTVSPost2010Prop47
 90
       50
102
RTVSPost2010PropOp47
 70
     1
102
RTVSPost2010Prop48
 90
       50
102
RTVSPost2010PropOp48
 70
     1
102
RTVSPost2010Prop49
280
     0
102
RTVSPost2010PropOp49
 70
     1
102
RTVSPost2010Prop50
 90
       50
102
RTVSPost2010PropOp50
 70
     1
102
RTVSPost2010Prop51ColorIndex
 90
      256
102
RTVSPost2010Prop51ColorRGB
 90
-16777216
102
RTVSPost2010PropOp51
 70
     0
102
RTVSPost2010Prop52
140
1.0
102
RTVSPost2010PropOp52
 70
     0
102
RTVSPost2010Prop53
 90
        2
102
RTVSPost2010PropOp53
 70
     1
102
RTVSPost2010Prop54
  1
strokes_ogs.tif
102
RTVSPost2010PropOp54
 70
     1
102
RTVSPost2010Prop55
280
     0
102
RTVSPost2010PropOp55
 70
     1
102
RTVSPost2010Prop56
140
1.0
102
RTVSPost2010PropOp56
 70
     1
102
RTVSPost2010Prop57
140
1.0
102
RTVSPost2010PropOp57
 70
     1
  0
XRECORD
  5
113
102
{ACAD_REACTORS
330
112
102
}
330
112
100
AcDbXrecord
280
     1
102
RTVSPropertyOp0
 70
     0
102
RTVSPropertyOp1
 70
     0
102
RTVSPropertyOp2
 70
     0
102
RTVSPropertyOp3
 70
     0
102
RTVSPropertyOp4
 70
     0
102
RTVSPropertyOp5
 70
     0
102
RTVSPropertyOp6
 70
     0
102
RTVSPropertyOp7
 70
     0
102
RTVSPropertyOp8
 70
     0
102
RTVSPropertyOp9
 70
     0
102
RTVSPropertyOp10
 70
     0
102
RTVSPropertyOp11
 70
     0
102
RTVSPropertyOp12
 70
     0
102
RTVSPropertyOp13
 70
     0
102
RTVSPropertyOp14
 70
     2
102
RTVSPropertyOp15
 70
     0
102
RTVSPropertyOp16
 70
     0
102
RTVSPropertyOp17
 70
     0
102
RTVSPropertyOp18
 70
     0
102
RTVSPropertyOp19
 70
     0
102
RTVSPropertyOp20
 70
     0
102
RTVSPropertyOp21
 70
     0
102
RTVSPropertyOp22
 70
     0
102
RTVSPropertyOp23
 70
     0
102
RTVSPropertyOp24
 70
     0
102
RTVSPropertyOp25
 70
     0
102
RTVSPropertyOp26
 70
     0
102
RTVSPropertyOp27
 70
     0
102
RTVSPropertyOp28
 70
     0
102
RTVSPropertyOp29
 70
     0
102
RTVSPropertyOp30
 70
     0
102
RTVSPropertyOp31
 70
     0
102
RTVSPropertyOp32
 70
     0
102
RTVSPropertyOp33
 70
     0
102
RTVSPropertyOp34
 70
     0
102
RTVSPropertyOp35
 70
     0
102
RTVSPropertyOp36
 70
     0
102
RTVSPropertyOp37
 70
     0
102
RTVSPropertyOp38
 70
     0
102
RTVSPropertyOp39
 70
     0
102
RTVSPropertyOp40
 70
     0
102
RTVSPropertyOp41
 70
     0
102
RTVSPropertyOp42
 70
     0
102
RTVSPropertyOp43
 70
     0
102
RTVSPropertyOp44
 70
     0
102
RTVSPropertyOp45
 70
     0
102
RTVSPropertyOp46
 70
     0
102
RTVSPropertyOp47
 70
     0
102
RTVSPropertyOp48
 70
     0
102
RTVSPropertyOp49
 70
     0
102
RTVSPropertyOp50
 70
     0
102
RTVSPropertyOp51
 70
     0
102
RTVSPropertyOp52
 70
     0
102
RTVSPropertyOp53
 70
     0
102
RTVSPropertyOp54
 70
     0
102
RTVSPropertyOp55
 70
     0
102
RTVSPropertyOp56
 70
     0
102
RTVSPropertyOp57
 70
     0
102
RTVSPost2010Prop28
280
     0
102
RTVSPost2010PropOp28
 70
     0
102
RTVSPost2010Prop29
280
     1
102
RTVSPost2010PropOp29
 70
     0
102
RTVSPost2010Prop30
280
     1
102
RTVSPost2010PropOp30
 70
     0
102
RTVSPost2010Prop31
280
     0
102
RTVSPost2010PropOp31
 70
     0
102
RTVSPost2010Prop32
280
     0
102
RTVSPost2010PropOp32
 70
     0
102
RTVSPost2010Prop33
280
     0
102
RTVSPost2010PropOp33
 70
     0
102
RTVSPost2010Prop34
280
     0
102
RTVSPost2010PropOp34
 70
     0
102
RTVSPost2010Prop35
280
     0
102
RTVSPost2010PropOp35
 70
     0
102
RTVSPost2010Prop36
280
     0
102
RTVSPost2010PropOp36
 70
     0
102
RTVSPost2010Prop37
 90
       50
102
RTVSPost2010PropOp37
 70
     0
102
RTVSPost2010Prop38
140
0.0
102
RTVSPost2010PropOp38
 70
     0
102
RTVSPost2010Prop39
140
1.0
102
RTVSPost2010PropOp39
 70
     0
102
RTVSPost2010Prop40
 90
        0
102
RTVSPost2010PropOp40
 70
     0
102
RTVSPost2010Prop41ColorIndex
 90
       18
102
RTVSPost2010Prop41ColorRGB
 90
        0
102
RTVSPost2010PropOp41
 70
     0
102
RTVSPost2010Prop42
 90
       50
102
RTVSPost2010PropOp42
 70
     0
102
RTVSPost2010Prop43
 90
        3
102
RTVSPost2010PropOp43
 70
     0
102
RTVSPost2010Prop44ColorIndex
 90
        5
102
RTVSPost2010Prop44ColorRGB
 90
      255
102
RTVSPost2010PropOp44
 70
     0
102
RTVSPost2010Prop45
280
     0
102
RTVSPost2010PropOp45
 70
     0
102
RTVSPost2010Prop46
 90
       50
102
RTVSPost2010PropOp46
 70
     0
102
RTVSPost2010Prop47
 90
       50
102
RTVSPost2010PropOp47
 70
     0
102
RTVSPost2010Prop48
 90
       50
102
RTVSPost2010PropOp48
 70
     0
102
RTVSPost2010Prop49
280
     0
102
RTVSPost2010PropOp49
 70
     0
102
RTVSPost2010Prop50
 90
       50
102
RTVSPost2010PropOp50
 70
     0
102
RTVSPost2010Prop51ColorIndex
 90
      256
102
RTVSPost2010Prop51ColorRGB
 90
-16777216
102
RTVSPost2010PropOp51
 70
     0
102
RTVSPost2010Prop52
140
1.0
102
RTVSPost2010PropOp52
 70
     0
102
RTVSPost2010Prop53
 90
        2
102
RTVSPost2010PropOp53
 70
     0
102
RTVSPost2010Prop54
  1
strokes_ogs.tif
102
RTVSPost2010PropOp54
 70
     0
102
RTVSPost2010Prop55
280
     0
102
RTVSPost2010PropOp55
 70
     0
102
RTVSPost2010Prop56
140
1.0
102
RTVSPost2010PropOp56
 70
     0
102
RTVSPost2010Prop57
140
1.0
102
RTVSPost2010PropOp57
 70
     0
  0
XRECORD
  5
10B
102
{ACAD_REACTORS
330
10A
102
}
330
10A
100
AcDbXrecord
280
     1
102
RTVSPropertyOp0
 70
     1
102
RTVSPropertyOp1
 70
     1
102
RTVSPropertyOp2
 70
     1
102
RTVSPropertyOp3
 70
     1
102
RTVSPropertyOp4
 70
     1
102
RTVSPropertyOp5
 70
     1
102
RTVSPropertyOp6
 70
     1
102
RTVSPropertyOp7
 70
     1
102
RTVSPropertyOp8
 70
     1
102
RTVSPropertyOp9
 70
     1
102
RTVSPropertyOp10
 70
     1
102
RTVSPropertyOp11
 70
     1
102
RTVSPropertyOp12
 70
     1
102
RTVSPropertyOp13
 70
     1
102
RTVSPropertyOp14
 70
     1
102
RTVSPropertyOp15
 70
     1
102
RTVSPropertyOp16
 70
     1
102
RTVSPropertyOp17
 70
     1
102
RTVSPropertyOp18
 70
     1
102
RTVSPropertyOp19
 70
     1
102
RTVSPropertyOp20
 70
     1
102
RTVSPropertyOp21
 70
     1
102
RTVSPropertyOp22
 70
     1
102
RTVSPropertyOp23
 70
     1
102
RTVSPropertyOp24
 70
     1
102
RTVSPropertyOp25
 70
     1
102
RTVSPropertyOp26
 70
     1
102
RTVSPropertyOp27
 70
     1
102
RTVSPropertyOp28
 70
     1
102
RTVSPropertyOp29
 70
     1
102
RTVSPropertyOp30
 70
     1
102
RTVSPropertyOp31
 70
     1
102
RTVSPropertyOp32
 70
     1
102
RTVSPropertyOp33
 70
     1
102
RTVSPropertyOp34
 70
     1
102
RTVSPropertyOp35
 70
     1
102
RTVSPropertyOp36
 70
     1
102
RTVSPropertyOp37
 70
     1
102
RTVSPropertyOp38
 70
     1
102
RTVSPropertyOp39
 70
     1
102
RTVSPropertyOp40
 70
     1
102
RTVSPropertyOp41
 70
     1
102
RTVSPropertyOp42
 70
     1
102
RTVSPropertyOp43
 70
     1
102
RTVSPropertyOp44
 70
     1
102
RTVSPropertyOp45
 70
     1
102
RTVSPropertyOp46
 70
     1
102
RTVSPropertyOp47
 70
     1
102
RTVSPropertyOp48
 70
     1
102
RTVSPropertyOp49
 70
     1
102
RTVSPropertyOp50
 70
     1
102
RTVSPropertyOp51
 70
     0
102
RTVSPropertyOp52
 70
     0
102
RTVSPropertyOp53
 70
     1
102
RTVSPropertyOp54
 70
     1
102
RTVSPropertyOp55
 70
     1
102
RTVSPropertyOp56
 70
     1
102
RTVSPropertyOp57
 70
     1
102
RTVSPost2010Prop28
280
     0
102
RTVSPost2010PropOp28
 70
     1
102
RTVSPost2010Prop29
280
     1
102
RTVSPost2010PropOp29
 70
     1
102
RTVSPost2010Prop30
280
     1
102
RTVSPost2010PropOp30
 70
     1
102
RTVSPost2010Prop31
280
     0
102
RTVSPost2010PropOp31
 70
     1
102
RTVSPost2010Prop32
280
     0
102
RTVSPost2010PropOp32
 70
     1
102
RTVSPost2010Prop33
280
     0
102
RTVSPost2010PropOp33
 70
     1
102
RTVSPost2010Prop34
280
     0
102
RTVSPost2010PropOp34
 70
     1
102
RTVSPost2010Prop35
280
     0
102
RTVSPost2010PropOp35
 70
     1
102
RTVSPost2010Prop36
280
     0
102
RTVSPost2010PropOp36
 70
     1
102
RTVSPost2010Prop37
 90
       50
102
RTVSPost2010PropOp37
 70
     1
102
RTVSPost2010Prop38
140
0.0
102
RTVSPost2010PropOp38
 70
     1
102
RTVSPost2010Prop39
140
1.0
102
RTVSPost2010PropOp39
 70
     1
102
RTVSPost2010Prop40
 90
        0
102
RTVSPost2010PropOp40
 70
     1
102
RTVSPost2010Prop41ColorIndex
 90
       18
102
RTVSPost2010Prop41ColorRGB
 90
        0
102
RTVSPost2010PropOp41
 70
     1
102
RTVSPost2010Prop42
 90
       50
102
RTVSPost2010PropOp42
 70
     1
102
RTVSPost2010Prop43
 90
        3
102
RTVSPost2010PropOp43
 70
     1
102
RTVSPost2010Prop44ColorIndex
 90
        5
102
RTVSPost2010Prop44ColorRGB
 90
      255
102
RTVSPost2010PropOp44
 70
     1
102
RTVSPost2010Prop45
280
     0
102
RTVSPost2010PropOp45
 70
     1
102
RTVSPost2010Prop46
 90
       50
102
RTVSPost2010PropOp46
 70
     1
102
RTVSPost2010Prop47
 90
       50
102
RTVSPost2010PropOp47
 70
     1
102
RTVSPost2010Prop48
 90
       50
102
RTVSPost2010PropOp48
 70
     1
102
RTVSPost2010Prop49
280
     0
102
RTVSPost2010PropOp49
 70
     1
102
RTVSPost2010Prop50
 90
       50
102
RTVSPost2010PropOp50
 70
     1
102
RTVSPost2010Prop51ColorIndex
 90
      256
102
RTVSPost2010Prop51ColorRGB
 90
-16777216
102
RTVSPost2010PropOp51
 70
     0
102
RTVSPost2010Prop52
140
1.0
102
RTVSPost2010PropOp52
 70
     0
102
RTVSPost2010Prop53
 90
        2
102
RTVSPost2010PropOp53
 70
     1
102
RTVSPost2010Prop54
  1
strokes_ogs.tif
102
RTVSPost2010PropOp54
 70
     1
102
RTVSPost2010Prop55
280
     0
102
RTVSPost2010PropOp55
 70
     1
102
RTVSPost2010Prop56
140
1.0
102
RTVSPost2010PropOp56
 70
     1
102
RTVSPost2010Prop57
140
1.0
102
RTVSPost2010PropOp57
 70
     1
  0
XRECORD
  5
EF
102
{ACAD_REACTORS
330
EE
102
}
330
EE
100
AcDbXrecord
280
     1
102
RTVSPropertyOp0
 70
     1
102
RTVSPropertyOp1
 70
     1
102
RTVSPropertyOp2
 70
     1
102
RTVSPropertyOp3
 70
     1
102
RTVSPropertyOp4
 70
     1
102
RTVSPropertyOp5
 70
     1
102
RTVSPropertyOp6
 70
     1
102
RTVSPropertyOp7
 70
     1
102
RTVSPropertyOp8
 70
     1
102
RTVSPropertyOp9
 70
     1
102
RTVSPropertyOp10
 70
     1
102
RTVSPropertyOp11
 70
     1
102
RTVSPropertyOp12
 70
     1
102
RTVSPropertyOp13
 70
     1
102
RTVSPropertyOp14
 70
     1
102
RTVSPropertyOp15
 70
     1
102
RTVSPropertyOp16
 70
     1
102
RTVSPropertyOp17
 70
     1
102
RTVSPropertyOp18
 70
     1
102
RTVSPropertyOp19
 70
     1
102
RTVSPropertyOp20
 70
     1
102
RTVSPropertyOp21
 70
     1
102
RTVSPropertyOp22
 70
     1
102
RTVSPropertyOp23
 70
     1
102
RTVSPropertyOp24
 70
     1
102
RTVSPropertyOp25
 70
     1
102
RTVSPropertyOp26
 70
     1
102
RTVSPropertyOp27
 70
     1
102
RTVSPropertyOp28
 70
     1
102
RTVSPropertyOp29
 70
     1
102
RTVSPropertyOp30
 70
     1
102
RTVSPropertyOp31
 70
     1
102
RTVSPropertyOp32
 70
     1
102
RTVSPropertyOp33
 70
     1
102
RTVSPropertyOp34
 70
     1
102
RTVSPropertyOp35
 70
     1
102
RTVSPropertyOp36
 70
     1
102
RTVSPropertyOp37
 70
     1
102
RTVSPropertyOp38
 70
     1
102
RTVSPropertyOp39
 70
     1
102
RTVSPropertyOp40
 70
     1
102
RTVSPropertyOp41
 70
     1
102
RTVSPropertyOp42
 70
     1
102
RTVSPropertyOp43
 70
     1
102
RTVSPropertyOp44
 70
     1
102
RTVSPropertyOp45
 70
     1
102
RTVSPropertyOp46
 70
     1
102
RTVSPropertyOp47
 70
     1
102
RTVSPropertyOp48
 70
     1
102
RTVSPropertyOp49
 70
     1
102
RTVSPropertyOp50
 70
     1
102
RTVSPropertyOp51
 70
     0
102
RTVSPropertyOp52
 70
     0
102
RTVSPropertyOp53
 70
     1
102
RTVSPropertyOp54
 70
     1
102
RTVSPropertyOp55
 70
     1
102
RTVSPropertyOp56
 70
     1
102
RTVSPropertyOp57
 70
     1
102
RTVSPost2010Prop28
280
     0
102
RTVSPost2010PropOp28
 70
     1
102
RTVSPost2010Prop29
280
     1
102
RTVSPost2010PropOp29
 70
     1
102
RTVSPost2010Prop30
280
     1
102
RTVSPost2010PropOp30
 70
     1
102
RTVSPost2010Prop31
280
     0
102
RTVSPost2010PropOp31
 70
     1
102
RTVSPost2010Prop32
280
     0
102
RTVSPost2010PropOp32
 70
     1
102
RTVSPost2010Prop33
280
     0
102
RTVSPost2010PropOp33
 70
     1
102
RTVSPost2010Prop34
280
     0
102
RTVSPost2010PropOp34
 70
     1
102
RTVSPost2010Prop35
280
     0
102
RTVSPost2010PropOp35
 70
     1
102
RTVSPost2010Prop36
280
     0
102
RTVSPost2010PropOp36
 70
     1
102
RTVSPost2010Prop37
 90
       50
102
RTVSPost2010PropOp37
 70
     1
102
RTVSPost2010Prop38
140
0.0
102
RTVSPost2010PropOp38
 70
     1
102
RTVSPost2010Prop39
140
1.0
102
RTVSPost2010PropOp39
 70
     1
102
RTVSPost2010Prop40
 90
        0
102
RTVSPost2010PropOp40
 70
     1
102
RTVSPost2010Prop41ColorIndex
 90
       18
102
RTVSPost2010Prop41ColorRGB
 90
        0
102
RTVSPost2010PropOp41
 70
     1
102
RTVSPost2010Prop42
 90
       50
102
RTVSPost2010PropOp42
 70
     1
102
RTVSPost2010Prop43
 90
        3
102
RTVSPost2010PropOp43
 70
     1
102
RTVSPost2010Prop44ColorIndex
 90
        5
102
RTVSPost2010Prop44ColorRGB
 90
      255
102
RTVSPost2010PropOp44
 70
     1
102
RTVSPost2010Prop45
280
     0
102
RTVSPost2010PropOp45
 70
     1
102
RTVSPost2010Prop46
 90
       50
102
RTVSPost2010PropOp46
 70
     1
102
RTVSPost2010Prop47
 90
       50
102
RTVSPost2010PropOp47
 70
     1
102
RTVSPost2010Prop48
 90
       50
102
RTVSPost2010PropOp48
 70
     1
102
RTVSPost2010Prop49
280
     0
102
RTVSPost2010PropOp49
 70
     1
102
RTVSPost2010Prop50
 90
       50
102
RTVSPost2010PropOp50
 70
     1
102
RTVSPost2010Prop51ColorIndex
 90
      256
102
RTVSPost2010Prop51ColorRGB
 90
-16777216
102
RTVSPost2010PropOp51
 70
     0
102
RTVSPost2010Prop52
140
1.0
102
RTVSPost2010PropOp52
 70
     0
102
RTVSPost2010Prop53
 90
        2
102
RTVSPost2010PropOp53
 70
     1
102
RTVSPost2010Prop54
  1
strokes_ogs.tif
102
RTVSPost2010PropOp54
 70
     1
102
RTVSPost2010Prop55
280
     0
102
RTVSPost2010PropOp55
 70
     1
102
RTVSPost2010Prop56
140
1.0
102
RTVSPost2010PropOp56
 70
     1
102
RTVSPost2010Prop57
140
1.0
102
RTVSPost2010PropOp57
 70
     1
  0
XRECORD
  5
F1
102
{ACAD_REACTORS
330
F0
102
}
330
F0
100
AcDbXrecord
280
     1
102
RTVSPropertyOp0
 70
     1
102
RTVSPropertyOp1
 70
     1
102
RTVSPropertyOp2
 70
     1
102
RTVSPropertyOp3
 70
     1
102
RTVSPropertyOp4
 70
     1
102
RTVSPropertyOp5
 70
     1
102
RTVSPropertyOp6
 70
     1
102
RTVSPropertyOp7
 70
     1
102
RTVSPropertyOp8
 70
     1
102
RTVSPropertyOp9
 70
     1
102
RTVSPropertyOp10
 70
     1
102
RTVSPropertyOp11
 70
     1
102
RTVSPropertyOp12
 70
     1
102
RTVSPropertyOp13
 70
     1
102
RTVSPropertyOp14
 70
     1
102
RTVSPropertyOp15
 70
     1
102
RTVSPropertyOp16
 70
     1
102
RTVSPropertyOp17
 70
     1
102
RTVSPropertyOp18
 70
     1
102
RTVSPropertyOp19
 70
     1
102
RTVSPropertyOp20
 70
     1
102
RTVSPropertyOp21
 70
     1
102
RTVSPropertyOp22
 70
     1
102
RTVSPropertyOp23
 70
     1
102
RTVSPropertyOp24
 70
     1
102
RTVSPropertyOp25
 70
     1
102
RTVSPropertyOp26
 70
     1
102
RTVSPropertyOp27
 70
     1
102
RTVSPropertyOp28
 70
     1
102
RTVSPropertyOp29
 70
     1
102
RTVSPropertyOp30
 70
     1
102
RTVSPropertyOp31
 70
     1
102
RTVSPropertyOp32
 70
     1
102
RTVSPropertyOp33
 70
     1
102
RTVSPropertyOp34
 70
     1
102
RTVSPropertyOp35
 70
     1
102
RTVSPropertyOp36
 70
     1
102
RTVSPropertyOp37
 70
     1
102
RTVSPropertyOp38
 70
     1
102
RTVSPropertyOp39
 70
     1
102
RTVSPropertyOp40
 70
     1
102
RTVSPropertyOp41
 70
     1
102
RTVSPropertyOp42
 70
     1
102
RTVSPropertyOp43
 70
     1
102
RTVSPropertyOp44
 70
     1
102
RTVSPropertyOp45
 70
     1
102
RTVSPropertyOp46
 70
     1
102
RTVSPropertyOp47
 70
     1
102
RTVSPropertyOp48
 70
     1
102
RTVSPropertyOp49
 70
     1
102
RTVSPropertyOp50
 70
     1
102
RTVSPropertyOp51
 70
     0
102
RTVSPropertyOp52
 70
     0
102
RTVSPropertyOp53
 70
     1
102
RTVSPropertyOp54
 70
     1
102
RTVSPropertyOp55
 70
     1
102
RTVSPropertyOp56
 70
     1
102
RTVSPropertyOp57
 70
     1
102
RTVSPost2010Prop28
280
     0
102
RTVSPost2010PropOp28
 70
     1
102
RTVSPost2010Prop29
280
     1
102
RTVSPost2010PropOp29
 70
     1
102
RTVSPost2010Prop30
280
     1
102
RTVSPost2010PropOp30
 70
     1
102
RTVSPost2010Prop31
280
     0
102
RTVSPost2010PropOp31
 70
     1
102
RTVSPost2010Prop32
280
     0
102
RTVSPost2010PropOp32
 70
     1
102
RTVSPost2010Prop33
280
     0
102
RTVSPost2010PropOp33
 70
     1
102
RTVSPost2010Prop34
280
     0
102
RTVSPost2010PropOp34
 70
     1
102
RTVSPost2010Prop35
280
     0
102
RTVSPost2010PropOp35
 70
     1
102
RTVSPost2010Prop36
280
     0
102
RTVSPost2010PropOp36
 70
     1
102
RTVSPost2010Prop37
 90
       50
102
RTVSPost2010PropOp37
 70
     1
102
RTVSPost2010Prop38
140
0.0
102
RTVSPost2010PropOp38
 70
     1
102
RTVSPost2010Prop39
140
1.0
102
RTVSPost2010PropOp39
 70
     1
102
RTVSPost2010Prop40
 90
        0
102
RTVSPost2010PropOp40
 70
     1
102
RTVSPost2010Prop41ColorIndex
 90
       18
102
RTVSPost2010Prop41ColorRGB
 90
        0
102
RTVSPost2010PropOp41
 70
     1
102
RTVSPost2010Prop42
 90
       50
102
RTVSPost2010PropOp42
 70
     1
102
RTVSPost2010Prop43
 90
        3
102
RTVSPost2010PropOp43
 70
     1
102
RTVSPost2010Prop44ColorIndex
 90
        5
102
RTVSPost2010Prop44ColorRGB
 90
      255
102
RTVSPost2010PropOp44
 70
     1
102
RTVSPost2010Prop45
280
     0
102
RTVSPost2010PropOp45
 70
     1
102
RTVSPost2010Prop46
 90
       50
102
RTVSPost2010PropOp46
 70
     1
102
RTVSPost2010Prop47
 90
       50
102
RTVSPost2010PropOp47
 70
     1
102
RTVSPost2010Prop48
 90
       50
102
RTVSPost2010PropOp48
 70
     1
102
RTVSPost2010Prop49
280
     0
102
RTVSPost2010PropOp49
 70
     1
102
RTVSPost2010Prop50
 90
       50
102
RTVSPost2010PropOp50
 70
     1
102
RTVSPost2010Prop51ColorIndex
 90
      256
102
RTVSPost2010Prop51ColorRGB
 90
-16777216
102
RTVSPost2010PropOp51
 70
     0
102
RTVSPost2010Prop52
140
1.0
102
RTVSPost2010PropOp52
 70
     0
102
RTVSPost2010Prop53
 90
        2
102
RTVSPost2010PropOp53
 70
     1
102
RTVSPost2010Prop54
  1
strokes_ogs.tif
102
RTVSPost2010PropOp54
 70
     1
102
RTVSPost2010Prop55
280
     0
102
RTVSPost2010PropOp55
 70
     1
102
RTVSPost2010Prop56
140
1.0
102
RTVSPost2010PropOp56
 70
     1
102
RTVSPost2010Prop57
140
1.0
102
RTVSPost2010PropOp57
 70
     1
  0
XRECORD
  5
F3
102
{ACAD_REACTORS
330
F2
102
}
330
F2
100
AcDbXrecord
280
     1
102
RTVSPropertyOp0
 70
     1
102
RTVSPropertyOp1
 70
     1
102
RTVSPropertyOp2
 70
     1
102
RTVSPropertyOp3
 70
     1
102
RTVSPropertyOp4
 70
     1
102
RTVSPropertyOp5
 70
     1
102
RTVSPropertyOp6
 70
     1
102
RTVSPropertyOp7
 70
     1
102
RTVSPropertyOp8
 70
     1
102
RTVSPropertyOp9
 70
     1
102
RTVSPropertyOp10
 70
     1
102
RTVSPropertyOp11
 70
     1
102
RTVSPropertyOp12
 70
     1
102
RTVSPropertyOp13
 70
     1
102
RTVSPropertyOp14
 70
     1
102
RTVSPropertyOp15
 70
     1
102
RTVSPropertyOp16
 70
     1
102
RTVSPropertyOp17
 70
     1
102
RTVSPropertyOp18
 70
     1
102
RTVSPropertyOp19
 70
     1
102
RTVSPropertyOp20
 70
     1
102
RTVSPropertyOp21
 70
     1
102
RTVSPropertyOp22
 70
     1
102
RTVSPropertyOp23
 70
     1
102
RTVSPropertyOp24
 70
     1
102
RTVSPropertyOp25
 70
     1
102
RTVSPropertyOp26
 70
     1
102
RTVSPropertyOp27
 70
     1
102
RTVSPropertyOp28
 70
     1
102
RTVSPropertyOp29
 70
     1
102
RTVSPropertyOp30
 70
     1
102
RTVSPropertyOp31
 70
     1
102
RTVSPropertyOp32
 70
     1
102
RTVSPropertyOp33
 70
     1
102
RTVSPropertyOp34
 70
     1
102
RTVSPropertyOp35
 70
     1
102
RTVSPropertyOp36
 70
     1
102
RTVSPropertyOp37
 70
     1
102
RTVSPropertyOp38
 70
     1
102
RTVSPropertyOp39
 70
     1
102
RTVSPropertyOp40
 70
     1
102
RTVSPropertyOp41
 70
     1
102
RTVSPropertyOp42
 70
     1
102
RTVSPropertyOp43
 70
     1
102
RTVSPropertyOp44
 70
     1
102
RTVSPropertyOp45
 70
     1
102
RTVSPropertyOp46
 70
     1
102
RTVSPropertyOp47
 70
     1
102
RTVSPropertyOp48
 70
     1
102
RTVSPropertyOp49
 70
     1
102
RTVSPropertyOp50
 70
     1
102
RTVSPropertyOp51
 70
     0
102
RTVSPropertyOp52
 70
     0
102
RTVSPropertyOp53
 70
     1
102
RTVSPropertyOp54
 70
     1
102
RTVSPropertyOp55
 70
     1
102
RTVSPropertyOp56
 70
     1
102
RTVSPropertyOp57
 70
     1
102
RTVSPost2010Prop28
280
     0
102
RTVSPost2010PropOp28
 70
     1
102
RTVSPost2010Prop29
280
     1
102
RTVSPost2010PropOp29
 70
     1
102
RTVSPost2010Prop30
280
     1
102
RTVSPost2010PropOp30
 70
     1
102
RTVSPost2010Prop31
280
     0
102
RTVSPost2010PropOp31
 70
     1
102
RTVSPost2010Prop32
280
     0
102
RTVSPost2010PropOp32
 70
     1
102
RTVSPost2010Prop33
280
     0
102
RTVSPost2010PropOp33
 70
     1
102
RTVSPost2010Prop34
280
     0
102
RTVSPost2010PropOp34
 70
     1
102
RTVSPost2010Prop35
280
     0
102
RTVSPost2010PropOp35
 70
     1
102
RTVSPost2010Prop36
280
     0
102
RTVSPost2010PropOp36
 70
     1
102
RTVSPost2010Prop37
 90
       50
102
RTVSPost2010PropOp37
 70
     1
102
RTVSPost2010Prop38
140
0.0
102
RTVSPost2010PropOp38
 70
     1
102
RTVSPost2010Prop39
140
1.0
102
RTVSPost2010PropOp39
 70
     1
102
RTVSPost2010Prop40
 90
        0
102
RTVSPost2010PropOp40
 70
     1
102
RTVSPost2010Prop41ColorIndex
 90
       18
102
RTVSPost2010Prop41ColorRGB
 90
        0
102
RTVSPost2010PropOp41
 70
     1
102
RTVSPost2010Prop42
 90
       50
102
RTVSPost2010PropOp42
 70
     1
102
RTVSPost2010Prop43
 90
        3
102
RTVSPost2010PropOp43
 70
     1
102
RTVSPost2010Prop44ColorIndex
 90
        5
102
RTVSPost2010Prop44ColorRGB
 90
      255
102
RTVSPost2010PropOp44
 70
     1
102
RTVSPost2010Prop45
280
     0
102
RTVSPost2010PropOp45
 70
     1
102
RTVSPost2010Prop46
 90
       50
102
RTVSPost2010PropOp46
 70
     1
102
RTVSPost2010Prop47
 90
       50
102
RTVSPost2010PropOp47
 70
     1
102
RTVSPost2010Prop48
 90
       50
102
RTVSPost2010PropOp48
 70
     1
102
RTVSPost2010Prop49
280
     0
102
RTVSPost2010PropOp49
 70
     1
102
RTVSPost2010Prop50
 90
       50
102
RTVSPost2010PropOp50
 70
     1
102
RTVSPost2010Prop51ColorIndex
 90
      256
102
RTVSPost2010Prop51ColorRGB
 90
-16777216
102
RTVSPost2010PropOp51
 70
     0
102
RTVSPost2010Prop52
140
1.0
102
RTVSPost2010PropOp52
 70
     0
102
RTVSPost2010Prop53
 90
        2
102
RTVSPost2010PropOp53
 70
     1
102
RTVSPost2010Prop54
  1
strokes_ogs.tif
102
RTVSPost2010PropOp54
 70
     1
102
RTVSPost2010Prop55
280
     0
102
RTVSPost2010PropOp55
 70
     1
102
RTVSPost2010Prop56
140
1.0
102
RTVSPost2010PropOp56
 70
     1
102
RTVSPost2010Prop57
140
1.0
102
RTVSPost2010PropOp57
 70
     1
  0
XRECORD
  5
F5
102
{ACAD_REACTORS
330
F4
102
}
330
F4
100
AcDbXrecord
280
     1
102
RTVSPropertyOp0
 70
     1
102
RTVSPropertyOp1
 70
     1
102
RTVSPropertyOp2
 70
     1
102
RTVSPropertyOp3
 70
     1
102
RTVSPropertyOp4
 70
     1
102
RTVSPropertyOp5
 70
     1
102
RTVSPropertyOp6
 70
     1
102
RTVSPropertyOp7
 70
     1
102
RTVSPropertyOp8
 70
     1
102
RTVSPropertyOp9
 70
     1
102
RTVSPropertyOp10
 70
     1
102
RTVSPropertyOp11
 70
     1
102
RTVSPropertyOp12
 70
     1
102
RTVSPropertyOp13
 70
     1
102
RTVSPropertyOp14
 70
     1
102
RTVSPropertyOp15
 70
     1
102
RTVSPropertyOp16
 70
     1
102
RTVSPropertyOp17
 70
     1
102
RTVSPropertyOp18
 70
     1
102
RTVSPropertyOp19
 70
     1
102
RTVSPropertyOp20
 70
     1
102
RTVSPropertyOp21
 70
     1
102
RTVSPropertyOp22
 70
     1
102
RTVSPropertyOp23
 70
     1
102
RTVSPropertyOp24
 70
     1
102
RTVSPropertyOp25
 70
     1
102
RTVSPropertyOp26
 70
     1
102
RTVSPropertyOp27
 70
     1
102
RTVSPropertyOp28
 70
     1
102
RTVSPropertyOp29
 70
     1
102
RTVSPropertyOp30
 70
     1
102
RTVSPropertyOp31
 70
     1
102
RTVSPropertyOp32
 70
     1
102
RTVSPropertyOp33
 70
     1
102
RTVSPropertyOp34
 70
     1
102
RTVSPropertyOp35
 70
     1
102
RTVSPropertyOp36
 70
     1
102
RTVSPropertyOp37
 70
     1
102
RTVSPropertyOp38
 70
     1
102
RTVSPropertyOp39
 70
     1
102
RTVSPropertyOp40
 70
     1
102
RTVSPropertyOp41
 70
     1
102
RTVSPropertyOp42
 70
     1
102
RTVSPropertyOp43
 70
     1
102
RTVSPropertyOp44
 70
     1
102
RTVSPropertyOp45
 70
     1
102
RTVSPropertyOp46
 70
     1
102
RTVSPropertyOp47
 70
     1
102
RTVSPropertyOp48
 70
     1
102
RTVSPropertyOp49
 70
     1
102
RTVSPropertyOp50
 70
     1
102
RTVSPropertyOp51
 70
     0
102
RTVSPropertyOp52
 70
     0
102
RTVSPropertyOp53
 70
     1
102
RTVSPropertyOp54
 70
     1
102
RTVSPropertyOp55
 70
     1
102
RTVSPropertyOp56
 70
     1
102
RTVSPropertyOp57
 70
     1
102
RTVSPost2010Prop28
280
     0
102
RTVSPost2010PropOp28
 70
     1
102
RTVSPost2010Prop29
280
     1
102
RTVSPost2010PropOp29
 70
     1
102
RTVSPost2010Prop30
280
     1
102
RTVSPost2010PropOp30
 70
     1
102
RTVSPost2010Prop31
280
     0
102
RTVSPost2010PropOp31
 70
     1
102
RTVSPost2010Prop32
280
     0
102
RTVSPost2010PropOp32
 70
     1
102
RTVSPost2010Prop33
280
     0
102
RTVSPost2010PropOp33
 70
     1
102
RTVSPost2010Prop34
280
     0
102
RTVSPost2010PropOp34
 70
     1
102
RTVSPost2010Prop35
280
     0
102
RTVSPost2010PropOp35
 70
     1
102
RTVSPost2010Prop36
280
     0
102
RTVSPost2010PropOp36
 70
     1
102
RTVSPost2010Prop37
 90
       50
102
RTVSPost2010PropOp37
 70
     1
102
RTVSPost2010Prop38
140
0.0
102
RTVSPost2010PropOp38
 70
     1
102
RTVSPost2010Prop39
140
1.0
102
RTVSPost2010PropOp39
 70
     1
102
RTVSPost2010Prop40
 90
        0
102
RTVSPost2010PropOp40
 70
     1
102
RTVSPost2010Prop41ColorIndex
 90
       18
102
RTVSPost2010Prop41ColorRGB
 90
        0
102
RTVSPost2010PropOp41
 70
     1
102
RTVSPost2010Prop42
 90
       50
102
RTVSPost2010PropOp42
 70
     1
102
RTVSPost2010Prop43
 90
        3
102
RTVSPost2010PropOp43
 70
     1
102
RTVSPost2010Prop44ColorIndex
 90
        5
102
RTVSPost2010Prop44ColorRGB
 90
      255
102
RTVSPost2010PropOp44
 70
     1
102
RTVSPost2010Prop45
280
     0
102
RTVSPost2010PropOp45
 70
     1
102
RTVSPost2010Prop46
 90
       50
102
RTVSPost2010PropOp46
 70
     1
102
RTVSPost2010Prop47
 90
       50
102
RTVSPost2010PropOp47
 70
     1
102
RTVSPost2010Prop48
 90
       50
102
RTVSPost2010PropOp48
 70
     1
102
RTVSPost2010Prop49
280
     0
102
RTVSPost2010PropOp49
 70
     1
102
RTVSPost2010Prop50
 90
       50
102
RTVSPost2010PropOp50
 70
     1
102
RTVSPost2010Prop51ColorIndex
 90
      256
102
RTVSPost2010Prop51ColorRGB
 90
-16777216
102
RTVSPost2010PropOp51
 70
     0
102
RTVSPost2010Prop52
140
1.0
102
RTVSPost2010PropOp52
 70
     0
102
RTVSPost2010Prop53
 90
        2
102
RTVSPost2010PropOp53
 70
     1
102
RTVSPost2010Prop54
  1
strokes_ogs.tif
102
RTVSPost2010PropOp54
 70
     1
102
RTVSPost2010Prop55
280
     0
102
RTVSPost2010PropOp55
 70
     1
102
RTVSPost2010Prop56
140
1.0
102
RTVSPost2010PropOp56
 70
     1
102
RTVSPost2010Prop57
140
1.0
102
RTVSPost2010PropOp57
 70
     1
  0
XRECORD
  5
FB
102
{ACAD_REACTORS
330
FA
102
}
330
FA
100
AcDbXrecord
280
     1
102
RTVSPropertyOp0
 70
     1
102
RTVSPropertyOp1
 70
     1
102
RTVSPropertyOp2
 70
     1
102
RTVSPropertyOp3
 70
     1
102
RTVSPropertyOp4
 70
     1
102
RTVSPropertyOp5
 70
     1
102
RTVSPropertyOp6
 70
     1
102
RTVSPropertyOp7
 70
     1
102
RTVSPropertyOp8
 70
     1
102
RTVSPropertyOp9
 70
     1
102
RTVSPropertyOp10
 70
     1
102
RTVSPropertyOp11
 70
     1
102
RTVSPropertyOp12
 70
     1
102
RTVSPropertyOp13
 70
     1
102
RTVSPropertyOp14
 70
     1
102
RTVSPropertyOp15
 70
     1
102
RTVSPropertyOp16
 70
     1
102
RTVSPropertyOp17
 70
     1
102
RTVSPropertyOp18
 70
     1
102
RTVSPropertyOp19
 70
     1
102
RTVSPropertyOp20
 70
     1
102
RTVSPropertyOp21
 70
     1
102
RTVSPropertyOp22
 70
     1
102
RTVSPropertyOp23
 70
     1
102
RTVSPropertyOp24
 70
     1
102
RTVSPropertyOp25
 70
     1
102
RTVSPropertyOp26
 70
     1
102
RTVSPropertyOp27
 70
     1
102
RTVSPropertyOp28
 70
     1
102
RTVSPropertyOp29
 70
     1
102
RTVSPropertyOp30
 70
     1
102
RTVSPropertyOp31
 70
     1
102
RTVSPropertyOp32
 70
     1
102
RTVSPropertyOp33
 70
     1
102
RTVSPropertyOp34
 70
     1
102
RTVSPropertyOp35
 70
     1
102
RTVSPropertyOp36
 70
     1
102
RTVSPropertyOp37
 70
     1
102
RTVSPropertyOp38
 70
     1
102
RTVSPropertyOp39
 70
     1
102
RTVSPropertyOp40
 70
     1
102
RTVSPropertyOp41
 70
     1
102
RTVSPropertyOp42
 70
     1
102
RTVSPropertyOp43
 70
     1
102
RTVSPropertyOp44
 70
     1
102
RTVSPropertyOp45
 70
     1
102
RTVSPropertyOp46
 70
     1
102
RTVSPropertyOp47
 70
     1
102
RTVSPropertyOp48
 70
     1
102
RTVSPropertyOp49
 70
     1
102
RTVSPropertyOp50
 70
     1
102
RTVSPropertyOp51
 70
     0
102
RTVSPropertyOp52
 70
     0
102
RTVSPropertyOp53
 70
     1
102
RTVSPropertyOp54
 70
     1
102
RTVSPropertyOp55
 70
     1
102
RTVSPropertyOp56
 70
     1
102
RTVSPropertyOp57
 70
     1
102
RTVSPost2010Prop28
280
     0
102
RTVSPost2010PropOp28
 70
     1
102
RTVSPost2010Prop29
280
     1
102
RTVSPost2010PropOp29
 70
     1
102
RTVSPost2010Prop30
280
     1
102
RTVSPost2010PropOp30
 70
     1
102
RTVSPost2010Prop31
280
     0
102
RTVSPost2010PropOp31
 70
     1
102
RTVSPost2010Prop32
280
     0
102
RTVSPost2010PropOp32
 70
     1
102
RTVSPost2010Prop33
280
     0
102
RTVSPost2010PropOp33
 70
     1
102
RTVSPost2010Prop34
280
     0
102
RTVSPost2010PropOp34
 70
     1
102
RTVSPost2010Prop35
280
     0
102
RTVSPost2010PropOp35
 70
     1
102
RTVSPost2010Prop36
280
     0
102
RTVSPost2010PropOp36
 70
     1
102
RTVSPost2010Prop37
 90
       50
102
RTVSPost2010PropOp37
 70
     1
102
RTVSPost2010Prop38
140
0.0
102
RTVSPost2010PropOp38
 70
     1
102
RTVSPost2010Prop39
140
1.0
102
RTVSPost2010PropOp39
 70
     1
102
RTVSPost2010Prop40
 90
        0
102
RTVSPost2010PropOp40
 70
     1
102
RTVSPost2010Prop41ColorIndex
 90
       18
102
RTVSPost2010Prop41ColorRGB
 90
        0
102
RTVSPost2010PropOp41
 70
     1
102
RTVSPost2010Prop42
 90
       50
102
RTVSPost2010PropOp42
 70
     1
102
RTVSPost2010Prop43
 90
        3
102
RTVSPost2010PropOp43
 70
     1
102
RTVSPost2010Prop44ColorIndex
 90
        5
102
RTVSPost2010Prop44ColorRGB
 90
      255
102
RTVSPost2010PropOp44
 70
     1
102
RTVSPost2010Prop45
280
     0
102
RTVSPost2010PropOp45
 70
     1
102
RTVSPost2010Prop46
 90
       50
102
RTVSPost2010PropOp46
 70
     1
102
RTVSPost2010Prop47
 90
       50
102
RTVSPost2010PropOp47
 70
     1
102
RTVSPost2010Prop48
 90
       50
102
RTVSPost2010PropOp48
 70
     1
102
RTVSPost2010Prop49
280
     0
102
RTVSPost2010PropOp49
 70
     1
102
RTVSPost2010Prop50
 90
       50
102
RTVSPost2010PropOp50
 70
     1
102
RTVSPost2010Prop51ColorIndex
 90
      256
102
RTVSPost2010Prop51ColorRGB
 90
-16777216
102
RTVSPost2010PropOp51
 70
     0
102
RTVSPost2010Prop52
140
1.0
102
RTVSPost2010PropOp52
 70
     0
102
RTVSPost2010Prop53
 90
        2
102
RTVSPost2010PropOp53
 70
     1
102
RTVSPost2010Prop54
  1
strokes_ogs.tif
102
RTVSPost2010PropOp54
 70
     1
102
RTVSPost2010Prop55
280
     0
102
RTVSPost2010PropOp55
 70
     1
102
RTVSPost2010Prop56
140
1.0
102
RTVSPost2010PropOp56
 70
     1
102
RTVSPost2010Prop57
140
1.0
102
RTVSPost2010PropOp57
 70
     1
  0
XRECORD
  5
10F
102
{ACAD_REACTORS
330
10E
102
}
330
10E
100
AcDbXrecord
280
     1
102
RTVSPropertyOp0
 70
     0
102
RTVSPropertyOp1
 70
     0
102
RTVSPropertyOp2
 70
     0
102
RTVSPropertyOp3
 70
     0
102
RTVSPropertyOp4
 70
     0
102
RTVSPropertyOp5
 70
     0
102
RTVSPropertyOp6
 70
     0
102
RTVSPropertyOp7
 70
     0
102
RTVSPropertyOp8
 70
     0
102
RTVSPropertyOp9
 70
     0
102
RTVSPropertyOp10
 70
     0
102
RTVSPropertyOp11
 70
     0
102
RTVSPropertyOp12
 70
     0
102
RTVSPropertyOp13
 70
     0
102
RTVSPropertyOp14
 70
     2
102
RTVSPropertyOp15
 70
     0
102
RTVSPropertyOp16
 70
     0
102
RTVSPropertyOp17
 70
     0
102
RTVSPropertyOp18
 70
     0
102
RTVSPropertyOp19
 70
     0
102
RTVSPropertyOp20
 70
     0
102
RTVSPropertyOp21
 70
     0
102
RTVSPropertyOp22
 70
     0
102
RTVSPropertyOp23
 70
     0
102
RTVSPropertyOp24
 70
     0
102
RTVSPropertyOp25
 70
     0
102
RTVSPropertyOp26
 70
     0
102
RTVSPropertyOp27
 70
     0
102
RTVSPropertyOp28
 70
     0
102
RTVSPropertyOp29
 70
     0
102
RTVSPropertyOp30
 70
     0
102
RTVSPropertyOp31
 70
     0
102
RTVSPropertyOp32
 70
     0
102
RTVSPropertyOp33
 70
     0
102
RTVSPropertyOp34
 70
     0
102
RTVSPropertyOp35
 70
     0
102
RTVSPropertyOp36
 70
     0
102
RTVSPropertyOp37
 70
     0
102
RTVSPropertyOp38
 70
     0
102
RTVSPropertyOp39
 70
     0
102
RTVSPropertyOp40
 70
     0
102
RTVSPropertyOp41
 70
     0
102
RTVSPropertyOp42
 70
     0
102
RTVSPropertyOp43
 70
     0
102
RTVSPropertyOp44
 70
     0
102
RTVSPropertyOp45
 70
     0
102
RTVSPropertyOp46
 70
     0
102
RTVSPropertyOp47
 70
     0
102
RTVSPropertyOp48
 70
     0
102
RTVSPropertyOp49
 70
     0
102
RTVSPropertyOp50
 70
     0
102
RTVSPropertyOp51
 70
     0
102
RTVSPropertyOp52
 70
     0
102
RTVSPropertyOp53
 70
     0
102
RTVSPropertyOp54
 70
     0
102
RTVSPropertyOp55
 70
     0
102
RTVSPropertyOp56
 70
     0
102
RTVSPropertyOp57
 70
     0
102
RTVSPost2010Prop28
280
     0
102
RTVSPost2010PropOp28
 70
     0
102
RTVSPost2010Prop29
280
     1
102
RTVSPost2010PropOp29
 70
     0
102
RTVSPost2010Prop30
280
     1
102
RTVSPost2010PropOp30
 70
     0
102
RTVSPost2010Prop31
280
     0
102
RTVSPost2010PropOp31
 70
     0
102
RTVSPost2010Prop32
280
     0
102
RTVSPost2010PropOp32
 70
     0
102
RTVSPost2010Prop33
280
     0
102
RTVSPost2010PropOp33
 70
     0
102
RTVSPost2010Prop34
280
     0
102
RTVSPost2010PropOp34
 70
     0
102
RTVSPost2010Prop35
280
     0
102
RTVSPost2010PropOp35
 70
     0
102
RTVSPost2010Prop36
280
     0
102
RTVSPost2010PropOp36
 70
     0
102
RTVSPost2010Prop37
 90
       50
102
RTVSPost2010PropOp37
 70
     0
102
RTVSPost2010Prop38
140
0.0
102
RTVSPost2010PropOp38
 70
     0
102
RTVSPost2010Prop39
140
1.0
102
RTVSPost2010PropOp39
 70
     0
102
RTVSPost2010Prop40
 90
        0
102
RTVSPost2010PropOp40
 70
     0
102
RTVSPost2010Prop41ColorIndex
 90
       18
102
RTVSPost2010Prop41ColorRGB
 90
        0
102
RTVSPost2010PropOp41
 70
     0
102
RTVSPost2010Prop42
 90
       50
102
RTVSPost2010PropOp42
 70
     0
102
RTVSPost2010Prop43
 90
        3
102
RTVSPost2010PropOp43
 70
     0
102
RTVSPost2010Prop44ColorIndex
 90
        5
102
RTVSPost2010Prop44ColorRGB
 90
      255
102
RTVSPost2010PropOp44
 70
     0
102
RTVSPost2010Prop45
280
     0
102
RTVSPost2010PropOp45
 70
     0
102
RTVSPost2010Prop46
 90
       50
102
RTVSPost2010PropOp46
 70
     0
102
RTVSPost2010Prop47
 90
       50
102
RTVSPost2010PropOp47
 70
     0
102
RTVSPost2010Prop48
 90
       50
102
RTVSPost2010PropOp48
 70
     0
102
RTVSPost2010Prop49
280
     0
102
RTVSPost2010PropOp49
 70
     0
102
RTVSPost2010Prop50
 90
       50
102
RTVSPost2010PropOp50
 70
     0
102
RTVSPost2010Prop51ColorIndex
 90
      256
102
RTVSPost2010Prop51ColorRGB
 90
-16777216
102
RTVSPost2010PropOp51
 70
     0
102
RTVSPost2010Prop52
140
1.0
102
RTVSPost2010PropOp52
 70
     0
102
RTVSPost2010Prop53
 90
        2
102
RTVSPost2010PropOp53
 70
     0
102
RTVSPost2010Prop54
  1
strokes_ogs.tif
102
RTVSPost2010PropOp54
 70
     0
102
RTVSPost2010Prop55
280
     0
102
RTVSPost2010PropOp55
 70
     0
102
RTVSPost2010Prop56
140
1.0
102
RTVSPost2010PropOp56
 70
     0
102
RTVSPost2010Prop57
140
1.0
102
RTVSPost2010PropOp57
 70
     0
  0
XRECORD
  5
109
102
{ACAD_REACTORS
330
108
102
}
330
108
100
AcDbXrecord
280
     1
102
RTVSPropertyOp0
 70
     1
102
RTVSPropertyOp1
 70
     1
102
RTVSPropertyOp2
 70
     1
102
RTVSPropertyOp3
 70
     1
102
RTVSPropertyOp4
 70
     1
102
RTVSPropertyOp5
 70
     1
102
RTVSPropertyOp6
 70
     1
102
RTVSPropertyOp7
 70
     1
102
RTVSPropertyOp8
 70
     1
102
RTVSPropertyOp9
 70
     1
102
RTVSPropertyOp10
 70
     1
102
RTVSPropertyOp11
 70
     1
102
RTVSPropertyOp12
 70
     1
102
RTVSPropertyOp13
 70
     1
102
RTVSPropertyOp14
 70
     1
102
RTVSPropertyOp15
 70
     1
102
RTVSPropertyOp16
 70
     1
102
RTVSPropertyOp17
 70
     1
102
RTVSPropertyOp18
 70
     1
102
RTVSPropertyOp19
 70
     1
102
RTVSPropertyOp20
 70
     1
102
RTVSPropertyOp21
 70
     1
102
RTVSPropertyOp22
 70
     1
102
RTVSPropertyOp23
 70
     1
102
RTVSPropertyOp24
 70
     1
102
RTVSPropertyOp25
 70
     1
102
RTVSPropertyOp26
 70
     1
102
RTVSPropertyOp27
 70
     1
102
RTVSPropertyOp28
 70
     1
102
RTVSPropertyOp29
 70
     1
102
RTVSPropertyOp30
 70
     1
102
RTVSPropertyOp31
 70
     1
102
RTVSPropertyOp32
 70
     1
102
RTVSPropertyOp33
 70
     1
102
RTVSPropertyOp34
 70
     1
102
RTVSPropertyOp35
 70
     1
102
RTVSPropertyOp36
 70
     1
102
RTVSPropertyOp37
 70
     1
102
RTVSPropertyOp38
 70
     1
102
RTVSPropertyOp39
 70
     1
102
RTVSPropertyOp40
 70
     1
102
RTVSPropertyOp41
 70
     1
102
RTVSPropertyOp42
 70
     1
102
RTVSPropertyOp43
 70
     1
102
RTVSPropertyOp44
 70
     1
102
RTVSPropertyOp45
 70
     1
102
RTVSPropertyOp46
 70
     1
102
RTVSPropertyOp47
 70
     1
102
RTVSPropertyOp48
 70
     1
102
RTVSPropertyOp49
 70
     1
102
RTVSPropertyOp50
 70
     1
102
RTVSPropertyOp51
 70
     0
102
RTVSPropertyOp52
 70
     0
102
RTVSPropertyOp53
 70
     1
102
RTVSPropertyOp54
 70
     1
102
RTVSPropertyOp55
 70
     1
102
RTVSPropertyOp56
 70
     1
102
RTVSPropertyOp57
 70
     1
102
RTVSPost2010Prop28
280
     0
102
RTVSPost2010PropOp28
 70
     1
102
RTVSPost2010Prop29
280
     1
102
RTVSPost2010PropOp29
 70
     1
102
RTVSPost2010Prop30
280
     1
102
RTVSPost2010PropOp30
 70
     1
102
RTVSPost2010Prop31
280
     0
102
RTVSPost2010PropOp31
 70
     1
102
RTVSPost2010Prop32
280
     0
102
RTVSPost2010PropOp32
 70
     1
102
RTVSPost2010Prop33
280
     0
102
RTVSPost2010PropOp33
 70
     1
102
RTVSPost2010Prop34
280
     0
102
RTVSPost2010PropOp34
 70
     1
102
RTVSPost2010Prop35
280
     0
102
RTVSPost2010PropOp35
 70
     1
102
RTVSPost2010Prop36
280
     0
102
RTVSPost2010PropOp36
 70
     1
102
RTVSPost2010Prop37
 90
       50
102
RTVSPost2010PropOp37
 70
     1
102
RTVSPost2010Prop38
140
0.0
102
RTVSPost2010PropOp38
 70
     1
102
RTVSPost2010Prop39
140
1.0
102
RTVSPost2010PropOp39
 70
     1
102
RTVSPost2010Prop40
 90
        0
102
RTVSPost2010PropOp40
 70
     1
102
RTVSPost2010Prop41ColorIndex
 90
       18
102
RTVSPost2010Prop41ColorRGB
 90
        0
102
RTVSPost2010PropOp41
 70
     1
102
RTVSPost2010Prop42
 90
       50
102
RTVSPost2010PropOp42
 70
     1
102
RTVSPost2010Prop43
 90
        3
102
RTVSPost2010PropOp43
 70
     1
102
RTVSPost2010Prop44ColorIndex
 90
        5
102
RTVSPost2010Prop44ColorRGB
 90
      255
102
RTVSPost2010PropOp44
 70
     1
102
RTVSPost2010Prop45
280
     0
102
RTVSPost2010PropOp45
 70
     1
102
RTVSPost2010Prop46
 90
       50
102
RTVSPost2010PropOp46
 70
     1
102
RTVSPost2010Prop47
 90
       50
102
RTVSPost2010PropOp47
 70
     1
102
RTVSPost2010Prop48
 90
       50
102
RTVSPost2010PropOp48
 70
     1
102
RTVSPost2010Prop49
280
     0
102
RTVSPost2010PropOp49
 70
     1
102
RTVSPost2010Prop50
 90
       50
102
RTVSPost2010PropOp50
 70
     1
102
RTVSPost2010Prop51ColorIndex
 90
      256
102
RTVSPost2010Prop51ColorRGB
 90
-16777216
102
RTVSPost2010PropOp51
 70
     0
102
RTVSPost2010Prop52
140
1.0
102
RTVSPost2010PropOp52
 70
     0
102
RTVSPost2010Prop53
 90
        2
102
RTVSPost2010PropOp53
 70
     1
102
RTVSPost2010Prop54
  1
strokes_ogs.tif
102
RTVSPost2010PropOp54
 70
     1
102
RTVSPost2010Prop55
280
     0
102
RTVSPost2010PropOp55
 70
     1
102
RTVSPost2010Prop56
140
1.0
102
RTVSPost2010PropOp56
 70
     1
102
RTVSPost2010Prop57
140
1.0
102
RTVSPost2010PropOp57
 70
     1
  0
XRECORD
  5
111
102
{ACAD_REACTORS
330
110
102
}
330
110
100
AcDbXrecord
280
     1
102
RTVSPropertyOp0
 70
     0
102
RTVSPropertyOp1
 70
     0
102
RTVSPropertyOp2
 70
     0
102
RTVSPropertyOp3
 70
     0
102
RTVSPropertyOp4
 70
     0
102
RTVSPropertyOp5
 70
     0
102
RTVSPropertyOp6
 70
     0
102
RTVSPropertyOp7
 70
     0
102
RTVSPropertyOp8
 70
     0
102
RTVSPropertyOp9
 70
     0
102
RTVSPropertyOp10
 70
     0
102
RTVSPropertyOp11
 70
     0
102
RTVSPropertyOp12
 70
     0
102
RTVSPropertyOp13
 70
     0
102
RTVSPropertyOp14
 70
     2
102
RTVSPropertyOp15
 70
     0
102
RTVSPropertyOp16
 70
     0
102
RTVSPropertyOp17
 70
     0
102
RTVSPropertyOp18
 70
     0
102
RTVSPropertyOp19
 70
     0
102
RTVSPropertyOp20
 70
     0
102
RTVSPropertyOp21
 70
     0
102
RTVSPropertyOp22
 70
     0
102
RTVSPropertyOp23
 70
     0
102
RTVSPropertyOp24
 70
     0
102
RTVSPropertyOp25
 70
     0
102
RTVSPropertyOp26
 70
     0
102
RTVSPropertyOp27
 70
     0
102
RTVSPropertyOp28
 70
     0
102
RTVSPropertyOp29
 70
     0
102
RTVSPropertyOp30
 70
     0
102
RTVSPropertyOp31
 70
     0
102
RTVSPropertyOp32
 70
     0
102
RTVSPropertyOp33
 70
     0
102
RTVSPropertyOp34
 70
     0
102
RTVSPropertyOp35
 70
     0
102
RTVSPropertyOp36
 70
     0
102
RTVSPropertyOp37
 70
     0
102
RTVSPropertyOp38
 70
     0
102
RTVSPropertyOp39
 70
     0
102
RTVSPropertyOp40
 70
     0
102
RTVSPropertyOp41
 70
     0
102
RTVSPropertyOp42
 70
     0
102
RTVSPropertyOp43
 70
     0
102
RTVSPropertyOp44
 70
     0
102
RTVSPropertyOp45
 70
     0
102
RTVSPropertyOp46
 70
     0
102
RTVSPropertyOp47
 70
     0
102
RTVSPropertyOp48
 70
     0
102
RTVSPropertyOp49
 70
     0
102
RTVSPropertyOp50
 70
     0
102
RTVSPropertyOp51
 70
     0
102
RTVSPropertyOp52
 70
     0
102
RTVSPropertyOp53
 70
     0
102
RTVSPropertyOp54
 70
     0
102
RTVSPropertyOp55
 70
     0
102
RTVSPropertyOp56
 70
     0
102
RTVSPropertyOp57
 70
     0
102
RTVSPost2010Prop28
280
     0
102
RTVSPost2010PropOp28
 70
     0
102
RTVSPost2010Prop29
280
     1
102
RTVSPost2010PropOp29
 70
     0
102
RTVSPost2010Prop30
280
     1
102
RTVSPost2010PropOp30
 70
     0
102
RTVSPost2010Prop31
280
     0
102
RTVSPost2010PropOp31
 70
     0
102
RTVSPost2010Prop32
280
     0
102
RTVSPost2010PropOp32
 70
     0
102
RTVSPost2010Prop33
280
     0
102
RTVSPost2010PropOp33
 70
     0
102
RTVSPost2010Prop34
280
     0
102
RTVSPost2010PropOp34
 70
     0
102
RTVSPost2010Prop35
280
     0
102
RTVSPost2010PropOp35
 70
     0
102
RTVSPost2010Prop36
280
     0
102
RTVSPost2010PropOp36
 70
     0
102
RTVSPost2010Prop37
 90
       50
102
RTVSPost2010PropOp37
 70
     0
102
RTVSPost2010Prop38
140
0.0
102
RTVSPost2010PropOp38
 70
     0
102
RTVSPost2010Prop39
140
1.0
102
RTVSPost2010PropOp39
 70
     0
102
RTVSPost2010Prop40
 90
        0
102
RTVSPost2010PropOp40
 70
     0
102
RTVSPost2010Prop41ColorIndex
 90
       18
102
RTVSPost2010Prop41ColorRGB
 90
        0
102
RTVSPost2010PropOp41
 70
     0
102
RTVSPost2010Prop42
 90
       50
102
RTVSPost2010PropOp42
 70
     0
102
RTVSPost2010Prop43
 90
        3
102
RTVSPost2010PropOp43
 70
     0
102
RTVSPost2010Prop44ColorIndex
 90
        5
102
RTVSPost2010Prop44ColorRGB
 90
      255
102
RTVSPost2010PropOp44
 70
     0
102
RTVSPost2010Prop45
280
     0
102
RTVSPost2010PropOp45
 70
     0
102
RTVSPost2010Prop46
 90
       50
102
RTVSPost2010PropOp46
 70
     0
102
RTVSPost2010Prop47
 90
       50
102
RTVSPost2010PropOp47
 70
     0
102
RTVSPost2010Prop48
 90
       50
102
RTVSPost2010PropOp48
 70
     0
102
RTVSPost2010Prop49
280
     0
102
RTVSPost2010PropOp49
 70
     0
102
RTVSPost2010Prop50
 90
       50
102
RTVSPost2010PropOp50
 70
     0
102
RTVSPost2010Prop51ColorIndex
 90
      256
102
RTVSPost2010Prop51ColorRGB
 90
-16777216
102
RTVSPost2010PropOp51
 70
     0
102
RTVSPost2010Prop52
140
1.0
102
RTVSPost2010PropOp52
 70
     0
102
RTVSPost2010Prop53
 90
        2
102
RTVSPost2010PropOp53
 70
     0
102
RTVSPost2010Prop54
  1
strokes_ogs.tif
102
RTVSPost2010PropOp54
 70
     0
102
RTVSPost2010Prop55
280
     0
102
RTVSPost2010PropOp55
 70
     0
102
RTVSPost2010Prop56
140
1.0
102
RTVSPost2010PropOp56
 70
     0
102
RTVSPost2010Prop57
140
1.0
102
RTVSPost2010PropOp57
 70
     0
  0
XRECORD
  5
FF
102
{ACAD_REACTORS
330
FE
102
}
330
FE
100
AcDbXrecord
280
     1
102
RTVSPropertyOp0
 70
     1
102
RTVSPropertyOp1
 70
     1
102
RTVSPropertyOp2
 70
     1
102
RTVSPropertyOp3
 70
     1
102
RTVSPropertyOp4
 70
     1
102
RTVSPropertyOp5
 70
     1
102
RTVSPropertyOp6
 70
     1
102
RTVSPropertyOp7
 70
     1
102
RTVSPropertyOp8
 70
     1
102
RTVSPropertyOp9
 70
     1
102
RTVSPropertyOp10
 70
     1
102
RTVSPropertyOp11
 70
     1
102
RTVSPropertyOp12
 70
     1
102
RTVSPropertyOp13
 70
     1
102
RTVSPropertyOp14
 70
     1
102
RTVSPropertyOp15
 70
     1
102
RTVSPropertyOp16
 70
     1
102
RTVSPropertyOp17
 70
     1
102
RTVSPropertyOp18
 70
     1
102
RTVSPropertyOp19
 70
     1
102
RTVSPropertyOp20
 70
     1
102
RTVSPropertyOp21
 70
     1
102
RTVSPropertyOp22
 70
     1
102
RTVSPropertyOp23
 70
     1
102
RTVSPropertyOp24
 70
     1
102
RTVSPropertyOp25
 70
     1
102
RTVSPropertyOp26
 70
     1
102
RTVSPropertyOp27
 70
     1
102
RTVSPropertyOp28
 70
     1
102
RTVSPropertyOp29
 70
     1
102
RTVSPropertyOp30
 70
     1
102
RTVSPropertyOp31
 70
     1
102
RTVSPropertyOp32
 70
     1
102
RTVSPropertyOp33
 70
     1
102
RTVSPropertyOp34
 70
     1
102
RTVSPropertyOp35
 70
     1
102
RTVSPropertyOp36
 70
     1
102
RTVSPropertyOp37
 70
     1
102
RTVSPropertyOp38
 70
     1
102
RTVSPropertyOp39
 70
     1
102
RTVSPropertyOp40
 70
     1
102
RTVSPropertyOp41
 70
     1
102
RTVSPropertyOp42
 70
     1
102
RTVSPropertyOp43
 70
     1
102
RTVSPropertyOp44
 70
     1
102
RTVSPropertyOp45
 70
     1
102
RTVSPropertyOp46
 70
     1
102
RTVSPropertyOp47
 70
     1
102
RTVSPropertyOp48
 70
     1
102
RTVSPropertyOp49
 70
     1
102
RTVSPropertyOp50
 70
     1
102
RTVSPropertyOp51
 70
     0
102
RTVSPropertyOp52
 70
     0
102
RTVSPropertyOp53
 70
     1
102
RTVSPropertyOp54
 70
     1
102
RTVSPropertyOp55
 70
     1
102
RTVSPropertyOp56
 70
     1
102
RTVSPropertyOp57
 70
     1
102
RTVSPost2010Prop28
280
     0
102
RTVSPost2010PropOp28
 70
     1
102
RTVSPost2010Prop29
280
     1
102
RTVSPost2010PropOp29
 70
     1
102
RTVSPost2010Prop30
280
     1
102
RTVSPost2010PropOp30
 70
     1
102
RTVSPost2010Prop31
280
     0
102
RTVSPost2010PropOp31
 70
     1
102
RTVSPost2010Prop32
280
     0
102
RTVSPost2010PropOp32
 70
     1
102
RTVSPost2010Prop33
280
     0
102
RTVSPost2010PropOp33
 70
     1
102
RTVSPost2010Prop34
280
     0
102
RTVSPost2010PropOp34
 70
     1
102
RTVSPost2010Prop35
280
     0
102
RTVSPost2010PropOp35
 70
     1
102
RTVSPost2010Prop36
280
     0
102
RTVSPost2010PropOp36
 70
     1
102
RTVSPost2010Prop37
 90
       50
102
RTVSPost2010PropOp37
 70
     1
102
RTVSPost2010Prop38
140
0.0
102
RTVSPost2010PropOp38
 70
     1
102
RTVSPost2010Prop39
140
1.0
102
RTVSPost2010PropOp39
 70
     1
102
RTVSPost2010Prop40
 90
        0
102
RTVSPost2010PropOp40
 70
     1
102
RTVSPost2010Prop41ColorIndex
 90
       18
102
RTVSPost2010Prop41ColorRGB
 90
        0
102
RTVSPost2010PropOp41
 70
     1
102
RTVSPost2010Prop42
 90
       50
102
RTVSPost2010PropOp42
 70
     1
102
RTVSPost2010Prop43
 90
        3
102
RTVSPost2010PropOp43
 70
     1
102
RTVSPost2010Prop44ColorIndex
 90
        5
102
RTVSPost2010Prop44ColorRGB
 90
      255
102
RTVSPost2010PropOp44
 70
     1
102
RTVSPost2010Prop45
280
     0
102
RTVSPost2010PropOp45
 70
     1
102
RTVSPost2010Prop46
 90
       50
102
RTVSPost2010PropOp46
 70
     1
102
RTVSPost2010Prop47
 90
       50
102
RTVSPost2010PropOp47
 70
     1
102
RTVSPost2010Prop48
 90
       50
102
RTVSPost2010PropOp48
 70
     1
102
RTVSPost2010Prop49
280
     0
102
RTVSPost2010PropOp49
 70
     1
102
RTVSPost2010Prop50
 90
       50
102
RTVSPost2010PropOp50
 70
     1
102
RTVSPost2010Prop51ColorIndex
 90
      256
102
RTVSPost2010Prop51ColorRGB
 90
-16777216
102
RTVSPost2010PropOp51
 70
     0
102
RTVSPost2010Prop52
140
1.0
102
RTVSPost2010PropOp52
 70
     0
102
RTVSPost2010Prop53
 90
        2
102
RTVSPost2010PropOp53
 70
     1
102
RTVSPost2010Prop54
  1
strokes_ogs.tif
102
RTVSPost2010PropOp54
 70
     1
102
RTVSPost2010Prop55
280
     0
102
RTVSPost2010PropOp55
 70
     1
102
RTVSPost2010Prop56
140
1.0
102
RTVSPost2010PropOp56
 70
     1
102
RTVSPost2010Prop57
140
1.0
102
RTVSPost2010PropOp57
 70
     1
  0
XRECORD
  5
11D
102
{ACAD_REACTORS
330
11C
102
}
330
11C
100
AcDbXrecord
280
     1
102
RTVSPropertyOp0
 70
     1
102
RTVSPropertyOp1
 70
     1
102
RTVSPropertyOp2
 70
     1
102
RTVSPropertyOp3
 70
     1
102
RTVSPropertyOp4
 70
     1
102
RTVSPropertyOp5
 70
     1
102
RTVSPropertyOp6
 70
     1
102
RTVSPropertyOp7
 70
     1
102
RTVSPropertyOp8
 70
     1
102
RTVSPropertyOp9
 70
     1
102
RTVSPropertyOp10
 70
     1
102
RTVSPropertyOp11
 70
     1
102
RTVSPropertyOp12
 70
     1
102
RTVSPropertyOp13
 70
     1
102
RTVSPropertyOp14
 70
     1
102
RTVSPropertyOp15
 70
     1
102
RTVSPropertyOp16
 70
     1
102
RTVSPropertyOp17
 70
     1
102
RTVSPropertyOp18
 70
     1
102
RTVSPropertyOp19
 70
     1
102
RTVSPropertyOp20
 70
     1
102
RTVSPropertyOp21
 70
     1
102
RTVSPropertyOp22
 70
     1
102
RTVSPropertyOp23
 70
     1
102
RTVSPropertyOp24
 70
     1
102
RTVSPropertyOp25
 70
     1
102
RTVSPropertyOp26
 70
     1
102
RTVSPropertyOp27
 70
     1
102
RTVSPropertyOp28
 70
     1
102
RTVSPropertyOp29
 70
     1
102
RTVSPropertyOp30
 70
     1
102
RTVSPropertyOp31
 70
     1
102
RTVSPropertyOp32
 70
     1
102
RTVSPropertyOp33
 70
     1
102
RTVSPropertyOp34
 70
     1
102
RTVSPropertyOp35
 70
     1
102
RTVSPropertyOp36
 70
     1
102
RTVSPropertyOp37
 70
     1
102
RTVSPropertyOp38
 70
     1
102
RTVSPropertyOp39
 70
     1
102
RTVSPropertyOp40
 70
     1
102
RTVSPropertyOp41
 70
     1
102
RTVSPropertyOp42
 70
     1
102
RTVSPropertyOp43
 70
     1
102
RTVSPropertyOp44
 70
     1
102
RTVSPropertyOp45
 70
     1
102
RTVSPropertyOp46
 70
     1
102
RTVSPropertyOp47
 70
     1
102
RTVSPropertyOp48
 70
     1
102
RTVSPropertyOp49
 70
     1
102
RTVSPropertyOp50
 70
     1
102
RTVSPropertyOp51
 70
     0
102
RTVSPropertyOp52
 70
     0
102
RTVSPropertyOp53
 70
     1
102
RTVSPropertyOp54
 70
     1
102
RTVSPropertyOp55
 70
     1
102
RTVSPropertyOp56
 70
     1
102
RTVSPropertyOp57
 70
     1
102
RTVSPost2010Prop28
280
     0
102
RTVSPost2010PropOp28
 70
     1
102
RTVSPost2010Prop29
280
     1
102
RTVSPost2010PropOp29
 70
     1
102
RTVSPost2010Prop30
280
     1
102
RTVSPost2010PropOp30
 70
     1
102
RTVSPost2010Prop31
280
     0
102
RTVSPost2010PropOp31
 70
     1
102
RTVSPost2010Prop32
280
     0
102
RTVSPost2010PropOp32
 70
     1
102
RTVSPost2010Prop33
280
     0
102
RTVSPost2010PropOp33
 70
     1
102
RTVSPost2010Prop34
280
     0
102
RTVSPost2010PropOp34
 70
     1
102
RTVSPost2010Prop35
280
     0
102
RTVSPost2010PropOp35
 70
     1
102
RTVSPost2010Prop36
280
     0
102
RTVSPost2010PropOp36
 70
     1
102
RTVSPost2010Prop37
 90
       50
102
RTVSPost2010PropOp37
 70
     1
102
RTVSPost2010Prop38
140
0.0
102
RTVSPost2010PropOp38
 70
     1
102
RTVSPost2010Prop39
140
1.0
102
RTVSPost2010PropOp39
 70
     1
102
RTVSPost2010Prop40
 90
        0
102
RTVSPost2010PropOp40
 70
     1
102
RTVSPost2010Prop41ColorIndex
 90
       18
102
RTVSPost2010Prop41ColorRGB
 90
        0
102
RTVSPost2010PropOp41
 70
     1
102
RTVSPost2010Prop42
 90
       50
102
RTVSPost2010PropOp42
 70
     1
102
RTVSPost2010Prop43
 90
        3
102
RTVSPost2010PropOp43
 70
     1
102
RTVSPost2010Prop44ColorIndex
 90
        5
102
RTVSPost2010Prop44ColorRGB
 90
      255
102
RTVSPost2010PropOp44
 70
     1
102
RTVSPost2010Prop45
280
     0
102
RTVSPost2010PropOp45
 70
     1
102
RTVSPost2010Prop46
 90
       50
102
RTVSPost2010PropOp46
 70
     1
102
RTVSPost2010Prop47
 90
       50
102
RTVSPost2010PropOp47
 70
     1
102
RTVSPost2010Prop48
 90
       50
102
RTVSPost2010PropOp48
 70
     1
102
RTVSPost2010Prop49
280
     0
102
RTVSPost2010PropOp49
 70
     1
102
RTVSPost2010Prop50
 90
       50
102
RTVSPost2010PropOp50
 70
     1
102
RTVSPost2010Prop51ColorIndex
 90
      256
102
RTVSPost2010Prop51ColorRGB
 90
-16777216
102
RTVSPost2010PropOp51
 70
     0
102
RTVSPost2010Prop52
140
1.0
102
RTVSPost2010PropOp52
 70
     0
102
RTVSPost2010Prop53
 90
        2
102
RTVSPost2010PropOp53
 70
     1
102
RTVSPost2010Prop54
  1
strokes_ogs.tif
102
RTVSPost2010PropOp54
 70
     1
102
RTVSPost2010Prop55
280
     0
102
RTVSPost2010PropOp55
 70
     1
102
RTVSPost2010Prop56
140
1.0
102
RTVSPost2010PropOp56
 70
     1
102
RTVSPost2010Prop57
140
1.0
102
RTVSPost2010PropOp57
 70
     1
  0
XRECORD
  5
11B
102
{ACAD_REACTORS
330
11A
102
}
330
11A
100
AcDbXrecord
280
     1
102
RTVSPropertyOp0
 70
     1
102
RTVSPropertyOp1
 70
     1
102
RTVSPropertyOp2
 70
     1
102
RTVSPropertyOp3
 70
     1
102
RTVSPropertyOp4
 70
     1
102
RTVSPropertyOp5
 70
     1
102
RTVSPropertyOp6
 70
     1
102
RTVSPropertyOp7
 70
     1
102
RTVSPropertyOp8
 70
     1
102
RTVSPropertyOp9
 70
     1
102
RTVSPropertyOp10
 70
     1
102
RTVSPropertyOp11
 70
     1
102
RTVSPropertyOp12
 70
     1
102
RTVSPropertyOp13
 70
     1
102
RTVSPropertyOp14
 70
     1
102
RTVSPropertyOp15
 70
     1
102
RTVSPropertyOp16
 70
     1
102
RTVSPropertyOp17
 70
     1
102
RTVSPropertyOp18
 70
     1
102
RTVSPropertyOp19
 70
     1
102
RTVSPropertyOp20
 70
     1
102
RTVSPropertyOp21
 70
     1
102
RTVSPropertyOp22
 70
     1
102
RTVSPropertyOp23
 70
     1
102
RTVSPropertyOp24
 70
     1
102
RTVSPropertyOp25
 70
     1
102
RTVSPropertyOp26
 70
     1
102
RTVSPropertyOp27
 70
     1
102
RTVSPropertyOp28
 70
     1
102
RTVSPropertyOp29
 70
     1
102
RTVSPropertyOp30
 70
     1
102
RTVSPropertyOp31
 70
     1
102
RTVSPropertyOp32
 70
     1
102
RTVSPropertyOp33
 70
     1
102
RTVSPropertyOp34
 70
     1
102
RTVSPropertyOp35
 70
     1
102
RTVSPropertyOp36
 70
     1
102
RTVSPropertyOp37
 70
     1
102
RTVSPropertyOp38
 70
     1
102
RTVSPropertyOp39
 70
     1
102
RTVSPropertyOp40
 70
     1
102
RTVSPropertyOp41
 70
     1
102
RTVSPropertyOp42
 70
     1
102
RTVSPropertyOp43
 70
     1
102
RTVSPropertyOp44
 70
     1
102
RTVSPropertyOp45
 70
     1
102
RTVSPropertyOp46
 70
     1
102
RTVSPropertyOp47
 70
     1
102
RTVSPropertyOp48
 70
     1
102
RTVSPropertyOp49
 70
     1
102
RTVSPropertyOp50
 70
     1
102
RTVSPropertyOp51
 70
     0
102
RTVSPropertyOp52
 70
     0
102
RTVSPropertyOp53
 70
     1
102
RTVSPropertyOp54
 70
     1
102
RTVSPropertyOp55
 70
     1
102
RTVSPropertyOp56
 70
     1
102
RTVSPropertyOp57
 70
     1
102
RTVSPost2010Prop28
280
     0
102
RTVSPost2010PropOp28
 70
     1
102
RTVSPost2010Prop29
280
     1
102
RTVSPost2010PropOp29
 70
     1
102
RTVSPost2010Prop30
280
     1
102
RTVSPost2010PropOp30
 70
     1
102
RTVSPost2010Prop31
280
     0
102
RTVSPost2010PropOp31
 70
     1
102
RTVSPost2010Prop32
280
     0
102
RTVSPost2010PropOp32
 70
     1
102
RTVSPost2010Prop33
280
     0
102
RTVSPost2010PropOp33
 70
     1
102
RTVSPost2010Prop34
280
     0
102
RTVSPost2010PropOp34
 70
     1
102
RTVSPost2010Prop35
280
     0
102
RTVSPost2010PropOp35
 70
     1
102
RTVSPost2010Prop36
280
     0
102
RTVSPost2010PropOp36
 70
     1
102
RTVSPost2010Prop37
 90
       50
102
RTVSPost2010PropOp37
 70
     1
102
RTVSPost2010Prop38
140
0.0
102
RTVSPost2010PropOp38
 70
     1
102
RTVSPost2010Prop39
140
1.0
102
RTVSPost2010PropOp39
 70
     1
102
RTVSPost2010Prop40
 90
        0
102
RTVSPost2010PropOp40
 70
     1
102
RTVSPost2010Prop41ColorIndex
 90
       18
102
RTVSPost2010Prop41ColorRGB
 90
        0
102
RTVSPost2010PropOp41
 70
     1
102
RTVSPost2010Prop42
 90
       50
102
RTVSPost2010PropOp42
 70
     1
102
RTVSPost2010Prop43
 90
        3
102
RTVSPost2010PropOp43
 70
     1
102
RTVSPost2010Prop44ColorIndex
 90
        5
102
RTVSPost2010Prop44ColorRGB
 90
      255
102
RTVSPost2010PropOp44
 70
     1
102
RTVSPost2010Prop45
280
     0
102
RTVSPost2010PropOp45
 70
     1
102
RTVSPost2010Prop46
 90
       50
102
RTVSPost2010PropOp46
 70
     1
102
RTVSPost2010Prop47
 90
       50
102
RTVSPost2010PropOp47
 70
     1
102
RTVSPost2010Prop48
 90
       50
102
RTVSPost2010PropOp48
 70
     1
102
RTVSPost2010Prop49
280
     0
102
RTVSPost2010PropOp49
 70
     1
102
RTVSPost2010Prop50
 90
       50
102
RTVSPost2010PropOp50
 70
     1
102
RTVSPost2010Prop51ColorIndex
 90
      256
102
RTVSPost2010Prop51ColorRGB
 90
-16777216
102
RTVSPost2010PropOp51
 70
     0
102
RTVSPost2010Prop52
140
1.0
102
RTVSPost2010PropOp52
 70
     0
102
RTVSPost2010Prop53
 90
        2
102
RTVSPost2010PropOp53
 70
     1
102
RTVSPost2010Prop54
  1
strokes_ogs.tif
102
RTVSPost2010PropOp54
 70
     1
102
RTVSPost2010Prop55
280
     0
102
RTVSPost2010PropOp55
 70
     1
102
RTVSPost2010Prop56
140
1.0
102
RTVSPost2010PropOp56
 70
     1
102
RTVSPost2010Prop57
140
1.0
102
RTVSPost2010PropOp57
 70
     1
  0
XRECORD
  5
115
102
{ACAD_REACTORS
330
114
102
}
330
114
100
AcDbXrecord
280
     1
102
RTVSPropertyOp0
 70
     1
102
RTVSPropertyOp1
 70
     1
102
RTVSPropertyOp2
 70
     1
102
RTVSPropertyOp3
 70
     1
102
RTVSPropertyOp4
 70
     1
102
RTVSPropertyOp5
 70
     1
102
RTVSPropertyOp6
 70
     1
102
RTVSPropertyOp7
 70
     1
102
RTVSPropertyOp8
 70
     1
102
RTVSPropertyOp9
 70
     1
102
RTVSPropertyOp10
 70
     1
102
RTVSPropertyOp11
 70
     1
102
RTVSPropertyOp12
 70
     1
102
RTVSPropertyOp13
 70
     1
102
RTVSPropertyOp14
 70
     1
102
RTVSPropertyOp15
 70
     1
102
RTVSPropertyOp16
 70
     1
102
RTVSPropertyOp17
 70
     1
102
RTVSPropertyOp18
 70
     1
102
RTVSPropertyOp19
 70
     1
102
RTVSPropertyOp20
 70
     1
102
RTVSPropertyOp21
 70
     1
102
RTVSPropertyOp22
 70
     1
102
RTVSPropertyOp23
 70
     1
102
RTVSPropertyOp24
 70
     1
102
RTVSPropertyOp25
 70
     1
102
RTVSPropertyOp26
 70
     1
102
RTVSPropertyOp27
 70
     1
102
RTVSPropertyOp28
 70
     1
102
RTVSPropertyOp29
 70
     1
102
RTVSPropertyOp30
 70
     1
102
RTVSPropertyOp31
 70
     1
102
RTVSPropertyOp32
 70
     1
102
RTVSPropertyOp33
 70
     1
102
RTVSPropertyOp34
 70
     1
102
RTVSPropertyOp35
 70
     1
102
RTVSPropertyOp36
 70
     1
102
RTVSPropertyOp37
 70
     1
102
RTVSPropertyOp38
 70
     1
102
RTVSPropertyOp39
 70
     1
102
RTVSPropertyOp40
 70
     1
102
RTVSPropertyOp41
 70
     1
102
RTVSPropertyOp42
 70
     1
102
RTVSPropertyOp43
 70
     1
102
RTVSPropertyOp44
 70
     1
102
RTVSPropertyOp45
 70
     1
102
RTVSPropertyOp46
 70
     1
102
RTVSPropertyOp47
 70
     1
102
RTVSPropertyOp48
 70
     1
102
RTVSPropertyOp49
 70
     1
102
RTVSPropertyOp50
 70
     1
102
RTVSPropertyOp51
 70
     0
102
RTVSPropertyOp52
 70
     0
102
RTVSPropertyOp53
 70
     1
102
RTVSPropertyOp54
 70
     1
102
RTVSPropertyOp55
 70
     1
102
RTVSPropertyOp56
 70
     1
102
RTVSPropertyOp57
 70
     1
102
RTVSPost2010Prop28
280
     0
102
RTVSPost2010PropOp28
 70
     1
102
RTVSPost2010Prop29
280
     1
102
RTVSPost2010PropOp29
 70
     1
102
RTVSPost2010Prop30
280
     1
102
RTVSPost2010PropOp30
 70
     1
102
RTVSPost2010Prop31
280
     0
102
RTVSPost2010PropOp31
 70
     1
102
RTVSPost2010Prop32
280
     0
102
RTVSPost2010PropOp32
 70
     1
102
RTVSPost2010Prop33
280
     0
102
RTVSPost2010PropOp33
 70
     1
102
RTVSPost2010Prop34
280
     0
102
RTVSPost2010PropOp34
 70
     1
102
RTVSPost2010Prop35
280
     0
102
RTVSPost2010PropOp35
 70
     1
102
RTVSPost2010Prop36
280
     0
102
RTVSPost2010PropOp36
 70
     1
102
RTVSPost2010Prop37
 90
       50
102
RTVSPost2010PropOp37
 70
     1
102
RTVSPost2010Prop38
140
0.0
102
RTVSPost2010PropOp38
 70
     1
102
RTVSPost2010Prop39
140
1.0
102
RTVSPost2010PropOp39
 70
     1
102
RTVSPost2010Prop40
 90
        0
102
RTVSPost2010PropOp40
 70
     1
102
RTVSPost2010Prop41ColorIndex
 90
       18
102
RTVSPost2010Prop41ColorRGB
 90
        0
102
RTVSPost2010PropOp41
 70
     1
102
RTVSPost2010Prop42
 90
       50
102
RTVSPost2010PropOp42
 70
     1
102
RTVSPost2010Prop43
 90
        3
102
RTVSPost2010PropOp43
 70
     1
102
RTVSPost2010Prop44ColorIndex
 90
        5
102
RTVSPost2010Prop44ColorRGB
 90
      255
102
RTVSPost2010PropOp44
 70
     1
102
RTVSPost2010Prop45
280
     0
102
RTVSPost2010PropOp45
 70
     1
102
RTVSPost2010Prop46
 90
       50
102
RTVSPost2010PropOp46
 70
     1
102
RTVSPost2010Prop47
 90
       50
102
RTVSPost2010PropOp47
 70
     1
102
RTVSPost2010Prop48
 90
       50
102
RTVSPost2010PropOp48
 70
     1
102
RTVSPost2010Prop49
280
     0
102
RTVSPost2010PropOp49
 70
     1
102
RTVSPost2010Prop50
 90
       50
102
RTVSPost2010PropOp50
 70
     1
102
RTVSPost2010Prop51ColorIndex
 90
      256
102
RTVSPost2010Prop51ColorRGB
 90
-16777216
102
RTVSPost2010PropOp51
 70
     0
102
RTVSPost2010Prop52
140
1.0
102
RTVSPost2010PropOp52
 70
     0
102
RTVSPost2010Prop53
 90
        2
102
RTVSPost2010PropOp53
 70
     1
102
RTVSPost2010Prop54
  1
strokes_ogs.tif
102
RTVSPost2010PropOp54
 70
     1
102
RTVSPost2010Prop55
280
     0
102
RTVSPost2010PropOp55
 70
     1
102
RTVSPost2010Prop56
140
1.0
102
RTVSPost2010PropOp56
 70
     1
102
RTVSPost2010Prop57
140
1.0
102
RTVSPost2010PropOp57
 70
     1
  0
XRECORD
  5
117
102
{ACAD_REACTORS
330
116
102
}
330
116
100
AcDbXrecord
280
     1
102
RTVSPropertyOp0
 70
     1
102
RTVSPropertyOp1
 70
     1
102
RTVSPropertyOp2
 70
     1
102
RTVSPropertyOp3
 70
     1
102
RTVSPropertyOp4
 70
     1
102
RTVSPropertyOp5
 70
     1
102
RTVSPropertyOp6
 70
     1
102
RTVSPropertyOp7
 70
     1
102
RTVSPropertyOp8
 70
     1
102
RTVSPropertyOp9
 70
     1
102
RTVSPropertyOp10
 70
     1
102
RTVSPropertyOp11
 70
     1
102
RTVSPropertyOp12
 70
     1
102
RTVSPropertyOp13
 70
     1
102
RTVSPropertyOp14
 70
     1
102
RTVSPropertyOp15
 70
     1
102
RTVSPropertyOp16
 70
     1
102
RTVSPropertyOp17
 70
     1
102
RTVSPropertyOp18
 70
     1
102
RTVSPropertyOp19
 70
     1
102
RTVSPropertyOp20
 70
     1
102
RTVSPropertyOp21
 70
     1
102
RTVSPropertyOp22
 70
     1
102
RTVSPropertyOp23
 70
     1
102
RTVSPropertyOp24
 70
     1
102
RTVSPropertyOp25
 70
     1
102
RTVSPropertyOp26
 70
     1
102
RTVSPropertyOp27
 70
     1
102
RTVSPropertyOp28
 70
     1
102
RTVSPropertyOp29
 70
     1
102
RTVSPropertyOp30
 70
     1
102
RTVSPropertyOp31
 70
     1
102
RTVSPropertyOp32
 70
     1
102
RTVSPropertyOp33
 70
     1
102
RTVSPropertyOp34
 70
     1
102
RTVSPropertyOp35
 70
     1
102
RTVSPropertyOp36
 70
     1
102
RTVSPropertyOp37
 70
     1
102
RTVSPropertyOp38
 70
     1
102
RTVSPropertyOp39
 70
     1
102
RTVSPropertyOp40
 70
     1
102
RTVSPropertyOp41
 70
     1
102
RTVSPropertyOp42
 70
     1
102
RTVSPropertyOp43
 70
     1
102
RTVSPropertyOp44
 70
     1
102
RTVSPropertyOp45
 70
     1
102
RTVSPropertyOp46
 70
     1
102
RTVSPropertyOp47
 70
     1
102
RTVSPropertyOp48
 70
     1
102
RTVSPropertyOp49
 70
     1
102
RTVSPropertyOp50
 70
     1
102
RTVSPropertyOp51
 70
     0
102
RTVSPropertyOp52
 70
     0
102
RTVSPropertyOp53
 70
     1
102
RTVSPropertyOp54
 70
     1
102
RTVSPropertyOp55
 70
     1
102
RTVSPropertyOp56
 70
     1
102
RTVSPropertyOp57
 70
     1
102
RTVSPost2010Prop28
280
     0
102
RTVSPost2010PropOp28
 70
     1
102
RTVSPost2010Prop29
280
     1
102
RTVSPost2010PropOp29
 70
     1
102
RTVSPost2010Prop30
280
     1
102
RTVSPost2010PropOp30
 70
     1
102
RTVSPost2010Prop31
280
     0
102
RTVSPost2010PropOp31
 70
     1
102
RTVSPost2010Prop32
280
     0
102
RTVSPost2010PropOp32
 70
     1
102
RTVSPost2010Prop33
280
     0
102
RTVSPost2010PropOp33
 70
     1
102
RTVSPost2010Prop34
280
     0
102
RTVSPost2010PropOp34
 70
     1
102
RTVSPost2010Prop35
280
     0
102
RTVSPost2010PropOp35
 70
     1
102
RTVSPost2010Prop36
280
     0
102
RTVSPost2010PropOp36
 70
     1
102
RTVSPost2010Prop37
 90
       50
102
RTVSPost2010PropOp37
 70
     1
102
RTVSPost2010Prop38
140
0.0
102
RTVSPost2010PropOp38
 70
     1
102
RTVSPost2010Prop39
140
1.0
102
RTVSPost2010PropOp39
 70
     1
102
RTVSPost2010Prop40
 90
        0
102
RTVSPost2010PropOp40
 70
     1
102
RTVSPost2010Prop41ColorIndex
 90
       18
102
RTVSPost2010Prop41ColorRGB
 90
        0
102
RTVSPost2010PropOp41
 70
     1
102
RTVSPost2010Prop42
 90
       50
102
RTVSPost2010PropOp42
 70
     1
102
RTVSPost2010Prop43
 90
        3
102
RTVSPost2010PropOp43
 70
     1
102
RTVSPost2010Prop44ColorIndex
 90
        5
102
RTVSPost2010Prop44ColorRGB
 90
      255
102
RTVSPost2010PropOp44
 70
     1
102
RTVSPost2010Prop45
280
     0
102
RTVSPost2010PropOp45
 70
     1
102
RTVSPost2010Prop46
 90
       50
102
RTVSPost2010PropOp46
 70
     1
102
RTVSPost2010Prop47
 90
       50
102
RTVSPost2010PropOp47
 70
     1
102
RTVSPost2010Prop48
 90
       50
102
RTVSPost2010PropOp48
 70
     1
102
RTVSPost2010Prop49
280
     0
102
RTVSPost2010PropOp49
 70
     1
102
RTVSPost2010Prop50
 90
       50
102
RTVSPost2010PropOp50
 70
     1
102
RTVSPost2010Prop51ColorIndex
 90
      256
102
RTVSPost2010Prop51ColorRGB
 90
-16777216
102
RTVSPost2010PropOp51
 70
     0
102
RTVSPost2010Prop52
140
1.0
102
RTVSPost2010PropOp52
 70
     0
102
RTVSPost2010Prop53
 90
        2
102
RTVSPost2010PropOp53
 70
     1
102
RTVSPost2010Prop54
  1
strokes_ogs.tif
102
RTVSPost2010PropOp54
 70
     1
102
RTVSPost2010Prop55
280
     0
102
RTVSPost2010PropOp55
 70
     1
102
RTVSPost2010Prop56
140
1.0
102
RTVSPost2010PropOp56
 70
     1
102
RTVSPost2010Prop57
140
1.0
102
RTVSPost2010PropOp57
 70
     1
  0
XRECORD
  5
107
102
{ACAD_REACTORS
330
106
102
}
330
106
100
AcDbXrecord
280
     1
102
RTVSPropertyOp0
 70
     1
102
RTVSPropertyOp1
 70
     1
102
RTVSPropertyOp2
 70
     1
102
RTVSPropertyOp3
 70
     1
102
RTVSPropertyOp4
 70
     1
102
RTVSPropertyOp5
 70
     1
102
RTVSPropertyOp6
 70
     1
102
RTVSPropertyOp7
 70
     1
102
RTVSPropertyOp8
 70
     1
102
RTVSPropertyOp9
 70
     1
102
RTVSPropertyOp10
 70
     1
102
RTVSPropertyOp11
 70
     1
102
RTVSPropertyOp12
 70
     1
102
RTVSPropertyOp13
 70
     1
102
RTVSPropertyOp14
 70
     1
102
RTVSPropertyOp15
 70
     1
102
RTVSPropertyOp16
 70
     1
102
RTVSPropertyOp17
 70
     1
102
RTVSPropertyOp18
 70
     1
102
RTVSPropertyOp19
 70
     1
102
RTVSPropertyOp20
 70
     1
102
RTVSPropertyOp21
 70
     1
102
RTVSPropertyOp22
 70
     1
102
RTVSPropertyOp23
 70
     1
102
RTVSPropertyOp24
 70
     1
102
RTVSPropertyOp25
 70
     1
102
RTVSPropertyOp26
 70
     1
102
RTVSPropertyOp27
 70
     1
102
RTVSPropertyOp28
 70
     1
102
RTVSPropertyOp29
 70
     1
102
RTVSPropertyOp30
 70
     1
102
RTVSPropertyOp31
 70
     1
102
RTVSPropertyOp32
 70
     1
102
RTVSPropertyOp33
 70
     1
102
RTVSPropertyOp34
 70
     1
102
RTVSPropertyOp35
 70
     1
102
RTVSPropertyOp36
 70
     1
102
RTVSPropertyOp37
 70
     1
102
RTVSPropertyOp38
 70
     1
102
RTVSPropertyOp39
 70
     1
102
RTVSPropertyOp40
 70
     1
102
RTVSPropertyOp41
 70
     1
102
RTVSPropertyOp42
 70
     1
102
RTVSPropertyOp43
 70
     1
102
RTVSPropertyOp44
 70
     1
102
RTVSPropertyOp45
 70
     1
102
RTVSPropertyOp46
 70
     1
102
RTVSPropertyOp47
 70
     1
102
RTVSPropertyOp48
 70
     1
102
RTVSPropertyOp49
 70
     1
102
RTVSPropertyOp50
 70
     1
102
RTVSPropertyOp51
 70
     0
102
RTVSPropertyOp52
 70
     0
102
RTVSPropertyOp53
 70
     1
102
RTVSPropertyOp54
 70
     1
102
RTVSPropertyOp55
 70
     1
102
RTVSPropertyOp56
 70
     1
102
RTVSPropertyOp57
 70
     1
102
RTVSPost2010Prop28
280
     0
102
RTVSPost2010PropOp28
 70
     1
102
RTVSPost2010Prop29
280
     1
102
RTVSPost2010PropOp29
 70
     1
102
RTVSPost2010Prop30
280
     1
102
RTVSPost2010PropOp30
 70
     1
102
RTVSPost2010Prop31
280
     0
102
RTVSPost2010PropOp31
 70
     1
102
RTVSPost2010Prop32
280
     0
102
RTVSPost2010PropOp32
 70
     1
102
RTVSPost2010Prop33
280
     0
102
RTVSPost2010PropOp33
 70
     1
102
RTVSPost2010Prop34
280
     0
102
RTVSPost2010PropOp34
 70
     1
102
RTVSPost2010Prop35
280
     0
102
RTVSPost2010PropOp35
 70
     1
102
RTVSPost2010Prop36
280
     0
102
RTVSPost2010PropOp36
 70
     1
102
RTVSPost2010Prop37
 90
       50
102
RTVSPost2010PropOp37
 70
     1
102
RTVSPost2010Prop38
140
0.0
102
RTVSPost2010PropOp38
 70
     1
102
RTVSPost2010Prop39
140
1.0
102
RTVSPost2010PropOp39
 70
     1
102
RTVSPost2010Prop40
 90
        0
102
RTVSPost2010PropOp40
 70
     1
102
RTVSPost2010Prop41ColorIndex
 90
       18
102
RTVSPost2010Prop41ColorRGB
 90
        0
102
RTVSPost2010PropOp41
 70
     1
102
RTVSPost2010Prop42
 90
       50
102
RTVSPost2010PropOp42
 70
     1
102
RTVSPost2010Prop43
 90
        3
102
RTVSPost2010PropOp43
 70
     1
102
RTVSPost2010Prop44ColorIndex
 90
        5
102
RTVSPost2010Prop44ColorRGB
 90
      255
102
RTVSPost2010PropOp44
 70
     1
102
RTVSPost2010Prop45
280
     0
102
RTVSPost2010PropOp45
 70
     1
102
RTVSPost2010Prop46
 90
       50
102
RTVSPost2010PropOp46
 70
     1
102
RTVSPost2010Prop47
 90
       50
102
RTVSPost2010PropOp47
 70
     1
102
RTVSPost2010Prop48
 90
       50
102
RTVSPost2010PropOp48
 70
     1
102
RTVSPost2010Prop49
280
     0
102
RTVSPost2010PropOp49
 70
     1
102
RTVSPost2010Prop50
 90
       50
102
RTVSPost2010PropOp50
 70
     1
102
RTVSPost2010Prop51ColorIndex
 90
      256
102
RTVSPost2010Prop51ColorRGB
 90
-16777216
102
RTVSPost2010PropOp51
 70
     0
102
RTVSPost2010Prop52
140
1.0
102
RTVSPost2010PropOp52
 70
     0
102
RTVSPost2010Prop53
 90
        2
102
RTVSPost2010PropOp53
 70
     1
102
RTVSPost2010Prop54
  1
strokes_ogs.tif
102
RTVSPost2010PropOp54
 70
     1
102
RTVSPost2010Prop55
280
     0
102
RTVSPost2010PropOp55
 70
     1
102
RTVSPost2010Prop56
140
1.0
102
RTVSPost2010PropOp56
 70
     1
102
RTVSPost2010Prop57
140
1.0
102
RTVSPost2010PropOp57
 70
     1
  0
XRECORD
  5
F9
102
{ACAD_REACTORS
330
F8
102
}
330
F8
100
AcDbXrecord
280
     1
102
RTVSPropertyOp0
 70
     1
102
RTVSPropertyOp1
 70
     1
102
RTVSPropertyOp2
 70
     1
102
RTVSPropertyOp3
 70
     1
102
RTVSPropertyOp4
 70
     1
102
RTVSPropertyOp5
 70
     1
102
RTVSPropertyOp6
 70
     1
102
RTVSPropertyOp7
 70
     1
102
RTVSPropertyOp8
 70
     1
102
RTVSPropertyOp9
 70
     1
102
RTVSPropertyOp10
 70
     1
102
RTVSPropertyOp11
 70
     1
102
RTVSPropertyOp12
 70
     1
102
RTVSPropertyOp13
 70
     1
102
RTVSPropertyOp14
 70
     1
102
RTVSPropertyOp15
 70
     1
102
RTVSPropertyOp16
 70
     1
102
RTVSPropertyOp17
 70
     1
102
RTVSPropertyOp18
 70
     1
102
RTVSPropertyOp19
 70
     1
102
RTVSPropertyOp20
 70
     1
102
RTVSPropertyOp21
 70
     1
102
RTVSPropertyOp22
 70
     1
102
RTVSPropertyOp23
 70
     1
102
RTVSPropertyOp24
 70
     1
102
RTVSPropertyOp25
 70
     1
102
RTVSPropertyOp26
 70
     1
102
RTVSPropertyOp27
 70
     1
102
RTVSPropertyOp28
 70
     1
102
RTVSPropertyOp29
 70
     1
102
RTVSPropertyOp30
 70
     1
102
RTVSPropertyOp31
 70
     1
102
RTVSPropertyOp32
 70
     1
102
RTVSPropertyOp33
 70
     1
102
RTVSPropertyOp34
 70
     1
102
RTVSPropertyOp35
 70
     1
102
RTVSPropertyOp36
 70
     1
102
RTVSPropertyOp37
 70
     1
102
RTVSPropertyOp38
 70
     1
102
RTVSPropertyOp39
 70
     1
102
RTVSPropertyOp40
 70
     1
102
RTVSPropertyOp41
 70
     1
102
RTVSPropertyOp42
 70
     1
102
RTVSPropertyOp43
 70
     1
102
RTVSPropertyOp44
 70
     1
102
RTVSPropertyOp45
 70
     1
102
RTVSPropertyOp46
 70
     1
102
RTVSPropertyOp47
 70
     1
102
RTVSPropertyOp48
 70
     1
102
RTVSPropertyOp49
 70
     1
102
RTVSPropertyOp50
 70
     1
102
RTVSPropertyOp51
 70
     0
102
RTVSPropertyOp52
 70
     0
102
RTVSPropertyOp53
 70
     1
102
RTVSPropertyOp54
 70
     1
102
RTVSPropertyOp55
 70
     1
102
RTVSPropertyOp56
 70
     1
102
RTVSPropertyOp57
 70
     1
102
RTVSPost2010Prop28
280
     0
102
RTVSPost2010PropOp28
 70
     1
102
RTVSPost2010Prop29
280
     1
102
RTVSPost2010PropOp29
 70
     1
102
RTVSPost2010Prop30
280
     1
102
RTVSPost2010PropOp30
 70
     1
102
RTVSPost2010Prop31
280
     0
102
RTVSPost2010PropOp31
 70
     1
102
RTVSPost2010Prop32
280
     0
102
RTVSPost2010PropOp32
 70
     1
102
RTVSPost2010Prop33
280
     0
102
RTVSPost2010PropOp33
 70
     1
102
RTVSPost2010Prop34
280
     0
102
RTVSPost2010PropOp34
 70
     1
102
RTVSPost2010Prop35
280
     0
102
RTVSPost2010PropOp35
 70
     1
102
RTVSPost2010Prop36
280
     0
102
RTVSPost2010PropOp36
 70
     1
102
RTVSPost2010Prop37
 90
       50
102
RTVSPost2010PropOp37
 70
     1
102
RTVSPost2010Prop38
140
0.0
102
RTVSPost2010PropOp38
 70
     1
102
RTVSPost2010Prop39
140
1.0
102
RTVSPost2010PropOp39
 70
     1
102
RTVSPost2010Prop40
 90
        0
102
RTVSPost2010PropOp40
 70
     1
102
RTVSPost2010Prop41ColorIndex
 90
       18
102
RTVSPost2010Prop41ColorRGB
 90
        0
102
RTVSPost2010PropOp41
 70
     1
102
RTVSPost2010Prop42
 90
       50
102
RTVSPost2010PropOp42
 70
     1
102
RTVSPost2010Prop43
 90
        3
102
RTVSPost2010PropOp43
 70
     1
102
RTVSPost2010Prop44ColorIndex
 90
        5
102
RTVSPost2010Prop44ColorRGB
 90
      255
102
RTVSPost2010PropOp44
 70
     1
102
RTVSPost2010Prop45
280
     0
102
RTVSPost2010PropOp45
 70
     1
102
RTVSPost2010Prop46
 90
       50
102
RTVSPost2010PropOp46
 70
     1
102
RTVSPost2010Prop47
 90
       50
102
RTVSPost2010PropOp47
 70
     1
102
RTVSPost2010Prop48
 90
       50
102
RTVSPost2010PropOp48
 70
     1
102
RTVSPost2010Prop49
280
     0
102
RTVSPost2010PropOp49
 70
     1
102
RTVSPost2010Prop50
 90
       50
102
RTVSPost2010PropOp50
 70
     1
102
RTVSPost2010Prop51ColorIndex
 90
      256
102
RTVSPost2010Prop51ColorRGB
 90
-16777216
102
RTVSPost2010PropOp51
 70
     0
102
RTVSPost2010Prop52
140
1.0
102
RTVSPost2010PropOp52
 70
     0
102
RTVSPost2010Prop53
 90
        2
102
RTVSPost2010PropOp53
 70
     1
102
RTVSPost2010Prop54
  1
strokes_ogs.tif
102
RTVSPost2010PropOp54
 70
     1
102
RTVSPost2010Prop55
280
     0
102
RTVSPost2010PropOp55
 70
     1
102
RTVSPost2010Prop56
140
1.0
102
RTVSPost2010PropOp56
 70
     1
102
RTVSPost2010Prop57
140
1.0
102
RTVSPost2010PropOp57
 70
     1
  0
XRECORD
  5
119
102
{ACAD_REACTORS
330
118
102
}
330
118
100
AcDbXrecord
280
     1
102
RTVSPropertyOp0
 70
     1
102
RTVSPropertyOp1
 70
     1
102
RTVSPropertyOp2
 70
     1
102
RTVSPropertyOp3
 70
     1
102
RTVSPropertyOp4
 70
     1
102
RTVSPropertyOp5
 70
     1
102
RTVSPropertyOp6
 70
     1
102
RTVSPropertyOp7
 70
     1
102
RTVSPropertyOp8
 70
     1
102
RTVSPropertyOp9
 70
     1
102
RTVSPropertyOp10
 70
     1
102
RTVSPropertyOp11
 70
     1
102
RTVSPropertyOp12
 70
     1
102
RTVSPropertyOp13
 70
     1
102
RTVSPropertyOp14
 70
     1
102
RTVSPropertyOp15
 70
     1
102
RTVSPropertyOp16
 70
     1
102
RTVSPropertyOp17
 70
     1
102
RTVSPropertyOp18
 70
     1
102
RTVSPropertyOp19
 70
     1
102
RTVSPropertyOp20
 70
     1
102
RTVSPropertyOp21
 70
     1
102
RTVSPropertyOp22
 70
     1
102
RTVSPropertyOp23
 70
     1
102
RTVSPropertyOp24
 70
     1
102
RTVSPropertyOp25
 70
     1
102
RTVSPropertyOp26
 70
     1
102
RTVSPropertyOp27
 70
     1
102
RTVSPropertyOp28
 70
     1
102
RTVSPropertyOp29
 70
     1
102
RTVSPropertyOp30
 70
     1
102
RTVSPropertyOp31
 70
     1
102
RTVSPropertyOp32
 70
     1
102
RTVSPropertyOp33
 70
     1
102
RTVSPropertyOp34
 70
     1
102
RTVSPropertyOp35
 70
     1
102
RTVSPropertyOp36
 70
     1
102
RTVSPropertyOp37
 70
     1
102
RTVSPropertyOp38
 70
     1
102
RTVSPropertyOp39
 70
     1
102
RTVSPropertyOp40
 70
     1
102
RTVSPropertyOp41
 70
     1
102
RTVSPropertyOp42
 70
     1
102
RTVSPropertyOp43
 70
     1
102
RTVSPropertyOp44
 70
     1
102
RTVSPropertyOp45
 70
     1
102
RTVSPropertyOp46
 70
     1
102
RTVSPropertyOp47
 70
     1
102
RTVSPropertyOp48
 70
     1
102
RTVSPropertyOp49
 70
     1
102
RTVSPropertyOp50
 70
     1
102
RTVSPropertyOp51
 70
     0
102
RTVSPropertyOp52
 70
     0
102
RTVSPropertyOp53
 70
     1
102
RTVSPropertyOp54
 70
     1
102
RTVSPropertyOp55
 70
     1
102
RTVSPropertyOp56
 70
     1
102
RTVSPropertyOp57
 70
     1
102
RTVSPost2010Prop28
280
     0
102
RTVSPost2010PropOp28
 70
     1
102
RTVSPost2010Prop29
280
     1
102
RTVSPost2010PropOp29
 70
     1
102
RTVSPost2010Prop30
280
     1
102
RTVSPost2010PropOp30
 70
     1
102
RTVSPost2010Prop31
280
     0
102
RTVSPost2010PropOp31
 70
     1
102
RTVSPost2010Prop32
280
     0
102
RTVSPost2010PropOp32
 70
     1
102
RTVSPost2010Prop33
280
     0
102
RTVSPost2010PropOp33
 70
     1
102
RTVSPost2010Prop34
280
     0
102
RTVSPost2010PropOp34
 70
     1
102
RTVSPost2010Prop35
280
     0
102
RTVSPost2010PropOp35
 70
     1
102
RTVSPost2010Prop36
280
     0
102
RTVSPost2010PropOp36
 70
     1
102
RTVSPost2010Prop37
 90
       50
102
RTVSPost2010PropOp37
 70
     1
102
RTVSPost2010Prop38
140
0.0
102
RTVSPost2010PropOp38
 70
     1
102
RTVSPost2010Prop39
140
1.0
102
RTVSPost2010PropOp39
 70
     1
102
RTVSPost2010Prop40
 90
        0
102
RTVSPost2010PropOp40
 70
     1
102
RTVSPost2010Prop41ColorIndex
 90
       18
102
RTVSPost2010Prop41ColorRGB
 90
        0
102
RTVSPost2010PropOp41
 70
     1
102
RTVSPost2010Prop42
 90
       50
102
RTVSPost2010PropOp42
 70
     1
102
RTVSPost2010Prop43
 90
        3
102
RTVSPost2010PropOp43
 70
     1
102
RTVSPost2010Prop44ColorIndex
 90
        5
102
RTVSPost2010Prop44ColorRGB
 90
      255
102
RTVSPost2010PropOp44
 70
     1
102
RTVSPost2010Prop45
280
     0
102
RTVSPost2010PropOp45
 70
     1
102
RTVSPost2010Prop46
 90
       50
102
RTVSPost2010PropOp46
 70
     1
102
RTVSPost2010Prop47
 90
       50
102
RTVSPost2010PropOp47
 70
     1
102
RTVSPost2010Prop48
 90
       50
102
RTVSPost2010PropOp48
 70
     1
102
RTVSPost2010Prop49
280
     0
102
RTVSPost2010PropOp49
 70
     1
102
RTVSPost2010Prop50
 90
       50
102
RTVSPost2010PropOp50
 70
     1
102
RTVSPost2010Prop51ColorIndex
 90
      256
102
RTVSPost2010Prop51ColorRGB
 90
-16777216
102
RTVSPost2010PropOp51
 70
     0
102
RTVSPost2010Prop52
140
1.0
102
RTVSPost2010PropOp52
 70
     0
102
RTVSPost2010Prop53
 90
        2
102
RTVSPost2010PropOp53
 70
     1
102
RTVSPost2010Prop54
  1
strokes_ogs.tif
102
RTVSPost2010PropOp54
 70
     1
102
RTVSPost2010Prop55
280
     0
102
RTVSPost2010PropOp55
 70
     1
102
RTVSPost2010Prop56
140
1.0
102
RTVSPost2010PropOp56
 70
     1
102
RTVSPost2010Prop57
140
1.0
102
RTVSPost2010PropOp57
 70
     1
  0
ENDSEC
  0
EOF
