  0
SECTION
  2
HEADER
  9
$ACADVER
  1
AC1004
  9
$INSBASE
 10
0.0
 20
0.0
  9
$EXTMIN
 10
149.4798
 20
-83.2201
  9
$EXTMAX
 10
286.2824
 20
53.5825
  9
$LIMMIN
 10
0.0
 20
0.0
  9
$LIMMAX
 10
12.0
 20
9.0
  9
$ORTHOMODE
 70
     0
  9
$REGENMODE
 70
     1
  9
$FILLMODE
 70
     1
  9
$QTEXTMODE
 70
     0
  9
$DRAGMODE
 70
     2
  9
$LTSCALE
 40
1.0
  9
$OSMODE
 70
    37
  9
$ATTMODE
 70
     1
  9
$TEXTSIZE
 40
0.2
  9
$TRACEWID
 40
0.05
  9
$TEXTSTYLE
  7
STANDARD
  9
$CLAYER
  8
0
  9
$CELTYPE
  6
BYLAYER
  9
$CECOLOR
 62
   256
  9
$DIMSCALE
 40
1.0
  9
$DIMASZ
 40
0.18
  9
$DIMEXO
 40
0.0625
  9
$DIMDLI
 40
0.38
  9
$DIMRND
 40
0.0
  9
$DIMDLE
 40
0.0
  9
$DIMEXE
 40
0.18
  9
$DIMTP
 40
0.0
  9
$DIMTM
 40
0.0
  9
$DIMTXT
 40
0.18
  9
$DIMCEN
 40
0.09
  9
$DIMTSZ
 40
0.0
  9
$DIMTOL
 70
     0
  9
$DIMLIM
 70
     0
  9
$DIMTIH
 70
     1
  9
$DIMTOH
 70
     1
  9
$DIMSE1
 70
     0
  9
$DIMSE2
 70
     0
  9
$DIMTAD
 70
     0
  9
$DIMZIN
 70
     0
  9
$DIMBLK
  1

  9
$DIMASO
 70
     1
  9
$DIMSHO
 70
     1
  9
$DIMPOST
  1

  9
$DIMAPOST
  1

  9
$DIMALT
 70
     0
  9
$DIMALTD
 70
     2
  9
$DIMALTF
 40
25.4
  9
$DIMLFAC
 40
1.0
  9
$DIMTOFL
 70
     0
  9
$DIMTVP
 40
0.0
  9
$DIMTIX
 70
     0
  9
$DIMSOXD
 70
     0
  9
$DIMSAH
 70
     0
  9
$DIMBLK1
  1

  9
$DIMBLK2
  1

  9
$LUNITS
 70
     2
  9
$LUPREC
 70
     4
  9
$SKETCHINC
 40
0.1
  9
$FILLETRAD
 40
0.5
  9
$AUNITS
 70
     0
  9
$AUPREC
 70
     0
  9
$MENU
  1
.
  9
$ELEVATION
 40
0.0
  9
$THICKNESS
 40
0.0
  9
$LIMCHECK
 70
     0
  9
$CHAMFERA
 40
0.0
  9
$CHAMFERB
 40
0.0
  9
$SKPOLY
 70
     0
  9
$TDCREATE
 40
2458885.435559421
  9
$TDUPDATE
 40
2458885.435559491
  9
$TDINDWG
 40
0.0000000116
  9
$TDUSRTIMER
 40
0.0000000116
  9
$USRTIMER
 70
     1
  9
$ANGBASE
 50
0.0
  9
$ANGDIR
 70
     0
  9
$PDMODE
 70
     0
  9
$PDSIZE
 40
0.0
  9
$PLINEWID
 40
0.0
  9
$COORDS
 70
     1
  9
$SPLFRAME
 70
     0
  9
$SPLINETYPE
 70
     6
  9
$SPLINESEGS
 70
     8
  9
$ATTDIA
 70
     0
  9
$ATTREQ
 70
     1
  9
$SURFTAB1
 70
     6
  9
$SURFTAB2
 70
     6
  9
$SURFTYPE
 70
     6
  9
$SURFU
 70
     6
  9
$SURFV
 70
     6
  9
$UCSNAME
  2

  9
$UCSORG
 10
0.0
 20
0.0
 30
0.0
  9
$UCSXDIR
 10
1.0
 20
0.0
 30
0.0
  9
$UCSYDIR
 10
0.0
 20
1.0
 30
0.0
  9
$USERI1
 70
     0
  9
$USERI2
 70
     0
  9
$USERI3
 70
     0
  9
$USERI4
 70
     0
  9
$USERI5
 70
     0
  9
$USERR1
 40
0.0
  9
$USERR2
 40
0.0
  9
$USERR3
 40
0.0
  9
$USERR4
 40
0.0
  9
$USERR5
 40
0.0
  9
$WORLDVIEW
 70
     1
  0
ENDSEC
  0
SECTION
  2
TABLES
  0
TABLE
  2
LTYPE
 70
     1
  0
LTYPE
  2
CONTINUOUS
 70
     0
  3
Solid line
 72
    65
 73
     0
 40
0.0
  0
ENDTAB
  0
TABLE
  2
LAYER
 70
     2
  0
LAYER
  2
0
 70
     0
 62
     7
  6
CONTINUOUS
  0
LAYER
  2
LAYER_1
 70
     0
 62
     7
  6
CONTINUOUS
  0
ENDTAB
  0
TABLE
  2
STYLE
 70
     1
  0
STYLE
  2
STANDARD
 70
     0
 40
0.0
 41
1.0
 50
0.0
 71
     0
 42
0.2
  3
txt
  4

  0
ENDTAB
  0
TABLE
  2
VIEW
 70
     0
  0
ENDTAB
  0
ENDSEC
  0
SECTION
  2
BLOCKS
  0
ENDSEC
  0
SECTION
  2
ENTITIES
  0
POLYLINE
  8
LAYER_1
 62
   250
 66
     1
 70
     1
  0
VERTEX
  8
LAYER_1
 62
   250
 10
160.299
 20
-38.8704
  0
VERTEX
  8
LAYER_1
 62
   250
 10
160.2494
 20
-38.7819
  0
VERTEX
  8
LAYER_1
 62
   250
 10
160.1999
 20
-38.6125
  0
VERTEX
  8
LAYER_1
 62
   250
 10
160.1602
 20
-38.3867
  0
VERTEX
  8
LAYER_1
 62
   250
 10
160.1403
 20
-38.1296
  0
VERTEX
  8
LAYER_1
 62
   250
 10
160.1483
 20
-37.8651
  0
VERTEX
  8
LAYER_1
 62
   250
 10
160.1844
 20
-37.6148
  0
VERTEX
  8
LAYER_1
 62
   250
 10
160.2125
 20
-37.5013
  0
VERTEX
  8
LAYER_1
 62
   250
 10
160.247
 20
-37.3991
  0
VERTEX
  8
LAYER_1
 62
   250
 10
160.2876
 20
-37.3107
  0
VERTEX
  8
LAYER_1
 62
   250
 10
160.3343
 20
-37.2388
  0
VERTEX
  8
LAYER_1
 62
   250
 10
160.3867
 20
-37.1848
  0
VERTEX
  8
LAYER_1
 62
   250
 10
160.4444
 20
-37.146
  0
VERTEX
  8
LAYER_1
 62
   250
 10
160.5066
 20
-37.1184
  0
VERTEX
  8
LAYER_1
 62
   250
 10
160.573
 20
-37.0983
  0
VERTEX
  8
LAYER_1
 62
   250
 10
160.7157
 20
-37.0646
  0
VERTEX
  8
LAYER_1
 62
   250
 10
160.8679
 20
-37.0139
  0
VERTEX
  8
LAYER_1
 62
   250
 10
161.0259
 20
-36.9215
  0
VERTEX
  8
LAYER_1
 62
   250
 10
161.1893
 20
-36.7874
  0
VERTEX
  8
LAYER_1
 62
   250
 10
161.3585
 20
-36.6176
  0
VERTEX
  8
LAYER_1
 62
   250
 10
161.5338
 20
-36.4186
  0
VERTEX
  8
LAYER_1
 62
   250
 10
161.7159
 20
-36.1984
  0
VERTEX
  8
LAYER_1
 62
   250
 10
161.9054
 20
-35.9732
  0
VERTEX
  8
LAYER_1
 62
   250
 10
162.1031
 20
-35.7612
  0
VERTEX
  8
LAYER_1
 62
   250
 10
162.3099
 20
-35.5807
  0
VERTEX
  8
LAYER_1
 62
   250
 10
162.4169
 20
-35.5077
  0
VERTEX
  8
LAYER_1
 62
   250
 10
162.5255
 20
-35.4478
  0
VERTEX
  8
LAYER_1
 62
   250
 10
162.6351
 20
-35.4017
  0
VERTEX
  8
LAYER_1
 62
   250
 10
162.7448
 20
-35.3702
  0
VERTEX
  8
LAYER_1
 62
   250
 10
162.8539
 20
-35.354
  0
VERTEX
  8
LAYER_1
 62
   250
 10
162.9617
 20
-35.3538
  0
VERTEX
  8
LAYER_1
 62
   250
 10
163.0672
 20
-35.3703
  0
VERTEX
  8
LAYER_1
 62
   250
 10
163.1698
 20
-35.4043
  0
VERTEX
  8
LAYER_1
 62
   250
 10
163.3639
 20
-35.5208
  0
VERTEX
  8
LAYER_1
 62
   250
 10
163.5419
 20
-35.6745
  0
VERTEX
  8
LAYER_1
 62
   250
 10
163.7025
 20
-35.8298
  0
VERTEX
  8
LAYER_1
 62
   250
 10
163.8445
 20
-35.9512
  0
VERTEX
  8
LAYER_1
 62
   250
 10
163.9085
 20
-35.989
  0
VERTEX
  8
LAYER_1
 62
   250
 10
163.9696
 20
-36.0105
  0
VERTEX
  8
LAYER_1
 62
   250
 10
164.0297
 20
-36.0166
  0
VERTEX
  8
LAYER_1
 62
   250
 10
164.0909
 20
-36.0085
  0
VERTEX
  8
LAYER_1
 62
   250
 10
164.2247
 20
-35.9536
  0
VERTEX
  8
LAYER_1
 62
   250
 10
164.3869
 20
-35.8541
  0
VERTEX
  8
LAYER_1
 62
   250
 10
164.589
 20
-35.7218
  0
VERTEX
  8
LAYER_1
 62
   250
 10
164.8224
 20
-35.5824
  0
VERTEX
  8
LAYER_1
 62
   250
 10
164.9468
 20
-35.5193
  0
VERTEX
  8
LAYER_1
 62
   250
 10
165.074
 20
-35.4654
  0
VERTEX
  8
LAYER_1
 62
   250
 10
165.2025
 20
-35.4244
  0
VERTEX
  8
LAYER_1
 62
   250
 10
165.3306
 20
-35.4
  0
VERTEX
  8
LAYER_1
 62
   250
 10
165.4567
 20
-35.3948
  0
VERTEX
  8
LAYER_1
 62
   250
 10
165.5794
 20
-35.4069
  0
VERTEX
  8
LAYER_1
 62
   250
 10
165.6973
 20
-35.4334
  0
VERTEX
  8
LAYER_1
 62
   250
 10
165.8091
 20
-35.4716
  0
VERTEX
  8
LAYER_1
 62
   250
 10
166.0091
 20
-35.5711
  0
VERTEX
  8
LAYER_1
 62
   250
 10
166.1685
 20
-35.6821
  0
VERTEX
  8
LAYER_1
 62
   250
 10
166.2816
 20
-35.7834
  0
VERTEX
  8
LAYER_1
 62
   250
 10
166.3625
 20
-35.8607
  0
VERTEX
  8
LAYER_1
 62
   250
 10
166.3968
 20
-35.8865
  0
VERTEX
  8
LAYER_1
 62
   250
 10
166.4302
 20
-35.9017
  0
VERTEX
  8
LAYER_1
 62
   250
 10
166.465
 20
-35.9046
  0
VERTEX
  8
LAYER_1
 62
   250
 10
166.5036
 20
-35.8938
  0
VERTEX
  8
LAYER_1
 62
   250
 10
166.5989
 20
-35.8321
  0
VERTEX
  8
LAYER_1
 62
   250
 10
166.7202
 20
-35.7406
  0
VERTEX
  8
LAYER_1
 62
   250
 10
166.7911
 20
-35.6935
  0
VERTEX
  8
LAYER_1
 62
   250
 10
166.8688
 20
-35.6508
  0
VERTEX
  8
LAYER_1
 62
   250
 10
166.9538
 20
-35.6163
  0
VERTEX
  8
LAYER_1
 62
   250
 10
167.046
 20
-35.594
  0
VERTEX
  8
LAYER_1
 62
   250
 10
167.1453
 20
-35.5871
  0
VERTEX
  8
LAYER_1
 62
   250
 10
167.2499
 20
-35.5959
  0
VERTEX
  8
LAYER_1
 62
   250
 10
167.3577
 20
-35.6198
  0
VERTEX
  8
LAYER_1
 62
   250
 10
167.4666
 20
-35.6585
  0
VERTEX
  8
LAYER_1
 62
   250
 10
167.5744
 20
-35.7114
  0
VERTEX
  8
LAYER_1
 62
   250
 10
167.6791
 20
-35.7782
  0
VERTEX
  8
LAYER_1
 62
   250
 10
167.7786
 20
-35.8583
  0
VERTEX
  8
LAYER_1
 62
   250
 10
167.8706
 20
-35.9512
  0
VERTEX
  8
LAYER_1
 62
   250
 10
168.028
 20
-36.1678
  0
VERTEX
  8
LAYER_1
 62
   250
 10
168.154
 20
-36.3938
  0
VERTEX
  8
LAYER_1
 62
   250
 10
168.2551
 20
-36.5892
  0
VERTEX
  8
LAYER_1
 62
   250
 10
168.338
 20
-36.714
  0
VERTEX
  8
LAYER_1
 62
   250
 10
168.3749
 20
-36.739
  0
VERTEX
  8
LAYER_1
 62
   250
 10
168.4105
 20
-36.7408
  0
VERTEX
  8
LAYER_1
 62
   250
 10
168.4466
 20
-36.724
  0
VERTEX
  8
LAYER_1
 62
   250
 10
168.4847
 20
-36.6931
  0
VERTEX
  8
LAYER_1
 62
   250
 10
168.5737
 20
-36.6074
  0
VERTEX
  8
LAYER_1
 62
   250
 10
168.6908
 20
-36.52
  0
VERTEX
  8
LAYER_1
 62
   250
 10
168.844
 20
-36.4612
  0
VERTEX
  8
LAYER_1
 62
   250
 10
169.0205
 20
-36.4368
  0
VERTEX
  8
LAYER_1
 62
   250
 10
169.2018
 20
-36.4463
  0
VERTEX
  8
LAYER_1
 62
   250
 10
169.3699
 20
-36.4892
  0
VERTEX
  8
LAYER_1
 62
   250
 10
169.6323
 20
-36.6468
  0
VERTEX
  8
LAYER_1
 62
   250
 10
169.855
 20
-36.7714
  0
VERTEX
  8
LAYER_1
 62
   250
 10
169.9775
 20
-36.7762
  0
VERTEX
  8
LAYER_1
 62
   250
 10
170.1174
 20
-36.7499
  0
VERTEX
  8
LAYER_1
 62
   250
 10
170.2804
 20
-36.7112
  0
VERTEX
  8
LAYER_1
 62
   250
 10
170.4724
 20
-36.6787
  0
VERTEX
  8
LAYER_1
 62
   250
 10
170.6964
 20
-36.6705
  0
VERTEX
  8
LAYER_1
 62
   250
 10
170.9448
 20
-36.7025
  0
VERTEX
  8
LAYER_1
 62
   250
 10
171.0749
 20
-36.7383
  0
VERTEX
  8
LAYER_1
 62
   250
 10
171.2072
 20
-36.7898
  0
VERTEX
  8
LAYER_1
 62
   250
 10
171.3405
 20
-36.859
  0
VERTEX
  8
LAYER_1
 62
   250
 10
171.4734
 20
-36.9478
  0
VERTEX
  8
LAYER_1
 62
   250
 10
171.6047
 20
-37.0572
  0
VERTEX
  8
LAYER_1
 62
   250
 10
171.7334
 20
-37.1845
  0
VERTEX
  8
LAYER_1
 62
   250
 10
171.8587
 20
-37.3261
  0
VERTEX
  8
LAYER_1
 62
   250
 10
171.9794
 20
-37.4786
  0
VERTEX
  8
LAYER_1
 62
   250
 10
172.2039
 20
-37.8016
  0
VERTEX
  8
LAYER_1
 62
   250
 10
172.3994
 20
-38.1251
  0
VERTEX
  8
LAYER_1
 62
   250
 10
172.5609
 20
-38.4233
  0
VERTEX
  8
LAYER_1
 62
   250
 10
172.6922
 20
-38.6819
  0
VERTEX
  8
LAYER_1
 62
   250
 10
172.7994
 20
-38.8891
  0
VERTEX
  8
LAYER_1
 62
   250
 10
172.8889
 20
-39.0335
  0
VERTEX
  8
LAYER_1
 62
   250
 10
172.9289
 20
-39.0791
  0
VERTEX
  8
LAYER_1
 62
   250
 10
172.9665
 20
-39.1083
  0
VERTEX
  8
LAYER_1
 62
   250
 10
173.0022
 20
-39.1231
  0
VERTEX
  8
LAYER_1
 62
   250
 10
173.0366
 20
-39.1256
  0
VERTEX
  8
LAYER_1
 62
   250
 10
173.1035
 20
-39.1024
  0
VERTEX
  8
LAYER_1
 62
   250
 10
173.1711
 20
-39.0556
  0
VERTEX
  8
LAYER_1
 62
   250
 10
173.2434
 20
-39.0013
  0
VERTEX
  8
LAYER_1
 62
   250
 10
173.3227
 20
-38.9515
  0
VERTEX
  8
LAYER_1
 62
   250
 10
173.4111
 20
-38.9174
  0
VERTEX
  8
LAYER_1
 62
   250
 10
173.5107
 20
-38.9101
  0
VERTEX
  8
LAYER_1
 62
   250
 10
173.7384
 20
-38.9757
  0
VERTEX
  8
LAYER_1
 62
   250
 10
173.9561
 20
-39.0115
  0
VERTEX
  8
LAYER_1
 62
   250
 10
174.0448
 20
-38.9673
  0
VERTEX
  8
LAYER_1
 62
   250
 10
174.1264
 20
-38.8826
  0
VERTEX
  8
LAYER_1
 62
   250
 10
174.2122
 20
-38.7697
  0
VERTEX
  8
LAYER_1
 62
   250
 10
174.3132
 20
-38.6411
  0
VERTEX
  8
LAYER_1
 62
   250
 10
174.4374
 20
-38.5094
  0
VERTEX
  8
LAYER_1
 62
   250
 10
174.579
 20
-38.3881
  0
VERTEX
  8
LAYER_1
 62
   250
 10
174.7287
 20
-38.2907
  0
VERTEX
  8
LAYER_1
 62
   250
 10
174.8777
 20
-38.231
  0
VERTEX
  8
LAYER_1
 62
   250
 10
175.1495
 20
-38.2233
  0
VERTEX
  8
LAYER_1
 62
   250
 10
175.3848
 20
-38.1957
  0
VERTEX
  8
LAYER_1
 62
   250
 10
175.6009
 20
-37.9923
  0
VERTEX
  8
LAYER_1
 62
   250
 10
175.8699
 20
-37.7327
  0
VERTEX
  8
LAYER_1
 62
   250
 10
175.9551
 20
-37.6808
  0
VERTEX
  8
LAYER_1
 62
   250
 10
176.0476
 20
-37.6381
  0
VERTEX
  8
LAYER_1
 62
   250
 10
176.1463
 20
-37.6057
  0
VERTEX
  8
LAYER_1
 62
   250
 10
176.2497
 20
-37.5844
  0
VERTEX
  8
LAYER_1
 62
   250
 10
176.3567
 20
-37.5754
  0
VERTEX
  8
LAYER_1
 62
   250
 10
176.4659
 20
-37.5795
  0
VERTEX
  8
LAYER_1
 62
   250
 10
176.576
 20
-37.5978
  0
VERTEX
  8
LAYER_1
 62
   250
 10
176.6857
 20
-37.6312
  0
VERTEX
  8
LAYER_1
 62
   250
 10
176.7938
 20
-37.6801
  0
VERTEX
  8
LAYER_1
 62
   250
 10
176.8992
 20
-37.7421
  0
VERTEX
  8
LAYER_1
 62
   250
 10
177.0006
 20
-37.8141
  0
VERTEX
  8
LAYER_1
 62
   250
 10
177.097
 20
-37.8931
  0
VERTEX
  8
LAYER_1
 62
   250
 10
177.2699
 20
-38.0598
  0
VERTEX
  8
LAYER_1
 62
   250
 10
177.4089
 20
-38.2178
  0
VERTEX
  8
LAYER_1
 62
   250
 10
177.5088
 20
-38.3451
  0
VERTEX
  8
LAYER_1
 62
   250
 10
177.5798
 20
-38.4295
  0
VERTEX
  8
LAYER_1
 62
   250
 10
177.6088
 20
-38.4524
  0
VERTEX
  8
LAYER_1
 62
   250
 10
177.6359
 20
-38.4609
  0
VERTEX
  8
LAYER_1
 62
   250
 10
177.6627
 20
-38.4537
  0
VERTEX
  8
LAYER_1
 62
   250
 10
177.6911
 20
-38.4295
  0
VERTEX
  8
LAYER_1
 62
   250
 10
177.7586
 20
-38.3326
  0
VERTEX
  8
LAYER_1
 62
   250
 10
177.8471
 20
-38.1968
  0
VERTEX
  8
LAYER_1
 62
   250
 10
177.9018
 20
-38.125
  0
VERTEX
  8
LAYER_1
 62
   250
 10
177.9646
 20
-38.0561
  0
VERTEX
  8
LAYER_1
 62
   250
 10
178.0367
 20
-37.9945
  0
VERTEX
  8
LAYER_1
 62
   250
 10
178.1189
 20
-37.9443
  0
VERTEX
  8
LAYER_1
 62
   250
 10
178.2116
 20
-37.909
  0
VERTEX
  8
LAYER_1
 62
   250
 10
178.3124
 20
-37.8886
  0
VERTEX
  8
LAYER_1
 62
   250
 10
178.4183
 20
-37.8821
  0
VERTEX
  8
LAYER_1
 62
   250
 10
178.5263
 20
-37.8887
  0
VERTEX
  8
LAYER_1
 62
   250
 10
178.6331
 20
-37.9075
  0
VERTEX
  8
LAYER_1
 62
   250
 10
178.7359
 20
-37.9376
  0
VERTEX
  8
LAYER_1
 62
   250
 10
178.8316
 20
-37.9781
  0
VERTEX
  8
LAYER_1
 62
   250
 10
178.9171
 20
-38.0282
  0
VERTEX
  8
LAYER_1
 62
   250
 10
179.1547
 20
-38.2834
  0
VERTEX
  8
LAYER_1
 62
   250
 10
179.336
 20
-38.4823
  0
VERTEX
  8
LAYER_1
 62
   250
 10
179.5764
 20
-38.5027
  0
VERTEX
  8
LAYER_1
 62
   250
 10
179.8299
 20
-38.5132
  0
VERTEX
  8
LAYER_1
 62
   250
 10
179.8852
 20
-38.5417
  0
VERTEX
  8
LAYER_1
 62
   250
 10
179.934
 20
-38.5832
  0
VERTEX
  8
LAYER_1
 62
   250
 10
179.9745
 20
-38.6361
  0
VERTEX
  8
LAYER_1
 62
   250
 10
180.0046
 20
-38.699
  0
VERTEX
  8
LAYER_1
 62
   250
 10
180.0226
 20
-38.7704
  0
VERTEX
  8
LAYER_1
 62
   250
 10
180.0265
 20
-38.8487
  0
VERTEX
  8
LAYER_1
 62
   250
 10
180.0143
 20
-38.9325
  0
VERTEX
  8
LAYER_1
 62
   250
 10
179.9842
 20
-39.0203
  0
VERTEX
  8
LAYER_1
 62
   250
 10
179.9353
 20
-39.1105
  0
VERTEX
  8
LAYER_1
 62
   250
 10
179.8705
 20
-39.2014
  0
VERTEX
  8
LAYER_1
 62
   250
 10
179.7938
 20
-39.2908
  0
VERTEX
  8
LAYER_1
 62
   250
 10
179.7092
 20
-39.377
  0
VERTEX
  8
LAYER_1
 62
   250
 10
179.5322
 20
-39.532
  0
VERTEX
  8
LAYER_1
 62
   250
 10
179.3713
 20
-39.651
  0
VERTEX
  8
LAYER_1
 62
   250
 10
179.2512
 20
-39.7222
  0
VERTEX
  8
LAYER_1
 62
   250
 10
179.1679
 20
-39.748
  0
VERTEX
  8
LAYER_1
 62
   250
 10
179.1102
 20
-39.734
  0
VERTEX
  8
LAYER_1
 62
   250
 10
179.067
 20
-39.6862
  0
VERTEX
  8
LAYER_1
 62
   250
 10
179.0281
 20
-39.6133
  0
VERTEX
  8
LAYER_1
 62
   250
 10
178.9871
 20
-39.5363
  0
VERTEX
  8
LAYER_1
 62
   250
 10
178.9641
 20
-39.5037
  0
VERTEX
  8
LAYER_1
 62
   250
 10
178.9387
 20
-39.4791
  0
VERTEX
  8
LAYER_1
 62
   250
 10
178.91
 20
-39.4654
  0
VERTEX
  8
LAYER_1
 62
   250
 10
178.8774
 20
-39.4657
  0
VERTEX
  8
LAYER_1
 62
   250
 10
178.7997
 20
-39.5127
  0
VERTEX
  8
LAYER_1
 62
   250
 10
178.7087
 20
-39.6068
  0
VERTEX
  8
LAYER_1
 62
   250
 10
178.6095
 20
-39.7274
  0
VERTEX
  8
LAYER_1
 62
   250
 10
178.507
 20
-39.8538
  0
VERTEX
  8
LAYER_1
 62
   250
 10
178.4037
 20
-39.9657
  0
VERTEX
  8
LAYER_1
 62
   250
 10
178.2926
 20
-40.0445
  0
VERTEX
  8
LAYER_1
 62
   250
 10
178.2311
 20
-40.0658
  0
VERTEX
  8
LAYER_1
 62
   250
 10
178.1641
 20
-40.072
  0
VERTEX
  8
LAYER_1
 62
   250
 10
178.0903
 20
-40.0609
  0
VERTEX
  8
LAYER_1
 62
   250
 10
178.0087
 20
-40.0301
  0
VERTEX
  8
LAYER_1
 62
   250
 10
177.8193
 20
-39.9089
  0
VERTEX
  8
LAYER_1
 62
   250
 10
177.598
 20
-39.7314
  0
VERTEX
  8
LAYER_1
 62
   250
 10
177.3495
 20
-39.5291
  0
VERTEX
  8
LAYER_1
 62
   250
 10
177.0782
 20
-39.3334
  0
VERTEX
  8
LAYER_1
 62
   250
 10
176.9356
 20
-39.2474
  0
VERTEX
  8
LAYER_1
 62
   250
 10
176.7897
 20
-39.1716
  0
VERTEX
  8
LAYER_1
 62
   250
 10
176.6419
 20
-39.1071
  0
VERTEX
  8
LAYER_1
 62
   250
 10
176.4934
 20
-39.0545
  0
VERTEX
  8
LAYER_1
 62
   250
 10
176.3455
 20
-39.0148
  0
VERTEX
  8
LAYER_1
 62
   250
 10
176.1995
 20
-38.9886
  0
VERTEX
  8
LAYER_1
 62
   250
 10
176.0567
 20
-38.977
  0
VERTEX
  8
LAYER_1
 62
   250
 10
175.9184
 20
-38.9806
  0
VERTEX
  8
LAYER_1
 62
   250
 10
175.7858
 20
-38.9999
  0
VERTEX
  8
LAYER_1
 62
   250
 10
175.6595
 20
-39.033
  0
VERTEX
  8
LAYER_1
 62
   250
 10
175.54
 20
-39.0777
  0
VERTEX
  8
LAYER_1
 62
   250
 10
175.4278
 20
-39.1317
  0
VERTEX
  8
LAYER_1
 62
   250
 10
175.2276
 20
-39.2585
  0
VERTEX
  8
LAYER_1
 62
   250
 10
175.0629
 20
-39.3952
  0
VERTEX
  8
LAYER_1
 62
   250
 10
174.8358
 20
-39.6399
  0
VERTEX
  8
LAYER_1
 62
   250
 10
174.6748
 20
-39.792
  0
VERTEX
  8
LAYER_1
 62
   250
 10
174.5051
 20
-39.8284
  0
VERTEX
  8
LAYER_1
 62
   250
 10
174.3221
 20
-39.8714
  0
VERTEX
  8
LAYER_1
 62
   250
 10
174.1336
 20
-40.0352
  0
VERTEX
  8
LAYER_1
 62
   250
 10
173.9252
 20
-40.2551
  0
VERTEX
  8
LAYER_1
 62
   250
 10
173.8076
 20
-40.3516
  0
VERTEX
  8
LAYER_1
 62
   250
 10
173.6788
 20
-40.4188
  0
VERTEX
  8
LAYER_1
 62
   250
 10
173.6099
 20
-40.4364
  0
VERTEX
  8
LAYER_1
 62
   250
 10
173.5376
 20
-40.4405
  0
VERTEX
  8
LAYER_1
 62
   250
 10
173.462
 20
-40.4293
  0
VERTEX
  8
LAYER_1
 62
   250
 10
173.3828
 20
-40.4006
  0
VERTEX
  8
LAYER_1
 62
   250
 10
173.2136
 20
-40.2901
  0
VERTEX
  8
LAYER_1
 62
   250
 10
173.0317
 20
-40.1283
  0
VERTEX
  8
LAYER_1
 62
   250
 10
172.839
 20
-39.9417
  0
VERTEX
  8
LAYER_1
 62
   250
 10
172.6376
 20
-39.7568
  0
VERTEX
  8
LAYER_1
 62
   250
 10
172.4306
 20
-39.5963
  0
VERTEX
  8
LAYER_1
 62
   250
 10
172.2253
 20
-39.468
  0
VERTEX
  8
LAYER_1
 62
   250
 10
172.0298
 20
-39.376
  0
VERTEX
  8
LAYER_1
 62
   250
 10
171.8526
 20
-39.3246
  0
VERTEX
  8
LAYER_1
 62
   250
 10
171.6996
 20
-39.3124
  0
VERTEX
  8
LAYER_1
 62
   250
 10
171.5677
 20
-39.3158
  0
VERTEX
  8
LAYER_1
 62
   250
 10
171.5079
 20
-39.3144
  0
VERTEX
  8
LAYER_1
 62
   250
 10
171.4514
 20
-39.306
  0
VERTEX
  8
LAYER_1
 62
   250
 10
171.3975
 20
-39.2871
  0
VERTEX
  8
LAYER_1
 62
   250
 10
171.3455
 20
-39.254
  0
VERTEX
  8
LAYER_1
 62
   250
 10
171.2448
 20
-39.1397
  0
VERTEX
  8
LAYER_1
 62
   250
 10
171.1449
 20
-38.9774
  0
VERTEX
  8
LAYER_1
 62
   250
 10
171.0417
 20
-38.7902
  0
VERTEX
  8
LAYER_1
 62
   250
 10
170.931
 20
-38.6014
  0
VERTEX
  8
LAYER_1
 62
   250
 10
170.8095
 20
-38.4316
  0
VERTEX
  8
LAYER_1
 62
   250
 10
170.6763
 20
-38.2911
  0
VERTEX
  8
LAYER_1
 62
   250
 10
170.6054
 20
-38.2343
  0
VERTEX
  8
LAYER_1
 62
   250
 10
170.5316
 20
-38.1878
  0
VERTEX
  8
LAYER_1
 62
   250
 10
170.4549
 20
-38.1526
  0
VERTEX
  8
LAYER_1
 62
   250
 10
170.3753
 20
-38.1296
  0
VERTEX
  8
LAYER_1
 62
   250
 10
170.2092
 20
-38.1189
  0
VERTEX
  8
LAYER_1
 62
   250
 10
170.0419
 20
-38.1368
  0
VERTEX
  8
LAYER_1
 62
   250
 10
169.8836
 20
-38.1587
  0
VERTEX
  8
LAYER_1
 62
   250
 10
169.7447
 20
-38.1604
  0
VERTEX
  8
LAYER_1
 62
   250
 10
169.632
 20
-38.1234
  0
VERTEX
  8
LAYER_1
 62
   250
 10
169.5375
 20
-38.0524
  0
VERTEX
  8
LAYER_1
 62
   250
 10
169.4496
 20
-37.9583
  0
VERTEX
  8
LAYER_1
 62
   250
 10
169.3567
 20
-37.8518
  0
VERTEX
  8
LAYER_1
 62
   250
 10
169.2499
 20
-37.7433
  0
VERTEX
  8
LAYER_1
 62
   250
 10
169.1307
 20
-37.6418
  0
VERTEX
  8
LAYER_1
 62
   250
 10
169.0033
 20
-37.556
  0
VERTEX
  8
LAYER_1
 62
   250
 10
168.8717
 20
-37.4946
  0
VERTEX
  8
LAYER_1
 62
   250
 10
168.6077
 20
-37.4433
  0
VERTEX
  8
LAYER_1
 62
   250
 10
168.3469
 20
-37.3755
  0
VERTEX
  8
LAYER_1
 62
   250
 10
168.2163
 20
-37.2946
  0
VERTEX
  8
LAYER_1
 62
   250
 10
168.073
 20
-37.1881
  0
VERTEX
  8
LAYER_1
 62
   250
 10
167.9023
 20
-37.0717
  0
VERTEX
  8
LAYER_1
 62
   250
 10
167.6899
 20
-36.961
  0
VERTEX
  8
LAYER_1
 62
   250
 10
167.427
 20
-36.8696
  0
VERTEX
  8
LAYER_1
 62
   250
 10
167.1282
 20
-36.8017
  0
VERTEX
  8
LAYER_1
 62
   250
 10
166.8136
 20
-36.7594
  0
VERTEX
  8
LAYER_1
 62
   250
 10
166.5036
 20
-36.7449
  0
VERTEX
  8
LAYER_1
 62
   250
 10
166.215
 20
-36.7573
  0
VERTEX
  8
LAYER_1
 62
   250
 10
165.9513
 20
-36.7846
  0
VERTEX
  8
LAYER_1
 62
   250
 10
165.7123
 20
-36.8119
  0
VERTEX
  8
LAYER_1
 62
   250
 10
165.4982
 20
-36.8243
  0
VERTEX
  8
LAYER_1
 62
   250
 10
165.3071
 20
-36.8114
  0
VERTEX
  8
LAYER_1
 62
   250
 10
165.1305
 20
-36.7807
  0
VERTEX
  8
LAYER_1
 62
   250
 10
164.958
 20
-36.7443
  0
VERTEX
  8
LAYER_1
 62
   250
 10
164.7794
 20
-36.714
  0
VERTEX
  8
LAYER_1
 62
   250
 10
164.5874
 20
-36.7009
  0
VERTEX
  8
LAYER_1
 62
   250
 10
164.3875
 20
-36.7118
  0
VERTEX
  8
LAYER_1
 62
   250
 10
164.1884
 20
-36.7525
  0
VERTEX
  8
LAYER_1
 62
   250
 10
163.9989
 20
-36.8287
  0
VERTEX
  8
LAYER_1
 62
   250
 10
163.8251
 20
-36.9405
  0
VERTEX
  8
LAYER_1
 62
   250
 10
163.6632
 20
-37.0652
  0
VERTEX
  8
LAYER_1
 62
   250
 10
163.5071
 20
-37.1741
  0
VERTEX
  8
LAYER_1
 62
   250
 10
163.3506
 20
-37.2388
  0
VERTEX
  8
LAYER_1
 62
   250
 10
163.2703
 20
-37.2468
  0
VERTEX
  8
LAYER_1
 62
   250
 10
163.1876
 20
-37.2396
  0
VERTEX
  8
LAYER_1
 62
   250
 10
163.1018
 20
-37.2203
  0
VERTEX
  8
LAYER_1
 62
   250
 10
163.0122
 20
-37.192
  0
VERTEX
  8
LAYER_1
 62
   250
 10
162.8186
 20
-37.1204
  0
VERTEX
  8
LAYER_1
 62
   250
 10
162.601
 20
-37.0492
  0
VERTEX
  8
LAYER_1
 62
   250
 10
162.3567
 20
-37.0001
  0
VERTEX
  8
LAYER_1
 62
   250
 10
162.0955
 20
-36.9836
  0
VERTEX
  8
LAYER_1
 62
   250
 10
161.9626
 20
-36.9901
  0
VERTEX
  8
LAYER_1
 62
   250
 10
161.8302
 20
-37.0076
  0
VERTEX
  8
LAYER_1
 62
   250
 10
161.7
 20
-37.0373
  0
VERTEX
  8
LAYER_1
 62
   250
 10
161.5735
 20
-37.08
  0
VERTEX
  8
LAYER_1
 62
   250
 10
161.4522
 20
-37.1363
  0
VERTEX
  8
LAYER_1
 62
   250
 10
161.3368
 20
-37.2046
  0
VERTEX
  8
LAYER_1
 62
   250
 10
161.2275
 20
-37.2828
  0
VERTEX
  8
LAYER_1
 62
   250
 10
161.1248
 20
-37.3689
  0
VERTEX
  8
LAYER_1
 62
   250
 10
160.941
 20
-37.5563
  0
VERTEX
  8
LAYER_1
 62
   250
 10
160.7886
 20
-37.7503
  0
VERTEX
  8
LAYER_1
 62
   250
 10
160.6693
 20
-37.9376
  0
VERTEX
  8
LAYER_1
 62
   250
 10
160.5786
 20
-38.1174
  0
VERTEX
  8
LAYER_1
 62
   250
 10
160.5101
 20
-38.2923
  0
VERTEX
  8
LAYER_1
 62
   250
 10
160.4578
 20
-38.4647
  0
VERTEX
  8
LAYER_1
 62
   250
 10
160.4156
 20
-38.6323
  0
VERTEX
  8
LAYER_1
 62
   250
 10
160.3784
 20
-38.7734
  0
VERTEX
  8
LAYER_1
 62
   250
 10
160.3601
 20
-38.8258
  0
VERTEX
  8
LAYER_1
 62
   250
 10
160.3412
 20
-38.8616
  0
VERTEX
  8
LAYER_1
 62
   250
 10
160.321
 20
-38.8776
  0
VERTEX
  8
LAYER_1
 62
   250
 10
160.299
 20
-38.8704
  0
SEQEND
  8
LAYER_1
 62
   250
  0
POLYLINE
  8
LAYER_1
 62
   250
 66
     1
 70
     1
  0
VERTEX
  8
LAYER_1
 62
   250
 10
181.2629
 20
-40.233
  0
VERTEX
  8
LAYER_1
 62
   250
 10
181.2277
 20
-40.1303
  0
VERTEX
  8
LAYER_1
 62
   250
 10
181.2227
 20
-40.0004
  0
VERTEX
  8
LAYER_1
 62
   250
 10
181.25
 20
-39.8621
  0
VERTEX
  8
LAYER_1
 62
   250
 10
181.3115
 20
-39.7346
  0
VERTEX
  8
LAYER_1
 62
   250
 10
181.3554
 20
-39.6806
  0
VERTEX
  8
LAYER_1
 62
   250
 10
181.4066
 20
-39.6349
  0
VERTEX
  8
LAYER_1
 62
   250
 10
181.4633
 20
-39.5982
  0
VERTEX
  8
LAYER_1
 62
   250
 10
181.5237
 20
-39.5715
  0
VERTEX
  8
LAYER_1
 62
   250
 10
181.5859
 20
-39.5555
  0
VERTEX
  8
LAYER_1
 62
   250
 10
181.6482
 20
-39.5511
  0
VERTEX
  8
LAYER_1
 62
   250
 10
181.7087
 20
-39.5591
  0
VERTEX
  8
LAYER_1
 62
   250
 10
181.7657
 20
-39.5803
  0
VERTEX
  8
LAYER_1
 62
   250
 10
181.9537
 20
-39.7636
  0
VERTEX
  8
LAYER_1
 62
   250
 10
182.1317
 20
-39.9221
  0
VERTEX
  8
LAYER_1
 62
   250
 10
182.3533
 20
-39.8957
  0
VERTEX
  8
LAYER_1
 62
   250
 10
182.5815
 20
-39.8824
  0
VERTEX
  8
LAYER_1
 62
   250
 10
182.7846
 20
-40.0817
  0
VERTEX
  8
LAYER_1
 62
   250
 10
183.0423
 20
-40.3388
  0
VERTEX
  8
LAYER_1
 62
   250
 10
183.2179
 20
-40.4225
  0
VERTEX
  8
LAYER_1
 62
   250
 10
183.4039
 20
-40.4855
  0
VERTEX
  8
LAYER_1
 62
   250
 10
183.4913
 20
-40.5172
  0
VERTEX
  8
LAYER_1
 62
   250
 10
183.57
 20
-40.5534
  0
VERTEX
  8
LAYER_1
 62
   250
 10
183.6362
 20
-40.5972
  0
VERTEX
  8
LAYER_1
 62
   250
 10
183.6861
 20
-40.6519
  0
VERTEX
  8
LAYER_1
 62
   250
 10
183.7174
 20
-40.7196
  0
VERTEX
  8
LAYER_1
 62
   250
 10
183.7333
 20
-40.7981
  0
VERTEX
  8
LAYER_1
 62
   250
 10
183.7385
 20
-40.8841
  0
VERTEX
  8
LAYER_1
 62
   250
 10
183.7377
 20
-40.9744
  0
VERTEX
  8
LAYER_1
 62
   250
 10
183.7367
 20
-41.1549
  0
VERTEX
  8
LAYER_1
 62
   250
 10
183.7677
 20
-41.3134
  0
VERTEX
  8
LAYER_1
 62
   250
 10
183.8058
 20
-41.3771
  0
VERTEX
  8
LAYER_1
 62
   250
 10
183.8593
 20
-41.43
  0
VERTEX
  8
LAYER_1
 62
   250
 10
183.926
 20
-41.4735
  0
VERTEX
  8
LAYER_1
 62
   250
 10
184.0039
 20
-41.5088
  0
VERTEX
  8
LAYER_1
 62
   250
 10
184.1854
 20
-41.5599
  0
VERTEX
  8
LAYER_1
 62
   250
 10
184.3873
 20
-41.5934
  0
VERTEX
  8
LAYER_1
 62
   250
 10
184.5938
 20
-41.6202
  0
VERTEX
  8
LAYER_1
 62
   250
 10
184.7908
 20
-41.6538
  0
VERTEX
  8
LAYER_1
 62
   250
 10
184.8815
 20
-41.6776
  0
VERTEX
  8
LAYER_1
 62
   250
 10
184.9647
 20
-41.7085
  0
VERTEX
  8
LAYER_1
 62
   250
 10
185.0386
 20
-41.7482
  0
VERTEX
  8
LAYER_1
 62
   250
 10
185.1017
 20
-41.7985
  0
VERTEX
  8
LAYER_1
 62
   250
 10
185.1954
 20
-41.9322
  0
VERTEX
  8
LAYER_1
 62
   250
 10
185.2676
 20
-42.0942
  0
VERTEX
  8
LAYER_1
 62
   250
 10
185.3473
 20
-42.2633
  0
VERTEX
  8
LAYER_1
 62
   250
 10
185.4633
 20
-42.4181
  0
VERTEX
  8
LAYER_1
 62
   250
 10
185.6347
 20
-42.5451
  0
VERTEX
  8
LAYER_1
 62
   250
 10
185.8409
 20
-42.662
  0
VERTEX
  8
LAYER_1
 62
   250
 10
185.9474
 20
-42.7246
  0
VERTEX
  8
LAYER_1
 62
   250
 10
186.0511
 20
-42.7942
  0
VERTEX
  8
LAYER_1
 62
   250
 10
186.1482
 20
-42.874
  0
VERTEX
  8
LAYER_1
 62
   250
 10
186.2349
 20
-42.9671
  0
VERTEX
  8
LAYER_1
 62
   250
 10
186.3079
 20
-43.0752
  0
VERTEX
  8
LAYER_1
 62
   250
 10
186.3658
 20
-43.1934
  0
VERTEX
  8
LAYER_1
 62
   250
 10
186.4081
 20
-43.3153
  0
VERTEX
  8
LAYER_1
 62
   250
 10
186.4339
 20
-43.4345
  0
VERTEX
  8
LAYER_1
 62
   250
 10
186.4426
 20
-43.5446
  0
VERTEX
  8
LAYER_1
 62
   250
 10
186.4334
 20
-43.6393
  0
VERTEX
  8
LAYER_1
 62
   250
 10
186.4056
 20
-43.712
  0
VERTEX
  8
LAYER_1
 62
   250
 10
186.3584
 20
-43.7564
  0
VERTEX
  8
LAYER_1
 62
   250
 10
186.2919
 20
-43.768
  0
VERTEX
  8
LAYER_1
 62
   250
 10
186.2085
 20
-43.7497
  0
VERTEX
  8
LAYER_1
 62
   250
 10
186.1116
 20
-43.7066
  0
VERTEX
  8
LAYER_1
 62
   250
 10
186.0043
 20
-43.6434
  0
VERTEX
  8
LAYER_1
 62
   250
 10
185.7715
 20
-43.4767
  0
VERTEX
  8
LAYER_1
 62
   250
 10
185.536
 20
-43.2889
  0
VERTEX
  8
LAYER_1
 62
   250
 10
185.3174
 20
-43.1149
  0
VERTEX
  8
LAYER_1
 62
   250
 10
185.1102
 20
-42.9715
  0
VERTEX
  8
LAYER_1
 62
   250
 10
185.0072
 20
-42.9151
  0
VERTEX
  8
LAYER_1
 62
   250
 10
184.9026
 20
-42.871
  0
VERTEX
  8
LAYER_1
 62
   250
 10
184.7949
 20
-42.8407
  0
VERTEX
  8
LAYER_1
 62
   250
 10
184.6827
 20
-42.8259
  0
VERTEX
  8
LAYER_1
 62
   250
 10
184.4443
 20
-42.8406
  0
VERTEX
  8
LAYER_1
 62
   250
 10
184.2026
 20
-42.8868
  0
VERTEX
  8
LAYER_1
 62
   250
 10
183.9782
 20
-42.9285
  0
VERTEX
  8
LAYER_1
 62
   250
 10
183.7919
 20
-42.9295
  0
VERTEX
  8
LAYER_1
 62
   250
 10
183.7187
 20
-42.9046
  0
VERTEX
  8
LAYER_1
 62
   250
 10
183.658
 20
-42.8629
  0
VERTEX
  8
LAYER_1
 62
   250
 10
183.6076
 20
-42.8067
  0
VERTEX
  8
LAYER_1
 62
   250
 10
183.5654
 20
-42.7386
  0
VERTEX
  8
LAYER_1
 62
   250
 10
183.4968
 20
-42.5758
  0
VERTEX
  8
LAYER_1
 62
   250
 10
183.4348
 20
-42.3938
  0
VERTEX
  8
LAYER_1
 62
   250
 10
183.3647
 20
-42.2101
  0
VERTEX
  8
LAYER_1
 62
   250
 10
183.2821
 20
-42.0353
  0
VERTEX
  8
LAYER_1
 62
   250
 10
183.1855
 20
-41.8782
  0
VERTEX
  8
LAYER_1
 62
   250
 10
183.0732
 20
-41.7478
  0
VERTEX
  8
LAYER_1
 62
   250
 10
182.8169
 20
-41.5684
  0
VERTEX
  8
LAYER_1
 62
   250
 10
182.6101
 20
-41.3972
  0
VERTEX
  8
LAYER_1
 62
   250
 10
182.5277
 20
-41.1373
  0
VERTEX
  8
LAYER_1
 62
   250
 10
182.4668
 20
-40.8393
  0
VERTEX
  8
LAYER_1
 62
   250
 10
182.4027
 20
-40.7023
  0
VERTEX
  8
LAYER_1
 62
   250
 10
182.3144
 20
-40.5819
  0
VERTEX
  8
LAYER_1
 62
   250
 10
182.2091
 20
-40.4822
  0
VERTEX
  8
LAYER_1
 62
   250
 10
182.0942
 20
-40.4072
  0
VERTEX
  8
LAYER_1
 62
   250
 10
181.9758
 20
-40.3594
  0
VERTEX
  8
LAYER_1
 62
   250
 10
181.8567
 20
-40.3342
  0
VERTEX
  8
LAYER_1
 62
   250
 10
181.7383
 20
-40.325
  0
VERTEX
  8
LAYER_1
 62
   250
 10
181.6224
 20
-40.3256
  0
VERTEX
  8
LAYER_1
 62
   250
 10
181.5114
 20
-40.3285
  0
VERTEX
  8
LAYER_1
 62
   250
 10
181.4104
 20
-40.3223
  0
VERTEX
  8
LAYER_1
 62
   250
 10
181.3656
 20
-40.3119
  0
VERTEX
  8
LAYER_1
 62
   250
 10
181.3256
 20
-40.2946
  0
VERTEX
  8
LAYER_1
 62
   250
 10
181.2911
 20
-40.2688
  0
VERTEX
  8
LAYER_1
 62
   250
 10
181.2629
 20
-40.233
  0
SEQEND
  8
LAYER_1
 62
   250
  0
POLYLINE
  8
LAYER_1
 62
   250
 66
     1
 70
     1
  0
VERTEX
  8
LAYER_1
 62
   250
 10
190.8191
 20
-36.0404
  0
VERTEX
  8
LAYER_1
 62
   250
 10
191.0795
 20
-36.0424
  0
VERTEX
  8
LAYER_1
 62
   250
 10
191.3292
 20
-36.0507
  0
VERTEX
  8
LAYER_1
 62
   250
 10
191.5707
 20
-36.0686
  0
VERTEX
  8
LAYER_1
 62
   250
 10
191.8066
 20
-36.0993
  0
VERTEX
  8
LAYER_1
 62
   250
 10
192.0395
 20
-36.146
  0
VERTEX
  8
LAYER_1
 62
   250
 10
192.272
 20
-36.2121
  0
VERTEX
  8
LAYER_1
 62
   250
 10
192.5066
 20
-36.3008
  0
VERTEX
  8
LAYER_1
 62
   250
 10
192.7461
 20
-36.4155
  0
VERTEX
  8
LAYER_1
 62
   250
 10
193.018
 20
-36.5755
  0
VERTEX
  8
LAYER_1
 62
   250
 10
193.2859
 20
-36.7626
  0
VERTEX
  8
LAYER_1
 62
   250
 10
193.547
 20
-36.9723
  0
VERTEX
  8
LAYER_1
 62
   250
 10
193.7989
 20
-37.1998
  0
VERTEX
  8
LAYER_1
 62
   250
 10
194.0389
 20
-37.4405
  0
VERTEX
  8
LAYER_1
 62
   250
 10
194.2644
 20
-37.6897
  0
VERTEX
  8
LAYER_1
 62
   250
 10
194.4729
 20
-37.9428
  0
VERTEX
  8
LAYER_1
 62
   250
 10
194.6617
 20
-38.1951
  0
VERTEX
  8
LAYER_1
 62
   250
 10
194.8856
 20
-38.5381
  0
VERTEX
  8
LAYER_1
 62
   250
 10
195.0706
 20
-38.8812
  0
VERTEX
  8
LAYER_1
 62
   250
 10
195.2206
 20
-39.2274
  0
VERTEX
  8
LAYER_1
 62
   250
 10
195.3398
 20
-39.5798
  0
VERTEX
  8
LAYER_1
 62
   250
 10
195.432
 20
-39.9414
  0
VERTEX
  8
LAYER_1
 62
   250
 10
195.5015
 20
-40.3154
  0
VERTEX
  8
LAYER_1
 62
   250
 10
195.5522
 20
-40.7048
  0
VERTEX
  8
LAYER_1
 62
   250
 10
195.5882
 20
-41.1127
  0
VERTEX
  8
LAYER_1
 62
   250
 10
195.6206
 20
-41.7313
  0
VERTEX
  8
LAYER_1
 62
   250
 10
195.6334
 20
-42.354
  0
VERTEX
  8
LAYER_1
 62
   250
 10
195.6319
 20
-42.977
  0
VERTEX
  8
LAYER_1
 62
   250
 10
195.6216
 20
-43.5965
  0
VERTEX
  8
LAYER_1
 62
   250
 10
195.5183
 20
-46.551
  0
VERTEX
  8
LAYER_1
 62
   250
 10
195.5068
 20
-46.631
  0
VERTEX
  8
LAYER_1
 62
   250
 10
195.4803
 20
-46.705
  0
VERTEX
  8
LAYER_1
 62
   250
 10
195.4406
 20
-46.7713
  0
VERTEX
  8
LAYER_1
 62
   250
 10
195.3892
 20
-46.8285
  0
VERTEX
  8
LAYER_1
 62
   250
 10
195.328
 20
-46.8749
  0
VERTEX
  8
LAYER_1
 62
   250
 10
195.2586
 20
-46.909
  0
VERTEX
  8
LAYER_1
 62
   250
 10
195.1827
 20
-46.9293
  0
VERTEX
  8
LAYER_1
 62
   250
 10
195.102
 20
-46.9341
  0
VERTEX
  8
LAYER_1
 62
   250
 10
195.022
 20
-46.9226
  0
VERTEX
  8
LAYER_1
 62
   250
 10
194.948
 20
-46.8961
  0
VERTEX
  8
LAYER_1
 62
   250
 10
194.8817
 20
-46.8564
  0
VERTEX
  8
LAYER_1
 62
   250
 10
194.8245
 20
-46.805
  0
VERTEX
  8
LAYER_1
 62
   250
 10
194.7781
 20
-46.7438
  0
VERTEX
  8
LAYER_1
 62
   250
 10
194.744
 20
-46.6744
  0
VERTEX
  8
LAYER_1
 62
   250
 10
194.7237
 20
-46.5985
  0
VERTEX
  8
LAYER_1
 62
   250
 10
194.7189
 20
-46.5178
  0
VERTEX
  8
LAYER_1
 62
   250
 10
194.8218
 20
-43.5798
  0
VERTEX
  8
LAYER_1
 62
   250
 10
194.8319
 20
-42.9788
  0
VERTEX
  8
LAYER_1
 62
   250
 10
194.8336
 20
-42.3742
  0
VERTEX
  8
LAYER_1
 62
   250
 10
194.8215
 20
-41.7699
  0
VERTEX
  8
LAYER_1
 62
   250
 10
194.7902
 20
-41.1699
  0
VERTEX
  8
LAYER_1
 62
   250
 10
194.76
 20
-40.8182
  0
VERTEX
  8
LAYER_1
 62
   250
 10
194.7184
 20
-40.4829
  0
VERTEX
  8
LAYER_1
 62
   250
 10
194.6615
 20
-40.1612
  0
VERTEX
  8
LAYER_1
 62
   250
 10
194.5854
 20
-39.8504
  0
VERTEX
  8
LAYER_1
 62
   250
 10
194.4861
 20
-39.5476
  0
VERTEX
  8
LAYER_1
 62
   250
 10
194.3597
 20
-39.2499
  0
VERTEX
  8
LAYER_1
 62
   250
 10
194.2023
 20
-38.9546
  0
VERTEX
  8
LAYER_1
 62
   250
 10
194.0099
 20
-38.6589
  0
VERTEX
  8
LAYER_1
 62
   250
 10
193.8498
 20
-38.4447
  0
VERTEX
  8
LAYER_1
 62
   250
 10
193.6714
 20
-38.2272
  0
VERTEX
  8
LAYER_1
 62
   250
 10
193.4776
 20
-38.0113
  0
VERTEX
  8
LAYER_1
 62
   250
 10
193.2709
 20
-37.8018
  0
VERTEX
  8
LAYER_1
 62
   250
 10
193.0543
 20
-37.6033
  0
VERTEX
  8
LAYER_1
 62
   250
 10
192.8303
 20
-37.4207
  0
VERTEX
  8
LAYER_1
 62
   250
 10
192.6017
 20
-37.2588
  0
VERTEX
  8
LAYER_1
 62
   250
 10
192.3713
 20
-37.1223
  0
VERTEX
  8
LAYER_1
 62
   250
 10
192.1796
 20
-37.0315
  0
VERTEX
  8
LAYER_1
 62
   250
 10
191.9907
 20
-36.9627
  0
VERTEX
  8
LAYER_1
 62
   250
 10
191.8028
 20
-36.9127
  0
VERTEX
  8
LAYER_1
 62
   250
 10
191.6143
 20
-36.8786
  0
VERTEX
  8
LAYER_1
 62
   250
 10
191.2284
 20
-36.8459
  0
VERTEX
  8
LAYER_1
 62
   250
 10
190.8191
 20
-36.8404
  0
VERTEX
  8
LAYER_1
 62
   250
 10
190.7387
 20
-36.8322
  0
VERTEX
  8
LAYER_1
 62
   250
 10
190.6637
 20
-36.8089
  0
VERTEX
  8
LAYER_1
 62
   250
 10
190.5957
 20
-36.7719
  0
VERTEX
  8
LAYER_1
 62
   250
 10
190.5365
 20
-36.723
  0
VERTEX
  8
LAYER_1
 62
   250
 10
190.4876
 20
-36.6638
  0
VERTEX
  8
LAYER_1
 62
   250
 10
190.4506
 20
-36.5958
  0
VERTEX
  8
LAYER_1
 62
   250
 10
190.4273
 20
-36.5208
  0
VERTEX
  8
LAYER_1
 62
   250
 10
190.4191
 20
-36.4404
  0
VERTEX
  8
LAYER_1
 62
   250
 10
190.4273
 20
-36.36
  0
VERTEX
  8
LAYER_1
 62
   250
 10
190.4506
 20
-36.285
  0
VERTEX
  8
LAYER_1
 62
   250
 10
190.4876
 20
-36.217
  0
VERTEX
  8
LAYER_1
 62
   250
 10
190.5365
 20
-36.1578
  0
VERTEX
  8
LAYER_1
 62
   250
 10
190.5957
 20
-36.1089
  0
VERTEX
  8
LAYER_1
 62
   250
 10
190.6637
 20
-36.0719
  0
VERTEX
  8
LAYER_1
 62
   250
 10
190.7387
 20
-36.0486
  0
VERTEX
  8
LAYER_1
 62
   250
 10
190.8191
 20
-36.0404
  0
SEQEND
  8
LAYER_1
 62
   250
  0
POLYLINE
  8
LAYER_1
 62
   250
 66
     1
 70
     1
  0
VERTEX
  8
LAYER_1
 62
   250
 10
199.2726
 20
-36.3844
  0
VERTEX
  8
LAYER_1
 62
   250
 10
199.9256
 20
-36.3896
  0
VERTEX
  8
LAYER_1
 62
   250
 10
200.5668
 20
-36.4161
  0
VERTEX
  8
LAYER_1
 62
   250
 10
200.8857
 20
-36.4423
  0
VERTEX
  8
LAYER_1
 62
   250
 10
201.205
 20
-36.48
  0
VERTEX
  8
LAYER_1
 62
   250
 10
201.5258
 20
-36.531
  0
VERTEX
  8
LAYER_1
 62
   250
 10
201.8493
 20
-36.5974
  0
VERTEX
  8
LAYER_1
 62
   250
 10
202.1991
 20
-36.6866
  0
VERTEX
  8
LAYER_1
 62
   250
 10
202.5524
 20
-36.794
  0
VERTEX
  8
LAYER_1
 62
   250
 10
202.9059
 20
-36.9186
  0
VERTEX
  8
LAYER_1
 62
   250
 10
203.2562
 20
-37.0594
  0
VERTEX
  8
LAYER_1
 62
   250
 10
203.5998
 20
-37.2154
  0
VERTEX
  8
LAYER_1
 62
   250
 10
203.9333
 20
-37.3855
  0
VERTEX
  8
LAYER_1
 62
   250
 10
204.2534
 20
-37.5687
  0
VERTEX
  8
LAYER_1
 62
   250
 10
204.5566
 20
-37.7641
  0
VERTEX
  8
LAYER_1
 62
   250
 10
204.7948
 20
-37.9359
  0
VERTEX
  8
LAYER_1
 62
   250
 10
205.0232
 20
-38.118
  0
VERTEX
  8
LAYER_1
 62
   250
 10
205.2421
 20
-38.3102
  0
VERTEX
  8
LAYER_1
 62
   250
 10
205.4516
 20
-38.5118
  0
VERTEX
  8
LAYER_1
 62
   250
 10
205.652
 20
-38.7227
  0
VERTEX
  8
LAYER_1
 62
   250
 10
205.8434
 20
-38.9423
  0
VERTEX
  8
LAYER_1
 62
   250
 10
206.0261
 20
-39.1703
  0
VERTEX
  8
LAYER_1
 62
   250
 10
206.2003
 20
-39.4062
  0
VERTEX
  8
LAYER_1
 62
   250
 10
206.3883
 20
-39.6868
  0
VERTEX
  8
LAYER_1
 62
   250
 10
206.5556
 20
-39.9667
  0
VERTEX
  8
LAYER_1
 62
   250
 10
206.7095
 20
-40.2538
  0
VERTEX
  8
LAYER_1
 62
   250
 10
206.8574
 20
-40.5559
  0
VERTEX
  8
LAYER_1
 62
   250
 10
206.8844
 20
-40.6321
  0
VERTEX
  8
LAYER_1
 62
   250
 10
206.8953
 20
-40.71
  0
VERTEX
  8
LAYER_1
 62
   250
 10
206.8909
 20
-40.7872
  0
VERTEX
  8
LAYER_1
 62
   250
 10
206.8719
 20
-40.8616
  0
VERTEX
  8
LAYER_1
 62
   250
 10
206.8393
 20
-40.9312
  0
VERTEX
  8
LAYER_1
 62
   250
 10
206.7936
 20
-40.9936
  0
VERTEX
  8
LAYER_1
 62
   250
 10
206.7358
 20
-41.0467
  0
VERTEX
  8
LAYER_1
 62
   250
 10
206.6665
 20
-41.0884
  0
VERTEX
  8
LAYER_1
 62
   250
 10
206.5903
 20
-41.1154
  0
VERTEX
  8
LAYER_1
 62
   250
 10
206.5124
 20
-41.1263
  0
VERTEX
  8
LAYER_1
 62
   250
 10
206.4352
 20
-41.1219
  0
VERTEX
  8
LAYER_1
 62
   250
 10
206.3608
 20
-41.1029
  0
VERTEX
  8
LAYER_1
 62
   250
 10
206.2912
 20
-41.0703
  0
VERTEX
  8
LAYER_1
 62
   250
 10
206.2288
 20
-41.0246
  0
VERTEX
  8
LAYER_1
 62
   250
 10
206.1757
 20
-40.9668
  0
VERTEX
  8
LAYER_1
 62
   250
 10
206.134
 20
-40.8975
  0
VERTEX
  8
LAYER_1
 62
   250
 10
206.0017
 20
-40.6268
  0
VERTEX
  8
LAYER_1
 62
   250
 10
205.8648
 20
-40.3703
  0
VERTEX
  8
LAYER_1
 62
   250
 10
205.7159
 20
-40.1202
  0
VERTEX
  8
LAYER_1
 62
   250
 10
205.5475
 20
-39.8688
  0
VERTEX
  8
LAYER_1
 62
   250
 10
205.3945
 20
-39.6613
  0
VERTEX
  8
LAYER_1
 62
   250
 10
205.2342
 20
-39.4608
  0
VERTEX
  8
LAYER_1
 62
   250
 10
205.0662
 20
-39.2676
  0
VERTEX
  8
LAYER_1
 62
   250
 10
204.8904
 20
-39.082
  0
VERTEX
  8
LAYER_1
 62
   250
 10
204.7066
 20
-38.9045
  0
VERTEX
  8
LAYER_1
 62
   250
 10
204.5145
 20
-38.7354
  0
VERTEX
  8
LAYER_1
 62
   250
 10
204.3139
 20
-38.5752
  0
VERTEX
  8
LAYER_1
 62
   250
 10
204.1046
 20
-38.4241
  0
VERTEX
  8
LAYER_1
 62
   250
 10
203.8328
 20
-38.2492
  0
VERTEX
  8
LAYER_1
 62
   250
 10
203.5451
 20
-38.0849
  0
VERTEX
  8
LAYER_1
 62
   250
 10
203.2446
 20
-37.9322
  0
VERTEX
  8
LAYER_1
 62
   250
 10
202.9348
 20
-37.7921
  0
VERTEX
  8
LAYER_1
 62
   250
 10
202.6191
 20
-37.6655
  0
VERTEX
  8
LAYER_1
 62
   250
 10
202.3008
 20
-37.5534
  0
VERTEX
  8
LAYER_1
 62
   250
 10
201.9833
 20
-37.457
  0
VERTEX
  8
LAYER_1
 62
   250
 10
201.6699
 20
-37.377
  0
VERTEX
  8
LAYER_1
 62
   250
 10
201.3699
 20
-37.3157
  0
VERTEX
  8
LAYER_1
 62
   250
 10
201.0716
 20
-37.269
  0
VERTEX
  8
LAYER_1
 62
   250
 10
200.7741
 20
-37.2349
  0
VERTEX
  8
LAYER_1
 62
   250
 10
200.4768
 20
-37.2114
  0
VERTEX
  8
LAYER_1
 62
   250
 10
199.8793
 20
-37.1885
  0
VERTEX
  8
LAYER_1
 62
   250
 10
199.2726
 20
-37.1844
  0
VERTEX
  8
LAYER_1
 62
   250
 10
199.1922
 20
-37.1762
  0
VERTEX
  8
LAYER_1
 62
   250
 10
199.1172
 20
-37.1529
  0
VERTEX
  8
LAYER_1
 62
   250
 10
199.0492
 20
-37.1159
  0
VERTEX
  8
LAYER_1
 62
   250
 10
198.99
 20
-37.067
  0
VERTEX
  8
LAYER_1
 62
   250
 10
198.9411
 20
-37.0078
  0
VERTEX
  8
LAYER_1
 62
   250
 10
198.9041
 20
-36.9398
  0
VERTEX
  8
LAYER_1
 62
   250
 10
198.8808
 20
-36.8648
  0
VERTEX
  8
LAYER_1
 62
   250
 10
198.8726
 20
-36.7844
  0
VERTEX
  8
LAYER_1
 62
   250
 10
198.8808
 20
-36.704
  0
VERTEX
  8
LAYER_1
 62
   250
 10
198.9041
 20
-36.629
  0
VERTEX
  8
LAYER_1
 62
   250
 10
198.9411
 20
-36.561
  0
VERTEX
  8
LAYER_1
 62
   250
 10
198.99
 20
-36.5018
  0
VERTEX
  8
LAYER_1
 62
   250
 10
199.0492
 20
-36.4529
  0
VERTEX
  8
LAYER_1
 62
   250
 10
199.1172
 20
-36.4159
  0
VERTEX
  8
LAYER_1
 62
   250
 10
199.1922
 20
-36.3926
  0
VERTEX
  8
LAYER_1
 62
   250
 10
199.2726
 20
-36.3844
  0
SEQEND
  8
LAYER_1
 62
   250
  0
POLYLINE
  8
LAYER_1
 62
   250
 66
     1
 70
     1
  0
VERTEX
  8
LAYER_1
 62
   250
 10
203.3416
 20
-52.657
  0
VERTEX
  8
LAYER_1
 62
   250
 10
202.9448
 20
-52.1212
  0
VERTEX
  8
LAYER_1
 62
   250
 10
202.9102
 20
-52.065
  0
VERTEX
  8
LAYER_1
 62
   250
 10
202.8819
 20
-52.0004
  0
VERTEX
  8
LAYER_1
 62
   250
 10
202.8593
 20
-51.9149
  0
VERTEX
  8
LAYER_1
 62
   250
 10
202.8418
 20
-51.796
  0
VERTEX
  8
LAYER_1
 62
   250
 10
202.819
 20
-51.408
  0
VERTEX
  8
LAYER_1
 62
   250
 10
202.8081
 20
-50.7365
  0
VERTEX
  8
LAYER_1
 62
   250
 10
202.8434
 20
-46.362
  0
VERTEX
  8
LAYER_1
 62
   250
 10
202.858
 20
-45.9995
  0
VERTEX
  8
LAYER_1
 62
   250
 10
202.8761
 20
-45.7238
  0
VERTEX
  8
LAYER_1
 62
   250
 10
202.8985
 20
-45.5229
  0
VERTEX
  8
LAYER_1
 62
   250
 10
202.9261
 20
-45.3842
  0
VERTEX
  8
LAYER_1
 62
   250
 10
202.96
 20
-45.2955
  0
VERTEX
  8
LAYER_1
 62
   250
 10
203.001
 20
-45.2446
  0
VERTEX
  8
LAYER_1
 62
   250
 10
203.05
 20
-45.2191
  0
VERTEX
  8
LAYER_1
 62
   250
 10
203.108
 20
-45.2067
  0
VERTEX
  8
LAYER_1
 62
   250
 10
203.2502
 20
-45.1893
  0
VERTEX
  8
LAYER_1
 62
   250
 10
203.4123
 20
-45.1797
  0
VERTEX
  8
LAYER_1
 62
   250
 10
203.5743
 20
-45.1825
  0
VERTEX
  8
LAYER_1
 62
   250
 10
203.7165
 20
-45.2023
  0
VERTEX
  8
LAYER_1
 62
   250
 10
203.7744
 20
-45.2222
  0
VERTEX
  8
LAYER_1
 62
   250
 10
203.8224
 20
-45.2611
  0
VERTEX
  8
LAYER_1
 62
   250
 10
203.8604
 20
-45.3328
  0
VERTEX
  8
LAYER_1
 62
   250
 10
203.8885
 20
-45.4509
  0
VERTEX
  8
LAYER_1
 62
   250
 10
203.9067
 20
-45.6292
  0
VERTEX
  8
LAYER_1
 62
   250
 10
203.915
 20
-45.8813
  0
VERTEX
  8
LAYER_1
 62
   250
 10
203.9133
 20
-46.221
  0
VERTEX
  8
LAYER_1
 62
   250
 10
203.9017
 20
-46.6619
  0
VERTEX
  8
LAYER_1
 62
   250
 10
203.637
 20
-51.8323
  0
VERTEX
  8
LAYER_1
 62
   250
 10
203.5488
 20
-53.1089
  0
VERTEX
  8
LAYER_1
 62
   250
 10
203.3416
 20
-52.657
  0
SEQEND
  8
LAYER_1
 62
   250
  0
POLYLINE
  8
LAYER_1
 62
   250
 66
     1
 70
     1
  0
VERTEX
  8
LAYER_1
 62
   250
 10
211.2484
 20
-44.1725
  0
VERTEX
  8
LAYER_1
 62
   250
 10
244.3655
 20
-43.8793
  0
VERTEX
  8
LAYER_1
 62
   250
 10
247.1248
 20
-43.8515
  0
VERTEX
  8
LAYER_1
 62
   250
 10
249.2112
 20
-43.8298
  0
VERTEX
  8
LAYER_1
 62
   250
 10
250.7187
 20
-43.8122
  0
VERTEX
  8
LAYER_1
 62
   250
 10
251.7414
 20
-43.7972
  0
VERTEX
  8
LAYER_1
 62
   250
 10
252.3731
 20
-43.7827
  0
VERTEX
  8
LAYER_1
 62
   250
 10
252.708
 20
-43.767
  0
VERTEX
  8
LAYER_1
 62
   250
 10
252.84
 20
-43.7484
  0
VERTEX
  8
LAYER_1
 62
   250
 10
252.8631
 20
-43.7249
  0
VERTEX
  8
LAYER_1
 62
   250
 10
252.8353
 20
-43.6588
  0
VERTEX
  8
LAYER_1
 62
   250
 10
252.7595
 20
-43.5662
  0
VERTEX
  8
LAYER_1
 62
   250
 10
252.6473
 20
-43.4471
  0
VERTEX
  8
LAYER_1
 62
   250
 10
252.5103
 20
-43.3016
  0
VERTEX
  8
LAYER_1
 62
   250
 10
252.3592
 20
-43.133
  0
VERTEX
  8
LAYER_1
 62
   250
 10
252.2011
 20
-42.9577
  0
VERTEX
  8
LAYER_1
 62
   250
 10
252.0421
 20
-42.7956
  0
VERTEX
  8
LAYER_1
 62
   250
 10
251.8885
 20
-42.6666
  0
VERTEX
  8
LAYER_1
 62
   250
 10
251.8
 20
-42.6202
  0
VERTEX
  8
LAYER_1
 62
   250
 10
251.6213
 20
-42.5861
  0
VERTEX
  8
LAYER_1
 62
   250
 10
251.2594
 20
-42.5636
  0
VERTEX
  8
LAYER_1
 62
   250
 10
250.621
 20
-42.5517
  0
VERTEX
  8
LAYER_1
 62
   250
 10
249.6131
 20
-42.5496
  0
VERTEX
  8
LAYER_1
 62
   250
 10
248.1427
 20
-42.5565
  0
VERTEX
  8
LAYER_1
 62
   250
 10
246.1165
 20
-42.5715
  0
VERTEX
  8
LAYER_1
 62
   250
 10
243.4416
 20
-42.5938
  0
VERTEX
  8
LAYER_1
 62
   250
 10
211.3296
 20
-42.8826
  0
VERTEX
  8
LAYER_1
 62
   250
 10
208.6733
 20
-42.9116
  0
VERTEX
  8
LAYER_1
 62
   250
 10
206.6702
 20
-42.9362
  0
VERTEX
  8
LAYER_1
 62
   250
 10
205.2275
 20
-42.9568
  0
VERTEX
  8
LAYER_1
 62
   250
 10
204.2522
 20
-42.9741
  0
VERTEX
  8
LAYER_1
 62
   250
 10
203.6516
 20
-42.9884
  0
VERTEX
  8
LAYER_1
 62
   250
 10
203.3329
 20
-43.0004
  0
VERTEX
  8
LAYER_1
 62
   250
 10
203.2031
 20
-43.0105
  0
VERTEX
  8
LAYER_1
 62
   250
 10
203.1694
 20
-43.0192
  0
VERTEX
  8
LAYER_1
 62
   250
 10
203.1421
 20
-43.0367
  0
VERTEX
  8
LAYER_1
 62
   250
 10
203.1233
 20
-43.0664
  0
VERTEX
  8
LAYER_1
 62
   250
 10
203.1082
 20
-43.1238
  0
VERTEX
  8
LAYER_1
 62
   250
 10
203.0921
 20
-43.2243
  0
VERTEX
  8
LAYER_1
 62
   250
 10
203.0085
 20
-43.9255
  0
VERTEX
  8
LAYER_1
 62
   250
 10
203.0181
 20
-43.9967
  0
VERTEX
  8
LAYER_1
 62
   250
 10
203.1261
 20
-44.0565
  0
VERTEX
  8
LAYER_1
 62
   250
 10
203.4292
 20
-44.1048
  0
VERTEX
  8
LAYER_1
 62
   250
 10
204.0237
 20
-44.1416
  0
VERTEX
  8
LAYER_1
 62
   250
 10
205.0064
 20
-44.1668
  0
VERTEX
  8
LAYER_1
 62
   250
 10
206.4737
 20
-44.1804
  0
VERTEX
  8
LAYER_1
 62
   250
 10
208.5221
 20
-44.1823
  0
VERTEX
  8
LAYER_1
 62
   250
 10
211.2484
 20
-44.1725
  0
SEQEND
  8
LAYER_1
 62
   250
  0
POLYLINE
  8
LAYER_1
 62
   250
 66
     1
 70
     1
  0
VERTEX
  8
LAYER_1
 62
   250
 10
187.712
 20
-34.1449
  0
VERTEX
  8
LAYER_1
 62
   250
 10
190.1781
 20
-34.1934
  0
VERTEX
  8
LAYER_1
 62
   250
 10
190.5644
 20
-34.196
  0
VERTEX
  8
LAYER_1
 62
   250
 10
190.7908
 20
-34.1727
  0
VERTEX
  8
LAYER_1
 62
   250
 10
190.8598
 20
-34.1446
  0
VERTEX
  8
LAYER_1
 62
   250
 10
190.9077
 20
-34.1019
  0
VERTEX
  8
LAYER_1
 62
   250
 10
190.9407
 20
-34.0419
  0
VERTEX
  8
LAYER_1
 62
   250
 10
190.9652
 20
-33.9618
  0
VERTEX
  8
LAYER_1
 62
   250
 10
191.0931
 20
-32.9719
  0
VERTEX
  8
LAYER_1
 62
   250
 10
191.1117
 20
-32.8836
  0
VERTEX
  8
LAYER_1
 62
   250
 10
191.1682
 20
-32.8142
  0
VERTEX
  8
LAYER_1
 62
   250
 10
191.3005
 20
-32.7617
  0
VERTEX
  8
LAYER_1
 62
   250
 10
191.5467
 20
-32.7241
  0
VERTEX
  8
LAYER_1
 62
   250
 10
191.9449
 20
-32.6994
  0
VERTEX
  8
LAYER_1
 62
   250
 10
192.533
 20
-32.6857
  0
VERTEX
  8
LAYER_1
 62
   250
 10
193.3491
 20
-32.6809
  0
VERTEX
  8
LAYER_1
 62
   250
 10
194.4312
 20
-32.683
  0
VERTEX
  8
LAYER_1
 62
   250
 10
195.7984
 20
-32.6902
  0
VERTEX
  8
LAYER_1
 62
   250
 10
197.3935
 20
-32.7007
  0
VERTEX
  8
LAYER_1
 62
   250
 10
199.1402
 20
-32.713
  0
VERTEX
  8
LAYER_1
 62
   250
 10
200.9624
 20
-32.7255
  0
VERTEX
  8
LAYER_1
 62
   250
 10
202.7839
 20
-32.7365
  0
VERTEX
  8
LAYER_1
 62
   250
 10
204.5285
 20
-32.7444
  0
VERTEX
  8
LAYER_1
 62
   250
 10
206.1199
 20
-32.7477
  0
VERTEX
  8
LAYER_1
 62
   250
 10
207.482
 20
-32.7448
  0
VERTEX
  8
LAYER_1
 62
   250
 10
208.5577
 20
-32.7344
  0
VERTEX
  8
LAYER_1
 62
   250
 10
209.3662
 20
-32.7167
  0
VERTEX
  8
LAYER_1
 62
   250
 10
209.9458
 20
-32.6924
  0
VERTEX
  8
LAYER_1
 62
   250
 10
210.3348
 20
-32.6621
  0
VERTEX
  8
LAYER_1
 62
   250
 10
210.5716
 20
-32.6264
  0
VERTEX
  8
LAYER_1
 62
   250
 10
210.6945
 20
-32.586
  0
VERTEX
  8
LAYER_1
 62
   250
 10
210.7418
 20
-32.5415
  0
VERTEX
  8
LAYER_1
 62
   250
 10
210.7518
 20
-32.4934
  0
VERTEX
  8
LAYER_1
 62
   250
 10
210.7627
 20
-32.39
  0
VERTEX
  8
LAYER_1
 62
   250
 10
210.7805
 20
-32.2845
  0
VERTEX
  8
LAYER_1
 62
   250
 10
210.8082
 20
-32.1865
  0
VERTEX
  8
LAYER_1
 62
   250
 10
210.8488
 20
-32.1054
  0
VERTEX
  8
LAYER_1
 62
   250
 10
210.9045
 20
-32.0482
  0
VERTEX
  8
LAYER_1
 62
   250
 10
210.9748
 20
-32.0117
  0
VERTEX
  8
LAYER_1
 62
   250
 10
211.0588
 20
-31.99
  0
VERTEX
  8
LAYER_1
 62
   250
 10
211.1554
 20
-31.9775
  0
VERTEX
  8
LAYER_1
 62
   250
 10
211.2614
 20
-31.9681
  0
VERTEX
  8
LAYER_1
 62
   250
 10
211.3648
 20
-31.9554
  0
VERTEX
  8
LAYER_1
 62
   250
 10
211.4518
 20
-31.9328
  0
VERTEX
  8
LAYER_1
 62
   250
 10
211.5081
 20
-31.8936
  0
VERTEX
  8
LAYER_1
 62
   250
 10
211.5204
 20
-31.8654
  0
VERTEX
  8
LAYER_1
 62
   250
 10
211.5198
 20
-31.8284
  0
VERTEX
  8
LAYER_1
 62
   250
 10
211.5044
 20
-31.7795
  0
VERTEX
  8
LAYER_1
 62
   250
 10
211.4726
 20
-31.7156
  0
VERTEX
  8
LAYER_1
 62
   250
 10
211.3522
 20
-31.5309
  0
VERTEX
  8
LAYER_1
 62
   250
 10
211.1443
 20
-31.2499
  0
VERTEX
  8
LAYER_1
 62
   250
 10
209.8654
 20
-29.6205
  0
VERTEX
  8
LAYER_1
 62
   250
 10
209.7561
 20
-29.4849
  0
VERTEX
  8
LAYER_1
 62
   250
 10
209.6664
 20
-29.385
  0
VERTEX
  8
LAYER_1
 62
   250
 10
209.5885
 20
-29.3225
  0
VERTEX
  8
LAYER_1
 62
   250
 10
209.5149
 20
-29.2991
  0
VERTEX
  8
LAYER_1
 62
   250
 10
209.438
 20
-29.3165
  0
VERTEX
  8
LAYER_1
 62
   250
 10
209.3502
 20
-29.3762
  0
VERTEX
  8
LAYER_1
 62
   250
 10
209.2438
 20
-29.4799
  0
VERTEX
  8
LAYER_1
 62
   250
 10
209.1114
 20
-29.6293
  0
VERTEX
  8
LAYER_1
 62
   250
 10
208.7585
 20
-30.054
  0
VERTEX
  8
LAYER_1
 62
   250
 10
208.3342
 20
-30.5747
  0
VERTEX
  8
LAYER_1
 62
   250
 10
207.9016
 20
-31.0978
  0
VERTEX
  8
LAYER_1
 62
   250
 10
207.5239
 20
-31.5299
  0
VERTEX
  8
LAYER_1
 62
   250
 10
207.3683
 20
-31.6856
  0
VERTEX
  8
LAYER_1
 62
   250
 10
207.2074
 20
-31.8006
  0
VERTEX
  8
LAYER_1
 62
   250
 10
207.0063
 20
-31.8806
  0
VERTEX
  8
LAYER_1
 62
   250
 10
206.7302
 20
-31.9309
  0
VERTEX
  8
LAYER_1
 62
   250
 10
206.344
 20
-31.9572
  0
VERTEX
  8
LAYER_1
 62
   250
 10
205.813
 20
-31.9649
  0
VERTEX
  8
LAYER_1
 62
   250
 10
205.1023
 20
-31.9595
  0
VERTEX
  8
LAYER_1
 62
   250
 10
204.1769
 20
-31.9466
  0
VERTEX
  8
LAYER_1
 62
   250
 10
193.1889
 20
-31.8187
  0
VERTEX
  8
LAYER_1
 62
   250
 10
191.5838
 20
-31.8091
  0
VERTEX
  8
LAYER_1
 62
   250
 10
190.7389
 20
-31.8344
  0
VERTEX
  8
LAYER_1
 62
   250
 10
190.5239
 20
-31.8668
  0
VERTEX
  8
LAYER_1
 62
   250
 10
190.406
 20
-31.916
  0
VERTEX
  8
LAYER_1
 62
   250
 10
190.354
 20
-31.9848
  0
VERTEX
  8
LAYER_1
 62
   250
 10
190.3369
 20
-32.0757
  0
VERTEX
  8
LAYER_1
 62
   250
 10
190.3093
 20
-33.1726
  0
VERTEX
  8
LAYER_1
 62
   250
 10
190.3008
 20
-33.2668
  0
VERTEX
  8
LAYER_1
 62
   250
 10
190.2841
 20
-33.3393
  0
VERTEX
  8
LAYER_1
 62
   250
 10
190.2543
 20
-33.3927
  0
VERTEX
  8
LAYER_1
 62
   250
 10
190.2061
 20
-33.4296
  0
VERTEX
  8
LAYER_1
 62
   250
 10
190.1345
 20
-33.4525
  0
VERTEX
  8
LAYER_1
 62
   250
 10
190.0344
 20
-33.4639
  0
VERTEX
  8
LAYER_1
 62
   250
 10
189.9007
 20
-33.4664
  0
VERTEX
  8
LAYER_1
 62
   250
 10
189.7283
 20
-33.4625
  0
VERTEX
  8
LAYER_1
 62
   250
 10
187.6954
 20
-33.3688
  0
VERTEX
  8
LAYER_1
 62
   250
 10
187.3732
 20
-33.3608
  0
VERTEX
  8
LAYER_1
 62
   250
 10
187.1814
 20
-33.3654
  0
VERTEX
  8
LAYER_1
 62
   250
 10
187.0818
 20
-33.3814
  0
VERTEX
  8
LAYER_1
 62
   250
 10
187.0361
 20
-33.4074
  0
VERTEX
  8
LAYER_1
 62
   250
 10
186.9997
 20
-33.6334
  0
VERTEX
  8
LAYER_1
 62
   250
 10
187.0383
 20
-34.027
  0
VERTEX
  8
LAYER_1
 62
   250
 10
187.0482
 20
-34.0583
  0
VERTEX
  8
LAYER_1
 62
   250
 10
187.0659
 20
-34.0828
  0
VERTEX
  8
LAYER_1
 62
   250
 10
187.0981
 20
-34.1014
  0
VERTEX
  8
LAYER_1
 62
   250
 10
187.1515
 20
-34.1153
  0
VERTEX
  8
LAYER_1
 62
   250
 10
187.3489
 20
-34.1332
  0
VERTEX
  8
LAYER_1
 62
   250
 10
187.712
 20
-34.1449
  0
SEQEND
  8
LAYER_1
 62
   250
  0
POLYLINE
  8
LAYER_1
 62
   250
 66
     1
 70
     1
  0
VERTEX
  8
LAYER_1
 62
   250
 10
188.0831
 20
-30.5995
  0
VERTEX
  8
LAYER_1
 62
   250
 10
187.8672
 20
-30.6262
  0
VERTEX
  8
LAYER_1
 62
   250
 10
187.6077
 20
-30.6397
  0
VERTEX
  8
LAYER_1
 62
   250
 10
187.346
 20
-30.6441
  0
VERTEX
  8
LAYER_1
 62
   250
 10
187.1239
 20
-30.6436
  0
VERTEX
  8
LAYER_1
 62
   250
 10
187.0395
 20
-30.6409
  0
VERTEX
  8
LAYER_1
 62
   250
 10
186.9733
 20
-30.6275
  0
VERTEX
  8
LAYER_1
 62
   250
 10
186.9236
 20
-30.5928
  0
VERTEX
  8
LAYER_1
 62
   250
 10
186.8883
 20
-30.5262
  0
VERTEX
  8
LAYER_1
 62
   250
 10
186.8655
 20
-30.4173
  0
VERTEX
  8
LAYER_1
 62
   250
 10
186.8532
 20
-30.2554
  0
VERTEX
  8
LAYER_1
 62
   250
 10
186.8496
 20
-30.0301
  0
VERTEX
  8
LAYER_1
 62
   250
 10
186.8527
 20
-29.7308
  0
VERTEX
  8
LAYER_1
 62
   250
 10
186.8608
 20
-29.3522
  0
VERTEX
  8
LAYER_1
 62
   250
 10
186.8734
 20
-28.9103
  0
VERTEX
  8
LAYER_1
 62
   250
 10
186.8901
 20
-28.4261
  0
VERTEX
  8
LAYER_1
 62
   250
 10
186.9106
 20
-27.9208
  0
VERTEX
  8
LAYER_1
 62
   250
 10
186.9346
 20
-27.4157
  0
VERTEX
  8
LAYER_1
 62
   250
 10
186.9619
 20
-26.9318
  0
VERTEX
  8
LAYER_1
 62
   250
 10
186.992
 20
-26.4904
  0
VERTEX
  8
LAYER_1
 62
   250
 10
187.0247
 20
-26.1125
  0
VERTEX
  8
LAYER_1
 62
   250
 10
187.0599
 20
-25.8141
  0
VERTEX
  8
LAYER_1
 62
   250
 10
187.0982
 20
-25.5898
  0
VERTEX
  8
LAYER_1
 62
   250
 10
187.1404
 20
-25.4291
  0
VERTEX
  8
LAYER_1
 62
   250
 10
187.1873
 20
-25.3212
  0
VERTEX
  8
LAYER_1
 62
   250
 10
187.2399
 20
-25.2556
  0
VERTEX
  8
LAYER_1
 62
   250
 10
187.2988
 20
-25.2217
  0
VERTEX
  8
LAYER_1
 62
   250
 10
187.365
 20
-25.2088
  0
VERTEX
  8
LAYER_1
 62
   250
 10
187.4392
 20
-25.2063
  0
VERTEX
  8
LAYER_1
 62
   250
 10
187.6108
 20
-25.2054
  0
VERTEX
  8
LAYER_1
 62
   250
 10
187.7978
 20
-25.211
  0
VERTEX
  8
LAYER_1
 62
   250
 10
187.9803
 20
-25.2302
  0
VERTEX
  8
LAYER_1
 62
   250
 10
188.1382
 20
-25.2702
  0
VERTEX
  8
LAYER_1
 62
   250
 10
188.2022
 20
-25.3014
  0
VERTEX
  8
LAYER_1
 62
   250
 10
188.2558
 20
-25.3466
  0
VERTEX
  8
LAYER_1
 62
   250
 10
188.2998
 20
-25.4129
  0
VERTEX
  8
LAYER_1
 62
   250
 10
188.335
 20
-25.5073
  0
VERTEX
  8
LAYER_1
 62
   250
 10
188.3621
 20
-25.6368
  0
VERTEX
  8
LAYER_1
 62
   250
 10
188.3819
 20
-25.8085
  0
VERTEX
  8
LAYER_1
 62
   250
 10
188.3952
 20
-26.0294
  0
VERTEX
  8
LAYER_1
 62
   250
 10
188.4028
 20
-26.3065
  0
VERTEX
  8
LAYER_1
 62
   250
 10
188.3586
 20
-29.411
  0
VERTEX
  8
LAYER_1
 62
   250
 10
188.3411
 20
-30.3724
  0
VERTEX
  8
LAYER_1
 62
   250
 10
188.3327
 20
-30.4386
  0
VERTEX
  8
LAYER_1
 62
   250
 10
188.3006
 20
-30.5017
  0
VERTEX
  8
LAYER_1
 62
   250
 10
188.2242
 20
-30.5569
  0
VERTEX
  8
LAYER_1
 62
   250
 10
188.0831
 20
-30.5995
  0
SEQEND
  8
LAYER_1
 62
   250
  0
POLYLINE
  8
LAYER_1
 62
   250
 66
     1
 70
     1
  0
VERTEX
  8
LAYER_1
 62
   250
 10
191.0662
 20
-27.3032
  0
VERTEX
  8
LAYER_1
 62
   250
 10
193.28
 20
-27.3164
  0
VERTEX
  8
LAYER_1
 62
   250
 10
193.6227
 20
-27.3271
  0
VERTEX
  8
LAYER_1
 62
   250
 10
193.8221
 20
-27.3095
  0
VERTEX
  8
LAYER_1
 62
   250
 10
193.8828
 20
-27.2792
  0
VERTEX
  8
LAYER_1
 62
   250
 10
193.9252
 20
-27.2287
  0
VERTEX
  8
LAYER_1
 62
   250
 10
193.9553
 20
-27.1536
  0
VERTEX
  8
LAYER_1
 62
   250
 10
193.9789
 20
-27.0496
  0
VERTEX
  8
LAYER_1
 62
   250
 10
194.12
 20
-25.6517
  0
VERTEX
  8
LAYER_1
 62
   250
 10
194.1312
 20
-25.5128
  0
VERTEX
  8
LAYER_1
 62
   250
 10
194.1497
 20
-25.3972
  0
VERTEX
  8
LAYER_1
 62
   250
 10
194.1849
 20
-25.3031
  0
VERTEX
  8
LAYER_1
 62
   250
 10
194.2463
 20
-25.2284
  0
VERTEX
  8
LAYER_1
 62
   250
 10
194.3435
 20
-25.171
  0
VERTEX
  8
LAYER_1
 62
   250
 10
194.486
 20
-25.1289
  0
VERTEX
  8
LAYER_1
 62
   250
 10
194.6832
 20
-25.1002
  0
VERTEX
  8
LAYER_1
 62
   250
 10
194.9447
 20
-25.0828
  0
VERTEX
  8
LAYER_1
 62
   250
 10
195.2753
 20
-25.0747
  0
VERTEX
  8
LAYER_1
 62
   250
 10
195.6612
 20
-25.0737
  0
VERTEX
  8
LAYER_1
 62
   250
 10
196.0837
 20
-25.0778
  0
VERTEX
  8
LAYER_1
 62
   250
 10
196.5243
 20
-25.0847
  0
VERTEX
  8
LAYER_1
 62
   250
 10
196.9643
 20
-25.0924
  0
VERTEX
  8
LAYER_1
 62
   250
 10
197.3852
 20
-25.0986
  0
VERTEX
  8
LAYER_1
 62
   250
 10
197.7685
 20
-25.1013
  0
VERTEX
  8
LAYER_1
 62
   250
 10
198.0955
 20
-25.0982
  0
VERTEX
  8
LAYER_1
 62
   250
 10
198.3523
 20
-25.0877
  0
VERTEX
  8
LAYER_1
 62
   250
 10
198.5436
 20
-25.0698
  0
VERTEX
  8
LAYER_1
 62
   250
 10
198.6784
 20
-25.0449
  0
VERTEX
  8
LAYER_1
 62
   250
 10
198.7661
 20
-25.0134
  0
VERTEX
  8
LAYER_1
 62
   250
 10
198.8158
 20
-24.9756
  0
VERTEX
  8
LAYER_1
 62
   250
 10
198.8369
 20
-24.9321
  0
VERTEX
  8
LAYER_1
 62
   250
 10
198.8384
 20
-24.8832
  0
VERTEX
  8
LAYER_1
 62
   250
 10
198.8297
 20
-24.8293
  0
VERTEX
  8
LAYER_1
 62
   250
 10
198.8058
 20
-24.7099
  0
VERTEX
  8
LAYER_1
 62
   250
 10
198.7752
 20
-24.5848
  0
VERTEX
  8
LAYER_1
 62
   250
 10
198.7355
 20
-24.4668
  0
VERTEX
  8
LAYER_1
 62
   250
 10
198.6842
 20
-24.3684
  0
VERTEX
  8
LAYER_1
 62
   250
 10
198.6529
 20
-24.3302
  0
VERTEX
  8
LAYER_1
 62
   250
 10
198.6147
 20
-24.2993
  0
VERTEX
  8
LAYER_1
 62
   250
 10
198.5661
 20
-24.275
  0
VERTEX
  8
LAYER_1
 62
   250
 10
198.5037
 20
-24.2566
  0
VERTEX
  8
LAYER_1
 62
   250
 10
198.3236
 20
-24.2345
  0
VERTEX
  8
LAYER_1
 62
   250
 10
198.047
 20
-24.2273
  0
VERTEX
  8
LAYER_1
 62
   250
 10
196.4132
 20
-24.2361
  0
VERTEX
  8
LAYER_1
 62
   250
 10
196.275
 20
-24.229
  0
VERTEX
  8
LAYER_1
 62
   250
 10
196.1672
 20
-24.2099
  0
VERTEX
  8
LAYER_1
 62
   250
 10
196.0862
 20
-24.17
  0
VERTEX
  8
LAYER_1
 62
   250
 10
196.0281
 20
-24.1005
  0
VERTEX
  8
LAYER_1
 62
   250
 10
195.9894
 20
-23.9926
  0
VERTEX
  8
LAYER_1
 62
   250
 10
195.9663
 20
-23.8374
  0
VERTEX
  8
LAYER_1
 62
   250
 10
195.9552
 20
-23.626
  0
VERTEX
  8
LAYER_1
 62
   250
 10
195.9523
 20
-23.3497
  0
VERTEX
  8
LAYER_1
 62
   250
 10
196.0053
 20
-20.0424
  0
VERTEX
  8
LAYER_1
 62
   250
 10
195.9993
 20
-19.5307
  0
VERTEX
  8
LAYER_1
 62
   250
 10
195.9706
 20
-19.2376
  0
VERTEX
  8
LAYER_1
 62
   250
 10
195.9457
 20
-19.1523
  0
VERTEX
  8
LAYER_1
 62
   250
 10
195.9129
 20
-19.0967
  0
VERTEX
  8
LAYER_1
 62
   250
 10
195.8712
 20
-19.0625
  0
VERTEX
  8
LAYER_1
 62
   250
 10
195.82
 20
-19.0414
  0
VERTEX
  8
LAYER_1
 62
   250
 10
195.6905
 20
-19.0157
  0
VERTEX
  8
LAYER_1
 62
   250
 10
195.5409
 20
-19.0064
  0
VERTEX
  8
LAYER_1
 62
   250
 10
195.3925
 20
-19.0107
  0
VERTEX
  8
LAYER_1
 62
   250
 10
195.2666
 20
-19.0259
  0
VERTEX
  8
LAYER_1
 62
   250
 10
195.2181
 20
-19.0384
  0
VERTEX
  8
LAYER_1
 62
   250
 10
195.1792
 20
-19.0621
  0
VERTEX
  8
LAYER_1
 62
   250
 10
195.1484
 20
-19.106
  0
VERTEX
  8
LAYER_1
 62
   250
 10
195.1244
 20
-19.1795
  0
VERTEX
  8
LAYER_1
 62
   250
 10
195.0912
 20
-19.451
  0
VERTEX
  8
LAYER_1
 62
   250
 10
195.0682
 20
-19.9498
  0
VERTEX
  8
LAYER_1
 62
   250
 10
194.9888
 20
-23.3034
  0
VERTEX
  8
LAYER_1
 62
   250
 10
194.9813
 20
-23.5885
  0
VERTEX
  8
LAYER_1
 62
   250
 10
194.9711
 20
-23.8081
  0
VERTEX
  8
LAYER_1
 62
   250
 10
194.9547
 20
-23.9709
  0
VERTEX
  8
LAYER_1
 62
   250
 10
194.9284
 20
-24.0859
  0
VERTEX
  8
LAYER_1
 62
   250
 10
194.8886
 20
-24.162
  0
VERTEX
  8
LAYER_1
 62
   250
 10
194.8316
 20
-24.2079
  0
VERTEX
  8
LAYER_1
 62
   250
 10
194.7537
 20
-24.2327
  0
VERTEX
  8
LAYER_1
 62
   250
 10
194.6514
 20
-24.245
  0
VERTEX
  8
LAYER_1
 62
   250
 10
194.3731
 20
-24.2577
  0
VERTEX
  8
LAYER_1
 62
   250
 10
194.0388
 20
-24.2657
  0
VERTEX
  8
LAYER_1
 62
   250
 10
193.7048
 20
-24.2782
  0
VERTEX
  8
LAYER_1
 62
   250
 10
193.4277
 20
-24.3045
  0
VERTEX
  8
LAYER_1
 62
   250
 10
193.3264
 20
-24.3259
  0
VERTEX
  8
LAYER_1
 62
   250
 10
193.2498
 20
-24.3547
  0
VERTEX
  8
LAYER_1
 62
   250
 10
193.1943
 20
-24.3926
  0
VERTEX
  8
LAYER_1
 62
   250
 10
193.1565
 20
-24.4412
  0
VERTEX
  8
LAYER_1
 62
   250
 10
193.1195
 20
-24.5774
  0
VERTEX
  8
LAYER_1
 62
   250
 10
193.1102
 20
-24.7763
  0
VERTEX
  8
LAYER_1
 62
   250
 10
193.086
 20
-25.892
  0
VERTEX
  8
LAYER_1
 62
   250
 10
193.0819
 20
-25.9891
  0
VERTEX
  8
LAYER_1
 62
   250
 10
193.0727
 20
-26.0673
  0
VERTEX
  8
LAYER_1
 62
   250
 10
193.0534
 20
-26.129
  0
VERTEX
  8
LAYER_1
 62
   250
 10
193.019
 20
-26.1767
  0
VERTEX
  8
LAYER_1
 62
   250
 10
192.9645
 20
-26.213
  0
VERTEX
  8
LAYER_1
 62
   250
 10
192.8847
 20
-26.2402
  0
VERTEX
  8
LAYER_1
 62
   250
 10
192.7747
 20
-26.261
  0
VERTEX
  8
LAYER_1
 62
   250
 10
192.6295
 20
-26.2779
  0
VERTEX
  8
LAYER_1
 62
   250
 10
190.8656
 20
-26.3771
  0
VERTEX
  8
LAYER_1
 62
   250
 10
190.5944
 20
-26.4028
  0
VERTEX
  8
LAYER_1
 62
   250
 10
190.4409
 20
-26.4408
  0
VERTEX
  8
LAYER_1
 62
   250
 10
190.3967
 20
-26.4676
  0
VERTEX
  8
LAYER_1
 62
   250
 10
190.3679
 20
-26.5014
  0
VERTEX
  8
LAYER_1
 62
   250
 10
190.3501
 20
-26.5435
  0
VERTEX
  8
LAYER_1
 62
   250
 10
190.3386
 20
-26.5953
  0
VERTEX
  8
LAYER_1
 62
   250
 10
190.321
 20
-27.1576
  0
VERTEX
  8
LAYER_1
 62
   250
 10
190.3388
 20
-27.2413
  0
VERTEX
  8
LAYER_1
 62
   250
 10
190.3638
 20
-27.288
  0
VERTEX
  8
LAYER_1
 62
   250
 10
190.3933
 20
-27.3086
  0
VERTEX
  8
LAYER_1
 62
   250
 10
190.4247
 20
-27.3142
  0
VERTEX
  8
LAYER_1
 62
   250
 10
191.0662
 20
-27.3032
  0
SEQEND
  8
LAYER_1
 62
   250
  0
POLYLINE
  8
LAYER_1
 62
   250
 66
     1
 70
     1
  0
VERTEX
  8
LAYER_1
 62
   250
 10
199.7801
 20
-22.3774
  0
VERTEX
  8
LAYER_1
 62
   250
 10
201.1515
 20
-22.3621
  0
VERTEX
  8
LAYER_1
 62
   250
 10
201.2514
 20
-22.3546
  0
VERTEX
  8
LAYER_1
 62
   250
 10
201.3313
 20
-22.3394
  0
VERTEX
  8
LAYER_1
 62
   250
 10
201.3938
 20
-22.3104
  0
VERTEX
  8
LAYER_1
 62
   250
 10
201.4416
 20
-22.2612
  0
VERTEX
  8
LAYER_1
 62
   250
 10
201.4774
 20
-22.1856
  0
VERTEX
  8
LAYER_1
 62
   250
 10
201.5039
 20
-22.0774
  0
VERTEX
  8
LAYER_1
 62
   250
 10
201.5238
 20
-21.9304
  0
VERTEX
  8
LAYER_1
 62
   250
 10
201.5398
 20
-21.7384
  0
VERTEX
  8
LAYER_1
 62
   250
 10
201.619
 20
-19.4229
  0
VERTEX
  8
LAYER_1
 62
   250
 10
201.6227
 20
-19.2161
  0
VERTEX
  8
LAYER_1
 62
   250
 10
201.6214
 20
-19.0517
  0
VERTEX
  8
LAYER_1
 62
   250
 10
201.6114
 20
-18.9242
  0
VERTEX
  8
LAYER_1
 62
   250
 10
201.5889
 20
-18.8281
  0
VERTEX
  8
LAYER_1
 62
   250
 10
201.5502
 20
-18.7578
  0
VERTEX
  8
LAYER_1
 62
   250
 10
201.4915
 20
-18.7078
  0
VERTEX
  8
LAYER_1
 62
   250
 10
201.4091
 20
-18.6726
  0
VERTEX
  8
LAYER_1
 62
   250
 10
201.2992
 20
-18.6467
  0
VERTEX
  8
LAYER_1
 62
   250
 10
200.9972
 20
-18.6089
  0
VERTEX
  8
LAYER_1
 62
   250
 10
200.6311
 20
-18.5919
  0
VERTEX
  8
LAYER_1
 62
   250
 10
200.2617
 20
-18.6017
  0
VERTEX
  8
LAYER_1
 62
   250
 10
199.9498
 20
-18.6445
  0
VERTEX
  8
LAYER_1
 62
   250
 10
199.8325
 20
-18.6806
  0
VERTEX
  8
LAYER_1
 62
   250
 10
199.7414
 20
-18.7305
  0
VERTEX
  8
LAYER_1
 62
   250
 10
199.6728
 20
-18.798
  0
VERTEX
  8
LAYER_1
 62
   250
 10
199.6235
 20
-18.8873
  0
VERTEX
  8
LAYER_1
 62
   250
 10
199.5898
 20
-19.0024
  0
VERTEX
  8
LAYER_1
 62
   250
 10
199.5684
 20
-19.1471
  0
VERTEX
  8
LAYER_1
 62
   250
 10
199.5558
 20
-19.3256
  0
VERTEX
  8
LAYER_1
 62
   250
 10
199.5485
 20
-19.5419
  0
VERTEX
  8
LAYER_1
 62
   250
 10
199.5595
 20
-21.7975
  0
VERTEX
  8
LAYER_1
 62
   250
 10
199.5791
 20
-22.1185
  0
VERTEX
  8
LAYER_1
 62
   250
 10
199.6037
 20
-22.29
  0
VERTEX
  8
LAYER_1
 62
   250
 10
199.6315
 20
-22.3603
  0
VERTEX
  8
LAYER_1
 62
   250
 10
199.661
 20
-22.3774
  0
VERTEX
  8
LAYER_1
 62
   250
 10
199.7801
 20
-22.3774
  0
SEQEND
  8
LAYER_1
 62
   250
  0
POLYLINE
  8
LAYER_1
 62
   250
 66
     1
 70
     1
  0
VERTEX
  8
LAYER_1
 62
   250
 10
198.3711
 20
-27.9866
  0
VERTEX
  8
LAYER_1
 62
   250
 10
198.6953
 20
-27.7881
  0
VERTEX
  8
LAYER_1
 62
   250
 10
199.0753
 20
-27.5591
  0
VERTEX
  8
LAYER_1
 62
   250
 10
199.5033
 20
-27.309
  0
VERTEX
  8
LAYER_1
 62
   250
 10
199.9713
 20
-27.0471
  0
VERTEX
  8
LAYER_1
 62
   250
 10
200.4714
 20
-26.7826
  0
VERTEX
  8
LAYER_1
 62
   250
 10
200.9955
 20
-26.5247
  0
VERTEX
  8
LAYER_1
 62
   250
 10
201.5358
 20
-26.2828
  0
VERTEX
  8
LAYER_1
 62
   250
 10
202.0842
 20
-26.0662
  0
VERTEX
  8
LAYER_1
 62
   250
 10
202.6326
 20
-25.8821
  0
VERTEX
  8
LAYER_1
 62
   250
 10
203.1719
 20
-25.7296
  0
VERTEX
  8
LAYER_1
 62
   250
 10
203.6928
 20
-25.6061
  0
VERTEX
  8
LAYER_1
 62
   250
 10
204.186
 20
-25.5087
  0
VERTEX
  8
LAYER_1
 62
   250
 10
204.6422
 20
-25.4345
  0
VERTEX
  8
LAYER_1
 62
   250
 10
205.0521
 20
-25.3807
  0
VERTEX
  8
LAYER_1
 62
   250
 10
205.4064
 20
-25.3445
  0
VERTEX
  8
LAYER_1
 62
   250
 10
205.6958
 20
-25.3232
  0
VERTEX
  8
LAYER_1
 62
   250
 10
205.9137
 20
-25.3143
  0
VERTEX
  8
LAYER_1
 62
   250
 10
206.0641
 20
-25.3174
  0
VERTEX
  8
LAYER_1
 62
   250
 10
206.1539
 20
-25.3326
  0
VERTEX
  8
LAYER_1
 62
   250
 10
206.1897
 20
-25.3599
  0
VERTEX
  8
LAYER_1
 62
   250
 10
206.1784
 20
-25.3992
  0
VERTEX
  8
LAYER_1
 62
   250
 10
206.1268
 20
-25.4506
  0
VERTEX
  8
LAYER_1
 62
   250
 10
206.0416
 20
-25.5142
  0
VERTEX
  8
LAYER_1
 62
   250
 10
205.9295
 20
-25.59
  0
VERTEX
  8
LAYER_1
 62
   250
 10
205.6476
 20
-25.7774
  0
VERTEX
  8
LAYER_1
 62
   250
 10
205.313
 20
-26.0097
  0
VERTEX
  8
LAYER_1
 62
   250
 10
204.9531
 20
-26.283
  0
VERTEX
  8
LAYER_1
 62
   250
 10
204.5955
 20
-26.5932
  0
VERTEX
  8
LAYER_1
 62
   250
 10
204.2649
 20
-26.9325
  0
VERTEX
  8
LAYER_1
 62
   250
 10
203.9749
 20
-27.2767
  0
VERTEX
  8
LAYER_1
 62
   250
 10
203.736
 20
-27.5978
  0
VERTEX
  8
LAYER_1
 62
   250
 10
203.5592
 20
-27.8676
  0
VERTEX
  8
LAYER_1
 62
   250
 10
203.4978
 20
-27.9754
  0
VERTEX
  8
LAYER_1
 62
   250
 10
203.4585
 20
-28.0651
  0
VERTEX
  8
LAYER_1
 62
   250
 10
203.4451
 20
-28.1383
  0
VERTEX
  8
LAYER_1
 62
   250
 10
203.4614
 20
-28.197
  0
VERTEX
  8
LAYER_1
 62
   250
 10
203.5112
 20
-28.2427
  0
VERTEX
  8
LAYER_1
 62
   250
 10
203.5986
 20
-28.2772
  0
VERTEX
  8
LAYER_1
 62
   250
 10
203.7272
 20
-28.3023
  0
VERTEX
  8
LAYER_1
 62
   250
 10
203.9009
 20
-28.3196
  0
VERTEX
  8
LAYER_1
 62
   250
 10
204.3784
 20
-28.3365
  0
VERTEX
  8
LAYER_1
 62
   250
 10
204.9571
 20
-28.334
  0
VERTEX
  8
LAYER_1
 62
   250
 10
205.5424
 20
-28.3166
  0
VERTEX
  8
LAYER_1
 62
   250
 10
206.0397
 20
-28.2888
  0
VERTEX
  8
LAYER_1
 62
   250
 10
206.2293
 20
-28.2719
  0
VERTEX
  8
LAYER_1
 62
   250
 10
206.3824
 20
-28.2509
  0
VERTEX
  8
LAYER_1
 62
   250
 10
206.5083
 20
-28.223
  0
VERTEX
  8
LAYER_1
 62
   250
 10
206.6163
 20
-28.1857
  0
VERTEX
  8
LAYER_1
 62
   250
 10
206.8155
 20
-28.0717
  0
VERTEX
  8
LAYER_1
 62
   250
 10
207.0539
 20
-27.8874
  0
VERTEX
  8
LAYER_1
 62
   250
 10
208.5423
 20
-26.7078
  0
VERTEX
  8
LAYER_1
 62
   250
 10
208.6937
 20
-26.5939
  0
VERTEX
  8
LAYER_1
 62
   250
 10
208.8272
 20
-26.5004
  0
VERTEX
  8
LAYER_1
 62
   250
 10
208.9483
 20
-26.4273
  0
VERTEX
  8
LAYER_1
 62
   250
 10
209.0621
 20
-26.3746
  0
VERTEX
  8
LAYER_1
 62
   250
 10
209.1741
 20
-26.3426
  0
VERTEX
  8
LAYER_1
 62
   250
 10
209.2896
 20
-26.3311
  0
VERTEX
  8
LAYER_1
 62
   250
 10
209.4138
 20
-26.3404
  0
VERTEX
  8
LAYER_1
 62
   250
 10
209.5521
 20
-26.3705
  0
VERTEX
  8
LAYER_1
 62
   250
 10
209.7083
 20
-26.421
  0
VERTEX
  8
LAYER_1
 62
   250
 10
209.8797
 20
-26.49
  0
VERTEX
  8
LAYER_1
 62
   250
 10
210.0622
 20
-26.5748
  0
VERTEX
  8
LAYER_1
 62
   250
 10
210.2514
 20
-26.6731
  0
VERTEX
  8
LAYER_1
 62
   250
 10
210.6334
 20
-26.9001
  0
VERTEX
  8
LAYER_1
 62
   250
 10
210.992
 20
-27.151
  0
VERTEX
  8
LAYER_1
 62
   250
 10
211.2999
 20
-27.4073
  0
VERTEX
  8
LAYER_1
 62
   250
 10
211.5551
 20
-27.6549
  0
VERTEX
  8
LAYER_1
 62
   250
 10
211.7618
 20
-27.8809
  0
VERTEX
  8
LAYER_1
 62
   250
 10
211.9246
 20
-28.0727
  0
VERTEX
  8
LAYER_1
 62
   250
 10
211.9924
 20
-28.1521
  0
VERTEX
  8
LAYER_1
 62
   250
 10
212.0602
 20
-28.2205
  0
VERTEX
  8
LAYER_1
 62
   250
 10
212.1378
 20
-28.2786
  0
VERTEX
  8
LAYER_1
 62
   250
 10
212.2352
 20
-28.3274
  0
VERTEX
  8
LAYER_1
 62
   250
 10
212.3623
 20
-28.3674
  0
VERTEX
  8
LAYER_1
 62
   250
 10
212.5289
 20
-28.3995
  0
VERTEX
  8
LAYER_1
 62
   250
 10
212.745
 20
-28.4245
  0
VERTEX
  8
LAYER_1
 62
   250
 10
213.0204
 20
-28.4431
  0
VERTEX
  8
LAYER_1
 62
   250
 10
213.3607
 20
-28.4562
  0
VERTEX
  8
LAYER_1
 62
   250
 10
213.754
 20
-28.4648
  0
VERTEX
  8
LAYER_1
 62
   250
 10
214.1839
 20
-28.4699
  0
VERTEX
  8
LAYER_1
 62
   250
 10
214.6341
 20
-28.4726
  0
VERTEX
  8
LAYER_1
 62
   250
 10
215.0884
 20
-28.4739
  0
VERTEX
  8
LAYER_1
 62
   250
 10
215.5304
 20
-28.475
  0
VERTEX
  8
LAYER_1
 62
   250
 10
215.9438
 20
-28.4768
  0
VERTEX
  8
LAYER_1
 62
   250
 10
216.3123
 20
-28.4805
  0
VERTEX
  8
LAYER_1
 62
   250
 10
216.6219
 20
-28.4853
  0
VERTEX
  8
LAYER_1
 62
   250
 10
216.8674
 20
-28.4834
  0
VERTEX
  8
LAYER_1
 62
   250
 10
217.0457
 20
-28.4652
  0
VERTEX
  8
LAYER_1
 62
   250
 10
217.1541
 20
-28.421
  0
VERTEX
  8
LAYER_1
 62
   250
 10
217.1894
 20
-28.3413
  0
VERTEX
  8
LAYER_1
 62
   250
 10
217.1489
 20
-28.2164
  0
VERTEX
  8
LAYER_1
 62
   250
 10
217.0295
 20
-28.0367
  0
VERTEX
  8
LAYER_1
 62
   250
 10
216.8283
 20
-27.7926
  0
VERTEX
  8
LAYER_1
 62
   250
 10
216.5439
 20
-27.479
  0
VERTEX
  8
LAYER_1
 62
   250
 10
216.1813
 20
-27.1088
  0
VERTEX
  8
LAYER_1
 62
   250
 10
215.7469
 20
-26.6991
  0
VERTEX
  8
LAYER_1
 62
   250
 10
215.2471
 20
-26.2674
  0
VERTEX
  8
LAYER_1
 62
   250
 10
214.6886
 20
-25.8309
  0
VERTEX
  8
LAYER_1
 62
   250
 10
214.0777
 20
-25.407
  0
VERTEX
  8
LAYER_1
 62
   250
 10
213.421
 20
-25.013
  0
VERTEX
  8
LAYER_1
 62
   250
 10
212.725
 20
-24.6661
  0
VERTEX
  8
LAYER_1
 62
   250
 10
211.9966
 20
-24.38
  0
VERTEX
  8
LAYER_1
 62
   250
 10
211.245
 20
-24.153
  0
VERTEX
  8
LAYER_1
 62
   250
 10
210.4797
 20
-23.98
  0
VERTEX
  8
LAYER_1
 62
   250
 10
209.7104
 20
-23.8555
  0
VERTEX
  8
LAYER_1
 62
   250
 10
208.9466
 20
-23.7744
  0
VERTEX
  8
LAYER_1
 62
   250
 10
208.1981
 20
-23.7313
  0
VERTEX
  8
LAYER_1
 62
   250
 10
207.4743
 20
-23.7208
  0
VERTEX
  8
LAYER_1
 62
   250
 10
206.785
 20
-23.7378
  0
VERTEX
  8
LAYER_1
 62
   250
 10
206.1373
 20
-23.7778
  0
VERTEX
  8
LAYER_1
 62
   250
 10
205.5289
 20
-23.8398
  0
VERTEX
  8
LAYER_1
 62
   250
 10
204.9548
 20
-23.9237
  0
VERTEX
  8
LAYER_1
 62
   250
 10
204.4103
 20
-24.0294
  0
VERTEX
  8
LAYER_1
 62
   250
 10
203.8907
 20
-24.1568
  0
VERTEX
  8
LAYER_1
 62
   250
 10
203.391
 20
-24.3059
  0
VERTEX
  8
LAYER_1
 62
   250
 10
202.9066
 20
-24.4764
  0
VERTEX
  8
LAYER_1
 62
   250
 10
202.4325
 20
-24.6683
  0
VERTEX
  8
LAYER_1
 62
   250
 10
201.9654
 20
-24.8809
  0
VERTEX
  8
LAYER_1
 62
   250
 10
201.507
 20
-25.1109
  0
VERTEX
  8
LAYER_1
 62
   250
 10
201.0606
 20
-25.3544
  0
VERTEX
  8
LAYER_1
 62
   250
 10
200.6292
 20
-25.6076
  0
VERTEX
  8
LAYER_1
 62
   250
 10
200.2162
 20
-25.8666
  0
VERTEX
  8
LAYER_1
 62
   250
 10
199.8246
 20
-26.1275
  0
VERTEX
  8
LAYER_1
 62
   250
 10
199.4577
 20
-26.3864
  0
VERTEX
  8
LAYER_1
 62
   250
 10
199.1186
 20
-26.6395
  0
VERTEX
  8
LAYER_1
 62
   250
 10
198.5319
 20
-27.1155
  0
VERTEX
  8
LAYER_1
 62
   250
 10
198.0663
 20
-27.5386
  0
VERTEX
  8
LAYER_1
 62
   250
 10
197.7189
 20
-27.8946
  0
VERTEX
  8
LAYER_1
 62
   250
 10
197.4869
 20
-28.1697
  0
VERTEX
  8
LAYER_1
 62
   250
 10
197.3634
 20
-28.3551
  0
VERTEX
  8
LAYER_1
 62
   250
 10
197.326
 20
-28.4641
  0
VERTEX
  8
LAYER_1
 62
   250
 10
197.3312
 20
-28.4957
  0
VERTEX
  8
LAYER_1
 62
   250
 10
197.348
 20
-28.5151
  0
VERTEX
  8
LAYER_1
 62
   250
 10
197.3731
 20
-28.5248
  0
VERTEX
  8
LAYER_1
 62
   250
 10
197.4031
 20
-28.5269
  0
VERTEX
  8
LAYER_1
 62
   250
 10
197.4796
 20
-28.5091
  0
VERTEX
  8
LAYER_1
 62
   250
 10
197.625
 20
-28.4362
  0
VERTEX
  8
LAYER_1
 62
   250
 10
197.9014
 20
-28.2735
  0
VERTEX
  8
LAYER_1
 62
   250
 10
198.3711
 20
-27.9866
  0
SEQEND
  8
LAYER_1
 62
   250
  0
POLYLINE
  8
LAYER_1
 62
   250
 66
     1
 70
     1
  0
VERTEX
  8
LAYER_1
 62
   250
 10
217.8624
 20
-26.2161
  0
VERTEX
  8
LAYER_1
 62
   250
 10
218.1932
 20
-26.8489
  0
VERTEX
  8
LAYER_1
 62
   250
 10
218.2303
 20
-26.9097
  0
VERTEX
  8
LAYER_1
 62
   250
 10
218.2746
 20
-26.9603
  0
VERTEX
  8
LAYER_1
 62
   250
 10
218.3372
 20
-27.002
  0
VERTEX
  8
LAYER_1
 62
   250
 10
218.4294
 20
-27.0358
  0
VERTEX
  8
LAYER_1
 62
   250
 10
218.5621
 20
-27.0628
  0
VERTEX
  8
LAYER_1
 62
   250
 10
218.7466
 20
-27.084
  0
VERTEX
  8
LAYER_1
 62
   250
 10
218.994
 20
-27.1005
  0
VERTEX
  8
LAYER_1
 62
   250
 10
219.3154
 20
-27.1135
  0
VERTEX
  8
LAYER_1
 62
   250
 10
223.1166
 20
-27.1223
  0
VERTEX
  8
LAYER_1
 62
   250
 10
223.6803
 20
-27.0958
  0
VERTEX
  8
LAYER_1
 62
   250
 10
223.9846
 20
-27.0523
  0
VERTEX
  8
LAYER_1
 62
   250
 10
224.0654
 20
-27.0225
  0
VERTEX
  8
LAYER_1
 62
   250
 10
224.1123
 20
-26.9865
  0
VERTEX
  8
LAYER_1
 62
   250
 10
224.1359
 20
-26.9435
  0
VERTEX
  8
LAYER_1
 62
   250
 10
224.1464
 20
-26.893
  0
VERTEX
  8
LAYER_1
 62
   250
 10
224.1199
 20
-26.3638
  0
VERTEX
  8
LAYER_1
 62
   250
 10
224.1025
 20
-26.3114
  0
VERTEX
  8
LAYER_1
 62
   250
 10
224.0702
 20
-26.2658
  0
VERTEX
  8
LAYER_1
 62
   250
 10
224.0109
 20
-26.2262
  0
VERTEX
  8
LAYER_1
 62
   250
 10
223.9124
 20
-26.1916
  0
VERTEX
  8
LAYER_1
 62
   250
 10
223.5491
 20
-26.1335
  0
VERTEX
  8
LAYER_1
 62
   250
 10
222.883
 20
-26.0838
  0
VERTEX
  8
LAYER_1
 62
   250
 10
218.5063
 20
-25.9449
  0
VERTEX
  8
LAYER_1
 62
   250
 10
217.9225
 20
-25.9433
  0
VERTEX
  8
LAYER_1
 62
   250
 10
217.6607
 20
-25.9549
  0
VERTEX
  8
LAYER_1
 62
   250
 10
217.6156
 20
-25.964
  0
VERTEX
  8
LAYER_1
 62
   250
 10
217.609
 20
-25.9747
  0
VERTEX
  8
LAYER_1
 62
   250
 10
217.6268
 20
-25.9861
  0
VERTEX
  8
LAYER_1
 62
   250
 10
217.6552
 20
-25.9978
  0
VERTEX
  8
LAYER_1
 62
   250
 10
217.7074
 20
-26.0223
  0
VERTEX
  8
LAYER_1
 62
   250
 10
217.7539
 20
-26.0582
  0
VERTEX
  8
LAYER_1
 62
   250
 10
217.8027
 20
-26.1185
  0
VERTEX
  8
LAYER_1
 62
   250
 10
217.8624
 20
-26.2161
  0
SEQEND
  8
LAYER_1
 62
   250
  0
POLYLINE
  8
LAYER_1
 62
   250
 66
     1
 70
     1
  0
VERTEX
  8
LAYER_1
 62
   250
 10
221.0904
 20
-22.1657
  0
VERTEX
  8
LAYER_1
 62
   250
 10
212.8022
 20
-22.1591
  0
VERTEX
  8
LAYER_1
 62
   250
 10
212.1014
 20
-22.1557
  0
VERTEX
  8
LAYER_1
 62
   250
 10
211.5658
 20
-22.1483
  0
VERTEX
  8
LAYER_1
 62
   250
 10
211.1739
 20
-22.1332
  0
VERTEX
  8
LAYER_1
 62
   250
 10
210.9046
 20
-22.107
  0
VERTEX
  8
LAYER_1
 62
   250
 10
210.7365
 20
-22.0663
  0
VERTEX
  8
LAYER_1
 62
   250
 10
210.6482
 20
-22.0075
  0
VERTEX
  8
LAYER_1
 62
   250
 10
210.6185
 20
-21.9272
  0
VERTEX
  8
LAYER_1
 62
   250
 10
210.626
 20
-21.8218
  0
VERTEX
  8
LAYER_1
 62
   250
 10
210.6938
 20
-21.534
  0
VERTEX
  8
LAYER_1
 62
   250
 10
210.8131
 20
-21.1763
  0
VERTEX
  8
LAYER_1
 62
   250
 10
210.9716
 20
-20.793
  0
VERTEX
  8
LAYER_1
 62
   250
 10
211.1573
 20
-20.4283
  0
VERTEX
  8
LAYER_1
 62
   250
 10
211.3571
 20
-20.1168
  0
VERTEX
  8
LAYER_1
 62
   250
 10
211.5553
 20
-19.8542
  0
VERTEX
  8
LAYER_1
 62
   250
 10
211.7352
 20
-19.6267
  0
VERTEX
  8
LAYER_1
 62
   250
 10
211.8805
 20
-19.4206
  0
VERTEX
  8
LAYER_1
 62
   250
 10
211.9784
 20
-19.224
  0
VERTEX
  8
LAYER_1
 62
   250
 10
212.0318
 20
-19.0334
  0
VERTEX
  8
LAYER_1
 62
   250
 10
212.0476
 20
-18.8474
  0
VERTEX
  8
LAYER_1
 62
   250
 10
212.0326
 20
-18.6644
  0
VERTEX
  8
LAYER_1
 62
   250
 10
211.9908
 20
-18.4851
  0
VERTEX
  8
LAYER_1
 62
   250
 10
211.9147
 20
-18.3182
  0
VERTEX
  8
LAYER_1
 62
   250
 10
211.8605
 20
-18.2428
  0
VERTEX
  8
LAYER_1
 62
   250
 10
211.7939
 20
-18.1745
  0
VERTEX
  8
LAYER_1
 62
   250
 10
211.7135
 20
-18.1146
  0
VERTEX
  8
LAYER_1
 62
   250
 10
211.6181
 20
-18.0646
  0
VERTEX
  8
LAYER_1
 62
   250
 10
211.5065
 20
-18.0257
  0
VERTEX
  8
LAYER_1
 62
   250
 10
211.3778
 20
-17.999
  0
VERTEX
  8
LAYER_1
 62
   250
 10
211.2314
 20
-17.9853
  0
VERTEX
  8
LAYER_1
 62
   250
 10
211.0666
 20
-17.9858
  0
VERTEX
  8
LAYER_1
 62
   250
 10
210.8827
 20
-18.0014
  0
VERTEX
  8
LAYER_1
 62
   250
 10
210.6789
 20
-18.033
  0
VERTEX
  8
LAYER_1
 62
   250
 10
210.4547
 20
-18.0817
  0
VERTEX
  8
LAYER_1
 62
   250
 10
210.2092
 20
-18.1484
  0
VERTEX
  8
LAYER_1
 62
   250
 10
209.9428
 20
-18.2338
  0
VERTEX
  8
LAYER_1
 62
   250
 10
209.6595
 20
-18.3368
  0
VERTEX
  8
LAYER_1
 62
   250
 10
209.3644
 20
-18.4563
  0
VERTEX
  8
LAYER_1
 62
   250
 10
209.0626
 20
-18.5908
  0
VERTEX
  8
LAYER_1
 62
   250
 10
208.7592
 20
-18.7391
  0
VERTEX
  8
LAYER_1
 62
   250
 10
208.4592
 20
-18.8997
  0
VERTEX
  8
LAYER_1
 62
   250
 10
208.1676
 20
-19.0715
  0
VERTEX
  8
LAYER_1
 62
   250
 10
207.8896
 20
-19.2531
  0
VERTEX
  8
LAYER_1
 62
   250
 10
207.6294
 20
-19.4431
  0
VERTEX
  8
LAYER_1
 62
   250
 10
207.3875
 20
-19.6397
  0
VERTEX
  8
LAYER_1
 62
   250
 10
207.1639
 20
-19.8412
  0
VERTEX
  8
LAYER_1
 62
   250
 10
206.9584
 20
-20.0458
  0
VERTEX
  8
LAYER_1
 62
   250
 10
206.7707
 20
-20.2515
  0
VERTEX
  8
LAYER_1
 62
   250
 10
206.6007
 20
-20.4567
  0
VERTEX
  8
LAYER_1
 62
   250
 10
206.4482
 20
-20.6596
  0
VERTEX
  8
LAYER_1
 62
   250
 10
206.3131
 20
-20.8582
  0
VERTEX
  8
LAYER_1
 62
   250
 10
206.0919
 20
-21.2358
  0
VERTEX
  8
LAYER_1
 62
   250
 10
205.9237
 20
-21.5751
  0
VERTEX
  8
LAYER_1
 62
   250
 10
205.7932
 20
-21.8619
  0
VERTEX
  8
LAYER_1
 62
   250
 10
205.6847
 20
-22.0819
  0
VERTEX
  8
LAYER_1
 62
   250
 10
205.6338
 20
-22.1631
  0
VERTEX
  8
LAYER_1
 62
   250
 10
205.5814
 20
-22.2265
  0
VERTEX
  8
LAYER_1
 62
   250
 10
205.5245
 20
-22.2742
  0
VERTEX
  8
LAYER_1
 62
   250
 10
205.4601
 20
-22.3088
  0
VERTEX
  8
LAYER_1
 62
   250
 10
205.2963
 20
-22.3476
  0
VERTEX
  8
LAYER_1
 62
   250
 10
205.0652
 20
-22.3619
  0
VERTEX
  8
LAYER_1
 62
   250
 10
203.7488
 20
-22.3598
  0
VERTEX
  8
LAYER_1
 62
   250
 10
203.6318
 20
-22.3555
  0
VERTEX
  8
LAYER_1
 62
   250
 10
203.537
 20
-22.346
  0
VERTEX
  8
LAYER_1
 62
   250
 10
203.4617
 20
-22.3264
  0
VERTEX
  8
LAYER_1
 62
   250
 10
203.4033
 20
-22.292
  0
VERTEX
  8
LAYER_1
 62
   250
 10
203.3591
 20
-22.2379
  0
VERTEX
  8
LAYER_1
 62
   250
 10
203.3266
 20
-22.1594
  0
VERTEX
  8
LAYER_1
 62
   250
 10
203.3031
 20
-22.0517
  0
VERTEX
  8
LAYER_1
 62
   250
 10
203.2859
 20
-21.9099
  0
VERTEX
  8
LAYER_1
 62
   250
 10
203.2704
 20
-20.1835
  0
VERTEX
  8
LAYER_1
 62
   250
 10
203.2813
 20
-20.0298
  0
VERTEX
  8
LAYER_1
 62
   250
 10
203.2983
 20
-19.9084
  0
VERTEX
  8
LAYER_1
 62
   250
 10
203.3252
 20
-19.8153
  0
VERTEX
  8
LAYER_1
 62
   250
 10
203.3658
 20
-19.7467
  0
VERTEX
  8
LAYER_1
 62
   250
 10
203.424
 20
-19.6987
  0
VERTEX
  8
LAYER_1
 62
   250
 10
203.5036
 20
-19.6673
  0
VERTEX
  8
LAYER_1
 62
   250
 10
203.6084
 20
-19.6487
  0
VERTEX
  8
LAYER_1
 62
   250
 10
203.7423
 20
-19.6389
  0
VERTEX
  8
LAYER_1
 62
   250
 10
205.343
 20
-19.6345
  0
VERTEX
  8
LAYER_1
 62
   250
 10
205.4999
 20
-19.623
  0
VERTEX
  8
LAYER_1
 62
   250
 10
205.6367
 20
-19.6029
  0
VERTEX
  8
LAYER_1
 62
   250
 10
205.7614
 20
-19.5708
  0
VERTEX
  8
LAYER_1
 62
   250
 10
205.8818
 20
-19.5235
  0
VERTEX
  8
LAYER_1
 62
   250
 10
206.1414
 20
-19.37
  0
VERTEX
  8
LAYER_1
 62
   250
 10
206.4785
 20
-19.1163
  0
VERTEX
  8
LAYER_1
 62
   250
 10
206.9458
 20
-18.7501
  0
VERTEX
  8
LAYER_1
 62
   250
 10
207.5542
 20
-18.3152
  0
VERTEX
  8
LAYER_1
 62
   250
 10
207.9116
 20
-18.0899
  0
VERTEX
  8
LAYER_1
 62
   250
 10
208.3045
 20
-17.869
  0
VERTEX
  8
LAYER_1
 62
   250
 10
208.7329
 20
-17.6597
  0
VERTEX
  8
LAYER_1
 62
   250
 10
209.1971
 20
-17.4693
  0
VERTEX
  8
LAYER_1
 62
   250
 10
209.6959
 20
-17.3036
  0
VERTEX
  8
LAYER_1
 62
   250
 10
210.2232
 20
-17.1634
  0
VERTEX
  8
LAYER_1
 62
   250
 10
210.7721
 20
-17.0481
  0
VERTEX
  8
LAYER_1
 62
   250
 10
211.3353
 20
-16.957
  0
VERTEX
  8
LAYER_1
 62
   250
 10
211.9058
 20
-16.8895
  0
VERTEX
  8
LAYER_1
 62
   250
 10
212.4764
 20
-16.8452
  0
VERTEX
  8
LAYER_1
 62
   250
 10
213.0399
 20
-16.8233
  0
VERTEX
  8
LAYER_1
 62
   250
 10
213.5893
 20
-16.8233
  0
VERTEX
  8
LAYER_1
 62
   250
 10
214.1189
 20
-16.8446
  0
VERTEX
  8
LAYER_1
 62
   250
 10
214.6295
 20
-16.8865
  0
VERTEX
  8
LAYER_1
 62
   250
 10
215.1231
 20
-16.9482
  0
VERTEX
  8
LAYER_1
 62
   250
 10
215.6021
 20
-17.0292
  0
VERTEX
  8
LAYER_1
 62
   250
 10
216.0685
 20
-17.1286
  0
VERTEX
  8
LAYER_1
 62
   250
 10
216.5247
 20
-17.2459
  0
VERTEX
  8
LAYER_1
 62
   250
 10
216.9727
 20
-17.3802
  0
VERTEX
  8
LAYER_1
 62
   250
 10
217.4148
 20
-17.531
  0
VERTEX
  8
LAYER_1
 62
   250
 10
217.8525
 20
-17.6976
  0
VERTEX
  8
LAYER_1
 62
   250
 10
218.285
 20
-17.8796
  0
VERTEX
  8
LAYER_1
 62
   250
 10
218.7104
 20
-18.0769
  0
VERTEX
  8
LAYER_1
 62
   250
 10
219.1272
 20
-18.2893
  0
VERTEX
  8
LAYER_1
 62
   250
 10
219.5338
 20
-18.5163
  0
VERTEX
  8
LAYER_1
 62
   250
 10
219.9285
 20
-18.758
  0
VERTEX
  8
LAYER_1
 62
   250
 10
220.3098
 20
-19.0139
  0
VERTEX
  8
LAYER_1
 62
   250
 10
220.6759
 20
-19.2839
  0
VERTEX
  8
LAYER_1
 62
   250
 10
221.0252
 20
-19.5668
  0
VERTEX
  8
LAYER_1
 62
   250
 10
221.3555
 20
-19.8573
  0
VERTEX
  8
LAYER_1
 62
   250
 10
221.6647
 20
-20.1493
  0
VERTEX
  8
LAYER_1
 62
   250
 10
221.9506
 20
-20.4365
  0
VERTEX
  8
LAYER_1
 62
   250
 10
222.4435
 20
-20.9719
  0
VERTEX
  8
LAYER_1
 62
   250
 10
222.8168
 20
-21.4138
  0
VERTEX
  8
LAYER_1
 62
   250
 10
223.0606
 20
-21.726
  0
VERTEX
  8
LAYER_1
 62
   250
 10
223.196
 20
-21.9251
  0
VERTEX
  8
LAYER_1
 62
   250
 10
223.2521
 20
-22.0411
  0
VERTEX
  8
LAYER_1
 62
   250
 10
223.2578
 20
-22.1039
  0
VERTEX
  8
LAYER_1
 62
   250
 10
223.2463
 20
-22.1243
  0
VERTEX
  8
LAYER_1
 62
   250
 10
223.2066
 20
-22.1396
  0
VERTEX
  8
LAYER_1
 62
   250
 10
223.1156
 20
-22.1506
  0
VERTEX
  8
LAYER_1
 62
   250
 10
222.9505
 20
-22.158
  0
VERTEX
  8
LAYER_1
 62
   250
 10
222.3062
 20
-22.1647
  0
VERTEX
  8
LAYER_1
 62
   250
 10
221.0904
 20
-22.1657
  0
SEQEND
  8
LAYER_1
 62
   250
  0
POLYLINE
  8
LAYER_1
 62
   250
 66
     1
 70
     1
  0
VERTEX
  8
LAYER_1
 62
   250
 10
218.9933
 20
-15.3219
  0
VERTEX
  8
LAYER_1
 62
   250
 10
206.7783
 20
-15.2865
  0
VERTEX
  8
LAYER_1
 62
   250
 10
205.7689
 20
-15.2742
  0
VERTEX
  8
LAYER_1
 62
   250
 10
205.0108
 20
-15.2561
  0
VERTEX
  8
LAYER_1
 62
   250
 10
204.4714
 20
-15.2283
  0
VERTEX
  8
LAYER_1
 62
   250
 10
204.1179
 20
-15.1868
  0
VERTEX
  8
LAYER_1
 62
   250
 10
203.9177
 20
-15.1277
  0
VERTEX
  8
LAYER_1
 62
   250
 10
203.838
 20
-15.0472
  0
VERTEX
  8
LAYER_1
 62
   250
 10
203.8463
 20
-14.9412
  0
VERTEX
  8
LAYER_1
 62
   250
 10
203.9098
 20
-14.8059
  0
VERTEX
  8
LAYER_1
 62
   250
 10
204.838
 20
-13.2272
  0
VERTEX
  8
LAYER_1
 62
   250
 10
204.9271
 20
-13.0869
  0
VERTEX
  8
LAYER_1
 62
   250
 10
205.0019
 20
-12.978
  0
VERTEX
  8
LAYER_1
 62
   250
 10
205.0661
 20
-12.9002
  0
VERTEX
  8
LAYER_1
 62
   250
 10
205.1236
 20
-12.8527
  0
VERTEX
  8
LAYER_1
 62
   250
 10
205.1782
 20
-12.8351
  0
VERTEX
  8
LAYER_1
 62
   250
 10
205.2337
 20
-12.8468
  0
VERTEX
  8
LAYER_1
 62
   250
 10
205.294
 20
-12.8873
  0
VERTEX
  8
LAYER_1
 62
   250
 10
205.3628
 20
-12.956
  0
VERTEX
  8
LAYER_1
 62
   250
 10
205.5324
 20
-13.1685
  0
VERTEX
  8
LAYER_1
 62
   250
 10
205.7272
 20
-13.4425
  0
VERTEX
  8
LAYER_1
 62
   250
 10
205.9228
 20
-13.7284
  0
VERTEX
  8
LAYER_1
 62
   250
 10
206.0948
 20
-13.9769
  0
VERTEX
  8
LAYER_1
 62
   250
 10
206.1702
 20
-14.0731
  0
VERTEX
  8
LAYER_1
 62
   250
 10
206.2654
 20
-14.1504
  0
VERTEX
  8
LAYER_1
 62
   250
 10
206.4121
 20
-14.2113
  0
VERTEX
  8
LAYER_1
 62
   250
 10
206.6422
 20
-14.2585
  0
VERTEX
  8
LAYER_1
 62
   250
 10
206.9874
 20
-14.2948
  0
VERTEX
  8
LAYER_1
 62
   250
 10
207.4795
 20
-14.3229
  0
VERTEX
  8
LAYER_1
 62
   250
 10
208.1504
 20
-14.3453
  0
VERTEX
  8
LAYER_1
 62
   250
 10
209.0317
 20
-14.3649
  0
VERTEX
  8
LAYER_1
 62
   250
 10
219.5556
 20
-14.5347
  0
VERTEX
  8
LAYER_1
 62
   250
 10
220.4209
 20
-14.5622
  0
VERTEX
  8
LAYER_1
 62
   250
 10
221.0713
 20
-14.5915
  0
VERTEX
  8
LAYER_1
 62
   250
 10
221.5374
 20
-14.6224
  0
VERTEX
  8
LAYER_1
 62
   250
 10
221.8501
 20
-14.6546
  0
VERTEX
  8
LAYER_1
 62
   250
 10
222.04
 20
-14.688
  0
VERTEX
  8
LAYER_1
 62
   250
 10
222.1381
 20
-14.7223
  0
VERTEX
  8
LAYER_1
 62
   250
 10
222.175
 20
-14.7573
  0
VERTEX
  8
LAYER_1
 62
   250
 10
222.1816
 20
-14.7927
  0
VERTEX
  8
LAYER_1
 62
   250
 10
222.1971
 20
-15.0683
  0
VERTEX
  8
LAYER_1
 62
   250
 10
222.1617
 20
-15.2645
  0
VERTEX
  8
LAYER_1
 62
   250
 10
222.1421
 20
-15.2789
  0
VERTEX
  8
LAYER_1
 62
   250
 10
222.0849
 20
-15.2908
  0
VERTEX
  8
LAYER_1
 62
   250
 10
221.9551
 20
-15.3005
  0
VERTEX
  8
LAYER_1
 62
   250
 10
221.7177
 20
-15.3081
  0
VERTEX
  8
LAYER_1
 62
   250
 10
221.3378
 20
-15.3138
  0
VERTEX
  8
LAYER_1
 62
   250
 10
220.7804
 20
-15.3179
  0
VERTEX
  8
LAYER_1
 62
   250
 10
220.0105
 20
-15.3205
  0
VERTEX
  8
LAYER_1
 62
   250
 10
218.9933
 20
-15.3219
  0
SEQEND
  8
LAYER_1
 62
   250
  0
POLYLINE
  8
LAYER_1
 62
   250
 66
     1
 70
     1
  0
VERTEX
  8
LAYER_1
 62
   250
 10
224.4615
 20
-15.6547
  0
VERTEX
  8
LAYER_1
 62
   250
 10
224.6723
 20
-15.392
  0
VERTEX
  8
LAYER_1
 62
   250
 10
224.941
 20
-15.0774
  0
VERTEX
  8
LAYER_1
 62
   250
 10
225.094
 20
-14.9118
  0
VERTEX
  8
LAYER_1
 62
   250
 10
225.2577
 20
-14.7466
  0
VERTEX
  8
LAYER_1
 62
   250
 10
225.4309
 20
-14.5864
  0
VERTEX
  8
LAYER_1
 62
   250
 10
225.6124
 20
-14.4355
  0
VERTEX
  8
LAYER_1
 62
   250
 10
225.8011
 20
-14.2978
  0
VERTEX
  8
LAYER_1
 62
   250
 10
225.9964
 20
-14.174
  0
VERTEX
  8
LAYER_1
 62
   250
 10
226.1979
 20
-14.0643
  0
VERTEX
  8
LAYER_1
 62
   250
 10
226.4053
 20
-13.9689
  0
VERTEX
  8
LAYER_1
 62
   250
 10
226.6182
 20
-13.8878
  0
VERTEX
  8
LAYER_1
 62
   250
 10
226.8361
 20
-13.8213
  0
VERTEX
  8
LAYER_1
 62
   250
 10
227.0588
 20
-13.7693
  0
VERTEX
  8
LAYER_1
 62
   250
 10
227.2858
 20
-13.7321
  0
VERTEX
  8
LAYER_1
 62
   250
 10
227.5165
 20
-13.7097
  0
VERTEX
  8
LAYER_1
 62
   250
 10
227.7492
 20
-13.7017
  0
VERTEX
  8
LAYER_1
 62
   250
 10
227.9819
 20
-13.7076
  0
VERTEX
  8
LAYER_1
 62
   250
 10
228.2127
 20
-13.7269
  0
VERTEX
  8
LAYER_1
 62
   250
 10
228.4397
 20
-13.7591
  0
VERTEX
  8
LAYER_1
 62
   250
 10
228.661
 20
-13.8037
  0
VERTEX
  8
LAYER_1
 62
   250
 10
228.8745
 20
-13.8603
  0
VERTEX
  8
LAYER_1
 62
   250
 10
229.0784
 20
-13.9283
  0
VERTEX
  8
LAYER_1
 62
   250
 10
229.2711
 20
-14.0072
  0
VERTEX
  8
LAYER_1
 62
   250
 10
229.4528
 20
-14.0961
  0
VERTEX
  8
LAYER_1
 62
   250
 10
229.6237
 20
-14.194
  0
VERTEX
  8
LAYER_1
 62
   250
 10
229.7845
 20
-14.2999
  0
VERTEX
  8
LAYER_1
 62
   250
 10
230.0774
 20
-14.5317
  0
VERTEX
  8
LAYER_1
 62
   250
 10
230.3352
 20
-14.7838
  0
VERTEX
  8
LAYER_1
 62
   250
 10
230.5599
 20
-15.0466
  0
VERTEX
  8
LAYER_1
 62
   250
 10
230.7473
 20
-15.3031
  0
VERTEX
  8
LAYER_1
 62
   250
 10
230.8912
 20
-15.5348
  0
VERTEX
  8
LAYER_1
 62
   250
 10
230.9857
 20
-15.7231
  0
VERTEX
  8
LAYER_1
 62
   250
 10
231.0109
 20
-15.7958
  0
VERTEX
  8
LAYER_1
 62
   250
 10
231.0117
 20
-15.8548
  0
VERTEX
  8
LAYER_1
 62
   250
 10
230.9774
 20
-15.9016
  0
VERTEX
  8
LAYER_1
 62
   250
 10
230.8975
 20
-15.9381
  0
VERTEX
  8
LAYER_1
 62
   250
 10
230.7613
 20
-15.9659
  0
VERTEX
  8
LAYER_1
 62
   250
 10
230.5584
 20
-15.9866
  0
VERTEX
  8
LAYER_1
 62
   250
 10
230.278
 20
-16.0022
  0
VERTEX
  8
LAYER_1
 62
   250
 10
229.9096
 20
-16.0141
  0
VERTEX
  8
LAYER_1
 62
   250
 10
225.4977
 20
-16.0605
  0
VERTEX
  8
LAYER_1
 62
   250
 10
224.1991
 20
-16.0494
  0
VERTEX
  8
LAYER_1
 62
   250
 10
224.1927
 20
-16.0178
  0
VERTEX
  8
LAYER_1
 62
   250
 10
224.2286
 20
-15.9538
  0
VERTEX
  8
LAYER_1
 62
   250
 10
224.3154
 20
-15.8389
  0
VERTEX
  8
LAYER_1
 62
   250
 10
224.4615
 20
-15.6547
  0
SEQEND
  8
LAYER_1
 62
   250
  0
POLYLINE
  8
LAYER_1
 62
   250
 66
     1
 70
     1
  0
VERTEX
  8
LAYER_1
 62
   250
 10
229.4048
 20
-11.4919
  0
VERTEX
  8
LAYER_1
 62
   250
 10
228.8792
 20
-11.4391
  0
VERTEX
  8
LAYER_1
 62
   250
 10
228.2527
 20
-11.3756
  0
VERTEX
  8
LAYER_1
 62
   250
 10
227.5367
 20
-11.3044
  0
VERTEX
  8
LAYER_1
 62
   250
 10
226.7428
 20
-11.229
  0
VERTEX
  8
LAYER_1
 62
   250
 10
225.8824
 20
-11.1526
  0
VERTEX
  8
LAYER_1
 62
   250
 10
224.967
 20
-11.0784
  0
VERTEX
  8
LAYER_1
 62
   250
 10
224.0082
 20
-11.0096
  0
VERTEX
  8
LAYER_1
 62
   250
 10
223.0174
 20
-10.9496
  0
VERTEX
  8
LAYER_1
 62
   250
 10
222.0059
 20
-10.901
  0
VERTEX
  8
LAYER_1
 62
   250
 10
220.9836
 20
-10.8644
  0
VERTEX
  8
LAYER_1
 62
   250
 10
219.9604
 20
-10.8396
  0
VERTEX
  8
LAYER_1
 62
   250
 10
218.9459
 20
-10.8267
  0
VERTEX
  8
LAYER_1
 62
   250
 10
217.9499
 20
-10.8255
  0
VERTEX
  8
LAYER_1
 62
   250
 10
216.9822
 20
-10.8361
  0
VERTEX
  8
LAYER_1
 62
   250
 10
216.0524
 20
-10.8583
  0
VERTEX
  8
LAYER_1
 62
   250
 10
215.1703
 20
-10.8922
  0
VERTEX
  8
LAYER_1
 62
   250
 10
214.344
 20
-10.9373
  0
VERTEX
  8
LAYER_1
 62
   250
 10
213.5743
 20
-10.9915
  0
VERTEX
  8
LAYER_1
 62
   250
 10
212.8606
 20
-11.0525
  0
VERTEX
  8
LAYER_1
 62
   250
 10
212.202
 20
-11.1177
  0
VERTEX
  8
LAYER_1
 62
   250
 10
211.5978
 20
-11.1848
  0
VERTEX
  8
LAYER_1
 62
   250
 10
211.0471
 20
-11.2513
  0
VERTEX
  8
LAYER_1
 62
   250
 10
210.5493
 20
-11.3148
  0
VERTEX
  8
LAYER_1
 62
   250
 10
210.1035
 20
-11.3729
  0
VERTEX
  8
LAYER_1
 62
   250
 10
209.3631
 20
-11.4647
  0
VERTEX
  8
LAYER_1
 62
   250
 10
208.8104
 20
-11.5157
  0
VERTEX
  8
LAYER_1
 62
   250
 10
208.5989
 20
-11.5228
  0
VERTEX
  8
LAYER_1
 62
   250
 10
208.428
 20
-11.5162
  0
VERTEX
  8
LAYER_1
 62
   250
 10
208.2952
 20
-11.4945
  0
VERTEX
  8
LAYER_1
 62
   250
 10
208.1985
 20
-11.4567
  0
VERTEX
  8
LAYER_1
 62
   250
 10
208.1361
 20
-11.4008
  0
VERTEX
  8
LAYER_1
 62
   250
 10
208.1079
 20
-11.3222
  0
VERTEX
  8
LAYER_1
 62
   250
 10
208.1141
 20
-11.2155
  0
VERTEX
  8
LAYER_1
 62
   250
 10
208.155
 20
-11.0753
  0
VERTEX
  8
LAYER_1
 62
   250
 10
208.3417
 20
-10.6729
  0
VERTEX
  8
LAYER_1
 62
   250
 10
208.6703
 20
-10.0721
  0
VERTEX
  8
LAYER_1
 62
   250
 10
208.8883
 20
-9.6867
  0
VERTEX
  8
LAYER_1
 62
   250
 10
209.1415
 20
-9.2528
  0
VERTEX
  8
LAYER_1
 62
   250
 10
209.4294
 20
-8.7824
  0
VERTEX
  8
LAYER_1
 62
   250
 10
209.7513
 20
-8.2872
  0
VERTEX
  8
LAYER_1
 62
   250
 10
210.1064
 20
-7.7792
  0
VERTEX
  8
LAYER_1
 62
   250
 10
210.4941
 20
-7.2703
  0
VERTEX
  8
LAYER_1
 62
   250
 10
210.9138
 20
-6.7724
  0
VERTEX
  8
LAYER_1
 62
   250
 10
211.3647
 20
-6.2973
  0
VERTEX
  8
LAYER_1
 62
   250
 10
211.8457
 20
-5.8549
  0
VERTEX
  8
LAYER_1
 62
   250
 10
212.3537
 20
-5.4466
  0
VERTEX
  8
LAYER_1
 62
   250
 10
212.8849
 20
-5.0719
  0
VERTEX
  8
LAYER_1
 62
   250
 10
213.4356
 20
-4.7302
  0
VERTEX
  8
LAYER_1
 62
   250
 10
214.0023
 20
-4.421
  0
VERTEX
  8
LAYER_1
 62
   250
 10
214.5813
 20
-4.1436
  0
VERTEX
  8
LAYER_1
 62
   250
 10
215.1688
 20
-3.8976
  0
VERTEX
  8
LAYER_1
 62
   250
 10
215.7612
 20
-3.6823
  0
VERTEX
  8
LAYER_1
 62
   250
 10
216.3554
 20
-3.4972
  0
VERTEX
  8
LAYER_1
 62
   250
 10
216.9501
 20
-3.3417
  0
VERTEX
  8
LAYER_1
 62
   250
 10
217.5445
 20
-3.2153
  0
VERTEX
  8
LAYER_1
 62
   250
 10
218.1381
 20
-3.1173
  0
VERTEX
  8
LAYER_1
 62
   250
 10
218.73
 20
-3.0473
  0
VERTEX
  8
LAYER_1
 62
   250
 10
219.3195
 20
-3.0045
  0
VERTEX
  8
LAYER_1
 62
   250
 10
219.9059
 20
-2.9886
  0
VERTEX
  8
LAYER_1
 62
   250
 10
220.4885
 20
-2.9988
  0
VERTEX
  8
LAYER_1
 62
   250
 10
221.0662
 20
-3.0347
  0
VERTEX
  8
LAYER_1
 62
   250
 10
221.6368
 20
-3.0957
  0
VERTEX
  8
LAYER_1
 62
   250
 10
222.1977
 20
-3.1815
  0
VERTEX
  8
LAYER_1
 62
   250
 10
222.7463
 20
-3.2915
  0
VERTEX
  8
LAYER_1
 62
   250
 10
223.28
 20
-3.4253
  0
VERTEX
  8
LAYER_1
 62
   250
 10
223.7962
 20
-3.5823
  0
VERTEX
  8
LAYER_1
 62
   250
 10
224.2924
 20
-3.7622
  0
VERTEX
  8
LAYER_1
 62
   250
 10
224.7659
 20
-3.9645
  0
VERTEX
  8
LAYER_1
 62
   250
 10
225.2149
 20
-4.1884
  0
VERTEX
  8
LAYER_1
 62
   250
 10
225.6401
 20
-4.4322
  0
VERTEX
  8
LAYER_1
 62
   250
 10
226.0428
 20
-4.6936
  0
VERTEX
  8
LAYER_1
 62
   250
 10
226.4245
 20
-4.9705
  0
VERTEX
  8
LAYER_1
 62
   250
 10
226.7866
 20
-5.2609
  0
VERTEX
  8
LAYER_1
 62
   250
 10
227.1305
 20
-5.5626
  0
VERTEX
  8
LAYER_1
 62
   250
 10
227.4575
 20
-5.8735
  0
VERTEX
  8
LAYER_1
 62
   250
 10
227.769
 20
-6.1915
  0
VERTEX
  8
LAYER_1
 62
   250
 10
228.0662
 20
-6.5144
  0
VERTEX
  8
LAYER_1
 62
   250
 10
228.3487
 20
-6.8401
  0
VERTEX
  8
LAYER_1
 62
   250
 10
228.6161
 20
-7.1664
  0
VERTEX
  8
LAYER_1
 62
   250
 10
228.8678
 20
-7.491
  0
VERTEX
  8
LAYER_1
 62
   250
 10
229.322
 20
-8.1266
  0
VERTEX
  8
LAYER_1
 62
   250
 10
229.707
 20
-8.7293
  0
VERTEX
  8
LAYER_1
 62
   250
 10
230.0203
 20
-9.2836
  0
VERTEX
  8
LAYER_1
 62
   250
 10
230.2668
 20
-9.7824
  0
VERTEX
  8
LAYER_1
 62
   250
 10
230.4533
 20
-10.2204
  0
VERTEX
  8
LAYER_1
 62
   250
 10
230.5867
 20
-10.5924
  0
VERTEX
  8
LAYER_1
 62
   250
 10
230.674
 20
-10.8953
  0
VERTEX
  8
LAYER_1
 62
   250
 10
230.7229
 20
-11.1339
  0
VERTEX
  8
LAYER_1
 62
   250
 10
230.7411
 20
-11.3151
  0
VERTEX
  8
LAYER_1
 62
   250
 10
230.7366
 20
-11.4456
  0
VERTEX
  8
LAYER_1
 62
   250
 10
230.7259
 20
-11.4938
  0
VERTEX
  8
LAYER_1
 62
   250
 10
230.6978
 20
-11.5307
  0
VERTEX
  8
LAYER_1
 62
   250
 10
230.6389
 20
-11.5558
  0
VERTEX
  8
LAYER_1
 62
   250
 10
230.5354
 20
-11.5688
  0
VERTEX
  8
LAYER_1
 62
   250
 10
230.1406
 20
-11.5569
  0
VERTEX
  8
LAYER_1
 62
   250
 10
229.4048
 20
-11.4919
  0
SEQEND
  8
LAYER_1
 62
   250
  0
POLYLINE
  8
LAYER_1
 62
   250
 66
     1
 70
     1
  0
VERTEX
  8
LAYER_1
 62
   250
 10
210.0363
 20
-4.7241
  0
VERTEX
  8
LAYER_1
 62
   250
 10
209.9955
 20
-2.5512
  0
VERTEX
  8
LAYER_1
 62
   250
 10
209.9872
 20
-2.2193
  0
VERTEX
  8
LAYER_1
 62
   250
 10
209.9671
 20
-2.0311
  0
VERTEX
  8
LAYER_1
 62
   250
 10
209.9472
 20
-1.9771
  0
VERTEX
  8
LAYER_1
 62
   250
 10
209.9177
 20
-1.9425
  0
VERTEX
  8
LAYER_1
 62
   250
 10
209.8765
 20
-1.9218
  0
VERTEX
  8
LAYER_1
 62
   250
 10
209.8213
 20
-1.9095
  0
VERTEX
  8
LAYER_1
 62
   250
 10
209.0827
 20
-1.8787
  0
VERTEX
  8
LAYER_1
 62
   250
 10
209.0014
 20
-1.8698
  0
VERTEX
  8
LAYER_1
 62
   250
 10
208.933
 20
-1.8302
  0
VERTEX
  8
LAYER_1
 62
   250
 10
208.8803
 20
-1.7301
  0
VERTEX
  8
LAYER_1
 62
   250
 10
208.846
 20
-1.54
  0
VERTEX
  8
LAYER_1
 62
   250
 10
208.8329
 20
-1.2303
  0
VERTEX
  8
LAYER_1
 62
   250
 10
208.8437
 20
-0.7715
  0
VERTEX
  8
LAYER_1
 62
   250
 10
208.8812
 20
-0.1339
  0
VERTEX
  8
LAYER_1
 62
   250
 10
208.9482
 20
0.712
  0
VERTEX
  8
LAYER_1
 62
   250
 10
209.0459
 20
1.7812
  0
VERTEX
  8
LAYER_1
 62
   250
 10
209.1695
 20
3.0301
  0
VERTEX
  8
LAYER_1
 62
   250
 10
209.3123
 20
4.4003
  0
VERTEX
  8
LAYER_1
 62
   250
 10
209.468
 20
5.8337
  0
VERTEX
  8
LAYER_1
 62
   250
 10
209.6301
 20
7.2719
  0
VERTEX
  8
LAYER_1
 62
   250
 10
209.7922
 20
8.6567
  0
VERTEX
  8
LAYER_1
 62
   250
 10
209.9477
 20
9.9298
  0
VERTEX
  8
LAYER_1
 62
   250
 10
210.0903
 20
11.033
  0
VERTEX
  8
LAYER_1
 62
   250
 10
210.2153
 20
11.9171
  0
VERTEX
  8
LAYER_1
 62
   250
 10
210.3251
 20
12.5693
  0
VERTEX
  8
LAYER_1
 62
   250
 10
210.4243
 20
12.9858
  0
VERTEX
  8
LAYER_1
 62
   250
 10
210.517
 20
13.1629
  0
VERTEX
  8
LAYER_1
 62
   250
 10
210.6076
 20
13.097
  0
VERTEX
  8
LAYER_1
 62
   250
 10
210.7006
 20
12.7842
  0
VERTEX
  8
LAYER_1
 62
   250
 10
210.8001
 20
12.2209
  0
VERTEX
  8
LAYER_1
 62
   250
 10
210.9106
 20
11.4034
  0
VERTEX
  8
LAYER_1
 62
   250
 10
211.0349
 20
10.339
  0
VERTEX
  8
LAYER_1
 62
   250
 10
211.1696
 20
9.0795
  0
VERTEX
  8
LAYER_1
 62
   250
 10
211.31
 20
7.6879
  0
VERTEX
  8
LAYER_1
 62
   250
 10
211.4513
 20
6.2269
  0
VERTEX
  8
LAYER_1
 62
   250
 10
211.5887
 20
4.7595
  0
VERTEX
  8
LAYER_1
 62
   250
 10
211.7173
 20
3.3487
  0
VERTEX
  8
LAYER_1
 62
   250
 10
211.8324
 20
2.0572
  0
VERTEX
  8
LAYER_1
 62
   250
 10
211.9292
 20
0.9479
  0
VERTEX
  8
LAYER_1
 62
   250
 10
212.0037
 20
0.0682
  0
VERTEX
  8
LAYER_1
 62
   250
 10
212.0552
 20
-0.597
  0
VERTEX
  8
LAYER_1
 62
   250
 10
212.0839
 20
-1.0783
  0
VERTEX
  8
LAYER_1
 62
   250
 10
212.0899
 20
-1.4063
  0
VERTEX
  8
LAYER_1
 62
   250
 10
212.0736
 20
-1.6118
  0
VERTEX
  8
LAYER_1
 62
   250
 10
212.035
 20
-1.7254
  0
VERTEX
  8
LAYER_1
 62
   250
 10
211.9743
 20
-1.7777
  0
VERTEX
  8
LAYER_1
 62
   250
 10
211.8917
 20
-1.7993
  0
VERTEX
  8
LAYER_1
 62
   250
 10
210.9115
 20
-1.936
  0
VERTEX
  8
LAYER_1
 62
   250
 10
210.828
 20
-1.9554
  0
VERTEX
  8
LAYER_1
 62
   250
 10
210.7637
 20
-1.981
  0
VERTEX
  8
LAYER_1
 62
   250
 10
210.7158
 20
-2.0187
  0
VERTEX
  8
LAYER_1
 62
   250
 10
210.6819
 20
-2.0744
  0
VERTEX
  8
LAYER_1
 62
   250
 10
210.6461
 20
-2.2629
  0
VERTEX
  8
LAYER_1
 62
   250
 10
210.6359
 20
-2.5931
  0
VERTEX
  8
LAYER_1
 62
   250
 10
210.6304
 20
-4.7528
  0
VERTEX
  8
LAYER_1
 62
   250
 10
210.6202
 20
-5.0738
  0
VERTEX
  8
LAYER_1
 62
   250
 10
210.6014
 20
-5.2497
  0
VERTEX
  8
LAYER_1
 62
   250
 10
210.572
 20
-5.3276
  0
VERTEX
  8
LAYER_1
 62
   250
 10
210.5301
 20
-5.3546
  0
VERTEX
  8
LAYER_1
 62
   250
 10
210.2666
 20
-5.3955
  0
VERTEX
  8
LAYER_1
 62
   250
 10
210.0527
 20
-5.3657
  0
VERTEX
  8
LAYER_1
 62
   250
 10
210.0363
 20
-4.7241
  0
SEQEND
  8
LAYER_1
 62
   250
  0
POLYLINE
  8
LAYER_1
 62
   250
 66
     1
 70
     1
  0
VERTEX
  8
LAYER_1
 62
   250
 10
218.0409
 20
-1.9767
  0
VERTEX
  8
LAYER_1
 62
   250
 10
219.7795
 20
-2.0032
  0
VERTEX
  8
LAYER_1
 62
   250
 10
221.5037
 20
-2.0605
  0
VERTEX
  8
LAYER_1
 62
   250
 10
221.7278
 20
-2.0647
  0
VERTEX
  8
LAYER_1
 62
   250
 10
221.8372
 20
-2.0415
  0
VERTEX
  8
LAYER_1
 62
   250
 10
221.8478
 20
-2.0131
  0
VERTEX
  8
LAYER_1
 62
   250
 10
221.8283
 20
-1.97
  0
VERTEX
  8
LAYER_1
 62
   250
 10
221.7785
 20
-1.9095
  0
VERTEX
  8
LAYER_1
 62
   250
 10
221.6977
 20
-1.829
  0
VERTEX
  8
LAYER_1
 62
   250
 10
220.4585
 20
-0.8292
  0
VERTEX
  8
LAYER_1
 62
   250
 10
220.3203
 20
-0.7376
  0
VERTEX
  8
LAYER_1
 62
   250
 10
220.1957
 20
-0.6662
  0
VERTEX
  8
LAYER_1
 62
   250
 10
220.0796
 20
-0.6154
  0
VERTEX
  8
LAYER_1
 62
   250
 10
219.967
 20
-0.5854
  0
VERTEX
  8
LAYER_1
 62
   250
 10
219.8528
 20
-0.5764
  0
VERTEX
  8
LAYER_1
 62
   250
 10
219.7319
 20
-0.5887
  0
VERTEX
  8
LAYER_1
 62
   250
 10
219.5993
 20
-0.6225
  0
VERTEX
  8
LAYER_1
 62
   250
 10
219.4498
 20
-0.6781
  0
VERTEX
  8
LAYER_1
 62
   250
 10
219.0953
 20
-0.8488
  0
VERTEX
  8
LAYER_1
 62
   250
 10
218.7041
 20
-1.0691
  0
VERTEX
  8
LAYER_1
 62
   250
 10
218.3268
 20
-1.3002
  0
VERTEX
  8
LAYER_1
 62
   250
 10
218.0145
 20
-1.5038
  0
VERTEX
  8
LAYER_1
 62
   250
 10
217.8053
 20
-1.6503
  0
VERTEX
  8
LAYER_1
 62
   250
 10
217.6871
 20
-1.7468
  0
VERTEX
  8
LAYER_1
 62
   250
 10
217.635
 20
-1.8091
  0
VERTEX
  8
LAYER_1
 62
   250
 10
217.6242
 20
-1.8533
  0
VERTEX
  8
LAYER_1
 62
   250
 10
217.6385
 20
-1.8924
  0
VERTEX
  8
LAYER_1
 62
   250
 10
217.6953
 20
-1.9274
  0
VERTEX
  8
LAYER_1
 62
   250
 10
217.8208
 20
-1.9562
  0
VERTEX
  8
LAYER_1
 62
   250
 10
218.0409
 20
-1.9767
  0
SEQEND
  8
LAYER_1
 62
   250
  0
POLYLINE
  8
LAYER_1
 62
   250
 66
     1
 70
     1
  0
VERTEX
  8
LAYER_1
 62
   250
 10
219.6471
 20
1.8223
  0
VERTEX
  8
LAYER_1
 62
   250
 10
219.8775
 20
3.864
  0
VERTEX
  8
LAYER_1
 62
   250
 10
219.9207
 20
4.1889
  0
VERTEX
  8
LAYER_1
 62
   250
 10
219.9536
 20
4.3336
  0
VERTEX
  8
LAYER_1
 62
   250
 10
219.9798
 20
4.2812
  0
VERTEX
  8
LAYER_1
 62
   250
 10
220.0032
 20
4.0151
  0
VERTEX
  8
LAYER_1
 62
   250
 10
220.0792
 20
1.8223
  0
VERTEX
  8
LAYER_1
 62
   250
 10
220.0837
 20
1.4915
  0
VERTEX
  8
LAYER_1
 62
   250
 10
220.0757
 20
1.3162
  0
VERTEX
  8
LAYER_1
 62
   250
 10
220.0656
 20
1.2707
  0
VERTEX
  8
LAYER_1
 62
   250
 10
220.0508
 20
1.2448
  0
VERTEX
  8
LAYER_1
 62
   250
 10
220.0305
 20
1.232
  0
VERTEX
  8
LAYER_1
 62
   250
 10
220.0043
 20
1.2259
  0
VERTEX
  8
LAYER_1
 62
   250
 10
219.6912
 20
1.1994
  0
VERTEX
  8
LAYER_1
 62
   250
 10
219.5732
 20
1.2313
  0
VERTEX
  8
LAYER_1
 62
   250
 10
219.6471
 20
1.8223
  0
SEQEND
  8
LAYER_1
 62
   250
  0
POLYLINE
  8
LAYER_1
 62
   250
 66
     1
 70
     1
  0
VERTEX
  8
LAYER_1
 62
   250
 10
230.2798
 20
-22.0799
  0
VERTEX
  8
LAYER_1
 62
   250
 10
230.3878
 20
-18.369
  0
VERTEX
  8
LAYER_1
 62
   250
 10
230.3808
 20
-17.8147
  0
VERTEX
  8
LAYER_1
 62
   250
 10
230.3498
 20
-17.5113
  0
VERTEX
  8
LAYER_1
 62
   250
 10
230.3253
 20
-17.4291
  0
VERTEX
  8
LAYER_1
 62
   250
 10
230.2948
 20
-17.3799
  0
VERTEX
  8
LAYER_1
 62
   250
 10
230.2583
 20
-17.354
  0
VERTEX
  8
LAYER_1
 62
   250
 10
230.2158
 20
-17.3415
  0
VERTEX
  8
LAYER_1
 62
   250
 10
230.1151
 20
-17.3304
  0
VERTEX
  8
LAYER_1
 62
   250
 10
230.0039
 20
-17.3336
  0
VERTEX
  8
LAYER_1
 62
   250
 10
229.8955
 20
-17.3512
  0
VERTEX
  8
LAYER_1
 62
   250
 10
229.8035
 20
-17.3835
  0
VERTEX
  8
LAYER_1
 62
   250
 10
229.7674
 20
-17.4068
  0
VERTEX
  8
LAYER_1
 62
   250
 10
229.7379
 20
-17.4431
  0
VERTEX
  8
LAYER_1
 62
   250
 10
229.7142
 20
-17.502
  0
VERTEX
  8
LAYER_1
 62
   250
 10
229.6955
 20
-17.5927
  0
VERTEX
  8
LAYER_1
 62
   250
 10
229.6696
 20
-17.9071
  0
VERTEX
  8
LAYER_1
 62
   250
 10
229.6536
 20
-18.4616
  0
VERTEX
  8
LAYER_1
 62
   250
 10
229.6249
 20
-22.1063
  0
VERTEX
  8
LAYER_1
 62
   250
 10
229.6259
 20
-22.6667
  0
VERTEX
  8
LAYER_1
 62
   250
 10
229.6376
 20
-22.9875
  0
VERTEX
  8
LAYER_1
 62
   250
 10
229.65
 20
-23.0808
  0
VERTEX
  8
LAYER_1
 62
   250
 10
229.6683
 20
-23.1417
  0
VERTEX
  8
LAYER_1
 62
   250
 10
229.6934
 20
-23.1791
  0
VERTEX
  8
LAYER_1
 62
   250
 10
229.7263
 20
-23.2022
  0
VERTEX
  8
LAYER_1
 62
   250
 10
229.8156
 20
-23.2306
  0
VERTEX
  8
LAYER_1
 62
   250
 10
229.9234
 20
-23.2427
  0
VERTEX
  8
LAYER_1
 62
   250
 10
230.0324
 20
-23.2427
  0
VERTEX
  8
LAYER_1
 62
   250
 10
230.1254
 20
-23.2352
  0
VERTEX
  8
LAYER_1
 62
   250
 10
230.1894
 20
-23.2234
  0
VERTEX
  8
LAYER_1
 62
   250
 10
230.2274
 20
-23.2065
  0
VERTEX
  8
LAYER_1
 62
   250
 10
230.2463
 20
-23.1831
  0
VERTEX
  8
LAYER_1
 62
   250
 10
230.2533
 20
-23.1514
  0
VERTEX
  8
LAYER_1
 62
   250
 10
230.2798
 20
-22.0799
  0
SEQEND
  8
LAYER_1
 62
   250
  0
POLYLINE
  8
LAYER_1
 62
   250
 66
     1
 70
     1
  0
VERTEX
  8
LAYER_1
 62
   250
 10
233.6289
 20
-25.1932
  0
VERTEX
  8
LAYER_1
 62
   250
 10
233.2428
 20
-25.1924
  0
VERTEX
  8
LAYER_1
 62
   250
 10
232.7512
 20
-25.2037
  0
VERTEX
  8
LAYER_1
 62
   250
 10
232.1863
 20
-25.2372
  0
VERTEX
  8
LAYER_1
 62
   250
 10
231.5806
 20
-25.3034
  0
VERTEX
  8
LAYER_1
 62
   250
 10
231.2723
 20
-25.352
  0
VERTEX
  8
LAYER_1
 62
   250
 10
230.9636
 20
-25.4127
  0
VERTEX
  8
LAYER_1
 62
   250
 10
230.6561
 20
-25.4867
  0
VERTEX
  8
LAYER_1
 62
   250
 10
230.3517
 20
-25.5755
  0
VERTEX
  8
LAYER_1
 62
   250
 10
230.0519
 20
-25.6802
  0
VERTEX
  8
LAYER_1
 62
   250
 10
229.7584
 20
-25.8023
  0
VERTEX
  8
LAYER_1
 62
   250
 10
229.473
 20
-25.9431
  0
VERTEX
  8
LAYER_1
 62
   250
 10
229.1972
 20
-26.1038
  0
VERTEX
  8
LAYER_1
 62
   250
 10
228.9327
 20
-26.2849
  0
VERTEX
  8
LAYER_1
 62
   250
 10
228.681
 20
-26.4835
  0
VERTEX
  8
LAYER_1
 62
   250
 10
228.4435
 20
-26.6956
  0
VERTEX
  8
LAYER_1
 62
   250
 10
228.2215
 20
-26.9174
  0
VERTEX
  8
LAYER_1
 62
   250
 10
228.0165
 20
-27.1449
  0
VERTEX
  8
LAYER_1
 62
   250
 10
227.8298
 20
-27.3744
  0
VERTEX
  8
LAYER_1
 62
   250
 10
227.6628
 20
-27.6019
  0
VERTEX
  8
LAYER_1
 62
   250
 10
227.517
 20
-27.8236
  0
VERTEX
  8
LAYER_1
 62
   250
 10
227.3932
 20
-28.036
  0
VERTEX
  8
LAYER_1
 62
   250
 10
227.2898
 20
-28.2374
  0
VERTEX
  8
LAYER_1
 62
   250
 10
227.2049
 20
-28.4265
  0
VERTEX
  8
LAYER_1
 62
   250
 10
227.1364
 20
-28.6022
  0
VERTEX
  8
LAYER_1
 62
   250
 10
227.0405
 20
-28.9079
  0
VERTEX
  8
LAYER_1
 62
   250
 10
226.9856
 20
-29.1443
  0
VERTEX
  8
LAYER_1
 62
   250
 10
226.971
 20
-29.234
  0
VERTEX
  8
LAYER_1
 62
   250
 10
226.9752
 20
-29.3062
  0
VERTEX
  8
LAYER_1
 62
   250
 10
227.011
 20
-29.3632
  0
VERTEX
  8
LAYER_1
 62
   250
 10
227.0909
 20
-29.4075
  0
VERTEX
  8
LAYER_1
 62
   250
 10
227.2277
 20
-29.4413
  0
VERTEX
  8
LAYER_1
 62
   250
 10
227.434
 20
-29.4671
  0
VERTEX
  8
LAYER_1
 62
   250
 10
227.7224
 20
-29.4871
  0
VERTEX
  8
LAYER_1
 62
   250
 10
228.1057
 20
-29.5037
  0
VERTEX
  8
LAYER_1
 62
   250
 10
232.7734
 20
-29.5918
  0
VERTEX
  8
LAYER_1
 62
   250
 10
233.4838
 20
-29.5996
  0
VERTEX
  8
LAYER_1
 62
   250
 10
233.8776
 20
-29.5957
  0
VERTEX
  8
LAYER_1
 62
   250
 10
233.9862
 20
-29.5876
  0
VERTEX
  8
LAYER_1
 62
   250
 10
234.0522
 20
-29.5745
  0
VERTEX
  8
LAYER_1
 62
   250
 10
234.0878
 20
-29.5556
  0
VERTEX
  8
LAYER_1
 62
   250
 10
234.1052
 20
-29.5301
  0
VERTEX
  8
LAYER_1
 62
   250
 10
234.1196
 20
-29.4504
  0
VERTEX
  8
LAYER_1
 62
   250
 10
234.119
 20
-29.2978
  0
VERTEX
  8
LAYER_1
 62
   250
 10
234.1127
 20
-29.0281
  0
VERTEX
  8
LAYER_1
 62
   250
 10
234.1097
 20
-28.5974
  0
VERTEX
  8
LAYER_1
 62
   250
 10
234.1647
 20
-25.9935
  0
VERTEX
  8
LAYER_1
 62
   250
 10
234.1745
 20
-25.6047
  0
VERTEX
  8
LAYER_1
 62
   250
 10
234.1763
 20
-25.3852
  0
VERTEX
  8
LAYER_1
 62
   250
 10
234.1691
 20
-25.2819
  0
VERTEX
  8
LAYER_1
 62
   250
 10
234.1515
 20
-25.2416
  0
VERTEX
  8
LAYER_1
 62
   250
 10
234.1173
 20
-25.2198
  0
VERTEX
  8
LAYER_1
 62
   250
 10
234.0399
 20
-25.2059
  0
VERTEX
  8
LAYER_1
 62
   250
 10
233.8876
 20
-25.1977
  0
VERTEX
  8
LAYER_1
 62
   250
 10
233.6289
 20
-25.1932
  0
SEQEND
  8
LAYER_1
 62
   250
  0
POLYLINE
  8
LAYER_1
 62
   250
 66
     1
 70
     1
  0
VERTEX
  8
LAYER_1
 62
   250
 10
235.4414
 20
-24.6022
  0
VERTEX
  8
LAYER_1
 62
   250
 10
235.4039
 20
-32.5661
  0
VERTEX
  8
LAYER_1
 62
   250
 10
235.3995
 20
-33.7466
  0
VERTEX
  8
LAYER_1
 62
   250
 10
235.4053
 20
-34.383
  0
VERTEX
  8
LAYER_1
 62
   250
 10
235.4146
 20
-34.5524
  0
VERTEX
  8
LAYER_1
 62
   250
 10
235.4297
 20
-34.6522
  0
VERTEX
  8
LAYER_1
 62
   250
 10
235.4515
 20
-34.7045
  0
VERTEX
  8
LAYER_1
 62
   250
 10
235.4811
 20
-34.7313
  0
VERTEX
  8
LAYER_1
 62
   250
 10
235.5642
 20
-34.768
  0
VERTEX
  8
LAYER_1
 62
   250
 10
235.6682
 20
-34.7934
  0
VERTEX
  8
LAYER_1
 62
   250
 10
235.7784
 20
-34.8092
  0
VERTEX
  8
LAYER_1
 62
   250
 10
235.8801
 20
-34.8173
  0
VERTEX
  8
LAYER_1
 62
   250
 10
235.9236
 20
-34.8151
  0
VERTEX
  8
LAYER_1
 62
   250
 10
235.9615
 20
-34.7879
  0
VERTEX
  8
LAYER_1
 62
   250
 10
235.994
 20
-34.712
  0
VERTEX
  8
LAYER_1
 62
   250
 10
236.0215
 20
-34.5638
  0
VERTEX
  8
LAYER_1
 62
   250
 10
236.0622
 20
-33.956
  0
VERTEX
  8
LAYER_1
 62
   250
 10
236.0852
 20
-32.7756
  0
VERTEX
  8
LAYER_1
 62
   250
 10
236.0896
 20
-24.6109
  0
VERTEX
  8
LAYER_1
 62
   250
 10
236.1205
 20
-22.4789
  0
VERTEX
  8
LAYER_1
 62
   250
 10
236.1034
 20
-22.4516
  0
VERTEX
  8
LAYER_1
 62
   250
 10
236.0681
 20
-22.4273
  0
VERTEX
  8
LAYER_1
 62
   250
 10
236.0138
 20
-22.4084
  0
VERTEX
  8
LAYER_1
 62
   250
 10
235.9396
 20
-22.3972
  0
VERTEX
  8
LAYER_1
 62
   250
 10
235.5671
 20
-22.4568
  0
VERTEX
  8
LAYER_1
 62
   250
 10
235.5357
 20
-22.4811
  0
VERTEX
  8
LAYER_1
 62
   250
 10
235.5106
 20
-22.5306
  0
VERTEX
  8
LAYER_1
 62
   250
 10
235.4907
 20
-22.6277
  0
VERTEX
  8
LAYER_1
 62
   250
 10
235.4753
 20
-22.7945
  0
VERTEX
  8
LAYER_1
 62
   250
 10
235.4545
 20
-23.4258
  0
VERTEX
  8
LAYER_1
 62
   250
 10
235.4414
 20
-24.6022
  0
SEQEND
  8
LAYER_1
 62
   250
  0
POLYLINE
  8
LAYER_1
 62
   250
 66
     1
 70
     1
  0
VERTEX
  8
LAYER_1
 62
   250
 10
237.5118
 20
-24.4566
  0
VERTEX
  8
LAYER_1
 62
   250
 10
237.3375
 20
-32.7227
  0
VERTEX
  8
LAYER_1
 62
   250
 10
237.3428
 20
-33.9309
  0
VERTEX
  8
LAYER_1
 62
   250
 10
237.3745
 20
-34.5649
  0
VERTEX
  8
LAYER_1
 62
   250
 10
237.4
 20
-34.7266
  0
VERTEX
  8
LAYER_1
 62
   250
 10
237.4318
 20
-34.8169
  0
VERTEX
  8
LAYER_1
 62
   250
 10
237.4698
 20
-34.8597
  0
VERTEX
  8
LAYER_1
 62
   250
 10
237.5139
 20
-34.8791
  0
VERTEX
  8
LAYER_1
 62
   250
 10
237.6195
 20
-34.9141
  0
VERTEX
  8
LAYER_1
 62
   250
 10
237.7449
 20
-34.9656
  0
VERTEX
  8
LAYER_1
 62
   250
 10
237.886
 20
-35.0478
  0
VERTEX
  8
LAYER_1
 62
   250
 10
238.0387
 20
-35.1745
  0
VERTEX
  8
LAYER_1
 62
   250
 10
238.1981
 20
-35.3525
  0
VERTEX
  8
LAYER_1
 62
   250
 10
238.356
 20
-35.5579
  0
VERTEX
  8
LAYER_1
 62
   250
 10
238.5035
 20
-35.7596
  0
VERTEX
  8
LAYER_1
 62
   250
 10
238.6318
 20
-35.9264
  0
VERTEX
  8
LAYER_1
 62
   250
 10
238.6862
 20
-35.9836
  0
VERTEX
  8
LAYER_1
 62
   250
 10
238.7333
 20
-36.0005
  0
VERTEX
  8
LAYER_1
 62
   250
 10
238.773
 20
-35.9534
  0
VERTEX
  8
LAYER_1
 62
   250
 10
238.8052
 20
-35.8184
  0
VERTEX
  8
LAYER_1
 62
   250
 10
238.8296
 20
-35.5718
  0
VERTEX
  8
LAYER_1
 62
   250
 10
238.8461
 20
-35.1897
  0
VERTEX
  8
LAYER_1
 62
   250
 10
238.8544
 20
-34.6485
  0
VERTEX
  8
LAYER_1
 62
   250
 10
238.8545
 20
-33.9244
  0
VERTEX
  8
LAYER_1
 62
   250
 10
238.6848
 20
-25.0475
  0
VERTEX
  8
LAYER_1
 62
   250
 10
238.649
 20
-23.7033
  0
VERTEX
  8
LAYER_1
 62
   250
 10
238.6236
 20
-22.962
  0
VERTEX
  8
LAYER_1
 62
   250
 10
238.6023
 20
-22.6313
  0
VERTEX
  8
LAYER_1
 62
   250
 10
238.5789
 20
-22.5186
  0
VERTEX
  8
LAYER_1
 62
   250
 10
238.5481
 20
-22.4627
  0
VERTEX
  8
LAYER_1
 62
   250
 10
238.5078
 20
-22.4271
  0
VERTEX
  8
LAYER_1
 62
   250
 10
238.4568
 20
-22.4063
  0
VERTEX
  8
LAYER_1
 62
   250
 10
238.3937
 20
-22.3951
  0
VERTEX
  8
LAYER_1
 62
   250
 10
238.0585
 20
-22.3841
  0
VERTEX
  8
LAYER_1
 62
   250
 10
237.7543
 20
-22.3863
  0
VERTEX
  8
LAYER_1
 62
   250
 10
237.7218
 20
-22.3912
  0
VERTEX
  8
LAYER_1
 62
   250
 10
237.6904
 20
-22.4205
  0
VERTEX
  8
LAYER_1
 62
   250
 10
237.6597
 20
-22.4982
  0
VERTEX
  8
LAYER_1
 62
   250
 10
237.6298
 20
-22.6484
  0
VERTEX
  8
LAYER_1
 62
   250
 10
237.5708
 20
-23.2628
  0
VERTEX
  8
LAYER_1
 62
   250
 10
237.5118
 20
-24.4566
  0
SEQEND
  8
LAYER_1
 62
   250
  0
POLYLINE
  8
LAYER_1
 62
   250
 66
     1
 70
     1
  0
VERTEX
  8
LAYER_1
 62
   250
 10
234.4911
 20
-20.7722
  0
VERTEX
  8
LAYER_1
 62
   250
 10
234.6275
 20
-20.9091
  0
VERTEX
  8
LAYER_1
 62
   250
 10
234.7948
 20
-21.052
  0
VERTEX
  8
LAYER_1
 62
   250
 10
234.9878
 20
-21.1813
  0
VERTEX
  8
LAYER_1
 62
   250
 10
235.201
 20
-21.2772
  0
VERTEX
  8
LAYER_1
 62
   250
 10
235.3136
 20
-21.3072
  0
VERTEX
  8
LAYER_1
 62
   250
 10
235.4294
 20
-21.3254
  0
VERTEX
  8
LAYER_1
 62
   250
 10
235.548
 20
-21.3333
  0
VERTEX
  8
LAYER_1
 62
   250
 10
235.6688
 20
-21.3323
  0
VERTEX
  8
LAYER_1
 62
   250
 10
235.9152
 20
-21.3094
  0
VERTEX
  8
LAYER_1
 62
   250
 10
236.1646
 20
-21.2683
  0
VERTEX
  8
LAYER_1
 62
   250
 10
236.4145
 20
-21.2203
  0
VERTEX
  8
LAYER_1
 62
   250
 10
236.6673
 20
-21.1755
  0
VERTEX
  8
LAYER_1
 62
   250
 10
236.9267
 20
-21.1434
  0
VERTEX
  8
LAYER_1
 62
   250
 10
237.1965
 20
-21.1339
  0
VERTEX
  8
LAYER_1
 62
   250
 10
237.4785
 20
-21.1532
  0
VERTEX
  8
LAYER_1
 62
   250
 10
237.7678
 20
-21.1942
  0
VERTEX
  8
LAYER_1
 62
   250
 10
238.0575
 20
-21.2464
  0
VERTEX
  8
LAYER_1
 62
   250
 10
238.3408
 20
-21.2992
  0
VERTEX
  8
LAYER_1
 62
   250
 10
238.6118
 20
-21.3415
  0
VERTEX
  8
LAYER_1
 62
   250
 10
238.8681
 20
-21.3593
  0
VERTEX
  8
LAYER_1
 62
   250
 10
238.9902
 20
-21.3546
  0
VERTEX
  8
LAYER_1
 62
   250
 10
239.1082
 20
-21.3383
  0
VERTEX
  8
LAYER_1
 62
   250
 10
239.2218
 20
-21.3087
  0
VERTEX
  8
LAYER_1
 62
   250
 10
239.3308
 20
-21.264
  0
VERTEX
  8
LAYER_1
 62
   250
 10
239.435
 20
-21.2025
  0
VERTEX
  8
LAYER_1
 62
   250
 10
239.5338
 20
-21.1238
  0
VERTEX
  8
LAYER_1
 62
   250
 10
239.6267
 20
-21.0273
  0
VERTEX
  8
LAYER_1
 62
   250
 10
239.7131
 20
-20.9128
  0
VERTEX
  8
LAYER_1
 62
   250
 10
239.7923
 20
-20.78
  0
VERTEX
  8
LAYER_1
 62
   250
 10
239.8638
 20
-20.6283
  0
VERTEX
  8
LAYER_1
 62
   250
 10
239.927
 20
-20.4575
  0
VERTEX
  8
LAYER_1
 62
   250
 10
239.9813
 20
-20.2673
  0
VERTEX
  8
LAYER_1
 62
   250
 10
240.0262
 20
-20.058
  0
VERTEX
  8
LAYER_1
 62
   250
 10
240.0622
 20
-19.8327
  0
VERTEX
  8
LAYER_1
 62
   250
 10
240.0896
 20
-19.5956
  0
VERTEX
  8
LAYER_1
 62
   250
 10
240.1092
 20
-19.3504
  0
VERTEX
  8
LAYER_1
 62
   250
 10
240.1263
 20
-18.8519
  0
VERTEX
  8
LAYER_1
 62
   250
 10
240.1179
 20
-18.3689
  0
VERTEX
  8
LAYER_1
 62
   250
 10
240.0878
 20
-17.929
  0
VERTEX
  8
LAYER_1
 62
   250
 10
240.0386
 20
-17.5432
  0
VERTEX
  8
LAYER_1
 62
   250
 10
239.9728
 20
-17.2186
  0
VERTEX
  8
LAYER_1
 62
   250
 10
239.893
 20
-16.9622
  0
VERTEX
  8
LAYER_1
 62
   250
 10
239.8472
 20
-16.8613
  0
VERTEX
  8
LAYER_1
 62
   250
 10
239.7901
 20
-16.7773
  0
VERTEX
  8
LAYER_1
 62
   250
 10
239.7136
 20
-16.7083
  0
VERTEX
  8
LAYER_1
 62
   250
 10
239.6091
 20
-16.6522
  0
VERTEX
  8
LAYER_1
 62
   250
 10
239.4685
 20
-16.6072
  0
VERTEX
  8
LAYER_1
 62
   250
 10
239.2834
 20
-16.5713
  0
VERTEX
  8
LAYER_1
 62
   250
 10
239.0455
 20
-16.5426
  0
VERTEX
  8
LAYER_1
 62
   250
 10
238.7464
 20
-16.5191
  0
VERTEX
  8
LAYER_1
 62
   250
 10
238.3822
 20
-16.4994
  0
VERTEX
  8
LAYER_1
 62
   250
 10
237.9658
 20
-16.4839
  0
VERTEX
  8
LAYER_1
 62
   250
 10
237.5144
 20
-16.4734
  0
VERTEX
  8
LAYER_1
 62
   250
 10
237.0454
 20
-16.4689
  0
VERTEX
  8
LAYER_1
 62
   250
 10
236.5759
 20
-16.4712
  0
VERTEX
  8
LAYER_1
 62
   250
 10
236.1233
 20
-16.4813
  0
VERTEX
  8
LAYER_1
 62
   250
 10
235.7048
 20
-16.4998
  0
VERTEX
  8
LAYER_1
 62
   250
 10
235.3377
 20
-16.5279
  0
VERTEX
  8
LAYER_1
 62
   250
 10
235.035
 20
-16.5662
  0
VERTEX
  8
LAYER_1
 62
   250
 10
234.793
 20
-16.6153
  0
VERTEX
  8
LAYER_1
 62
   250
 10
234.6037
 20
-16.6755
  0
VERTEX
  8
LAYER_1
 62
   250
 10
234.4591
 20
-16.7473
  0
VERTEX
  8
LAYER_1
 62
   250
 10
234.3513
 20
-16.8311
  0
VERTEX
  8
LAYER_1
 62
   250
 10
234.2724
 20
-16.9273
  0
VERTEX
  8
LAYER_1
 62
   250
 10
234.2143
 20
-17.0363
  0
VERTEX
  8
LAYER_1
 62
   250
 10
234.1692
 20
-17.1585
  0
VERTEX
  8
LAYER_1
 62
   250
 10
234.096
 20
-17.4405
  0
VERTEX
  8
LAYER_1
 62
   250
 10
234.0402
 20
-17.7571
  0
VERTEX
  8
LAYER_1
 62
   250
 10
233.9993
 20
-18.0886
  0
VERTEX
  8
LAYER_1
 62
   250
 10
233.9707
 20
-18.4152
  0
VERTEX
  8
LAYER_1
 62
   250
 10
233.9618
 20
-19.4119
  0
VERTEX
  8
LAYER_1
 62
   250
 10
233.9736
 20
-19.4865
  0
VERTEX
  8
LAYER_1
 62
   250
 10
233.9906
 20
-19.5487
  0
VERTEX
  8
LAYER_1
 62
   250
 10
234.0152
 20
-19.5996
  0
VERTEX
  8
LAYER_1
 62
   250
 10
234.0498
 20
-19.6401
  0
VERTEX
  8
LAYER_1
 62
   250
 10
234.0966
 20
-19.671
  0
VERTEX
  8
LAYER_1
 62
   250
 10
234.1582
 20
-19.6934
  0
VERTEX
  8
LAYER_1
 62
   250
 10
234.2367
 20
-19.7081
  0
VERTEX
  8
LAYER_1
 62
   250
 10
234.3345
 20
-19.7161
  0
VERTEX
  8
LAYER_1
 62
   250
 10
235.4855
 20
-19.6963
  0
VERTEX
  8
LAYER_1
 62
   250
 10
235.7088
 20
-19.7188
  0
VERTEX
  8
LAYER_1
 62
   250
 10
235.8681
 20
-19.7589
  0
VERTEX
  8
LAYER_1
 62
   250
 10
235.9661
 20
-19.8101
  0
VERTEX
  8
LAYER_1
 62
   250
 10
236.0058
 20
-19.8661
  0
VERTEX
  8
LAYER_1
 62
   250
 10
236.0048
 20
-19.894
  0
VERTEX
  8
LAYER_1
 62
   250
 10
235.9903
 20
-19.9211
  0
VERTEX
  8
LAYER_1
 62
   250
 10
235.963
 20
-19.9471
  0
VERTEX
  8
LAYER_1
 62
   250
 10
235.9232
 20
-19.9717
  0
VERTEX
  8
LAYER_1
 62
   250
 10
235.808
 20
-20.0152
  0
VERTEX
  8
LAYER_1
 62
   250
 10
235.6486
 20
-20.0491
  0
VERTEX
  8
LAYER_1
 62
   250
 10
234.802
 20
-20.1439
  0
VERTEX
  8
LAYER_1
 62
   250
 10
234.6258
 20
-20.1919
  0
VERTEX
  8
LAYER_1
 62
   250
 10
234.4859
 20
-20.2536
  0
VERTEX
  8
LAYER_1
 62
   250
 10
234.3843
 20
-20.3244
  0
VERTEX
  8
LAYER_1
 62
   250
 10
234.3235
 20
-20.3997
  0
VERTEX
  8
LAYER_1
 62
   250
 10
234.309
 20
-20.4379
  0
VERTEX
  8
LAYER_1
 62
   250
 10
234.3051
 20
-20.4768
  0
VERTEX
  8
LAYER_1
 62
   250
 10
234.3114
 20
-20.5174
  0
VERTEX
  8
LAYER_1
 62
   250
 10
234.328
 20
-20.5603
  0
VERTEX
  8
LAYER_1
 62
   250
 10
234.3905
 20
-20.6567
  0
VERTEX
  8
LAYER_1
 62
   250
 10
234.4911
 20
-20.7722
  0
SEQEND
  8
LAYER_1
 62
   250
  0
POLYLINE
  8
LAYER_1
 62
   250
 66
     1
 70
     1
  0
VERTEX
  8
LAYER_1
 62
   250
 10
235.4237
 20
-14.0827
  0
VERTEX
  8
LAYER_1
 62
   250
 10
235.5451
 20
-9.4458
  0
VERTEX
  8
LAYER_1
 62
   250
 10
235.5761
 20
-8.7598
  0
VERTEX
  8
LAYER_1
 62
   250
 10
235.6043
 20
-8.393
  0
VERTEX
  8
LAYER_1
 62
   250
 10
235.6322
 20
-8.2427
  0
VERTEX
  8
LAYER_1
 62
   250
 10
235.6619
 20
-8.2066
  0
VERTEX
  8
LAYER_1
 62
   250
 10
235.7964
 20
-8.2441
  0
VERTEX
  8
LAYER_1
 62
   250
 10
235.8235
 20
-8.2975
  0
VERTEX
  8
LAYER_1
 62
   250
 10
235.8446
 20
-8.4613
  0
VERTEX
  8
LAYER_1
 62
   250
 10
235.8587
 20
-8.8351
  0
VERTEX
  8
LAYER_1
 62
   250
 10
235.8647
 20
-9.5185
  0
VERTEX
  8
LAYER_1
 62
   250
 10
235.8206
 20
-14.0782
  0
VERTEX
  8
LAYER_1
 62
   250
 10
235.8016
 20
-14.7458
  0
VERTEX
  8
LAYER_1
 62
   250
 10
235.7789
 20
-15.1009
  0
VERTEX
  8
LAYER_1
 62
   250
 10
235.7653
 20
-15.1936
  0
VERTEX
  8
LAYER_1
 62
   250
 10
235.7498
 20
-15.247
  0
VERTEX
  8
LAYER_1
 62
   250
 10
235.732
 20
-15.274
  0
VERTEX
  8
LAYER_1
 62
   250
 10
235.7115
 20
-15.2876
  0
VERTEX
  8
LAYER_1
 62
   250
 10
235.512
 20
-15.346
  0
VERTEX
  8
LAYER_1
 62
   250
 10
235.4359
 20
-15.3096
  0
VERTEX
  8
LAYER_1
 62
   250
 10
235.4237
 20
-14.0827
  0
SEQEND
  8
LAYER_1
 62
   250
  0
POLYLINE
  8
LAYER_1
 62
   250
 66
     1
 70
     1
  0
VERTEX
  8
LAYER_1
 62
   250
 10
237.0399
 20
-15.3559
  0
VERTEX
  8
LAYER_1
 62
   250
 10
238.0697
 20
-15.41
  0
VERTEX
  8
LAYER_1
 62
   250
 10
238.4213
 20
-15.3912
  0
VERTEX
  8
LAYER_1
 62
   250
 10
238.4423
 20
-15.3597
  0
VERTEX
  8
LAYER_1
 62
   250
 10
238.4558
 20
-15.2196
  0
VERTEX
  8
LAYER_1
 62
   250
 10
238.4598
 20
-14.8648
  0
VERTEX
  8
LAYER_1
 62
   250
 10
238.4522
 20
-14.1896
  0
VERTEX
  8
LAYER_1
 62
   250
 10
238.342
 20
-9.5406
  0
VERTEX
  8
LAYER_1
 62
   250
 10
238.3168
 20
-8.8386
  0
VERTEX
  8
LAYER_1
 62
   250
 10
238.2895
 20
-8.452
  0
VERTEX
  8
LAYER_1
 62
   250
 10
238.2724
 20
-8.3458
  0
VERTEX
  8
LAYER_1
 62
   250
 10
238.2513
 20
-8.2811
  0
VERTEX
  8
LAYER_1
 62
   250
 10
238.2253
 20
-8.2455
  0
VERTEX
  8
LAYER_1
 62
   250
 10
238.1932
 20
-8.2265
  0
VERTEX
  8
LAYER_1
 62
   250
 10
237.7279
 20
-8.1868
  0
VERTEX
  8
LAYER_1
 62
   250
 10
237.1745
 20
-8.1934
  0
VERTEX
  8
LAYER_1
 62
   250
 10
237.1299
 20
-8.2064
  0
VERTEX
  8
LAYER_1
 62
   250
 10
237.0929
 20
-8.2355
  0
VERTEX
  8
LAYER_1
 62
   250
 10
237.0621
 20
-8.2933
  0
VERTEX
  8
LAYER_1
 62
   250
 10
237.036
 20
-8.3924
  0
VERTEX
  8
LAYER_1
 62
   250
 10
236.993
 20
-8.7652
  0
VERTEX
  8
LAYER_1
 62
   250
 10
236.9529
 20
-9.4546
  0
VERTEX
  8
LAYER_1
 62
   250
 10
236.7843
 20
-14.0738
  0
VERTEX
  8
LAYER_1
 62
   250
 10
236.7644
 20
-15.2766
  0
VERTEX
  8
LAYER_1
 62
   250
 10
236.7752
 20
-15.2961
  0
VERTEX
  8
LAYER_1
 62
   250
 10
236.8096
 20
-15.3163
  0
VERTEX
  8
LAYER_1
 62
   250
 10
236.8902
 20
-15.3364
  0
VERTEX
  8
LAYER_1
 62
   250
 10
237.0399
 20
-15.3559
  0
SEQEND
  8
LAYER_1
 62
   250
  0
POLYLINE
  8
LAYER_1
 62
   250
 66
     1
 70
     1
  0
VERTEX
  8
LAYER_1
 62
   250
 10
233.6279
 20
-5.8617
  0
VERTEX
  8
LAYER_1
 62
   250
 10
233.7279
 20
-6.051
  0
VERTEX
  8
LAYER_1
 62
   250
 10
233.8612
 20
-6.2791
  0
VERTEX
  8
LAYER_1
 62
   250
 10
234.0187
 20
-6.5149
  0
VERTEX
  8
LAYER_1
 62
   250
 10
234.1912
 20
-6.7271
  0
VERTEX
  8
LAYER_1
 62
   250
 10
234.2804
 20
-6.8155
  0
VERTEX
  8
LAYER_1
 62
   250
 10
234.3713
 20
-6.8912
  0
VERTEX
  8
LAYER_1
 62
   250
 10
234.4639
 20
-6.9551
  0
VERTEX
  8
LAYER_1
 62
   250
 10
234.5585
 20
-7.008
  0
VERTEX
  8
LAYER_1
 62
   250
 10
234.7541
 20
-7.0847
  0
VERTEX
  8
LAYER_1
 62
   250
 10
234.9596
 20
-7.1284
  0
VERTEX
  8
LAYER_1
 62
   250
 10
235.1763
 20
-7.1466
  0
VERTEX
  8
LAYER_1
 62
   250
 10
235.4059
 20
-7.1465
  0
VERTEX
  8
LAYER_1
 62
   250
 10
235.6499
 20
-7.1354
  0
VERTEX
  8
LAYER_1
 62
   250
 10
235.91
 20
-7.1207
  0
VERTEX
  8
LAYER_1
 62
   250
 10
237.051
 20
-7.1108
  0
VERTEX
  8
LAYER_1
 62
   250
 10
238.0531
 20
-7.21
  0
VERTEX
  8
LAYER_1
 62
   250
 10
238.2493
 20
-7.2332
  0
VERTEX
  8
LAYER_1
 62
   250
 10
238.4314
 20
-7.2322
  0
VERTEX
  8
LAYER_1
 62
   250
 10
238.5211
 20
-7.2157
  0
VERTEX
  8
LAYER_1
 62
   250
 10
238.612
 20
-7.185
  0
VERTEX
  8
LAYER_1
 62
   250
 10
238.7058
 20
-7.1373
  0
VERTEX
  8
LAYER_1
 62
   250
 10
238.8039
 20
-7.0699
  0
VERTEX
  8
LAYER_1
 62
   250
 10
239.0144
 20
-6.875
  0
VERTEX
  8
LAYER_1
 62
   250
 10
239.2297
 20
-6.6271
  0
VERTEX
  8
LAYER_1
 62
   250
 10
239.4305
 20
-6.3631
  0
VERTEX
  8
LAYER_1
 62
   250
 10
239.5976
 20
-6.1197
  0
VERTEX
  8
LAYER_1
 62
   250
 10
239.7155
 20
-5.9262
  0
VERTEX
  8
LAYER_1
 62
   250
 10
239.7834
 20
-5.7814
  0
VERTEX
  8
LAYER_1
 62
   250
 10
239.7995
 20
-5.7245
  0
VERTEX
  8
LAYER_1
 62
   250
 10
239.8041
 20
-5.6764
  0
VERTEX
  8
LAYER_1
 62
   250
 10
239.7977
 20
-5.6362
  0
VERTEX
  8
LAYER_1
 62
   250
 10
239.7806
 20
-5.6026
  0
VERTEX
  8
LAYER_1
 62
   250
 10
239.7139
 20
-5.5516
  0
VERTEX
  8
LAYER_1
 62
   250
 10
239.5975
 20
-5.5167
  0
VERTEX
  8
LAYER_1
 62
   250
 10
239.423
 20
-5.4916
  0
VERTEX
  8
LAYER_1
 62
   250
 10
239.182
 20
-5.4703
  0
VERTEX
  8
LAYER_1
 62
   250
 10
238.8746
 20
-5.4472
  0
VERTEX
  8
LAYER_1
 62
   250
 10
238.5344
 20
-5.4193
  0
VERTEX
  8
LAYER_1
 62
   250
 10
238.2032
 20
-5.3841
  0
VERTEX
  8
LAYER_1
 62
   250
 10
237.923
 20
-5.3392
  0
VERTEX
  8
LAYER_1
 62
   250
 10
237.8142
 20
-5.3126
  0
VERTEX
  8
LAYER_1
 62
   250
 10
237.7283
 20
-5.2833
  0
VERTEX
  8
LAYER_1
 62
   250
 10
237.6646
 20
-5.2519
  0
VERTEX
  8
LAYER_1
 62
   250
 10
237.6226
 20
-5.2188
  0
VERTEX
  8
LAYER_1
 62
   250
 10
237.602
 20
-5.1842
  0
VERTEX
  8
LAYER_1
 62
   250
 10
237.6022
 20
-5.1488
  0
VERTEX
  8
LAYER_1
 62
   250
 10
237.6226
 20
-5.1129
  0
VERTEX
  8
LAYER_1
 62
   250
 10
237.6629
 20
-5.0768
  0
VERTEX
  8
LAYER_1
 62
   250
 10
237.7988
 20
-5.006
  0
VERTEX
  8
LAYER_1
 62
   250
 10
237.995
 20
-4.9394
  0
VERTEX
  8
LAYER_1
 62
   250
 10
238.2346
 20
-4.8801
  0
VERTEX
  8
LAYER_1
 62
   250
 10
238.5007
 20
-4.8309
  0
VERTEX
  8
LAYER_1
 62
   250
 10
238.7759
 20
-4.7927
  0
VERTEX
  8
LAYER_1
 62
   250
 10
239.0415
 20
-4.7567
  0
VERTEX
  8
LAYER_1
 62
   250
 10
239.278
 20
-4.7117
  0
VERTEX
  8
LAYER_1
 62
   250
 10
239.4664
 20
-4.6468
  0
VERTEX
  8
LAYER_1
 62
   250
 10
239.5371
 20
-4.6038
  0
VERTEX
  8
LAYER_1
 62
   250
 10
239.5917
 20
-4.5535
  0
VERTEX
  8
LAYER_1
 62
   250
 10
239.6311
 20
-4.4966
  0
VERTEX
  8
LAYER_1
 62
   250
 10
239.6559
 20
-4.4337
  0
VERTEX
  8
LAYER_1
 62
   250
 10
239.6671
 20
-4.3651
  0
VERTEX
  8
LAYER_1
 62
   250
 10
239.6654
 20
-4.2917
  0
VERTEX
  8
LAYER_1
 62
   250
 10
239.6515
 20
-4.2138
  0
VERTEX
  8
LAYER_1
 62
   250
 10
239.6263
 20
-4.132
  0
VERTEX
  8
LAYER_1
 62
   250
 10
239.5456
 20
-3.9603
  0
VERTEX
  8
LAYER_1
 62
   250
 10
239.4316
 20
-3.7871
  0
VERTEX
  8
LAYER_1
 62
   250
 10
239.2935
 20
-3.624
  0
VERTEX
  8
LAYER_1
 62
   250
 10
239.1401
 20
-3.4827
  0
VERTEX
  8
LAYER_1
 62
   250
 10
238.9782
 20
-3.3723
  0
VERTEX
  8
LAYER_1
 62
   250
 10
238.8045
 20
-3.292
  0
VERTEX
  8
LAYER_1
 62
   250
 10
238.6134
 20
-3.2381
  0
VERTEX
  8
LAYER_1
 62
   250
 10
238.3993
 20
-3.2071
  0
VERTEX
  8
LAYER_1
 62
   250
 10
237.3916
 20
-3.2104
  0
VERTEX
  8
LAYER_1
 62
   250
 10
236.4799
 20
-3.1761
  0
VERTEX
  8
LAYER_1
 62
   250
 10
235.4845
 20
-3.0703
  0
VERTEX
  8
LAYER_1
 62
   250
 10
235.251
 20
-3.0541
  0
VERTEX
  8
LAYER_1
 62
   250
 10
235.0315
 20
-3.049
  0
VERTEX
  8
LAYER_1
 62
   250
 10
234.8254
 20
-3.0581
  0
VERTEX
  8
LAYER_1
 62
   250
 10
234.6322
 20
-3.0847
  0
VERTEX
  8
LAYER_1
 62
   250
 10
234.452
 20
-3.1325
  0
VERTEX
  8
LAYER_1
 62
   250
 10
234.2865
 20
-3.2072
  0
VERTEX
  8
LAYER_1
 62
   250
 10
234.21
 20
-3.2567
  0
VERTEX
  8
LAYER_1
 62
   250
 10
234.1381
 20
-3.3153
  0
VERTEX
  8
LAYER_1
 62
   250
 10
234.0711
 20
-3.3838
  0
VERTEX
  8
LAYER_1
 62
   250
 10
234.0093
 20
-3.4629
  0
VERTEX
  8
LAYER_1
 62
   250
 10
233.902
 20
-3.652
  0
VERTEX
  8
LAYER_1
 62
   250
 10
233.8166
 20
-3.8672
  0
VERTEX
  8
LAYER_1
 62
   250
 10
233.7528
 20
-4.0886
  0
VERTEX
  8
LAYER_1
 62
   250
 10
233.7106
 20
-4.2963
  0
VERTEX
  8
LAYER_1
 62
   250
 10
233.6897
 20
-4.4745
  0
VERTEX
  8
LAYER_1
 62
   250
 10
233.6893
 20
-4.6228
  0
VERTEX
  8
LAYER_1
 62
   250
 10
233.708
 20
-4.7448
  0
VERTEX
  8
LAYER_1
 62
   250
 10
233.7448
 20
-4.8442
  0
VERTEX
  8
LAYER_1
 62
   250
 10
233.8005
 20
-4.9243
  0
VERTEX
  8
LAYER_1
 62
   250
 10
233.8837
 20
-4.9871
  0
VERTEX
  8
LAYER_1
 62
   250
 10
234.0049
 20
-5.0344
  0
VERTEX
  8
LAYER_1
 62
   250
 10
234.1747
 20
-5.068
  0
VERTEX
  8
LAYER_1
 62
   250
 10
235.1239
 20
-5.1341
  0
VERTEX
  8
LAYER_1
 62
   250
 10
235.2944
 20
-5.1569
  0
VERTEX
  8
LAYER_1
 62
   250
 10
235.4147
 20
-5.1869
  0
VERTEX
  8
LAYER_1
 62
   250
 10
235.4932
 20
-5.2233
  0
VERTEX
  8
LAYER_1
 62
   250
 10
235.5384
 20
-5.2653
  0
VERTEX
  8
LAYER_1
 62
   250
 10
235.5568
 20
-5.3119
  0
VERTEX
  8
LAYER_1
 62
   250
 10
235.5468
 20
-5.3601
  0
VERTEX
  8
LAYER_1
 62
   250
 10
235.5048
 20
-5.4067
  0
VERTEX
  8
LAYER_1
 62
   250
 10
235.4271
 20
-5.4483
  0
VERTEX
  8
LAYER_1
 62
   250
 10
234.8119
 20
-5.5277
  0
VERTEX
  8
LAYER_1
 62
   250
 10
234.0722
 20
-5.4891
  0
VERTEX
  8
LAYER_1
 62
   250
 10
233.6147
 20
-5.5089
  0
VERTEX
  8
LAYER_1
 62
   250
 10
233.5681
 20
-5.5267
  0
VERTEX
  8
LAYER_1
 62
   250
 10
233.5439
 20
-5.5475
  0
VERTEX
  8
LAYER_1
 62
   250
 10
233.5341
 20
-5.57
  0
VERTEX
  8
LAYER_1
 62
   250
 10
233.5309
 20
-5.5927
  0
VERTEX
  8
LAYER_1
 62
   250
 10
233.6279
 20
-5.8617
  0
SEQEND
  8
LAYER_1
 62
   250
  0
POLYLINE
  8
LAYER_1
 62
   250
 66
     1
 70
     1
  0
VERTEX
  8
LAYER_1
 62
   250
 10
235.8582
 20
-0.9723
  0
VERTEX
  8
LAYER_1
 62
   250
 10
235.8868
 20
2.8575
  0
VERTEX
  8
LAYER_1
 62
   250
 10
235.9
 20
3.1808
  0
VERTEX
  8
LAYER_1
 62
   250
 10
235.9174
 20
3.4284
  0
VERTEX
  8
LAYER_1
 62
   250
 10
235.9401
 20
3.6109
  0
VERTEX
  8
LAYER_1
 62
   250
 10
235.9693
 20
3.7387
  0
VERTEX
  8
LAYER_1
 62
   250
 10
236.0062
 20
3.8223
  0
VERTEX
  8
LAYER_1
 62
   250
 10
236.0521
 20
3.8723
  0
VERTEX
  8
LAYER_1
 62
   250
 10
236.1082
 20
3.8993
  0
VERTEX
  8
LAYER_1
 62
   250
 10
236.1757
 20
3.9136
  0
VERTEX
  8
LAYER_1
 62
   250
 10
237.0598
 20
3.949
  0
VERTEX
  8
LAYER_1
 62
   250
 10
238.0145
 20
3.8938
  0
VERTEX
  8
LAYER_1
 62
   250
 10
238.087
 20
3.8789
  0
VERTEX
  8
LAYER_1
 62
   250
 10
238.1454
 20
3.852
  0
VERTEX
  8
LAYER_1
 62
   250
 10
238.1912
 20
3.8023
  0
VERTEX
  8
LAYER_1
 62
   250
 10
238.2262
 20
3.7194
  0
VERTEX
  8
LAYER_1
 62
   250
 10
238.2521
 20
3.5925
  0
VERTEX
  8
LAYER_1
 62
   250
 10
238.2706
 20
3.4111
  0
VERTEX
  8
LAYER_1
 62
   250
 10
238.2835
 20
3.1645
  0
VERTEX
  8
LAYER_1
 62
   250
 10
238.2923
 20
2.8421
  0
VERTEX
  8
LAYER_1
 62
   250
 10
238.3012
 20
-0.9855
  0
VERTEX
  8
LAYER_1
 62
   250
 10
238.2981
 20
-1.306
  0
VERTEX
  8
LAYER_1
 62
   250
 10
238.2913
 20
-1.5504
  0
VERTEX
  8
LAYER_1
 62
   250
 10
238.2777
 20
-1.7291
  0
VERTEX
  8
LAYER_1
 62
   250
 10
238.2538
 20
-1.8529
  0
VERTEX
  8
LAYER_1
 62
   250
 10
238.2162
 20
-1.9323
  0
VERTEX
  8
LAYER_1
 62
   250
 10
238.1616
 20
-1.9781
  0
VERTEX
  8
LAYER_1
 62
   250
 10
238.0867
 20
-2.0007
  0
VERTEX
  8
LAYER_1
 62
   250
 10
237.988
 20
-2.0108
  0
VERTEX
  8
LAYER_1
 62
   250
 10
236.738
 20
-2.0351
  0
VERTEX
  8
LAYER_1
 62
   250
 10
236.1382
 20
-2.0527
  0
VERTEX
  8
LAYER_1
 62
   250
 10
235.9839
 20
-2.0505
  0
VERTEX
  8
LAYER_1
 62
   250
 10
235.8868
 20
-2.0041
  0
VERTEX
  8
LAYER_1
 62
   250
 10
235.8582
 20
-0.9723
  0
SEQEND
  8
LAYER_1
 62
   250
  0
POLYLINE
  8
LAYER_1
 62
   250
 66
     1
 70
     1
  0
VERTEX
  8
LAYER_1
 62
   250
 10
236.9319
 20
5.4615
  0
VERTEX
  8
LAYER_1
 62
   250
 10
236.8134
 20
5.4181
  0
VERTEX
  8
LAYER_1
 62
   250
 10
236.6847
 20
5.3689
  0
VERTEX
  8
LAYER_1
 62
   250
 10
236.5391
 20
5.3263
  0
VERTEX
  8
LAYER_1
 62
   250
 10
236.3697
 20
5.3027
  0
VERTEX
  8
LAYER_1
 62
   250
 10
236.1723
 20
5.3098
  0
VERTEX
  8
LAYER_1
 62
   250
 10
235.9533
 20
5.3562
  0
VERTEX
  8
LAYER_1
 62
   250
 10
235.8383
 20
5.3966
  0
VERTEX
  8
LAYER_1
 62
   250
 10
235.7213
 20
5.4497
  0
VERTEX
  8
LAYER_1
 62
   250
 10
235.6034
 20
5.5166
  0
VERTEX
  8
LAYER_1
 62
   250
 10
235.4855
 20
5.5982
  0
VERTEX
  8
LAYER_1
 62
   250
 10
235.369
 20
5.6953
  0
VERTEX
  8
LAYER_1
 62
   250
 10
235.2553
 20
5.8078
  0
VERTEX
  8
LAYER_1
 62
   250
 10
235.1459
 20
5.9355
  0
VERTEX
  8
LAYER_1
 62
   250
 10
235.0424
 20
6.078
  0
VERTEX
  8
LAYER_1
 62
   250
 10
234.9463
 20
6.2351
  0
VERTEX
  8
LAYER_1
 62
   250
 10
234.8593
 20
6.4065
  0
VERTEX
  8
LAYER_1
 62
   250
 10
234.7827
 20
6.5919
  0
VERTEX
  8
LAYER_1
 62
   250
 10
234.7183
 20
6.791
  0
VERTEX
  8
LAYER_1
 62
   250
 10
234.6671
 20
7.0029
  0
VERTEX
  8
LAYER_1
 62
   250
 10
234.6285
 20
7.2244
  0
VERTEX
  8
LAYER_1
 62
   250
 10
234.6016
 20
7.4514
  0
VERTEX
  8
LAYER_1
 62
   250
 10
234.5855
 20
7.6801
  0
VERTEX
  8
LAYER_1
 62
   250
 10
234.5812
 20
8.1268
  0
VERTEX
  8
LAYER_1
 62
   250
 10
234.608
 20
8.5329
  0
VERTEX
  8
LAYER_1
 62
   250
 10
234.6591
 20
8.8739
  0
VERTEX
  8
LAYER_1
 62
   250
 10
234.7324
 20
9.1525
  0
VERTEX
  8
LAYER_1
 62
   250
 10
234.8266
 20
9.3781
  0
VERTEX
  8
LAYER_1
 62
   250
 10
234.941
 20
9.5604
  0
VERTEX
  8
LAYER_1
 62
   250
 10
235.0726
 20
9.708
  0
VERTEX
  8
LAYER_1
 62
   250
 10
235.2114
 20
9.8266
  0
VERTEX
  8
LAYER_1
 62
   250
 10
235.3456
 20
9.9213
  0
VERTEX
  8
LAYER_1
 62
   250
 10
235.4635
 20
9.9969
  0
VERTEX
  8
LAYER_1
 62
   250
 10
235.513
 20
10.0305
  0
VERTEX
  8
LAYER_1
 62
   250
 10
235.556
 20
10.0697
  0
VERTEX
  8
LAYER_1
 62
   250
 10
235.593
 20
10.1234
  0
VERTEX
  8
LAYER_1
 62
   250
 10
235.6245
 20
10.2006
  0
VERTEX
  8
LAYER_1
 62
   250
 10
235.6731
 20
10.4617
  0
VERTEX
  8
LAYER_1
 62
   250
 10
235.706
 20
10.9252
  0
VERTEX
  8
LAYER_1
 62
   250
 10
235.7678
 20
14.0164
  0
VERTEX
  8
LAYER_1
 62
   250
 10
235.7895
 20
14.4828
  0
VERTEX
  8
LAYER_1
 62
   250
 10
235.829
 20
14.7411
  0
VERTEX
  8
LAYER_1
 62
   250
 10
235.8589
 20
14.8123
  0
VERTEX
  8
LAYER_1
 62
   250
 10
235.8974
 20
14.8558
  0
VERTEX
  8
LAYER_1
 62
   250
 10
235.9459
 20
14.8796
  0
VERTEX
  8
LAYER_1
 62
   250
 10
236.0059
 20
14.8918
  0
VERTEX
  8
LAYER_1
 62
   250
 10
236.7004
 20
14.9138
  0
VERTEX
  8
LAYER_1
 62
   250
 10
236.8356
 20
14.9269
  0
VERTEX
  8
LAYER_1
 62
   250
 10
236.9402
 20
14.9502
  0
VERTEX
  8
LAYER_1
 62
   250
 10
237.0241
 20
14.9851
  0
VERTEX
  8
LAYER_1
 62
   250
 10
237.0973
 20
15.0328
  0
VERTEX
  8
LAYER_1
 62
   250
 10
237.4215
 20
15.2996
  0
VERTEX
  8
LAYER_1
 62
   250
 10
237.5325
 20
15.3573
  0
VERTEX
  8
LAYER_1
 62
   250
 10
237.6613
 20
15.4041
  0
VERTEX
  8
LAYER_1
 62
   250
 10
237.8091
 20
15.4389
  0
VERTEX
  8
LAYER_1
 62
   250
 10
237.9771
 20
15.4606
  0
VERTEX
  8
LAYER_1
 62
   250
 10
238.1638
 20
15.4684
  0
VERTEX
  8
LAYER_1
 62
   250
 10
238.3563
 20
15.462
  0
VERTEX
  8
LAYER_1
 62
   250
 10
238.5389
 20
15.4411
  0
VERTEX
  8
LAYER_1
 62
   250
 10
238.6959
 20
15.4055
  0
VERTEX
  8
LAYER_1
 62
   250
 10
238.8139
 20
15.3555
  0
VERTEX
  8
LAYER_1
 62
   250
 10
238.8896
 20
15.2931
  0
VERTEX
  8
LAYER_1
 62
   250
 10
238.9112
 20
15.258
  0
VERTEX
  8
LAYER_1
 62
   250
 10
238.9219
 20
15.2207
  0
VERTEX
  8
LAYER_1
 62
   250
 10
238.9214
 20
15.1816
  0
VERTEX
  8
LAYER_1
 62
   250
 10
238.9097
 20
15.1409
  0
VERTEX
  8
LAYER_1
 62
   250
 10
238.7739
 20
14.9689
  0
VERTEX
  8
LAYER_1
 62
   250
 10
238.6033
 20
14.7969
  0
VERTEX
  8
LAYER_1
 62
   250
 10
238.5467
 20
14.7069
  0
VERTEX
  8
LAYER_1
 62
   250
 10
238.5112
 20
14.5627
  0
VERTEX
  8
LAYER_1
 62
   250
 10
238.4898
 20
14.3052
  0
VERTEX
  8
LAYER_1
 62
   250
 10
238.4754
 20
13.8753
  0
VERTEX
  8
LAYER_1
 62
   250
 10
238.4357
 20
11.1082
  0
VERTEX
  8
LAYER_1
 62
   250
 10
238.437
 20
10.6704
  0
VERTEX
  8
LAYER_1
 62
   250
 10
238.4561
 20
10.3922
  0
VERTEX
  8
LAYER_1
 62
   250
 10
238.4763
 20
10.2912
  0
VERTEX
  8
LAYER_1
 62
   250
 10
238.5057
 20
10.2041
  0
VERTEX
  8
LAYER_1
 62
   250
 10
238.546
 20
10.1221
  0
VERTEX
  8
LAYER_1
 62
   250
 10
238.5988
 20
10.0366
  0
VERTEX
  8
LAYER_1
 62
   250
 10
238.7414
 20
9.834
  0
VERTEX
  8
LAYER_1
 62
   250
 10
238.9122
 20
9.5946
  0
VERTEX
  8
LAYER_1
 62
   250
 10
239.0835
 20
9.3303
  0
VERTEX
  8
LAYER_1
 62
   250
 10
239.2272
 20
9.0533
  0
VERTEX
  8
LAYER_1
 62
   250
 10
239.2808
 20
8.9133
  0
VERTEX
  8
LAYER_1
 62
   250
 10
239.3215
 20
8.7718
  0
VERTEX
  8
LAYER_1
 62
   250
 10
239.3503
 20
8.6276
  0
VERTEX
  8
LAYER_1
 62
   250
 10
239.3681
 20
8.4795
  0
VERTEX
  8
LAYER_1
 62
   250
 10
239.3745
 20
8.1665
  0
VERTEX
  8
LAYER_1
 62
   250
 10
239.3485
 20
7.8229
  0
VERTEX
  8
LAYER_1
 62
   250
 10
239.2972
 20
7.445
  0
VERTEX
  8
LAYER_1
 62
   250
 10
239.2256
 20
7.0537
  0
VERTEX
  8
LAYER_1
 62
   250
 10
239.1384
 20
6.6761
  0
VERTEX
  8
LAYER_1
 62
   250
 10
239.0399
 20
6.3391
  0
VERTEX
  8
LAYER_1
 62
   250
 10
238.9337
 20
6.0638
  0
VERTEX
  8
LAYER_1
 62
   250
 10
238.8188
 20
5.8465
  0
VERTEX
  8
LAYER_1
 62
   250
 10
238.6932
 20
5.6776
  0
VERTEX
  8
LAYER_1
 62
   250
 10
238.5548
 20
5.5474
  0
VERTEX
  8
LAYER_1
 62
   250
 10
238.4029
 20
5.4479
  0
VERTEX
  8
LAYER_1
 62
   250
 10
238.2428
 20
5.3777
  0
VERTEX
  8
LAYER_1
 62
   250
 10
238.081
 20
5.3373
  0
VERTEX
  8
LAYER_1
 62
   250
 10
237.9241
 20
5.327
  0
VERTEX
  8
LAYER_1
 62
   250
 10
237.6409
 20
5.3824
  0
VERTEX
  8
LAYER_1
 62
   250
 10
237.3906
 20
5.4659
  0
VERTEX
  8
LAYER_1
 62
   250
 10
237.2737
 20
5.4906
  0
VERTEX
  8
LAYER_1
 62
   250
 10
237.1596
 20
5.4984
  0
VERTEX
  8
LAYER_1
 62
   250
 10
237.0464
 20
5.4889
  0
VERTEX
  8
LAYER_1
 62
   250
 10
236.9319
 20
5.4615
  0
SEQEND
  8
LAYER_1
 62
   250
  0
POLYLINE
  8
LAYER_1
 62
   250
 66
     1
 70
     1
  0
VERTEX
  8
LAYER_1
 62
   250
 10
235.844
 20
16.1144
  0
VERTEX
  8
LAYER_1
 62
   250
 10
237.3862
 20
16.1839
  0
VERTEX
  8
LAYER_1
 62
   250
 10
238.7841
 20
16.1221
  0
VERTEX
  8
LAYER_1
 62
   250
 10
238.9701
 20
16.1079
  0
VERTEX
  8
LAYER_1
 62
   250
 10
239.0879
 20
16.1059
  0
VERTEX
  8
LAYER_1
 62
   250
 10
239.1257
 20
16.1114
  0
VERTEX
  8
LAYER_1
 62
   250
 10
239.1519
 20
16.1224
  0
VERTEX
  8
LAYER_1
 62
   250
 10
239.1682
 20
16.1397
  0
VERTEX
  8
LAYER_1
 62
   250
 10
239.1766
 20
16.164
  0
VERTEX
  8
LAYER_1
 62
   250
 10
238.901
 20
18.618
  0
VERTEX
  8
LAYER_1
 62
   250
 10
237.9574
 20
28.4166
  0
VERTEX
  8
LAYER_1
 62
   250
 10
237.4172
 20
35.1745
  0
VERTEX
  8
LAYER_1
 62
   250
 10
237.3854
 20
35.5513
  0
VERTEX
  8
LAYER_1
 62
   250
 10
237.3586
 20
35.8165
  0
VERTEX
  8
LAYER_1
 62
   250
 10
237.3358
 20
35.9673
  0
VERTEX
  8
LAYER_1
 62
   250
 10
237.3158
 20
36.0008
  0
VERTEX
  8
LAYER_1
 62
   250
 10
237.2796
 20
35.7048
  0
VERTEX
  8
LAYER_1
 62
   250
 10
237.2408
 20
34.9056
  0
VERTEX
  8
LAYER_1
 62
   250
 10
237.2175
 20
34.3126
  0
VERTEX
  8
LAYER_1
 62
   250
 10
237.1892
 20
33.5997
  0
VERTEX
  8
LAYER_1
 62
   250
 10
237.1538
 20
32.7784
  0
VERTEX
  8
LAYER_1
 62
   250
 10
237.1092
 20
31.8602
  0
VERTEX
  8
LAYER_1
 62
   250
 10
237.0533
 20
30.8567
  0
VERTEX
  8
LAYER_1
 62
   250
 10
236.9839
 20
29.7795
  0
VERTEX
  8
LAYER_1
 62
   250
 10
236.899
 20
28.6399
  0
VERTEX
  8
LAYER_1
 62
   250
 10
236.7965
 20
27.4497
  0
VERTEX
  8
LAYER_1
 62
   250
 10
236.6755
 20
26.2226
  0
VERTEX
  8
LAYER_1
 62
   250
 10
236.5401
 20
24.9811
  0
VERTEX
  8
LAYER_1
 62
   250
 10
236.3956
 20
23.7501
  0
VERTEX
  8
LAYER_1
 62
   250
 10
236.2473
 20
22.5545
  0
VERTEX
  8
LAYER_1
 62
   250
 10
236.1005
 20
21.4191
  0
VERTEX
  8
LAYER_1
 62
   250
 10
235.9607
 20
20.3688
  0
VERTEX
  8
LAYER_1
 62
   250
 10
235.833
 20
19.4283
  0
VERTEX
  8
LAYER_1
 62
   250
 10
235.7228
 20
18.6225
  0
VERTEX
  8
LAYER_1
 62
   250
 10
235.4329
 20
16.2919
  0
VERTEX
  8
LAYER_1
 62
   250
 10
235.4693
 20
16.1045
  0
VERTEX
  8
LAYER_1
 62
   250
 10
235.844
 20
16.1144
  0
SEQEND
  8
LAYER_1
 62
   250
  0
POLYLINE
  8
LAYER_1
 62
   250
 66
     1
 70
     1
  0
VERTEX
  8
LAYER_1
 62
   250
 10
263.9703
 20
-4.3456
  0
VERTEX
  8
LAYER_1
 62
   250
 10
264.1246
 20
-1.1529
  0
VERTEX
  8
LAYER_1
 62
   250
 10
264.1299
 20
-0.8802
  0
VERTEX
  8
LAYER_1
 62
   250
 10
264.1267
 20
-0.6698
  0
VERTEX
  8
LAYER_1
 62
   250
 10
264.1107
 20
-0.5132
  0
VERTEX
  8
LAYER_1
 62
   250
 10
264.0781
 20
-0.4019
  0
VERTEX
  8
LAYER_1
 62
   250
 10
264.0247
 20
-0.3272
  0
VERTEX
  8
LAYER_1
 62
   250
 10
263.9464
 20
-0.2807
  0
VERTEX
  8
LAYER_1
 62
   250
 10
263.8392
 20
-0.2538
  0
VERTEX
  8
LAYER_1
 62
   250
 10
263.6991
 20
-0.2379
  0
VERTEX
  8
LAYER_1
 62
   250
 10
263.3217
 20
-0.2168
  0
VERTEX
  8
LAYER_1
 62
   250
 10
262.8709
 20
-0.2084
  0
VERTEX
  8
LAYER_1
 62
   250
 10
262.4214
 20
-0.2153
  0
VERTEX
  8
LAYER_1
 62
   250
 10
262.0477
 20
-0.2401
  0
VERTEX
  8
LAYER_1
 62
   250
 10
261.9103
 20
-0.2605
  0
VERTEX
  8
LAYER_1
 62
   250
 10
261.8059
 20
-0.2892
  0
VERTEX
  8
LAYER_1
 62
   250
 10
261.7297
 20
-0.329
  0
VERTEX
  8
LAYER_1
 62
   250
 10
261.6773
 20
-0.3829
  0
VERTEX
  8
LAYER_1
 62
   250
 10
261.6438
 20
-0.454
  0
VERTEX
  8
LAYER_1
 62
   250
 10
261.6247
 20
-0.5453
  0
VERTEX
  8
LAYER_1
 62
   250
 10
261.6154
 20
-0.6597
  0
VERTEX
  8
LAYER_1
 62
   250
 10
261.6111
 20
-0.8002
  0
VERTEX
  8
LAYER_1
 62
   250
 10
261.6066
 20
-2.2973
  0
VERTEX
  8
LAYER_1
 62
   250
 10
261.618
 20
-2.5064
  0
VERTEX
  8
LAYER_1
 62
   250
 10
261.648
 20
-2.6137
  0
VERTEX
  8
LAYER_1
 62
   250
 10
261.6742
 20
-2.6398
  0
VERTEX
  8
LAYER_1
 62
   250
 10
261.7102
 20
-2.6533
  0
VERTEX
  8
LAYER_1
 62
   250
 10
261.7577
 20
-2.6582
  0
VERTEX
  8
LAYER_1
 62
   250
 10
261.8183
 20
-2.6589
  0
VERTEX
  8
LAYER_1
 62
   250
 10
262.5129
 20
-2.6964
  0
VERTEX
  8
LAYER_1
 62
   250
 10
262.5708
 20
-2.7128
  0
VERTEX
  8
LAYER_1
 62
   250
 10
262.6151
 20
-2.7363
  0
VERTEX
  8
LAYER_1
 62
   250
 10
262.6478
 20
-2.7704
  0
VERTEX
  8
LAYER_1
 62
   250
 10
262.6708
 20
-2.8188
  0
VERTEX
  8
LAYER_1
 62
   250
 10
262.6955
 20
-2.9723
  0
VERTEX
  8
LAYER_1
 62
   250
 10
262.7047
 20
-3.2255
  0
VERTEX
  8
LAYER_1
 62
   250
 10
262.7576
 20
-4.7843
  0
VERTEX
  8
LAYER_1
 62
   250
 10
262.7888
 20
-5.0075
  0
VERTEX
  8
LAYER_1
 62
   250
 10
262.8282
 20
-5.1245
  0
VERTEX
  8
LAYER_1
 62
   250
 10
262.8742
 20
-5.1695
  0
VERTEX
  8
LAYER_1
 62
   250
 10
262.9252
 20
-5.1769
  0
VERTEX
  8
LAYER_1
 62
   250
 10
263.203
 20
-5.1724
  0
VERTEX
  8
LAYER_1
 62
   250
 10
263.6153
 20
-5.2011
  0
VERTEX
  8
LAYER_1
 62
   250
 10
263.8094
 20
-5.1878
  0
VERTEX
  8
LAYER_1
 62
   250
 10
263.8454
 20
-5.1623
  0
VERTEX
  8
LAYER_1
 62
   250
 10
263.8841
 20
-5.0611
  0
VERTEX
  8
LAYER_1
 62
   250
 10
263.9256
 20
-4.8127
  0
VERTEX
  8
LAYER_1
 62
   250
 10
263.9703
 20
-4.3456
  0
SEQEND
  8
LAYER_1
 62
   250
  0
POLYLINE
  8
LAYER_1
 62
   250
 66
     1
 70
     1
  0
VERTEX
  8
LAYER_1
 62
   250
 10
264.0706
 20
1.2201
  0
VERTEX
  8
LAYER_1
 62
   250
 10
263.8549
 20
1.2693
  0
VERTEX
  8
LAYER_1
 62
   250
 10
263.5777
 20
1.326
  0
VERTEX
  8
LAYER_1
 62
   250
 10
263.2606
 20
1.377
  0
VERTEX
  8
LAYER_1
 62
   250
 10
262.9252
 20
1.4091
  0
VERTEX
  8
LAYER_1
 62
   250
 10
262.5929
 20
1.4133
  0
VERTEX
  8
LAYER_1
 62
   250
 10
262.2844
 20
1.3976
  0
VERTEX
  8
LAYER_1
 62
   250
 10
262.0201
 20
1.3744
  0
VERTEX
  8
LAYER_1
 62
   250
 10
261.8205
 20
1.3562
  0
VERTEX
  8
LAYER_1
 62
   250
 10
261.751
 20
1.3575
  0
VERTEX
  8
LAYER_1
 62
   250
 10
261.7029
 20
1.3924
  0
VERTEX
  8
LAYER_1
 62
   250
 10
261.6766
 20
1.4903
  0
VERTEX
  8
LAYER_1
 62
   250
 10
261.6722
 20
1.6806
  0
VERTEX
  8
LAYER_1
 62
   250
 10
261.73
 20
2.4553
  0
VERTEX
  8
LAYER_1
 62
   250
 10
261.8779
 20
3.9513
  0
VERTEX
  8
LAYER_1
 62
   250
 10
262.9164
 20
14.3299
  0
VERTEX
  8
LAYER_1
 62
   250
 10
263.0108
 20
15.2154
  0
VERTEX
  8
LAYER_1
 62
   250
 10
263.0886
 20
15.8666
  0
VERTEX
  8
LAYER_1
 62
   250
 10
263.1543
 20
16.2798
  0
VERTEX
  8
LAYER_1
 62
   250
 10
263.2125
 20
16.4513
  0
VERTEX
  8
LAYER_1
 62
   250
 10
263.2675
 20
16.3774
  0
VERTEX
  8
LAYER_1
 62
   250
 10
263.3239
 20
16.0542
  0
VERTEX
  8
LAYER_1
 62
   250
 10
263.3861
 20
15.478
  0
VERTEX
  8
LAYER_1
 62
   250
 10
263.4588
 20
14.6452
  0
VERTEX
  8
LAYER_1
 62
   250
 10
264.2261
 20
4.0426
  0
VERTEX
  8
LAYER_1
 62
   250
 10
264.3991
 20
1.2754
  0
VERTEX
  8
LAYER_1
 62
   250
 10
264.3429
 20
1.185
  0
VERTEX
  8
LAYER_1
 62
   250
 10
264.0706
 20
1.2201
  0
SEQEND
  8
LAYER_1
 62
   250
  0
POLYLINE
  8
LAYER_1
 62
   250
 66
     1
 70
     1
  0
VERTEX
  8
LAYER_1
 62
   250
 10
261.0598
 20
-6.602
  0
VERTEX
  8
LAYER_1
 62
   250
 10
263.9218
 20
-6.6021
  0
VERTEX
  8
LAYER_1
 62
   250
 10
264.387
 20
-6.6107
  0
VERTEX
  8
LAYER_1
 62
   250
 10
264.672
 20
-6.623
  0
VERTEX
  8
LAYER_1
 62
   250
 10
264.8321
 20
-6.6436
  0
VERTEX
  8
LAYER_1
 62
   250
 10
264.9228
 20
-6.677
  0
VERTEX
  8
LAYER_1
 62
   250
 10
264.9914
 20
-6.7292
  0
VERTEX
  8
LAYER_1
 62
   250
 10
265.0529
 20
-6.8115
  0
VERTEX
  8
LAYER_1
 62
   250
 10
265.1144
 20
-6.9369
  0
VERTEX
  8
LAYER_1
 62
   250
 10
265.183
 20
-7.118
  0
VERTEX
  8
LAYER_1
 62
   250
 10
265.2618
 20
-7.3596
  0
VERTEX
  8
LAYER_1
 62
   250
 10
265.339
 20
-7.6337
  0
VERTEX
  8
LAYER_1
 62
   250
 10
265.3988
 20
-7.904
  0
VERTEX
  8
LAYER_1
 62
   250
 10
265.4255
 20
-8.1344
  0
VERTEX
  8
LAYER_1
 62
   250
 10
265.4205
 20
-8.2244
  0
VERTEX
  8
LAYER_1
 62
   250
 10
265.3951
 20
-8.2973
  0
VERTEX
  8
LAYER_1
 62
   250
 10
265.3411
 20
-8.355
  0
VERTEX
  8
LAYER_1
 62
   250
 10
265.2502
 20
-8.3993
  0
VERTEX
  8
LAYER_1
 62
   250
 10
265.1143
 20
-8.4321
  0
VERTEX
  8
LAYER_1
 62
   250
 10
264.9251
 20
-8.4554
  0
VERTEX
  8
LAYER_1
 62
   250
 10
264.6743
 20
-8.4709
  0
VERTEX
  8
LAYER_1
 62
   250
 10
264.3539
 20
-8.4806
  0
VERTEX
  8
LAYER_1
 62
   250
 10
260.7093
 20
-8.4431
  0
VERTEX
  8
LAYER_1
 62
   250
 10
260.4101
 20
-8.4288
  0
VERTEX
  8
LAYER_1
 62
   250
 10
260.1845
 20
-8.4107
  0
VERTEX
  8
LAYER_1
 62
   250
 10
260.0234
 20
-8.3861
  0
VERTEX
  8
LAYER_1
 62
   250
 10
259.9177
 20
-8.3525
  0
VERTEX
  8
LAYER_1
 62
   250
 10
259.8583
 20
-8.3071
  0
VERTEX
  8
LAYER_1
 62
   250
 10
259.8361
 20
-8.2475
  0
VERTEX
  8
LAYER_1
 62
   250
 10
259.8421
 20
-8.171
  0
VERTEX
  8
LAYER_1
 62
   250
 10
259.867
 20
-8.0749
  0
VERTEX
  8
LAYER_1
 62
   250
 10
260.2418
 20
-6.9791
  0
VERTEX
  8
LAYER_1
 62
   250
 10
260.2772
 20
-6.8803
  0
VERTEX
  8
LAYER_1
 62
   250
 10
260.3135
 20
-6.8008
  0
VERTEX
  8
LAYER_1
 62
   250
 10
260.3597
 20
-6.7383
  0
VERTEX
  8
LAYER_1
 62
   250
 10
260.4251
 20
-6.6905
  0
VERTEX
  8
LAYER_1
 62
   250
 10
260.5186
 20
-6.6553
  0
VERTEX
  8
LAYER_1
 62
   250
 10
260.6495
 20
-6.6303
  0
VERTEX
  8
LAYER_1
 62
   250
 10
260.8269
 20
-6.6132
  0
VERTEX
  8
LAYER_1
 62
   250
 10
261.0598
 20
-6.602
  0
SEQEND
  8
LAYER_1
 62
   250
  0
POLYLINE
  8
LAYER_1
 62
   250
 66
     1
 70
     1
  0
VERTEX
  8
LAYER_1
 62
   250
 10
260.6652
 20
-9.4552
  0
VERTEX
  8
LAYER_1
 62
   250
 10
260.8371
 20
-9.8322
  0
VERTEX
  8
LAYER_1
 62
   250
 10
260.8834
 20
-9.9141
  0
VERTEX
  8
LAYER_1
 62
   250
 10
260.9358
 20
-9.981
  0
VERTEX
  8
LAYER_1
 62
   250
 10
261.004
 20
-10.0331
  0
VERTEX
  8
LAYER_1
 62
   250
 10
261.0973
 20
-10.0703
  0
VERTEX
  8
LAYER_1
 62
   250
 10
262.0895
 20
-10.1188
  0
VERTEX
  8
LAYER_1
 62
   250
 10
264.1819
 20
-10.1475
  0
VERTEX
  8
LAYER_1
 62
   250
 10
264.4797
 20
-10.1448
  0
VERTEX
  8
LAYER_1
 62
   250
 10
264.6477
 20
-10.1272
  0
VERTEX
  8
LAYER_1
 62
   250
 10
264.698
 20
-10.1099
  0
VERTEX
  8
LAYER_1
 62
   250
 10
264.7338
 20
-10.0855
  0
VERTEX
  8
LAYER_1
 62
   250
 10
264.7611
 20
-10.0529
  0
VERTEX
  8
LAYER_1
 62
   250
 10
264.786
 20
-10.0108
  0
VERTEX
  8
LAYER_1
 62
   250
 10
264.9933
 20
-9.4971
  0
VERTEX
  8
LAYER_1
 62
   250
 10
265.0011
 20
-9.4449
  0
VERTEX
  8
LAYER_1
 62
   250
 10
264.9949
 20
-9.4002
  0
VERTEX
  8
LAYER_1
 62
   250
 10
264.9676
 20
-9.3621
  0
VERTEX
  8
LAYER_1
 62
   250
 10
264.912
 20
-9.3301
  0
VERTEX
  8
LAYER_1
 62
   250
 10
264.821
 20
-9.3032
  0
VERTEX
  8
LAYER_1
 62
   250
 10
264.6873
 20
-9.2807
  0
VERTEX
  8
LAYER_1
 62
   250
 10
264.5039
 20
-9.2618
  0
VERTEX
  8
LAYER_1
 62
   250
 10
264.2635
 20
-9.2457
  0
VERTEX
  8
LAYER_1
 62
   250
 10
261.417
 20
-9.1862
  0
VERTEX
  8
LAYER_1
 62
   250
 10
260.6541
 20
-9.2148
  0
VERTEX
  8
LAYER_1
 62
   250
 10
260.6188
 20
-9.2854
  0
VERTEX
  8
LAYER_1
 62
   250
 10
260.6652
 20
-9.4552
  0
SEQEND
  8
LAYER_1
 62
   250
  0
POLYLINE
  8
LAYER_1
 62
   250
 66
     1
 70
     1
  0
VERTEX
  8
LAYER_1
 62
   250
 10
262.515
 20
-12.4648
  0
VERTEX
  8
LAYER_1
 62
   250
 10
262.418
 20
-15.5649
  0
VERTEX
  8
LAYER_1
 62
   250
 10
262.4154
 20
-16.0354
  0
VERTEX
  8
LAYER_1
 62
   250
 10
262.4385
 20
-16.2991
  0
VERTEX
  8
LAYER_1
 62
   250
 10
262.4632
 20
-16.3737
  0
VERTEX
  8
LAYER_1
 62
   250
 10
262.4987
 20
-16.4207
  0
VERTEX
  8
LAYER_1
 62
   250
 10
262.5464
 20
-16.4483
  0
VERTEX
  8
LAYER_1
 62
   250
 10
262.6077
 20
-16.4645
  0
VERTEX
  8
LAYER_1
 62
   250
 10
263.3198
 20
-16.4865
  0
VERTEX
  8
LAYER_1
 62
   250
 10
263.382
 20
-16.4794
  0
VERTEX
  8
LAYER_1
 62
   250
 10
263.4306
 20
-16.4623
  0
VERTEX
  8
LAYER_1
 62
   250
 10
263.4666
 20
-16.4261
  0
VERTEX
  8
LAYER_1
 62
   250
 10
263.4913
 20
-16.362
  0
VERTEX
  8
LAYER_1
 62
   250
 10
263.5114
 20
-16.1145
  0
VERTEX
  8
LAYER_1
 62
   250
 10
263.5006
 20
-15.6487
  0
VERTEX
  8
LAYER_1
 62
   250
 10
263.3419
 20
-12.4737
  0
VERTEX
  8
LAYER_1
 62
   250
 10
263.3184
 20
-11.9998
  0
VERTEX
  8
LAYER_1
 62
   250
 10
263.2961
 20
-11.7422
  0
VERTEX
  8
LAYER_1
 62
   250
 10
263.2802
 20
-11.6726
  0
VERTEX
  8
LAYER_1
 62
   250
 10
263.2581
 20
-11.6309
  0
VERTEX
  8
LAYER_1
 62
   250
 10
263.228
 20
-11.6083
  0
VERTEX
  8
LAYER_1
 62
   250
 10
263.1875
 20
-11.5961
  0
VERTEX
  8
LAYER_1
 62
   250
 10
262.6782
 20
-11.5872
  0
VERTEX
  8
LAYER_1
 62
   250
 10
262.635
 20
-11.6001
  0
VERTEX
  8
LAYER_1
 62
   250
 10
262.6019
 20
-11.6245
  0
VERTEX
  8
LAYER_1
 62
   250
 10
262.577
 20
-11.6684
  0
VERTEX
  8
LAYER_1
 62
   250
 10
262.5586
 20
-11.74
  0
VERTEX
  8
LAYER_1
 62
   250
 10
262.5343
 20
-11.9984
  0
VERTEX
  8
LAYER_1
 62
   250
 10
262.515
 20
-12.4648
  0
SEQEND
  8
LAYER_1
 62
   250
  0
POLYLINE
  8
LAYER_1
 62
   250
 66
     1
 70
     1
  0
VERTEX
  8
LAYER_1
 62
   250
 10
276.0597
 20
-26.0247
  0
VERTEX
  8
LAYER_1
 62
   250
 10
276.043
 20
-25.8469
  0
VERTEX
  8
LAYER_1
 62
   250
 10
275.9853
 20
-25.5749
  0
VERTEX
  8
LAYER_1
 62
   250
 10
275.8954
 20
-25.2433
  0
VERTEX
  8
LAYER_1
 62
   250
 10
275.7819
 20
-24.8869
  0
VERTEX
  8
LAYER_1
 62
   250
 10
275.2439
 20
-23.5199
  0
VERTEX
  8
LAYER_1
 62
   250
 10
275.1175
 20
-23.1923
  0
VERTEX
  8
LAYER_1
 62
   250
 10
274.9832
 20
-22.8767
  0
VERTEX
  8
LAYER_1
 62
   250
 10
274.907
 20
-22.7261
  0
VERTEX
  8
LAYER_1
 62
   250
 10
274.8216
 20
-22.5817
  0
VERTEX
  8
LAYER_1
 62
   250
 10
274.7245
 20
-22.4447
  0
VERTEX
  8
LAYER_1
 62
   250
 10
274.6133
 20
-22.3161
  0
VERTEX
  8
LAYER_1
 62
   250
 10
274.4866
 20
-22.1969
  0
VERTEX
  8
LAYER_1
 62
   250
 10
274.3474
 20
-22.0878
  0
VERTEX
  8
LAYER_1
 62
   250
 10
274.1996
 20
-21.9894
  0
VERTEX
  8
LAYER_1
 62
   250
 10
274.0472
 20
-21.9022
  0
VERTEX
  8
LAYER_1
 62
   250
 10
273.7445
 20
-21.7636
  0
VERTEX
  8
LAYER_1
 62
   250
 10
273.4711
 20
-21.6767
  0
VERTEX
  8
LAYER_1
 62
   250
 10
273.2515
 20
-21.6395
  0
VERTEX
  8
LAYER_1
 62
   250
 10
273.0798
 20
-21.6238
  0
VERTEX
  8
LAYER_1
 62
   250
 10
273.0078
 20
-21.6131
  0
VERTEX
  8
LAYER_1
 62
   250
 10
272.9428
 20
-21.5948
  0
VERTEX
  8
LAYER_1
 62
   250
 10
272.8832
 20
-21.5645
  0
VERTEX
  8
LAYER_1
 62
   250
 10
272.8273
 20
-21.5179
  0
VERTEX
  8
LAYER_1
 62
   250
 10
272.7209
 20
-21.3687
  0
VERTEX
  8
LAYER_1
 62
   250
 10
272.6146
 20
-21.1641
  0
VERTEX
  8
LAYER_1
 62
   250
 10
272.4999
 20
-20.9313
  0
VERTEX
  8
LAYER_1
 62
   250
 10
272.3687
 20
-20.6977
  0
VERTEX
  8
LAYER_1
 62
   250
 10
272.216
 20
-20.4867
  0
VERTEX
  8
LAYER_1
 62
   250
 10
272.0501
 20
-20.3058
  0
VERTEX
  8
LAYER_1
 62
   250
 10
271.8826
 20
-20.1589
  0
VERTEX
  8
LAYER_1
 62
   250
 10
271.7249
 20
-20.0495
  0
VERTEX
  8
LAYER_1
 62
   250
 10
271.5836
 20
-19.9786
  0
VERTEX
  8
LAYER_1
 62
   250
 10
271.4444
 20
-19.9349
  0
VERTEX
  8
LAYER_1
 62
   250
 10
271.2877
 20
-19.9044
  0
VERTEX
  8
LAYER_1
 62
   250
 10
271.0943
 20
-19.8731
  0
VERTEX
  8
LAYER_1
 62
   250
 10
270.8523
 20
-19.8287
  0
VERTEX
  8
LAYER_1
 62
   250
 10
270.5801
 20
-19.7662
  0
VERTEX
  8
LAYER_1
 62
   250
 10
270.3037
 20
-19.6821
  0
VERTEX
  8
LAYER_1
 62
   250
 10
270.0493
 20
-19.5732
  0
VERTEX
  8
LAYER_1
 62
   250
 10
269.8362
 20
-19.44
  0
VERTEX
  8
LAYER_1
 62
   250
 10
269.6579
 20
-19.2982
  0
VERTEX
  8
LAYER_1
 62
   250
 10
269.501
 20
-19.167
  0
VERTEX
  8
LAYER_1
 62
   250
 10
269.3524
 20
-19.0661
  0
VERTEX
  8
LAYER_1
 62
   250
 10
269.2022
 20
-19.0093
  0
VERTEX
  8
LAYER_1
 62
   250
 10
269.0532
 20
-18.9889
  0
VERTEX
  8
LAYER_1
 62
   250
 10
268.9116
 20
-18.9917
  0
VERTEX
  8
LAYER_1
 62
   250
 10
268.7836
 20
-19.0043
  0
VERTEX
  8
LAYER_1
 62
   250
 10
268.4088
 20
-18.9956
  0
VERTEX
  8
LAYER_1
 62
   250
 10
268.3241
 20
-18.9631
  0
VERTEX
  8
LAYER_1
 62
   250
 10
268.2308
 20
-18.9278
  0
VERTEX
  8
LAYER_1
 62
   250
 10
268.1217
 20
-18.9031
  0
VERTEX
  8
LAYER_1
 62
   250
 10
267.9899
 20
-18.9029
  0
VERTEX
  8
LAYER_1
 62
   250
 10
267.8323
 20
-18.9346
  0
VERTEX
  8
LAYER_1
 62
   250
 10
267.6614
 20
-18.9807
  0
VERTEX
  8
LAYER_1
 62
   250
 10
267.4938
 20
-19.0177
  0
VERTEX
  8
LAYER_1
 62
   250
 10
267.3461
 20
-19.022
  0
VERTEX
  8
LAYER_1
 62
   250
 10
267.1228
 20
-18.9057
  0
VERTEX
  8
LAYER_1
 62
   250
 10
266.8566
 20
-18.7795
  0
VERTEX
  8
LAYER_1
 62
   250
 10
266.7621
 20
-18.7709
  0
VERTEX
  8
LAYER_1
 62
   250
 10
266.6556
 20
-18.7745
  0
VERTEX
  8
LAYER_1
 62
   250
 10
266.5395
 20
-18.7897
  0
VERTEX
  8
LAYER_1
 62
   250
 10
266.4162
 20
-18.8159
  0
VERTEX
  8
LAYER_1
 62
   250
 10
266.1577
 20
-18.8985
  0
VERTEX
  8
LAYER_1
 62
   250
 10
265.8997
 20
-19.0176
  0
VERTEX
  8
LAYER_1
 62
   250
 10
265.6583
 20
-19.1654
  0
VERTEX
  8
LAYER_1
 62
   250
 10
265.4372
 20
-19.3235
  0
VERTEX
  8
LAYER_1
 62
   250
 10
265.2368
 20
-19.4709
  0
VERTEX
  8
LAYER_1
 62
   250
 10
265.0574
 20
-19.5865
  0
VERTEX
  8
LAYER_1
 62
   250
 10
264.8978
 20
-19.6546
  0
VERTEX
  8
LAYER_1
 62
   250
 10
264.7499
 20
-19.6813
  0
VERTEX
  8
LAYER_1
 62
   250
 10
264.6035
 20
-19.6782
  0
VERTEX
  8
LAYER_1
 62
   250
 10
264.4489
 20
-19.657
  0
VERTEX
  8
LAYER_1
 62
   250
 10
264.2783
 20
-19.6297
  0
VERTEX
  8
LAYER_1
 62
   250
 10
264.0928
 20
-19.6107
  0
VERTEX
  8
LAYER_1
 62
   250
 10
263.8957
 20
-19.6148
  0
VERTEX
  8
LAYER_1
 62
   250
 10
263.6904
 20
-19.657
  0
VERTEX
  8
LAYER_1
 62
   250
 10
263.4785
 20
-19.7436
  0
VERTEX
  8
LAYER_1
 62
   250
 10
263.2555
 20
-19.8472
  0
VERTEX
  8
LAYER_1
 62
   250
 10
263.1378
 20
-19.894
  0
VERTEX
  8
LAYER_1
 62
   250
 10
263.0151
 20
-19.9317
  0
VERTEX
  8
LAYER_1
 62
   250
 10
262.8864
 20
-19.9556
  0
VERTEX
  8
LAYER_1
 62
   250
 10
262.7511
 20
-19.9612
  0
VERTEX
  8
LAYER_1
 62
   250
 10
262.6089
 20
-19.9458
  0
VERTEX
  8
LAYER_1
 62
   250
 10
262.4614
 20
-19.9129
  0
VERTEX
  8
LAYER_1
 62
   250
 10
262.3111
 20
-19.868
  0
VERTEX
  8
LAYER_1
 62
   250
 10
262.1602
 20
-19.8163
  0
VERTEX
  8
LAYER_1
 62
   250
 10
261.8656
 20
-19.7139
  0
VERTEX
  8
LAYER_1
 62
   250
 10
261.5957
 20
-19.6482
  0
VERTEX
  8
LAYER_1
 62
   250
 10
261.4751
 20
-19.6416
  0
VERTEX
  8
LAYER_1
 62
   250
 10
261.363
 20
-19.6548
  0
VERTEX
  8
LAYER_1
 62
   250
 10
261.2575
 20
-19.6879
  0
VERTEX
  8
LAYER_1
 62
   250
 10
261.1564
 20
-19.7408
  0
VERTEX
  8
LAYER_1
 62
   250
 10
261.0575
 20
-19.8136
  0
VERTEX
  8
LAYER_1
 62
   250
 10
260.9588
 20
-19.9062
  0
VERTEX
  8
LAYER_1
 62
   250
 10
260.8582
 20
-20.0186
  0
VERTEX
  8
LAYER_1
 62
   250
 10
260.7534
 20
-20.1509
  0
VERTEX
  8
LAYER_1
 62
   250
 10
260.5281
 20
-20.4668
  0
VERTEX
  8
LAYER_1
 62
   250
 10
260.2904
 20
-20.8124
  0
VERTEX
  8
LAYER_1
 62
   250
 10
260.0527
 20
-21.1382
  0
VERTEX
  8
LAYER_1
 62
   250
 10
259.8274
 20
-21.3945
  0
VERTEX
  8
LAYER_1
 62
   250
 10
259.7226
 20
-21.4831
  0
VERTEX
  8
LAYER_1
 62
   250
 10
259.6213
 20
-21.5475
  0
VERTEX
  8
LAYER_1
 62
   250
 10
259.5208
 20
-21.5932
  0
VERTEX
  8
LAYER_1
 62
   250
 10
259.4184
 20
-21.626
  0
VERTEX
  8
LAYER_1
 62
   250
 10
259.1974
 20
-21.6748
  0
VERTEX
  8
LAYER_1
 62
   250
 10
258.9366
 20
-21.7384
  0
VERTEX
  8
LAYER_1
 62
   250
 10
258.6211
 20
-21.8537
  0
VERTEX
  8
LAYER_1
 62
   250
 10
258.2614
 20
-22.0256
  0
VERTEX
  8
LAYER_1
 62
   250
 10
257.8744
 20
-22.2513
  0
VERTEX
  8
LAYER_1
 62
   250
 10
257.477
 20
-22.5278
  0
VERTEX
  8
LAYER_1
 62
   250
 10
257.0854
 20
-22.8496
  0
VERTEX
  8
LAYER_1
 62
   250
 10
256.7119
 20
-23.2003
  0
VERTEX
  8
LAYER_1
 62
   250
 10
256.3682
 20
-23.5609
  0
VERTEX
  8
LAYER_1
 62
   250
 10
256.0659
 20
-23.9124
  0
VERTEX
  8
LAYER_1
 62
   250
 10
255.8135
 20
-24.2396
  0
VERTEX
  8
LAYER_1
 62
   250
 10
255.6073
 20
-24.5425
  0
VERTEX
  8
LAYER_1
 62
   250
 10
255.4408
 20
-24.8246
  0
VERTEX
  8
LAYER_1
 62
   250
 10
255.3074
 20
-25.0898
  0
VERTEX
  8
LAYER_1
 62
   250
 10
255.1982
 20
-25.3383
  0
VERTEX
  8
LAYER_1
 62
   250
 10
255.0947
 20
-25.5562
  0
VERTEX
  8
LAYER_1
 62
   250
 10
255.0386
 20
-25.6482
  0
VERTEX
  8
LAYER_1
 62
   250
 10
254.9763
 20
-25.7261
  0
VERTEX
  8
LAYER_1
 62
   250
 10
254.9051
 20
-25.7877
  0
VERTEX
  8
LAYER_1
 62
   250
 10
254.8224
 20
-25.8307
  0
VERTEX
  8
LAYER_1
 62
   250
 10
254.7264
 20
-25.8543
  0
VERTEX
  8
LAYER_1
 62
   250
 10
254.6184
 20
-25.8627
  0
VERTEX
  8
LAYER_1
 62
   250
 10
254.5003
 20
-25.8611
  0
VERTEX
  8
LAYER_1
 62
   250
 10
254.3743
 20
-25.855
  0
VERTEX
  8
LAYER_1
 62
   250
 10
254.2422
 20
-25.8496
  0
VERTEX
  8
LAYER_1
 62
   250
 10
254.1062
 20
-25.8505
  0
VERTEX
  8
LAYER_1
 62
   250
 10
253.9681
 20
-25.863
  0
VERTEX
  8
LAYER_1
 62
   250
 10
253.8302
 20
-25.8924
  0
VERTEX
  8
LAYER_1
 62
   250
 10
253.6938
 20
-25.9431
  0
VERTEX
  8
LAYER_1
 62
   250
 10
253.5583
 20
-26.0154
  0
VERTEX
  8
LAYER_1
 62
   250
 10
253.4224
 20
-26.1082
  0
VERTEX
  8
LAYER_1
 62
   250
 10
253.2851
 20
-26.221
  0
VERTEX
  8
LAYER_1
 62
   250
 10
253.0011
 20
-26.5026
  0
VERTEX
  8
LAYER_1
 62
   250
 10
252.6969
 20
-26.8537
  0
VERTEX
  8
LAYER_1
 62
   250
 10
251.4842
 20
-28.4942
  0
VERTEX
  8
LAYER_1
 62
   250
 10
251.3058
 20
-28.7924
  0
VERTEX
  8
LAYER_1
 62
   250
 10
251.1844
 20
-29.0277
  0
VERTEX
  8
LAYER_1
 62
   250
 10
251.096
 20
-29.2234
  0
VERTEX
  8
LAYER_1
 62
   250
 10
251.0168
 20
-29.4025
  0
VERTEX
  8
LAYER_1
 62
   250
 10
250.9305
 20
-29.5859
  0
VERTEX
  8
LAYER_1
 62
   250
 10
250.8525
 20
-29.7845
  0
VERTEX
  8
LAYER_1
 62
   250
 10
250.8239
 20
-29.8923
  0
VERTEX
  8
LAYER_1
 62
   250
 10
250.8059
 20
-30.0071
  0
VERTEX
  8
LAYER_1
 62
   250
 10
250.8016
 20
-30.1301
  0
VERTEX
  8
LAYER_1
 62
   250
 10
250.8139
 20
-30.2624
  0
VERTEX
  8
LAYER_1
 62
   250
 10
250.8446
 20
-30.4044
  0
VERTEX
  8
LAYER_1
 62
   250
 10
250.8912
 20
-30.5538
  0
VERTEX
  8
LAYER_1
 62
   250
 10
250.9505
 20
-30.7079
  0
VERTEX
  8
LAYER_1
 62
   250
 10
251.019
 20
-30.8638
  0
VERTEX
  8
LAYER_1
 62
   250
 10
251.1699
 20
-31.1697
  0
VERTEX
  8
LAYER_1
 62
   250
 10
251.3166
 20
-31.4487
  0
VERTEX
  8
LAYER_1
 62
   250
 10
251.4345
 20
-31.6839
  0
VERTEX
  8
LAYER_1
 62
   250
 10
251.509
 20
-31.882
  0
VERTEX
  8
LAYER_1
 62
   250
 10
251.5262
 20
-31.9709
  0
VERTEX
  8
LAYER_1
 62
   250
 10
251.5281
 20
-32.0552
  0
VERTEX
  8
LAYER_1
 62
   250
 10
251.5131
 20
-32.1364
  0
VERTEX
  8
LAYER_1
 62
   250
 10
251.4798
 20
-32.216
  0
VERTEX
  8
LAYER_1
 62
   250
 10
251.3593
 20
-32.3745
  0
VERTEX
  8
LAYER_1
 62
   250
 10
251.1904
 20
-32.5313
  0
VERTEX
  8
LAYER_1
 62
   250
 10
251.0041
 20
-32.6848
  0
VERTEX
  8
LAYER_1
 62
   250
 10
250.8315
 20
-32.8333
  0
VERTEX
  8
LAYER_1
 62
   250
 10
250.6946
 20
-32.9736
  0
VERTEX
  8
LAYER_1
 62
   250
 10
250.5796
 20
-33.0957
  0
VERTEX
  8
LAYER_1
 62
   250
 10
250.5232
 20
-33.1463
  0
VERTEX
  8
LAYER_1
 62
   250
 10
250.4638
 20
-33.188
  0
VERTEX
  8
LAYER_1
 62
   250
 10
250.3985
 20
-33.2194
  0
VERTEX
  8
LAYER_1
 62
   250
 10
250.3244
 20
-33.239
  0
VERTEX
  8
LAYER_1
 62
   250
 10
250.1462
 20
-33.2433
  0
VERTEX
  8
LAYER_1
 62
   250
 10
249.9441
 20
-33.2208
  0
VERTEX
  8
LAYER_1
 62
   250
 10
249.7403
 20
-33.1974
  0
VERTEX
  8
LAYER_1
 62
   250
 10
249.5571
 20
-33.1993
  0
VERTEX
  8
LAYER_1
 62
   250
 10
249.4794
 20
-33.2171
  0
VERTEX
  8
LAYER_1
 62
   250
 10
249.4099
 20
-33.2467
  0
VERTEX
  8
LAYER_1
 62
   250
 10
249.3461
 20
-33.2868
  0
VERTEX
  8
LAYER_1
 62
   250
 10
249.2854
 20
-33.3366
  0
VERTEX
  8
LAYER_1
 62
   250
 10
249.1633
 20
-33.4604
  0
VERTEX
  8
LAYER_1
 62
   250
 10
249.0235
 20
-33.6095
  0
VERTEX
  8
LAYER_1
 62
   250
 10
248.3269
 20
-34.24
  0
VERTEX
  8
LAYER_1
 62
   250
 10
247.9564
 20
-34.5619
  0
VERTEX
  8
LAYER_1
 62
   250
 10
247.3435
 20
-34.9147
  0
VERTEX
  8
LAYER_1
 62
   250
 10
246.51
 20
-35.4703
  0
VERTEX
  8
LAYER_1
 62
   250
 10
246.3004
 20
-35.6048
  0
VERTEX
  8
LAYER_1
 62
   250
 10
246.1192
 20
-35.7327
  0
VERTEX
  8
LAYER_1
 62
   250
 10
246.0478
 20
-35.7952
  0
VERTEX
  8
LAYER_1
 62
   250
 10
245.9935
 20
-35.8573
  0
VERTEX
  8
LAYER_1
 62
   250
 10
245.9598
 20
-35.9194
  0
VERTEX
  8
LAYER_1
 62
   250
 10
245.95
 20
-35.9819
  0
VERTEX
  8
LAYER_1
 62
   250
 10
246.1126
 20
-36.2421
  0
VERTEX
  8
LAYER_1
 62
   250
 10
246.2983
 20
-36.5286
  0
VERTEX
  8
LAYER_1
 62
   250
 10
246.3016
 20
-36.606
  0
VERTEX
  8
LAYER_1
 62
   250
 10
246.284
 20
-36.6861
  0
VERTEX
  8
LAYER_1
 62
   250
 10
246.249
 20
-36.7692
  0
VERTEX
  8
LAYER_1
 62
   250
 10
246.2002
 20
-36.8556
  0
VERTEX
  8
LAYER_1
 62
   250
 10
246.0751
 20
-37.0391
  0
VERTEX
  8
LAYER_1
 62
   250
 10
245.9368
 20
-37.2387
  0
VERTEX
  8
LAYER_1
 62
   250
 10
245.8715
 20
-37.3452
  0
VERTEX
  8
LAYER_1
 62
   250
 10
245.8138
 20
-37.4563
  0
VERTEX
  8
LAYER_1
 62
   250
 10
245.7676
 20
-37.5722
  0
VERTEX
  8
LAYER_1
 62
   250
 10
245.7367
 20
-37.6929
  0
VERTEX
  8
LAYER_1
 62
   250
 10
245.725
 20
-37.8186
  0
VERTEX
  8
LAYER_1
 62
   250
 10
245.7364
 20
-37.9493
  0
VERTEX
  8
LAYER_1
 62
   250
 10
245.7748
 20
-38.0852
  0
VERTEX
  8
LAYER_1
 62
   250
 10
245.8441
 20
-38.2264
  0
VERTEX
  8
LAYER_1
 62
   250
 10
245.9459
 20
-38.3722
  0
VERTEX
  8
LAYER_1
 62
   250
 10
246.0733
 20
-38.5184
  0
VERTEX
  8
LAYER_1
 62
   250
 10
246.217
 20
-38.6604
  0
VERTEX
  8
LAYER_1
 62
   250
 10
246.3678
 20
-38.7931
  0
VERTEX
  8
LAYER_1
 62
   250
 10
246.654
 20
-39.0116
  0
VERTEX
  8
LAYER_1
 62
   250
 10
246.8584
 20
-39.1349
  0
VERTEX
  8
LAYER_1
 62
   250
 10
246.9094
 20
-39.1502
  0
VERTEX
  8
LAYER_1
 62
   250
 10
246.9274
 20
-39.1357
  0
VERTEX
  8
LAYER_1
 62
   250
 10
246.9182
 20
-39.095
  0
VERTEX
  8
LAYER_1
 62
   250
 10
246.8876
 20
-39.0318
  0
VERTEX
  8
LAYER_1
 62
   250
 10
246.7859
 20
-38.8527
  0
VERTEX
  8
LAYER_1
 62
   250
 10
246.6688
 20
-38.6277
  0
VERTEX
  8
LAYER_1
 62
   250
 10
246.6184
 20
-38.5067
  0
VERTEX
  8
LAYER_1
 62
   250
 10
246.5773
 20
-38.3825
  0
VERTEX
  8
LAYER_1
 62
   250
 10
246.5469
 20
-38.2561
  0
VERTEX
  8
LAYER_1
 62
   250
 10
246.5288
 20
-38.1283
  0
VERTEX
  8
LAYER_1
 62
   250
 10
246.5242
 20
-38.0001
  0
VERTEX
  8
LAYER_1
 62
   250
 10
246.5348
 20
-37.8724
  0
VERTEX
  8
LAYER_1
 62
   250
 10
246.5619
 20
-37.7462
  0
VERTEX
  8
LAYER_1
 62
   250
 10
246.607
 20
-37.6223
  0
VERTEX
  8
LAYER_1
 62
   250
 10
246.6709
 20
-37.5019
  0
VERTEX
  8
LAYER_1
 62
   250
 10
246.7521
 20
-37.3869
  0
VERTEX
  8
LAYER_1
 62
   250
 10
246.8482
 20
-37.2791
  0
VERTEX
  8
LAYER_1
 62
   250
 10
246.9571
 20
-37.1808
  0
VERTEX
  8
LAYER_1
 62
   250
 10
247.0765
 20
-37.0938
  0
VERTEX
  8
LAYER_1
 62
   250
 10
247.2042
 20
-37.0201
  0
VERTEX
  8
LAYER_1
 62
   250
 10
247.338
 20
-36.9619
  0
VERTEX
  8
LAYER_1
 62
   250
 10
247.4757
 20
-36.9211
  0
VERTEX
  8
LAYER_1
 62
   250
 10
247.7533
 20
-36.8897
  0
VERTEX
  8
LAYER_1
 62
   250
 10
248.0165
 20
-36.8914
  0
VERTEX
  8
LAYER_1
 62
   250
 10
248.136
 20
-36.8906
  0
VERTEX
  8
LAYER_1
 62
   250
 10
248.2441
 20
-36.8814
  0
VERTEX
  8
LAYER_1
 62
   250
 10
248.3379
 20
-36.8582
  0
VERTEX
  8
LAYER_1
 62
   250
 10
248.415
 20
-36.8153
  0
VERTEX
  8
LAYER_1
 62
   250
 10
248.4738
 20
-36.7487
  0
VERTEX
  8
LAYER_1
 62
   250
 10
248.5173
 20
-36.6603
  0
VERTEX
  8
LAYER_1
 62
   250
 10
248.5498
 20
-36.5535
  0
VERTEX
  8
LAYER_1
 62
   250
 10
248.5754
 20
-36.4317
  0
VERTEX
  8
LAYER_1
 62
   250
 10
248.6228
 20
-36.1568
  0
VERTEX
  8
LAYER_1
 62
   250
 10
248.6928
 20
-35.8628
  0
VERTEX
  8
LAYER_1
 62
   250
 10
248.7459
 20
-35.7171
  0
VERTEX
  8
LAYER_1
 62
   250
 10
248.8116
 20
-35.576
  0
VERTEX
  8
LAYER_1
 62
   250
 10
248.8885
 20
-35.442
  0
VERTEX
  8
LAYER_1
 62
   250
 10
248.975
 20
-35.3177
  0
VERTEX
  8
LAYER_1
 62
   250
 10
249.0699
 20
-35.2055
  0
VERTEX
  8
LAYER_1
 62
   250
 10
249.1715
 20
-35.1081
  0
VERTEX
  8
LAYER_1
 62
   250
 10
249.2786
 20
-35.028
  0
VERTEX
  8
LAYER_1
 62
   250
 10
249.3895
 20
-34.9676
  0
VERTEX
  8
LAYER_1
 62
   250
 10
249.5029
 20
-34.9284
  0
VERTEX
  8
LAYER_1
 62
   250
 10
249.6168
 20
-34.9071
  0
VERTEX
  8
LAYER_1
 62
   250
 10
249.7295
 20
-34.8992
  0
VERTEX
  8
LAYER_1
 62
   250
 10
249.8388
 20
-34.9004
  0
VERTEX
  8
LAYER_1
 62
   250
 10
250.0401
 20
-34.9118
  0
VERTEX
  8
LAYER_1
 62
   250
 10
250.2054
 20
-34.9059
  0
VERTEX
  8
LAYER_1
 62
   250
 10
250.2704
 20
-34.8863
  0
VERTEX
  8
LAYER_1
 62
   250
 10
250.3248
 20
-34.8546
  0
VERTEX
  8
LAYER_1
 62
   250
 10
250.3706
 20
-34.8123
  0
VERTEX
  8
LAYER_1
 62
   250
 10
250.4099
 20
-34.7604
  0
VERTEX
  8
LAYER_1
 62
   250
 10
250.4777
 20
-34.6331
  0
VERTEX
  8
LAYER_1
 62
   250
 10
250.545
 20
-34.4826
  0
VERTEX
  8
LAYER_1
 62
   250
 10
250.6273
 20
-34.3192
  0
VERTEX
  8
LAYER_1
 62
   250
 10
250.7341
 20
-34.1546
  0
VERTEX
  8
LAYER_1
 62
   250
 10
250.799
 20
-34.0756
  0
VERTEX
  8
LAYER_1
 62
   250
 10
250.873
 20
-34.0007
  0
VERTEX
  8
LAYER_1
 62
   250
 10
250.9571
 20
-33.9316
  0
VERTEX
  8
LAYER_1
 62
   250
 10
251.0521
 20
-33.8696
  0
VERTEX
  8
LAYER_1
 62
   250
 10
251.2738
 20
-33.7676
  0
VERTEX
  8
LAYER_1
 62
   250
 10
251.5195
 20
-33.6783
  0
VERTEX
  8
LAYER_1
 62
   250
 10
251.7652
 20
-33.58
  0
VERTEX
  8
LAYER_1
 62
   250
 10
251.9869
 20
-33.4506
  0
VERTEX
  8
LAYER_1
 62
   250
 10
252.082
 20
-33.3682
  0
VERTEX
  8
LAYER_1
 62
   250
 10
252.1663
 20
-33.2745
  0
VERTEX
  8
LAYER_1
 62
   250
 10
252.2409
 20
-33.1713
  0
VERTEX
  8
LAYER_1
 62
   250
 10
252.3072
 20
-33.0604
  0
VERTEX
  8
LAYER_1
 62
   250
 10
252.4192
 20
-32.8231
  0
VERTEX
  8
LAYER_1
 62
   250
 10
252.5117
 20
-32.5775
  0
VERTEX
  8
LAYER_1
 62
   250
 10
252.5908
 20
-32.3364
  0
VERTEX
  8
LAYER_1
 62
   250
 10
252.6484
 20
-32.1041
  0
VERTEX
  8
LAYER_1
 62
   250
 10
252.6655
 20
-31.9918
  0
VERTEX
  8
LAYER_1
 62
   250
 10
252.6729
 20
-31.8824
  0
VERTEX
  8
LAYER_1
 62
   250
 10
252.6691
 20
-31.7763
  0
VERTEX
  8
LAYER_1
 62
   250
 10
252.6527
 20
-31.6736
  0
VERTEX
  8
LAYER_1
 62
   250
 10
252.5816
 20
-31.4785
  0
VERTEX
  8
LAYER_1
 62
   250
 10
252.4736
 20
-31.2938
  0
VERTEX
  8
LAYER_1
 62
   250
 10
252.3483
 20
-31.1148
  0
VERTEX
  8
LAYER_1
 62
   250
 10
252.225
 20
-30.9371
  0
VERTEX
  8
LAYER_1
 62
   250
 10
252.1215
 20
-30.7591
  0
VERTEX
  8
LAYER_1
 62
   250
 10
252.0487
 20
-30.591
  0
VERTEX
  8
LAYER_1
 62
   250
 10
252.0265
 20
-30.5148
  0
VERTEX
  8
LAYER_1
 62
   250
 10
252.0154
 20
-30.446
  0
VERTEX
  8
LAYER_1
 62
   250
 10
252.0166
 20
-30.3863
  0
VERTEX
  8
LAYER_1
 62
   250
 10
252.031
 20
-30.3374
  0
VERTEX
  8
LAYER_1
 62
   250
 10
252.1975
 20
-30.2272
  0
VERTEX
  8
LAYER_1
 62
   250
 10
252.3838
 20
-30.0905
  0
VERTEX
  8
LAYER_1
 62
   250
 10
252.4258
 20
-29.9496
  0
VERTEX
  8
LAYER_1
 62
   250
 10
252.4389
 20
-29.7636
  0
VERTEX
  8
LAYER_1
 62
   250
 10
252.4421
 20
-29.5503
  0
VERTEX
  8
LAYER_1
 62
   250
 10
252.4543
 20
-29.3275
  0
VERTEX
  8
LAYER_1
 62
   250
 10
252.4909
 20
-29.1129
  0
VERTEX
  8
LAYER_1
 62
   250
 10
252.5519
 20
-28.9235
  0
VERTEX
  8
LAYER_1
 62
   250
 10
252.5904
 20
-28.8435
  0
VERTEX
  8
LAYER_1
 62
   250
 10
252.6336
 20
-28.7763
  0
VERTEX
  8
LAYER_1
 62
   250
 10
252.681
 20
-28.7237
  0
VERTEX
  8
LAYER_1
 62
   250
 10
252.7322
 20
-28.6881
  0
VERTEX
  8
LAYER_1
 62
   250
 10
252.961
 20
-28.6782
  0
VERTEX
  8
LAYER_1
 62
   250
 10
253.1864
 20
-28.6352
  0
VERTEX
  8
LAYER_1
 62
   250
 10
253.2831
 20
-28.5072
  0
VERTEX
  8
LAYER_1
 62
   250
 10
253.3749
 20
-28.3122
  0
VERTEX
  8
LAYER_1
 62
   250
 10
253.4716
 20
-28.0759
  0
VERTEX
  8
LAYER_1
 62
   250
 10
253.5832
 20
-27.8238
  0
VERTEX
  8
LAYER_1
 62
   250
 10
253.7176
 20
-27.5801
  0
VERTEX
  8
LAYER_1
 62
   250
 10
253.8743
 20
-27.362
  0
VERTEX
  8
LAYER_1
 62
   250
 10
253.9602
 20
-27.2674
  0
VERTEX
  8
LAYER_1
 62
   250
 10
254.0508
 20
-27.1852
  0
VERTEX
  8
LAYER_1
 62
   250
 10
254.1457
 20
-27.1172
  0
VERTEX
  8
LAYER_1
 62
   250
 10
254.2447
 20
-27.0654
  0
VERTEX
  8
LAYER_1
 62
   250
 10
254.3472
 20
-27.0311
  0
VERTEX
  8
LAYER_1
 62
   250
 10
254.4519
 20
-27.0122
  0
VERTEX
  8
LAYER_1
 62
   250
 10
254.5573
 20
-27.006
  0
VERTEX
  8
LAYER_1
 62
   250
 10
254.662
 20
-27.0097
  0
VERTEX
  8
LAYER_1
 62
   250
 10
254.863
 20
-27.0362
  0
VERTEX
  8
LAYER_1
 62
   250
 10
255.0429
 20
-27.0698
  0
VERTEX
  8
LAYER_1
 62
   250
 10
255.1939
 20
-27.0896
  0
VERTEX
  8
LAYER_1
 62
   250
 10
255.3251
 20
-27.0792
  0
VERTEX
  8
LAYER_1
 62
   250
 10
255.3874
 20
-27.0579
  0
VERTEX
  8
LAYER_1
 62
   250
 10
255.4497
 20
-27.0233
  0
VERTEX
  8
LAYER_1
 62
   250
 10
255.5137
 20
-26.9735
  0
VERTEX
  8
LAYER_1
 62
   250
 10
255.5809
 20
-26.9066
  0
VERTEX
  8
LAYER_1
 62
   250
 10
255.728
 20
-26.7225
  0
VERTEX
  8
LAYER_1
 62
   250
 10
255.8846
 20
-26.4982
  0
VERTEX
  8
LAYER_1
 62
   250
 10
256.0404
 20
-26.2698
  0
VERTEX
  8
LAYER_1
 62
   250
 10
256.185
 20
-26.0732
  0
VERTEX
  8
LAYER_1
 62
   250
 10
256.4127
 20
-25.8362
  0
VERTEX
  8
LAYER_1
 62
   250
 10
256.551
 20
-25.6587
  0
VERTEX
  8
LAYER_1
 62
   250
 10
256.5876
 20
-25.5327
  0
VERTEX
  8
LAYER_1
 62
   250
 10
256.6122
 20
-25.3814
  0
VERTEX
  8
LAYER_1
 62
   250
 10
256.636
 20
-25.2178
  0
VERTEX
  8
LAYER_1
 62
   250
 10
256.6701
 20
-25.0545
  0
VERTEX
  8
LAYER_1
 62
   250
 10
256.7235
 20
-24.9036
  0
VERTEX
  8
LAYER_1
 62
   250
 10
256.7963
 20
-24.7729
  0
VERTEX
  8
LAYER_1
 62
   250
 10
256.8865
 20
-24.6694
  0
VERTEX
  8
LAYER_1
 62
   250
 10
256.992
 20
-24.6003
  0
VERTEX
  8
LAYER_1
 62
   250
 10
257.1111
 20
-24.5652
  0
VERTEX
  8
LAYER_1
 62
   250
 10
257.2439
 20
-24.5342
  0
VERTEX
  8
LAYER_1
 62
   250
 10
257.3155
 20
-24.5086
  0
VERTEX
  8
LAYER_1
 62
   250
 10
257.3907
 20
-24.4701
  0
VERTEX
  8
LAYER_1
 62
   250
 10
257.4695
 20
-24.414
  0
VERTEX
  8
LAYER_1
 62
   250
 10
257.552
 20
-24.3357
  0
VERTEX
  8
LAYER_1
 62
   250
 10
257.7294
 20
-24.1095
  0
VERTEX
  8
LAYER_1
 62
   250
 10
257.929
 20
-23.8325
  0
VERTEX
  8
LAYER_1
 62
   250
 10
258.0396
 20
-23.6926
  0
VERTEX
  8
LAYER_1
 62
   250
 10
258.1585
 20
-23.5613
  0
VERTEX
  8
LAYER_1
 62
   250
 10
258.2867
 20
-23.4455
  0
VERTEX
  8
LAYER_1
 62
   250
 10
258.4251
 20
-23.3524
  0
VERTEX
  8
LAYER_1
 62
   250
 10
258.5744
 20
-23.287
  0
VERTEX
  8
LAYER_1
 62
   250
 10
258.7338
 20
-23.2461
  0
VERTEX
  8
LAYER_1
 62
   250
 10
258.9023
 20
-23.2245
  0
VERTEX
  8
LAYER_1
 62
   250
 10
259.0789
 20
-23.2168
  0
VERTEX
  8
LAYER_1
 62
   250
 10
259.4521
 20
-23.2222
  0
VERTEX
  8
LAYER_1
 62
   250
 10
259.8451
 20
-23.2201
  0
VERTEX
  8
LAYER_1
 62
   250
 10
260.0463
 20
-23.2039
  0
VERTEX
  8
LAYER_1
 62
   250
 10
260.2485
 20
-23.1745
  0
VERTEX
  8
LAYER_1
 62
   250
 10
260.4498
 20
-23.1315
  0
VERTEX
  8
LAYER_1
 62
   250
 10
260.6482
 20
-23.074
  0
VERTEX
  8
LAYER_1
 62
   250
 10
260.8419
 20
-23.0015
  0
VERTEX
  8
LAYER_1
 62
   250
 10
261.0289
 20
-22.9131
  0
VERTEX
  8
LAYER_1
 62
   250
 10
261.2073
 20
-22.8084
  0
VERTEX
  8
LAYER_1
 62
   250
 10
261.3753
 20
-22.6865
  0
VERTEX
  8
LAYER_1
 62
   250
 10
261.5314
 20
-22.5477
  0
VERTEX
  8
LAYER_1
 62
   250
 10
261.6765
 20
-22.3957
  0
VERTEX
  8
LAYER_1
 62
   250
 10
261.812
 20
-22.2348
  0
VERTEX
  8
LAYER_1
 62
   250
 10
261.9392
 20
-22.0697
  0
VERTEX
  8
LAYER_1
 62
   250
 10
262.1746
 20
-21.7446
  0
VERTEX
  8
LAYER_1
 62
   250
 10
262.3939
 20
-21.4562
  0
VERTEX
  8
LAYER_1
 62
   250
 10
262.501
 20
-21.3362
  0
VERTEX
  8
LAYER_1
 62
   250
 10
262.6082
 20
-21.2338
  0
VERTEX
  8
LAYER_1
 62
   250
 10
262.7166
 20
-21.1483
  0
VERTEX
  8
LAYER_1
 62
   250
 10
262.8278
 20
-21.0792
  0
VERTEX
  8
LAYER_1
 62
   250
 10
262.9428
 20
-21.0257
  0
VERTEX
  8
LAYER_1
 62
   250
 10
263.0631
 20
-20.9874
  0
VERTEX
  8
LAYER_1
 62
   250
 10
263.1898
 20
-20.9635
  0
VERTEX
  8
LAYER_1
 62
   250
 10
263.3244
 20
-20.9535
  0
VERTEX
  8
LAYER_1
 62
   250
 10
263.6179
 20
-20.9683
  0
VERTEX
  8
LAYER_1
 62
   250
 10
263.933
 20
-21.0059
  0
VERTEX
  8
LAYER_1
 62
   250
 10
264.2546
 20
-21.036
  0
VERTEX
  8
LAYER_1
 62
   250
 10
264.5679
 20
-21.0285
  0
VERTEX
  8
LAYER_1
 62
   250
 10
264.7174
 20
-21.0023
  0
VERTEX
  8
LAYER_1
 62
   250
 10
264.8623
 20
-20.9621
  0
VERTEX
  8
LAYER_1
 62
   250
 10
265.0041
 20
-20.9107
  0
VERTEX
  8
LAYER_1
 62
   250
 10
265.1439
 20
-20.851
  0
VERTEX
  8
LAYER_1
 62
   250
 10
265.4231
 20
-20.7184
  0
VERTEX
  8
LAYER_1
 62
   250
 10
265.71
 20
-20.5874
  0
VERTEX
  8
LAYER_1
 62
   250
 10
266.0099
 20
-20.4791
  0
VERTEX
  8
LAYER_1
 62
   250
 10
266.3065
 20
-20.4056
  0
VERTEX
  8
LAYER_1
 62
   250
 10
266.4468
 20
-20.3849
  0
VERTEX
  8
LAYER_1
 62
   250
 10
266.5782
 20
-20.3766
  0
VERTEX
  8
LAYER_1
 62
   250
 10
266.6981
 20
-20.382
  0
VERTEX
  8
LAYER_1
 62
   250
 10
266.8037
 20
-20.4022
  0
VERTEX
  8
LAYER_1
 62
   250
 10
267.0892
 20
-20.5935
  0
VERTEX
  8
LAYER_1
 62
   250
 10
267.2887
 20
-20.7418
  0
VERTEX
  8
LAYER_1
 62
   250
 10
267.4111
 20
-20.7177
  0
VERTEX
  8
LAYER_1
 62
   250
 10
267.5632
 20
-20.642
  0
VERTEX
  8
LAYER_1
 62
   250
 10
267.7501
 20
-20.5489
  0
VERTEX
  8
LAYER_1
 62
   250
 10
267.9766
 20
-20.4728
  0
VERTEX
  8
LAYER_1
 62
   250
 10
268.1056
 20
-20.4512
  0
VERTEX
  8
LAYER_1
 62
   250
 10
268.2421
 20
-20.4432
  0
VERTEX
  8
LAYER_1
 62
   250
 10
268.3824
 20
-20.4496
  0
VERTEX
  8
LAYER_1
 62
   250
 10
268.5229
 20
-20.4711
  0
VERTEX
  8
LAYER_1
 62
   250
 10
268.6599
 20
-20.5086
  0
VERTEX
  8
LAYER_1
 62
   250
 10
268.7896
 20
-20.5627
  0
VERTEX
  8
LAYER_1
 62
   250
 10
268.9085
 20
-20.6343
  0
VERTEX
  8
LAYER_1
 62
   250
 10
269.0129
 20
-20.7241
  0
VERTEX
  8
LAYER_1
 62
   250
 10
269.1003
 20
-20.8317
  0
VERTEX
  8
LAYER_1
 62
   250
 10
269.173
 20
-20.9515
  0
VERTEX
  8
LAYER_1
 62
   250
 10
269.2344
 20
-21.0767
  0
VERTEX
  8
LAYER_1
 62
   250
 10
269.288
 20
-21.2004
  0
VERTEX
  8
LAYER_1
 62
   250
 10
269.3373
 20
-21.3159
  0
VERTEX
  8
LAYER_1
 62
   250
 10
269.3857
 20
-21.4162
  0
VERTEX
  8
LAYER_1
 62
   250
 10
269.4366
 20
-21.4947
  0
VERTEX
  8
LAYER_1
 62
   250
 10
269.4936
 20
-21.5444
  0
VERTEX
  8
LAYER_1
 62
   250
 10
269.5592
 20
-21.5607
  0
VERTEX
  8
LAYER_1
 62
   250
 10
269.632
 20
-21.5477
  0
VERTEX
  8
LAYER_1
 62
   250
 10
269.7097
 20
-21.5115
  0
VERTEX
  8
LAYER_1
 62
   250
 10
269.7902
 20
-21.4584
  0
VERTEX
  8
LAYER_1
 62
   250
 10
269.95
 20
-21.3261
  0
VERTEX
  8
LAYER_1
 62
   250
 10
270.0933
 20
-21.2004
  0
VERTEX
  8
LAYER_1
 62
   250
 10
270.2067
 20
-21.1209
  0
VERTEX
  8
LAYER_1
 62
   250
 10
270.2956
 20
-21.0869
  0
VERTEX
  8
LAYER_1
 62
   250
 10
270.3705
 20
-21.0876
  0
VERTEX
  8
LAYER_1
 62
   250
 10
270.4417
 20
-21.1123
  0
VERTEX
  8
LAYER_1
 62
   250
 10
270.5183
 20
-21.1494
  0
VERTEX
  8
LAYER_1
 62
   250
 10
270.6049
 20
-21.1839
  0
VERTEX
  8
LAYER_1
 62
   250
 10
270.7046
 20
-21.2003
  0
VERTEX
  8
LAYER_1
 62
   250
 10
270.8209
 20
-21.1828
  0
VERTEX
  8
LAYER_1
 62
   250
 10
270.9551
 20
-21.124
  0
VERTEX
  8
LAYER_1
 62
   250
 10
271.1004
 20
-21.05
  0
VERTEX
  8
LAYER_1
 62
   250
 10
271.1745
 20
-21.0179
  0
VERTEX
  8
LAYER_1
 62
   250
 10
271.2482
 20
-20.9949
  0
VERTEX
  8
LAYER_1
 62
   250
 10
271.3203
 20
-20.9853
  0
VERTEX
  8
LAYER_1
 62
   250
 10
271.3898
 20
-20.9932
  0
VERTEX
  8
LAYER_1
 62
   250
 10
271.4556
 20
-21.022
  0
VERTEX
  8
LAYER_1
 62
   250
 10
271.5172
 20
-21.0703
  0
VERTEX
  8
LAYER_1
 62
   250
 10
271.5739
 20
-21.1359
  0
VERTEX
  8
LAYER_1
 62
   250
 10
271.6252
 20
-21.2164
  0
VERTEX
  8
LAYER_1
 62
   250
 10
271.7091
 20
-21.413
  0
VERTEX
  8
LAYER_1
 62
   250
 10
271.7646
 20
-21.6414
  0
VERTEX
  8
LAYER_1
 62
   250
 10
271.7926
 20
-21.8819
  0
VERTEX
  8
LAYER_1
 62
   250
 10
271.817
 20
-22.1105
  0
VERTEX
  8
LAYER_1
 62
   250
 10
271.8369
 20
-22.2124
  0
VERTEX
  8
LAYER_1
 62
   250
 10
271.867
 20
-22.3018
  0
VERTEX
  8
LAYER_1
 62
   250
 10
271.9107
 20
-22.3756
  0
VERTEX
  8
LAYER_1
 62
   250
 10
271.9719
 20
-22.4307
  0
VERTEX
  8
LAYER_1
 62
   250
 10
272.0529
 20
-22.4652
  0
VERTEX
  8
LAYER_1
 62
   250
 10
272.1511
 20
-22.4827
  0
VERTEX
  8
LAYER_1
 62
   250
 10
272.2626
 20
-22.4879
  0
VERTEX
  8
LAYER_1
 62
   250
 10
272.3836
 20
-22.4859
  0
VERTEX
  8
LAYER_1
 62
   250
 10
272.6385
 20
-22.4791
  0
VERTEX
  8
LAYER_1
 62
   250
 10
272.8847
 20
-22.5013
  0
VERTEX
  8
LAYER_1
 62
   250
 10
272.9957
 20
-22.5341
  0
VERTEX
  8
LAYER_1
 62
   250
 10
273.0984
 20
-22.5806
  0
VERTEX
  8
LAYER_1
 62
   250
 10
273.1941
 20
-22.6376
  0
VERTEX
  8
LAYER_1
 62
   250
 10
273.2843
 20
-22.702
  0
VERTEX
  8
LAYER_1
 62
   250
 10
273.4546
 20
-22.8399
  0
VERTEX
  8
LAYER_1
 62
   250
 10
273.6211
 20
-22.9687
  0
VERTEX
  8
LAYER_1
 62
   250
 10
273.7922
 20
-23.0695
  0
VERTEX
  8
LAYER_1
 62
   250
 10
273.9612
 20
-23.1501
  0
VERTEX
  8
LAYER_1
 62
   250
 10
274.1178
 20
-23.2249
  0
VERTEX
  8
LAYER_1
 62
   250
 10
274.2517
 20
-23.3083
  0
VERTEX
  8
LAYER_1
 62
   250
 10
274.3559
 20
-23.4128
  0
VERTEX
  8
LAYER_1
 62
   250
 10
274.4369
 20
-23.5426
  0
VERTEX
  8
LAYER_1
 62
   250
 10
274.5047
 20
-23.6996
  0
VERTEX
  8
LAYER_1
 62
   250
 10
274.5692
 20
-23.886
  0
VERTEX
  8
LAYER_1
 62
   250
 10
274.6399
 20
-24.1019
  0
VERTEX
  8
LAYER_1
 62
   250
 10
274.7247
 20
-24.3396
  0
VERTEX
  8
LAYER_1
 62
   250
 10
274.8309
 20
-24.5898
  0
VERTEX
  8
LAYER_1
 62
   250
 10
274.9661
 20
-24.8428
  0
VERTEX
  8
LAYER_1
 62
   250
 10
275.1337
 20
-25.0901
  0
VERTEX
  8
LAYER_1
 62
   250
 10
275.3211
 20
-25.3263
  0
VERTEX
  8
LAYER_1
 62
   250
 10
275.5118
 20
-25.5467
  0
VERTEX
  8
LAYER_1
 62
   250
 10
275.6893
 20
-25.7468
  0
VERTEX
  8
LAYER_1
 62
   250
 10
275.839
 20
-25.9186
  0
VERTEX
  8
LAYER_1
 62
   250
 10
275.9539
 20
-26.0396
  0
VERTEX
  8
LAYER_1
 62
   250
 10
275.9968
 20
-26.0728
  0
VERTEX
  8
LAYER_1
 62
   250
 10
276.0291
 20
-26.0836
  0
VERTEX
  8
LAYER_1
 62
   250
 10
276.0503
 20
-26.0687
  0
VERTEX
  8
LAYER_1
 62
   250
 10
276.0597
 20
-26.0247
  0
SEQEND
  8
LAYER_1
 62
   250
  0
POLYLINE
  8
LAYER_1
 62
   250
 66
     1
 70
     1
  0
VERTEX
  8
LAYER_1
 62
   250
 10
196.1422
 20
-17.0111
  0
VERTEX
  8
LAYER_1
 62
   250
 10
201.2906
 20
-17.0662
  0
VERTEX
  8
LAYER_1
 62
   250
 10
201.723
 20
-17.0701
  0
VERTEX
  8
LAYER_1
 62
   250
 10
202.0504
 20
-17.0704
  0
VERTEX
  8
LAYER_1
 62
   250
 10
202.2843
 20
-17.0627
  0
VERTEX
  8
LAYER_1
 62
   250
 10
202.4361
 20
-17.0422
  0
VERTEX
  8
LAYER_1
 62
   250
 10
202.5172
 20
-17.0045
  0
VERTEX
  8
LAYER_1
 62
   250
 10
202.539
 20
-16.945
  0
VERTEX
  8
LAYER_1
 62
   250
 10
202.5129
 20
-16.859
  0
VERTEX
  8
LAYER_1
 62
   250
 10
202.4504
 20
-16.7421
  0
VERTEX
  8
LAYER_1
 62
   250
 10
202.2483
 20
-16.4124
  0
VERTEX
  8
LAYER_1
 62
   250
 10
201.9568
 20
-15.9963
  0
VERTEX
  8
LAYER_1
 62
   250
 10
201.7807
 20
-15.7733
  0
VERTEX
  8
LAYER_1
 62
   250
 10
201.5862
 20
-15.5496
  0
VERTEX
  8
LAYER_1
 62
   250
 10
201.3747
 20
-15.3322
  0
VERTEX
  8
LAYER_1
 62
   250
 10
201.1473
 20
-15.1281
  0
VERTEX
  8
LAYER_1
 62
   250
 10
200.9056
 20
-14.9431
  0
VERTEX
  8
LAYER_1
 62
   250
 10
200.6519
 20
-14.7782
  0
VERTEX
  8
LAYER_1
 62
   250
 10
200.3885
 20
-14.6333
  0
VERTEX
  8
LAYER_1
 62
   250
 10
200.1179
 20
-14.5083
  0
VERTEX
  8
LAYER_1
 62
   250
 10
199.8424
 20
-14.403
  0
VERTEX
  8
LAYER_1
 62
   250
 10
199.5645
 20
-14.3173
  0
VERTEX
  8
LAYER_1
 62
   250
 10
199.2865
 20
-14.2511
  0
VERTEX
  8
LAYER_1
 62
   250
 10
199.0108
 20
-14.2042
  0
VERTEX
  8
LAYER_1
 62
   250
 10
198.7396
 20
-14.1766
  0
VERTEX
  8
LAYER_1
 62
   250
 10
198.4735
 20
-14.1678
  0
VERTEX
  8
LAYER_1
 62
   250
 10
198.2129
 20
-14.1775
  0
VERTEX
  8
LAYER_1
 62
   250
 10
197.9582
 20
-14.2054
  0
VERTEX
  8
LAYER_1
 62
   250
 10
197.7099
 20
-14.251
  0
VERTEX
  8
LAYER_1
 62
   250
 10
197.4682
 20
-14.314
  0
VERTEX
  8
LAYER_1
 62
   250
 10
197.2336
 20
-14.3941
  0
VERTEX
  8
LAYER_1
 62
   250
 10
197.0065
 20
-14.4909
  0
VERTEX
  8
LAYER_1
 62
   250
 10
196.7873
 20
-14.6036
  0
VERTEX
  8
LAYER_1
 62
   250
 10
196.5767
 20
-14.7302
  0
VERTEX
  8
LAYER_1
 62
   250
 10
196.3754
 20
-14.868
  0
VERTEX
  8
LAYER_1
 62
   250
 10
196.1841
 20
-15.0146
  0
VERTEX
  8
LAYER_1
 62
   250
 10
195.8344
 20
-15.3238
  0
VERTEX
  8
LAYER_1
 62
   250
 10
195.5336
 20
-15.6375
  0
VERTEX
  8
LAYER_1
 62
   250
 10
195.2863
 20
-15.9373
  0
VERTEX
  8
LAYER_1
 62
   250
 10
195.093
 20
-16.2121
  0
VERTEX
  8
LAYER_1
 62
   250
 10
194.9529
 20
-16.4526
  0
VERTEX
  8
LAYER_1
 62
   250
 10
194.8656
 20
-16.6495
  0
VERTEX
  8
LAYER_1
 62
   250
 10
194.8437
 20
-16.7291
  0
VERTEX
  8
LAYER_1
 62
   250
 10
194.8477
 20
-16.7965
  0
VERTEX
  8
LAYER_1
 62
   250
 10
194.8907
 20
-16.8531
  0
VERTEX
  8
LAYER_1
 62
   250
 10
194.9855
 20
-16.8998
  0
VERTEX
  8
LAYER_1
 62
   250
 10
195.1451
 20
-16.9378
  0
VERTEX
  8
LAYER_1
 62
   250
 10
195.3825
 20
-16.9682
  0
VERTEX
  8
LAYER_1
 62
   250
 10
195.7105
 20
-16.9923
  0
VERTEX
  8
LAYER_1
 62
   250
 10
196.1422
 20
-17.0111
  0
SEQEND
  8
LAYER_1
 62
   250
  0
POLYLINE
  8
LAYER_1
 62
   250
 66
     1
 70
     1
  0
VERTEX
  8
LAYER_1
 62
   250
 10
198.639
 20
-12.6906
  0
VERTEX
  8
LAYER_1
 62
   250
 10
198.7528
 20
-10.1892
  0
VERTEX
  8
LAYER_1
 62
   250
 10
198.7676
 20
-9.7654
  0
VERTEX
  8
LAYER_1
 62
   250
 10
198.7784
 20
-9.557
  0
VERTEX
  8
LAYER_1
 62
   250
 10
198.7946
 20
-9.5908
  0
VERTEX
  8
LAYER_1
 62
   250
 10
198.8255
 20
-9.8937
  0
VERTEX
  8
LAYER_1
 62
   250
 10
199.0504
 20
-12.5815
  0
VERTEX
  8
LAYER_1
 62
   250
 10
199.0757
 20
-12.9957
  0
VERTEX
  8
LAYER_1
 62
   250
 10
199.0759
 20
-13.2175
  0
VERTEX
  8
LAYER_1
 62
   250
 10
199.0667
 20
-13.2754
  0
VERTEX
  8
LAYER_1
 62
   250
 10
199.0514
 20
-13.3084
  0
VERTEX
  8
LAYER_1
 62
   250
 10
199.0301
 20
-13.324
  0
VERTEX
  8
LAYER_1
 62
   250
 10
199.0028
 20
-13.33
  0
VERTEX
  8
LAYER_1
 62
   250
 10
198.701
 20
-13.318
  0
VERTEX
  8
LAYER_1
 62
   250
 10
198.6751
 20
-13.3127
  0
VERTEX
  8
LAYER_1
 62
   250
 10
198.6552
 20
-13.3004
  0
VERTEX
  8
LAYER_1
 62
   250
 10
198.6408
 20
-13.2743
  0
VERTEX
  8
LAYER_1
 62
   250
 10
198.6315
 20
-13.2272
  0
VERTEX
  8
LAYER_1
 62
   250
 10
198.627
 20
-13.0424
  0
VERTEX
  8
LAYER_1
 62
   250
 10
198.639
 20
-12.6906
  0
SEQEND
  8
LAYER_1
 62
   250
  0
POLYLINE
  8
LAYER_1
 62
   250
 66
     1
 70
     1
  0
VERTEX
  8
LAYER_1
 62
   250
 10
172.6367
 20
-34.5555
  0
VERTEX
  8
LAYER_1
 62
   250
 10
172.6635
 20
-33.8412
  0
VERTEX
  8
LAYER_1
 62
   250
 10
172.6954
 20
-33.0092
  0
VERTEX
  8
LAYER_1
 62
   250
 10
172.7314
 20
-32.0988
  0
VERTEX
  8
LAYER_1
 62
   250
 10
172.7707
 20
-31.1493
  0
VERTEX
  8
LAYER_1
 62
   250
 10
172.8121
 20
-30.1999
  0
VERTEX
  8
LAYER_1
 62
   250
 10
172.855
 20
-29.2898
  0
VERTEX
  8
LAYER_1
 62
   250
 10
172.8982
 20
-28.4583
  0
VERTEX
  8
LAYER_1
 62
   250
 10
172.9409
 20
-27.7447
  0
VERTEX
  8
LAYER_1
 62
   250
 10
172.983
 20
-27.1783
  0
VERTEX
  8
LAYER_1
 62
   250
 10
173.0278
 20
-26.7494
  0
VERTEX
  8
LAYER_1
 62
   250
 10
173.0792
 20
-26.438
  0
VERTEX
  8
LAYER_1
 62
   250
 10
173.1413
 20
-26.2247
  0
VERTEX
  8
LAYER_1
 62
   250
 10
173.2182
 20
-26.0896
  0
VERTEX
  8
LAYER_1
 62
   250
 10
173.3139
 20
-26.013
  0
VERTEX
  8
LAYER_1
 62
   250
 10
173.4325
 20
-25.9752
  0
VERTEX
  8
LAYER_1
 62
   250
 10
173.5781
 20
-25.9565
  0
VERTEX
  8
LAYER_1
 62
   250
 10
173.9496
 20
-25.9235
  0
VERTEX
  8
LAYER_1
 62
   250
 10
174.3769
 20
-25.8857
  0
VERTEX
  8
LAYER_1
 62
   250
 10
174.7918
 20
-25.8408
  0
VERTEX
  8
LAYER_1
 62
   250
 10
175.126
 20
-25.7867
  0
VERTEX
  8
LAYER_1
 62
   250
 10
175.2433
 20
-25.7555
  0
VERTEX
  8
LAYER_1
 62
   250
 10
175.3254
 20
-25.7214
  0
VERTEX
  8
LAYER_1
 62
   250
 10
175.3741
 20
-25.6844
  0
VERTEX
  8
LAYER_1
 62
   250
 10
175.3914
 20
-25.6445
  0
VERTEX
  8
LAYER_1
 62
   250
 10
175.3793
 20
-25.6017
  0
VERTEX
  8
LAYER_1
 62
   250
 10
175.3396
 20
-25.556
  0
VERTEX
  8
LAYER_1
 62
   250
 10
175.2744
 20
-25.5075
  0
VERTEX
  8
LAYER_1
 62
   250
 10
175.1855
 20
-25.456
  0
VERTEX
  8
LAYER_1
 62
   250
 10
174.9515
 20
-25.3446
  0
VERTEX
  8
LAYER_1
 62
   250
 10
174.688
 20
-25.2226
  0
VERTEX
  8
LAYER_1
 62
   250
 10
174.5631
 20
-25.1579
  0
VERTEX
  8
LAYER_1
 62
   250
 10
174.4522
 20
-25.091
  0
VERTEX
  8
LAYER_1
 62
   250
 10
174.3625
 20
-25.022
  0
VERTEX
  8
LAYER_1
 62
   250
 10
174.3013
 20
-24.951
  0
VERTEX
  8
LAYER_1
 62
   250
 10
174.2736
 20
-24.8783
  0
VERTEX
  8
LAYER_1
 62
   250
 10
174.276
 20
-24.8047
  0
VERTEX
  8
LAYER_1
 62
   250
 10
174.3032
 20
-24.731
  0
VERTEX
  8
LAYER_1
 62
   250
 10
174.3499
 20
-24.6584
  0
VERTEX
  8
LAYER_1
 62
   250
 10
174.48
 20
-24.5195
  0
VERTEX
  8
LAYER_1
 62
   250
 10
174.6233
 20
-24.3954
  0
VERTEX
  8
LAYER_1
 62
   250
 10
174.741
 20
-24.2922
  0
VERTEX
  8
LAYER_1
 62
   250
 10
174.8107
 20
-24.2097
  0
VERTEX
  8
LAYER_1
 62
   250
 10
174.8219
 20
-24.1756
  0
VERTEX
  8
LAYER_1
 62
   250
 10
174.8143
 20
-24.1462
  0
VERTEX
  8
LAYER_1
 62
   250
 10
174.7856
 20
-24.121
  0
VERTEX
  8
LAYER_1
 62
   250
 10
174.7335
 20
-24.1
  0
VERTEX
  8
LAYER_1
 62
   250
 10
174.5582
 20
-24.0688
  0
VERTEX
  8
LAYER_1
 62
   250
 10
174.3105
 20
-24.0468
  0
VERTEX
  8
LAYER_1
 62
   250
 10
174.0201
 20
-24.0278
  0
VERTEX
  8
LAYER_1
 62
   250
 10
173.7171
 20
-24.0052
  0
VERTEX
  8
LAYER_1
 62
   250
 10
173.4283
 20
-23.9734
  0
VERTEX
  8
LAYER_1
 62
   250
 10
173.1681
 20
-23.9294
  0
VERTEX
  8
LAYER_1
 62
   250
 10
172.9475
 20
-23.8709
  0
VERTEX
  8
LAYER_1
 62
   250
 10
172.7778
 20
-23.7957
  0
VERTEX
  8
LAYER_1
 62
   250
 10
172.7157
 20
-23.7512
  0
VERTEX
  8
LAYER_1
 62
   250
 10
172.6719
 20
-23.7019
  0
VERTEX
  8
LAYER_1
 62
   250
 10
172.6489
 20
-23.6477
  0
VERTEX
  8
LAYER_1
 62
   250
 10
172.6496
 20
-23.5888
  0
VERTEX
  8
LAYER_1
 62
   250
 10
172.6767
 20
-23.525
  0
VERTEX
  8
LAYER_1
 62
   250
 10
172.7328
 20
-23.4563
  0
VERTEX
  8
LAYER_1
 62
   250
 10
172.8207
 20
-23.3827
  0
VERTEX
  8
LAYER_1
 62
   250
 10
172.9431
 20
-23.3041
  0
VERTEX
  8
LAYER_1
 62
   250
 10
173.2873
 20
-23.134
  0
VERTEX
  8
LAYER_1
 62
   250
 10
173.7124
 20
-22.9552
  0
VERTEX
  8
LAYER_1
 62
   250
 10
174.1502
 20
-22.7788
  0
VERTEX
  8
LAYER_1
 62
   250
 10
174.5329
 20
-22.6161
  0
VERTEX
  8
LAYER_1
 62
   250
 10
174.6838
 20
-22.5431
  0
VERTEX
  8
LAYER_1
 62
   250
 10
174.8046
 20
-22.4759
  0
VERTEX
  8
LAYER_1
 62
   250
 10
174.8958
 20
-22.4143
  0
VERTEX
  8
LAYER_1
 62
   250
 10
174.9582
 20
-22.3579
  0
VERTEX
  8
LAYER_1
 62
   250
 10
174.9923
 20
-22.3063
  0
VERTEX
  8
LAYER_1
 62
   250
 10
174.9989
 20
-22.2593
  0
VERTEX
  8
LAYER_1
 62
   250
 10
174.9785
 20
-22.2164
  0
VERTEX
  8
LAYER_1
 62
   250
 10
174.9319
 20
-22.1774
  0
VERTEX
  8
LAYER_1
 62
   250
 10
174.766
 20
-22.111
  0
VERTEX
  8
LAYER_1
 62
   250
 10
174.5235
 20
-22.0647
  0
VERTEX
  8
LAYER_1
 62
   250
 10
174.2306
 20
-22.0444
  0
VERTEX
  8
LAYER_1
 62
   250
 10
173.9133
 20
-22.0561
  0
VERTEX
  8
LAYER_1
 62
   250
 10
173.5957
 20
-22.1024
  0
VERTEX
  8
LAYER_1
 62
   250
 10
173.2943
 20
-22.1716
  0
VERTEX
  8
LAYER_1
 62
   250
 10
173.0234
 20
-22.2487
  0
VERTEX
  8
LAYER_1
 62
   250
 10
172.7976
 20
-22.3185
  0
VERTEX
  8
LAYER_1
 62
   250
 10
172.6258
 20
-22.3654
  0
VERTEX
  8
LAYER_1
 62
   250
 10
172.4948
 20
-22.3714
  0
VERTEX
  8
LAYER_1
 62
   250
 10
172.4386
 20
-22.3532
  0
VERTEX
  8
LAYER_1
 62
   250
 10
172.3856
 20
-22.3179
  0
VERTEX
  8
LAYER_1
 62
   250
 10
172.3333
 20
-22.263
  0
VERTEX
  8
LAYER_1
 62
   250
 10
172.2795
 20
-22.1862
  0
VERTEX
  8
LAYER_1
 62
   250
 10
172.164
 20
-21.9677
  0
VERTEX
  8
LAYER_1
 62
   250
 10
172.0518
 20
-21.6934
  0
VERTEX
  8
LAYER_1
 62
   250
 10
171.9619
 20
-21.4042
  0
VERTEX
  8
LAYER_1
 62
   250
 10
171.9134
 20
-21.1411
  0
VERTEX
  8
LAYER_1
 62
   250
 10
171.9104
 20
-21.0309
  0
VERTEX
  8
LAYER_1
 62
   250
 10
171.9232
 20
-20.9353
  0
VERTEX
  8
LAYER_1
 62
   250
 10
171.9527
 20
-20.8522
  0
VERTEX
  8
LAYER_1
 62
   250
 10
171.9997
 20
-20.7795
  0
VERTEX
  8
LAYER_1
 62
   250
 10
172.065
 20
-20.7151
  0
VERTEX
  8
LAYER_1
 62
   250
 10
172.1494
 20
-20.6568
  0
VERTEX
  8
LAYER_1
 62
   250
 10
172.2537
 20
-20.6025
  0
VERTEX
  8
LAYER_1
 62
   250
 10
172.3787
 20
-20.5502
  0
VERTEX
  8
LAYER_1
 62
   250
 10
172.6875
 20
-20.4466
  0
VERTEX
  8
LAYER_1
 62
   250
 10
173.0501
 20
-20.3481
  0
VERTEX
  8
LAYER_1
 62
   250
 10
173.4341
 20
-20.2608
  0
VERTEX
  8
LAYER_1
 62
   250
 10
173.8074
 20
-20.1907
  0
VERTEX
  8
LAYER_1
 62
   250
 10
174.1422
 20
-20.1406
  0
VERTEX
  8
LAYER_1
 62
   250
 10
174.4281
 20
-20.1006
  0
VERTEX
  8
LAYER_1
 62
   250
 10
174.6595
 20
-20.0577
  0
VERTEX
  8
LAYER_1
 62
   250
 10
174.8305
 20
-19.9989
  0
VERTEX
  8
LAYER_1
 62
   250
 10
174.892
 20
-19.9579
  0
VERTEX
  8
LAYER_1
 62
   250
 10
174.9389
 20
-19.8985
  0
VERTEX
  8
LAYER_1
 62
   250
 10
174.973
 20
-19.8095
  0
VERTEX
  8
LAYER_1
 62
   250
 10
174.9962
 20
-19.6798
  0
VERTEX
  8
LAYER_1
 62
   250
 10
175.0175
 20
-19.2536
  0
VERTEX
  8
LAYER_1
 62
   250
 10
175.018
 20
-18.5305
  0
VERTEX
  8
LAYER_1
 62
   250
 10
174.9915
 20
-13.9708
  0
VERTEX
  8
LAYER_1
 62
   250
 10
174.9997
 20
-13.3157
  0
VERTEX
  8
LAYER_1
 62
   250
 10
175.0285
 20
-12.9709
  0
VERTEX
  8
LAYER_1
 62
   250
 10
175.0543
 20
-12.8826
  0
VERTEX
  8
LAYER_1
 62
   250
 10
175.0895
 20
-12.8329
  0
VERTEX
  8
LAYER_1
 62
   250
 10
175.1358
 20
-12.809
  0
VERTEX
  8
LAYER_1
 62
   250
 10
175.1944
 20
-12.7978
  0
VERTEX
  8
LAYER_1
 62
   250
 10
175.9771
 20
-12.7648
  0
VERTEX
  8
LAYER_1
 62
   250
 10
176.1843
 20
-12.7859
  0
VERTEX
  8
LAYER_1
 62
   250
 10
176.3707
 20
-12.8213
  0
VERTEX
  8
LAYER_1
 62
   250
 10
176.529
 20
-12.8687
  0
VERTEX
  8
LAYER_1
 62
   250
 10
176.6518
 20
-12.9257
  0
VERTEX
  8
LAYER_1
 62
   250
 10
176.6979
 20
-12.9593
  0
VERTEX
  8
LAYER_1
 62
   250
 10
176.7343
 20
-13.0071
  0
VERTEX
  8
LAYER_1
 62
   250
 10
176.762
 20
-13.0816
  0
VERTEX
  8
LAYER_1
 62
   250
 10
176.7822
 20
-13.195
  0
VERTEX
  8
LAYER_1
 62
   250
 10
176.8041
 20
-13.5884
  0
VERTEX
  8
LAYER_1
 62
   250
 10
176.8084
 20
-14.2862
  0
VERTEX
  8
LAYER_1
 62
   250
 10
176.8084
 20
-18.8723
  0
VERTEX
  8
LAYER_1
 62
   250
 10
176.8219
 20
-19.2563
  0
VERTEX
  8
LAYER_1
 62
   250
 10
176.8414
 20
-19.5502
  0
VERTEX
  8
LAYER_1
 62
   250
 10
176.868
 20
-19.7669
  0
VERTEX
  8
LAYER_1
 62
   250
 10
176.9024
 20
-19.9194
  0
VERTEX
  8
LAYER_1
 62
   250
 10
176.9456
 20
-20.0205
  0
VERTEX
  8
LAYER_1
 62
   250
 10
176.9984
 20
-20.0832
  0
VERTEX
  8
LAYER_1
 62
   250
 10
177.0619
 20
-20.1202
  0
VERTEX
  8
LAYER_1
 62
   250
 10
177.1369
 20
-20.1446
  0
VERTEX
  8
LAYER_1
 62
   250
 10
178.0233
 20
-20.3496
  0
VERTEX
  8
LAYER_1
 62
   250
 10
178.2567
 20
-20.417
  0
VERTEX
  8
LAYER_1
 62
   250
 10
178.4621
 20
-20.4954
  0
VERTEX
  8
LAYER_1
 62
   250
 10
178.5485
 20
-20.5396
  0
VERTEX
  8
LAYER_1
 62
   250
 10
178.6211
 20
-20.5875
  0
VERTEX
  8
LAYER_1
 62
   250
 10
178.6776
 20
-20.6394
  0
VERTEX
  8
LAYER_1
 62
   250
 10
178.7156
 20
-20.6958
  0
VERTEX
  8
LAYER_1
 62
   250
 10
178.734
 20
-20.7569
  0
VERTEX
  8
LAYER_1
 62
   250
 10
178.7353
 20
-20.8224
  0
VERTEX
  8
LAYER_1
 62
   250
 10
178.7232
 20
-20.8922
  0
VERTEX
  8
LAYER_1
 62
   250
 10
178.7013
 20
-20.9659
  0
VERTEX
  8
LAYER_1
 62
   250
 10
178.6425
 20
-21.1243
  0
VERTEX
  8
LAYER_1
 62
   250
 10
178.5878
 20
-21.2955
  0
VERTEX
  8
LAYER_1
 62
   250
 10
178.5593
 20
-21.4772
  0
VERTEX
  8
LAYER_1
 62
   250
 10
178.5517
 20
-21.6659
  0
VERTEX
  8
LAYER_1
 62
   250
 10
178.5527
 20
-21.8579
  0
VERTEX
  8
LAYER_1
 62
   250
 10
178.5503
 20
-22.0495
  0
VERTEX
  8
LAYER_1
 62
   250
 10
178.5332
 20
-22.2373
  0
VERTEX
  8
LAYER_1
 62
   250
 10
178.4946
 20
-22.4192
  0
VERTEX
  8
LAYER_1
 62
   250
 10
178.4287
 20
-22.5931
  0
VERTEX
  8
LAYER_1
 62
   250
 10
178.3297
 20
-22.7573
  0
VERTEX
  8
LAYER_1
 62
   250
 10
178.1943
 20
-22.9099
  0
VERTEX
  8
LAYER_1
 62
   250
 10
178.0288
 20
-23.0489
  0
VERTEX
  8
LAYER_1
 62
   250
 10
177.8418
 20
-23.1722
  0
VERTEX
  8
LAYER_1
 62
   250
 10
177.6419
 20
-23.2777
  0
VERTEX
  8
LAYER_1
 62
   250
 10
177.437
 20
-23.3641
  0
VERTEX
  8
LAYER_1
 62
   250
 10
177.2315
 20
-23.4331
  0
VERTEX
  8
LAYER_1
 62
   250
 10
177.0288
 20
-23.4873
  0
VERTEX
  8
LAYER_1
 62
   250
 10
176.8326
 20
-23.529
  0
VERTEX
  8
LAYER_1
 62
   250
 10
176.191
 20
-23.6547
  0
VERTEX
  8
LAYER_1
 62
   250
 10
176.0882
 20
-23.7015
  0
VERTEX
  8
LAYER_1
 62
   250
 10
176.0185
 20
-23.7562
  0
VERTEX
  8
LAYER_1
 62
   250
 10
175.9978
 20
-23.785
  0
VERTEX
  8
LAYER_1
 62
   250
 10
175.9876
 20
-23.8141
  0
VERTEX
  8
LAYER_1
 62
   250
 10
175.9886
 20
-23.8429
  0
VERTEX
  8
LAYER_1
 62
   250
 10
176.0014
 20
-23.8708
  0
VERTEX
  8
LAYER_1
 62
   250
 10
176.0628
 20
-23.923
  0
VERTEX
  8
LAYER_1
 62
   250
 10
176.1637
 20
-23.9723
  0
VERTEX
  8
LAYER_1
 62
   250
 10
176.2931
 20
-24.0216
  0
VERTEX
  8
LAYER_1
 62
   250
 10
176.4401
 20
-24.0737
  0
VERTEX
  8
LAYER_1
 62
   250
 10
176.9914
 20
-24.3185
  0
VERTEX
  8
LAYER_1
 62
   250
 10
177.0352
 20
-24.3522
  0
VERTEX
  8
LAYER_1
 62
   250
 10
177.071
 20
-24.4001
  0
VERTEX
  8
LAYER_1
 62
   250
 10
177.0997
 20
-24.4769
  0
VERTEX
  8
LAYER_1
 62
   250
 10
177.1221
 20
-24.5974
  0
VERTEX
  8
LAYER_1
 62
   250
 10
177.1508
 20
-25.0279
  0
VERTEX
  8
LAYER_1
 62
   250
 10
177.1634
 20
-25.8089
  0
VERTEX
  8
LAYER_1
 62
   250
 10
177.1325
 20
-31.0941
  0
VERTEX
  8
LAYER_1
 62
   250
 10
177.1132
 20
-31.9232
  0
VERTEX
  8
LAYER_1
 62
   250
 10
177.0802
 20
-32.4002
  0
VERTEX
  8
LAYER_1
 62
   250
 10
177.0548
 20
-32.5365
  0
VERTEX
  8
LAYER_1
 62
   250
 10
177.0216
 20
-32.6205
  0
VERTEX
  8
LAYER_1
 62
   250
 10
176.9789
 20
-32.6642
  0
VERTEX
  8
LAYER_1
 62
   250
 10
176.9253
 20
-32.6794
  0
VERTEX
  8
LAYER_1
 62
   250
 10
176.7855
 20
-32.6605
  0
VERTEX
  8
LAYER_1
 62
   250
 10
176.621
 20
-32.6014
  0
VERTEX
  8
LAYER_1
 62
   250
 10
176.4565
 20
-32.5278
  0
VERTEX
  8
LAYER_1
 62
   250
 10
176.3167
 20
-32.4655
  0
VERTEX
  8
LAYER_1
 62
   250
 10
176.2201
 20
-32.437
  0
VERTEX
  8
LAYER_1
 62
   250
 10
176.1591
 20
-32.4507
  0
VERTEX
  8
LAYER_1
 62
   250
 10
176.1195
 20
-32.5114
  0
VERTEX
  8
LAYER_1
 62
   250
 10
176.0874
 20
-32.6243
  0
VERTEX
  8
LAYER_1
 62
   250
 10
176.0501
 20
-32.7886
  0
VERTEX
  8
LAYER_1
 62
   250
 10
176.0009
 20
-32.981
  0
VERTEX
  8
LAYER_1
 62
   250
 10
175.9342
 20
-33.1725
  0
VERTEX
  8
LAYER_1
 62
   250
 10
175.8448
 20
-33.3343
  0
VERTEX
  8
LAYER_1
 62
   250
 10
175.7901
 20
-33.3958
  0
VERTEX
  8
LAYER_1
 62
   250
 10
175.729
 20
-33.4443
  0
VERTEX
  8
LAYER_1
 62
   250
 10
175.662
 20
-33.4811
  0
VERTEX
  8
LAYER_1
 62
   250
 10
175.5896
 20
-33.5079
  0
VERTEX
  8
LAYER_1
 62
   250
 10
175.4312
 20
-33.5376
  0
VERTEX
  8
LAYER_1
 62
   250
 10
175.2583
 20
-33.5459
  0
VERTEX
  8
LAYER_1
 62
   250
 10
175.077
 20
-33.5461
  0
VERTEX
  8
LAYER_1
 62
   250
 10
174.899
 20
-33.5553
  0
VERTEX
  8
LAYER_1
 62
   250
 10
174.8153
 20
-33.569
  0
VERTEX
  8
LAYER_1
 62
   250
 10
174.7375
 20
-33.5918
  0
VERTEX
  8
LAYER_1
 62
   250
 10
174.667
 20
-33.626
  0
VERTEX
  8
LAYER_1
 62
   250
 10
174.6057
 20
-33.6738
  0
VERTEX
  8
LAYER_1
 62
   250
 10
174.5119
 20
-33.8118
  0
VERTEX
  8
LAYER_1
 62
   250
 10
174.4442
 20
-33.9856
  0
VERTEX
  8
LAYER_1
 62
   250
 10
174.3855
 20
-34.1672
  0
VERTEX
  8
LAYER_1
 62
   250
 10
174.319
 20
-34.3287
  0
VERTEX
  8
LAYER_1
 62
   250
 10
174.2317
 20
-34.45
  0
VERTEX
  8
LAYER_1
 62
   250
 10
174.1264
 20
-34.5415
  0
VERTEX
  8
LAYER_1
 62
   250
 10
174.0099
 20
-34.6214
  0
VERTEX
  8
LAYER_1
 62
   250
 10
173.8891
 20
-34.7079
  0
VERTEX
  8
LAYER_1
 62
   250
 10
173.7725
 20
-34.8151
  0
VERTEX
  8
LAYER_1
 62
   250
 10
173.6755
 20
-34.94
  0
VERTEX
  8
LAYER_1
 62
   250
 10
173.6398
 20
-35.007
  0
VERTEX
  8
LAYER_1
 62
   250
 10
173.6153
 20
-35.0757
  0
VERTEX
  8
LAYER_1
 62
   250
 10
173.6044
 20
-35.1454
  0
VERTEX
  8
LAYER_1
 62
   250
 10
173.6091
 20
-35.2151
  0
VERTEX
  8
LAYER_1
 62
   250
 10
173.7618
 20
-35.4866
  0
VERTEX
  8
LAYER_1
 62
   250
 10
173.9442
 20
-35.7464
  0
VERTEX
  8
LAYER_1
 62
   250
 10
173.9656
 20
-35.8097
  0
VERTEX
  8
LAYER_1
 62
   250
 10
173.9749
 20
-35.8721
  0
VERTEX
  8
LAYER_1
 62
   250
 10
173.974
 20
-35.9332
  0
VERTEX
  8
LAYER_1
 62
   250
 10
173.9649
 20
-35.9928
  0
VERTEX
  8
LAYER_1
 62
   250
 10
173.9297
 20
-36.1061
  0
VERTEX
  8
LAYER_1
 62
   250
 10
173.8847
 20
-36.2094
  0
VERTEX
  8
LAYER_1
 62
   250
 10
173.8412
 20
-36.3009
  0
VERTEX
  8
LAYER_1
 62
   250
 10
173.7932
 20
-36.3809
  0
VERTEX
  8
LAYER_1
 62
   250
 10
173.7303
 20
-36.4501
  0
VERTEX
  8
LAYER_1
 62
   250
 10
173.6422
 20
-36.5093
  0
VERTEX
  8
LAYER_1
 62
   250
 10
173.1085
 20
-36.646
  0
VERTEX
  8
LAYER_1
 62
   250
 10
173.0005
 20
-36.6513
  0
VERTEX
  8
LAYER_1
 62
   250
 10
172.914
 20
-36.6438
  0
VERTEX
  8
LAYER_1
 62
   250
 10
172.8432
 20
-36.6231
  0
VERTEX
  8
LAYER_1
 62
   250
 10
172.7823
 20
-36.5887
  0
VERTEX
  8
LAYER_1
 62
   250
 10
172.6059
 20
-36.3748
  0
VERTEX
  8
LAYER_1
 62
   250
 10
172.5878
 20
-36.3035
  0
VERTEX
  8
LAYER_1
 62
   250
 10
172.5849
 20
-36.0828
  0
VERTEX
  8
LAYER_1
 62
   250
 10
172.6003
 20
-35.5533
  0
VERTEX
  8
LAYER_1
 62
   250
 10
172.6367
 20
-34.5555
  0
SEQEND
  8
LAYER_1
 62
   250
  0
POLYLINE
  8
LAYER_1
 62
   250
 66
     1
 70
     1
  0
VERTEX
  8
LAYER_1
 62
   250
 10
173.4003
 20
-19.3956
  0
VERTEX
  8
LAYER_1
 62
   250
 10
173.8914
 20
-19.1679
  0
VERTEX
  8
LAYER_1
 62
   250
 10
173.9383
 20
-19.1409
  0
VERTEX
  8
LAYER_1
 62
   250
 10
173.9769
 20
-19.1047
  0
VERTEX
  8
LAYER_1
 62
   250
 10
174.0082
 20
-19.0474
  0
VERTEX
  8
LAYER_1
 62
   250
 10
174.0331
 20
-18.9568
  0
VERTEX
  8
LAYER_1
 62
   250
 10
174.0669
 20
-18.6278
  0
VERTEX
  8
LAYER_1
 62
   250
 10
174.0854
 20
-18.0214
  0
VERTEX
  8
LAYER_1
 62
   250
 10
174.0964
 20
-13.9181
  0
VERTEX
  8
LAYER_1
 62
   250
 10
174.0933
 20
-13.3153
  0
VERTEX
  8
LAYER_1
 62
   250
 10
174.0799
 20
-12.9998
  0
VERTEX
  8
LAYER_1
 62
   250
 10
174.0658
 20
-12.9225
  0
VERTEX
  8
LAYER_1
 62
   250
 10
174.0449
 20
-12.8844
  0
VERTEX
  8
LAYER_1
 62
   250
 10
174.0159
 20
-12.8744
  0
VERTEX
  8
LAYER_1
 62
   250
 10
173.9773
 20
-12.8818
  0
VERTEX
  8
LAYER_1
 62
   250
 10
173.5033
 20
-13.0891
  0
VERTEX
  8
LAYER_1
 62
   250
 10
173.4619
 20
-13.1171
  0
VERTEX
  8
LAYER_1
 62
   250
 10
173.4294
 20
-13.1547
  0
VERTEX
  8
LAYER_1
 62
   250
 10
173.4041
 20
-13.2142
  0
VERTEX
  8
LAYER_1
 62
   250
 10
173.3846
 20
-13.3079
  0
VERTEX
  8
LAYER_1
 62
   250
 10
173.3569
 20
-13.647
  0
VERTEX
  8
LAYER_1
 62
   250
 10
173.3341
 20
-14.2704
  0
VERTEX
  8
LAYER_1
 62
   250
 10
173.2294
 20
-18.4651
  0
VERTEX
  8
LAYER_1
 62
   250
 10
173.2311
 20
-19.5119
  0
VERTEX
  8
LAYER_1
 62
   250
 10
173.2625
 20
-19.4749
  0
VERTEX
  8
LAYER_1
 62
   250
 10
173.4003
 20
-19.3956
  0
SEQEND
  8
LAYER_1
 62
   250
  0
POLYLINE
  8
LAYER_1
 62
   250
 66
     1
 70
     1
  0
VERTEX
  8
LAYER_1
 62
   250
 10
173.595
 20
-11.5403
  0
VERTEX
  8
LAYER_1
 62
   250
 10
173.8298
 20
-11.5191
  0
VERTEX
  8
LAYER_1
 62
   250
 10
174.1416
 20
-11.4919
  0
VERTEX
  8
LAYER_1
 62
   250
 10
174.519
 20
-11.4667
  0
VERTEX
  8
LAYER_1
 62
   250
 10
174.951
 20
-11.451
  0
VERTEX
  8
LAYER_1
 62
   250
 10
176.6929
 20
-11.4918
  0
VERTEX
  8
LAYER_1
 62
   250
 10
176.9491
 20
-11.4993
  0
VERTEX
  8
LAYER_1
 62
   250
 10
177.1256
 20
-11.4913
  0
VERTEX
  8
LAYER_1
 62
   250
 10
177.2601
 20
-11.4592
  0
VERTEX
  8
LAYER_1
 62
   250
 10
177.3897
 20
-11.3947
  0
VERTEX
  8
LAYER_1
 62
   250
 10
177.5413
 20
-11.2938
  0
VERTEX
  8
LAYER_1
 62
   250
 10
177.6991
 20
-11.1702
  0
VERTEX
  8
LAYER_1
 62
   250
 10
177.8363
 20
-11.042
  0
VERTEX
  8
LAYER_1
 62
   250
 10
177.9265
 20
-10.9274
  0
VERTEX
  8
LAYER_1
 62
   250
 10
177.9458
 20
-10.8804
  0
VERTEX
  8
LAYER_1
 62
   250
 10
177.9436
 20
-10.8403
  0
VERTEX
  8
LAYER_1
 62
   250
 10
177.9172
 20
-10.8064
  0
VERTEX
  8
LAYER_1
 62
   250
 10
177.8634
 20
-10.7776
  0
VERTEX
  8
LAYER_1
 62
   250
 10
177.6621
 20
-10.7315
  0
VERTEX
  8
LAYER_1
 62
   250
 10
177.3158
 20
-10.6947
  0
VERTEX
  8
LAYER_1
 62
   250
 10
176.8143
 20
-10.6619
  0
VERTEX
  8
LAYER_1
 62
   250
 10
176.2015
 20
-10.6375
  0
VERTEX
  8
LAYER_1
 62
   250
 10
175.5345
 20
-10.6282
  0
VERTEX
  8
LAYER_1
 62
   250
 10
174.8705
 20
-10.6407
  0
VERTEX
  8
LAYER_1
 62
   250
 10
174.26
 20
-10.6789
  0
VERTEX
  8
LAYER_1
 62
   250
 10
173.7256
 20
-10.7358
  0
VERTEX
  8
LAYER_1
 62
   250
 10
173.283
 20
-10.8013
  0
VERTEX
  8
LAYER_1
 62
   250
 10
172.9478
 20
-10.8656
  0
VERTEX
  8
LAYER_1
 62
   250
 10
172.7304
 20
-10.9215
  0
VERTEX
  8
LAYER_1
 62
   250
 10
172.6189
 20
-10.9732
  0
VERTEX
  8
LAYER_1
 62
   250
 10
172.5974
 20
-10.9997
  0
VERTEX
  8
LAYER_1
 62
   250
 10
172.596
 20
-11.0276
  0
VERTEX
  8
LAYER_1
 62
   250
 10
172.6125
 20
-11.058
  0
VERTEX
  8
LAYER_1
 62
   250
 10
172.6446
 20
-11.0916
  0
VERTEX
  8
LAYER_1
 62
   250
 10
173.1308
 20
-11.4058
  0
VERTEX
  8
LAYER_1
 62
   250
 10
173.2973
 20
-11.5271
  0
VERTEX
  8
LAYER_1
 62
   250
 10
173.595
 20
-11.5403
  0
SEQEND
  8
LAYER_1
 62
   250
  0
POLYLINE
  8
LAYER_1
 62
   250
 66
     1
 70
     1
  0
VERTEX
  8
LAYER_1
 62
   250
 10
172.1685
 20
-10.0431
  0
VERTEX
  8
LAYER_1
 62
   250
 10
172.5332
 20
-10.0066
  0
VERTEX
  8
LAYER_1
 62
   250
 10
173.0181
 20
-9.9435
  0
VERTEX
  8
LAYER_1
 62
   250
 10
173.5949
 20
-9.8714
  0
VERTEX
  8
LAYER_1
 62
   250
 10
174.2355
 20
-9.8082
  0
VERTEX
  8
LAYER_1
 62
   250
 10
174.9128
 20
-9.7684
  0
VERTEX
  8
LAYER_1
 62
   250
 10
175.604
 20
-9.7542
  0
VERTEX
  8
LAYER_1
 62
   250
 10
176.2872
 20
-9.7648
  0
VERTEX
  8
LAYER_1
 62
   250
 10
176.9409
 20
-9.7994
  0
VERTEX
  8
LAYER_1
 62
   250
 10
177.5437
 20
-9.855
  0
VERTEX
  8
LAYER_1
 62
   250
 10
178.0759
 20
-9.9202
  0
VERTEX
  8
LAYER_1
 62
   250
 10
178.5179
 20
-9.9812
  0
VERTEX
  8
LAYER_1
 62
   250
 10
178.8503
 20
-10.0244
  0
VERTEX
  8
LAYER_1
 62
   250
 10
178.9704
 20
-10.0351
  0
VERTEX
  8
LAYER_1
 62
   250
 10
179.0619
 20
-10.0363
  0
VERTEX
  8
LAYER_1
 62
   250
 10
179.1284
 20
-10.0264
  0
VERTEX
  8
LAYER_1
 62
   250
 10
179.1736
 20
-10.0037
  0
VERTEX
  8
LAYER_1
 62
   250
 10
179.2011
 20
-9.9667
  0
VERTEX
  8
LAYER_1
 62
   250
 10
179.2146
 20
-9.9137
  0
VERTEX
  8
LAYER_1
 62
   250
 10
179.2177
 20
-9.8431
  0
VERTEX
  8
LAYER_1
 62
   250
 10
179.2141
 20
-9.7532
  0
VERTEX
  8
LAYER_1
 62
   250
 10
179.1955
 20
-9.5176
  0
VERTEX
  8
LAYER_1
 62
   250
 10
179.1596
 20
-9.2364
  0
VERTEX
  8
LAYER_1
 62
   250
 10
179.1013
 20
-8.9473
  0
VERTEX
  8
LAYER_1
 62
   250
 10
179.0157
 20
-8.6882
  0
VERTEX
  8
LAYER_1
 62
   250
 10
178.9611
 20
-8.5806
  0
VERTEX
  8
LAYER_1
 62
   250
 10
178.8979
 20
-8.4879
  0
VERTEX
  8
LAYER_1
 62
   250
 10
178.8252
 20
-8.4081
  0
VERTEX
  8
LAYER_1
 62
   250
 10
178.7426
 20
-8.3393
  0
VERTEX
  8
LAYER_1
 62
   250
 10
178.5448
 20
-8.2262
  0
VERTEX
  8
LAYER_1
 62
   250
 10
178.2992
 20
-8.1326
  0
VERTEX
  8
LAYER_1
 62
   250
 10
177.1195
 20
-7.8327
  0
VERTEX
  8
LAYER_1
 62
   250
 10
177.0098
 20
-7.8063
  0
VERTEX
  8
LAYER_1
 62
   250
 10
176.9162
 20
-7.7726
  0
VERTEX
  8
LAYER_1
 62
   250
 10
176.8374
 20
-7.7206
  0
VERTEX
  8
LAYER_1
 62
   250
 10
176.7717
 20
-7.6395
  0
VERTEX
  8
LAYER_1
 62
   250
 10
176.7178
 20
-7.5181
  0
VERTEX
  8
LAYER_1
 62
   250
 10
176.6743
 20
-7.3456
  0
VERTEX
  8
LAYER_1
 62
   250
 10
176.6396
 20
-7.1109
  0
VERTEX
  8
LAYER_1
 62
   250
 10
176.6124
 20
-6.803
  0
VERTEX
  8
LAYER_1
 62
   250
 10
176.5913
 20
-6.4163
  0
VERTEX
  8
LAYER_1
 62
   250
 10
176.5751
 20
-5.9664
  0
VERTEX
  8
LAYER_1
 62
   250
 10
176.5631
 20
-5.4741
  0
VERTEX
  8
LAYER_1
 62
   250
 10
176.554
 20
-4.9603
  0
VERTEX
  8
LAYER_1
 62
   250
 10
176.547
 20
-4.4459
  0
VERTEX
  8
LAYER_1
 62
   250
 10
176.5411
 20
-3.9517
  0
VERTEX
  8
LAYER_1
 62
   250
 10
176.5353
 20
-3.4986
  0
VERTEX
  8
LAYER_1
 62
   250
 10
176.5286
 20
-3.1076
  0
VERTEX
  8
LAYER_1
 62
   250
 10
176.5198
 20
-2.7943
  0
VERTEX
  8
LAYER_1
 62
   250
 10
176.5067
 20
-2.5534
  0
VERTEX
  8
LAYER_1
 62
   250
 10
176.4866
 20
-2.3745
  0
VERTEX
  8
LAYER_1
 62
   250
 10
176.457
 20
-2.2472
  0
VERTEX
  8
LAYER_1
 62
   250
 10
176.4155
 20
-2.161
  0
VERTEX
  8
LAYER_1
 62
   250
 10
176.3594
 20
-2.1055
  0
VERTEX
  8
LAYER_1
 62
   250
 10
176.2863
 20
-2.0702
  0
VERTEX
  8
LAYER_1
 62
   250
 10
176.1936
 20
-2.0448
  0
VERTEX
  8
LAYER_1
 62
   250
 10
175.9473
 20
-1.9971
  0
VERTEX
  8
LAYER_1
 62
   250
 10
175.6404
 20
-1.9556
  0
VERTEX
  8
LAYER_1
 62
   250
 10
175.3009
 20
-1.9289
  0
VERTEX
  8
LAYER_1
 62
   250
 10
174.9566
 20
-1.9258
  0
VERTEX
  8
LAYER_1
 62
   250
 10
174.6326
 20
-1.9518
  0
VERTEX
  8
LAYER_1
 62
   250
 10
174.342
 20
-1.9999
  0
VERTEX
  8
LAYER_1
 62
   250
 10
174.0953
 20
-2.0601
  0
VERTEX
  8
LAYER_1
 62
   250
 10
173.9027
 20
-2.122
  0
VERTEX
  8
LAYER_1
 62
   250
 10
173.8294
 20
-2.1523
  0
VERTEX
  8
LAYER_1
 62
   250
 10
173.7702
 20
-2.1903
  0
VERTEX
  8
LAYER_1
 62
   250
 10
173.7232
 20
-2.2453
  0
VERTEX
  8
LAYER_1
 62
   250
 10
173.6863
 20
-2.3273
  0
VERTEX
  8
LAYER_1
 62
   250
 10
173.6576
 20
-2.4456
  0
VERTEX
  8
LAYER_1
 62
   250
 10
173.6351
 20
-2.61
  0
VERTEX
  8
LAYER_1
 62
   250
 10
173.6167
 20
-2.83
  0
VERTEX
  8
LAYER_1
 62
   250
 10
173.6006
 20
-3.1154
  0
VERTEX
  8
LAYER_1
 62
   250
 10
173.5146
 20
-6.4844
  0
VERTEX
  8
LAYER_1
 62
   250
 10
173.5192
 20
-6.9893
  0
VERTEX
  8
LAYER_1
 62
   250
 10
173.545
 20
-7.2681
  0
VERTEX
  8
LAYER_1
 62
   250
 10
173.5684
 20
-7.3458
  0
VERTEX
  8
LAYER_1
 62
   250
 10
173.6
 20
-7.3947
  0
VERTEX
  8
LAYER_1
 62
   250
 10
173.6408
 20
-7.4238
  0
VERTEX
  8
LAYER_1
 62
   250
 10
173.692
 20
-7.4425
  0
VERTEX
  8
LAYER_1
 62
   250
 10
174.3281
 20
-7.5593
  0
VERTEX
  8
LAYER_1
 62
   250
 10
174.4772
 20
-7.5927
  0
VERTEX
  8
LAYER_1
 62
   250
 10
174.6013
 20
-7.6297
  0
VERTEX
  8
LAYER_1
 62
   250
 10
174.6968
 20
-7.6698
  0
VERTEX
  8
LAYER_1
 62
   250
 10
174.7603
 20
-7.7125
  0
VERTEX
  8
LAYER_1
 62
   250
 10
174.7884
 20
-7.7573
  0
VERTEX
  8
LAYER_1
 62
   250
 10
174.7786
 20
-7.8039
  0
VERTEX
  8
LAYER_1
 62
   250
 10
174.7285
 20
-7.8519
  0
VERTEX
  8
LAYER_1
 62
   250
 10
174.6357
 20
-7.901
  0
VERTEX
  8
LAYER_1
 62
   250
 10
173.7538
 20
-8.1072
  0
VERTEX
  8
LAYER_1
 62
   250
 10
173.3855
 20
-8.1618
  0
VERTEX
  8
LAYER_1
 62
   250
 10
172.9924
 20
-8.219
  0
VERTEX
  8
LAYER_1
 62
   250
 10
172.6182
 20
-8.28
  0
VERTEX
  8
LAYER_1
 62
   250
 10
172.3063
 20
-8.3464
  0
VERTEX
  8
LAYER_1
 62
   250
 10
172.1859
 20
-8.382
  0
VERTEX
  8
LAYER_1
 62
   250
 10
172.089
 20
-8.4198
  0
VERTEX
  8
LAYER_1
 62
   250
 10
172.0126
 20
-8.4603
  0
VERTEX
  8
LAYER_1
 62
   250
 10
171.9538
 20
-8.5039
  0
VERTEX
  8
LAYER_1
 62
   250
 10
171.8769
 20
-8.6027
  0
VERTEX
  8
LAYER_1
 62
   250
 10
171.8345
 20
-8.7201
  0
VERTEX
  8
LAYER_1
 62
   250
 10
171.7705
 20
-9.3254
  0
VERTEX
  8
LAYER_1
 62
   250
 10
171.7749
 20
-9.8369
  0
VERTEX
  8
LAYER_1
 62
   250
 10
171.7763
 20
-9.8853
  0
VERTEX
  8
LAYER_1
 62
   250
 10
171.782
 20
-9.9291
  0
VERTEX
  8
LAYER_1
 62
   250
 10
171.7966
 20
-9.9674
  0
VERTEX
  8
LAYER_1
 62
   250
 10
171.8249
 20
-9.9991
  0
VERTEX
  8
LAYER_1
 62
   250
 10
171.8716
 20
-10.0235
  0
VERTEX
  8
LAYER_1
 62
   250
 10
171.9413
 20
-10.0396
  0
VERTEX
  8
LAYER_1
 62
   250
 10
172.0387
 20
-10.0464
  0
VERTEX
  8
LAYER_1
 62
   250
 10
172.1685
 20
-10.0431
  0
SEQEND
  8
LAYER_1
 62
   250
  0
POLYLINE
  8
LAYER_1
 62
   250
 66
     1
 70
     1
  0
VERTEX
  8
LAYER_1
 62
   250
 10
173.8981
 20
-0.9822
  0
VERTEX
  8
LAYER_1
 62
   250
 10
174.6831
 20
-0.7948
  0
VERTEX
  8
LAYER_1
 62
   250
 10
174.9399
 20
-0.7506
  0
VERTEX
  8
LAYER_1
 62
   250
 10
175.2046
 20
-0.7188
  0
VERTEX
  8
LAYER_1
 62
   250
 10
175.4676
 20
-0.7018
  0
VERTEX
  8
LAYER_1
 62
   250
 10
175.7194
 20
-0.7022
  0
VERTEX
  8
LAYER_1
 62
   250
 10
175.9517
 20
-0.7209
  0
VERTEX
  8
LAYER_1
 62
   250
 10
176.1604
 20
-0.7524
  0
VERTEX
  8
LAYER_1
 62
   250
 10
176.3426
 20
-0.7897
  0
VERTEX
  8
LAYER_1
 62
   250
 10
176.4955
 20
-0.8257
  0
VERTEX
  8
LAYER_1
 62
   250
 10
176.6194
 20
-0.8512
  0
VERTEX
  8
LAYER_1
 62
   250
 10
176.7276
 20
-0.8481
  0
VERTEX
  8
LAYER_1
 62
   250
 10
176.7809
 20
-0.8293
  0
VERTEX
  8
LAYER_1
 62
   250
 10
176.8365
 20
-0.7957
  0
VERTEX
  8
LAYER_1
 62
   250
 10
176.8965
 20
-0.7446
  0
VERTEX
  8
LAYER_1
 62
   250
 10
176.9629
 20
-0.6736
  0
VERTEX
  8
LAYER_1
 62
   250
 10
177.117
 20
-0.4718
  0
VERTEX
  8
LAYER_1
 62
   250
 10
177.2843
 20
-0.2216
  0
VERTEX
  8
LAYER_1
 62
   250
 10
177.4442
 20
0.0352
  0
VERTEX
  8
LAYER_1
 62
   250
 10
177.5759
 20
0.2568
  0
VERTEX
  8
LAYER_1
 62
   250
 10
177.6248
 20
0.3427
  0
VERTEX
  8
LAYER_1
 62
   250
 10
177.6589
 20
0.4119
  0
VERTEX
  8
LAYER_1
 62
   250
 10
177.6757
 20
0.4668
  0
VERTEX
  8
LAYER_1
 62
   250
 10
177.6726
 20
0.5099
  0
VERTEX
  8
LAYER_1
 62
   250
 10
177.6471
 20
0.5437
  0
VERTEX
  8
LAYER_1
 62
   250
 10
177.5967
 20
0.5707
  0
VERTEX
  8
LAYER_1
 62
   250
 10
177.5186
 20
0.5933
  0
VERTEX
  8
LAYER_1
 62
   250
 10
177.4105
 20
0.6141
  0
VERTEX
  8
LAYER_1
 62
   250
 10
177.1025
 20
0.6558
  0
VERTEX
  8
LAYER_1
 62
   250
 10
176.6959
 20
0.6949
  0
VERTEX
  8
LAYER_1
 62
   250
 10
176.2227
 20
0.7261
  0
VERTEX
  8
LAYER_1
 62
   250
 10
175.715
 20
0.7442
  0
VERTEX
  8
LAYER_1
 62
   250
 10
175.2021
 20
0.7454
  0
VERTEX
  8
LAYER_1
 62
   250
 10
174.7027
 20
0.7309
  0
VERTEX
  8
LAYER_1
 62
   250
 10
174.2325
 20
0.7032
  0
VERTEX
  8
LAYER_1
 62
   250
 10
173.8077
 20
0.6647
  0
VERTEX
  8
LAYER_1
 62
   250
 10
173.4424
 20
0.6178
  0
VERTEX
  8
LAYER_1
 62
   250
 10
173.1441
 20
0.5642
  0
VERTEX
  8
LAYER_1
 62
   250
 10
172.9185
 20
0.5051
  0
VERTEX
  8
LAYER_1
 62
   250
 10
172.7715
 20
0.4421
  0
VERTEX
  8
LAYER_1
 62
   250
 10
172.7288
 20
0.4094
  0
VERTEX
  8
LAYER_1
 62
   250
 10
172.705
 20
0.3755
  0
VERTEX
  8
LAYER_1
 62
   250
 10
172.698
 20
0.3397
  0
VERTEX
  8
LAYER_1
 62
   250
 10
172.7056
 20
0.3013
  0
VERTEX
  8
LAYER_1
 62
   250
 10
172.7563
 20
0.2142
  0
VERTEX
  8
LAYER_1
 62
   250
 10
172.8398
 20
0.1091
  0
VERTEX
  8
LAYER_1
 62
   250
 10
173.2741
 20
-0.4464
  0
VERTEX
  8
LAYER_1
 62
   250
 10
173.6093
 20
-0.8808
  0
VERTEX
  8
LAYER_1
 62
   250
 10
173.6647
 20
-0.9407
  0
VERTEX
  8
LAYER_1
 62
   250
 10
173.7215
 20
-0.9779
  0
VERTEX
  8
LAYER_1
 62
   250
 10
173.7944
 20
-0.9918
  0
VERTEX
  8
LAYER_1
 62
   250
 10
173.8981
 20
-0.9822
  0
SEQEND
  8
LAYER_1
 62
   250
  0
POLYLINE
  8
LAYER_1
 62
   250
 66
     1
 70
     1
  0
VERTEX
  8
LAYER_1
 62
   250
 10
172.2566
 20
1.3263
  0
VERTEX
  8
LAYER_1
 62
   250
 10
172.5761
 20
1.3695
  0
VERTEX
  8
LAYER_1
 62
   250
 10
172.991
 20
1.4305
  0
VERTEX
  8
LAYER_1
 62
   250
 10
173.4772
 20
1.4955
  0
VERTEX
  8
LAYER_1
 62
   250
 10
174.0106
 20
1.5511
  0
VERTEX
  8
LAYER_1
 62
   250
 10
174.5678
 20
1.5863
  0
VERTEX
  8
LAYER_1
 62
   250
 10
175.1277
 20
1.6013
  0
VERTEX
  8
LAYER_1
 62
   250
 10
175.6698
 20
1.5989
  0
VERTEX
  8
LAYER_1
 62
   250
 10
176.1736
 20
1.582
  0
VERTEX
  8
LAYER_1
 62
   250
 10
176.6218
 20
1.5537
  0
VERTEX
  8
LAYER_1
 62
   250
 10
177.0092
 20
1.5175
  0
VERTEX
  8
LAYER_1
 62
   250
 10
177.3338
 20
1.4772
  0
VERTEX
  8
LAYER_1
 62
   250
 10
177.5935
 20
1.4365
  0
VERTEX
  8
LAYER_1
 62
   250
 10
177.7897
 20
1.4032
  0
VERTEX
  8
LAYER_1
 62
   250
 10
177.938
 20
1.4018
  0
VERTEX
  8
LAYER_1
 62
   250
 10
178.0001
 20
1.4219
  0
VERTEX
  8
LAYER_1
 62
   250
 10
178.0573
 20
1.4607
  0
VERTEX
  8
LAYER_1
 62
   250
 10
178.1121
 20
1.5217
  0
VERTEX
  8
LAYER_1
 62
   250
 10
178.1667
 20
1.6085
  0
VERTEX
  8
LAYER_1
 62
   250
 10
178.2802
 20
1.8601
  0
VERTEX
  8
LAYER_1
 62
   250
 10
178.3911
 20
2.1759
  0
VERTEX
  8
LAYER_1
 62
   250
 10
178.488
 20
2.5029
  0
VERTEX
  8
LAYER_1
 62
   250
 10
178.5592
 20
2.788
  0
VERTEX
  8
LAYER_1
 62
   250
 10
178.5816
 20
2.8999
  0
VERTEX
  8
LAYER_1
 62
   250
 10
178.5932
 20
2.991
  0
VERTEX
  8
LAYER_1
 62
   250
 10
178.5926
 20
3.0646
  0
VERTEX
  8
LAYER_1
 62
   250
 10
178.5783
 20
3.1237
  0
VERTEX
  8
LAYER_1
 62
   250
 10
178.5487
 20
3.1715
  0
VERTEX
  8
LAYER_1
 62
   250
 10
178.5025
 20
3.2109
  0
VERTEX
  8
LAYER_1
 62
   250
 10
178.4382
 20
3.2453
  0
VERTEX
  8
LAYER_1
 62
   250
 10
178.3542
 20
3.2775
  0
VERTEX
  8
LAYER_1
 62
   250
 10
178.129
 20
3.3447
  0
VERTEX
  8
LAYER_1
 62
   250
 10
177.8523
 20
3.4195
  0
VERTEX
  8
LAYER_1
 62
   250
 10
177.557
 20
3.5055
  0
VERTEX
  8
LAYER_1
 62
   250
 10
177.276
 20
3.6061
  0
VERTEX
  8
LAYER_1
 62
   250
 10
177.1504
 20
3.663
  0
VERTEX
  8
LAYER_1
 62
   250
 10
177.0364
 20
3.7247
  0
VERTEX
  8
LAYER_1
 62
   250
 10
176.9338
 20
3.7916
  0
VERTEX
  8
LAYER_1
 62
   250
 10
176.8424
 20
3.8638
  0
VERTEX
  8
LAYER_1
 62
   250
 10
176.7621
 20
3.9417
  0
VERTEX
  8
LAYER_1
 62
   250
 10
176.6927
 20
4.0256
  0
VERTEX
  8
LAYER_1
 62
   250
 10
176.634
 20
4.1157
  0
VERTEX
  8
LAYER_1
 62
   250
 10
176.5858
 20
4.2124
  0
VERTEX
  8
LAYER_1
 62
   250
 10
176.5477
 20
4.317
  0
VERTEX
  8
LAYER_1
 62
   250
 10
176.5186
 20
4.4353
  0
VERTEX
  8
LAYER_1
 62
   250
 10
176.4969
 20
4.5741
  0
VERTEX
  8
LAYER_1
 62
   250
 10
176.4811
 20
4.7402
  0
VERTEX
  8
LAYER_1
 62
   250
 10
176.4619
 20
5.182
  0
VERTEX
  8
LAYER_1
 62
   250
 10
176.4492
 20
5.8153
  0
VERTEX
  8
LAYER_1
 62
   250
 10
176.4206
 20
9.374
  0
VERTEX
  8
LAYER_1
 62
   250
 10
176.4452
 20
9.9279
  0
VERTEX
  8
LAYER_1
 62
   250
 10
176.4898
 20
10.2766
  0
VERTEX
  8
LAYER_1
 62
   250
 10
176.5199
 20
10.3971
  0
VERTEX
  8
LAYER_1
 62
   250
 10
176.5555
 20
10.4942
  0
VERTEX
  8
LAYER_1
 62
   250
 10
176.5966
 20
10.5771
  0
VERTEX
  8
LAYER_1
 62
   250
 10
176.6433
 20
10.655
  0
VERTEX
  8
LAYER_1
 62
   250
 10
176.7495
 20
10.8183
  0
VERTEX
  8
LAYER_1
 62
   250
 10
176.8509
 20
10.9844
  0
VERTEX
  8
LAYER_1
 62
   250
 10
176.8911
 20
11.0638
  0
VERTEX
  8
LAYER_1
 62
   250
 10
176.9196
 20
11.1384
  0
VERTEX
  8
LAYER_1
 62
   250
 10
176.933
 20
11.2063
  0
VERTEX
  8
LAYER_1
 62
   250
 10
176.9278
 20
11.2657
  0
VERTEX
  8
LAYER_1
 62
   250
 10
176.9016
 20
11.3154
  0
VERTEX
  8
LAYER_1
 62
   250
 10
176.8567
 20
11.3561
  0
VERTEX
  8
LAYER_1
 62
   250
 10
176.7966
 20
11.3892
  0
VERTEX
  8
LAYER_1
 62
   250
 10
176.7247
 20
11.4162
  0
VERTEX
  8
LAYER_1
 62
   250
 10
176.5591
 20
11.4573
  0
VERTEX
  8
LAYER_1
 62
   250
 10
176.3876
 20
11.4906
  0
VERTEX
  8
LAYER_1
 62
   250
 10
176.2333
 20
11.5258
  0
VERTEX
  8
LAYER_1
 62
   250
 10
176.1024
 20
11.5673
  0
VERTEX
  8
LAYER_1
 62
   250
 10
175.9966
 20
11.6178
  0
VERTEX
  8
LAYER_1
 62
   250
 10
175.918
 20
11.6803
  0
VERTEX
  8
LAYER_1
 62
   250
 10
175.8897
 20
11.7167
  0
VERTEX
  8
LAYER_1
 62
   250
 10
175.8704
 20
11.7558
  0
VERTEX
  8
LAYER_1
 62
   250
 10
175.8622
 20
11.7966
  0
VERTEX
  8
LAYER_1
 62
   250
 10
175.8667
 20
11.838
  0
VERTEX
  8
LAYER_1
 62
   250
 10
175.8859
 20
11.8789
  0
VERTEX
  8
LAYER_1
 62
   250
 10
175.9216
 20
11.9184
  0
VERTEX
  8
LAYER_1
 62
   250
 10
175.9758
 20
11.9555
  0
VERTEX
  8
LAYER_1
 62
   250
 10
176.0502
 20
11.989
  0
VERTEX
  8
LAYER_1
 62
   250
 10
176.2575
 20
12.0434
  0
VERTEX
  8
LAYER_1
 62
   250
 10
176.51
 20
12.0835
  0
VERTEX
  8
LAYER_1
 62
   250
 10
176.764
 20
12.1133
  0
VERTEX
  8
LAYER_1
 62
   250
 10
176.9763
 20
12.1366
  0
VERTEX
  8
LAYER_1
 62
   250
 10
177.0542
 20
12.1498
  0
VERTEX
  8
LAYER_1
 62
   250
 10
177.1111
 20
12.1791
  0
VERTEX
  8
LAYER_1
 62
   250
 10
177.1474
 20
12.241
  0
VERTEX
  8
LAYER_1
 62
   250
 10
177.1634
 20
12.3522
  0
VERTEX
  8
LAYER_1
 62
   250
 10
177.136
 20
12.7891
  0
VERTEX
  8
LAYER_1
 62
   250
 10
177.0314
 20
13.6228
  0
VERTEX
  8
LAYER_1
 62
   250
 10
176.9515
 20
14.2244
  0
VERTEX
  8
LAYER_1
 62
   250
 10
176.8563
 20
14.9407
  0
VERTEX
  8
LAYER_1
 62
   250
 10
176.749
 20
15.7542
  0
VERTEX
  8
LAYER_1
 62
   250
 10
176.6329
 20
16.6471
  0
VERTEX
  8
LAYER_1
 62
   250
 10
176.5111
 20
17.6017
  0
VERTEX
  8
LAYER_1
 62
   250
 10
176.3871
 20
18.6002
  0
VERTEX
  8
LAYER_1
 62
   250
 10
176.2639
 20
19.6251
  0
VERTEX
  8
LAYER_1
 62
   250
 10
176.145
 20
20.6586
  0
VERTEX
  8
LAYER_1
 62
   250
 10
176.033
 20
21.6836
  0
VERTEX
  8
LAYER_1
 62
   250
 10
175.9287
 20
22.6856
  0
VERTEX
  8
LAYER_1
 62
   250
 10
175.8322
 20
23.6504
  0
VERTEX
  8
LAYER_1
 62
   250
 10
175.7438
 20
24.5641
  0
VERTEX
  8
LAYER_1
 62
   250
 10
175.6636
 20
25.4126
  0
VERTEX
  8
LAYER_1
 62
   250
 10
175.5919
 20
26.1821
  0
VERTEX
  8
LAYER_1
 62
   250
 10
175.5289
 20
26.8584
  0
VERTEX
  8
LAYER_1
 62
   250
 10
175.4748
 20
27.4276
  0
VERTEX
  8
LAYER_1
 62
   250
 10
175.4293
 20
27.8772
  0
VERTEX
  8
LAYER_1
 62
   250
 10
175.3901
 20
28.2005
  0
VERTEX
  8
LAYER_1
 62
   250
 10
175.3544
 20
28.3922
  0
VERTEX
  8
LAYER_1
 62
   250
 10
175.3194
 20
28.4474
  0
VERTEX
  8
LAYER_1
 62
   250
 10
175.2823
 20
28.3607
  0
VERTEX
  8
LAYER_1
 62
   250
 10
175.2404
 20
28.1271
  0
VERTEX
  8
LAYER_1
 62
   250
 10
175.1909
 20
27.7414
  0
VERTEX
  8
LAYER_1
 62
   250
 10
175.1309
 20
27.1983
  0
VERTEX
  8
LAYER_1
 62
   250
 10
175.0583
 20
26.4983
  0
VERTEX
  8
LAYER_1
 62
   250
 10
174.9736
 20
25.6633
  0
VERTEX
  8
LAYER_1
 62
   250
 10
174.8778
 20
24.7211
  0
VERTEX
  8
LAYER_1
 62
   250
 10
174.7721
 20
23.6992
  0
VERTEX
  8
LAYER_1
 62
   250
 10
174.6574
 20
22.6252
  0
VERTEX
  8
LAYER_1
 62
   250
 10
174.535
 20
21.5267
  0
VERTEX
  8
LAYER_1
 62
   250
 10
174.4058
 20
20.4313
  0
VERTEX
  8
LAYER_1
 62
   250
 10
174.271
 20
19.3666
  0
VERTEX
  8
LAYER_1
 62
   250
 10
174.132
 20
18.3564
  0
VERTEX
  8
LAYER_1
 62
   250
 10
173.992
 20
17.4096
  0
VERTEX
  8
LAYER_1
 62
   250
 10
173.8542
 20
16.5311
  0
VERTEX
  8
LAYER_1
 62
   250
 10
173.7222
 20
15.7261
  0
VERTEX
  8
LAYER_1
 62
   250
 10
173.5994
 20
14.9995
  0
VERTEX
  8
LAYER_1
 62
   250
 10
173.4893
 20
14.3563
  0
VERTEX
  8
LAYER_1
 62
   250
 10
173.3952
 20
13.8017
  0
VERTEX
  8
LAYER_1
 62
   250
 10
173.3206
 20
13.3407
  0
VERTEX
  8
LAYER_1
 62
   250
 10
173.2682
 20
12.9754
  0
VERTEX
  8
LAYER_1
 62
   250
 10
173.2377
 20
12.6966
  0
VERTEX
  8
LAYER_1
 62
   250
 10
173.2278
 20
12.4921
  0
VERTEX
  8
LAYER_1
 62
   250
 10
173.2374
 20
12.3499
  0
VERTEX
  8
LAYER_1
 62
   250
 10
173.2654
 20
12.2578
  0
VERTEX
  8
LAYER_1
 62
   250
 10
173.3107
 20
12.2037
  0
VERTEX
  8
LAYER_1
 62
   250
 10
173.3721
 20
12.1755
  0
VERTEX
  8
LAYER_1
 62
   250
 10
173.4485
 20
12.1611
  0
VERTEX
  8
LAYER_1
 62
   250
 10
173.6387
 20
12.1401
  0
VERTEX
  8
LAYER_1
 62
   250
 10
173.8567
 20
12.1187
  0
VERTEX
  8
LAYER_1
 62
   250
 10
174.0752
 20
12.0898
  0
VERTEX
  8
LAYER_1
 62
   250
 10
174.2666
 20
12.0464
  0
VERTEX
  8
LAYER_1
 62
   250
 10
174.4082
 20
11.9843
  0
VERTEX
  8
LAYER_1
 62
   250
 10
174.4962
 20
11.91
  0
VERTEX
  8
LAYER_1
 62
   250
 10
174.5204
 20
11.8712
  0
VERTEX
  8
LAYER_1
 62
   250
 10
174.5317
 20
11.8328
  0
VERTEX
  8
LAYER_1
 62
   250
 10
174.53
 20
11.796
  0
VERTEX
  8
LAYER_1
 62
   250
 10
174.5157
 20
11.762
  0
VERTEX
  8
LAYER_1
 62
   250
 10
174.4508
 20
11.705
  0
VERTEX
  8
LAYER_1
 62
   250
 10
174.3456
 20
11.6617
  0
VERTEX
  8
LAYER_1
 62
   250
 10
174.2102
 20
11.6299
  0
VERTEX
  8
LAYER_1
 62
   250
 10
174.0548
 20
11.6076
  0
VERTEX
  8
LAYER_1
 62
   250
 10
173.4595
 20
11.5371
  0
VERTEX
  8
LAYER_1
 62
   250
 10
173.4132
 20
11.5195
  0
VERTEX
  8
LAYER_1
 62
   250
 10
173.3771
 20
11.4978
  0
VERTEX
  8
LAYER_1
 62
   250
 10
173.3514
 20
11.4714
  0
VERTEX
  8
LAYER_1
 62
   250
 10
173.3363
 20
11.4396
  0
VERTEX
  8
LAYER_1
 62
   250
 10
173.3389
 20
11.3573
  0
VERTEX
  8
LAYER_1
 62
   250
 10
173.3868
 20
11.2461
  0
VERTEX
  8
LAYER_1
 62
   250
 10
173.8211
 20
10.6485
  0
VERTEX
  8
LAYER_1
 62
   250
 10
173.8611
 20
10.5884
  0
VERTEX
  8
LAYER_1
 62
   250
 10
173.8921
 20
10.5273
  0
VERTEX
  8
LAYER_1
 62
   250
 10
173.9145
 20
10.4554
  0
VERTEX
  8
LAYER_1
 62
   250
 10
173.9289
 20
10.3633
  0
VERTEX
  8
LAYER_1
 62
   250
 10
173.9356
 20
10.0789
  0
VERTEX
  8
LAYER_1
 62
   250
 10
173.916
 20
9.5968
  0
VERTEX
  8
LAYER_1
 62
   250
 10
173.7309
 20
6.4328
  0
VERTEX
  8
LAYER_1
 62
   250
 10
173.7121
 20
5.9488
  0
VERTEX
  8
LAYER_1
 62
   250
 10
173.724
 20
5.6631
  0
VERTEX
  8
LAYER_1
 62
   250
 10
173.7442
 20
5.5707
  0
VERTEX
  8
LAYER_1
 62
   250
 10
173.7753
 20
5.4992
  0
VERTEX
  8
LAYER_1
 62
   250
 10
173.8182
 20
5.4392
  0
VERTEX
  8
LAYER_1
 62
   250
 10
173.8742
 20
5.3811
  0
VERTEX
  8
LAYER_1
 62
   250
 10
174.5687
 20
4.7791
  0
VERTEX
  8
LAYER_1
 62
   250
 10
174.7054
 20
4.6388
  0
VERTEX
  8
LAYER_1
 62
   250
 10
174.8003
 20
4.5165
  0
VERTEX
  8
LAYER_1
 62
   250
 10
174.8522
 20
4.4136
  0
VERTEX
  8
LAYER_1
 62
   250
 10
174.8598
 20
4.3315
  0
VERTEX
  8
LAYER_1
 62
   250
 10
174.8239
 20
4.2708
  0
VERTEX
  8
LAYER_1
 62
   250
 10
174.7526
 20
4.2282
  0
VERTEX
  8
LAYER_1
 62
   250
 10
174.656
 20
4.1992
  0
VERTEX
  8
LAYER_1
 62
   250
 10
174.5444
 20
4.1794
  0
VERTEX
  8
LAYER_1
 62
   250
 10
174.4277
 20
4.1638
  0
VERTEX
  8
LAYER_1
 62
   250
 10
174.3152
 20
4.1441
  0
VERTEX
  8
LAYER_1
 62
   250
 10
174.2158
 20
4.1112
  0
VERTEX
  8
LAYER_1
 62
   250
 10
174.1388
 20
4.0559
  0
VERTEX
  8
LAYER_1
 62
   250
 10
174.0903
 20
3.9728
  0
VERTEX
  8
LAYER_1
 62
   250
 10
174.0647
 20
3.8705
  0
VERTEX
  8
LAYER_1
 62
   250
 10
174.0535
 20
3.7611
  0
VERTEX
  8
LAYER_1
 62
   250
 10
174.0484
 20
3.6569
  0
VERTEX
  8
LAYER_1
 62
   250
 10
174.0372
 20
3.5671
  0
VERTEX
  8
LAYER_1
 62
   250
 10
173.9933
 20
3.4889
  0
VERTEX
  8
LAYER_1
 62
   250
 10
173.8865
 20
3.4167
  0
VERTEX
  8
LAYER_1
 62
   250
 10
173.6867
 20
3.3449
  0
VERTEX
  8
LAYER_1
 62
   250
 10
172.2877
 20
3.0517
  0
VERTEX
  8
LAYER_1
 62
   250
 10
172.0471
 20
2.9945
  0
VERTEX
  8
LAYER_1
 62
   250
 10
171.8912
 20
2.9433
  0
VERTEX
  8
LAYER_1
 62
   250
 10
171.7985
 20
2.8931
  0
VERTEX
  8
LAYER_1
 62
   250
 10
171.7476
 20
2.8389
  0
VERTEX
  8
LAYER_1
 62
   250
 10
171.72
 20
2.7746
  0
VERTEX
  8
LAYER_1
 62
   250
 10
171.7094
 20
2.6897
  0
VERTEX
  8
LAYER_1
 62
   250
 10
171.7127
 20
2.5727
  0
VERTEX
  8
LAYER_1
 62
   250
 10
171.7266
 20
2.4122
  0
VERTEX
  8
LAYER_1
 62
   250
 10
171.8335
 20
1.5502
  0
VERTEX
  8
LAYER_1
 62
   250
 10
171.8483
 20
1.476
  0
VERTEX
  8
LAYER_1
 62
   250
 10
171.8665
 20
1.4171
  0
VERTEX
  8
LAYER_1
 62
   250
 10
171.8916
 20
1.3725
  0
VERTEX
  8
LAYER_1
 62
   250
 10
171.9277
 20
1.3411
  0
VERTEX
  8
LAYER_1
 62
   250
 10
171.9784
 20
1.3218
  0
VERTEX
  8
LAYER_1
 62
   250
 10
172.0476
 20
1.3137
  0
VERTEX
  8
LAYER_1
 62
   250
 10
172.1391
 20
1.3155
  0
VERTEX
  8
LAYER_1
 62
   250
 10
172.2566
 20
1.3263
  0
SEQEND
  8
LAYER_1
 62
   250
  0
POLYLINE
  8
LAYER_1
 62
   250
 66
     1
 70
     1
  0
VERTEX
  8
LAYER_1
 62
   250
 10
217.8811
 20
-83.2201
  0
VERTEX
  8
LAYER_1
 62
   250
 10
231.6663
 20
-81.8304
  0
VERTEX
  8
LAYER_1
 62
   250
 10
244.506
 20
-77.8448
  0
VERTEX
  8
LAYER_1
 62
   250
 10
256.1249
 20
-71.5382
  0
VERTEX
  8
LAYER_1
 62
   250
 10
266.2481
 20
-63.1858
  0
VERTEX
  8
LAYER_1
 62
   250
 10
274.6005
 20
-53.0626
  0
VERTEX
  8
LAYER_1
 62
   250
 10
280.9071
 20
-41.4437
  0
VERTEX
  8
LAYER_1
 62
   250
 10
284.8927
 20
-28.604
  0
VERTEX
  8
LAYER_1
 62
   250
 10
286.2824
 20
-14.8188
  0
VERTEX
  8
LAYER_1
 62
   250
 10
284.8927
 20
-1.0336
  0
VERTEX
  8
LAYER_1
 62
   250
 10
280.9071
 20
11.8061
  0
VERTEX
  8
LAYER_1
 62
   250
 10
274.6005
 20
23.425
  0
VERTEX
  8
LAYER_1
 62
   250
 10
266.2481
 20
33.5482
  0
VERTEX
  8
LAYER_1
 62
   250
 10
256.1249
 20
41.9006
  0
VERTEX
  8
LAYER_1
 62
   250
 10
244.506
 20
48.2072
  0
VERTEX
  8
LAYER_1
 62
   250
 10
231.6663
 20
52.1928
  0
VERTEX
  8
LAYER_1
 62
   250
 10
217.8811
 20
53.5825
  0
VERTEX
  8
LAYER_1
 62
   250
 10
204.0959
 20
52.1928
  0
VERTEX
  8
LAYER_1
 62
   250
 10
191.2562
 20
48.2072
  0
VERTEX
  8
LAYER_1
 62
   250
 10
179.6373
 20
41.9006
  0
VERTEX
  8
LAYER_1
 62
   250
 10
169.5141
 20
33.5482
  0
VERTEX
  8
LAYER_1
 62
   250
 10
161.1617
 20
23.425
  0
VERTEX
  8
LAYER_1
 62
   250
 10
154.8551
 20
11.8061
  0
VERTEX
  8
LAYER_1
 62
   250
 10
150.8695
 20
-1.0336
  0
VERTEX
  8
LAYER_1
 62
   250
 10
149.4798
 20
-14.8188
  0
VERTEX
  8
LAYER_1
 62
   250
 10
150.8695
 20
-28.604
  0
VERTEX
  8
LAYER_1
 62
   250
 10
154.8551
 20
-41.4437
  0
VERTEX
  8
LAYER_1
 62
   250
 10
161.1617
 20
-53.0626
  0
VERTEX
  8
LAYER_1
 62
   250
 10
169.5141
 20
-63.1858
  0
VERTEX
  8
LAYER_1
 62
   250
 10
179.6373
 20
-71.5382
  0
VERTEX
  8
LAYER_1
 62
   250
 10
191.2562
 20
-77.8448
  0
VERTEX
  8
LAYER_1
 62
   250
 10
204.0959
 20
-81.8304
  0
VERTEX
  8
LAYER_1
 62
   250
 10
217.8811
 20
-83.2201
  0
SEQEND
  8
LAYER_1
 62
   250
  0
ENDSEC
  0
EOF
